  0
SECTION
  2
HEADER
  9
$ACADVER
  1
AC1024
  9
$ACADMAINTVER
 70
     6
  9
$DWGCODEPAGE
  3
ANSI_1252
  9
$LASTSAVEDBY
  1
bje500
  9
$INSBASE
 10
0.0
 20
0.0
 30
0.0
  9
$EXTMIN
 10
502890.9055715364
 20
481074.04
 30
0.0
  9
$EXTMAX
 10
502892.5126979371
 20
481075.4737926595
 30
0.0
  9
$LIMMIN
 10
0.0
 20
0.0
  9
$LIMMAX
 10
12.0
 20
9.0
  9
$ORTHOMODE
 70
     0
  9
$REGENMODE
 70
     1
  9
$FILLMODE
 70
     1
  9
$QTEXTMODE
 70
     0
  9
$MIRRTEXT
 70
     1
  9
$LTSCALE
 40
1.0
  9
$ATTMODE
 70
     1
  9
$TEXTSIZE
 40
0.05
  9
$TRACEWID
 40
0.05
  9
$TEXTSTYLE
  7
STANDARD
  9
$CLAYER
  8
Title
  9
$CELTYPE
  6
ByLayer
  9
$CECOLOR
 62
     1
  9
$CELTSCALE
 40
1.0
  9
$DISPSILH
 70
     0
  9
$DIMSCALE
 40
1.0
  9
$DIMASZ
 40
0.18
  9
$DIMEXO
 40
0.0625
  9
$DIMDLI
 40
0.38
  9
$DIMRND
 40
0.0
  9
$DIMDLE
 40
0.0
  9
$DIMEXE
 40
0.18
  9
$DIMTP
 40
0.0
  9
$DIMTM
 40
0.0
  9
$DIMTXT
 40
0.18
  9
$DIMCEN
 40
0.09
  9
$DIMTSZ
 40
0.0
  9
$DIMTOL
 70
     0
  9
$DIMLIM
 70
     0
  9
$DIMTIH
 70
     1
  9
$DIMTOH
 70
     1
  9
$DIMSE1
 70
     0
  9
$DIMSE2
 70
     0
  9
$DIMTAD
 70
     0
  9
$DIMZIN
 70
     0
  9
$DIMBLK
  1

  9
$DIMASO
 70
     1
  9
$DIMSHO
 70
     1
  9
$DIMPOST
  1

  9
$DIMAPOST
  1

  9
$DIMALT
 70
     0
  9
$DIMALTD
 70
     2
  9
$DIMALTF
 40
25.4
  9
$DIMLFAC
 40
1.0
  9
$DIMTOFL
 70
     0
  9
$DIMTVP
 40
0.0
  9
$DIMTIX
 70
     0
  9
$DIMSOXD
 70
     0
  9
$DIMSAH
 70
     0
  9
$DIMBLK1
  1

  9
$DIMBLK2
  1

  9
$DIMSTYLE
  2
STANDARD
  9
$DIMCLRD
 70
     0
  9
$DIMCLRE
 70
     0
  9
$DIMCLRT
 70
     0
  9
$DIMTFAC
 40
1.0
  9
$DIMGAP
 40
0.09
  9
$DIMJUST
 70
     0
  9
$DIMSD1
 70
     0
  9
$DIMSD2
 70
     0
  9
$DIMTOLJ
 70
     1
  9
$DIMTZIN
 70
     0
  9
$DIMALTZ
 70
     0
  9
$DIMALTTZ
 70
     0
  9
$DIMUPT
 70
     0
  9
$DIMDEC
 70
     4
  9
$DIMTDEC
 70
     4
  9
$DIMALTU
 70
     2
  9
$DIMALTTD
 70
     2
  9
$DIMTXSTY
  7
STANDARD
  9
$DIMAUNIT
 70
     0
  9
$DIMADEC
 70
     0
  9
$DIMALTRND
 40
0.0
  9
$DIMAZIN
 70
     0
  9
$DIMDSEP
 70
    46
  9
$DIMATFIT
 70
     3
  9
$DIMFRAC
 70
     0
  9
$DIMLDRBLK
  1

  9
$DIMLUNIT
 70
     2
  9
$DIMLWD
 70
    -2
  9
$DIMLWE
 70
    -2
  9
$DIMTMOVE
 70
     2
  9
$DIMFXL
 40
1.0
  9
$DIMFXLON
 70
     0
  9
$DIMJOGANG
 40
0.7853981633974483
  9
$DIMTFILL
 70
     0
  9
$DIMTFILLCLR
 70
     0
  9
$DIMARCSYM
 70
     0
  9
$DIMLTYPE
  6

  9
$DIMLTEX1
  6

  9
$DIMLTEX2
  6

  9
$DIMTXTDIRECTION
 70
     0
  9
$LUNITS
 70
     2
  9
$LUPREC
 70
     4
  9
$SKETCHINC
 40
0.1
  9
$FILLETRAD
 40
0.5
  9
$AUNITS
 70
     0
  9
$AUPREC
 70
     0
  9
$MENU
  1
.
  9
$ELEVATION
 40
0.0
  9
$PELEVATION
 40
0.0
  9
$THICKNESS
 40
0.0
  9
$LIMCHECK
 70
     0
  9
$CHAMFERA
 40
0.5
  9
$CHAMFERB
 40
0.5
  9
$CHAMFERC
 40
0.0
  9
$CHAMFERD
 40
0.0
  9
$SKPOLY
 70
     0
  9
$TDCREATE
 40
2456393.451179005
  9
$TDUCREATE
 40
2456393.409512338
  9
$TDUPDATE
 40
2456561.428173055
  9
$TDUUPDATE
 40
2456561.386506389
  9
$TDINDWG
 40
0.0244160648
  9
$TDUSRTIMER
 40
0.0244160648
  9
$USRTIMER
 70
     1
  9
$ANGBASE
 50
0.0
  9
$ANGDIR
 70
     0
  9
$PDMODE
 70
    34
  9
$PDSIZE
 40
0.1
  9
$PLINEWID
 40
0.0
  9
$SPLFRAME
 70
     0
  9
$SPLINETYPE
 70
     6
  9
$SPLINESEGS
 70
     8
  9
$HANDSEED
  5
6F8
  9
$SURFTAB1
 70
     6
  9
$SURFTAB2
 70
     6
  9
$SURFTYPE
 70
     6
  9
$SURFU
 70
     6
  9
$SURFV
 70
     6
  9
$UCSBASE
  2

  9
$UCSNAME
  2

  9
$UCSORG
 10
0.0
 20
0.0
 30
0.0
  9
$UCSXDIR
 10
1.0
 20
0.0
 30
0.0
  9
$UCSYDIR
 10
0.0
 20
1.0
 30
0.0
  9
$UCSORTHOREF
  2

  9
$UCSORTHOVIEW
 70
     0
  9
$UCSORGTOP
 10
0.0
 20
0.0
 30
0.0
  9
$UCSORGBOTTOM
 10
0.0
 20
0.0
 30
0.0
  9
$UCSORGLEFT
 10
0.0
 20
0.0
 30
0.0
  9
$UCSORGRIGHT
 10
0.0
 20
0.0
 30
0.0
  9
$UCSORGFRONT
 10
0.0
 20
0.0
 30
0.0
  9
$UCSORGBACK
 10
0.0
 20
0.0
 30
0.0
  9
$PUCSBASE
  2

  9
$PUCSNAME
  2

  9
$PUCSORG
 10
0.0
 20
0.0
 30
0.0
  9
$PUCSXDIR
 10
1.0
 20
0.0
 30
0.0
  9
$PUCSYDIR
 10
0.0
 20
1.0
 30
0.0
  9
$PUCSORTHOREF
  2

  9
$PUCSORTHOVIEW
 70
     0
  9
$PUCSORGTOP
 10
0.0
 20
0.0
 30
0.0
  9
$PUCSORGBOTTOM
 10
0.0
 20
0.0
 30
0.0
  9
$PUCSORGLEFT
 10
0.0
 20
0.0
 30
0.0
  9
$PUCSORGRIGHT
 10
0.0
 20
0.0
 30
0.0
  9
$PUCSORGFRONT
 10
0.0
 20
0.0
 30
0.0
  9
$PUCSORGBACK
 10
0.0
 20
0.0
 30
0.0
  9
$USERI1
 70
     0
  9
$USERI2
 70
     0
  9
$USERI3
 70
     0
  9
$USERI4
 70
     0
  9
$USERI5
 70
     0
  9
$USERR1
 40
0.0
  9
$USERR2
 40
0.0
  9
$USERR3
 40
0.0
  9
$USERR4
 40
0.0
  9
$USERR5
 40
0.0
  9
$WORLDVIEW
 70
     0
  9
$SHADEDGE
 70
     3
  9
$SHADEDIF
 70
    70
  9
$TILEMODE
 70
     1
  9
$MAXACTVP
 70
    64
  9
$PINSBASE
 10
0.0
 20
0.0
 30
0.0
  9
$PLIMCHECK
 70
     0
  9
$PEXTMIN
 10
1.000000000000000E+20
 20
1.000000000000000E+20
 30
1.000000000000000E+20
  9
$PEXTMAX
 10
-1.000000000000000E+20
 20
-1.000000000000000E+20
 30
-1.000000000000000E+20
  9
$PLIMMIN
 10
0.0
 20
0.0
  9
$PLIMMAX
 10
12.0
 20
9.0
  9
$UNITMODE
 70
     0
  9
$VISRETAIN
 70
     1
  9
$PLINEGEN
 70
     0
  9
$PSLTSCALE
 70
     1
  9
$TREEDEPTH
 70
  3020
  9
$CMLSTYLE
  2
Standard
  9
$CMLJUST
 70
     0
  9
$CMLSCALE
 40
1.0
  9
$PROXYGRAPHICS
 70
     1
  9
$MEASUREMENT
 70
     0
  9
$CELWEIGHT
370
    -1
  9
$ENDCAPS
280
     0
  9
$JOINSTYLE
280
     0
  9
$LWDISPLAY
290
     0
  9
$INSUNITS
 70
     0
  9
$HYPERLINKBASE
  1

  9
$STYLESHEET
  1

  9
$XEDIT
290
     1
  9
$CEPSNTYPE
380
     0
  9
$PSTYLEMODE
290
     1
  9
$FINGERPRINTGUID
  2
{2B689908-1C3B-4EC9-AE42-DA261F971283}
  9
$VERSIONGUID
  2
{FCC1DE72-35F7-4772-8B2B-B1347C932792}
  9
$EXTNAMES
290
     1
  9
$PSVPSCALE
 40
0.0
  9
$OLESTARTUP
290
     0
  9
$SORTENTS
280
   127
  9
$INDEXCTL
280
     0
  9
$HIDETEXT
280
     1
  9
$XCLIPFRAME
280
     2
  9
$HALOGAP
280
     0
  9
$OBSCOLOR
 70
   257
  9
$OBSLTYPE
280
     0
  9
$INTERSECTIONDISPLAY
280
     0
  9
$INTERSECTIONCOLOR
 70
   257
  9
$DIMASSOC
280
     2
  9
$PROJECTNAME
  1

  9
$CAMERADISPLAY
290
     0
  9
$LENSLENGTH
 40
50.0
  9
$CAMERAHEIGHT
 40
0.0
  9
$STEPSPERSEC
 40
2.0
  9
$STEPSIZE
 40
6.0
  9
$3DDWFPREC
 40
2.0
  9
$PSOLWIDTH
 40
0.25
  9
$PSOLHEIGHT
 40
4.0
  9
$LOFTANG1
 40
1.570796326794897
  9
$LOFTANG2
 40
1.570796326794897
  9
$LOFTMAG1
 40
0.0
  9
$LOFTMAG2
 40
0.0
  9
$LOFTPARAM
 70
     7
  9
$LOFTNORMALS
280
     1
  9
$LATITUDE
 40
37.795
  9
$LONGITUDE
 40
-122.394
  9
$NORTHDIRECTION
 40
0.0
  9
$TIMEZONE
 70
 -8000
  9
$LIGHTGLYPHDISPLAY
280
     1
  9
$TILEMODELIGHTSYNCH
280
     1
  9
$SOLIDHIST
280
     1
  9
$SHOWHIST
280
     1
  9
$DWFFRAME
280
     2
  9
$DGNFRAME
280
     2
  9
$REALWORLDSCALE
290
     1
  9
$INTERFERECOLOR
 62
   256
  9
$CSHADOW
280
     0
  9
$SHADOWPLANELOCATION
 40
0.0
  0
ENDSEC
  0
SECTION
  2
CLASSES
  0
CLASS
  1
ACDBDICTIONARYWDFLT
  2
AcDbDictionaryWithDefault
  3
ObjectDBX Classes
 90
        0
 91
        4
280
     0
281
     0
  0
CLASS
  1
MATERIAL
  2
AcDbMaterial
  3
ObjectDBX Classes
 90
     1153
 91
        4
280
     0
281
     0
  0
CLASS
  1
VISUALSTYLE
  2
AcDbVisualStyle
  3
ObjectDBX Classes
 90
     4095
 91
        4
280
     0
281
     0
  0
CLASS
  1
SCALE
  2
AcDbScale
  3
ObjectDBX Classes
 90
     1153
 91
        4
280
     0
281
     0
  0
CLASS
  1
TABLESTYLE
  2
AcDbTableStyle
  3
ObjectDBX Classes
 90
     4095
 91
        4
280
     0
281
     0
  0
CLASS
  1
MLEADERSTYLE
  2
AcDbMLeaderStyle
  3
ACDB_MLEADERSTYLE_CLASS
 90
     4095
 91
        4
280
     0
281
     0
  0
CLASS
  1
ACDBSECTIONVIEWSTYLE
  2
AcDbSectionViewStyle
  3
ObjectDBX Classes
 90
     1025
 91
        2
280
     1
281
     0
  0
CLASS
  1
ACDBDETAILVIEWSTYLE
  2
AcDbDetailViewStyle
  3
ObjectDBX Classes
 90
     1025
 91
        2
280
     1
281
     0
  0
CLASS
  1
RASTERVARIABLES
  2
AcDbRasterVariables
  3
ISM
 90
        0
 91
        4
280
     0
281
     0
  0
CLASS
  1
IMAGEDEF
  2
AcDbRasterImageDef
  3
ISM
 90
        0
 91
        4
280
     0
281
     0
  0
CLASS
  1
IMAGEDEF_REACTOR
  2
AcDbRasterImageDefReactor
  3
ISM
 90
        1
 91
        4
280
     0
281
     0
  0
CLASS
  1
IMAGE
  2
AcDbRasterImage
  3
ISM
 90
      127
 91
        5
280
     0
281
     1
  0
CLASS
  1
SORTENTSTABLE
  2
AcDbSortentsTable
  3
ObjectDBX Classes
 90
        0
 91
        4
280
     0
281
     0
  0
CLASS
  1
DICTIONARYVAR
  2
AcDbDictionaryVar
  3
ObjectDBX Classes
 90
        0
 91
        4
280
     0
281
     0
  0
CLASS
  1
CELLSTYLEMAP
  2
AcDbCellStyleMap
  3
ObjectDBX Classes
 90
     1152
 91
        4
280
     0
281
     0
  0
ENDSEC
  0
SECTION
  2
TABLES
  0
TABLE
  2
VPORT
  5
5BF
330
0
100
AcDbSymbolTable
 70
     1
  0
VPORT
  5
62F
330
5BF
100
AcDbSymbolTableRecord
100
AcDbViewportTableRecord
  2
*ACTIVE
 70
     0
 10
0.0
 20
0.0
 11
1.0
 21
1.0
 12
502891.7091347367
 22
481074.8698432359
 13
0.0
 23
0.0
 14
0.5
 24
0.5
 15
0.5
 25
0.5
 16
0.0
 26
0.0
 36
1.0
 17
0.0
 27
0.0
 37
0.0
 40
1.444873436439219
 41
1.6078184110971
 42
50.0
 43
0.0
 44
0.0
 50
0.0
 51
0.0
 71
     0
 72
   100
 73
     1
 74
     3
 75
     0
 76
     0
 77
     0
 78
     0
281
     0
 65
     1
110
0.0
120
0.0
130
0.0
111
1.0
121
0.0
131
0.0
112
0.0
122
1.0
132
0.0
 79
     0
146
0.0
348
5E6
 60
     3
 61
     5
292
     1
282
     0
141
0.0
142
0.0
 63
   256
1001
ACAD_NAV_VCDISPLAY
1070
     3
  0
ENDTAB
  0
TABLE
  2
LTYPE
  5
5BC
330
0
100
AcDbSymbolTable
 70
     2
  0
LTYPE
  5
611
330
5BC
100
AcDbSymbolTableRecord
100
AcDbLinetypeTableRecord
  2
ByBlock
 70
     0
  3

 72
    65
 73
     0
 40
0.0
  0
LTYPE
  5
612
330
5BC
100
AcDbSymbolTableRecord
100
AcDbLinetypeTableRecord
  2
ByLayer
 70
     0
  3

 72
    65
 73
     0
 40
0.0
  0
LTYPE
  5
613
330
5BC
100
AcDbSymbolTableRecord
100
AcDbLinetypeTableRecord
  2
CONTINUOUS
 70
     0
  3
Solid line
 72
    65
 73
     0
 40
0.0
  0
LTYPE
  5
61F
330
5BC
100
AcDbSymbolTableRecord
100
AcDbLinetypeTableRecord
  2
PHANTOM2
 70
     0
  3
Phantom (.5x) ___ _ _ ___ _ _ ___ _ _ ___ _ _
 72
    65
 73
     6
 40
1.25
 49
0.625
 74
     0
 49
-0.125
 74
     0
 49
0.125
 74
     0
 49
-0.125
 74
     0
 49
0.125
 74
     0
 49
-0.125
 74
     0
  0
ENDTAB
  0
TABLE
  2
LAYER
  5
5B9
330
0
100
AcDbSymbolTable
 70
     7
  0
LAYER
  5
60B
330
5B9
100
AcDbSymbolTableRecord
100
AcDbLayerTableRecord
  2
0
 70
     0
 62
   250
  6
CONTINUOUS
370
    -3
390
5C6
347
5D8
  0
LAYER
  5
640
330
5B9
100
AcDbSymbolTableRecord
100
AcDbLayerTableRecord
  2
Points
 70
     0
 62
     6
  6
CONTINUOUS
370
    -3
390
5C6
347
5D8
1001
AcAecLayerStandard
1000

1000

1001
AcCmTransparency
1071
        0
  0
LAYER
  5
643
330
5B9
100
AcDbSymbolTableRecord
100
AcDbLayerTableRecord
  2
Trench edge
 70
     0
 62
   104
  6
CONTINUOUS
370
    -3
390
5C6
347
5D8
1001
AcAecLayerStandard
1000

1000

1001
AcCmTransparency
1071
        0
  0
LAYER
  5
644
330
5B9
100
AcDbSymbolTableRecord
100
AcDbLayerTableRecord
  2
Title
 70
     0
 62
   250
  6
CONTINUOUS
370
    -3
390
5C6
347
5D8
1001
AcAecLayerStandard
1000

1000

1001
AcCmTransparency
1071
        0
  0
LAYER
  5
645
330
5B9
100
AcDbSymbolTableRecord
100
AcDbLayerTableRecord
  2
Context
 70
     0
 62
   250
  6
CONTINUOUS
370
    -3
390
5C6
347
5D8
1001
AcAecLayerStandard
1000

1000

1001
AcCmTransparency
1071
        0
  0
LAYER
  5
646
330
5B9
100
AcDbSymbolTableRecord
100
AcDbLayerTableRecord
  2
Haucher
 70
     0
 62
   250
  6
CONTINUOUS
370
    -3
390
5C6
347
5D8
1001
AcAecLayerStandard
1000

1000

1001
AcCmTransparency
1071
        0
  0
LAYER
  5
647
330
5B9
100
AcDbSymbolTableRecord
100
AcDbLayerTableRecord
  2
Context labels
 70
     0
 62
   250
  6
CONTINUOUS
370
    -3
390
5C6
347
5D8
1001
AcAecLayerStandard
1000

1000

1001
AcCmTransparency
1071
        0
  0
ENDTAB
  0
TABLE
  2
STYLE
  5
5BA
330
0
100
AcDbSymbolTable
 70
     5
  0
STYLE
  5
60C
330
5BA
100
AcDbSymbolTableRecord
100
AcDbTextStyleTableRecord
  2
STANDARD
 70
     0
 40
0.0
 41
1.0
 50
0.0
 71
     0
 42
0.05
  3
txt
  4

  0
STYLE
  5
610
330
5BA
100
AcDbSymbolTableRecord
100
AcDbTextStyleTableRecord
  2
0
 70
     0
 40
1.0
 41
1.0
 50
0.0
 71
     0
 42
1.0
  3
arial.ttf
  4

1001
AcadAnnotative
1000
AnnotativeData
1002
{
1070
     1
1070
     1
1002
}
1001
ACAD
1000
Arial
1071
       34
  0
STYLE
  5
62C
330
5BA
100
AcDbSymbolTableRecord
100
AcDbTextStyleTableRecord
  2
1
 70
     0
 40
1.0
 41
1.0
 50
0.0
 71
     0
 42
1.0
  3
arial.ttf
  4

1001
ACAD
1000
Arial
1071
       34
  0
STYLE
  5
62D
330
5BA
100
AcDbSymbolTableRecord
100
AcDbTextStyleTableRecord
  2
2
 70
     0
 40
1.0
 41
1.0
 50
0.0
 71
     0
 42
1.0
  3
arial.ttf
  4

1001
ACAD
1000
Arial
1071
       34
  0
STYLE
  5
62E
330
5BA
100
AcDbSymbolTableRecord
100
AcDbTextStyleTableRecord
  2
3
 70
     0
 40
1.0
 41
1.0
 50
0.0
 71
     0
 42
1.0
  3
arial.ttf
  4

1001
ACAD
1000
Arial
1071
       34
  0
ENDTAB
  0
TABLE
  2
VIEW
  5
5BD
330
0
100
AcDbSymbolTable
 70
     0
  0
ENDTAB
  0
TABLE
  2
UCS
  5
5BE
330
0
100
AcDbSymbolTable
 70
     0
  0
ENDTAB
  0
TABLE
  2
APPID
  5
5C0
330
0
100
AcDbSymbolTable
 70
     8
  0
APPID
  5
60D
330
5C0
100
AcDbSymbolTableRecord
100
AcDbRegAppTableRecord
  2
ACAD
 70
     0
  0
APPID
  5
630
330
5C0
100
AcDbSymbolTableRecord
100
AcDbRegAppTableRecord
  2
ODA
 70
     0
  0
APPID
  5
614
330
5C0
100
AcDbSymbolTableRecord
100
AcDbRegAppTableRecord
  2
AcadAnnotative
 70
     0
  0
APPID
  5
641
330
5C0
100
AcDbSymbolTableRecord
100
AcDbRegAppTableRecord
  2
AcAecLayerStandard
 70
     0
  0
APPID
  5
642
330
5C0
100
AcDbSymbolTableRecord
100
AcDbRegAppTableRecord
  2
AcCmTransparency
 70
     0
  0
APPID
  5
64B
330
5C0
100
AcDbSymbolTableRecord
100
AcDbRegAppTableRecord
  2
ACAD_NAV_VCDISPLAY
 70
     0
  0
APPID
  5
65A
330
5C0
100
AcDbSymbolTableRecord
100
AcDbRegAppTableRecord
  2
ACAD_EXEMPT_FROM_CAD_STANDARDS
 70
     0
  0
APPID
  5
6BB
330
5C0
100
AcDbSymbolTableRecord
100
AcDbRegAppTableRecord
  2
ACAD_MLEADERVER
 70
     0
  0
ENDTAB
  0
TABLE
  2
DIMSTYLE
  5
5C1
330
0
100
AcDbSymbolTable
 70
     2
100
AcDbDimStyleTable
  0
DIMSTYLE
105
60E
330
5C1
100
AcDbSymbolTableRecord
100
AcDbDimStyleTableRecord
  2
STANDARD
 70
     0
178
     0
279
     2
340
60C
  0
DIMSTYLE
105
60F
330
5C1
100
AcDbSymbolTableRecord
100
AcDbDimStyleTableRecord
  2
Annotative
 70
     0
178
     0
340
60C
1001
AcadAnnotative
1000
AnnotativeData
1002
{
1070
     1
1070
     1
1002
}
  0
ENDTAB
  0
TABLE
  2
BLOCK_RECORD
  5
5B8
330
0
100
AcDbSymbolTable
 70
     1
  0
BLOCK_RECORD
  5
627
102
{ACAD_XDICTIONARY
360
64C
102
}
330
5B8
100
AcDbSymbolTableRecord
100
AcDbBlockTableRecord
  2
*Model_Space
340
62A
 70
     0
280
     1
281
     0
  0
BLOCK_RECORD
  5
623
330
5B8
100
AcDbSymbolTableRecord
100
AcDbBlockTableRecord
  2
*Paper_Space
340
626
 70
     0
280
     1
281
     0
  0
BLOCK_RECORD
  5
62B
330
5B8
100
AcDbSymbolTableRecord
100
AcDbBlockTableRecord
  2
*PAPER_SPACE0
340
0
 70
     0
280
     1
281
     0
  0
ENDTAB
  0
ENDSEC
  0
SECTION
  2
BLOCKS
  0
BLOCK
  5
634
330
627
100
AcDbEntity
  8
0
100
AcDbBlockBegin
  2
*Model_Space
 70
     0
 10
0.0
 20
0.0
 30
0.0
  3
*Model_Space
  1
*Model_Space
  0
ENDBLK
  5
635
330
627
100
AcDbEntity
  8
0
100
AcDbBlockEnd
  0
BLOCK
  5
632
330
623
100
AcDbEntity
 67
     1
  8
0
100
AcDbBlockBegin
  2
*Paper_Space
 70
     0
 10
0.0
 20
0.0
 30
0.0
  3
*Paper_Space
  1
*Paper_Space
  0
ENDBLK
  5
633
330
623
100
AcDbEntity
 67
     1
  8
0
100
AcDbBlockEnd
  0
BLOCK
  5
24
330
62B
100
AcDbEntity
  8
0
100
AcDbBlockBegin
  2
*PAPER_SPACE0
 70
     0
 10
0.0
 20
0.0
 30
0.0
  3
*PAPER_SPACE0
  1
*PAPER_SPACE0
  0
ENDBLK
  5
25
330
62B
100
AcDbEntity
  8
0
100
AcDbBlockEnd
  0
ENDSEC
  0
SECTION
  2
ENTITIES
  0
LWPOLYLINE
  5
41
330
627
100
AcDbEntity
  8
Trench edge
100
AcDbPolyline
 90
        2
 70
     0
 43
0.0
 10
502892.5126979371
 20
481074.271581542
 10
502891.048
 20
481074.04
  0
LWPOLYLINE
  5
42
330
627
100
AcDbEntity
  8
Trench edge
100
AcDbPolyline
 90
        2
 70
     0
 43
0.0
 10
502891.048
 20
481074.04
 10
502890.9055715364
 20
481075.0228308446
  0
LWPOLYLINE
  5
43
330
627
100
AcDbEntity
  8
Context
100
AcDbPolyline
 90
       41
 70
     0
 43
0.0
 10
502890.937945931
 20
481074.7772514513
 10
502890.9475518186
 20
481074.7757453117
 10
502890.9575445133
 20
481074.7741258486
 10
502890.9677736412
 20
481074.7723668365
 10
502890.9780941142
 20
481074.7704398146
 10
502890.9883556956
 20
481074.7683175827
 10
502890.9984110725
 20
481074.7659733538
 10
502891.0081123712
 20
481074.7633772794
 10
502891.017312003
 20
481074.7605045217
 10
502891.029942787
 20
481074.7560451064
 10
502891.0426526059
 20
481074.7511882988
 10
502891.0553456732
 20
481074.7459225475
 10
502891.0679231409
 20
481074.7402368626
 10
502891.0802900596
 20
481074.7341208052
 10
502891.0923477188
 20
481074.7275624112
 10
502891.103999919
 20
481074.7205530528
 10
502891.115150037
 20
481074.7130800667
 10
502891.1284616644
 20
481074.7026997643
 10
502891.1405154865
 20
481074.6913792181
 10
502891.1513408028
 20
481074.6791643207
 10
502891.1609670509
 20
481074.66609999
 10
502891.1694246432
 20
481074.6522312817
 10
502891.1767420422
 20
481074.6376029761
 10
502891.1829495224
 20
481074.6222611035
 10
502891.1880755468
 20
481074.606250444
 10
502891.1944980129
 20
481074.584640513
 10
502891.2010820369
 20
481074.5633715214
 10
502891.2072385713
 20
481074.5422856522
 10
502891.2123768944
 20
481074.5212228641
 10
502891.2159079592
 20
481074.5000253399
 10
502891.2172409062
 20
481074.4785340129
 10
502891.215787938
 20
481074.4565892545
 10
502891.2109588948
 20
481074.4340340848
 10
502891.1978552503
 20
481074.4046848416
 10
502891.1787156037
 20
481074.3820025765
 10
502891.1547700809
 20
481074.364964303
 10
502891.127249645
 20
481074.352548147
 10
502891.0973855342
 20
481074.3437302848
 10
502891.0664066246
 20
481074.3374895415
 10
502891.0355452669
 20
481074.3328012569
 10
502891.0060313117
 20
481074.3286443936
  0
LWPOLYLINE
  5
44
330
627
100
AcDbEntity
  8
Context
100
AcDbPolyline
 90
       96
 70
     0
 43
0.0
 10
502891.788602516
 20
481074.157095729
 10
502891.7777004978
 20
481074.2448412308
 10
502891.7745892528
 20
481074.2883673995
 10
502891.762564424
 20
481074.4253123353
 10
502891.7585561386
 20
481074.4784877587
 10
502891.7508719782
 20
481074.5254486303
 10
502891.7490624434
 20
481074.5630687975
 10
502891.7487005419
 20
481074.5847727375
 10
502891.7402627856
 20
481074.6089400084
 10
502891.7356719785
 20
481074.6254171978
 10
502891.7285373986
 20
481074.6505337564
 10
502891.7230882832
 20
481074.6913584654
 10
502891.7060567254
 20
481074.7386309197
 10
502891.7034567182
 20
481074.7675179851
 10
502891.7014682158
 20
481074.7965938757
 10
502891.6999053549
 20
481074.8258372903
 10
502891.6993763647
 20
481074.8342916643
 10
502891.6986427596
 20
481074.8427519087
 10
502891.6977629851
 20
481074.8512054092
 10
502891.6967965987
 20
481074.8596387146
 10
502891.6958013462
 20
481074.8680371235
 10
502891.6948366477
 20
481074.8763881594
 10
502891.6939620606
 20
481074.8846783711
 10
502891.6932350555
 20
481074.8928950065
 10
502891.6938680806
 20
481074.9110338675
 10
502891.6984419482
 20
481074.9263220814
 10
502891.7006776525
 20
481074.9495080044
 10
502891.7112395819
 20
481074.9605341061
 10
502891.7302882787
 20
481074.9659298566
 10
502891.7451070005
 20
481074.970152622
 10
502891.7611087685
 20
481074.9680370822
 10
502891.7777412994
 20
481074.9710421773
 10
502891.7935412737
 20
481074.9732913965
 10
502891.8095794227
 20
481074.9755434651
 10
502891.8257827006
 20
481074.9776329831
 10
502891.842079587
 20
481074.9793907891
 10
502891.8583971742
 20
481074.9806505083
 10
502891.8746647784
 20
481074.9812440921
 10
502891.8908094915
 20
481074.9810051655
 10
502891.906758819
 20
481074.9797644297
 10
502891.9208210879
 20
481074.9772529459
 10
502891.9354670093
 20
481074.9730386059
 10
502891.9504257659
 20
481074.9674479546
 10
502891.9654230553
 20
481074.9608040621
 10
502891.9801863863
 20
481074.9534312487
 10
502891.9944432679
 20
481074.9456538346
 10
502892.0079210714
 20
481074.9377971147
 10
502892.0203466064
 20
481074.9301833222
 10
502892.0309255556
 20
481074.9233473225
 10
502892.0411134016
 20
481074.9162612024
 10
502892.0508966936
 20
481074.9088654044
 10
502892.0602640671
 20
481074.9010996718
 10
502892.0692022088
 20
481074.8929034724
 10
502892.0776968305
 20
481074.8842161364
 10
502892.0857354559
 20
481074.8749782438
 10
502892.0933058835
 20
481074.8651284259
 10
502892.0991959479
 20
481074.8577638559
 10
502892.1056754506
 20
481074.8508215816
 10
502892.1124772627
 20
481074.8441097628
 10
502892.1193353673
 20
481074.8374357232
 10
502892.125984309
 20
481074.8306098476
 10
502892.1321570961
 20
481074.8234393215
 10
502892.1375886864
 20
481074.8157316062
 10
502892.1420116754
 20
481074.8072968108
 10
502892.1526344582
 20
481074.7786023713
 10
502892.16040797
 20
481074.7488759414
 10
502892.1656075461
 20
481074.7183989934
 10
502892.1685106088
 20
481074.6874523003
 10
502892.1693923556
 20
481074.656318309
 10
502892.1685292341
 20
481074.6252776548
 10
502892.1661986666
 20
481074.5946111111
 10
502892.162675988
 20
481074.5646001499
 10
502892.1589833272
 20
481074.5420157391
 10
502892.1542474616
 20
481074.5197789203
 10
502892.1486745764
 20
481074.4978164483
 10
502892.1424730823
 20
481074.4760534042
 10
502892.1358505526
 20
481074.4544137564
 10
502892.1290152598
 20
481074.4328235605
 10
502892.1221745017
 20
481074.4112087346
 10
502892.1155368265
 20
481074.3894933846
 10
502892.1121096944
 20
481074.3789201152
 10
502892.1082713653
 20
481074.3685342596
 10
502892.1041762639
 20
481074.3582771254
 10
502892.0999792388
 20
481074.348094057
 10
502892.0958336021
 20
481074.337927199
 10
502892.0918935034
 20
481074.3277198084
 10
502892.0883140666
 20
481074.3174152803
 10
502892.0852474917
 20
481074.306956596
 10
502892.082565133
 20
481074.2938781641
 10
502892.0813003562
 20
481074.281158164
 10
502892.0812010395
 20
481074.2686814324
 10
502892.0820189602
 20
481074.2563333575
 10
502892.0835050578
 20
481074.243998215
 10
502892.0854073492
 20
481074.2315598672
 10
502892.0874785855
 20
481074.2189038399
 10
502892.0894677575
 20
481074.2059141333
  0
LWPOLYLINE
  5
45
330
627
100
AcDbEntity
  8
Context
100
AcDbPolyline
 90
       93
 70
     0
 43
0.0
 10
502891.7853291804
 20
481074.1834413535
 10
502891.7951267333
 20
481074.1902028742
 10
502891.8114169777
 20
481074.2037593879
 10
502891.8269044976
 20
481074.2184728624
 10
502891.8418609514
 20
481074.233926411
 10
502891.8565567471
 20
481074.2497049583
 10
502891.8712627062
 20
481074.2653905054
 10
502891.886250349
 20
481074.2805671399
 10
502891.9017903592
 20
481074.2948178374
 10
502891.9213874858
 20
481074.3127445069
 10
502891.9400367484
 20
481074.3317648766
 10
502891.9579670012
 20
481074.3516031326
 10
502891.9754072359
 20
481074.3719824856
 10
502891.9925829696
 20
481074.392629632
 10
502892.0097251434
 20
481074.4132680585
 10
502892.0270595497
 20
481074.433622512
 10
502892.044816017
 20
481074.4534173161
 10
502892.051059338
 20
481074.4596866862
 10
502892.0576009854
 20
481074.4656880738
 10
502892.0641852641
 20
481074.4716199376
 10
502892.0705614905
 20
481074.4776804511
 10
502892.0764736941
 20
481074.4840700223
 10
502892.0816702164
 20
481074.4909866867
 10
502892.0858961996
 20
481074.4986300155
 10
502892.0888990104
 20
481074.5071979064
 10
502892.0908647876
 20
481074.5297062221
 10
502892.0844351638
 20
481074.5444958006
 10
502892.0715349887
 20
481074.5529779258
 10
502892.054087439
 20
481074.5565616566
 10
502892.0340156913
 20
481074.5566560522
 10
502892.0132429219
 20
481074.5546701713
 10
502891.9936952312
 20
481074.5520134863
 10
502891.9772935706
 20
481074.5500967301
 10
502891.9692110072
 20
481074.5498558902
 10
502891.9682714789
 20
481074.5548616938
 10
502891.9637450188
 20
481074.5589179639
 10
502891.9587503071
 20
481074.5650023692
 10
502891.95047782
 20
481074.5704627347
 10
502891.9412688161
 20
481074.5738949653
 10
502891.9342450001
 20
481074.57654714
 10
502891.9269090164
 20
481074.5788872991
 10
502891.9125694893
 20
481074.5797467012
 10
502891.9108720053
 20
481074.5829860187
 10
502891.9095987245
 20
481074.5873032277
 10
502891.9085121511
 20
481074.5931548363
 10
502891.9073756263
 20
481074.6009984653
 10
502891.9061168276
 20
481074.6084271817
 10
502891.9044960326
 20
481074.6157092992
 10
502891.9026366434
 20
481074.6228930769
 10
502891.9006621997
 20
481074.630025799
 10
502891.8986958284
 20
481074.6371576742
 10
502891.896862044
 20
481074.6443361244
 10
502891.8952821615
 20
481074.6516101078
 10
502891.8940805581
 20
481074.6590280213
 10
502891.8931952097
 20
481074.6677600685
 10
502891.8927177544
 20
481074.6765179606
 10
502891.8925261018
 20
481074.6852933871
 10
502891.8924988606
 20
481074.6940801242
 10
502891.8925131037
 20
481074.7028687487
 10
502891.8924485522
 20
481074.7116522
 10
502891.892182978
 20
481074.7204231421
 10
502891.8915941529
 20
481074.7291742391
 10
502891.8904497492
 20
481074.7456254265
 10
502891.8889034629
 20
481074.7667764474
 10
502891.8861829228
 20
481074.7901164474
 10
502891.88151938
 20
481074.8131370723
 10
502891.8741418511
 20
481074.8333246814
 10
502891.8632796382
 20
481074.8481706452
 10
502891.8481632936
 20
481074.8551645223
 10
502891.8280214206
 20
481074.8517955961
 10
502891.8198018649
 20
481074.8461733627
 10
502891.8141109471
 20
481074.8376837776
 10
502891.8105278274
 20
481074.827053667
 10
502891.8086347276
 20
481074.8150092959
 10
502891.8080115074
 20
481074.802279578
 10
502891.8082412253
 20
481074.7895918902
 10
502891.808904154
 20
481074.7776722225
 10
502891.8095811274
 20
481074.7672496257
 10
502891.8102236172
 20
481074.7607139506
 10
502891.8112182999
 20
481074.7541902827
 10
502891.8122968599
 20
481074.747720222
 10
502891.8131920943
 20
481074.7413445312
 10
502891.8136361012
 20
481074.7351018862
 10
502891.8133623763
 20
481074.7290351367
 10
502891.8121017677
 20
481074.7231847701
 10
502891.809587348
 20
481074.7175896
 10
502891.8019924652
 20
481074.7090108182
 10
502891.7914324196
 20
481074.702737667
 10
502891.7786973816
 20
481074.6983490133
 10
502891.7645801699
 20
481074.6954260864
 10
502891.7498695673
 20
481074.6935505392
 10
502891.7353585302
 20
481074.6923026265
 10
502891.7230882832
 20
481074.6913584654
  0
LWPOLYLINE
  5
5A
330
627
100
AcDbEntity
  8
Haucher
100
AcDbPolyline
 90
        2
 70
     0
 43
0.0
 10
502891.84061163
 20
481074.7259919069
 10
502891.8174165995
 20
481074.7577822149
  0
LWPOLYLINE
  5
5B
330
627
100
AcDbEntity
  8
Haucher
100
AcDbPolyline
 90
       14
 70
     1
 43
0.0
 10
502891.8138127895
 20
481074.2043564929
 10
502891.7938210072
 20
481074.18867333
 10
502891.7941902684
 20
481074.1912862568
 10
502891.7943913471
 20
481074.1938793875
 10
502891.7944461082
 20
481074.1964597889
 10
502891.7943790648
 20
481074.1990368903
 10
502891.7939666101
 20
481074.2042123845
 10
502891.7933368464
 20
481074.2094694925
 10
502891.7959745748
 20
481074.2097757304
 10
502891.7985711042
 20
481074.209613901
 10
502891.8011352124
 20
481074.2090836581
 10
502891.8036769271
 20
481074.2082828443
 10
502891.8087314863
 20
481074.2062665838
 10
502891.8138127895
 20
481074.2043564929
  0
LWPOLYLINE
  5
5C
330
627
100
AcDbEntity
  8
Haucher
100
AcDbPolyline
 90
       13
 70
     0
 43
0.0
 10
502891.7938210072
 20
481074.18867333
 10
502891.7941902684
 20
481074.1912862568
 10
502891.7943913471
 20
481074.1938793875
 10
502891.7944461082
 20
481074.1964597889
 10
502891.7943790648
 20
481074.1990368903
 10
502891.7939666101
 20
481074.2042123845
 10
502891.7933368464
 20
481074.2094694925
 10
502891.7959745748
 20
481074.2097757304
 10
502891.7985711042
 20
481074.209613901
 10
502891.8011352124
 20
481074.2090836581
 10
502891.8036769271
 20
481074.2082828443
 10
502891.8087314863
 20
481074.2062665838
 10
502891.8138127895
 20
481074.2043564929
  0
LWPOLYLINE
  5
5D
330
627
100
AcDbEntity
  8
Haucher
100
AcDbPolyline
 90
       18
 70
     1
 43
0.0
 10
502891.857102509
 20
481074.2537275772
 10
502891.8392272118
 20
481074.2313274104
 10
502891.8388639706
 20
481074.2346708259
 10
502891.8379918108
 20
481074.2376341434
 10
502891.8367580202
 20
481074.2403216843
 10
502891.8353108619
 20
481074.2428379075
 10
502891.8338006856
 20
481074.2452865726
 10
502891.8323745037
 20
481074.2477739505
 10
502891.8311808548
 20
481074.2504025505
 10
502891.830367726
 20
481074.2532787811
 10
502891.8334386258
 20
481074.2540438767
 10
502891.8367701693
 20
481074.2545684677
 10
502891.8402710712
 20
481074.2548724554
 10
502891.8438494845
 20
481074.2549726795
 10
502891.8474128734
 20
481074.2548908528
 10
502891.8508714782
 20
481074.2546431157
 10
502891.8541320643
 20
481074.2542490942
 10
502891.857102509
 20
481074.2537275772
  0
LWPOLYLINE
  5
5E
330
627
100
AcDbEntity
  8
Haucher
100
AcDbPolyline
 90
       17
 70
     0
 43
0.0
 10
502891.8392272118
 20
481074.2313274104
 10
502891.8388639706
 20
481074.2346708259
 10
502891.8379918108
 20
481074.2376341434
 10
502891.8367580202
 20
481074.2403216843
 10
502891.8353108619
 20
481074.2428379075
 10
502891.8338006856
 20
481074.2452865726
 10
502891.8323745037
 20
481074.2477739505
 10
502891.8311808548
 20
481074.2504025505
 10
502891.830367726
 20
481074.2532787811
 10
502891.8334386258
 20
481074.2540438767
 10
502891.8367701693
 20
481074.2545684677
 10
502891.8402710712
 20
481074.2548724554
 10
502891.8438494845
 20
481074.2549726795
 10
502891.8474128734
 20
481074.2548908528
 10
502891.8508714782
 20
481074.2546431157
 10
502891.8541320643
 20
481074.2542490942
 10
502891.857102509
 20
481074.2537275772
  0
LWPOLYLINE
  5
5F
330
627
100
AcDbEntity
  8
Haucher
100
AcDbPolyline
 90
       16
 70
     1
 43
0.0
 10
502891.9100436645
 20
481074.3009538064
 10
502891.8861125925
 20
481074.2800367146
 10
502891.8836200543
 20
481074.2853844109
 10
502891.8809875776
 20
481074.2916447674
 10
502891.8797877567
 20
481074.2949007492
 10
502891.8787577098
 20
481074.2981230722
 10
502891.8779639889
 20
481074.3012277006
 10
502891.8774749477
 20
481074.3041248889
 10
502891.8817430949
 20
481074.3045075039
 10
502891.8858792365
 20
481074.3043893347
 10
502891.8899214398
 20
481074.3039089676
 10
502891.8939076343
 20
481074.3032059642
 10
502891.8978756114
 20
481074.3024208597
 10
502891.9018617647
 20
481074.3016900163
 10
502891.9059056973
 20
481074.3011552198
 10
502891.9100436645
 20
481074.3009538064
  0
LWPOLYLINE
  5
60
330
627
100
AcDbEntity
  8
Haucher
100
AcDbPolyline
 90
       15
 70
     0
 43
0.0
 10
502891.8861125925
 20
481074.2800367146
 10
502891.8836200543
 20
481074.2853844109
 10
502891.8809875776
 20
481074.2916447674
 10
502891.8797877567
 20
481074.2949007492
 10
502891.8787577098
 20
481074.2981230722
 10
502891.8779639889
 20
481074.3012277006
 10
502891.8774749477
 20
481074.3041248889
 10
502891.8817430949
 20
481074.3045075039
 10
502891.8858792365
 20
481074.3043893347
 10
502891.8899214398
 20
481074.3039089676
 10
502891.8939076343
 20
481074.3032059642
 10
502891.8978756114
 20
481074.3024208597
 10
502891.9018617647
 20
481074.3016900163
 10
502891.9059056973
 20
481074.3011552198
 10
502891.9100436645
 20
481074.3009538064
  0
LWPOLYLINE
  5
61
330
627
100
AcDbEntity
  8
Haucher
100
AcDbPolyline
 90
       16
 70
     1
 43
0.0
 10
502891.9559456186
 20
481074.3483570623
 10
502891.9356159177
 20
481074.3267799916
 10
502891.9344895162
 20
481074.329418097
 10
502891.9334654501
 20
481074.3322605354
 10
502891.9325354166
 20
481074.3352464888
 10
502891.931691113
 20
481074.3383151393
 10
502891.9302200867
 20
481074.3444603314
 10
502891.9289785764
 20
481074.3502125023
 10
502891.9323653968
 20
481074.3507468947
 10
502891.9357297288
 20
481074.3507582083
 10
502891.9390800089
 20
481074.3503977405
 10
502891.9424253727
 20
481074.3498188758
 10
502891.9457753687
 20
481074.3491720749
 10
502891.9491389949
 20
481074.3486116967
 10
502891.9525266369
 20
481074.3482893144
 10
502891.9559456186
 20
481074.3483570623
  0
LWPOLYLINE
  5
62
330
627
100
AcDbEntity
  8
Haucher
100
AcDbPolyline
 90
       15
 70
     0
 43
0.0
 10
502891.9356159177
 20
481074.3267799916
 10
502891.9344895162
 20
481074.329418097
 10
502891.9334654501
 20
481074.3322605354
 10
502891.9325354166
 20
481074.3352464888
 10
502891.931691113
 20
481074.3383151393
 10
502891.9302200867
 20
481074.3444603314
 10
502891.9289785764
 20
481074.3502125023
 10
502891.9323653968
 20
481074.3507468947
 10
502891.9357297288
 20
481074.3507582083
 10
502891.9390800089
 20
481074.3503977405
 10
502891.9424253727
 20
481074.3498188758
 10
502891.9457753687
 20
481074.3491720749
 10
502891.9491389949
 20
481074.3486116967
 10
502891.9525266369
 20
481074.3482893144
 10
502891.9559456186
 20
481074.3483570623
  0
LWPOLYLINE
  5
63
330
627
100
AcDbEntity
  8
Haucher
100
AcDbPolyline
 90
       16
 70
     1
 43
0.0
 10
502891.991696764
 20
481074.3931534973
 10
502891.9779187252
 20
481074.3748415525
 10
502891.9768226786
 20
481074.3778626904
 10
502891.9751224716
 20
481074.3803898667
 10
502891.9730427539
 20
481074.3825989761
 10
502891.9708044147
 20
481074.3846643874
 10
502891.9686308536
 20
481074.3867638071
 10
502891.9667460212
 20
481074.3890710425
 10
502891.9653706689
 20
481074.3917614373
 10
502891.9647283341
 20
481074.3950117232
 10
502891.968168447
 20
481074.3956262159
 10
502891.97156754
 20
481074.3957995065
 10
502891.9749364775
 20
481074.3956305498
 10
502891.9782858489
 20
481074.3952202498
 10
502891.9849672641
 20
481074.394072139
 10
502891.991696764
 20
481074.3931534973
  0
LWPOLYLINE
  5
64
330
627
100
AcDbEntity
  8
Haucher
100
AcDbPolyline
 90
       15
 70
     0
 43
0.0
 10
502891.9779187252
 20
481074.3748415525
 10
502891.9768226786
 20
481074.3778626904
 10
502891.9751224716
 20
481074.3803898667
 10
502891.9730427539
 20
481074.3825989761
 10
502891.9708044147
 20
481074.3846643874
 10
502891.9686308536
 20
481074.3867638071
 10
502891.9667460212
 20
481074.3890710425
 10
502891.9653706689
 20
481074.3917614373
 10
502891.9647283341
 20
481074.3950117232
 10
502891.968168447
 20
481074.3956262159
 10
502891.97156754
 20
481074.3957995065
 10
502891.9749364775
 20
481074.3956305498
 10
502891.9782858489
 20
481074.3952202498
 10
502891.9849672641
 20
481074.394072139
 10
502891.991696764
 20
481074.3931534973
  0
LWPOLYLINE
  5
65
330
627
100
AcDbEntity
  8
Haucher
100
AcDbPolyline
 90
       18
 70
     1
 43
0.0
 10
502892.0300608431
 20
481074.4359841907
 10
502892.0130094786
 20
481074.4160395401
 10
502892.0113265036
 20
481074.4181705289
 10
502892.0098312421
 20
481074.4206332313
 10
502892.0085340266
 20
481074.4233545521
 10
502892.0074446274
 20
481074.4262583349
 10
502892.0065733764
 20
481074.4292714846
 10
502892.0059318556
 20
481074.4323190947
 10
502892.0055295603
 20
481074.4353269576
 10
502892.00537821
 20
481074.4382191923
 10
502892.0082372015
 20
481074.4383877132
 10
502892.0113080161
 20
481074.4384360701
 10
502892.0145186819
 20
481074.4383600543
 10
502892.017794027
 20
481074.4381569928
 10
502892.021059155
 20
481074.4378222636
 10
502892.0242420936
 20
481074.437351658
 10
502892.027266972
 20
481074.4367404158
 10
502892.0300608431
 20
481074.4359841907
  0
LWPOLYLINE
  5
66
330
627
100
AcDbEntity
  8
Haucher
100
AcDbPolyline
 90
       17
 70
     0
 43
0.0
 10
502892.0130094786
 20
481074.4160395401
 10
502892.0113265036
 20
481074.4181705289
 10
502892.0098312421
 20
481074.4206332313
 10
502892.0085340266
 20
481074.4233545521
 10
502892.0074446274
 20
481074.4262583349
 10
502892.0065733764
 20
481074.4292714846
 10
502892.0059318556
 20
481074.4323190947
 10
502892.0055295603
 20
481074.4353269576
 10
502892.00537821
 20
481074.4382191923
 10
502892.0082372015
 20
481074.4383877132
 10
502892.0113080161
 20
481074.4384360701
 10
502892.0145186819
 20
481074.4383600543
 10
502892.017794027
 20
481074.4381569928
 10
502892.021059155
 20
481074.4378222636
 10
502892.0242420936
 20
481074.437351658
 10
502892.027266972
 20
481074.4367404158
 10
502892.0300608431
 20
481074.4359841907
  0
LWPOLYLINE
  5
67
330
627
100
AcDbEntity
  8
Haucher
100
AcDbPolyline
 90
       18
 70
     1
 43
0.0
 10
502892.0751427627
 20
481074.4809324816
 10
502892.0576025981
 20
481074.4644248349
 10
502892.0550554089
 20
481074.4661364398
 10
502892.0531229359
 20
481074.4682321623
 10
502892.0516145853
 20
481074.4705975835
 10
502892.0503392013
 20
481074.4731152231
 10
502892.0491061901
 20
481074.4756706624
 10
502892.0477264827
 20
481074.4781457219
 10
502892.0460083728
 20
481074.4804268198
 10
502892.0437607049
 20
481074.4823964756
 10
502892.0473162626
 20
481074.4828553117
 10
502892.0511230429
 20
481074.482915248
 10
502892.0551061762
 20
481074.4826839965
 10
502892.0591938549
 20
481074.4822687077
 10
502892.0633139954
 20
481074.4817784816
 10
502892.06739479
 20
481074.4813204687
 10
502892.0713613695
 20
481074.481002381
 10
502892.0751427627
 20
481074.4809324816
  0
LWPOLYLINE
  5
68
330
627
100
AcDbEntity
  8
Haucher
100
AcDbPolyline
 90
       17
 70
     0
 43
0.0
 10
502892.0576025981
 20
481074.4644248349
 10
502892.0550554089
 20
481074.4661364398
 10
502892.0531229359
 20
481074.4682321623
 10
502892.0516145853
 20
481074.4705975835
 10
502892.0503392013
 20
481074.4731152231
 10
502892.0491061901
 20
481074.4756706624
 10
502892.0477264827
 20
481074.4781457219
 10
502892.0460083728
 20
481074.4804268198
 10
502892.0437607049
 20
481074.4823964756
 10
502892.0473162626
 20
481074.4828553117
 10
502892.0511230429
 20
481074.482915248
 10
502892.0551061762
 20
481074.4826839965
 10
502892.0591938549
 20
481074.4822687077
 10
502892.0633139954
 20
481074.4817784816
 10
502892.06739479
 20
481074.4813204687
 10
502892.0713613695
 20
481074.481002381
 10
502892.0751427627
 20
481074.4809324816
  0
LWPOLYLINE
  5
69
330
627
100
AcDbEntity
  8
Haucher
100
AcDbPolyline
 90
       12
 70
     1
 43
0.0
 10
502892.0897775431
 20
481074.5262512245
 10
502892.0874628974
 20
481074.5095586273
 10
502892.0815387818
 20
481074.5107432026
 10
502892.0756923629
 20
481074.5118492939
 10
502892.0697805262
 20
481074.5127711815
 10
502892.0636643418
 20
481074.5134087079
 10
502892.0647567218
 20
481074.5161944262
 10
502892.0671165244
 20
481074.5185161285
 10
502892.0704215969
 20
481074.5204376266
 10
502892.0743458879
 20
481074.5220221817
 10
502892.0827629534
 20
481074.524432649
 10
502892.0897775431
 20
481074.5262512245
  0
LWPOLYLINE
  5
6A
330
627
100
AcDbEntity
  8
Haucher
100
AcDbPolyline
 90
       11
 70
     0
 43
0.0
 10
502892.0874628974
 20
481074.5095586273
 10
502892.0815387818
 20
481074.5107432026
 10
502892.0756923629
 20
481074.5118492939
 10
502892.0697805262
 20
481074.5127711815
 10
502892.0636643418
 20
481074.5134087079
 10
502892.0647567218
 20
481074.5161944262
 10
502892.0671165244
 20
481074.5185161285
 10
502892.0704215969
 20
481074.5204376266
 10
502892.0743458879
 20
481074.5220221817
 10
502892.0827629534
 20
481074.524432649
 10
502892.0897775431
 20
481074.5262512245
  0
LWPOLYLINE
  5
6B
330
627
100
AcDbEntity
  8
Haucher
100
AcDbPolyline
 90
       16
 70
     1
 43
0.0
 10
502892.0624810804
 20
481074.5539547087
 10
502892.0824408906
 20
481074.5450877018
 10
502892.0792825974
 20
481074.5420785593
 10
502892.075892596
 20
481074.5392036694
 10
502892.0723325207
 20
481074.5364419217
 10
502892.0686610821
 20
481074.5337717928
 10
502892.064938664
 20
481074.5311739837
 10
502892.0612250894
 20
481074.5286261343
 10
502892.0575807423
 20
481074.5261089457
 10
502892.0540661445
 20
481074.5236021445
 10
502892.0547386948
 20
481074.5275154433
 10
502892.0556855829
 20
481074.5315062884
 10
502892.0568241816
 20
481074.5355192614
 10
502892.0580710268
 20
481074.5394978312
 10
502892.0605581105
 20
481074.5471289751
 10
502892.0624810804
 20
481074.5539547087
  0
LWPOLYLINE
  5
6C
330
627
100
AcDbEntity
  8
Haucher
100
AcDbPolyline
 90
       15
 70
     0
 43
0.0
 10
502892.0824408906
 20
481074.5450877018
 10
502892.0792825974
 20
481074.5420785593
 10
502892.075892596
 20
481074.5392036694
 10
502892.0723325207
 20
481074.5364419217
 10
502892.0686610821
 20
481074.5337717928
 10
502892.064938664
 20
481074.5311739837
 10
502892.0612250894
 20
481074.5286261343
 10
502892.0575807423
 20
481074.5261089457
 10
502892.0540661445
 20
481074.5236021445
 10
502892.0547386948
 20
481074.5275154433
 10
502892.0556855829
 20
481074.5315062884
 10
502892.0568241816
 20
481074.5355192614
 10
502892.0580710268
 20
481074.5394978312
 10
502892.0605581105
 20
481074.5471289751
 10
502892.0624810804
 20
481074.5539547087
  0
LWPOLYLINE
  5
6D
330
627
100
AcDbEntity
  8
Haucher
100
AcDbPolyline
 90
       16
 70
     1
 43
0.0
 10
502892.0179620744
 20
481074.5546751671
 10
502892.0423527397
 20
481074.5557857029
 10
502892.0415177875
 20
481074.5526556419
 10
502892.039934414
 20
481074.5494685017
 10
502892.0377835328
 20
481074.5462876291
 10
502892.0352415983
 20
481074.5431727582
 10
502892.0297057146
 20
481074.5373910723
 10
502892.0247577709
 20
481074.5326189672
 10
502892.024139324
 20
481074.5356439928
 10
502892.0233120964
 20
481074.5384933787
 10
502892.0223474335
 20
481074.5412179665
 10
502892.0213170939
 20
481074.5438656739
 10
502892.0202925608
 20
481074.5464863681
 10
502892.0193444805
 20
481074.5491288035
 10
502892.0185434989
 20
481074.5518417349
 10
502892.0179620744
 20
481074.5546751671
  0
LWPOLYLINE
  5
6E
330
627
100
AcDbEntity
  8
Haucher
100
AcDbPolyline
 90
       15
 70
     0
 43
0.0
 10
502892.0423527397
 20
481074.5557857029
 10
502892.0415177875
 20
481074.5526556419
 10
502892.039934414
 20
481074.5494685017
 10
502892.0377835328
 20
481074.5462876291
 10
502892.0352415983
 20
481074.5431727582
 10
502892.0297057146
 20
481074.5373910723
 10
502892.0247577709
 20
481074.5326189672
 10
502892.024139324
 20
481074.5356439928
 10
502892.0233120964
 20
481074.5384933787
 10
502892.0223474335
 20
481074.5412179665
 10
502892.0213170939
 20
481074.5438656739
 10
502892.0202925608
 20
481074.5464863681
 10
502892.0193444805
 20
481074.5491288035
 10
502892.0185434989
 20
481074.5518417349
 10
502892.0179620744
 20
481074.5546751671
  0
LWPOLYLINE
  5
6F
330
627
100
AcDbEntity
  8
Haucher
100
AcDbPolyline
 90
        9
 70
     1
 43
0.0
 10
502891.9744100855
 20
481074.5485191277
 10
502891.9875045109
 20
481074.5468629249
 10
502891.9866584463
 20
481074.5446905736
 10
502891.9855908473
 20
481074.5425664344
 10
502891.9843481984
 20
481074.5404851491
 10
502891.9829760101
 20
481074.5384412215
 10
502891.9800291014
 20
481074.5344499917
 10
502891.9771206115
 20
481074.5305526649
 10
502891.9744100855
 20
481074.5485191277
  0
LWPOLYLINE
  5
70
330
627
100
AcDbEntity
  8
Haucher
100
AcDbPolyline
 90
        8
 70
     0
 43
0.0
 10
502891.9875045109
 20
481074.5468629249
 10
502891.9866584463
 20
481074.5446905736
 10
502891.9855908473
 20
481074.5425664344
 10
502891.9843481984
 20
481074.5404851491
 10
502891.9829760101
 20
481074.5384412215
 10
502891.9800291014
 20
481074.5344499917
 10
502891.9771206115
 20
481074.5305526649
 10
502891.9744100855
 20
481074.5485191277
  0
LWPOLYLINE
  5
72
330
627
100
AcDbEntity
  8
Haucher
100
AcDbPolyline
 90
       16
 70
     1
 43
0.0
 10
502891.8603578443
 20
481074.6855328907
 10
502891.8808254916
 20
481074.6895930183
 10
502891.8804093093
 20
481074.6863133947
 10
502891.8797455846
 20
481074.6830971945
 10
502891.8788471456
 20
481074.6799591537
 10
502891.8777276573
 20
481074.676915121
 10
502891.8763998103
 20
481074.6739808071
 10
502891.8748774073
 20
481074.6711710861
 10
502891.8731739753
 20
481074.6685027811
 10
502891.8713022049
 20
481074.6659916028
 10
502891.868816174
 20
481074.6710330504
 10
502891.8661133912
 20
481074.6762506273
 10
502891.8647031608
 20
481074.6787939398
 10
502891.8632681253
 20
481074.681224398
 10
502891.8618168359
 20
481074.6834885367
 10
502891.8603578443
 20
481074.6855328907
  0
LWPOLYLINE
  5
73
330
627
100
AcDbEntity
  8
Haucher
100
AcDbPolyline
 90
       15
 70
     0
 43
0.0
 10
502891.8808254916
 20
481074.6895930183
 10
502891.8804093093
 20
481074.6863133947
 10
502891.8797455846
 20
481074.6830971945
 10
502891.8788471456
 20
481074.6799591537
 10
502891.8777276573
 20
481074.676915121
 10
502891.8763998103
 20
481074.6739808071
 10
502891.8748774073
 20
481074.6711710861
 10
502891.8731739753
 20
481074.6685027811
 10
502891.8713022049
 20
481074.6659916028
 10
502891.868816174
 20
481074.6710330504
 10
502891.8661133912
 20
481074.6762506273
 10
502891.8647031608
 20
481074.6787939398
 10
502891.8632681253
 20
481074.681224398
 10
502891.8618168359
 20
481074.6834885367
 10
502891.8603578443
 20
481074.6855328907
  0
LWPOLYLINE
  5
74
330
627
100
AcDbEntity
  8
Haucher
100
AcDbPolyline
 90
       18
 70
     1
 43
0.0
 10
502891.8140054712
 20
481074.6661206968
 10
502891.8241585044
 20
481074.6687258439
 10
502891.8228911295
 20
481074.6632890493
 10
502891.8219981574
 20
481074.6577282313
 10
502891.8214411951
 20
481074.6549804191
 10
502891.8206794248
 20
481074.6522961064
 10
502891.8196097487
 20
481074.6497084356
 10
502891.8181354672
 20
481074.6472474776
 10
502891.8145086282
 20
481074.6513015981
 10
502891.8107846521
 20
481074.6554662475
 10
502891.8090345017
 20
481074.6576364507
 10
502891.807437456
 20
481074.6598909216
 10
502891.8060545122
 20
481074.6622482231
 10
502891.8049424931
 20
481074.6647283158
 10
502891.8070922859
 20
481074.6651952153
 10
502891.8094324324
 20
481074.6657079085
 10
502891.8117935285
 20
481074.6660794223
 10
502891.8140054712
 20
481074.6661206968
  0
LWPOLYLINE
  5
75
330
627
100
AcDbEntity
  8
Haucher
100
AcDbPolyline
 90
       17
 70
     0
 43
0.0
 10
502891.8241585044
 20
481074.6687258439
 10
502891.8228911295
 20
481074.6632890493
 10
502891.8219981574
 20
481074.6577282313
 10
502891.8214411951
 20
481074.6549804191
 10
502891.8206794248
 20
481074.6522961064
 10
502891.8196097487
 20
481074.6497084356
 10
502891.8181354672
 20
481074.6472474776
 10
502891.8145086282
 20
481074.6513015981
 10
502891.8107846521
 20
481074.6554662475
 10
502891.8090345017
 20
481074.6576364507
 10
502891.807437456
 20
481074.6598909216
 10
502891.8060545122
 20
481074.6622482231
 10
502891.8049424931
 20
481074.6647283158
 10
502891.8070922859
 20
481074.6651952153
 10
502891.8094324324
 20
481074.6657079085
 10
502891.8117935285
 20
481074.6660794223
 10
502891.8140054712
 20
481074.6661206968
  0
LWPOLYLINE
  5
76
330
627
100
AcDbEntity
  8
Haucher
100
AcDbPolyline
 90
       18
 70
     1
 43
0.0
 10
502891.7547354236
 20
481074.6554058565
 10
502891.7776551122
 20
481074.6586455365
 10
502891.7773606463
 20
481074.6556863096
 10
502891.7765661506
 20
481074.6528045209
 10
502891.7754110588
 20
481074.6499701754
 10
502891.7740387031
 20
481074.6471538294
 10
502891.772590053
 20
481074.6443286875
 10
502891.771207466
 20
481074.6414651679
 10
502891.7700323249
 20
481074.6385335516
 10
502891.7692057372
 20
481074.6355060683
 10
502891.7684047745
 20
481074.6385142421
 10
502891.7670276624
 20
481074.6412381867
 10
502891.7652189888
 20
481074.643745061
 10
502891.7631211177
 20
481074.6461036975
 10
502891.7608805869
 20
481074.6483815308
 10
502891.7586398977
 20
481074.6506464187
 10
502891.7565437765
 20
481074.6529645457
 10
502891.7547354236
 20
481074.6554058565
  0
LWPOLYLINE
  5
77
330
627
100
AcDbEntity
  8
Haucher
100
AcDbPolyline
 90
       17
 70
     0
 43
0.0
 10
502891.7776551122
 20
481074.6586455365
 10
502891.7773606463
 20
481074.6556863096
 10
502891.7765661506
 20
481074.6528045209
 10
502891.7754110588
 20
481074.6499701754
 10
502891.7740387031
 20
481074.6471538294
 10
502891.772590053
 20
481074.6443286875
 10
502891.771207466
 20
481074.6414651679
 10
502891.7700323249
 20
481074.6385335516
 10
502891.7692057372
 20
481074.6355060683
 10
502891.7684047745
 20
481074.6385142421
 10
502891.7670276624
 20
481074.6412381867
 10
502891.7652189888
 20
481074.643745061
 10
502891.7631211177
 20
481074.6461036975
 10
502891.7608805869
 20
481074.6483815308
 10
502891.7586398977
 20
481074.6506464187
 10
502891.7565437765
 20
481074.6529645457
 10
502891.7547354236
 20
481074.6554058565
  0
LWPOLYLINE
  5
78
330
627
100
AcDbEntity
  8
Haucher
100
AcDbPolyline
 90
       18
 70
     1
 43
0.0
 10
502891.8124584258
 20
481074.726688593
 10
502891.7991664008
 20
481074.7049382565
 10
502891.8031743112
 20
481074.7054600382
 10
502891.8070981378
 20
481074.7053178228
 10
502891.810951028
 20
481074.7047421055
 10
502891.8147473889
 20
481074.70396853
 10
502891.8184971687
 20
481074.7032291271
 10
502891.822214351
 20
481074.7027555046
 10
502891.8259125063
 20
481074.7027821935
 10
502891.8296036696
 20
481074.7035405259
 10
502891.8288838471
 20
481074.7059746598
 10
502891.8272978375
 20
481074.7090090499
 10
502891.8250746942
 20
481074.712408667
 10
502891.8224452826
 20
481074.7159397324
 10
502891.8196386558
 20
481074.7193672167
 10
502891.8168855413
 20
481074.7224583157
 10
502891.8144151303
 20
481074.7249770257
 10
502891.8124584258
 20
481074.726688593
  0
LWPOLYLINE
  5
79
330
627
100
AcDbEntity
  8
Haucher
100
AcDbPolyline
 90
       17
 70
     0
 43
0.0
 10
502891.7991664008
 20
481074.7049382565
 10
502891.8031743112
 20
481074.7054600382
 10
502891.8070981378
 20
481074.7053178228
 10
502891.810951028
 20
481074.7047421055
 10
502891.8147473889
 20
481074.70396853
 10
502891.8184971687
 20
481074.7032291271
 10
502891.822214351
 20
481074.7027555046
 10
502891.8259125063
 20
481074.7027821935
 10
502891.8296036696
 20
481074.7035405259
 10
502891.8288838471
 20
481074.7059746598
 10
502891.8272978375
 20
481074.7090090499
 10
502891.8250746942
 20
481074.712408667
 10
502891.8224452826
 20
481074.7159397324
 10
502891.8196386558
 20
481074.7193672167
 10
502891.8168855413
 20
481074.7224583157
 10
502891.8144151303
 20
481074.7249770257
 10
502891.8124584258
 20
481074.726688593
  0
LWPOLYLINE
  5
7A
330
627
100
AcDbEntity
  8
Haucher
100
AcDbPolyline
 90
       16
 70
     1
 43
0.0
 10
502891.7814782788
 20
481074.6977619349
 10
502891.7983453919
 20
481074.7024831537
 10
502891.7969157413
 20
481074.6985741755
 10
502891.7953451314
 20
481074.6946989527
 10
502891.794633161
 20
481074.6927453642
 10
502891.7940371064
 20
481074.6907664092
 10
502891.7936083151
 20
481074.6887504584
 10
502891.7933971599
 20
481074.6866857443
 10
502891.7916886512
 20
481074.6879283989
 10
502891.790313199
 20
481074.6895153586
 10
502891.7891341642
 20
481074.6912950979
 10
502891.7880181063
 20
481074.6931145553
 10
502891.7868292225
 20
481074.6948233172
 10
502891.7854330981
 20
481074.6962681847
 10
502891.7836939303
 20
481074.6972987445
 10
502891.7814782788
 20
481074.6977619349
  0
LWPOLYLINE
  5
7B
330
627
100
AcDbEntity
  8
Haucher
100
AcDbPolyline
 90
       15
 70
     0
 43
0.0
 10
502891.7983453919
 20
481074.7024831537
 10
502891.7969157413
 20
481074.6985741755
 10
502891.7953451314
 20
481074.6946989527
 10
502891.794633161
 20
481074.6927453642
 10
502891.7940371064
 20
481074.6907664092
 10
502891.7936083151
 20
481074.6887504584
 10
502891.7933971599
 20
481074.6866857443
 10
502891.7916886512
 20
481074.6879283989
 10
502891.790313199
 20
481074.6895153586
 10
502891.7891341642
 20
481074.6912950979
 10
502891.7880181063
 20
481074.6931145553
 10
502891.7868292225
 20
481074.6948233172
 10
502891.7854330981
 20
481074.6962681847
 10
502891.7836939303
 20
481074.6972987445
 10
502891.7814782788
 20
481074.6977619349
  0
LWPOLYLINE
  5
7C
330
627
100
AcDbEntity
  8
Haucher
100
AcDbPolyline
 90
       12
 70
     1
 43
0.0
 10
502891.7227056441
 20
481074.6917915348
 10
502891.7448030736
 20
481074.6925779235
 10
502891.7429185514
 20
481074.6883143801
 10
502891.7410998271
 20
481074.6840213685
 10
502891.7394127294
 20
481074.6796903001
 10
502891.7379223879
 20
481074.6753104993
 10
502891.736095124
 20
481074.676823655
 10
502891.7342100054
 20
481074.6786546891
 10
502891.7322862628
 20
481074.6807238114
 10
502891.7303414533
 20
481074.6829490078
 10
502891.7264581736
 20
481074.687544437
 10
502891.7227056441
 20
481074.6917915348
  0
LWPOLYLINE
  5
7D
330
627
100
AcDbEntity
  8
Haucher
100
AcDbPolyline
 90
       11
 70
     0
 43
0.0
 10
502891.7448030736
 20
481074.6925779235
 10
502891.7429185514
 20
481074.6883143801
 10
502891.7410998271
 20
481074.6840213685
 10
502891.7394127294
 20
481074.6796903001
 10
502891.7379223879
 20
481074.6753104993
 10
502891.736095124
 20
481074.676823655
 10
502891.7342100054
 20
481074.6786546891
 10
502891.7322862628
 20
481074.6807238114
 10
502891.7303414533
 20
481074.6829490078
 10
502891.7264581736
 20
481074.687544437
 10
502891.7227056441
 20
481074.6917915348
  0
LWPOLYLINE
  5
7E
330
627
100
AcDbEntity
  8
Haucher
100
AcDbPolyline
 90
        2
 70
     0
 43
0.0
 10
502891.7962979332
 20
481074.2042178474
 10
502891.7777004978
 20
481074.2448412308
  0
LWPOLYLINE
  5
7F
330
627
100
AcDbEntity
  8
Haucher
100
AcDbPolyline
 90
        2
 70
     0
 43
0.0
 10
502891.830367726
 20
481074.2532787811
 10
502891.8152324446
 20
481074.2770320404
  0
LWPOLYLINE
  5
80
330
627
100
AcDbEntity
  8
Haucher
100
AcDbPolyline
 90
        2
 70
     0
 43
0.0
 10
502891.8774749477
 20
481074.3041248889
 10
502891.8612975156
 20
481074.3232883288
  0
LWPOLYLINE
  5
81
330
627
100
AcDbEntity
  8
Haucher
100
AcDbPolyline
 90
        2
 70
     0
 43
0.0
 10
502891.9356413637
 20
481074.343148018
 10
502891.9075236164
 20
481074.3683983487
  0
LWPOLYLINE
  5
82
330
627
100
AcDbEntity
  8
Haucher
100
AcDbPolyline
 90
        2
 70
     0
 43
0.0
 10
502891.9712292545
 20
481074.389092395
 10
502891.9493263629
 20
481074.4117131071
  0
LWPOLYLINE
  5
83
330
627
100
AcDbEntity
  8
Haucher
100
AcDbPolyline
 90
        2
 70
     0
 43
0.0
 10
502892.0091075951
 20
481074.4353595313
 10
502891.9904726156
 20
481074.4514299691
  0
LWPOLYLINE
  5
84
330
627
100
AcDbEntity
  8
Haucher
100
AcDbPolyline
 90
        2
 70
     0
 43
0.0
 10
502892.0533682302
 20
481074.4778546685
 10
502892.0322642386
 20
481074.4865599463
  0
LWPOLYLINE
  5
85
330
627
100
AcDbEntity
  8
Haucher
100
AcDbPolyline
 90
        2
 70
     0
 43
0.0
 10
502891.869016817
 20
481074.6738965073
 10
502891.8763982707
 20
481074.6059144523
  0
LWPOLYLINE
  5
86
330
627
100
AcDbEntity
  8
Haucher
100
AcDbPolyline
 90
        2
 70
     0
 43
0.0
 10
502891.8141570516
 20
481074.6567918719
 10
502891.8298415085
 20
481074.6059144523
  0
LWPOLYLINE
  5
87
330
627
100
AcDbEntity
  8
Haucher
100
AcDbPolyline
 90
        2
 70
     0
 43
0.0
 10
502891.7674916547
 20
481074.6478576949
 10
502891.7684098789
 20
481074.6134050503
  0
LWPOLYLINE
  5
88
330
627
100
AcDbEntity
  8
Haucher
100
AcDbPolyline
 90
        2
 70
     0
 43
0.0
 10
502891.7338297307
 20
481074.6875197605
 10
502891.7439352088
 20
481074.657386344
  0
LWPOLYLINE
  5
89
330
627
100
AcDbEntity
  8
Haucher
100
AcDbPolyline
 90
        2
 70
     0
 43
0.0
 10
502891.7921174637
 20
481074.6969277156
 10
502891.8004146075
 20
481074.6630325971
  0
LWPOLYLINE
  5
8A
330
627
100
AcDbEntity
  8
Haucher
100
AcDbPolyline
 90
        2
 70
     0
 43
0.0
 10
502891.8209438572
 20
481074.7080164828
 10
502891.8464545079
 20
481074.6929189097
  0
LWPOLYLINE
  5
8B
330
627
100
AcDbEntity
  8
Haucher
100
AcDbPolyline
 90
       18
 70
     1
 43
0.0
 10
502892.0844347652
 20
481074.233257452
 10
502892.0810328049
 20
481074.2573252204
 10
502892.0786493552
 20
481074.2552974034
 10
502892.0761568347
 20
481074.2534997055
 10
502892.0736117538
 20
481074.2518347424
 10
502892.071071735
 20
481074.2502042933
 10
502892.0685917528
 20
481074.2485077751
 10
502892.0662302666
 20
481074.2466480788
 10
502892.0640419754
 20
481074.2445265704
 10
502892.062083665
 20
481074.2420439168
 10
502892.0649549036
 20
481074.2409864886
 10
502892.0679108071
 20
481074.2401388484
 10
502892.0708963682
 20
481074.2393908312
 10
502892.0738588042
 20
481074.2386305986
 10
502892.0767471436
 20
481074.2377475623
 10
502892.0795083283
 20
481074.236631833
 10
502892.082088463
 20
481074.235172409
 10
502892.0844347652
 20
481074.233257452
  0
LWPOLYLINE
  5
8C
330
627
100
AcDbEntity
  8
Haucher
100
AcDbPolyline
 90
       17
 70
     0
 43
0.0
 10
502892.0810328049
 20
481074.2573252204
 10
502892.0786493552
 20
481074.2552974034
 10
502892.0761568347
 20
481074.2534997055
 10
502892.0736117538
 20
481074.2518347424
 10
502892.071071735
 20
481074.2502042933
 10
502892.0685917528
 20
481074.2485077751
 10
502892.0662302666
 20
481074.2466480788
 10
502892.0640419754
 20
481074.2445265704
 10
502892.062083665
 20
481074.2420439168
 10
502892.0649549036
 20
481074.2409864886
 10
502892.0679108071
 20
481074.2401388484
 10
502892.0708963682
 20
481074.2393908312
 10
502892.0738588042
 20
481074.2386305986
 10
502892.0767471436
 20
481074.2377475623
 10
502892.0795083283
 20
481074.236631833
 10
502892.082088463
 20
481074.235172409
 10
502892.0844347652
 20
481074.233257452
  0
LWPOLYLINE
  5
8D
330
627
100
AcDbEntity
  8
Haucher
100
AcDbPolyline
 90
       12
 70
     1
 43
0.0
 10
502892.094231928
 20
481074.3293277267
 10
502892.1036005216
 20
481074.3540305788
 10
502892.0967448378
 20
481074.3531132251
 10
502892.0898621717
 20
481074.3522109448
 10
502892.0830076146
 20
481074.3512082601
 10
502892.0762366714
 20
481074.3499867691
 10
502892.0779229603
 20
481074.347178291
 10
502892.0799756127
 20
481074.3444573847
 10
502892.0822918825
 20
481074.3418125093
 10
502892.0847688853
 20
481074.3392330987
 10
502892.0897956304
 20
481074.3342207468
 10
502892.094231928
 20
481074.3293277267
  0
LWPOLYLINE
  5
8E
330
627
100
AcDbEntity
  8
Haucher
100
AcDbPolyline
 90
       11
 70
     0
 43
0.0
 10
502892.1036005216
 20
481074.3540305788
 10
502892.0967448378
 20
481074.3531132251
 10
502892.0898621717
 20
481074.3522109448
 10
502892.0830076146
 20
481074.3512082601
 10
502892.0762366714
 20
481074.3499867691
 10
502892.0779229603
 20
481074.347178291
 10
502892.0799756127
 20
481074.3444573847
 10
502892.0822918825
 20
481074.3418125093
 10
502892.0847688853
 20
481074.3392330987
 10
502892.0897956304
 20
481074.3342207468
 10
502892.094231928
 20
481074.3293277267
  0
LWPOLYLINE
  5
8F
330
627
100
AcDbEntity
  8
Haucher
100
AcDbPolyline
 90
       16
 70
     1
 43
0.0
 10
502892.1338537951
 20
481074.4459791237
 10
502892.1379758004
 20
481074.4664332852
 10
502892.13238571
 20
481074.4656978043
 10
502892.1268545128
 20
481074.464876211
 10
502892.1241564535
 20
481074.4643427492
 10
502892.1215272474
 20
481074.4636808437
 10
502892.1189849369
 20
481074.4628542758
 10
502892.1165485389
 20
481074.4618269647
 10
502892.1177735419
 20
481074.4595040006
 10
502892.1193534455
 20
481074.4570472979
 10
502892.1212440162
 20
481074.4545728753
 10
502892.1234040828
 20
481074.45219619
 10
502892.1257884373
 20
481074.4500331231
 10
502892.1283539588
 20
481074.4481988563
 10
502892.1310565521
 20
481074.4468084335
 10
502892.1338537951
 20
481074.4459791237
  0
LWPOLYLINE
  5
90
330
627
100
AcDbEntity
  8
Haucher
100
AcDbPolyline
 90
       15
 70
     0
 43
0.0
 10
502892.1379758004
 20
481074.4664332852
 10
502892.13238571
 20
481074.4656978043
 10
502892.1268545128
 20
481074.464876211
 10
502892.1241564535
 20
481074.4643427492
 10
502892.1215272474
 20
481074.4636808437
 10
502892.1189849369
 20
481074.4628542758
 10
502892.1165485389
 20
481074.4618269647
 10
502892.1177735419
 20
481074.4595040006
 10
502892.1193534455
 20
481074.4570472979
 10
502892.1212440162
 20
481074.4545728753
 10
502892.1234040828
 20
481074.45219619
 10
502892.1257884373
 20
481074.4500331231
 10
502892.1283539588
 20
481074.4481988563
 10
502892.1310565521
 20
481074.4468084335
 10
502892.1338537951
 20
481074.4459791237
  0
LWPOLYLINE
  5
91
330
627
100
AcDbEntity
  8
Haucher
100
AcDbPolyline
 90
       16
 70
     1
 43
0.0
 10
502892.162825354
 20
481074.5552799587
 10
502892.1654790309
 20
481074.5778656269
 10
502892.1621649027
 20
481074.5773514501
 10
502892.1583251805
 20
481074.576476688
 10
502892.1541787776
 20
481074.5753031
 10
502892.149945857
 20
481074.5738906343
 10
502892.1458472811
 20
481074.5723013256
 10
502892.1421022384
 20
481074.5705949844
 10
502892.1389314533
 20
481074.56883462
 10
502892.1365550893
 20
481074.5670801807
 10
502892.143351664
 20
481074.564076508
 10
502892.1498962903
 20
481074.5613573142
 10
502892.153120774
 20
481074.5599879744
 10
502892.1563372202
 20
481074.5585489075
 10
502892.1595658858
 20
481074.5569952612
 10
502892.162825354
 20
481074.5552799587
  0
LWPOLYLINE
  5
92
330
627
100
AcDbEntity
  8
Haucher
100
AcDbPolyline
 90
       15
 70
     0
 43
0.0
 10
502892.1654790309
 20
481074.5778656269
 10
502892.1621649027
 20
481074.5773514501
 10
502892.1583251805
 20
481074.576476688
 10
502892.1541787776
 20
481074.5753031
 10
502892.149945857
 20
481074.5738906343
 10
502892.1458472811
 20
481074.5723013256
 10
502892.1421022384
 20
481074.5705949844
 10
502892.1389314533
 20
481074.56883462
 10
502892.1365550893
 20
481074.5670801807
 10
502892.143351664
 20
481074.564076508
 10
502892.1498962903
 20
481074.5613573142
 10
502892.153120774
 20
481074.5599879744
 10
502892.1563372202
 20
481074.5585489075
 10
502892.1595658858
 20
481074.5569952612
 10
502892.162825354
 20
481074.5552799587
  0
LWPOLYLINE
  5
93
330
627
100
AcDbEntity
  8
Haucher
100
AcDbPolyline
 90
       16
 70
     1
 43
0.0
 10
502892.1677880986
 20
481074.7021002292
 10
502892.1647101478
 20
481074.7238757363
 10
502892.1617961457
 20
481074.7224648011
 10
502892.1589649883
 20
481074.7205029305
 10
502892.1562162028
 20
481074.7181411569
 10
502892.1535497399
 20
481074.7155345487
 10
502892.1484595287
 20
481074.710193606
 10
502892.1436903178
 20
481074.7057042296
 10
502892.1461166837
 20
481074.7045590672
 10
502892.1489336676
 20
481074.7036182294
 10
502892.1520286492
 20
481074.702876732
 10
502892.1552902693
 20
481074.7023347398
 10
502892.158608694
 20
481074.7019886567
 10
502892.1618720025
 20
481074.7018355856
 10
502892.164969111
 20
481074.7018737422
 10
502892.1677880986
 20
481074.7021002292
  0
LWPOLYLINE
  5
94
330
627
100
AcDbEntity
  8
Haucher
100
AcDbPolyline
 90
       15
 70
     0
 43
0.0
 10
502892.1647101478
 20
481074.7238757363
 10
502892.1617961457
 20
481074.7224648011
 10
502892.1589649883
 20
481074.7205029305
 10
502892.1562162028
 20
481074.7181411569
 10
502892.1535497399
 20
481074.7155345487
 10
502892.1484595287
 20
481074.710193606
 10
502892.1436903178
 20
481074.7057042296
 10
502892.1461166837
 20
481074.7045590672
 10
502892.1489336676
 20
481074.7036182294
 10
502892.1520286492
 20
481074.702876732
 10
502892.1552902693
 20
481074.7023347398
 10
502892.158608694
 20
481074.7019886567
 10
502892.1618720025
 20
481074.7018355856
 10
502892.164969111
 20
481074.7018737422
 10
502892.1677880986
 20
481074.7021002292
  0
LWPOLYLINE
  5
95
330
627
100
AcDbEntity
  8
Haucher
100
AcDbPolyline
 90
       11
 70
     1
 43
0.0
 10
502892.1290161387
 20
481074.8275442278
 10
502892.1059712905
 20
481074.850001537
 10
502892.1065453112
 20
481074.847150159
 10
502892.1066032164
 20
481074.8437586141
 10
502892.1062286864
 20
481074.8400295927
 10
502892.1055031767
 20
481074.8361674583
 10
502892.1045073058
 20
481074.8323754627
 10
502892.1033246161
 20
481074.8288572703
 10
502892.1020357263
 20
481074.8258161328
 10
502892.1007239032
 20
481074.8234576641
 10
502892.1290161387
 20
481074.8275442278
  0
LWPOLYLINE
  5
96
330
627
100
AcDbEntity
  8
Haucher
100
AcDbPolyline
 90
       10
 70
     0
 43
0.0
 10
502892.1059712905
 20
481074.850001537
 10
502892.1065453112
 20
481074.847150159
 10
502892.1066032164
 20
481074.8437586141
 10
502892.1062286864
 20
481074.8400295927
 10
502892.1055031767
 20
481074.8361674583
 10
502892.1045073058
 20
481074.8323754627
 10
502892.1033246161
 20
481074.8288572703
 10
502892.1020357263
 20
481074.8258161328
 10
502892.1007239032
 20
481074.8234576641
 10
502892.1290161387
 20
481074.8275442278
  0
LWPOLYLINE
  5
97
330
627
100
AcDbEntity
  8
Haucher
100
AcDbPolyline
 90
       16
 70
     1
 43
0.0
 10
502892.0278341547
 20
481074.9231210989
 10
502891.9993821117
 20
481074.9424800219
 10
502891.9991762704
 20
481074.9393017032
 10
502891.9990825185
 20
481074.9361461867
 10
502891.9990991721
 20
481074.9330042877
 10
502891.9992237103
 20
481074.9298657093
 10
502891.9997881686
 20
481074.923558576
 10
502892.0007585131
 20
481074.9171437983
 10
502892.0038911987
 20
481074.9173311242
 10
502892.0071858864
 20
481074.9178773456
 10
502892.0105980239
 20
481074.9186827223
 10
502892.0140827837
 20
481074.9196494632
 10
502892.0175939401
 20
481074.9206756033
 10
502892.0210858285
 20
481074.9216622392
 10
502892.0245147339
 20
481074.922510743
 10
502892.0278341547
 20
481074.9231210989
  0
LWPOLYLINE
  5
98
330
627
100
AcDbEntity
  8
Haucher
100
AcDbPolyline
 90
       15
 70
     0
 43
0.0
 10
502891.9993821117
 20
481074.9424800219
 10
502891.9991762704
 20
481074.9393017032
 10
502891.9990825185
 20
481074.9361461867
 10
502891.9990991721
 20
481074.9330042877
 10
502891.9992237103
 20
481074.9298657093
 10
502891.9997881686
 20
481074.923558576
 10
502892.0007585131
 20
481074.9171437983
 10
502892.0038911987
 20
481074.9173311242
 10
502892.0071858864
 20
481074.9178773456
 10
502892.0105980239
 20
481074.9186827223
 10
502892.0140827837
 20
481074.9196494632
 10
502892.0175939401
 20
481074.9206756033
 10
502892.0210858285
 20
481074.9216622392
 10
502892.0245147339
 20
481074.922510743
 10
502892.0278341547
 20
481074.9231210989
  0
LWPOLYLINE
  5
99
330
627
100
AcDbEntity
  8
Haucher
100
AcDbPolyline
 90
       16
 70
     1
 43
0.0
 10
502891.9418051119
 20
481074.9694104656
 10
502891.9087557493
 20
481074.979934364
 10
502891.9094500067
 20
481074.9739537403
 10
502891.9101948341
 20
481074.9678122663
 10
502891.9107258632
 20
481074.9647868132
 10
502891.9114374237
 20
481074.9618485106
 10
502891.9123851195
 20
481074.9590400105
 10
502891.9136256663
 20
481074.9564031284
 10
502891.9169932287
 20
481074.958599871
 10
502891.9202864149
 20
481074.9607672133
 10
502891.9235652615
 20
481074.9628390858
 10
502891.9268889686
 20
481074.9647483069
 10
502891.9303157609
 20
481074.966427557
 10
502891.9339040017
 20
481074.9678085422
 10
502891.9377147018
 20
481074.9688253308
 10
502891.9418051119
 20
481074.9694104656
  0
LWPOLYLINE
  5
9A
330
627
100
AcDbEntity
  8
Haucher
100
AcDbPolyline
 90
       15
 70
     0
 43
0.0
 10
502891.9087557493
 20
481074.979934364
 10
502891.9094500067
 20
481074.9739537403
 10
502891.9101948341
 20
481074.9678122663
 10
502891.9107258632
 20
481074.9647868132
 10
502891.9114374237
 20
481074.9618485106
 10
502891.9123851195
 20
481074.9590400105
 10
502891.9136256663
 20
481074.9564031284
 10
502891.9169932287
 20
481074.958599871
 10
502891.9202864149
 20
481074.9607672133
 10
502891.9235652615
 20
481074.9628390858
 10
502891.9268889686
 20
481074.9647483069
 10
502891.9303157609
 20
481074.966427557
 10
502891.9339040017
 20
481074.9678085422
 10
502891.9377147018
 20
481074.9688253308
 10
502891.9418051119
 20
481074.9694104656
  0
LWPOLYLINE
  5
9B
330
627
100
AcDbEntity
  8
Haucher
100
AcDbPolyline
 90
       16
 70
     1
 43
0.0
 10
502891.8282197055
 20
481074.979070932
 10
502891.8041519371
 20
481074.9756689718
 10
502891.8044699852
 20
481074.9728281338
 10
502891.8052192985
 20
481074.9701923953
 10
502891.8062557017
 20
481074.9676916737
 10
502891.8074382188
 20
481074.9652543503
 10
502891.8086226751
 20
481074.9628103425
 10
502891.8096689312
 20
481074.9602891439
 10
502891.8104329498
 20
481074.9576196974
 10
502891.8107726426
 20
481074.9547312211
 10
502891.8154794308
 20
481074.9603092306
 10
502891.8203971919
 20
481074.9663216488
 10
502891.8227289498
 20
481074.9694465743
 10
502891.8248643751
 20
481074.9726242681
 10
502891.8267221523
 20
481074.9758392603
 10
502891.8282197055
 20
481074.979070932
  0
LWPOLYLINE
  5
9C
330
627
100
AcDbEntity
  8
Haucher
100
AcDbPolyline
 90
       15
 70
     0
 43
0.0
 10
502891.8041519371
 20
481074.9756689718
 10
502891.8044699852
 20
481074.9728281338
 10
502891.8052192985
 20
481074.9701923953
 10
502891.8062557017
 20
481074.9676916737
 10
502891.8074382188
 20
481074.9652543503
 10
502891.8086226751
 20
481074.9628103425
 10
502891.8096689312
 20
481074.9602891439
 10
502891.8104329498
 20
481074.9576196974
 10
502891.8107726426
 20
481074.9547312211
 10
502891.8154794308
 20
481074.9603092306
 10
502891.8203971919
 20
481074.9663216488
 10
502891.8227289498
 20
481074.9694465743
 10
502891.8248643751
 20
481074.9726242681
 10
502891.8267221523
 20
481074.9758392603
 10
502891.8282197055
 20
481074.979070932
  0
LWPOLYLINE
  5
9D
330
627
100
AcDbEntity
  8
Haucher
100
AcDbPolyline
 90
       16
 70
     1
 43
0.0
 10
502891.7052298351
 20
481074.9394778255
 10
502891.7327601913
 20
481074.9597356376
 10
502891.7319797627
 20
481074.9559174324
 10
502891.7316038506
 20
481074.9518184204
 10
502891.7314739387
 20
481074.9475543716
 10
502891.7314358223
 20
481074.9432386833
 10
502891.7313322349
 20
481074.9389853141
 10
502891.7310056349
 20
481074.9349101715
 10
502891.730301955
 20
481074.9311256784
 10
502891.7290628168
 20
481074.9277466299
 10
502891.723440671
 20
481074.9308457279
 10
502891.7173711513
 20
481074.9346132277
 10
502891.7142730947
 20
481074.936382162
 10
502891.7111885567
 20
481074.9378796369
 10
502891.7081599182
 20
481074.938960544
 10
502891.7052298351
 20
481074.9394778255
  0
LWPOLYLINE
  5
9E
330
627
100
AcDbEntity
  8
Haucher
100
AcDbPolyline
 90
       15
 70
     0
 43
0.0
 10
502891.7327601913
 20
481074.9597356376
 10
502891.7319797627
 20
481074.9559174324
 10
502891.7316038506
 20
481074.9518184204
 10
502891.7314739387
 20
481074.9475543716
 10
502891.7314358223
 20
481074.9432386833
 10
502891.7313322349
 20
481074.9389853141
 10
502891.7310056349
 20
481074.9349101715
 10
502891.730301955
 20
481074.9311256784
 10
502891.7290628168
 20
481074.9277466299
 10
502891.723440671
 20
481074.9308457279
 10
502891.7173711513
 20
481074.9346132277
 10
502891.7142730947
 20
481074.936382162
 10
502891.7111885567
 20
481074.9378796369
 10
502891.7081599182
 20
481074.938960544
 10
502891.7052298351
 20
481074.9394778255
  0
LWPOLYLINE
  5
667
330
627
100
AcDbEntity
  8
Context
 62
     1
100
AcDbPolyline
 90
        6
 70
     0
 43
0.0
 10
502891.7275784937
 20
481074.6577178611
 10
502891.7641808652
 20
481074.6639056054
 10
502891.8049424931
 20
481074.6647283158
 10
502891.8484587593
 20
481074.6869482186
 10
502891.8560173143
 20
481074.7103685892
 10
502891.8082412253
 20
481074.7895918902
  0
LWPOLYLINE
  5
668
330
627
100
AcDbEntity
  8
Context
 62
     1
100
AcDbPolyline
 90
        2
 70
     0
 43
0.0
 10
502891.8924988606
 20
481074.6940801242
 10
502891.849755265
 20
481074.6909654738
  0
LWPOLYLINE
  5
669
330
627
100
AcDbEntity
  8
Context
 62
     1
100
AcDbPolyline
 90
        7
 70
     0
 43
0.0
 10
502891.7387850797
 20
481074.6142437466
 10
502891.763275584
 20
481074.6142437466
 10
502891.8142655008
 20
481074.6059144523
 10
502891.8504150748
 20
481074.6059144523
 10
502891.8831399574
 20
481074.6059144523
 10
502891.8956971726
 20
481074.6059144523
 10
502891.906077397
 20
481074.6086043408
  0
LWPOLYLINE
  5
66A
330
627
100
AcDbEntity
  8
Context
 62
     1
100
AcDbPolyline
 90
        9
 70
     0
 43
0.0
 10
502891.7777004978
 20
481074.2448412308
 10
502891.8152324446
 20
481074.2770320404
 10
502891.8612975156
 20
481074.3232883288
 10
502891.9558759306
 20
481074.4049488913
 10
502892.0322642386
 20
481074.4865599463
 10
502892.0636643418
 20
481074.5134087079
 10
502892.0540661445
 20
481074.5236021445
 10
502892.0247577709
 20
481074.5326189672
 10
502891.9771206115
 20
481074.5305526649
  0
TEXT
  5
66D
330
627
100
AcDbEntity
  8
Title
100
AcDbText
 10
502890.9055715364
 20
481075.4237926594
 30
0.0
 40
0.05
  1
SC08 SC25
100
AcDbText
  0
TEXT
  5
66E
330
627
100
AcDbEntity
  8
Title
100
AcDbText
 10
502890.9055715364
 20
481075.340459326
 30
0.0
 40
0.05
  1
Plan of east facing feature
100
AcDbText
  0
TEXT
  5
66F
330
627
100
AcDbEntity
  8
Title
100
AcDbText
 10
502890.9055715364
 20
481075.2571259927
 30
0.0
 40
0.05
  1
18/2008 LM
100
AcDbText
  0
TEXT
  5
670
330
627
100
AcDbEntity
  8
Title
100
AcDbText
 10
502890.9055715364
 20
481075.1737926594
 30
0.0
 40
0.05
  1
Drawing 87
100
AcDbText
  0
ENDSEC
  0
SECTION
  2
OBJECTS
  0
DICTIONARY
  5
5C3
330
0
100
AcDbDictionary
281
     1
  3
ACAD_CIP_PREVIOUS_PRODUCT_INFO
350
63A
  3
ACAD_COLOR
350
619
  3
ACAD_DETAILVIEWSTYLE
350
621
  3
ACAD_GROUP
350
5C4
  3
ACAD_IMAGE_DICT
350
63B
  3
ACAD_IMAGE_VARS
350
63C
  3
ACAD_LAYOUT
350
618
  3
ACAD_MATERIAL
350
5C7
  3
ACAD_MLEADERSTYLE
350
61C
  3
ACAD_MLINESTYLE
350
615
  3
ACAD_PLOTSETTINGS
350
617
  3
ACAD_PLOTSTYLENAME
350
5C5
  3
ACAD_SCALELIST
350
5F9
  3
ACAD_SECTIONVIEWSTYLE
350
61E
  3
ACAD_TABLESTYLE
350
61A
  3
ACAD_VISUALSTYLE
350
5E0
  3
ACDB_RECOMPOSE_DATA
350
6F7
  3
AcDbVariableDictionary
350
677
  0
DICTIONARY
  5
64C
330
627
100
AcDbDictionary
280
     1
281
     1
  3
ACAD_SORTENTS
360
64D
  0
XRECORD
  5
63A
102
{ACAD_REACTORS
330
5C3
102
}
330
5C3
100
AcDbXrecord
280
     1
300
ACD
300
2013
300
ACD_F_S
  0
DICTIONARY
  5
619
102
{ACAD_REACTORS
330
5C3
102
}
330
5C3
100
AcDbDictionary
281
     1
  0
DICTIONARY
  5
621
102
{ACAD_REACTORS
330
5C3
102
}
330
5C3
100
AcDbDictionary
281
     1
  3
Imperial24
350
622
  0
DICTIONARY
  5
5C4
102
{ACAD_REACTORS
330
5C3
102
}
330
5C3
100
AcDbDictionary
281
     1
  0
DICTIONARY
  5
63B
102
{ACAD_REACTORS
330
5C3
102
}
330
5C3
100
AcDbDictionary
281
     1
  3
drawing087
350
63D
  0
RASTERVARIABLES
  5
63C
102
{ACAD_REACTORS
330
5C3
102
}
330
5C3
100
AcDbRasterVariables
 90
        0
 70
     1
 71
     1
 72
     0
  0
DICTIONARY
  5
618
102
{ACAD_REACTORS
330
5C3
102
}
330
5C3
100
AcDbDictionary
281
     1
  3
Layout1
350
626
  3
Model
350
62A
  0
DICTIONARY
  5
5C7
102
{ACAD_REACTORS
330
5C3
102
}
330
5C3
100
AcDbDictionary
281
     1
  3
ByBlock
350
5D0
  3
ByLayer
350
5C8
  3
Global
350
5D8
  0
DICTIONARY
  5
61C
102
{ACAD_REACTORS
330
5C3
102
}
330
5C3
100
AcDbDictionary
281
     1
  3
Standard
350
61D
  0
DICTIONARY
  5
615
102
{ACAD_REACTORS
330
5C3
102
}
330
5C3
100
AcDbDictionary
281
     1
  3
Standard
350
616
  0
DICTIONARY
  5
617
102
{ACAD_REACTORS
330
5C3
102
}
330
5C3
100
AcDbDictionary
281
     1
  0
ACDBDICTIONARYWDFLT
  5
5C5
102
{ACAD_REACTORS
330
5C3
102
}
330
5C3
100
AcDbDictionary
281
     1
  3
Normal
350
5C6
100
AcDbDictionaryWithDefault
340
5C6
  0
DICTIONARY
  5
5F9
102
{ACAD_REACTORS
330
5C3
102
}
330
5C3
100
AcDbDictionary
281
     1
  3
A0
350
5FA
  3
A1
350
5FB
  3
A2
350
5FC
  3
A3
350
5FD
  3
A4
350
5FE
  3
A5
350
5FF
  3
A6
350
600
  3
A7
350
601
  3
A8
350
602
  3
A9
350
603
  3
B0
350
604
  3
B1
350
605
  3
B2
350
606
  3
B3
350
607
  3
B4
350
608
  3
B5
350
609
  3
B6
350
60A
  0
DICTIONARY
  5
61E
102
{ACAD_REACTORS
330
5C3
102
}
330
5C3
100
AcDbDictionary
281
     1
  3
Imperial24
350
620
  0
DICTIONARY
  5
61A
102
{ACAD_REACTORS
330
5C3
102
}
330
5C3
100
AcDbDictionary
281
     1
  3
Standard
350
61B
  0
DICTIONARY
  5
5E0
102
{ACAD_REACTORS
330
5C3
102
}
330
5C3
100
AcDbDictionary
281
     1
  3
2dWireframe
350
5E6
  3
Basic
350
5E5
  3
Brighten
350
5EC
  3
ColorChange
350
5F0
  3
Conceptual
350
5E9
  3
Dim
350
5EB
  3
EdgeColorOff
350
5F8
  3
Facepattern
350
5EF
  3
Flat
350
5E1
  3
FlatWithEdges
350
5E2
  3
Gouraud
350
5E3
  3
GouraudWithEdges
350
5E4
  3
Hidden
350
5E8
  3
JitterOff
350
5F6
  3
Linepattern
350
5EE
  3
OverhangOff
350
5F7
  3
Realistic
350
5EA
  3
Shaded
350
5F5
  3
Shaded with edges
350
5F4
  3
Shades of Gray
350
5F1
  3
Sketchy
350
5F2
  3
Thicken
350
5ED
  3
Wireframe
350
5E7
  3
X-Ray
350
5F3
  0
XRECORD
  5
6F7
102
{ACAD_REACTORS
330
5C3
102
}
330
5C3
100
AcDbXrecord
280
     1
 90
        1
330
61B
  0
DICTIONARY
  5
677
102
{ACAD_REACTORS
330
5C3
102
}
330
5C3
100
AcDbDictionary
281
     1
  3
CANNOSCALE
350
67C
  3
CMLEADERSTYLE
350
679
  3
CTABLESTYLE
350
678
  3
CVIEWDETAILSTYLE
350
67A
  3
CVIEWSECTIONSTYLE
350
67B
  3
LAYEREVAL
350
6C0
  3
LAYERNOTIFY
350
6C1
  3
LIGHTINGUNITS
350
6BF
  3
MSLTSCALE
350
6BE
  3
XCLIPFRAME
350
6C2
  0
SORTENTSTABLE
  5
64D
102
{ACAD_REACTORS
330
64C
102
}
330
64C
100
AcDbSortentsTable
330
627
331
41
  5
42
331
42
  5
43
331
43
  5
44
331
44
  5
45
331
45
  5
46
331
5A
  5
5B
331
5B
  5
5C
331
5C
  5
5D
331
5D
  5
5E
331
5E
  5
5F
331
5F
  5
60
331
60
  5
61
331
61
  5
62
331
62
  5
63
331
63
  5
64
331
64
  5
65
331
65
  5
66
331
66
  5
67
331
67
  5
68
331
68
  5
69
331
69
  5
6A
331
6A
  5
6B
331
6B
  5
6C
331
6C
  5
6D
331
6D
  5
6E
331
6E
  5
6F
331
6F
  5
70
331
70
  5
71
331
72
  5
73
331
73
  5
74
331
74
  5
75
331
75
  5
76
331
76
  5
77
331
77
  5
78
331
78
  5
79
331
79
  5
7A
331
7A
  5
7B
331
7B
  5
7C
331
7C
  5
7D
331
7D
  5
7E
331
7E
  5
7F
331
7F
  5
80
331
80
  5
81
331
81
  5
82
331
82
  5
83
331
83
  5
84
331
84
  5
85
331
85
  5
86
331
86
  5
87
331
87
  5
88
331
88
  5
89
331
89
  5
8A
331
8A
  5
8B
331
8B
  5
8C
331
8C
  5
8D
331
8D
  5
8E
331
8E
  5
8F
331
8F
  5
90
331
90
  5
91
331
91
  5
92
331
92
  5
93
331
93
  5
94
331
94
  5
95
331
95
  5
96
331
96
  5
97
331
97
  5
98
331
98
  5
99
331
99
  5
9A
331
9A
  5
9B
331
9B
  5
9C
331
9C
  5
9D
331
9D
  5
9E
331
9E
  5
A0
  0
ACAD_PROXY_OBJECT
  5
622
102
{ACAD_REACTORS
330
621
102
}
330
621
100
AcDbProxyObject
 90
      499
 91
      507
 95
  6815769
 70
     0
161
              1513
310
90B496D70657269616C323400481C00000060001703D0BD6A3719C7F015AF46E07A15AE7E07000000180005C0F42F5A8DC671FA3300000018001000000180005C0F42F5A8DC671FA02000000000000741FA02AD929E2E20B1AB30B9102B34B2BBAA3CB832902E33101112BA3198911F1290129E2E20B1AB30B9102B34B2BBA
310
232BA30B4B624B21F12AE2829A1A0A62290129E2E20B1AB30B9102B34B2BBA9B1B0B632902E33101112B9B7111F1280233000000180008CC00000060000000
340
60C
340
0
340
613
340
60C
340
613
340
613
 94
        0
  0
IMAGEDEF
  5
63D
102
{ACAD_REACTORS
330
63B
102
}
330
63B
100
AcDbRasterImageDef
 90
        0
  1
F:\Star Carr\Scans dr35-109\drawing087.jpg
 10
5950.0
 20
4094.0
 11
0.07257142857142856
 21
0.07257142857142856
280
     1
281
     5
  0
LAYOUT
  5
626
102
{ACAD_REACTORS
330
618
102
}
330
618
100
AcDbPlotSettings
  1

  2
\\ypp\ITSPRN0030
  4

  6

 40
0.0
 41
0.0
 42
0.0
 43
0.0
 44
0.0
 45
0.0
 46
0.0
 47
0.0
 48
0.0
 49
0.0
140
0.0
141
0.0
142
1.0
143
1.0
 70
   688
 72
     0
 73
     0
 74
     5
  7

 75
    16
 76
     0
 77
     2
 78
   300
147
1.0
148
0.0
149
0.0
100
AcDbLayout
  1
Layout1
 70
     1
 71
     1
 10
0.0
 20
0.0
 11
12.0
 21
9.0
 12
0.0
 22
0.0
 32
0.0
 14
1.000000000000000E+20
 24
1.000000000000000E+20
 34
1.000000000000000E+20
 15
-1.000000000000000E+20
 25
-1.000000000000000E+20
 35
-1.000000000000000E+20
146
0.0
 13
0.0
 23
0.0
 33
0.0
 16
1.0
 26
0.0
 36
0.0
 17
0.0
 27
1.0
 37
0.0
 76
     0
330
623
  0
LAYOUT
  5
62A
102
{ACAD_REACTORS
330
618
102
}
330
618
100
AcDbPlotSettings
  1

  2
\\ypp\ITSPRN0030
  4

  6

 40
0.0
 41
0.0
 42
0.0
 43
0.0
 44
0.0
 45
0.0
 46
0.0
 47
0.0
 48
0.0
 49
0.0
140
0.0
141
0.0
142
1.0
143
1.0
 70
  1712
 72
     0
 73
     0
 74
     0
  7

 75
     0
 76
     0
 77
     2
 78
   300
147
1.0
148
0.0
149
0.0
100
AcDbLayout
  1
Model
 70
     1
 71
     0
 10
0.0
 20
0.0
 11
12.0
 21
9.0
 12
0.0
 22
0.0
 32
0.0
 14
0.0
 24
0.0
 34
0.0
 15
0.0
 25
0.0
 35
0.0
146
0.0
 13
0.0
 23
0.0
 33
0.0
 16
1.0
 26
0.0
 36
0.0
 17
0.0
 27
1.0
 37
0.0
 76
     0
330
627
331
62F
  0
MATERIAL
  5
5D0
102
{ACAD_REACTORS
330
5C7
102
}
330
5C7
100
AcDbMaterial
  1
ByBlock
 72
     0
 73
     2
 43
0.0208333333333333
 43
0.0
 43
0.0
 43
0.0
 43
0.0
 43
0.0208333333333333
 43
0.0
 43
0.0
 43
0.0
 43
0.0
 43
1.0
 43
0.0
 43
0.0
 43
0.0
 43
0.0
 43
1.0
 77
     0
 78
     2
 47
0.0208333333333333
 47
0.0
 47
0.0
 47
0.0
 47
0.0
 47
0.0208333333333333
 47
0.0
 47
0.0
 47
0.0
 47
0.0
 47
1.0
 47
0.0
 47
0.0
 47
0.0
 47
0.0
 47
1.0
171
     0
172
     2
 49
0.0208333333333333
 49
0.0
 49
0.0
 49
0.0
 49
0.0
 49
0.0208333333333333
 49
0.0
 49
0.0
 49
0.0
 49
0.0
 49
1.0
 49
0.0
 49
0.0
 49
0.0
 49
0.0
 49
1.0
175
     0
176
     2
142
0.0208333333333333
142
0.0
142
0.0
142
0.0
142
0.0
142
0.0208333333333333
142
0.0
142
0.0
142
0.0
142
0.0
142
1.0
142
0.0
142
0.0
142
0.0
142
0.0
142
1.0
179
     0
270
     2
144
0.0208333333333333
144
0.0
144
0.0
144
0.0
144
0.0
144
0.0208333333333333
144
0.0
144
0.0
144
0.0
144
0.0
144
1.0
144
0.0
144
0.0
144
0.0
144
0.0
144
1.0
274
     2
147
0.0208333333333333
147
0.0
147
0.0
147
0.0
147
0.0
147
0.0208333333333333
147
0.0
147
0.0
147
0.0
147
0.0
147
1.0
147
0.0
147
0.0
147
0.0
147
0.0
147
1.0
 94
      127
  0
MATERIAL
  5
5C8
102
{ACAD_REACTORS
330
5C7
102
}
330
5C7
100
AcDbMaterial
  1
ByLayer
 72
     0
 73
     2
 43
0.0208333333333333
 43
0.0
 43
0.0
 43
0.0
 43
0.0
 43
0.0208333333333333
 43
0.0
 43
0.0
 43
0.0
 43
0.0
 43
1.0
 43
0.0
 43
0.0
 43
0.0
 43
0.0
 43
1.0
 77
     0
 78
     2
 47
0.0208333333333333
 47
0.0
 47
0.0
 47
0.0
 47
0.0
 47
0.0208333333333333
 47
0.0
 47
0.0
 47
0.0
 47
0.0
 47
1.0
 47
0.0
 47
0.0
 47
0.0
 47
0.0
 47
1.0
171
     0
172
     2
 49
0.0208333333333333
 49
0.0
 49
0.0
 49
0.0
 49
0.0
 49
0.0208333333333333
 49
0.0
 49
0.0
 49
0.0
 49
0.0
 49
1.0
 49
0.0
 49
0.0
 49
0.0
 49
0.0
 49
1.0
175
     0
176
     2
142
0.0208333333333333
142
0.0
142
0.0
142
0.0
142
0.0
142
0.0208333333333333
142
0.0
142
0.0
142
0.0
142
0.0
142
1.0
142
0.0
142
0.0
142
0.0
142
0.0
142
1.0
179
     0
270
     2
144
0.0208333333333333
144
0.0
144
0.0
144
0.0
144
0.0
144
0.0208333333333333
144
0.0
144
0.0
144
0.0
144
0.0
144
1.0
144
0.0
144
0.0
144
0.0
144
0.0
144
1.0
274
     2
147
0.0208333333333333
147
0.0
147
0.0
147
0.0
147
0.0
147
0.0208333333333333
147
0.0
147
0.0
147
0.0
147
0.0
147
1.0
147
0.0
147
0.0
147
0.0
147
0.0
147
1.0
 94
      127
  0
MATERIAL
  5
5D8
102
{ACAD_REACTORS
330
5C7
102
}
330
5C7
100
AcDbMaterial
  1
Global
 72
     0
 73
     2
 43
0.0208333333333333
 43
0.0
 43
0.0
 43
0.0
 43
0.0
 43
0.0208333333333333
 43
0.0
 43
0.0
 43
0.0
 43
0.0
 43
1.0
 43
0.0
 43
0.0
 43
0.0
 43
0.0
 43
1.0
 77
     0
 78
     2
 47
0.0208333333333333
 47
0.0
 47
0.0
 47
0.0
 47
0.0
 47
0.0208333333333333
 47
0.0
 47
0.0
 47
0.0
 47
0.0
 47
1.0
 47
0.0
 47
0.0
 47
0.0
 47
0.0
 47
1.0
171
     0
172
     2
 49
0.0208333333333333
 49
0.0
 49
0.0
 49
0.0
 49
0.0
 49
0.0208333333333333
 49
0.0
 49
0.0
 49
0.0
 49
0.0
 49
1.0
 49
0.0
 49
0.0
 49
0.0
 49
0.0
 49
1.0
175
     0
176
     2
142
0.0208333333333333
142
0.0
142
0.0
142
0.0
142
0.0
142
0.0208333333333333
142
0.0
142
0.0
142
0.0
142
0.0
142
1.0
142
0.0
142
0.0
142
0.0
142
0.0
142
1.0
179
     0
270
     2
144
0.0208333333333333
144
0.0
144
0.0
144
0.0
144
0.0
144
0.0208333333333333
144
0.0
144
0.0
144
0.0
144
0.0
144
1.0
144
0.0
144
0.0
144
0.0
144
0.0
144
1.0
274
     2
147
0.0208333333333333
147
0.0
147
0.0
147
0.0
147
0.0
147
0.0208333333333333
147
0.0
147
0.0
147
0.0
147
0.0
147
1.0
147
0.0
147
0.0
147
0.0
147
0.0
147
1.0
 94
      127
  0
MLEADERSTYLE
  5
61D
102
{ACAD_REACTORS
330
61C
102
}
102
{ACAD_XDICTIONARY
360
6C3
102
}
330
61C
100
AcDbMLeaderStyle
179
     2
170
     2
171
     1
172
     0
 90
        2
 40
0.0
 41
0.0
173
     1
 91
-1056964608
340
611
 92
       -2
290
     1
 42
0.09
291
     1
 43
0.36
  3
Standard
341
0
 44
0.18
300

342
60C
174
     1
178
     6
175
     1
176
     0
 93
-1056964608
 45
0.18
292
     0
297
     0
 46
0.18
343
0
 94
-1056964608
 47
1.0
 49
1.0
140
1.0
293
     1
141
0.0
294
     1
177
     0
142
1.0
295
     0
296
     0
143
0.125
271
     0
272
     9
273
     9
1001
ACAD_MLEADERVER
1070
     2
  0
MLINESTYLE
  5
616
102
{ACAD_REACTORS
330
615
102
}
330
615
100
AcDbMlineStyle
  2
STANDARD
 70
     0
  3

 62
   256
 51
90.0
 52
90.0
 71
     2
 49
0.5
 62
   256
  6
BYLAYER
 49
-0.5
 62
   256
  6
BYLAYER
  0
ACDBPLACEHOLDER
  5
5C6
102
{ACAD_REACTORS
330
5C5
102
}
330
5C5
  0
SCALE
  5
5FA
102
{ACAD_REACTORS
330
5F9
102
}
330
5F9
100
AcDbScale
 70
     0
300
1:1
140
1.0
141
1.0
290
     1
  0
SCALE
  5
5FB
102
{ACAD_REACTORS
330
5F9
102
}
330
5F9
100
AcDbScale
 70
     0
300
1/128" = 1'-0"
140
0.0078125
141
12.0
290
     0
  0
SCALE
  5
5FC
102
{ACAD_REACTORS
330
5F9
102
}
330
5F9
100
AcDbScale
 70
     0
300
1/64" = 1'-0"
140
0.015625
141
12.0
290
     0
  0
SCALE
  5
5FD
102
{ACAD_REACTORS
330
5F9
102
}
330
5F9
100
AcDbScale
 70
     0
300
1/32" = 1'-0"
140
0.03125
141
12.0
290
     0
  0
SCALE
  5
5FE
102
{ACAD_REACTORS
330
5F9
102
}
330
5F9
100
AcDbScale
 70
     0
300
1/16" = 1'-0"
140
0.0625
141
12.0
290
     0
  0
SCALE
  5
5FF
102
{ACAD_REACTORS
330
5F9
102
}
330
5F9
100
AcDbScale
 70
     0
300
3/32" = 1'-0"
140
0.09375
141
12.0
290
     0
  0
SCALE
  5
600
102
{ACAD_REACTORS
330
5F9
102
}
330
5F9
100
AcDbScale
 70
     0
300
1/8" = 1'-0"
140
0.125
141
12.0
290
     0
  0
SCALE
  5
601
102
{ACAD_REACTORS
330
5F9
102
}
330
5F9
100
AcDbScale
 70
     0
300
3/16" = 1'-0"
140
0.1875
141
12.0
290
     0
  0
SCALE
  5
602
102
{ACAD_REACTORS
330
5F9
102
}
330
5F9
100
AcDbScale
 70
     0
300
1/4" = 1'-0"
140
0.25
141
12.0
290
     0
  0
SCALE
  5
603
102
{ACAD_REACTORS
330
5F9
102
}
330
5F9
100
AcDbScale
 70
     0
300
3/8" = 1'-0"
140
0.375
141
12.0
290
     0
  0
SCALE
  5
604
102
{ACAD_REACTORS
330
5F9
102
}
330
5F9
100
AcDbScale
 70
     0
300
1/2" = 1'-0"
140
0.5
141
12.0
290
     0
  0
SCALE
  5
605
102
{ACAD_REACTORS
330
5F9
102
}
330
5F9
100
AcDbScale
 70
     0
300
3/4" = 1'-0"
140
0.75
141
12.0
290
     0
  0
SCALE
  5
606
102
{ACAD_REACTORS
330
5F9
102
}
330
5F9
100
AcDbScale
 70
     0
300
1" = 1'-0"
140
1.0
141
12.0
290
     0
  0
SCALE
  5
607
102
{ACAD_REACTORS
330
5F9
102
}
330
5F9
100
AcDbScale
 70
     0
300
1-1/2" = 1'-0"
140
1.5
141
12.0
290
     0
  0
SCALE
  5
608
102
{ACAD_REACTORS
330
5F9
102
}
330
5F9
100
AcDbScale
 70
     0
300
3" = 1'-0"
140
3.0
141
12.0
290
     0
  0
SCALE
  5
609
102
{ACAD_REACTORS
330
5F9
102
}
330
5F9
100
AcDbScale
 70
     0
300
6" = 1'-0"
140
6.0
141
12.0
290
     0
  0
SCALE
  5
60A
102
{ACAD_REACTORS
330
5F9
102
}
330
5F9
100
AcDbScale
 70
     0
300
1'-0" = 1'-0"
140
12.0
141
12.0
290
     0
  0
ACAD_PROXY_OBJECT
  5
620
102
{ACAD_REACTORS
330
61E
102
}
330
61E
100
AcDbProxyObject
 90
      499
 91
      506
 95
  6815769
 70
     0
161
              2581
310
90B496D70657269616C3234004A7400000060001703D0BD6A3719C7F000000180005C0F42F5A8DC671FA229258409E5840A25840A65840B05840B4005C0F42F5A8DC6F1FA330000001800099400000060001703D0BD6A3719C7E5C0F42F5A8DC671FC00000060001703D0BD6A3719C7E808000000000001D07E80AFA4A78B8
310
82C6ACC2E440ACD2CAEEA8F2E0CA40B8CC40444AE8C662447C4A404A78B882C6ACC2E440ACD2CAEEA6CAC6E8D2DEDCA6E8C2E4E892C87C4A5A4A78B882C6ACC2E440ACD2CAEEA6CAC6E8D2DEDC8ADCC892C87C4AB8A0A68682988A404A78B882C6ACC2E440ACD2CAEEA6C6C2D8CA40B8CC40444AE6DC447C4A010000001800
310
10000001900083A0A729A49998803081815AF46E07A158E7E80C8340C16A22A7D90FC9F8CAE65A70A583A07E1FE81C635378FA1F8CAE65A70A583A17E7944A7F127A97E9F8
340
60C
340
0
340
0
340
61F
340
613
340
60C
 94
        0
  0
TABLESTYLE
  5
61B
102
{ACAD_REACTORS
330
61A
102
}
102
{ACAD_XDICTIONARY
360
6C5
102
}
330
61A
100
AcDbTableStyle
  3
Standard
 70
     0
 71
     0
 40
0.06
 41
0.06
280
     0
281
     0
  7
STANDARD
140
0.18
170
     2
 62
     0
 63
   257
283
     0
 90
      512
 91
        0
  1

274
    -2
284
     1
 64
     0
275
    -2
285
     1
 65
     0
276
    -2
286
     1
 66
     0
277
    -2
287
     1
 67
     0
278
    -2
288
     1
 68
     0
279
    -2
289
     1
 69
     0
  7
STANDARD
140
0.25
170
     5
 62
     0
 63
   257
283
     0
 90
      512
 91
        0
  1

274
    -2
284
     1
 64
     0
275
    -2
285
     1
 65
     0
276
    -2
286
     1
 66
     0
277
    -2
287
     1
 67
     0
278
    -2
288
     1
 68
     0
279
    -2
289
     1
 69
     0
  7
STANDARD
140
0.18
170
     5
 62
     0
 63
   257
283
     0
 90
      512
 91
        0
  1

274
    -2
284
     1
 64
     0
275
    -2
285
     1
 65
     0
276
    -2
286
     1
 66
     0
277
    -2
287
     1
 67
     0
278
    -2
288
     1
 68
     0
279
    -2
289
     1
 69
     0
  0
VISUALSTYLE
  5
5E6
102
{ACAD_REACTORS
330
5E0
102
}
102
{ACAD_XDICTIONARY
360
6C7
102
}
330
5E0
100
AcDbVisualStyle
  2
2dWireframe
 70
     4
177
     2
291
     0
 71
     0
176
     1
 72
     2
176
     1
 73
     0
176
     1
 90
        0
176
     1
 40
-0.6
176
     1
 41
-30.0
176
     1
 62
     5
 63
     7
421
 16777215
176
     1
 74
     1
176
     1
 91
        4
176
     1
 64
     7
176
     1
 65
   257
176
     1
 75
     1
176
     1
175
     1
176
     1
 42
1.0
176
     1
 92
        0
176
     1
 66
   257
176
     1
 43
1.0
176
     1
 76
     1
176
     1
 77
     6
176
     1
 78
     2
176
     1
 67
     7
176
     1
 79
     5
176
     1
170
     0
176
     1
171
     0
176
     1
290
     0
176
     1
 93
        1
176
     1
 44
0.0
176
     1
173
     0
176
     1
  0
VISUALSTYLE
  5
5E5
102
{ACAD_REACTORS
330
5E0
102
}
102
{ACAD_XDICTIONARY
360
6C9
102
}
330
5E0
100
AcDbVisualStyle
  2
Basic
 70
     7
177
     2
291
     1
 71
     1
176
     1
 72
     0
176
     1
 73
     1
176
     1
 90
        0
176
     1
 40
-0.6
176
     1
 41
-30.0
176
     1
 62
     5
 63
     7
421
 16777215
176
     1
 74
     0
176
     1
 91
        4
176
     1
 64
     7
176
     1
 65
   257
176
     1
 75
     1
176
     1
175
     1
176
     1
 42
1.0
176
     1
 92
        8
176
     1
 66
     7
176
     1
 43
1.0
176
     1
 76
     1
176
     1
 77
     6
176
     1
 78
     2
176
     1
 67
     7
176
     1
 79
     5
176
     1
170
     0
176
     1
171
     0
176
     1
290
     0
176
     1
 93
        1
176
     1
 44
0.0
176
     1
173
     0
176
     1
  0
VISUALSTYLE
  5
5EC
102
{ACAD_REACTORS
330
5E0
102
}
102
{ACAD_XDICTIONARY
360
6CB
102
}
330
5E0
100
AcDbVisualStyle
  2
Brighten
 70
    12
177
     2
291
     1
 71
     2
176
     1
 72
     2
176
     1
 73
     0
176
     1
 90
        0
176
     1
 40
-0.6
176
     1
 41
-30.0
176
     1
 62
     5
 63
     7
421
 16777215
176
     1
 74
     1
176
     1
 91
        4
176
     1
 64
     7
176
     1
 65
   257
176
     1
 75
     1
176
     1
175
     1
176
     1
 42
1.0
176
     1
 92
        8
176
     1
 66
     7
176
     1
 43
1.0
176
     1
 76
     1
176
     1
 77
     6
176
     1
 78
     2
176
     1
 67
     7
176
     1
 79
     5
176
     1
170
     0
176
     1
171
     0
176
     1
290
     0
176
     1
 93
        1
176
     1
 44
50.0
176
     1
173
     0
176
     1
  0
VISUALSTYLE
  5
5F0
102
{ACAD_REACTORS
330
5E0
102
}
102
{ACAD_XDICTIONARY
360
6CD
102
}
330
5E0
100
AcDbVisualStyle
  2
ColorChange
 70
    16
177
     2
291
     1
 71
     2
176
     1
 72
     2
176
     1
 73
     3
176
     1
 90
        0
176
     1
 40
-0.6
176
     1
 41
-30.0
176
     1
 62
     5
 63
     8
421
  8421504
176
     1
 74
     1
176
     1
 91
        4
176
     1
 64
     7
176
     1
 65
   257
176
     1
 75
     1
176
     1
175
     1
176
     1
 42
1.0
176
     1
 92
        8
176
     1
 66
     8
424
  8421504
176
     1
 43
1.0
176
     1
 76
     1
176
     1
 77
     6
176
     1
 78
     2
176
     1
 67
     7
176
     1
 79
     5
176
     1
170
     0
176
     1
171
     0
176
     1
290
     0
176
     1
 93
        1
176
     1
 44
0.0
176
     1
173
     0
176
     1
  0
VISUALSTYLE
  5
5E9
102
{ACAD_REACTORS
330
5E0
102
}
102
{ACAD_XDICTIONARY
360
6CF
102
}
330
5E0
100
AcDbVisualStyle
  2
Conceptual
 70
     9
177
     2
291
     0
 71
     3
176
     1
 72
     2
176
     1
 73
     0
176
     1
 90
        0
176
     1
 40
-0.6
176
     1
 41
-30.0
176
     1
 62
     5
 63
     7
421
 16777215
176
     1
 74
     2
176
     1
 91
        2
176
     1
 64
     7
176
     1
 65
   257
176
     1
 75
     1
176
     1
175
     1
176
     1
 42
179.0
176
     1
 92
        8
176
     1
 66
     7
176
     1
 43
1.0
176
     1
 76
     1
176
     1
 77
     6
176
     1
 78
     2
176
     1
 67
     7
176
     1
 79
     3
176
     1
170
     0
176
     1
171
     0
176
     1
290
     0
176
     1
 93
        1
176
     1
 44
0.0
176
     1
173
     0
176
     1
  0
VISUALSTYLE
  5
5EB
102
{ACAD_REACTORS
330
5E0
102
}
102
{ACAD_XDICTIONARY
360
6D1
102
}
330
5E0
100
AcDbVisualStyle
  2
Dim
 70
    11
177
     2
291
     1
 71
     2
176
     1
 72
     2
176
     1
 73
     0
176
     1
 90
        0
176
     1
 40
-0.6
176
     1
 41
-30.0
176
     1
 62
     5
 63
     7
421
 16777215
176
     1
 74
     1
176
     1
 91
        4
176
     1
 64
     7
176
     1
 65
   257
176
     1
 75
     1
176
     1
175
     1
176
     1
 42
1.0
176
     1
 92
        8
176
     1
 66
     7
176
     1
 43
1.0
176
     1
 76
     1
176
     1
 77
     6
176
     1
 78
     2
176
     1
 67
     7
176
     1
 79
     5
176
     1
170
     0
176
     1
171
     0
176
     1
290
     0
176
     1
 93
        1
176
     1
 44
-50.0
176
     1
173
     0
176
     1
  0
VISUALSTYLE
  5
5F8
102
{ACAD_REACTORS
330
5E0
102
}
102
{ACAD_XDICTIONARY
360
6D3
102
}
330
5E0
100
AcDbVisualStyle
  2
EdgeColorOff
 70
    22
177
     2
291
     1
 71
     2
176
     0
 72
     2
176
     0
 73
     0
176
     0
 90
        0
176
     0
 40
-0.6
176
     0
 41
-30.0
176
     0
 62
     5
 63
     7
421
 16777215
176
     0
 74
     1
176
     0
 91
        4
176
     0
 64
     7
176
     0
 65
   257
176
     0
 75
     1
176
     0
175
     1
176
     0
 42
1.0
176
     0
 92
        8
176
     2
 66
     7
176
     0
 43
1.0
176
     0
 76
     1
176
     0
 77
     6
176
     0
 78
     2
176
     0
 67
     7
176
     0
 79
     5
176
     0
170
     0
176
     0
171
     0
176
     0
290
     0
176
     0
 93
        1
176
     0
 44
0.0
176
     0
173
     0
176
     0
  0
VISUALSTYLE
  5
5EF
102
{ACAD_REACTORS
330
5E0
102
}
102
{ACAD_XDICTIONARY
360
6D5
102
}
330
5E0
100
AcDbVisualStyle
  2
Facepattern
 70
    15
177
     2
291
     1
 71
     2
176
     1
 72
     2
176
     1
 73
     0
176
     1
 90
        0
176
     1
 40
-0.6
176
     1
 41
-30.0
176
     1
 62
     5
 63
     7
421
 16777215
176
     1
 74
     1
176
     1
 91
        4
176
     1
 64
     7
176
     1
 65
   257
176
     1
 75
     1
176
     1
175
     1
176
     1
 42
1.0
176
     1
 92
        8
176
     1
 66
     7
176
     1
 43
1.0
176
     1
 76
     1
176
     1
 77
     6
176
     1
 78
     2
176
     1
 67
     7
176
     1
 79
     5
176
     1
170
     0
176
     1
171
     0
176
     1
290
     0
176
     1
 93
        1
176
     1
 44
0.0
176
     1
173
     0
176
     1
  0
VISUALSTYLE
  5
5E1
102
{ACAD_REACTORS
330
5E0
102
}
102
{ACAD_XDICTIONARY
360
6D7
102
}
330
5E0
100
AcDbVisualStyle
  2
Flat
 70
     0
177
     2
291
     1
 71
     2
176
     1
 72
     1
176
     1
 73
     1
176
     1
 90
        2
176
     1
 40
-0.6
176
     1
 41
30.0
176
     1
 62
     5
 63
     7
421
 16777215
176
     1
 74
     0
176
     1
 91
        0
176
     1
 64
     7
176
     1
 65
   257
176
     1
 75
     1
176
     1
175
     1
176
     1
 42
1.0
176
     1
 92
        8
176
     1
 66
     7
176
     1
 43
1.0
176
     1
 76
     1
176
     1
 77
     6
176
     1
 78
     2
176
     1
 67
     7
176
     1
 79
     5
176
     1
170
     0
176
     1
171
     0
176
     1
290
     0
176
     1
 93
       13
176
     1
 44
0.0
176
     1
173
     0
176
     1
  0
VISUALSTYLE
  5
5E2
102
{ACAD_REACTORS
330
5E0
102
}
102
{ACAD_XDICTIONARY
360
6D9
102
}
330
5E0
100
AcDbVisualStyle
  2
FlatWithEdges
 70
     1
177
     2
291
     1
 71
     2
176
     1
 72
     1
176
     1
 73
     1
176
     1
 90
        2
176
     1
 40
-0.6
176
     1
 41
30.0
176
     1
 62
     5
 63
     7
421
 16777215
176
     1
 74
     1
176
     1
 91
        0
176
     1
 64
     7
176
     1
 65
   257
176
     1
 75
     1
176
     1
175
     1
176
     1
 42
1.0
176
     1
 92
        0
176
     1
 66
   257
176
     1
 43
1.0
176
     1
 76
     1
176
     1
 77
     6
176
     1
 78
     2
176
     1
 67
     7
176
     1
 79
     5
176
     1
170
     0
176
     1
171
     0
176
     1
290
     0
176
     1
 93
       13
176
     1
 44
0.0
176
     1
173
     0
176
     1
  0
VISUALSTYLE
  5
5E3
102
{ACAD_REACTORS
330
5E0
102
}
102
{ACAD_XDICTIONARY
360
6DB
102
}
330
5E0
100
AcDbVisualStyle
  2
Gouraud
 70
     2
177
     2
291
     1
 71
     2
176
     1
 72
     2
176
     1
 73
     1
176
     1
 90
        2
176
     1
 40
-0.6
176
     1
 41
30.0
176
     1
 62
     5
 63
     7
421
 16777215
176
     1
 74
     0
176
     1
 91
        0
176
     1
 64
     7
176
     1
 65
   257
176
     1
 75
     1
176
     1
175
     1
176
     1
 42
1.0
176
     1
 92
        0
176
     1
 66
     7
176
     1
 43
1.0
176
     1
 76
     1
176
     1
 77
     6
176
     1
 78
     2
176
     1
 67
     7
176
     1
 79
     5
176
     1
170
     0
176
     1
171
     0
176
     1
290
     0
176
     1
 93
       13
176
     1
 44
0.0
176
     1
173
     0
176
     1
  0
VISUALSTYLE
  5
5E4
102
{ACAD_REACTORS
330
5E0
102
}
102
{ACAD_XDICTIONARY
360
6DD
102
}
330
5E0
100
AcDbVisualStyle
  2
GouraudWithEdges
 70
     3
177
     2
291
     1
 71
     2
176
     1
 72
     2
176
     1
 73
     1
176
     1
 90
        2
176
     1
 40
-0.6
176
     1
 41
30.0
176
     1
 62
     5
 63
     7
421
 16777215
176
     1
 74
     1
176
     1
 91
        0
176
     1
 64
     7
176
     1
 65
   257
176
     1
 75
     1
176
     1
175
     1
176
     1
 42
1.0
176
     1
 92
        0
176
     1
 66
   257
176
     1
 43
1.0
176
     1
 76
     1
176
     1
 77
     6
176
     1
 78
     2
176
     1
 67
     7
176
     1
 79
     5
176
     1
170
     0
176
     1
171
     0
176
     1
290
     0
176
     1
 93
       13
176
     1
 44
0.0
176
     1
173
     0
176
     1
  0
VISUALSTYLE
  5
5E8
102
{ACAD_REACTORS
330
5E0
102
}
102
{ACAD_XDICTIONARY
360
6DF
102
}
330
5E0
100
AcDbVisualStyle
  2
Hidden
 70
     6
177
     2
291
     0
 71
     1
176
     1
 72
     2
176
     1
 73
     2
176
     1
 90
        0
176
     1
 40
-0.6
176
     1
 41
-30.0
176
     1
 62
     5
 63
     7
421
 16777215
176
     1
 74
     2
176
     1
 91
        2
176
     1
 64
     7
176
     1
 65
   257
176
     1
 75
     2
176
     1
175
     1
176
     1
 42
40.0
176
     1
 92
        0
176
     1
 66
   257
176
     1
 43
1.0
176
     1
 76
     1
176
     1
 77
     6
176
     1
 78
     2
176
     1
 67
     7
176
     1
 79
     3
176
     1
170
     0
176
     1
171
     0
176
     1
290
     0
176
     1
 93
        1
176
     1
 44
0.0
176
     1
173
     0
176
     1
  0
VISUALSTYLE
  5
5F6
102
{ACAD_REACTORS
330
5E0
102
}
102
{ACAD_XDICTIONARY
360
6E1
102
}
330
5E0
100
AcDbVisualStyle
  2
JitterOff
 70
    20
177
     2
291
     1
 71
     2
176
     0
 72
     2
176
     0
 73
     0
176
     0
 90
        0
176
     0
 40
-0.6
176
     0
 41
-30.0
176
     0
 62
     5
 63
     7
421
 16777215
176
     0
 74
     1
176
     0
 91
        4
176
     0
 64
     7
176
     0
 65
   257
176
     0
 75
     1
176
     0
175
     1
176
     0
 42
1.0
176
     0
 92
       10
176
     2
 66
     7
176
     0
 43
1.0
176
     0
 76
     1
176
     0
 77
     6
176
     0
 78
     2
176
     0
 67
     7
176
     0
 79
     5
176
     0
170
     0
176
     0
171
     0
176
     0
290
     0
176
     0
 93
        1
176
     0
 44
0.0
176
     0
173
     0
176
     0
  0
VISUALSTYLE
  5
5EE
102
{ACAD_REACTORS
330
5E0
102
}
102
{ACAD_XDICTIONARY
360
6E3
102
}
330
5E0
100
AcDbVisualStyle
  2
Linepattern
 70
    14
177
     2
291
     1
 71
     2
176
     1
 72
     2
176
     1
 73
     0
176
     1
 90
        0
176
     1
 40
-0.6
176
     1
 41
-30.0
176
     1
 62
     5
 63
     7
421
 16777215
176
     1
 74
     1
176
     1
 91
        4
176
     1
 64
     7
176
     1
 65
   257
176
     1
 75
     7
176
     1
175
     7
176
     1
 42
1.0
176
     1
 92
        8
176
     1
 66
     7
176
     1
 43
1.0
176
     1
 76
     1
176
     1
 77
     6
176
     1
 78
     2
176
     1
 67
     7
176
     1
 79
     5
176
     1
170
     0
176
     1
171
     0
176
     1
290
     0
176
     1
 93
        1
176
     1
 44
0.0
176
     1
173
     0
176
     1
  0
VISUALSTYLE
  5
5F7
102
{ACAD_REACTORS
330
5E0
102
}
102
{ACAD_XDICTIONARY
360
6E5
102
}
330
5E0
100
AcDbVisualStyle
  2
OverhangOff
 70
    21
177
     2
291
     1
 71
     2
176
     0
 72
     2
176
     0
 73
     0
176
     0
 90
        0
176
     0
 40
-0.6
176
     0
 41
-30.0
176
     0
 62
     5
 63
     7
421
 16777215
176
     0
 74
     1
176
     0
 91
        4
176
     0
 64
     7
176
     0
 65
   257
176
     0
 75
     1
176
     0
175
     1
176
     0
 42
1.0
176
     0
 92
        9
176
     2
 66
     7
176
     0
 43
1.0
176
     0
 76
     1
176
     0
 77
     6
176
     0
 78
     2
176
     0
 67
     7
176
     0
 79
     5
176
     0
170
     0
176
     0
171
     0
176
     0
290
     0
176
     0
 93
        1
176
     0
 44
0.0
176
     0
173
     0
176
     0
  0
VISUALSTYLE
  5
5EA
102
{ACAD_REACTORS
330
5E0
102
}
102
{ACAD_XDICTIONARY
360
6E7
102
}
330
5E0
100
AcDbVisualStyle
  2
Realistic
 70
     8
177
     2
291
     0
 71
     2
176
     1
 72
     2
176
     1
 73
     0
176
     1
 90
        2
176
     1
 40
-0.6
176
     1
 41
30.0
176
     1
 62
     5
 63
     7
421
 16777215
176
     1
 74
     0
176
     1
 91
        0
176
     1
 64
     7
176
     1
 65
   257
176
     1
 75
     1
176
     1
175
     1
176
     1
 42
1.0
176
     1
 92
        8
176
     1
 66
   257
176
     1
 43
1.0
176
     1
 76
     1
176
     1
 77
     6
176
     1
 78
     2
176
     1
 67
     7
176
     1
 79
     3
176
     1
170
     0
176
     1
171
     0
176
     1
290
     0
176
     1
 93
       13
176
     1
 44
0.0
176
     1
173
     0
176
     1
  0
VISUALSTYLE
  5
5F5
102
{ACAD_REACTORS
330
5E0
102
}
102
{ACAD_XDICTIONARY
360
6E9
102
}
330
5E0
100
AcDbVisualStyle
  2
Shaded
 70
    27
177
     2
291
     0
 71
     2
176
     1
 72
     2
176
     1
 73
     1
176
     1
 90
        2
176
     1
 40
-0.6
176
     1
 41
30.0
176
     1
 62
     5
 63
     7
421
 16777215
176
     1
 74
     0
176
     1
 91
        4
176
     1
 64
     7
176
     1
 65
   257
176
     1
 75
     1
176
     1
175
     1
176
     1
 42
1.0
176
     1
 92
        8
176
     1
 66
   257
176
     1
 43
1.0
176
     1
 76
     1
176
     1
 77
     6
176
     1
 78
     2
176
     1
 67
     8
425
  7895160
176
     1
 79
     3
176
     1
170
     0
176
     1
171
     0
176
     1
290
     0
176
     1
 93
        5
176
     1
 44
0.0
176
     1
173
     0
176
     1
  0
VISUALSTYLE
  5
5F4
102
{ACAD_REACTORS
330
5E0
102
}
102
{ACAD_XDICTIONARY
360
6EB
102
}
330
5E0
100
AcDbVisualStyle
  2
Shaded with edges
 70
    26
177
     2
291
     0
 71
     2
176
     1
 72
     2
176
     1
 73
     1
176
     1
 90
        2
176
     1
 40
-0.6
176
     1
 41
30.0
176
     1
 62
     5
 63
     7
421
 16777215
176
     1
 74
     1
176
     1
 91
       10
176
     1
 64
     7
176
     1
 65
   257
176
     1
 75
     2
176
     1
175
     1
176
     1
 42
1.0
176
     1
 92
        8
176
     1
 66
   257
176
     1
 43
1.0
176
     1
 76
     1
176
     1
 77
     6
176
     1
 78
     2
176
     1
 67
     7
176
     1
 79
     3
176
     1
170
     0
176
     1
171
     0
176
     1
290
     0
176
     1
 93
        5
176
     1
 44
0.0
176
     1
173
     0
176
     1
  0
VISUALSTYLE
  5
5F1
102
{ACAD_REACTORS
330
5E0
102
}
102
{ACAD_XDICTIONARY
360
6ED
102
}
330
5E0
100
AcDbVisualStyle
  2
Shades of Gray
 70
    23
177
     2
291
     0
 71
     2
176
     1
 72
     2
176
     1
 73
     3
176
     1
 90
        0
176
     1
 40
-0.6
176
     1
 41
-30.0
176
     1
 62
     5
 63
     7
421
 16777215
176
     1
 74
     2
176
     1
 91
        2
176
     1
 64
     7
176
     1
 65
     7
176
     1
 75
     1
176
     1
175
     1
176
     1
 42
40.0
176
     1
 92
        8
176
     1
 66
     7
176
     1
 43
1.0
176
     1
 76
     1
176
     1
 77
     6
176
     1
 78
     2
176
     1
 67
     7
176
     1
 79
     3
176
     1
170
     0
176
     1
171
     0
176
     1
290
     0
176
     1
 93
        1
176
     1
 44
0.0
176
     1
173
     0
176
     1
  0
VISUALSTYLE
  5
5F2
102
{ACAD_REACTORS
330
5E0
102
}
102
{ACAD_XDICTIONARY
360
6EF
102
}
330
5E0
100
AcDbVisualStyle
  2
Sketchy
 70
    24
177
     2
291
     0
 71
     1
176
     1
 72
     2
176
     1
 73
     2
176
     1
 90
        0
176
     1
 40
-0.6
176
     1
 41
-30.0
176
     1
 62
     5
 63
     7
421
 16777215
176
     1
 74
     2
176
     1
 91
        2
176
     1
 64
     7
176
     1
 65
     7
176
     1
 75
     1
176
     1
175
     1
176
     1
 42
40.0
176
     1
 92
       11
176
     1
 66
     7
176
     1
 43
1.0
176
     1
 76
     1
176
     1
 77
     6
176
     1
 78
     2
176
     1
 67
     7
176
     1
 79
     6
176
     1
170
     0
176
     1
171
     0
176
     1
290
     0
176
     1
 93
        1
176
     1
 44
0.0
176
     1
173
     0
176
     1
  0
VISUALSTYLE
  5
5ED
102
{ACAD_REACTORS
330
5E0
102
}
102
{ACAD_XDICTIONARY
360
6F1
102
}
330
5E0
100
AcDbVisualStyle
  2
Thicken
 70
    13
177
     2
291
     1
 71
     2
176
     1
 72
     2
176
     1
 73
     0
176
     1
 90
        0
176
     1
 40
-0.6
176
     1
 41
-30.0
176
     1
 62
     5
 63
     7
421
 16777215
176
     1
 74
     1
176
     1
 91
        4
176
     1
 64
     7
176
     1
 65
   257
176
     1
 75
     1
176
     1
175
     1
176
     1
 42
1.0
176
     1
 92
       12
176
     1
 66
     7
176
     1
 43
1.0
176
     1
 76
     1
176
     1
 77
     6
176
     1
 78
     2
176
     1
 67
     7
176
     1
 79
     5
176
     1
170
     0
176
     1
171
     0
176
     1
290
     0
176
     1
 93
        1
176
     1
 44
0.0
176
     1
173
     0
176
     1
  0
VISUALSTYLE
  5
5E7
102
{ACAD_REACTORS
330
5E0
102
}
102
{ACAD_XDICTIONARY
360
6F3
102
}
330
5E0
100
AcDbVisualStyle
  2
Wireframe
 70
     5
177
     2
291
     0
 71
     0
176
     1
 72
     2
176
     1
 73
     0
176
     1
 90
        0
176
     1
 40
-0.6
176
     1
 41
-30.0
176
     1
 62
     5
 63
     7
421
 16777215
176
     1
 74
     1
176
     1
 91
        4
176
     1
 64
     7
176
     1
 65
   257
176
     1
 75
     1
176
     1
175
     1
176
     1
 42
1.0
176
     1
 92
        0
176
     1
 66
   257
176
     1
 43
1.0
176
     1
 76
     1
176
     1
 77
     6
176
     1
 78
     2
176
     1
 67
     7
176
     1
 79
     3
176
     1
170
     0
176
     1
171
     0
176
     1
290
     0
176
     1
 93
        1
176
     1
 44
0.0
176
     1
173
     0
176
     1
  0
VISUALSTYLE
  5
5F3
102
{ACAD_REACTORS
330
5E0
102
}
102
{ACAD_XDICTIONARY
360
6F5
102
}
330
5E0
100
AcDbVisualStyle
  2
X-Ray
 70
    25
177
     2
291
     0
 71
     2
176
     1
 72
     2
176
     1
 73
     1
176
     1
 90
        1
176
     1
 40
0.5
176
     1
 41
-30.0
176
     1
 62
     5
 63
     7
421
 16777215
176
     1
 74
     1
176
     1
 91
        0
176
     1
 64
     7
176
     1
 65
   257
176
     1
 75
     1
176
     1
175
     1
176
     1
 42
1.0
176
     1
 92
        8
176
     1
 66
     7
176
     1
 43
1.0
176
     1
 76
     1
176
     1
 77
     6
176
     1
 78
     2
176
     1
 67
     7
176
     1
 79
     3
176
     1
170
     0
176
     1
171
     0
176
     1
290
     0
176
     1
 93
       13
176
     1
 44
0.0
176
     1
173
     0
176
     1
  0
DICTIONARYVAR
  5
67C
102
{ACAD_REACTORS
330
677
102
}
330
677
100
DictionaryVariables
280
     0
  1
1:1
  0
DICTIONARYVAR
  5
679
102
{ACAD_REACTORS
330
677
102
}
330
677
100
DictionaryVariables
280
     0
  1
Standard
  0
DICTIONARYVAR
  5
678
102
{ACAD_REACTORS
330
677
102
}
330
677
100
DictionaryVariables
280
     0
  1
Standard
  0
DICTIONARYVAR
  5
67A
102
{ACAD_REACTORS
330
677
102
}
330
677
100
DictionaryVariables
280
     0
  1
Imperial24
  0
DICTIONARYVAR
  5
67B
102
{ACAD_REACTORS
330
677
102
}
330
677
100
DictionaryVariables
280
     0
  1
Imperial24
  0
DICTIONARYVAR
  5
6C0
102
{ACAD_REACTORS
330
677
102
}
330
677
100
DictionaryVariables
280
     0
  1
0
  0
DICTIONARYVAR
  5
6C1
102
{ACAD_REACTORS
330
677
102
}
330
677
100
DictionaryVariables
280
     0
  1
0
  0
DICTIONARYVAR
  5
6BF
102
{ACAD_REACTORS
330
677
102
}
330
677
100
DictionaryVariables
280
     0
  1
2
  0
DICTIONARYVAR
  5
6BE
102
{ACAD_REACTORS
330
677
102
}
330
677
100
DictionaryVariables
280
     0
  1
1
  0
DICTIONARYVAR
  5
6C2
102
{ACAD_REACTORS
330
677
102
}
330
677
100
DictionaryVariables
280
     0
  1
2
  0
DICTIONARY
  5
6C3
330
61D
100
AcDbDictionary
280
     1
281
     1
  3
ACAD_XREC_ROUNDTRIP
360
6C4
  0
DICTIONARY
  5
6C5
330
61B
100
AcDbDictionary
280
     1
281
     1
  3
ACAD_ROUNDTRIP_2008_TABLESTYLE_CELLSTYLEMAP
360
6C6
  0
DICTIONARY
  5
6C7
330
5E6
100
AcDbDictionary
280
     1
281
     1
  3
ACAD_XREC_ROUNDTRIP
360
6C8
  0
DICTIONARY
  5
6C9
330
5E5
100
AcDbDictionary
280
     1
281
     1
  3
ACAD_XREC_ROUNDTRIP
360
6CA
  0
DICTIONARY
  5
6CB
330
5EC
100
AcDbDictionary
280
     1
281
     1
  3
ACAD_XREC_ROUNDTRIP
360
6CC
  0
DICTIONARY
  5
6CD
330
5F0
100
AcDbDictionary
280
     1
281
     1
  3
ACAD_XREC_ROUNDTRIP
360
6CE
  0
DICTIONARY
  5
6CF
330
5E9
100
AcDbDictionary
280
     1
281
     1
  3
ACAD_XREC_ROUNDTRIP
360
6D0
  0
DICTIONARY
  5
6D1
330
5EB
100
AcDbDictionary
280
     1
281
     1
  3
ACAD_XREC_ROUNDTRIP
360
6D2
  0
DICTIONARY
  5
6D3
330
5F8
100
AcDbDictionary
280
     1
281
     1
  3
ACAD_XREC_ROUNDTRIP
360
6D4
  0
DICTIONARY
  5
6D5
330
5EF
100
AcDbDictionary
280
     1
281
     1
  3
ACAD_XREC_ROUNDTRIP
360
6D6
  0
DICTIONARY
  5
6D7
330
5E1
100
AcDbDictionary
280
     1
281
     1
  3
ACAD_XREC_ROUNDTRIP
360
6D8
  0
DICTIONARY
  5
6D9
330
5E2
100
AcDbDictionary
280
     1
281
     1
  3
ACAD_XREC_ROUNDTRIP
360
6DA
  0
DICTIONARY
  5
6DB
330
5E3
100
AcDbDictionary
280
     1
281
     1
  3
ACAD_XREC_ROUNDTRIP
360
6DC
  0
DICTIONARY
  5
6DD
330
5E4
100
AcDbDictionary
280
     1
281
     1
  3
ACAD_XREC_ROUNDTRIP
360
6DE
  0
DICTIONARY
  5
6DF
330
5E8
100
AcDbDictionary
280
     1
281
     1
  3
ACAD_XREC_ROUNDTRIP
360
6E0
  0
DICTIONARY
  5
6E1
330
5F6
100
AcDbDictionary
280
     1
281
     1
  3
ACAD_XREC_ROUNDTRIP
360
6E2
  0
DICTIONARY
  5
6E3
330
5EE
100
AcDbDictionary
280
     1
281
     1
  3
ACAD_XREC_ROUNDTRIP
360
6E4
  0
DICTIONARY
  5
6E5
330
5F7
100
AcDbDictionary
280
     1
281
     1
  3
ACAD_XREC_ROUNDTRIP
360
6E6
  0
DICTIONARY
  5
6E7
330
5EA
100
AcDbDictionary
280
     1
281
     1
  3
ACAD_XREC_ROUNDTRIP
360
6E8
  0
DICTIONARY
  5
6E9
330
5F5
100
AcDbDictionary
280
     1
281
     1
  3
ACAD_XREC_ROUNDTRIP
360
6EA
  0
DICTIONARY
  5
6EB
330
5F4
100
AcDbDictionary
280
     1
281
     1
  3
ACAD_XREC_ROUNDTRIP
360
6EC
  0
DICTIONARY
  5
6ED
330
5F1
100
AcDbDictionary
280
     1
281
     1
  3
ACAD_XREC_ROUNDTRIP
360
6EE
  0
DICTIONARY
  5
6EF
330
5F2
100
AcDbDictionary
280
     1
281
     1
  3
ACAD_XREC_ROUNDTRIP
360
6F0
  0
DICTIONARY
  5
6F1
330
5ED
100
AcDbDictionary
280
     1
281
     1
  3
ACAD_XREC_ROUNDTRIP
360
6F2
  0
DICTIONARY
  5
6F3
330
5E7
100
AcDbDictionary
280
     1
281
     1
  3
ACAD_XREC_ROUNDTRIP
360
6F4
  0
DICTIONARY
  5
6F5
330
5F3
100
AcDbDictionary
280
     1
281
     1
  3
ACAD_XREC_ROUNDTRIP
360
6F6
  0
XRECORD
  5
6C4
102
{ACAD_REACTORS
330
6C3
102
}
330
6C3
100
AcDbXrecord
280
     1
102
ACAD_ROUNDTRIP_2012_MLEADER_STYLE
298
     1
  0
CELLSTYLEMAP
  5
6C6
102
{ACAD_REACTORS
330
6C5
102
}
330
6C5
100
AcDbCellStyleMap
 90
        3
300
CELLSTYLE
  1
TABLEFORMAT_BEGIN
 90
        5
170
     1
 91
        0
 92
    32768
 62
   257
 93
        1
300
CONTENTFORMAT
  1
CONTENTFORMAT_BEGIN
 90
        0
 91
        0
 92
      512
 93
        0
300

 40
0.0
140
1.0
 94
        5
 62
     0
340
60C
144
0.25
309
CONTENTFORMAT_END
171
     0
 94
        0
309
TABLEFORMAT_END
  1
CELLSTYLE_BEGIN
 90
        1
 91
        1
300
_TITLE
309
CELLSTYLE_END
300
CELLSTYLE
  1
TABLEFORMAT_BEGIN
 90
        5
170
     1
 91
        0
 92
        0
 62
   257
 93
        1
300
CONTENTFORMAT
  1
CONTENTFORMAT_BEGIN
 90
        0
 91
        0
 92
      512
 93
        0
300

 40
0.0
140
1.0
 94
        5
 62
     0
340
60C
144
0.18
309
CONTENTFORMAT_END
171
     0
 94
        0
309
TABLEFORMAT_END
  1
CELLSTYLE_BEGIN
 90
        2
 91
        1
300
_HEADER
309
CELLSTYLE_END
300
CELLSTYLE
  1
TABLEFORMAT_BEGIN
 90
        5
170
     1
 91
        0
 92
        0
 62
   257
 93
        1
300
CONTENTFORMAT
  1
CONTENTFORMAT_BEGIN
 90
        0
 91
        0
 92
      512
 93
        0
300

 40
0.0
140
1.0
 94
        2
 62
     0
340
60C
144
0.18
309
CONTENTFORMAT_END
171
     0
 94
        0
309
TABLEFORMAT_END
  1
CELLSTYLE_BEGIN
 90
        3
 91
        2
300
_DATA
309
CELLSTYLE_END
  0
XRECORD
  5
6C8
102
{ACAD_REACTORS
330
6C7
102
}
330
6C7
100
AcDbXrecord
280
     1
102
RTVSPost2010Prop28
280
     1
102
RTVSPost2010PropOp28
 70
     1
102
RTVSPost2010Prop29
280
     1
102
RTVSPost2010PropOp29
 70
     1
102
RTVSPost2010Prop30
280
     0
102
RTVSPost2010PropOp30
 70
     1
102
RTVSPost2010Prop31
280
     0
102
RTVSPost2010PropOp31
 70
     1
102
RTVSPost2010Prop32
280
     0
102
RTVSPost2010PropOp32
 70
     1
102
RTVSPost2010Prop33
280
     0
102
RTVSPost2010PropOp33
 70
     1
102
RTVSPost2010Prop34
280
     0
102
RTVSPost2010PropOp34
 70
     1
102
RTVSPost2010Prop35
280
     0
102
RTVSPost2010PropOp35
 70
     1
102
RTVSPost2010Prop36
280
     0
102
RTVSPost2010PropOp36
 70
     1
102
RTVSPost2010Prop37
 90
       50
102
RTVSPost2010PropOp37
 70
     1
102
RTVSPost2010Prop38
140
0.0
102
RTVSPost2010PropOp38
 70
     1
102
RTVSPost2010Prop39
140
1.0
102
RTVSPost2010PropOp39
 70
     1
102
RTVSPost2010Prop40
 90
        0
102
RTVSPost2010PropOp40
 70
     1
102
RTVSPost2010Prop41ColorIndex
 90
       18
102
RTVSPost2010Prop41ColorRGB
 90
        0
102
RTVSPost2010PropOp41
 70
     1
102
RTVSPost2010Prop42
 90
       50
102
RTVSPost2010PropOp42
 70
     1
102
RTVSPost2010Prop43
 90
        3
102
RTVSPost2010PropOp43
 70
     1
102
RTVSPost2010Prop44ColorIndex
 90
        5
102
RTVSPost2010Prop44ColorRGB
 90
      255
102
RTVSPost2010PropOp44
 70
     1
102
RTVSPost2010Prop45
280
     0
102
RTVSPost2010PropOp45
 70
     1
102
RTVSPost2010Prop46
 90
       50
102
RTVSPost2010PropOp46
 70
     1
102
RTVSPost2010Prop47
 90
       50
102
RTVSPost2010PropOp47
 70
     1
102
RTVSPost2010Prop48
 90
       50
102
RTVSPost2010PropOp48
 70
     1
102
RTVSPost2010Prop49
280
     0
102
RTVSPost2010PropOp49
 70
     1
102
RTVSPost2010Prop50
 90
       50
102
RTVSPost2010PropOp50
 70
     1
102
RTVSPost2010Prop51ColorIndex
 90
      256
102
RTVSPost2010Prop51ColorRGB
 90
-16777216
102
RTVSPost2010PropOp51
 70
     0
102
RTVSPost2010Prop52
140
1.0
102
RTVSPost2010PropOp52
 70
     0
102
RTVSPost2010Prop53
 90
        2
102
RTVSPost2010PropOp53
 70
     1
102
RTVSPost2010Prop54
  1
strokes_ogs.tif
102
RTVSPost2010PropOp54
 70
     1
102
RTVSPost2010Prop55
280
     0
102
RTVSPost2010PropOp55
 70
     1
102
RTVSPost2010Prop56
140
1.0
102
RTVSPost2010PropOp56
 70
     1
102
RTVSPost2010Prop57
140
1.0
102
RTVSPost2010PropOp57
 70
     1
  0
XRECORD
  5
6CA
102
{ACAD_REACTORS
330
6C9
102
}
330
6C9
100
AcDbXrecord
280
     1
102
RTVSPost2010Prop28
280
     0
102
RTVSPost2010PropOp28
 70
     1
102
RTVSPost2010Prop29
280
     1
102
RTVSPost2010PropOp29
 70
     1
102
RTVSPost2010Prop30
280
     1
102
RTVSPost2010PropOp30
 70
     1
102
RTVSPost2010Prop31
280
     0
102
RTVSPost2010PropOp31
 70
     1
102
RTVSPost2010Prop32
280
     0
102
RTVSPost2010PropOp32
 70
     1
102
RTVSPost2010Prop33
280
     0
102
RTVSPost2010PropOp33
 70
     1
102
RTVSPost2010Prop34
280
     0
102
RTVSPost2010PropOp34
 70
     1
102
RTVSPost2010Prop35
280
     0
102
RTVSPost2010PropOp35
 70
     1
102
RTVSPost2010Prop36
280
     0
102
RTVSPost2010PropOp36
 70
     1
102
RTVSPost2010Prop37
 90
       50
102
RTVSPost2010PropOp37
 70
     1
102
RTVSPost2010Prop38
140
0.0
102
RTVSPost2010PropOp38
 70
     1
102
RTVSPost2010Prop39
140
1.0
102
RTVSPost2010PropOp39
 70
     1
102
RTVSPost2010Prop40
 90
        0
102
RTVSPost2010PropOp40
 70
     1
102
RTVSPost2010Prop41ColorIndex
 90
       18
102
RTVSPost2010Prop41ColorRGB
 90
        0
102
RTVSPost2010PropOp41
 70
     1
102
RTVSPost2010Prop42
 90
       50
102
RTVSPost2010PropOp42
 70
     1
102
RTVSPost2010Prop43
 90
        3
102
RTVSPost2010PropOp43
 70
     1
102
RTVSPost2010Prop44ColorIndex
 90
        5
102
RTVSPost2010Prop44ColorRGB
 90
      255
102
RTVSPost2010PropOp44
 70
     1
102
RTVSPost2010Prop45
280
     0
102
RTVSPost2010PropOp45
 70
     1
102
RTVSPost2010Prop46
 90
       50
102
RTVSPost2010PropOp46
 70
     1
102
RTVSPost2010Prop47
 90
       50
102
RTVSPost2010PropOp47
 70
     1
102
RTVSPost2010Prop48
 90
       50
102
RTVSPost2010PropOp48
 70
     1
102
RTVSPost2010Prop49
280
     0
102
RTVSPost2010PropOp49
 70
     1
102
RTVSPost2010Prop50
 90
       50
102
RTVSPost2010PropOp50
 70
     1
102
RTVSPost2010Prop51ColorIndex
 90
      256
102
RTVSPost2010Prop51ColorRGB
 90
-16777216
102
RTVSPost2010PropOp51
 70
     0
102
RTVSPost2010Prop52
140
1.0
102
RTVSPost2010PropOp52
 70
     0
102
RTVSPost2010Prop53
 90
        2
102
RTVSPost2010PropOp53
 70
     1
102
RTVSPost2010Prop54
  1
strokes_ogs.tif
102
RTVSPost2010PropOp54
 70
     1
102
RTVSPost2010Prop55
280
     0
102
RTVSPost2010PropOp55
 70
     1
102
RTVSPost2010Prop56
140
1.0
102
RTVSPost2010PropOp56
 70
     1
102
RTVSPost2010Prop57
140
1.0
102
RTVSPost2010PropOp57
 70
     1
  0
XRECORD
  5
6CC
102
{ACAD_REACTORS
330
6CB
102
}
330
6CB
100
AcDbXrecord
280
     1
102
RTVSPost2010Prop28
280
     0
102
RTVSPost2010PropOp28
 70
     1
102
RTVSPost2010Prop29
280
     1
102
RTVSPost2010PropOp29
 70
     1
102
RTVSPost2010Prop30
280
     1
102
RTVSPost2010PropOp30
 70
     1
102
RTVSPost2010Prop31
280
     0
102
RTVSPost2010PropOp31
 70
     1
102
RTVSPost2010Prop32
280
     0
102
RTVSPost2010PropOp32
 70
     1
102
RTVSPost2010Prop33
280
     0
102
RTVSPost2010PropOp33
 70
     1
102
RTVSPost2010Prop34
280
     0
102
RTVSPost2010PropOp34
 70
     1
102
RTVSPost2010Prop35
280
     0
102
RTVSPost2010PropOp35
 70
     1
102
RTVSPost2010Prop36
280
     0
102
RTVSPost2010PropOp36
 70
     1
102
RTVSPost2010Prop37
 90
       50
102
RTVSPost2010PropOp37
 70
     1
102
RTVSPost2010Prop38
140
0.0
102
RTVSPost2010PropOp38
 70
     1
102
RTVSPost2010Prop39
140
1.0
102
RTVSPost2010PropOp39
 70
     1
102
RTVSPost2010Prop40
 90
        0
102
RTVSPost2010PropOp40
 70
     1
102
RTVSPost2010Prop41ColorIndex
 90
       18
102
RTVSPost2010Prop41ColorRGB
 90
        0
102
RTVSPost2010PropOp41
 70
     1
102
RTVSPost2010Prop42
 90
       50
102
RTVSPost2010PropOp42
 70
     1
102
RTVSPost2010Prop43
 90
        3
102
RTVSPost2010PropOp43
 70
     1
102
RTVSPost2010Prop44ColorIndex
 90
        5
102
RTVSPost2010Prop44ColorRGB
 90
      255
102
RTVSPost2010PropOp44
 70
     1
102
RTVSPost2010Prop45
280
     0
102
RTVSPost2010PropOp45
 70
     1
102
RTVSPost2010Prop46
 90
       50
102
RTVSPost2010PropOp46
 70
     1
102
RTVSPost2010Prop47
 90
       50
102
RTVSPost2010PropOp47
 70
     1
102
RTVSPost2010Prop48
 90
       50
102
RTVSPost2010PropOp48
 70
     1
102
RTVSPost2010Prop49
280
     0
102
RTVSPost2010PropOp49
 70
     1
102
RTVSPost2010Prop50
 90
       50
102
RTVSPost2010PropOp50
 70
     1
102
RTVSPost2010Prop51ColorIndex
 90
      256
102
RTVSPost2010Prop51ColorRGB
 90
-16777216
102
RTVSPost2010PropOp51
 70
     0
102
RTVSPost2010Prop52
140
1.0
102
RTVSPost2010PropOp52
 70
     0
102
RTVSPost2010Prop53
 90
        2
102
RTVSPost2010PropOp53
 70
     1
102
RTVSPost2010Prop54
  1
strokes_ogs.tif
102
RTVSPost2010PropOp54
 70
     1
102
RTVSPost2010Prop55
280
     0
102
RTVSPost2010PropOp55
 70
     1
102
RTVSPost2010Prop56
140
1.0
102
RTVSPost2010PropOp56
 70
     1
102
RTVSPost2010Prop57
140
1.0
102
RTVSPost2010PropOp57
 70
     1
  0
XRECORD
  5
6CE
102
{ACAD_REACTORS
330
6CD
102
}
330
6CD
100
AcDbXrecord
280
     1
102
RTVSPost2010Prop28
280
     0
102
RTVSPost2010PropOp28
 70
     1
102
RTVSPost2010Prop29
280
     1
102
RTVSPost2010PropOp29
 70
     1
102
RTVSPost2010Prop30
280
     1
102
RTVSPost2010PropOp30
 70
     1
102
RTVSPost2010Prop31
280
     0
102
RTVSPost2010PropOp31
 70
     1
102
RTVSPost2010Prop32
280
     0
102
RTVSPost2010PropOp32
 70
     1
102
RTVSPost2010Prop33
280
     0
102
RTVSPost2010PropOp33
 70
     1
102
RTVSPost2010Prop34
280
     0
102
RTVSPost2010PropOp34
 70
     1
102
RTVSPost2010Prop35
280
     0
102
RTVSPost2010PropOp35
 70
     1
102
RTVSPost2010Prop36
280
     0
102
RTVSPost2010PropOp36
 70
     1
102
RTVSPost2010Prop37
 90
       50
102
RTVSPost2010PropOp37
 70
     1
102
RTVSPost2010Prop38
140
0.0
102
RTVSPost2010PropOp38
 70
     1
102
RTVSPost2010Prop39
140
1.0
102
RTVSPost2010PropOp39
 70
     1
102
RTVSPost2010Prop40
 90
        0
102
RTVSPost2010PropOp40
 70
     1
102
RTVSPost2010Prop41ColorIndex
 90
       18
102
RTVSPost2010Prop41ColorRGB
 90
        0
102
RTVSPost2010PropOp41
 70
     1
102
RTVSPost2010Prop42
 90
       50
102
RTVSPost2010PropOp42
 70
     1
102
RTVSPost2010Prop43
 90
        3
102
RTVSPost2010PropOp43
 70
     1
102
RTVSPost2010Prop44ColorIndex
 90
        5
102
RTVSPost2010Prop44ColorRGB
 90
      255
102
RTVSPost2010PropOp44
 70
     1
102
RTVSPost2010Prop45
280
     0
102
RTVSPost2010PropOp45
 70
     1
102
RTVSPost2010Prop46
 90
       50
102
RTVSPost2010PropOp46
 70
     1
102
RTVSPost2010Prop47
 90
       50
102
RTVSPost2010PropOp47
 70
     1
102
RTVSPost2010Prop48
 90
       50
102
RTVSPost2010PropOp48
 70
     1
102
RTVSPost2010Prop49
280
     0
102
RTVSPost2010PropOp49
 70
     1
102
RTVSPost2010Prop50
 90
       50
102
RTVSPost2010PropOp50
 70
     1
102
RTVSPost2010Prop51ColorIndex
 90
      256
102
RTVSPost2010Prop51ColorRGB
 90
-16777216
102
RTVSPost2010PropOp51
 70
     0
102
RTVSPost2010Prop52
140
1.0
102
RTVSPost2010PropOp52
 70
     0
102
RTVSPost2010Prop53
 90
        2
102
RTVSPost2010PropOp53
 70
     1
102
RTVSPost2010Prop54
  1
strokes_ogs.tif
102
RTVSPost2010PropOp54
 70
     1
102
RTVSPost2010Prop55
280
     0
102
RTVSPost2010PropOp55
 70
     1
102
RTVSPost2010Prop56
140
1.0
102
RTVSPost2010PropOp56
 70
     1
102
RTVSPost2010Prop57
140
1.0
102
RTVSPost2010PropOp57
 70
     1
  0
XRECORD
  5
6D0
102
{ACAD_REACTORS
330
6CF
102
}
330
6CF
100
AcDbXrecord
280
     1
102
RTVSPost2010Prop28
280
     0
102
RTVSPost2010PropOp28
 70
     1
102
RTVSPost2010Prop29
280
     1
102
RTVSPost2010PropOp29
 70
     1
102
RTVSPost2010Prop30
280
     1
102
RTVSPost2010PropOp30
 70
     1
102
RTVSPost2010Prop31
280
     0
102
RTVSPost2010PropOp31
 70
     1
102
RTVSPost2010Prop32
280
     0
102
RTVSPost2010PropOp32
 70
     1
102
RTVSPost2010Prop33
280
     0
102
RTVSPost2010PropOp33
 70
     1
102
RTVSPost2010Prop34
280
     0
102
RTVSPost2010PropOp34
 70
     1
102
RTVSPost2010Prop35
280
     0
102
RTVSPost2010PropOp35
 70
     1
102
RTVSPost2010Prop36
280
     0
102
RTVSPost2010PropOp36
 70
     1
102
RTVSPost2010Prop37
 90
       50
102
RTVSPost2010PropOp37
 70
     1
102
RTVSPost2010Prop38
140
0.0
102
RTVSPost2010PropOp38
 70
     1
102
RTVSPost2010Prop39
140
1.0
102
RTVSPost2010PropOp39
 70
     1
102
RTVSPost2010Prop40
 90
        0
102
RTVSPost2010PropOp40
 70
     1
102
RTVSPost2010Prop41ColorIndex
 90
       18
102
RTVSPost2010Prop41ColorRGB
 90
        0
102
RTVSPost2010PropOp41
 70
     1
102
RTVSPost2010Prop42
 90
       50
102
RTVSPost2010PropOp42
 70
     1
102
RTVSPost2010Prop43
 90
        3
102
RTVSPost2010PropOp43
 70
     1
102
RTVSPost2010Prop44ColorIndex
 90
        5
102
RTVSPost2010Prop44ColorRGB
 90
      255
102
RTVSPost2010PropOp44
 70
     1
102
RTVSPost2010Prop45
280
     0
102
RTVSPost2010PropOp45
 70
     1
102
RTVSPost2010Prop46
 90
       50
102
RTVSPost2010PropOp46
 70
     1
102
RTVSPost2010Prop47
 90
       50
102
RTVSPost2010PropOp47
 70
     1
102
RTVSPost2010Prop48
 90
       50
102
RTVSPost2010PropOp48
 70
     1
102
RTVSPost2010Prop49
280
     0
102
RTVSPost2010PropOp49
 70
     1
102
RTVSPost2010Prop50
 90
       50
102
RTVSPost2010PropOp50
 70
     1
102
RTVSPost2010Prop51ColorIndex
 90
      256
102
RTVSPost2010Prop51ColorRGB
 90
-16777216
102
RTVSPost2010PropOp51
 70
     0
102
RTVSPost2010Prop52
140
1.0
102
RTVSPost2010PropOp52
 70
     0
102
RTVSPost2010Prop53
 90
        2
102
RTVSPost2010PropOp53
 70
     1
102
RTVSPost2010Prop54
  1
strokes_ogs.tif
102
RTVSPost2010PropOp54
 70
     1
102
RTVSPost2010Prop55
280
     0
102
RTVSPost2010PropOp55
 70
     1
102
RTVSPost2010Prop56
140
1.0
102
RTVSPost2010PropOp56
 70
     1
102
RTVSPost2010Prop57
140
1.0
102
RTVSPost2010PropOp57
 70
     1
  0
XRECORD
  5
6D2
102
{ACAD_REACTORS
330
6D1
102
}
330
6D1
100
AcDbXrecord
280
     1
102
RTVSPost2010Prop28
280
     0
102
RTVSPost2010PropOp28
 70
     1
102
RTVSPost2010Prop29
280
     1
102
RTVSPost2010PropOp29
 70
     1
102
RTVSPost2010Prop30
280
     1
102
RTVSPost2010PropOp30
 70
     1
102
RTVSPost2010Prop31
280
     0
102
RTVSPost2010PropOp31
 70
     1
102
RTVSPost2010Prop32
280
     0
102
RTVSPost2010PropOp32
 70
     1
102
RTVSPost2010Prop33
280
     0
102
RTVSPost2010PropOp33
 70
     1
102
RTVSPost2010Prop34
280
     0
102
RTVSPost2010PropOp34
 70
     1
102
RTVSPost2010Prop35
280
     0
102
RTVSPost2010PropOp35
 70
     1
102
RTVSPost2010Prop36
280
     0
102
RTVSPost2010PropOp36
 70
     1
102
RTVSPost2010Prop37
 90
       50
102
RTVSPost2010PropOp37
 70
     1
102
RTVSPost2010Prop38
140
0.0
102
RTVSPost2010PropOp38
 70
     1
102
RTVSPost2010Prop39
140
1.0
102
RTVSPost2010PropOp39
 70
     1
102
RTVSPost2010Prop40
 90
        0
102
RTVSPost2010PropOp40
 70
     1
102
RTVSPost2010Prop41ColorIndex
 90
       18
102
RTVSPost2010Prop41ColorRGB
 90
        0
102
RTVSPost2010PropOp41
 70
     1
102
RTVSPost2010Prop42
 90
       50
102
RTVSPost2010PropOp42
 70
     1
102
RTVSPost2010Prop43
 90
        3
102
RTVSPost2010PropOp43
 70
     1
102
RTVSPost2010Prop44ColorIndex
 90
        5
102
RTVSPost2010Prop44ColorRGB
 90
      255
102
RTVSPost2010PropOp44
 70
     1
102
RTVSPost2010Prop45
280
     0
102
RTVSPost2010PropOp45
 70
     1
102
RTVSPost2010Prop46
 90
       50
102
RTVSPost2010PropOp46
 70
     1
102
RTVSPost2010Prop47
 90
       50
102
RTVSPost2010PropOp47
 70
     1
102
RTVSPost2010Prop48
 90
       50
102
RTVSPost2010PropOp48
 70
     1
102
RTVSPost2010Prop49
280
     0
102
RTVSPost2010PropOp49
 70
     1
102
RTVSPost2010Prop50
 90
       50
102
RTVSPost2010PropOp50
 70
     1
102
RTVSPost2010Prop51ColorIndex
 90
      256
102
RTVSPost2010Prop51ColorRGB
 90
-16777216
102
RTVSPost2010PropOp51
 70
     0
102
RTVSPost2010Prop52
140
1.0
102
RTVSPost2010PropOp52
 70
     0
102
RTVSPost2010Prop53
 90
        2
102
RTVSPost2010PropOp53
 70
     1
102
RTVSPost2010Prop54
  1
strokes_ogs.tif
102
RTVSPost2010PropOp54
 70
     1
102
RTVSPost2010Prop55
280
     0
102
RTVSPost2010PropOp55
 70
     1
102
RTVSPost2010Prop56
140
1.0
102
RTVSPost2010PropOp56
 70
     1
102
RTVSPost2010Prop57
140
1.0
102
RTVSPost2010PropOp57
 70
     1
  0
XRECORD
  5
6D4
102
{ACAD_REACTORS
330
6D3
102
}
330
6D3
100
AcDbXrecord
280
     1
102
RTVSPost2010Prop28
280
     0
102
RTVSPost2010PropOp28
 70
     0
102
RTVSPost2010Prop29
280
     1
102
RTVSPost2010PropOp29
 70
     0
102
RTVSPost2010Prop30
280
     1
102
RTVSPost2010PropOp30
 70
     0
102
RTVSPost2010Prop31
280
     0
102
RTVSPost2010PropOp31
 70
     0
102
RTVSPost2010Prop32
280
     0
102
RTVSPost2010PropOp32
 70
     0
102
RTVSPost2010Prop33
280
     0
102
RTVSPost2010PropOp33
 70
     0
102
RTVSPost2010Prop34
280
     0
102
RTVSPost2010PropOp34
 70
     0
102
RTVSPost2010Prop35
280
     0
102
RTVSPost2010PropOp35
 70
     0
102
RTVSPost2010Prop36
280
     0
102
RTVSPost2010PropOp36
 70
     0
102
RTVSPost2010Prop37
 90
       50
102
RTVSPost2010PropOp37
 70
     0
102
RTVSPost2010Prop38
140
0.0
102
RTVSPost2010PropOp38
 70
     0
102
RTVSPost2010Prop39
140
1.0
102
RTVSPost2010PropOp39
 70
     0
102
RTVSPost2010Prop40
 90
        0
102
RTVSPost2010PropOp40
 70
     0
102
RTVSPost2010Prop41ColorIndex
 90
       18
102
RTVSPost2010Prop41ColorRGB
 90
        0
102
RTVSPost2010PropOp41
 70
     0
102
RTVSPost2010Prop42
 90
       50
102
RTVSPost2010PropOp42
 70
     0
102
RTVSPost2010Prop43
 90
        3
102
RTVSPost2010PropOp43
 70
     0
102
RTVSPost2010Prop44ColorIndex
 90
        5
102
RTVSPost2010Prop44ColorRGB
 90
      255
102
RTVSPost2010PropOp44
 70
     0
102
RTVSPost2010Prop45
280
     0
102
RTVSPost2010PropOp45
 70
     0
102
RTVSPost2010Prop46
 90
       50
102
RTVSPost2010PropOp46
 70
     0
102
RTVSPost2010Prop47
 90
       50
102
RTVSPost2010PropOp47
 70
     0
102
RTVSPost2010Prop48
 90
       50
102
RTVSPost2010PropOp48
 70
     0
102
RTVSPost2010Prop49
280
     0
102
RTVSPost2010PropOp49
 70
     0
102
RTVSPost2010Prop50
 90
       50
102
RTVSPost2010PropOp50
 70
     0
102
RTVSPost2010Prop51ColorIndex
 90
      256
102
RTVSPost2010Prop51ColorRGB
 90
-16777216
102
RTVSPost2010PropOp51
 70
     0
102
RTVSPost2010Prop52
140
1.0
102
RTVSPost2010PropOp52
 70
     0
102
RTVSPost2010Prop53
 90
        2
102
RTVSPost2010PropOp53
 70
     0
102
RTVSPost2010Prop54
  1
strokes_ogs.tif
102
RTVSPost2010PropOp54
 70
     0
102
RTVSPost2010Prop55
280
     0
102
RTVSPost2010PropOp55
 70
     0
102
RTVSPost2010Prop56
140
1.0
102
RTVSPost2010PropOp56
 70
     0
102
RTVSPost2010Prop57
140
1.0
102
RTVSPost2010PropOp57
 70
     0
  0
XRECORD
  5
6D6
102
{ACAD_REACTORS
330
6D5
102
}
330
6D5
100
AcDbXrecord
280
     1
102
RTVSPost2010Prop28
280
     0
102
RTVSPost2010PropOp28
 70
     1
102
RTVSPost2010Prop29
280
     1
102
RTVSPost2010PropOp29
 70
     1
102
RTVSPost2010Prop30
280
     1
102
RTVSPost2010PropOp30
 70
     1
102
RTVSPost2010Prop31
280
     0
102
RTVSPost2010PropOp31
 70
     1
102
RTVSPost2010Prop32
280
     0
102
RTVSPost2010PropOp32
 70
     1
102
RTVSPost2010Prop33
280
     0
102
RTVSPost2010PropOp33
 70
     1
102
RTVSPost2010Prop34
280
     0
102
RTVSPost2010PropOp34
 70
     1
102
RTVSPost2010Prop35
280
     0
102
RTVSPost2010PropOp35
 70
     1
102
RTVSPost2010Prop36
280
     0
102
RTVSPost2010PropOp36
 70
     1
102
RTVSPost2010Prop37
 90
       50
102
RTVSPost2010PropOp37
 70
     1
102
RTVSPost2010Prop38
140
0.0
102
RTVSPost2010PropOp38
 70
     1
102
RTVSPost2010Prop39
140
1.0
102
RTVSPost2010PropOp39
 70
     1
102
RTVSPost2010Prop40
 90
        0
102
RTVSPost2010PropOp40
 70
     1
102
RTVSPost2010Prop41ColorIndex
 90
       18
102
RTVSPost2010Prop41ColorRGB
 90
        0
102
RTVSPost2010PropOp41
 70
     1
102
RTVSPost2010Prop42
 90
       50
102
RTVSPost2010PropOp42
 70
     1
102
RTVSPost2010Prop43
 90
        3
102
RTVSPost2010PropOp43
 70
     1
102
RTVSPost2010Prop44ColorIndex
 90
        5
102
RTVSPost2010Prop44ColorRGB
 90
      255
102
RTVSPost2010PropOp44
 70
     1
102
RTVSPost2010Prop45
280
     0
102
RTVSPost2010PropOp45
 70
     1
102
RTVSPost2010Prop46
 90
       50
102
RTVSPost2010PropOp46
 70
     1
102
RTVSPost2010Prop47
 90
       50
102
RTVSPost2010PropOp47
 70
     1
102
RTVSPost2010Prop48
 90
       50
102
RTVSPost2010PropOp48
 70
     1
102
RTVSPost2010Prop49
280
     0
102
RTVSPost2010PropOp49
 70
     1
102
RTVSPost2010Prop50
 90
       50
102
RTVSPost2010PropOp50
 70
     1
102
RTVSPost2010Prop51ColorIndex
 90
      256
102
RTVSPost2010Prop51ColorRGB
 90
-16777216
102
RTVSPost2010PropOp51
 70
     0
102
RTVSPost2010Prop52
140
1.0
102
RTVSPost2010PropOp52
 70
     0
102
RTVSPost2010Prop53
 90
        2
102
RTVSPost2010PropOp53
 70
     1
102
RTVSPost2010Prop54
  1
strokes_ogs.tif
102
RTVSPost2010PropOp54
 70
     1
102
RTVSPost2010Prop55
280
     0
102
RTVSPost2010PropOp55
 70
     1
102
RTVSPost2010Prop56
140
1.0
102
RTVSPost2010PropOp56
 70
     1
102
RTVSPost2010Prop57
140
1.0
102
RTVSPost2010PropOp57
 70
     1
  0
XRECORD
  5
6D8
102
{ACAD_REACTORS
330
6D7
102
}
330
6D7
100
AcDbXrecord
280
     1
102
RTVSPost2010Prop28
280
     0
102
RTVSPost2010PropOp28
 70
     1
102
RTVSPost2010Prop29
280
     1
102
RTVSPost2010PropOp29
 70
     1
102
RTVSPost2010Prop30
280
     1
102
RTVSPost2010PropOp30
 70
     1
102
RTVSPost2010Prop31
280
     0
102
RTVSPost2010PropOp31
 70
     1
102
RTVSPost2010Prop32
280
     0
102
RTVSPost2010PropOp32
 70
     1
102
RTVSPost2010Prop33
280
     0
102
RTVSPost2010PropOp33
 70
     1
102
RTVSPost2010Prop34
280
     0
102
RTVSPost2010PropOp34
 70
     1
102
RTVSPost2010Prop35
280
     0
102
RTVSPost2010PropOp35
 70
     1
102
RTVSPost2010Prop36
280
     0
102
RTVSPost2010PropOp36
 70
     1
102
RTVSPost2010Prop37
 90
       50
102
RTVSPost2010PropOp37
 70
     1
102
RTVSPost2010Prop38
140
0.0
102
RTVSPost2010PropOp38
 70
     1
102
RTVSPost2010Prop39
140
1.0
102
RTVSPost2010PropOp39
 70
     1
102
RTVSPost2010Prop40
 90
        0
102
RTVSPost2010PropOp40
 70
     1
102
RTVSPost2010Prop41ColorIndex
 90
       18
102
RTVSPost2010Prop41ColorRGB
 90
        0
102
RTVSPost2010PropOp41
 70
     1
102
RTVSPost2010Prop42
 90
       50
102
RTVSPost2010PropOp42
 70
     1
102
RTVSPost2010Prop43
 90
        3
102
RTVSPost2010PropOp43
 70
     1
102
RTVSPost2010Prop44ColorIndex
 90
        5
102
RTVSPost2010Prop44ColorRGB
 90
      255
102
RTVSPost2010PropOp44
 70
     1
102
RTVSPost2010Prop45
280
     0
102
RTVSPost2010PropOp45
 70
     1
102
RTVSPost2010Prop46
 90
       50
102
RTVSPost2010PropOp46
 70
     1
102
RTVSPost2010Prop47
 90
       50
102
RTVSPost2010PropOp47
 70
     1
102
RTVSPost2010Prop48
 90
       50
102
RTVSPost2010PropOp48
 70
     1
102
RTVSPost2010Prop49
280
     0
102
RTVSPost2010PropOp49
 70
     1
102
RTVSPost2010Prop50
 90
       50
102
RTVSPost2010PropOp50
 70
     1
102
RTVSPost2010Prop51ColorIndex
 90
      256
102
RTVSPost2010Prop51ColorRGB
 90
-16777216
102
RTVSPost2010PropOp51
 70
     0
102
RTVSPost2010Prop52
140
1.0
102
RTVSPost2010PropOp52
 70
     0
102
RTVSPost2010Prop53
 90
        2
102
RTVSPost2010PropOp53
 70
     1
102
RTVSPost2010Prop54
  1
strokes_ogs.tif
102
RTVSPost2010PropOp54
 70
     1
102
RTVSPost2010Prop55
280
     0
102
RTVSPost2010PropOp55
 70
     1
102
RTVSPost2010Prop56
140
1.0
102
RTVSPost2010PropOp56
 70
     1
102
RTVSPost2010Prop57
140
1.0
102
RTVSPost2010PropOp57
 70
     1
  0
XRECORD
  5
6DA
102
{ACAD_REACTORS
330
6D9
102
}
330
6D9
100
AcDbXrecord
280
     1
102
RTVSPost2010Prop28
280
     0
102
RTVSPost2010PropOp28
 70
     1
102
RTVSPost2010Prop29
280
     1
102
RTVSPost2010PropOp29
 70
     1
102
RTVSPost2010Prop30
280
     1
102
RTVSPost2010PropOp30
 70
     1
102
RTVSPost2010Prop31
280
     0
102
RTVSPost2010PropOp31
 70
     1
102
RTVSPost2010Prop32
280
     0
102
RTVSPost2010PropOp32
 70
     1
102
RTVSPost2010Prop33
280
     0
102
RTVSPost2010PropOp33
 70
     1
102
RTVSPost2010Prop34
280
     0
102
RTVSPost2010PropOp34
 70
     1
102
RTVSPost2010Prop35
280
     0
102
RTVSPost2010PropOp35
 70
     1
102
RTVSPost2010Prop36
280
     0
102
RTVSPost2010PropOp36
 70
     1
102
RTVSPost2010Prop37
 90
       50
102
RTVSPost2010PropOp37
 70
     1
102
RTVSPost2010Prop38
140
0.0
102
RTVSPost2010PropOp38
 70
     1
102
RTVSPost2010Prop39
140
1.0
102
RTVSPost2010PropOp39
 70
     1
102
RTVSPost2010Prop40
 90
        0
102
RTVSPost2010PropOp40
 70
     1
102
RTVSPost2010Prop41ColorIndex
 90
       18
102
RTVSPost2010Prop41ColorRGB
 90
        0
102
RTVSPost2010PropOp41
 70
     1
102
RTVSPost2010Prop42
 90
       50
102
RTVSPost2010PropOp42
 70
     1
102
RTVSPost2010Prop43
 90
        3
102
RTVSPost2010PropOp43
 70
     1
102
RTVSPost2010Prop44ColorIndex
 90
        5
102
RTVSPost2010Prop44ColorRGB
 90
      255
102
RTVSPost2010PropOp44
 70
     1
102
RTVSPost2010Prop45
280
     0
102
RTVSPost2010PropOp45
 70
     1
102
RTVSPost2010Prop46
 90
       50
102
RTVSPost2010PropOp46
 70
     1
102
RTVSPost2010Prop47
 90
       50
102
RTVSPost2010PropOp47
 70
     1
102
RTVSPost2010Prop48
 90
       50
102
RTVSPost2010PropOp48
 70
     1
102
RTVSPost2010Prop49
280
     0
102
RTVSPost2010PropOp49
 70
     1
102
RTVSPost2010Prop50
 90
       50
102
RTVSPost2010PropOp50
 70
     1
102
RTVSPost2010Prop51ColorIndex
 90
      256
102
RTVSPost2010Prop51ColorRGB
 90
-16777216
102
RTVSPost2010PropOp51
 70
     0
102
RTVSPost2010Prop52
140
1.0
102
RTVSPost2010PropOp52
 70
     0
102
RTVSPost2010Prop53
 90
        2
102
RTVSPost2010PropOp53
 70
     1
102
RTVSPost2010Prop54
  1
strokes_ogs.tif
102
RTVSPost2010PropOp54
 70
     1
102
RTVSPost2010Prop55
280
     0
102
RTVSPost2010PropOp55
 70
     1
102
RTVSPost2010Prop56
140
1.0
102
RTVSPost2010PropOp56
 70
     1
102
RTVSPost2010Prop57
140
1.0
102
RTVSPost2010PropOp57
 70
     1
  0
XRECORD
  5
6DC
102
{ACAD_REACTORS
330
6DB
102
}
330
6DB
100
AcDbXrecord
280
     1
102
RTVSPost2010Prop28
280
     0
102
RTVSPost2010PropOp28
 70
     1
102
RTVSPost2010Prop29
280
     1
102
RTVSPost2010PropOp29
 70
     1
102
RTVSPost2010Prop30
280
     1
102
RTVSPost2010PropOp30
 70
     1
102
RTVSPost2010Prop31
280
     0
102
RTVSPost2010PropOp31
 70
     1
102
RTVSPost2010Prop32
280
     0
102
RTVSPost2010PropOp32
 70
     1
102
RTVSPost2010Prop33
280
     0
102
RTVSPost2010PropOp33
 70
     1
102
RTVSPost2010Prop34
280
     0
102
RTVSPost2010PropOp34
 70
     1
102
RTVSPost2010Prop35
280
     0
102
RTVSPost2010PropOp35
 70
     1
102
RTVSPost2010Prop36
280
     0
102
RTVSPost2010PropOp36
 70
     1
102
RTVSPost2010Prop37
 90
       50
102
RTVSPost2010PropOp37
 70
     1
102
RTVSPost2010Prop38
140
0.0
102
RTVSPost2010PropOp38
 70
     1
102
RTVSPost2010Prop39
140
1.0
102
RTVSPost2010PropOp39
 70
     1
102
RTVSPost2010Prop40
 90
        0
102
RTVSPost2010PropOp40
 70
     1
102
RTVSPost2010Prop41ColorIndex
 90
       18
102
RTVSPost2010Prop41ColorRGB
 90
        0
102
RTVSPost2010PropOp41
 70
     1
102
RTVSPost2010Prop42
 90
       50
102
RTVSPost2010PropOp42
 70
     1
102
RTVSPost2010Prop43
 90
        3
102
RTVSPost2010PropOp43
 70
     1
102
RTVSPost2010Prop44ColorIndex
 90
        5
102
RTVSPost2010Prop44ColorRGB
 90
      255
102
RTVSPost2010PropOp44
 70
     1
102
RTVSPost2010Prop45
280
     0
102
RTVSPost2010PropOp45
 70
     1
102
RTVSPost2010Prop46
 90
       50
102
RTVSPost2010PropOp46
 70
     1
102
RTVSPost2010Prop47
 90
       50
102
RTVSPost2010PropOp47
 70
     1
102
RTVSPost2010Prop48
 90
       50
102
RTVSPost2010PropOp48
 70
     1
102
RTVSPost2010Prop49
280
     0
102
RTVSPost2010PropOp49
 70
     1
102
RTVSPost2010Prop50
 90
       50
102
RTVSPost2010PropOp50
 70
     1
102
RTVSPost2010Prop51ColorIndex
 90
      256
102
RTVSPost2010Prop51ColorRGB
 90
-16777216
102
RTVSPost2010PropOp51
 70
     0
102
RTVSPost2010Prop52
140
1.0
102
RTVSPost2010PropOp52
 70
     0
102
RTVSPost2010Prop53
 90
        2
102
RTVSPost2010PropOp53
 70
     1
102
RTVSPost2010Prop54
  1
strokes_ogs.tif
102
RTVSPost2010PropOp54
 70
     1
102
RTVSPost2010Prop55
280
     0
102
RTVSPost2010PropOp55
 70
     1
102
RTVSPost2010Prop56
140
1.0
102
RTVSPost2010PropOp56
 70
     1
102
RTVSPost2010Prop57
140
1.0
102
RTVSPost2010PropOp57
 70
     1
  0
XRECORD
  5
6DE
102
{ACAD_REACTORS
330
6DD
102
}
330
6DD
100
AcDbXrecord
280
     1
102
RTVSPost2010Prop28
280
     0
102
RTVSPost2010PropOp28
 70
     1
102
RTVSPost2010Prop29
280
     1
102
RTVSPost2010PropOp29
 70
     1
102
RTVSPost2010Prop30
280
     1
102
RTVSPost2010PropOp30
 70
     1
102
RTVSPost2010Prop31
280
     0
102
RTVSPost2010PropOp31
 70
     1
102
RTVSPost2010Prop32
280
     0
102
RTVSPost2010PropOp32
 70
     1
102
RTVSPost2010Prop33
280
     0
102
RTVSPost2010PropOp33
 70
     1
102
RTVSPost2010Prop34
280
     0
102
RTVSPost2010PropOp34
 70
     1
102
RTVSPost2010Prop35
280
     0
102
RTVSPost2010PropOp35
 70
     1
102
RTVSPost2010Prop36
280
     0
102
RTVSPost2010PropOp36
 70
     1
102
RTVSPost2010Prop37
 90
       50
102
RTVSPost2010PropOp37
 70
     1
102
RTVSPost2010Prop38
140
0.0
102
RTVSPost2010PropOp38
 70
     1
102
RTVSPost2010Prop39
140
1.0
102
RTVSPost2010PropOp39
 70
     1
102
RTVSPost2010Prop40
 90
        0
102
RTVSPost2010PropOp40
 70
     1
102
RTVSPost2010Prop41ColorIndex
 90
       18
102
RTVSPost2010Prop41ColorRGB
 90
        0
102
RTVSPost2010PropOp41
 70
     1
102
RTVSPost2010Prop42
 90
       50
102
RTVSPost2010PropOp42
 70
     1
102
RTVSPost2010Prop43
 90
        3
102
RTVSPost2010PropOp43
 70
     1
102
RTVSPost2010Prop44ColorIndex
 90
        5
102
RTVSPost2010Prop44ColorRGB
 90
      255
102
RTVSPost2010PropOp44
 70
     1
102
RTVSPost2010Prop45
280
     0
102
RTVSPost2010PropOp45
 70
     1
102
RTVSPost2010Prop46
 90
       50
102
RTVSPost2010PropOp46
 70
     1
102
RTVSPost2010Prop47
 90
       50
102
RTVSPost2010PropOp47
 70
     1
102
RTVSPost2010Prop48
 90
       50
102
RTVSPost2010PropOp48
 70
     1
102
RTVSPost2010Prop49
280
     0
102
RTVSPost2010PropOp49
 70
     1
102
RTVSPost2010Prop50
 90
       50
102
RTVSPost2010PropOp50
 70
     1
102
RTVSPost2010Prop51ColorIndex
 90
      256
102
RTVSPost2010Prop51ColorRGB
 90
-16777216
102
RTVSPost2010PropOp51
 70
     0
102
RTVSPost2010Prop52
140
1.0
102
RTVSPost2010PropOp52
 70
     0
102
RTVSPost2010Prop53
 90
        2
102
RTVSPost2010PropOp53
 70
     1
102
RTVSPost2010Prop54
  1
strokes_ogs.tif
102
RTVSPost2010PropOp54
 70
     1
102
RTVSPost2010Prop55
280
     0
102
RTVSPost2010PropOp55
 70
     1
102
RTVSPost2010Prop56
140
1.0
102
RTVSPost2010PropOp56
 70
     1
102
RTVSPost2010Prop57
140
1.0
102
RTVSPost2010PropOp57
 70
     1
  0
XRECORD
  5
6E0
102
{ACAD_REACTORS
330
6DF
102
}
330
6DF
100
AcDbXrecord
280
     1
102
RTVSPost2010Prop28
280
     0
102
RTVSPost2010PropOp28
 70
     1
102
RTVSPost2010Prop29
280
     1
102
RTVSPost2010PropOp29
 70
     1
102
RTVSPost2010Prop30
280
     1
102
RTVSPost2010PropOp30
 70
     1
102
RTVSPost2010Prop31
280
     0
102
RTVSPost2010PropOp31
 70
     1
102
RTVSPost2010Prop32
280
     0
102
RTVSPost2010PropOp32
 70
     1
102
RTVSPost2010Prop33
280
     0
102
RTVSPost2010PropOp33
 70
     1
102
RTVSPost2010Prop34
280
     0
102
RTVSPost2010PropOp34
 70
     1
102
RTVSPost2010Prop35
280
     0
102
RTVSPost2010PropOp35
 70
     1
102
RTVSPost2010Prop36
280
     0
102
RTVSPost2010PropOp36
 70
     1
102
RTVSPost2010Prop37
 90
       50
102
RTVSPost2010PropOp37
 70
     1
102
RTVSPost2010Prop38
140
0.0
102
RTVSPost2010PropOp38
 70
     1
102
RTVSPost2010Prop39
140
1.0
102
RTVSPost2010PropOp39
 70
     1
102
RTVSPost2010Prop40
 90
        0
102
RTVSPost2010PropOp40
 70
     1
102
RTVSPost2010Prop41ColorIndex
 90
       18
102
RTVSPost2010Prop41ColorRGB
 90
        0
102
RTVSPost2010PropOp41
 70
     1
102
RTVSPost2010Prop42
 90
       50
102
RTVSPost2010PropOp42
 70
     1
102
RTVSPost2010Prop43
 90
        3
102
RTVSPost2010PropOp43
 70
     1
102
RTVSPost2010Prop44ColorIndex
 90
        5
102
RTVSPost2010Prop44ColorRGB
 90
      255
102
RTVSPost2010PropOp44
 70
     1
102
RTVSPost2010Prop45
280
     0
102
RTVSPost2010PropOp45
 70
     1
102
RTVSPost2010Prop46
 90
       50
102
RTVSPost2010PropOp46
 70
     1
102
RTVSPost2010Prop47
 90
       50
102
RTVSPost2010PropOp47
 70
     1
102
RTVSPost2010Prop48
 90
       50
102
RTVSPost2010PropOp48
 70
     1
102
RTVSPost2010Prop49
280
     0
102
RTVSPost2010PropOp49
 70
     1
102
RTVSPost2010Prop50
 90
       50
102
RTVSPost2010PropOp50
 70
     1
102
RTVSPost2010Prop51ColorIndex
 90
      256
102
RTVSPost2010Prop51ColorRGB
 90
-16777216
102
RTVSPost2010PropOp51
 70
     0
102
RTVSPost2010Prop52
140
1.0
102
RTVSPost2010PropOp52
 70
     0
102
RTVSPost2010Prop53
 90
        2
102
RTVSPost2010PropOp53
 70
     1
102
RTVSPost2010Prop54
  1
strokes_ogs.tif
102
RTVSPost2010PropOp54
 70
     1
102
RTVSPost2010Prop55
280
     0
102
RTVSPost2010PropOp55
 70
     1
102
RTVSPost2010Prop56
140
1.0
102
RTVSPost2010PropOp56
 70
     1
102
RTVSPost2010Prop57
140
1.0
102
RTVSPost2010PropOp57
 70
     1
  0
XRECORD
  5
6E2
102
{ACAD_REACTORS
330
6E1
102
}
330
6E1
100
AcDbXrecord
280
     1
102
RTVSPost2010Prop28
280
     0
102
RTVSPost2010PropOp28
 70
     0
102
RTVSPost2010Prop29
280
     1
102
RTVSPost2010PropOp29
 70
     0
102
RTVSPost2010Prop30
280
     1
102
RTVSPost2010PropOp30
 70
     0
102
RTVSPost2010Prop31
280
     0
102
RTVSPost2010PropOp31
 70
     0
102
RTVSPost2010Prop32
280
     0
102
RTVSPost2010PropOp32
 70
     0
102
RTVSPost2010Prop33
280
     0
102
RTVSPost2010PropOp33
 70
     0
102
RTVSPost2010Prop34
280
     0
102
RTVSPost2010PropOp34
 70
     0
102
RTVSPost2010Prop35
280
     0
102
RTVSPost2010PropOp35
 70
     0
102
RTVSPost2010Prop36
280
     0
102
RTVSPost2010PropOp36
 70
     0
102
RTVSPost2010Prop37
 90
       50
102
RTVSPost2010PropOp37
 70
     0
102
RTVSPost2010Prop38
140
0.0
102
RTVSPost2010PropOp38
 70
     0
102
RTVSPost2010Prop39
140
1.0
102
RTVSPost2010PropOp39
 70
     0
102
RTVSPost2010Prop40
 90
        0
102
RTVSPost2010PropOp40
 70
     0
102
RTVSPost2010Prop41ColorIndex
 90
       18
102
RTVSPost2010Prop41ColorRGB
 90
        0
102
RTVSPost2010PropOp41
 70
     0
102
RTVSPost2010Prop42
 90
       50
102
RTVSPost2010PropOp42
 70
     0
102
RTVSPost2010Prop43
 90
        3
102
RTVSPost2010PropOp43
 70
     0
102
RTVSPost2010Prop44ColorIndex
 90
        5
102
RTVSPost2010Prop44ColorRGB
 90
      255
102
RTVSPost2010PropOp44
 70
     0
102
RTVSPost2010Prop45
280
     0
102
RTVSPost2010PropOp45
 70
     0
102
RTVSPost2010Prop46
 90
       50
102
RTVSPost2010PropOp46
 70
     0
102
RTVSPost2010Prop47
 90
       50
102
RTVSPost2010PropOp47
 70
     0
102
RTVSPost2010Prop48
 90
       50
102
RTVSPost2010PropOp48
 70
     0
102
RTVSPost2010Prop49
280
     0
102
RTVSPost2010PropOp49
 70
     0
102
RTVSPost2010Prop50
 90
       50
102
RTVSPost2010PropOp50
 70
     0
102
RTVSPost2010Prop51ColorIndex
 90
      256
102
RTVSPost2010Prop51ColorRGB
 90
-16777216
102
RTVSPost2010PropOp51
 70
     0
102
RTVSPost2010Prop52
140
1.0
102
RTVSPost2010PropOp52
 70
     0
102
RTVSPost2010Prop53
 90
        2
102
RTVSPost2010PropOp53
 70
     0
102
RTVSPost2010Prop54
  1
strokes_ogs.tif
102
RTVSPost2010PropOp54
 70
     0
102
RTVSPost2010Prop55
280
     0
102
RTVSPost2010PropOp55
 70
     0
102
RTVSPost2010Prop56
140
1.0
102
RTVSPost2010PropOp56
 70
     0
102
RTVSPost2010Prop57
140
1.0
102
RTVSPost2010PropOp57
 70
     0
  0
XRECORD
  5
6E4
102
{ACAD_REACTORS
330
6E3
102
}
330
6E3
100
AcDbXrecord
280
     1
102
RTVSPost2010Prop28
280
     0
102
RTVSPost2010PropOp28
 70
     1
102
RTVSPost2010Prop29
280
     1
102
RTVSPost2010PropOp29
 70
     1
102
RTVSPost2010Prop30
280
     1
102
RTVSPost2010PropOp30
 70
     1
102
RTVSPost2010Prop31
280
     0
102
RTVSPost2010PropOp31
 70
     1
102
RTVSPost2010Prop32
280
     0
102
RTVSPost2010PropOp32
 70
     1
102
RTVSPost2010Prop33
280
     0
102
RTVSPost2010PropOp33
 70
     1
102
RTVSPost2010Prop34
280
     0
102
RTVSPost2010PropOp34
 70
     1
102
RTVSPost2010Prop35
280
     0
102
RTVSPost2010PropOp35
 70
     1
102
RTVSPost2010Prop36
280
     0
102
RTVSPost2010PropOp36
 70
     1
102
RTVSPost2010Prop37
 90
       50
102
RTVSPost2010PropOp37
 70
     1
102
RTVSPost2010Prop38
140
0.0
102
RTVSPost2010PropOp38
 70
     1
102
RTVSPost2010Prop39
140
1.0
102
RTVSPost2010PropOp39
 70
     1
102
RTVSPost2010Prop40
 90
        0
102
RTVSPost2010PropOp40
 70
     1
102
RTVSPost2010Prop41ColorIndex
 90
       18
102
RTVSPost2010Prop41ColorRGB
 90
        0
102
RTVSPost2010PropOp41
 70
     1
102
RTVSPost2010Prop42
 90
       50
102
RTVSPost2010PropOp42
 70
     1
102
RTVSPost2010Prop43
 90
        3
102
RTVSPost2010PropOp43
 70
     1
102
RTVSPost2010Prop44ColorIndex
 90
        5
102
RTVSPost2010Prop44ColorRGB
 90
      255
102
RTVSPost2010PropOp44
 70
     1
102
RTVSPost2010Prop45
280
     0
102
RTVSPost2010PropOp45
 70
     1
102
RTVSPost2010Prop46
 90
       50
102
RTVSPost2010PropOp46
 70
     1
102
RTVSPost2010Prop47
 90
       50
102
RTVSPost2010PropOp47
 70
     1
102
RTVSPost2010Prop48
 90
       50
102
RTVSPost2010PropOp48
 70
     1
102
RTVSPost2010Prop49
280
     0
102
RTVSPost2010PropOp49
 70
     1
102
RTVSPost2010Prop50
 90
       50
102
RTVSPost2010PropOp50
 70
     1
102
RTVSPost2010Prop51ColorIndex
 90
      256
102
RTVSPost2010Prop51ColorRGB
 90
-16777216
102
RTVSPost2010PropOp51
 70
     0
102
RTVSPost2010Prop52
140
1.0
102
RTVSPost2010PropOp52
 70
     0
102
RTVSPost2010Prop53
 90
        2
102
RTVSPost2010PropOp53
 70
     1
102
RTVSPost2010Prop54
  1
strokes_ogs.tif
102
RTVSPost2010PropOp54
 70
     1
102
RTVSPost2010Prop55
280
     0
102
RTVSPost2010PropOp55
 70
     1
102
RTVSPost2010Prop56
140
1.0
102
RTVSPost2010PropOp56
 70
     1
102
RTVSPost2010Prop57
140
1.0
102
RTVSPost2010PropOp57
 70
     1
  0
XRECORD
  5
6E6
102
{ACAD_REACTORS
330
6E5
102
}
330
6E5
100
AcDbXrecord
280
     1
102
RTVSPost2010Prop28
280
     0
102
RTVSPost2010PropOp28
 70
     0
102
RTVSPost2010Prop29
280
     1
102
RTVSPost2010PropOp29
 70
     0
102
RTVSPost2010Prop30
280
     1
102
RTVSPost2010PropOp30
 70
     0
102
RTVSPost2010Prop31
280
     0
102
RTVSPost2010PropOp31
 70
     0
102
RTVSPost2010Prop32
280
     0
102
RTVSPost2010PropOp32
 70
     0
102
RTVSPost2010Prop33
280
     0
102
RTVSPost2010PropOp33
 70
     0
102
RTVSPost2010Prop34
280
     0
102
RTVSPost2010PropOp34
 70
     0
102
RTVSPost2010Prop35
280
     0
102
RTVSPost2010PropOp35
 70
     0
102
RTVSPost2010Prop36
280
     0
102
RTVSPost2010PropOp36
 70
     0
102
RTVSPost2010Prop37
 90
       50
102
RTVSPost2010PropOp37
 70
     0
102
RTVSPost2010Prop38
140
0.0
102
RTVSPost2010PropOp38
 70
     0
102
RTVSPost2010Prop39
140
1.0
102
RTVSPost2010PropOp39
 70
     0
102
RTVSPost2010Prop40
 90
        0
102
RTVSPost2010PropOp40
 70
     0
102
RTVSPost2010Prop41ColorIndex
 90
       18
102
RTVSPost2010Prop41ColorRGB
 90
        0
102
RTVSPost2010PropOp41
 70
     0
102
RTVSPost2010Prop42
 90
       50
102
RTVSPost2010PropOp42
 70
     0
102
RTVSPost2010Prop43
 90
        3
102
RTVSPost2010PropOp43
 70
     0
102
RTVSPost2010Prop44ColorIndex
 90
        5
102
RTVSPost2010Prop44ColorRGB
 90
      255
102
RTVSPost2010PropOp44
 70
     0
102
RTVSPost2010Prop45
280
     0
102
RTVSPost2010PropOp45
 70
     0
102
RTVSPost2010Prop46
 90
       50
102
RTVSPost2010PropOp46
 70
     0
102
RTVSPost2010Prop47
 90
       50
102
RTVSPost2010PropOp47
 70
     0
102
RTVSPost2010Prop48
 90
       50
102
RTVSPost2010PropOp48
 70
     0
102
RTVSPost2010Prop49
280
     0
102
RTVSPost2010PropOp49
 70
     0
102
RTVSPost2010Prop50
 90
       50
102
RTVSPost2010PropOp50
 70
     0
102
RTVSPost2010Prop51ColorIndex
 90
      256
102
RTVSPost2010Prop51ColorRGB
 90
-16777216
102
RTVSPost2010PropOp51
 70
     0
102
RTVSPost2010Prop52
140
1.0
102
RTVSPost2010PropOp52
 70
     0
102
RTVSPost2010Prop53
 90
        2
102
RTVSPost2010PropOp53
 70
     0
102
RTVSPost2010Prop54
  1
strokes_ogs.tif
102
RTVSPost2010PropOp54
 70
     0
102
RTVSPost2010Prop55
280
     0
102
RTVSPost2010PropOp55
 70
     0
102
RTVSPost2010Prop56
140
1.0
102
RTVSPost2010PropOp56
 70
     0
102
RTVSPost2010Prop57
140
1.0
102
RTVSPost2010PropOp57
 70
     0
  0
XRECORD
  5
6E8
102
{ACAD_REACTORS
330
6E7
102
}
330
6E7
100
AcDbXrecord
280
     1
102
RTVSPost2010Prop28
280
     0
102
RTVSPost2010PropOp28
 70
     1
102
RTVSPost2010Prop29
280
     1
102
RTVSPost2010PropOp29
 70
     1
102
RTVSPost2010Prop30
280
     1
102
RTVSPost2010PropOp30
 70
     1
102
RTVSPost2010Prop31
280
     0
102
RTVSPost2010PropOp31
 70
     1
102
RTVSPost2010Prop32
280
     0
102
RTVSPost2010PropOp32
 70
     1
102
RTVSPost2010Prop33
280
     0
102
RTVSPost2010PropOp33
 70
     1
102
RTVSPost2010Prop34
280
     0
102
RTVSPost2010PropOp34
 70
     1
102
RTVSPost2010Prop35
280
     0
102
RTVSPost2010PropOp35
 70
     1
102
RTVSPost2010Prop36
280
     0
102
RTVSPost2010PropOp36
 70
     1
102
RTVSPost2010Prop37
 90
       50
102
RTVSPost2010PropOp37
 70
     1
102
RTVSPost2010Prop38
140
0.0
102
RTVSPost2010PropOp38
 70
     1
102
RTVSPost2010Prop39
140
1.0
102
RTVSPost2010PropOp39
 70
     1
102
RTVSPost2010Prop40
 90
        0
102
RTVSPost2010PropOp40
 70
     1
102
RTVSPost2010Prop41ColorIndex
 90
       18
102
RTVSPost2010Prop41ColorRGB
 90
        0
102
RTVSPost2010PropOp41
 70
     1
102
RTVSPost2010Prop42
 90
       50
102
RTVSPost2010PropOp42
 70
     1
102
RTVSPost2010Prop43
 90
        3
102
RTVSPost2010PropOp43
 70
     1
102
RTVSPost2010Prop44ColorIndex
 90
        5
102
RTVSPost2010Prop44ColorRGB
 90
      255
102
RTVSPost2010PropOp44
 70
     1
102
RTVSPost2010Prop45
280
     0
102
RTVSPost2010PropOp45
 70
     1
102
RTVSPost2010Prop46
 90
       50
102
RTVSPost2010PropOp46
 70
     1
102
RTVSPost2010Prop47
 90
       50
102
RTVSPost2010PropOp47
 70
     1
102
RTVSPost2010Prop48
 90
       50
102
RTVSPost2010PropOp48
 70
     1
102
RTVSPost2010Prop49
280
     0
102
RTVSPost2010PropOp49
 70
     1
102
RTVSPost2010Prop50
 90
       50
102
RTVSPost2010PropOp50
 70
     1
102
RTVSPost2010Prop51ColorIndex
 90
      256
102
RTVSPost2010Prop51ColorRGB
 90
-16777216
102
RTVSPost2010PropOp51
 70
     0
102
RTVSPost2010Prop52
140
1.0
102
RTVSPost2010PropOp52
 70
     0
102
RTVSPost2010Prop53
 90
        2
102
RTVSPost2010PropOp53
 70
     1
102
RTVSPost2010Prop54
  1
strokes_ogs.tif
102
RTVSPost2010PropOp54
 70
     1
102
RTVSPost2010Prop55
280
     0
102
RTVSPost2010PropOp55
 70
     1
102
RTVSPost2010Prop56
140
1.0
102
RTVSPost2010PropOp56
 70
     1
102
RTVSPost2010Prop57
140
1.0
102
RTVSPost2010PropOp57
 70
     1
  0
XRECORD
  5
6EA
102
{ACAD_REACTORS
330
6E9
102
}
330
6E9
100
AcDbXrecord
280
     1
102
RTVSPost2010Prop28
280
     0
102
RTVSPost2010PropOp28
 70
     1
102
RTVSPost2010Prop29
280
     1
102
RTVSPost2010PropOp29
 70
     1
102
RTVSPost2010Prop30
280
     1
102
RTVSPost2010PropOp30
 70
     1
102
RTVSPost2010Prop31
280
     0
102
RTVSPost2010PropOp31
 70
     1
102
RTVSPost2010Prop32
280
     0
102
RTVSPost2010PropOp32
 70
     1
102
RTVSPost2010Prop33
280
     0
102
RTVSPost2010PropOp33
 70
     1
102
RTVSPost2010Prop34
280
     0
102
RTVSPost2010PropOp34
 70
     1
102
RTVSPost2010Prop35
280
     0
102
RTVSPost2010PropOp35
 70
     1
102
RTVSPost2010Prop36
280
     0
102
RTVSPost2010PropOp36
 70
     1
102
RTVSPost2010Prop37
 90
       50
102
RTVSPost2010PropOp37
 70
     1
102
RTVSPost2010Prop38
140
0.0
102
RTVSPost2010PropOp38
 70
     1
102
RTVSPost2010Prop39
140
1.0
102
RTVSPost2010PropOp39
 70
     1
102
RTVSPost2010Prop40
 90
        0
102
RTVSPost2010PropOp40
 70
     1
102
RTVSPost2010Prop41ColorIndex
 90
       18
102
RTVSPost2010Prop41ColorRGB
 90
        0
102
RTVSPost2010PropOp41
 70
     1
102
RTVSPost2010Prop42
 90
       50
102
RTVSPost2010PropOp42
 70
     1
102
RTVSPost2010Prop43
 90
        3
102
RTVSPost2010PropOp43
 70
     1
102
RTVSPost2010Prop44ColorIndex
 90
        5
102
RTVSPost2010Prop44ColorRGB
 90
      255
102
RTVSPost2010PropOp44
 70
     1
102
RTVSPost2010Prop45
280
     0
102
RTVSPost2010PropOp45
 70
     1
102
RTVSPost2010Prop46
 90
       50
102
RTVSPost2010PropOp46
 70
     1
102
RTVSPost2010Prop47
 90
       50
102
RTVSPost2010PropOp47
 70
     1
102
RTVSPost2010Prop48
 90
       50
102
RTVSPost2010PropOp48
 70
     1
102
RTVSPost2010Prop49
280
     0
102
RTVSPost2010PropOp49
 70
     1
102
RTVSPost2010Prop50
 90
       50
102
RTVSPost2010PropOp50
 70
     1
102
RTVSPost2010Prop51ColorIndex
 90
      256
102
RTVSPost2010Prop51ColorRGB
 90
-16777216
102
RTVSPost2010PropOp51
 70
     0
102
RTVSPost2010Prop52
140
1.0
102
RTVSPost2010PropOp52
 70
     0
102
RTVSPost2010Prop53
 90
        2
102
RTVSPost2010PropOp53
 70
     1
102
RTVSPost2010Prop54
  1
strokes_ogs.tif
102
RTVSPost2010PropOp54
 70
     1
102
RTVSPost2010Prop55
280
     0
102
RTVSPost2010PropOp55
 70
     1
102
RTVSPost2010Prop56
140
1.0
102
RTVSPost2010PropOp56
 70
     1
102
RTVSPost2010Prop57
140
1.0
102
RTVSPost2010PropOp57
 70
     1
  0
XRECORD
  5
6EC
102
{ACAD_REACTORS
330
6EB
102
}
330
6EB
100
AcDbXrecord
280
     1
102
RTVSPost2010Prop28
280
     0
102
RTVSPost2010PropOp28
 70
     1
102
RTVSPost2010Prop29
280
     1
102
RTVSPost2010PropOp29
 70
     1
102
RTVSPost2010Prop30
280
     1
102
RTVSPost2010PropOp30
 70
     1
102
RTVSPost2010Prop31
280
     0
102
RTVSPost2010PropOp31
 70
     1
102
RTVSPost2010Prop32
280
     0
102
RTVSPost2010PropOp32
 70
     1
102
RTVSPost2010Prop33
280
     0
102
RTVSPost2010PropOp33
 70
     1
102
RTVSPost2010Prop34
280
     0
102
RTVSPost2010PropOp34
 70
     1
102
RTVSPost2010Prop35
280
     0
102
RTVSPost2010PropOp35
 70
     1
102
RTVSPost2010Prop36
280
     0
102
RTVSPost2010PropOp36
 70
     1
102
RTVSPost2010Prop37
 90
       50
102
RTVSPost2010PropOp37
 70
     1
102
RTVSPost2010Prop38
140
0.0
102
RTVSPost2010PropOp38
 70
     1
102
RTVSPost2010Prop39
140
1.0
102
RTVSPost2010PropOp39
 70
     1
102
RTVSPost2010Prop40
 90
        0
102
RTVSPost2010PropOp40
 70
     1
102
RTVSPost2010Prop41ColorIndex
 90
       18
102
RTVSPost2010Prop41ColorRGB
 90
        0
102
RTVSPost2010PropOp41
 70
     1
102
RTVSPost2010Prop42
 90
       50
102
RTVSPost2010PropOp42
 70
     1
102
RTVSPost2010Prop43
 90
        3
102
RTVSPost2010PropOp43
 70
     1
102
RTVSPost2010Prop44ColorIndex
 90
        5
102
RTVSPost2010Prop44ColorRGB
 90
      255
102
RTVSPost2010PropOp44
 70
     1
102
RTVSPost2010Prop45
280
     0
102
RTVSPost2010PropOp45
 70
     1
102
RTVSPost2010Prop46
 90
       50
102
RTVSPost2010PropOp46
 70
     1
102
RTVSPost2010Prop47
 90
       50
102
RTVSPost2010PropOp47
 70
     1
102
RTVSPost2010Prop48
 90
       50
102
RTVSPost2010PropOp48
 70
     1
102
RTVSPost2010Prop49
280
     0
102
RTVSPost2010PropOp49
 70
     1
102
RTVSPost2010Prop50
 90
       50
102
RTVSPost2010PropOp50
 70
     1
102
RTVSPost2010Prop51ColorIndex
 90
      256
102
RTVSPost2010Prop51ColorRGB
 90
-16777216
102
RTVSPost2010PropOp51
 70
     0
102
RTVSPost2010Prop52
140
1.0
102
RTVSPost2010PropOp52
 70
     0
102
RTVSPost2010Prop53
 90
        2
102
RTVSPost2010PropOp53
 70
     1
102
RTVSPost2010Prop54
  1
strokes_ogs.tif
102
RTVSPost2010PropOp54
 70
     1
102
RTVSPost2010Prop55
280
     0
102
RTVSPost2010PropOp55
 70
     1
102
RTVSPost2010Prop56
140
1.0
102
RTVSPost2010PropOp56
 70
     1
102
RTVSPost2010Prop57
140
1.0
102
RTVSPost2010PropOp57
 70
     1
  0
XRECORD
  5
6EE
102
{ACAD_REACTORS
330
6ED
102
}
330
6ED
100
AcDbXrecord
280
     1
102
RTVSPost2010Prop28
280
     0
102
RTVSPost2010PropOp28
 70
     1
102
RTVSPost2010Prop29
280
     1
102
RTVSPost2010PropOp29
 70
     1
102
RTVSPost2010Prop30
280
     1
102
RTVSPost2010PropOp30
 70
     1
102
RTVSPost2010Prop31
280
     0
102
RTVSPost2010PropOp31
 70
     1
102
RTVSPost2010Prop32
280
     0
102
RTVSPost2010PropOp32
 70
     1
102
RTVSPost2010Prop33
280
     0
102
RTVSPost2010PropOp33
 70
     1
102
RTVSPost2010Prop34
280
     0
102
RTVSPost2010PropOp34
 70
     1
102
RTVSPost2010Prop35
280
     0
102
RTVSPost2010PropOp35
 70
     1
102
RTVSPost2010Prop36
280
     0
102
RTVSPost2010PropOp36
 70
     1
102
RTVSPost2010Prop37
 90
       50
102
RTVSPost2010PropOp37
 70
     1
102
RTVSPost2010Prop38
140
0.0
102
RTVSPost2010PropOp38
 70
     1
102
RTVSPost2010Prop39
140
1.0
102
RTVSPost2010PropOp39
 70
     1
102
RTVSPost2010Prop40
 90
        0
102
RTVSPost2010PropOp40
 70
     1
102
RTVSPost2010Prop41ColorIndex
 90
       18
102
RTVSPost2010Prop41ColorRGB
 90
        0
102
RTVSPost2010PropOp41
 70
     1
102
RTVSPost2010Prop42
 90
       50
102
RTVSPost2010PropOp42
 70
     1
102
RTVSPost2010Prop43
 90
        3
102
RTVSPost2010PropOp43
 70
     1
102
RTVSPost2010Prop44ColorIndex
 90
        5
102
RTVSPost2010Prop44ColorRGB
 90
      255
102
RTVSPost2010PropOp44
 70
     1
102
RTVSPost2010Prop45
280
     0
102
RTVSPost2010PropOp45
 70
     1
102
RTVSPost2010Prop46
 90
       50
102
RTVSPost2010PropOp46
 70
     1
102
RTVSPost2010Prop47
 90
       50
102
RTVSPost2010PropOp47
 70
     1
102
RTVSPost2010Prop48
 90
       50
102
RTVSPost2010PropOp48
 70
     1
102
RTVSPost2010Prop49
280
     0
102
RTVSPost2010PropOp49
 70
     1
102
RTVSPost2010Prop50
 90
       50
102
RTVSPost2010PropOp50
 70
     1
102
RTVSPost2010Prop51ColorIndex
 90
      256
102
RTVSPost2010Prop51ColorRGB
 90
-16777216
102
RTVSPost2010PropOp51
 70
     0
102
RTVSPost2010Prop52
140
1.0
102
RTVSPost2010PropOp52
 70
     0
102
RTVSPost2010Prop53
 90
        2
102
RTVSPost2010PropOp53
 70
     1
102
RTVSPost2010Prop54
  1
strokes_ogs.tif
102
RTVSPost2010PropOp54
 70
     1
102
RTVSPost2010Prop55
280
     0
102
RTVSPost2010PropOp55
 70
     1
102
RTVSPost2010Prop56
140
1.0
102
RTVSPost2010PropOp56
 70
     1
102
RTVSPost2010Prop57
140
1.0
102
RTVSPost2010PropOp57
 70
     1
  0
XRECORD
  5
6F0
102
{ACAD_REACTORS
330
6EF
102
}
330
6EF
100
AcDbXrecord
280
     1
102
RTVSPost2010Prop28
280
     0
102
RTVSPost2010PropOp28
 70
     1
102
RTVSPost2010Prop29
280
     1
102
RTVSPost2010PropOp29
 70
     1
102
RTVSPost2010Prop30
280
     1
102
RTVSPost2010PropOp30
 70
     1
102
RTVSPost2010Prop31
280
     0
102
RTVSPost2010PropOp31
 70
     1
102
RTVSPost2010Prop32
280
     0
102
RTVSPost2010PropOp32
 70
     1
102
RTVSPost2010Prop33
280
     0
102
RTVSPost2010PropOp33
 70
     1
102
RTVSPost2010Prop34
280
     0
102
RTVSPost2010PropOp34
 70
     1
102
RTVSPost2010Prop35
280
     0
102
RTVSPost2010PropOp35
 70
     1
102
RTVSPost2010Prop36
280
     0
102
RTVSPost2010PropOp36
 70
     1
102
RTVSPost2010Prop37
 90
       50
102
RTVSPost2010PropOp37
 70
     1
102
RTVSPost2010Prop38
140
0.0
102
RTVSPost2010PropOp38
 70
     1
102
RTVSPost2010Prop39
140
1.0
102
RTVSPost2010PropOp39
 70
     1
102
RTVSPost2010Prop40
 90
        0
102
RTVSPost2010PropOp40
 70
     1
102
RTVSPost2010Prop41ColorIndex
 90
       18
102
RTVSPost2010Prop41ColorRGB
 90
        0
102
RTVSPost2010PropOp41
 70
     1
102
RTVSPost2010Prop42
 90
       50
102
RTVSPost2010PropOp42
 70
     1
102
RTVSPost2010Prop43
 90
        3
102
RTVSPost2010PropOp43
 70
     1
102
RTVSPost2010Prop44ColorIndex
 90
        5
102
RTVSPost2010Prop44ColorRGB
 90
      255
102
RTVSPost2010PropOp44
 70
     1
102
RTVSPost2010Prop45
280
     0
102
RTVSPost2010PropOp45
 70
     1
102
RTVSPost2010Prop46
 90
       50
102
RTVSPost2010PropOp46
 70
     1
102
RTVSPost2010Prop47
 90
       50
102
RTVSPost2010PropOp47
 70
     1
102
RTVSPost2010Prop48
 90
       50
102
RTVSPost2010PropOp48
 70
     1
102
RTVSPost2010Prop49
280
     0
102
RTVSPost2010PropOp49
 70
     1
102
RTVSPost2010Prop50
 90
       50
102
RTVSPost2010PropOp50
 70
     1
102
RTVSPost2010Prop51ColorIndex
 90
      256
102
RTVSPost2010Prop51ColorRGB
 90
-16777216
102
RTVSPost2010PropOp51
 70
     0
102
RTVSPost2010Prop52
140
1.0
102
RTVSPost2010PropOp52
 70
     0
102
RTVSPost2010Prop53
 90
        2
102
RTVSPost2010PropOp53
 70
     1
102
RTVSPost2010Prop54
  1
strokes_ogs.tif
102
RTVSPost2010PropOp54
 70
     1
102
RTVSPost2010Prop55
280
     0
102
RTVSPost2010PropOp55
 70
     1
102
RTVSPost2010Prop56
140
1.0
102
RTVSPost2010PropOp56
 70
     1
102
RTVSPost2010Prop57
140
1.0
102
RTVSPost2010PropOp57
 70
     1
  0
XRECORD
  5
6F2
102
{ACAD_REACTORS
330
6F1
102
}
330
6F1
100
AcDbXrecord
280
     1
102
RTVSPost2010Prop28
280
     0
102
RTVSPost2010PropOp28
 70
     1
102
RTVSPost2010Prop29
280
     1
102
RTVSPost2010PropOp29
 70
     1
102
RTVSPost2010Prop30
280
     1
102
RTVSPost2010PropOp30
 70
     1
102
RTVSPost2010Prop31
280
     0
102
RTVSPost2010PropOp31
 70
     1
102
RTVSPost2010Prop32
280
     0
102
RTVSPost2010PropOp32
 70
     1
102
RTVSPost2010Prop33
280
     0
102
RTVSPost2010PropOp33
 70
     1
102
RTVSPost2010Prop34
280
     0
102
RTVSPost2010PropOp34
 70
     1
102
RTVSPost2010Prop35
280
     0
102
RTVSPost2010PropOp35
 70
     1
102
RTVSPost2010Prop36
280
     0
102
RTVSPost2010PropOp36
 70
     1
102
RTVSPost2010Prop37
 90
       50
102
RTVSPost2010PropOp37
 70
     1
102
RTVSPost2010Prop38
140
0.0
102
RTVSPost2010PropOp38
 70
     1
102
RTVSPost2010Prop39
140
1.0
102
RTVSPost2010PropOp39
 70
     1
102
RTVSPost2010Prop40
 90
        0
102
RTVSPost2010PropOp40
 70
     1
102
RTVSPost2010Prop41ColorIndex
 90
       18
102
RTVSPost2010Prop41ColorRGB
 90
        0
102
RTVSPost2010PropOp41
 70
     1
102
RTVSPost2010Prop42
 90
       50
102
RTVSPost2010PropOp42
 70
     1
102
RTVSPost2010Prop43
 90
        3
102
RTVSPost2010PropOp43
 70
     1
102
RTVSPost2010Prop44ColorIndex
 90
        5
102
RTVSPost2010Prop44ColorRGB
 90
      255
102
RTVSPost2010PropOp44
 70
     1
102
RTVSPost2010Prop45
280
     0
102
RTVSPost2010PropOp45
 70
     1
102
RTVSPost2010Prop46
 90
       50
102
RTVSPost2010PropOp46
 70
     1
102
RTVSPost2010Prop47
 90
       50
102
RTVSPost2010PropOp47
 70
     1
102
RTVSPost2010Prop48
 90
       50
102
RTVSPost2010PropOp48
 70
     1
102
RTVSPost2010Prop49
280
     0
102
RTVSPost2010PropOp49
 70
     1
102
RTVSPost2010Prop50
 90
       50
102
RTVSPost2010PropOp50
 70
     1
102
RTVSPost2010Prop51ColorIndex
 90
      256
102
RTVSPost2010Prop51ColorRGB
 90
-16777216
102
RTVSPost2010PropOp51
 70
     0
102
RTVSPost2010Prop52
140
1.0
102
RTVSPost2010PropOp52
 70
     0
102
RTVSPost2010Prop53
 90
        2
102
RTVSPost2010PropOp53
 70
     1
102
RTVSPost2010Prop54
  1
strokes_ogs.tif
102
RTVSPost2010PropOp54
 70
     1
102
RTVSPost2010Prop55
280
     0
102
RTVSPost2010PropOp55
 70
     1
102
RTVSPost2010Prop56
140
1.0
102
RTVSPost2010PropOp56
 70
     1
102
RTVSPost2010Prop57
140
1.0
102
RTVSPost2010PropOp57
 70
     1
  0
XRECORD
  5
6F4
102
{ACAD_REACTORS
330
6F3
102
}
330
6F3
100
AcDbXrecord
280
     1
102
RTVSPost2010Prop28
280
     0
102
RTVSPost2010PropOp28
 70
     1
102
RTVSPost2010Prop29
280
     1
102
RTVSPost2010PropOp29
 70
     1
102
RTVSPost2010Prop30
280
     1
102
RTVSPost2010PropOp30
 70
     1
102
RTVSPost2010Prop31
280
     0
102
RTVSPost2010PropOp31
 70
     1
102
RTVSPost2010Prop32
280
     0
102
RTVSPost2010PropOp32
 70
     1
102
RTVSPost2010Prop33
280
     0
102
RTVSPost2010PropOp33
 70
     1
102
RTVSPost2010Prop34
280
     0
102
RTVSPost2010PropOp34
 70
     1
102
RTVSPost2010Prop35
280
     0
102
RTVSPost2010PropOp35
 70
     1
102
RTVSPost2010Prop36
280
     0
102
RTVSPost2010PropOp36
 70
     1
102
RTVSPost2010Prop37
 90
       50
102
RTVSPost2010PropOp37
 70
     1
102
RTVSPost2010Prop38
140
0.0
102
RTVSPost2010PropOp38
 70
     1
102
RTVSPost2010Prop39
140
1.0
102
RTVSPost2010PropOp39
 70
     1
102
RTVSPost2010Prop40
 90
        0
102
RTVSPost2010PropOp40
 70
     1
102
RTVSPost2010Prop41ColorIndex
 90
       18
102
RTVSPost2010Prop41ColorRGB
 90
        0
102
RTVSPost2010PropOp41
 70
     1
102
RTVSPost2010Prop42
 90
       50
102
RTVSPost2010PropOp42
 70
     1
102
RTVSPost2010Prop43
 90
        3
102
RTVSPost2010PropOp43
 70
     1
102
RTVSPost2010Prop44ColorIndex
 90
        5
102
RTVSPost2010Prop44ColorRGB
 90
      255
102
RTVSPost2010PropOp44
 70
     1
102
RTVSPost2010Prop45
280
     0
102
RTVSPost2010PropOp45
 70
     1
102
RTVSPost2010Prop46
 90
       50
102
RTVSPost2010PropOp46
 70
     1
102
RTVSPost2010Prop47
 90
       50
102
RTVSPost2010PropOp47
 70
     1
102
RTVSPost2010Prop48
 90
       50
102
RTVSPost2010PropOp48
 70
     1
102
RTVSPost2010Prop49
280
     0
102
RTVSPost2010PropOp49
 70
     1
102
RTVSPost2010Prop50
 90
       50
102
RTVSPost2010PropOp50
 70
     1
102
RTVSPost2010Prop51ColorIndex
 90
      256
102
RTVSPost2010Prop51ColorRGB
 90
-16777216
102
RTVSPost2010PropOp51
 70
     0
102
RTVSPost2010Prop52
140
1.0
102
RTVSPost2010PropOp52
 70
     0
102
RTVSPost2010Prop53
 90
        2
102
RTVSPost2010PropOp53
 70
     1
102
RTVSPost2010Prop54
  1
strokes_ogs.tif
102
RTVSPost2010PropOp54
 70
     1
102
RTVSPost2010Prop55
280
     0
102
RTVSPost2010PropOp55
 70
     1
102
RTVSPost2010Prop56
140
1.0
102
RTVSPost2010PropOp56
 70
     1
102
RTVSPost2010Prop57
140
1.0
102
RTVSPost2010PropOp57
 70
     1
  0
XRECORD
  5
6F6
102
{ACAD_REACTORS
330
6F5
102
}
330
6F5
100
AcDbXrecord
280
     1
102
RTVSPost2010Prop28
280
     0
102
RTVSPost2010PropOp28
 70
     1
102
RTVSPost2010Prop29
280
     1
102
RTVSPost2010PropOp29
 70
     1
102
RTVSPost2010Prop30
280
     1
102
RTVSPost2010PropOp30
 70
     1
102
RTVSPost2010Prop31
280
     0
102
RTVSPost2010PropOp31
 70
     1
102
RTVSPost2010Prop32
280
     0
102
RTVSPost2010PropOp32
 70
     1
102
RTVSPost2010Prop33
280
     0
102
RTVSPost2010PropOp33
 70
     1
102
RTVSPost2010Prop34
280
     0
102
RTVSPost2010PropOp34
 70
     1
102
RTVSPost2010Prop35
280
     0
102
RTVSPost2010PropOp35
 70
     1
102
RTVSPost2010Prop36
280
     0
102
RTVSPost2010PropOp36
 70
     1
102
RTVSPost2010Prop37
 90
       50
102
RTVSPost2010PropOp37
 70
     1
102
RTVSPost2010Prop38
140
0.0
102
RTVSPost2010PropOp38
 70
     1
102
RTVSPost2010Prop39
140
1.0
102
RTVSPost2010PropOp39
 70
     1
102
RTVSPost2010Prop40
 90
        0
102
RTVSPost2010PropOp40
 70
     1
102
RTVSPost2010Prop41ColorIndex
 90
       18
102
RTVSPost2010Prop41ColorRGB
 90
        0
102
RTVSPost2010PropOp41
 70
     1
102
RTVSPost2010Prop42
 90
       50
102
RTVSPost2010PropOp42
 70
     1
102
RTVSPost2010Prop43
 90
        3
102
RTVSPost2010PropOp43
 70
     1
102
RTVSPost2010Prop44ColorIndex
 90
        5
102
RTVSPost2010Prop44ColorRGB
 90
      255
102
RTVSPost2010PropOp44
 70
     1
102
RTVSPost2010Prop45
280
     0
102
RTVSPost2010PropOp45
 70
     1
102
RTVSPost2010Prop46
 90
       50
102
RTVSPost2010PropOp46
 70
     1
102
RTVSPost2010Prop47
 90
       50
102
RTVSPost2010PropOp47
 70
     1
102
RTVSPost2010Prop48
 90
       50
102
RTVSPost2010PropOp48
 70
     1
102
RTVSPost2010Prop49
280
     0
102
RTVSPost2010PropOp49
 70
     1
102
RTVSPost2010Prop50
 90
       50
102
RTVSPost2010PropOp50
 70
     1
102
RTVSPost2010Prop51ColorIndex
 90
      256
102
RTVSPost2010Prop51ColorRGB
 90
-16777216
102
RTVSPost2010PropOp51
 70
     0
102
RTVSPost2010Prop52
140
1.0
102
RTVSPost2010PropOp52
 70
     0
102
RTVSPost2010Prop53
 90
        2
102
RTVSPost2010PropOp53
 70
     1
102
RTVSPost2010Prop54
  1
strokes_ogs.tif
102
RTVSPost2010PropOp54
 70
     1
102
RTVSPost2010Prop55
280
     0
102
RTVSPost2010PropOp55
 70
     1
102
RTVSPost2010Prop56
140
1.0
102
RTVSPost2010PropOp56
 70
     1
102
RTVSPost2010Prop57
140
1.0
102
RTVSPost2010PropOp57
 70
     1
  0
ENDSEC
  0
EOF
