  0
SECTION
  2
HEADER
  9
$ACADVER
  1
AC1024
  9
$ACADMAINTVER
 70
     6
  9
$DWGCODEPAGE
  3
ANSI_1252
  9
$LASTSAVEDBY
  1
bje500
  9
$INSBASE
 10
0.0
 20
0.0
 30
0.0
  9
$EXTMIN
 10
502831.1086705598
 20
481009.170223658
 30
0.0
  9
$EXTMAX
 10
502836.325144203
 20
481013.6406305337
 30
0.0
  9
$LIMMIN
 10
0.0
 20
0.0
  9
$LIMMAX
 10
420.0
 20
297.0
  9
$ORTHOMODE
 70
     0
  9
$REGENMODE
 70
     1
  9
$FILLMODE
 70
     1
  9
$QTEXTMODE
 70
     0
  9
$MIRRTEXT
 70
     0
  9
$LTSCALE
 40
1.0
  9
$ATTMODE
 70
     1
  9
$TEXTSIZE
 40
0.025
  9
$TRACEWID
 40
1.0
  9
$TEXTSTYLE
  7
Standard
  9
$CLAYER
  8
Labels
  9
$CELTYPE
  6
ByLayer
  9
$CECOLOR
 62
   256
  9
$CELTSCALE
 40
1.0
  9
$DISPSILH
 70
     0
  9
$DIMSCALE
 40
1.0
  9
$DIMASZ
 40
2.5
  9
$DIMEXO
 40
0.625
  9
$DIMDLI
 40
3.75
  9
$DIMRND
 40
0.0
  9
$DIMDLE
 40
0.0
  9
$DIMEXE
 40
1.25
  9
$DIMTP
 40
0.0
  9
$DIMTM
 40
0.0
  9
$DIMTXT
 40
2.5
  9
$DIMCEN
 40
2.5
  9
$DIMTSZ
 40
0.0
  9
$DIMTOL
 70
     0
  9
$DIMLIM
 70
     0
  9
$DIMTIH
 70
     0
  9
$DIMTOH
 70
     0
  9
$DIMSE1
 70
     0
  9
$DIMSE2
 70
     0
  9
$DIMTAD
 70
     1
  9
$DIMZIN
 70
     8
  9
$DIMBLK
  1

  9
$DIMASO
 70
     1
  9
$DIMSHO
 70
     1
  9
$DIMPOST
  1

  9
$DIMAPOST
  1

  9
$DIMALT
 70
     0
  9
$DIMALTD
 70
     3
  9
$DIMALTF
 40
0.03937007874016
  9
$DIMLFAC
 40
1.0
  9
$DIMTOFL
 70
     1
  9
$DIMTVP
 40
0.0
  9
$DIMTIX
 70
     0
  9
$DIMSOXD
 70
     0
  9
$DIMSAH
 70
     0
  9
$DIMBLK1
  1

  9
$DIMBLK2
  1

  9
$DIMSTYLE
  2
ISO-25
  9
$DIMCLRD
 70
     0
  9
$DIMCLRE
 70
     0
  9
$DIMCLRT
 70
     0
  9
$DIMTFAC
 40
1.0
  9
$DIMGAP
 40
0.625
  9
$DIMJUST
 70
     0
  9
$DIMSD1
 70
     0
  9
$DIMSD2
 70
     0
  9
$DIMTOLJ
 70
     0
  9
$DIMTZIN
 70
     8
  9
$DIMALTZ
 70
     0
  9
$DIMALTTZ
 70
     0
  9
$DIMUPT
 70
     0
  9
$DIMDEC
 70
     2
  9
$DIMTDEC
 70
     2
  9
$DIMALTU
 70
     2
  9
$DIMALTTD
 70
     3
  9
$DIMTXSTY
  7
Standard
  9
$DIMAUNIT
 70
     0
  9
$DIMADEC
 70
     0
  9
$DIMALTRND
 40
0.0
  9
$DIMAZIN
 70
     0
  9
$DIMDSEP
 70
    44
  9
$DIMATFIT
 70
     3
  9
$DIMFRAC
 70
     0
  9
$DIMLDRBLK
  1

  9
$DIMLUNIT
 70
     2
  9
$DIMLWD
 70
    -2
  9
$DIMLWE
 70
    -2
  9
$DIMTMOVE
 70
     0
  9
$DIMFXL
 40
1.0
  9
$DIMFXLON
 70
     0
  9
$DIMJOGANG
 40
0.7853981633974483
  9
$DIMTFILL
 70
     0
  9
$DIMTFILLCLR
 70
     0
  9
$DIMARCSYM
 70
     0
  9
$DIMLTYPE
  6

  9
$DIMLTEX1
  6

  9
$DIMLTEX2
  6

  9
$DIMTXTDIRECTION
 70
     0
  9
$LUNITS
 70
     2
  9
$LUPREC
 70
     4
  9
$SKETCHINC
 40
1.0
  9
$FILLETRAD
 40
0.0
  9
$AUNITS
 70
     0
  9
$AUPREC
 70
     0
  9
$MENU
  1
.
  9
$ELEVATION
 40
0.0
  9
$PELEVATION
 40
0.0
  9
$THICKNESS
 40
0.0
  9
$LIMCHECK
 70
     0
  9
$CHAMFERA
 40
0.0
  9
$CHAMFERB
 40
0.0
  9
$CHAMFERC
 40
0.0
  9
$CHAMFERD
 40
0.0
  9
$SKPOLY
 70
     0
  9
$TDCREATE
 40
2456053.604230324
  9
$TDUCREATE
 40
2456053.562563657
  9
$TDUPDATE
 40
2456561.428193449
  9
$TDUUPDATE
 40
2456561.386526783
  9
$TDINDWG
 40
0.3690310532
  9
$TDUSRTIMER
 40
0.3690288773
  9
$USRTIMER
 70
     1
  9
$ANGBASE
 50
0.0
  9
$ANGDIR
 70
     0
  9
$PDMODE
 70
    34
  9
$PDSIZE
 40
0.1
  9
$PLINEWID
 40
0.0
  9
$SPLFRAME
 70
     0
  9
$SPLINETYPE
 70
     6
  9
$SPLINESEGS
 70
     8
  9
$HANDSEED
  5
740
  9
$SURFTAB1
 70
     6
  9
$SURFTAB2
 70
     6
  9
$SURFTYPE
 70
     6
  9
$SURFU
 70
     6
  9
$SURFV
 70
     6
  9
$UCSBASE
  2

  9
$UCSNAME
  2

  9
$UCSORG
 10
0.0
 20
0.0
 30
0.0
  9
$UCSXDIR
 10
1.0
 20
0.0
 30
0.0
  9
$UCSYDIR
 10
0.0
 20
1.0
 30
0.0
  9
$UCSORTHOREF
  2

  9
$UCSORTHOVIEW
 70
     0
  9
$UCSORGTOP
 10
0.0
 20
0.0
 30
0.0
  9
$UCSORGBOTTOM
 10
0.0
 20
0.0
 30
0.0
  9
$UCSORGLEFT
 10
0.0
 20
0.0
 30
0.0
  9
$UCSORGRIGHT
 10
0.0
 20
0.0
 30
0.0
  9
$UCSORGFRONT
 10
0.0
 20
0.0
 30
0.0
  9
$UCSORGBACK
 10
0.0
 20
0.0
 30
0.0
  9
$PUCSBASE
  2

  9
$PUCSNAME
  2

  9
$PUCSORG
 10
0.0
 20
0.0
 30
0.0
  9
$PUCSXDIR
 10
1.0
 20
0.0
 30
0.0
  9
$PUCSYDIR
 10
0.0
 20
1.0
 30
0.0
  9
$PUCSORTHOREF
  2

  9
$PUCSORTHOVIEW
 70
     0
  9
$PUCSORGTOP
 10
0.0
 20
0.0
 30
0.0
  9
$PUCSORGBOTTOM
 10
0.0
 20
0.0
 30
0.0
  9
$PUCSORGLEFT
 10
0.0
 20
0.0
 30
0.0
  9
$PUCSORGRIGHT
 10
0.0
 20
0.0
 30
0.0
  9
$PUCSORGFRONT
 10
0.0
 20
0.0
 30
0.0
  9
$PUCSORGBACK
 10
0.0
 20
0.0
 30
0.0
  9
$USERI1
 70
     0
  9
$USERI2
 70
     0
  9
$USERI3
 70
     0
  9
$USERI4
 70
     0
  9
$USERI5
 70
     0
  9
$USERR1
 40
0.0
  9
$USERR2
 40
0.0
  9
$USERR3
 40
0.0
  9
$USERR4
 40
0.0
  9
$USERR5
 40
0.0
  9
$WORLDVIEW
 70
     1
  9
$SHADEDGE
 70
     3
  9
$SHADEDIF
 70
    70
  9
$TILEMODE
 70
     1
  9
$MAXACTVP
 70
    64
  9
$PINSBASE
 10
0.0
 20
0.0
 30
0.0
  9
$PLIMCHECK
 70
     0
  9
$PEXTMIN
 10
0.0
 20
0.0
 30
0.0
  9
$PEXTMAX
 10
0.0
 20
0.0
 30
0.0
  9
$PLIMMIN
 10
0.0
 20
0.0
  9
$PLIMMAX
 10
12.0
 20
9.0
  9
$UNITMODE
 70
     0
  9
$VISRETAIN
 70
     1
  9
$PLINEGEN
 70
     0
  9
$PSLTSCALE
 70
     1
  9
$TREEDEPTH
 70
  3020
  9
$CMLSTYLE
  2
Standard
  9
$CMLJUST
 70
     0
  9
$CMLSCALE
 40
20.0
  9
$PROXYGRAPHICS
 70
     1
  9
$MEASUREMENT
 70
     1
  9
$CELWEIGHT
370
    -1
  9
$ENDCAPS
280
     0
  9
$JOINSTYLE
280
     0
  9
$LWDISPLAY
290
     0
  9
$INSUNITS
 70
     4
  9
$HYPERLINKBASE
  1

  9
$STYLESHEET
  1

  9
$XEDIT
290
     1
  9
$CEPSNTYPE
380
     0
  9
$PSTYLEMODE
290
     1
  9
$FINGERPRINTGUID
  2
{D1A58FB0-2B6B-4D89-BD62-DF6720483BAB}
  9
$VERSIONGUID
  2
{FFF6B876-33FC-4A65-BB3B-ABC6461E7E9D}
  9
$EXTNAMES
290
     1
  9
$PSVPSCALE
 40
0.0
  9
$OLESTARTUP
290
     0
  9
$SORTENTS
280
   127
  9
$INDEXCTL
280
     0
  9
$HIDETEXT
280
     1
  9
$XCLIPFRAME
280
     2
  9
$HALOGAP
280
     0
  9
$OBSCOLOR
 70
   257
  9
$OBSLTYPE
280
     0
  9
$INTERSECTIONDISPLAY
280
     0
  9
$INTERSECTIONCOLOR
 70
   257
  9
$DIMASSOC
280
     2
  9
$PROJECTNAME
  1

  9
$CAMERADISPLAY
290
     0
  9
$LENSLENGTH
 40
50.0
  9
$CAMERAHEIGHT
 40
0.0
  9
$STEPSPERSEC
 40
2.0
  9
$STEPSIZE
 40
6.0
  9
$3DDWFPREC
 40
2.0
  9
$PSOLWIDTH
 40
0.25
  9
$PSOLHEIGHT
 40
4.0
  9
$LOFTANG1
 40
1.570796326794897
  9
$LOFTANG2
 40
1.570796326794897
  9
$LOFTMAG1
 40
0.0
  9
$LOFTMAG2
 40
0.0
  9
$LOFTPARAM
 70
     7
  9
$LOFTNORMALS
280
     1
  9
$LATITUDE
 40
37.795
  9
$LONGITUDE
 40
-122.394
  9
$NORTHDIRECTION
 40
0.0
  9
$TIMEZONE
 70
 -8000
  9
$LIGHTGLYPHDISPLAY
280
     1
  9
$TILEMODELIGHTSYNCH
280
     1
  9
$CMATERIAL
347
4EE
  9
$SOLIDHIST
280
     0
  9
$SHOWHIST
280
     1
  9
$DWFFRAME
280
     2
  9
$DGNFRAME
280
     0
  9
$REALWORLDSCALE
290
     1
  9
$INTERFERECOLOR
 62
     1
  9
$CSHADOW
280
     0
  9
$SHADOWPLANELOCATION
 40
0.0
  0
ENDSEC
  0
SECTION
  2
CLASSES
  0
CLASS
  1
ACDBDICTIONARYWDFLT
  2
AcDbDictionaryWithDefault
  3
ObjectDBX Classes
 90
        0
 91
        4
280
     0
281
     0
  0
CLASS
  1
ACDBPLACEHOLDER
  2
AcDbPlaceHolder
  3
ObjectDBX Classes
 90
        0
 91
        1
280
     0
281
     0
  0
CLASS
  1
LAYOUT
  2
AcDbLayout
  3
ObjectDBX Classes
 90
        0
 91
        1
280
     0
281
     0
  0
CLASS
  1
DICTIONARYVAR
  2
AcDbDictionaryVar
  3
ObjectDBX Classes
 90
        0
 91
        4
280
     0
281
     0
  0
CLASS
  1
TABLESTYLE
  2
AcDbTableStyle
  3
ObjectDBX Classes
 90
     4095
 91
        4
280
     0
281
     0
  0
CLASS
  1
RASTERVARIABLES
  2
AcDbRasterVariables
  3
ISM
 90
        0
 91
        4
280
     0
281
     0
  0
CLASS
  1
IMAGEDEF
  2
AcDbRasterImageDef
  3
ISM
 90
        0
 91
        4
280
     0
281
     0
  0
CLASS
  1
IMAGEDEF_REACTOR
  2
AcDbRasterImageDefReactor
  3
ISM
 90
        1
 91
        4
280
     0
281
     0
  0
CLASS
  1
IMAGE
  2
AcDbRasterImage
  3
ISM
 90
      127
 91
        5
280
     0
281
     1
  0
CLASS
  1
SORTENTSTABLE
  2
AcDbSortentsTable
  3
ObjectDBX Classes
 90
        0
 91
        4
280
     0
281
     0
  0
CLASS
  1
MATERIAL
  2
AcDbMaterial
  3
ObjectDBX Classes
 90
     1153
 91
        4
280
     0
281
     0
  0
CLASS
  1
VISUALSTYLE
  2
AcDbVisualStyle
  3
ObjectDBX Classes
 90
     4095
 91
        4
280
     0
281
     0
  0
CLASS
  1
SCALE
  2
AcDbScale
  3
ObjectDBX Classes
 90
     1153
 91
        4
280
     0
281
     0
  0
CLASS
  1
MLEADERSTYLE
  2
AcDbMLeaderStyle
  3
ACDB_MLEADERSTYLE_CLASS
 90
     4095
 91
        4
280
     0
281
     0
  0
CLASS
  1
ACDBSECTIONVIEWSTYLE
  2
AcDbSectionViewStyle
  3
ObjectDBX Classes
 90
     1025
 91
        2
280
     1
281
     0
  0
CLASS
  1
ACDBDETAILVIEWSTYLE
  2
AcDbDetailViewStyle
  3
ObjectDBX Classes
 90
     1025
 91
        2
280
     1
281
     0
  0
CLASS
  1
EXACXREFPANELOBJECT
  2
ExAcXREFPanelObject
  3
EXAC_ESW
 90
     1025
 91
        1
280
     1
281
     0
  0
CLASS
  1
NPOCOLLECTION
  2
AcDbImpNonPersistentObjectsCollection
  3
ObjectDBX Classes
 90
     1153
 91
        1
280
     1
281
     0
  0
CLASS
  1
CELLSTYLEMAP
  2
AcDbCellStyleMap
  3
ObjectDBX Classes
 90
     1152
 91
        4
280
     0
281
     0
  0
ENDSEC
  0
SECTION
  2
TABLES
  0
TABLE
  2
VPORT
  5
8
102
{ACAD_XDICTIONARY
360
593
102
}
330
0
100
AcDbSymbolTable
 70
     1
  0
VPORT
  5
4E3
330
8
100
AcDbSymbolTableRecord
100
AcDbViewportTableRecord
  2
*Active
 70
     0
 10
0.0
 20
0.0
 11
1.0
 21
1.0
 12
502837.7438155129
 22
481011.8745309514
 13
0.0
 23
0.0
 14
10.0
 24
10.0
 15
10.0
 25
10.0
 16
0.0
 26
0.0
 36
1.0
 17
0.0
 27
0.0
 37
0.0
 40
6.363415006841816
 41
1.6078184110971
 42
50.0
 43
0.0
 44
0.0
 50
0.0
 51
0.0
 71
     0
 72
  1000
 73
     1
 74
     3
 75
     0
 76
     0
 77
     0
 78
     0
281
     0
 65
     1
110
0.0
120
0.0
130
0.0
111
1.0
121
0.0
131
0.0
112
0.0
122
1.0
132
0.0
 79
     0
146
0.0
348
50C
 60
     3
 61
     5
292
     1
282
     1
141
0.0
142
0.0
 63
   250
421
  3355443
1001
ACAD_NAV_VCDISPLAY
1070
     3
  0
ENDTAB
  0
TABLE
  2
LTYPE
  5
5
330
0
100
AcDbSymbolTable
 70
     2
  0
LTYPE
  5
14
330
5
100
AcDbSymbolTableRecord
100
AcDbLinetypeTableRecord
  2
ByBlock
 70
     0
  3

 72
    65
 73
     0
 40
0.0
  0
LTYPE
  5
15
330
5
100
AcDbSymbolTableRecord
100
AcDbLinetypeTableRecord
  2
ByLayer
 70
     0
  3

 72
    65
 73
     0
 40
0.0
  0
LTYPE
  5
16
330
5
100
AcDbSymbolTableRecord
100
AcDbLinetypeTableRecord
  2
Continuous
 70
     0
  3
Solid line
 72
    65
 73
     0
 40
0.0
  0
LTYPE
  5
5EF
330
5
100
AcDbSymbolTableRecord
100
AcDbLinetypeTableRecord
  2
PHANTOM2
 70
     0
  3
Phantom (.5x) ___ _ _ ___ _ _ ___ _ _ ___ _ _
 72
    65
 73
     6
 40
1.25
 49
0.625
 74
     0
 49
-0.125
 74
     0
 49
0.125
 74
     0
 49
-0.125
 74
     0
 49
0.125
 74
     0
 49
-0.125
 74
     0
  0
ENDTAB
  0
TABLE
  2
LAYER
  5
2
102
{ACAD_XDICTIONARY
360
151
102
}
330
0
100
AcDbSymbolTable
 70
     7
  0
LAYER
  5
10
102
{ACAD_XDICTIONARY
360
556
102
}
330
2
100
AcDbSymbolTableRecord
100
AcDbLayerTableRecord
  2
0
 70
     0
 62
     7
  6
Continuous
370
    -3
390
F
347
4FE
  0
LAYER
  5
154
102
{ACAD_XDICTIONARY
360
55A
102
}
330
2
100
AcDbSymbolTableRecord
100
AcDbLayerTableRecord
  2
Contexts
 70
     0
 62
   250
  6
Continuous
370
    -3
390
F
347
4FE
1001
AcAecLayerStandard
1000

1000

  0
LAYER
  5
155
102
{ACAD_XDICTIONARY
360
55C
102
}
330
2
100
AcDbSymbolTableRecord
100
AcDbLayerTableRecord
  2
Hachures
 70
     0
 62
   250
  6
Continuous
370
    -3
390
F
347
4FE
1001
AcAecLayerStandard
1000

1000

  0
LAYER
  5
157
102
{ACAD_XDICTIONARY
360
560
102
}
330
2
100
AcDbSymbolTableRecord
100
AcDbLayerTableRecord
  2
Points
 70
     0
 62
     6
  6
Continuous
370
    -3
390
F
347
4FE
1001
AcAecLayerStandard
1000

1000

  0
LAYER
  5
6E0
330
2
100
AcDbSymbolTableRecord
100
AcDbLayerTableRecord
  2
Section
 70
     0
 62
     2
  6
Continuous
370
    -3
390
F
347
4FE
1001
AcAecLayerStandard
1000

1000

1001
AcCmTransparency
1071
        0
  0
LAYER
  5
6E3
330
2
100
AcDbSymbolTableRecord
100
AcDbLayerTableRecord
  2
Labels
 70
     0
 62
   250
  6
Continuous
370
    -3
390
F
347
4FE
1001
AcAecLayerStandard
1000

1000

1001
AcCmTransparency
1071
        0
  0
LAYER
  5
6F6
330
2
100
AcDbSymbolTableRecord
100
AcDbLayerTableRecord
  2
Title
 70
     0
 62
   250
  6
Continuous
370
    -3
390
F
347
4FE
1001
AcAecLayerStandard
1000

1000

1001
AcCmTransparency
1071
        0
  0
ENDTAB
  0
TABLE
  2
STYLE
  5
3
330
0
100
AcDbSymbolTable
 70
     1
  0
STYLE
  5
11
330
3
100
AcDbSymbolTableRecord
100
AcDbTextStyleTableRecord
  2
Standard
 70
     0
 40
0.0
 41
1.0
 50
0.0
 71
     0
 42
0.025
  3
txt
  4

  0
ENDTAB
  0
TABLE
  2
VIEW
  5
6
330
0
100
AcDbSymbolTable
 70
     0
  0
ENDTAB
  0
TABLE
  2
UCS
  5
7
330
0
100
AcDbSymbolTable
 70
     0
  0
ENDTAB
  0
TABLE
  2
APPID
  5
9
330
0
100
AcDbSymbolTable
 70
     7
  0
APPID
  5
12
330
9
100
AcDbSymbolTableRecord
100
AcDbRegAppTableRecord
  2
ACAD
 70
     0
  0
APPID
  5
9E
330
9
100
AcDbSymbolTableRecord
100
AcDbRegAppTableRecord
  2
ACAD_PSEXT
 70
     0
  0
APPID
  5
150
330
9
100
AcDbSymbolTableRecord
100
AcDbRegAppTableRecord
  2
AcAecLayerStandard
 70
     0
  0
APPID
  5
53E
330
9
100
AcDbSymbolTableRecord
100
AcDbRegAppTableRecord
  2
ACAD_EXEMPT_FROM_CAD_STANDARDS
 70
     0
  0
APPID
  5
545
330
9
100
AcDbSymbolTableRecord
100
AcDbRegAppTableRecord
  2
ACAD_NAV_VCDISPLAY
 70
     0
  0
APPID
  5
5D0
330
9
100
AcDbSymbolTableRecord
100
AcDbRegAppTableRecord
  2
ACAD_MLEADERVER
 70
     0
  0
APPID
  5
6E1
330
9
100
AcDbSymbolTableRecord
100
AcDbRegAppTableRecord
  2
AcCmTransparency
 70
     0
  0
ENDTAB
  0
TABLE
  2
DIMSTYLE
  5
A
330
0
100
AcDbSymbolTable
 70
     2
100
AcDbDimStyleTable
  0
DIMSTYLE
105
27
330
A
100
AcDbSymbolTableRecord
100
AcDbDimStyleTableRecord
  2
ISO-25
 70
     0
 41
2.5
 42
0.625
 43
3.75
 44
1.25
 73
     0
 74
     0
 77
     1
 78
     8
140
2.5
141
2.5
143
0.03937007874016
147
0.625
171
     3
172
     1
178
     0
271
     2
272
     2
274
     3
278
    44
283
     0
284
     8
340
11
  0
DIMSTYLE
105
5F1
330
A
100
AcDbSymbolTableRecord
100
AcDbDimStyleTableRecord
  2
Standard
 70
     0
178
     0
340
11
  0
ENDTAB
  0
TABLE
  2
BLOCK_RECORD
  5
1
330
0
100
AcDbSymbolTable
 70
     1
  0
BLOCK_RECORD
  5
1F
102
{ACAD_XDICTIONARY
360
F0
102
}
330
1
100
AcDbSymbolTableRecord
100
AcDbBlockTableRecord
  2
*Model_Space
340
22
 70
     0
280
     1
281
     0
  0
BLOCK_RECORD
  5
D2
330
1
100
AcDbSymbolTableRecord
100
AcDbBlockTableRecord
  2
*Paper_Space
340
D3
 70
     0
280
     1
281
     0
  0
BLOCK_RECORD
  5
D6
330
1
100
AcDbSymbolTableRecord
100
AcDbBlockTableRecord
  2
*Paper_Space0
340
D7
 70
     0
280
     1
281
     0
  0
ENDTAB
  0
ENDSEC
  0
SECTION
  2
BLOCKS
  0
BLOCK
  5
20
330
1F
100
AcDbEntity
  8
0
100
AcDbBlockBegin
  2
*Model_Space
 70
     0
 10
0.0
 20
0.0
 30
0.0
  3
*Model_Space
  1
*Model_Space
  0
ENDBLK
  5
21
330
1F
100
AcDbEntity
  8
0
100
AcDbBlockEnd
  0
BLOCK
  5
D4
330
D2
100
AcDbEntity
 67
     1
  8
0
100
AcDbBlockBegin
  2
*Paper_Space
 70
     0
 10
0.0
 20
0.0
 30
0.0
  3
*Paper_Space
  1
*Paper_Space
  0
ENDBLK
  5
D5
330
D2
100
AcDbEntity
 67
     1
  8
0
100
AcDbBlockEnd
  0
BLOCK
  5
D8
330
D6
100
AcDbEntity
  8
0
100
AcDbBlockBegin
  2
*Paper_Space0
 70
     0
 10
0.0
 20
0.0
 30
0.0
  3
*Paper_Space0
  1
*Paper_Space0
  0
ENDBLK
  5
D9
330
D6
100
AcDbEntity
  8
0
100
AcDbBlockEnd
  0
ENDSEC
  0
SECTION
  2
ENTITIES
  0
LWPOLYLINE
  5
2FD
330
1F
100
AcDbEntity
  8
Contexts
100
AcDbPolyline
 90
       30
 70
     1
 43
0.0
 10
502832.3525595214
 20
481012.5521636379
 10
502832.3458574926
 20
481012.5729898497
 10
502832.3413762689
 20
481012.5894357812
 10
502832.3412401548
 20
481012.6157855908
 10
502832.3454378068
 20
481012.6542351345
 10
502832.3617419354
 20
481012.689453373
 10
502832.3802667822
 20
481012.7202913502
 10
502832.3999417101
 20
481012.7412538165
 10
502832.4218430711
 20
481012.756738084
 10
502832.4415917275
 20
481012.7634277269
 10
502832.4569783037
 20
481012.7635072088
 10
502832.4834062599
 20
481012.7537622749
 10
502832.5175898682
 20
481012.7319800954
 10
502832.5375257252
 20
481012.7024387408
 10
502832.5596766293
 20
481012.6696150047
 10
502832.5763209999
 20
481012.6389587193
 10
502832.5819012617
 20
481012.6225184649
 10
502832.5853401616
 20
481012.5950877686
 10
502832.5844055949
 20
481012.5632427286
 10
502832.5725033334
 20
481012.5269492809
 10
502832.5572926151
 20
481012.4928345996
 10
502832.532167825
 20
481012.4630604769
 10
502832.5124475257
 20
481012.4508812999
 10
502832.4850056029
 20
481012.4441518967
 10
502832.4530937994
 20
481012.4516726268
 10
502832.4222242761
 20
481012.4701781214
 10
502832.3979433532
 20
481012.4898155789
 10
502832.3813613681
 20
481012.5083948781
 10
502832.3680594828
 20
481012.5302849449
 10
502832.3581057546
 20
481012.542310836
  0
LWPOLYLINE
  5
2FE
330
1F
100
AcDbEntity
  8
Contexts
100
AcDbPolyline
 90
       22
 70
     1
 43
0.0
 10
502831.8950739008
 20
481012.6193391283
 10
502831.8762860024
 20
481012.6374210731
 10
502831.8577399665
 20
481012.6708058402
 10
502831.8508397932
 20
481012.7055914117
 10
502831.8494484826
 20
481012.7379154449
 10
502831.8570839691
 20
481012.7697284785
 10
502831.8713589743
 20
481012.7937312864
 10
502831.8982560061
 20
481012.8173778427
 10
502831.932845966
 20
481012.8296613244
 10
502831.961453416
 20
481012.8344908766
 10
502831.9923222258
 20
481012.8286231243
 10
502832.0166189364
 20
481012.8080796388
 10
502832.0379387269
 20
481012.7730151662
 10
502832.0466751376
 20
481012.7374090721
 10
502832.0456405717
 20
481012.6986837328
 10
502832.0361687967
 20
481012.6676912421
 10
502832.0244356625
 20
481012.6473960336
 10
502832.0027769105
 20
481012.6275731595
 10
502831.9817077974
 20
481012.614972114
 10
502831.9541151107
 20
481012.6074875629
 10
502831.9253144228
 20
481012.6071474653
 10
502831.9015974753
 20
481012.6142226115
  0
LWPOLYLINE
  5
2FF
330
1F
100
AcDbEntity
  8
Contexts
100
AcDbPolyline
 90
       19
 70
     1
 43
0.0
 10
502831.8601369736
 20
481012.4061172092
 10
502831.8466898076
 20
481012.4127501157
 10
502831.8309428543
 20
481012.4316541981
 10
502831.8218902187
 20
481012.4528246556
 10
502831.8217730724
 20
481012.475156
 10
502831.8326957218
 20
481012.5023434265
 10
502831.8494513463
 20
481012.5255400203
 10
502831.8710709349
 20
481012.5377064177
 10
502831.8941780236
 20
481012.5432922949
 10
502831.9146425515
 20
481012.5412721857
 10
502831.9270621787
 20
481012.5387655918
 10
502831.9492588282
 20
481012.5261464233
 10
502831.9646336379
 20
481012.4929480609
 10
502831.9620005163
 20
481012.4622286195
 10
502831.9541020436
 20
481012.4338279197
 10
502831.9408796485
 20
481012.4189116436
 10
502831.9206106455
 20
481012.4049653757
 10
502831.9014183221
 20
481012.3988406273
 10
502831.8731242223
 20
481012.4019385044
  0
LWPOLYLINE
  5
300
330
1F
100
AcDbEntity
  8
Contexts
100
AcDbPolyline
 90
       19
 70
     1
 43
0.0
 10
502832.0475086052
 20
481012.2895821976
 10
502832.0359866764
 20
481012.2980320877
 10
502832.0286650598
 20
481012.3135428133
 10
502832.0262198646
 20
481012.3448377814
 10
502832.0325460452
 20
481012.3737169682
 10
502832.0451859223
 20
481012.3931586162
 10
502832.0666752479
 20
481012.4067029442
 10
502832.0900633535
 20
481012.4133232075
 10
502832.1153111039
 20
481012.4147602171
 10
502832.1442392053
 20
481012.407571469
 10
502832.1645582163
 20
481012.3884090968
 10
502832.1709844282
 20
481012.3704980536
 10
502832.169325358
 20
481012.3384677964
 10
502832.1594750225
 20
481012.3112512258
 10
502832.1450340068
 20
481012.2943816655
 10
502832.1252481789
 20
481012.2826172048
 10
502832.1035636201
 20
481012.2777768098
 10
502832.0799998986
 20
481012.2789900422
 10
502832.0616053242
 20
481012.2829316916
  0
LWPOLYLINE
  5
301
330
1F
100
AcDbEntity
  8
Contexts
100
AcDbPolyline
 90
       23
 70
     1
 43
0.0
 10
502832.0050075689
 20
481011.3855045403
 10
502831.9942601354
 20
481011.3988081165
 10
502831.9819320174
 20
481011.4294265136
 10
502831.9813522313
 20
481011.4531814654
 10
502831.9865004172
 20
481011.4838080867
 10
502831.9965193763
 20
481011.5132921629
 10
502832.01083936
 20
481011.5304713667
 10
502832.0380522176
 20
481011.5456531677
 10
502832.0737183224
 20
481011.5552579396
 10
502832.1023682182
 20
481011.5546990333
 10
502832.1282977717
 20
481011.5491302037
 10
502832.1484993531
 20
481011.5366897043
 10
502832.1671302921
 20
481011.5066466972
 10
502832.1760196285
 20
481011.4788887752
 10
502832.1780363997
 20
481011.4393930863
 10
502832.1746076046
 20
481011.4073362277
 10
502832.1657331851
 20
481011.3827182185
 10
502832.1433911011
 20
481011.3663938726
 10
502832.1110200759
 20
481011.3555027343
 10
502832.07477912
 20
481011.352194267
 10
502832.0487058694
 20
481011.3593371555
 10
502832.0256403019
 20
481011.3683418201
 10
502832.0120288825
 20
481011.3782095617
  0
LWPOLYLINE
  5
302
330
1F
100
AcDbEntity
  8
Contexts
100
AcDbPolyline
 90
       27
 70
     1
 43
0.0
 10
502832.0756896486
 20
481011.1503652885
 10
502832.0695502426
 20
481011.1660728466
 10
502832.0671678713
 20
481011.1889683872
 10
502832.0658258994
 20
481011.2021721445
 10
502832.0699606015
 20
481011.2170920051
 10
502832.0787270806
 20
481011.2338640052
 10
502832.0956406191
 20
481011.2527882149
 10
502832.1097777715
 20
481011.2652324374
 10
502832.1308096256
 20
481011.2774328839
 10
502832.1496383391
 20
481011.2813294041
 10
502832.1679236793
 20
481011.2818499553
 10
502832.186812092
 20
481011.2753466474
 10
502832.1998163697
 20
481011.2645952145
 10
502832.2110249616
 20
481011.2480718393
 10
502832.2176017796
 20
481011.2296963433
 10
502832.2236352245
 20
481011.2079448785
 10
502832.2268624597
 20
481011.1849133654
 10
502832.2234666572
 20
481011.1638136066
 10
502832.207156191
 20
481011.1378655377
 10
502832.1930190384
 20
481011.1254213153
 10
502832.1686077291
 20
481011.1137647594
 10
502832.1504880916
 20
481011.10888828
 10
502832.1376490569
 20
481011.1103866261
 10
502832.1193641308
 20
481011.1147632214
 10
502832.1051075346
 20
481011.123118643
 10
502832.0916957596
 20
481011.1313380987
 10
502832.0813618612
 20
481011.1425256003
  0
LWPOLYLINE
  5
303
330
1F
100
AcDbEntity
  8
Contexts
100
AcDbPolyline
 90
       23
 70
     1
 43
0.0
 10
502832.3557685731
 20
481011.308619345
 10
502832.3411065195
 20
481011.3266078813
 10
502832.3324856167
 20
481011.3486460865
 10
502832.3258081284
 20
481011.3717809403
 10
502832.3317194578
 20
481011.4077849205
 10
502832.3430813577
 20
481011.4398185841
 10
502832.3575280296
 20
481011.4652659362
 10
502832.3767488243
 20
481011.4902046482
 10
502832.3961393969
 20
481011.5069120553
 10
502832.4093204373
 20
481011.5130692057
 10
502832.4356839382
 20
481011.5106516952
 10
502832.4595975999
 20
481011.5023678397
 10
502832.4775969934
 20
481011.4875437422
 10
502832.5018929982
 20
481011.4570563971
 10
502832.5124586505
 20
481011.4213829646
 10
502832.507984065
 20
481011.381706005
 10
502832.5004247074
 20
481011.3486153567
 10
502832.4799368844
 20
481011.3191183361
 10
502832.4543366654
 20
481011.2918607338
 10
502832.434353932
 20
481011.2818652856
 10
502832.4075681475
 20
481011.2827633336
 10
502832.383232148
 20
481011.2895277714
 10
502832.3643038541
 20
481011.2980627338
  0
LWPOLYLINE
  5
304
330
1F
100
AcDbEntity
  8
Contexts
100
AcDbPolyline
 90
       28
 70
     1
 43
0.0
 10
502831.4619753677
 20
481011.1943445192
 10
502831.4384899859
 20
481011.2077395811
 10
502831.4188455524
 20
481011.2327517779
 10
502831.4021224857
 20
481011.2564472948
 10
502831.3937079673
 20
481011.28763878
 10
502831.3882148619
 20
481011.3175135668
 10
502831.3880518748
 20
481011.3576317585
 10
502831.4019262704
 20
481011.4054740602
 10
502831.4164273637
 20
481011.4375780419
 10
502831.441011038
 20
481011.4686504818
 10
502831.4773374256
 20
481011.4930253918
 10
502831.5124024888
 20
481011.5130509898
 10
502831.5434557307
 20
481011.5257517349
 10
502831.563335985
 20
481011.5308424295
 10
502831.5833872017
 20
481011.5316408661
 10
502831.5981652273
 20
481011.5207651359
 10
502831.6252556922
 20
481011.4888842956
 10
502831.6384227183
 20
481011.4464178655
 10
502831.6475778788
 20
481011.3966265604
 10
502831.6464226145
 20
481011.3535897984
 10
502831.637015819
 20
481011.30162633
 10
502831.6281296607
 20
481011.2726119917
 10
502831.6023416336
 20
481011.2357595001
 10
502831.5786774497
 20
481011.2176208919
 10
502831.5519459195
 20
481011.2017746593
 10
502831.5250503853
 20
481011.1954231288
 10
502831.4992702883
 20
481011.194396569
 10
502831.4706826786
 20
481011.1918251857
  0
LWPOLYLINE
  5
305
330
1F
100
AcDbEntity
  8
Contexts
100
AcDbPolyline
 90
       23
 70
     1
 43
0.0
 10
502832.3457796104
 20
481010.8737563281
 10
502832.3485640914
 20
481010.8562668149
 10
502832.3474330419
 20
481010.8414321611
 10
502832.3408864572
 20
481010.827180068
 10
502832.3257422409
 20
481010.8115591405
 10
502832.3099142757
 20
481010.8002326394
 10
502832.3007546993
 20
481010.795471901
 10
502832.2717375107
 20
481010.7908521148
 10
502832.25368749
 20
481010.7934824938
 10
502832.2372741346
 20
481010.7996758993
 10
502832.2224974062
 20
481010.809432325
 10
502832.2068660793
 20
481010.8245567888
 10
502832.1984158106
 20
481010.843026164
 10
502832.1924568416
 20
481010.8596905505
 10
502832.1917005225
 20
481010.8782840738
 10
502832.2029846215
 20
481010.8993864502
 10
502832.2128785063
 20
481010.9113778871
 10
502832.2339090832
 20
481010.9246335188
 10
502832.2631463201
 20
481010.9347924361
 10
502832.2874736786
 20
481010.9342622758
 10
502832.3108480797
 20
481010.9258746736
 10
502832.3289707089
 20
481010.9089452039
 10
502832.3401322896
 20
481010.894209948
  0
LWPOLYLINE
  5
306
330
1F
100
AcDbEntity
  8
Contexts
100
AcDbPolyline
 90
       24
 70
     1
 43
0.0
 10
502833.3463453896
 20
481009.3436625501
 10
502833.3353217324
 20
481009.353592128
 10
502833.3262814196
 20
481009.3670216119
 10
502833.3203575528
 20
481009.3751769683
 10
502833.3186063935
 20
481009.3887368568
 10
502833.3180401179
 20
481009.4056935362
 10
502833.324969016
 20
481009.4211853259
 10
502833.3350143604
 20
481009.4314029879
 10
502833.3468626442
 20
481009.4402316001
 10
502833.3599214279
 20
481009.4459727534
 10
502833.3697089731
 20
481009.4456148566
 10
502833.3879962012
 20
481009.4422999233
 10
502833.4065150323
 20
481009.4309054557
 10
502833.4208355417
 20
481009.4205906917
 10
502833.4290773941
 20
481009.4070580925
 10
502833.4345118292
 20
481009.3964066936
 10
502833.4379629182
 20
481009.3822554027
 10
502833.4335324117
 20
481009.3662753117
 10
502833.4285868579
 20
481009.3542834282
 10
502833.4143431922
 20
481009.3451454699
 10
502833.395798195
 20
481009.3378848627
 10
502833.3798289524
 20
481009.3358225531
 10
502833.3641431545
 20
481009.3378515702
 10
502833.3532481216
 20
481009.3404992649
  0
LWPOLYLINE
  5
307
330
1F
100
AcDbEntity
  8
Contexts
100
AcDbPolyline
 90
       23
 70
     1
 43
0.0
 10
502833.8255575887
 20
481010.1781538511
 10
502833.8095422329
 20
481010.1827561526
 10
502833.7961707493
 20
481010.1906525422
 10
502833.7843929758
 20
481010.2059314559
 10
502833.779771867
 20
481010.223920437
 10
502833.7788232974
 20
481010.2445961319
 10
502833.78648002
 20
481010.2657391322
 10
502833.7966356807
 20
481010.2805509284
 10
502833.8105071763
 20
481010.2910874597
 10
502833.8305501545
 20
481010.2979794804
 10
502833.8561344084
 20
481010.303680059
 10
502833.8754021998
 20
481010.3033998444
 10
502833.8957202964
 20
481010.2990312088
 10
502833.9097435577
 20
481010.2852007744
 10
502833.9174720814
 20
481010.2619085442
 10
502833.9190291277
 20
481010.242260804
 10
502833.9135962654
 20
481010.2260472887
 10
502833.8997680654
 20
481010.2085487785
 10
502833.8869468185
 20
481010.1939238555
 10
502833.8724451161
 20
481010.1858403927
 10
502833.8628329169
 20
481010.182499512
 10
502833.8499466034
 20
481010.1783175588
 10
502833.835003129
 20
481010.1753504424
  0
LWPOLYLINE
  5
308
330
1F
100
AcDbEntity
  8
Contexts
100
AcDbPolyline
 90
       29
 70
     1
 43
0.0
 10
502834.0138087415
 20
481010.4896987597
 10
502833.998834805
 20
481010.5001649439
 10
502833.9862094714
 20
481010.522582169
 10
502833.9798868503
 20
481010.5479473761
 10
502833.9795058405
 20
481010.5872088756
 10
502833.9849657966
 20
481010.6157028553
 10
502834.0002011235
 20
481010.6527394981
 10
502834.0211269142
 20
481010.6835704345
 10
502834.045003262
 20
481010.7081052704
 10
502834.0771294305
 20
481010.7319989267
 10
502834.0986572267
 20
481010.7445827232
 10
502834.115829214
 20
481010.7506293464
 10
502834.1414015229
 20
481010.751473022
 10
502834.1717810424
 20
481010.7451684957
 10
502834.2006214357
 20
481010.7252154235
 10
502834.2207774649
 20
481010.70111746
 10
502834.2291072404
 20
481010.6703383834
 10
502834.2304617529
 20
481010.6292823129
 10
502834.223175193
 20
481010.6007280474
 10
502834.2140319274
 20
481010.5730259046
 10
502834.1974619462
 20
481010.5487321187
 10
502834.1754121514
 20
481010.5242575439
 10
502834.1521781519
 20
481010.5079640565
 10
502834.1305600543
 20
481010.4981173481
 10
502834.1017560435
 20
481010.4843801406
 10
502834.0808705955
 20
481010.4800376925
 10
502834.0626047048
 20
481010.4794350684
 10
502834.0414484056
 20
481010.4833038407
 10
502834.0258621692
 20
481010.4846163348
  0
LWPOLYLINE
  5
309
330
1F
100
AcDbEntity
  8
Contexts
100
AcDbPolyline
 90
       25
 70
     1
 43
0.0
 10
502834.5612752009
 20
481009.5381326595
 10
502834.5490984342
 20
481009.5498550526
 10
502834.5398425183
 20
481009.5644866743
 10
502834.5353683453
 20
481009.5792062603
 10
502834.5367277376
 20
481009.5939166315
 10
502834.5411050786
 20
481009.6125869536
 10
502834.5498757677
 20
481009.627142311
 10
502834.5620850782
 20
481009.6387305857
 10
502834.5773527534
 20
481009.6489765401
 10
502834.5913258598
 20
481009.6566928483
 10
502834.6086404915
 20
481009.6603913712
 10
502834.6295798091
 20
481009.6573966438
 10
502834.6406643853
 20
481009.6510737366
 10
502834.655519255
 20
481009.6396337264
 10
502834.6666927497
 20
481009.6285338937
 10
502834.6766606388
 20
481009.610127485
 10
502834.676053634
 20
481009.5863400358
 10
502834.6694755499
 20
481009.5668133501
 10
502834.6580186253
 20
481009.5461479776
 10
502834.6374351604
 20
481009.5300349864
 10
502834.620686807
 20
481009.5209855573
 10
502834.6024174558
 20
481009.5184349957
 10
502834.5877890633
 20
481009.5208465275
 10
502834.5730231569
 20
481009.5275096082
 10
502834.5671006301
 20
481009.5322957726
  0
LWPOLYLINE
  5
30A
330
1F
100
AcDbEntity
  8
Contexts
100
AcDbPolyline
 90
       52
 70
     0
 43
0.0
 10
502835.1401209409
 20
481011.158967266
 10
502835.1553431883
 20
481011.1697320318
 10
502835.1713080898
 20
481011.1769846373
 10
502835.1879516349
 20
481011.1789850309
 10
502835.2078864864
 20
481011.1756369757
 10
502835.2335651326
 20
481011.1624940889
 10
502835.2512773307
 20
481011.1461599123
 10
502835.2671195216
 20
481011.1264098561
 10
502835.2783827325
 20
481011.1007300897
 10
502835.2835495522
 20
481011.0752749334
 10
502835.2832985758
 20
481011.0447921987
 10
502835.2773999665
 20
481011.0267143242
 10
502835.2689847593
 20
481011.0113427624
 10
502835.2581171122
 20
481011.0004175596
 10
502835.2448290305
 20
481010.9948087418
 10
502835.2262192654
 20
481010.9867823762
 10
502835.2061241436
 20
481010.9857803545
 10
502835.185318372
 20
481010.9891604971
 10
502835.164640818
 20
481010.9960207362
 10
502835.1485742969
 20
481011.0096806656
 10
502835.1351204868
 20
481011.0232443347
 10
502835.1242473344
 20
481011.0358417411
 10
502835.1194065135
 20
481011.0464744875
 10
502835.1146939092
 20
481011.0605873084
 10
502835.1076570327
 20
481011.082626565
 10
502835.1072028173
 20
481011.0939689003
 10
502835.1067486011
 20
481011.1053112137
 10
502835.0914622948
 20
481011.0928064198
 10
502835.0773353475
 20
481011.0880997136
 10
502835.0579188192
 20
481011.0818454598
 10
502835.0378236485
 20
481011.08084344
 10
502835.0136624625
 20
481011.087832005
 10
502834.9955976686
 20
481011.0945959819
 10
502834.9759833586
 20
481011.1066442127
 10
502834.9633363606
 20
481011.1184357679
 10
502834.9508175794
 20
481011.1337073978
 10
502834.9446195686
 20
481011.1548445428
 10
502834.9460033066
 20
481011.1687327556
 10
502834.9518058026
 20
481011.1842005778
 10
502834.9638969657
 20
481011.2046638929
 10
502834.9794718089
 20
481011.2249988583
 10
502835.0018216386
 20
481011.2398570255
 10
502835.0204634082
 20
481011.2487533952
 10
502835.0415897213
 20
481011.2540734282
 10
502835.0642655496
 20
481011.2541091854
 10
502835.0885549524
 20
481011.250600695
 10
502835.1032002239
 20
481011.2457051141
 10
502835.1202338275
 20
481011.2346231478
 10
502835.1301078431
 20
481011.2185777542
 10
502835.1451111187
 20
481011.1997297893
 10
502835.153018916
 20
481011.1776584673
 10
502835.1553431883
 20
481011.1697320318
  0
LWPOLYLINE
  5
30B
330
1F
100
AcDbEntity
  8
Contexts
100
AcDbPolyline
 90
       13
 70
     0
 43
0.0
 10
502835.4981492837
 20
481011.1434160289
 10
502835.501220767
 20
481011.1208933672
 10
502835.5092340077
 20
481011.100137285
 10
502835.52006174
 20
481011.0763545452
 10
502835.5425058227
 20
481011.0501951738
 10
502835.5728136008
 20
481011.0256947068
 10
502835.6067604354
 20
481011.0205467016
 10
502835.6410299069
 20
481011.0241557419
 10
502835.683414014
 20
481011.0362347462
 10
502835.7151199338
 20
481011.0496814818
 10
502835.7443339999
 20
481011.0749119422
 10
502835.7607784604
 20
481011.0976898896
 10
502835.766867371
 20
481011.1305926357
  0
LWPOLYLINE
  5
30C
330
1F
100
AcDbEntity
  8
Contexts
100
AcDbPolyline
 90
       16
 70
     0
 43
0.0
 10
502835.5214895789
 20
481011.1415817644
 10
502835.5212683862
 20
481011.1620507635
 10
502835.5231744595
 20
481011.1873129994
 10
502835.5288331386
 20
481011.2085396794
 10
502835.5383878663
 20
481011.2296228168
 10
502835.5606763513
 20
481011.2521854741
 10
502835.574670908
 20
481011.2614131174
 10
502835.5896394775
 20
481011.2706048968
 10
502835.5975032225
 20
481011.2722638212
 10
502835.6121133555
 20
481011.2717255386
 10
502835.636140826
 20
481011.2620713595
 10
502835.6502131824
 20
481011.2469380102
 10
502835.6589494956
 20
481011.2193350045
 10
502835.6645845304
 20
481011.1869746475
 10
502835.6665386566
 20
481011.1605958542
 10
502835.6685286316
 20
481011.1351900757
  0
LWPOLYLINE
  5
30D
330
1F
100
AcDbEntity
  8
Contexts
100
AcDbPolyline
 90
       22
 70
     1
 43
0.0
 10
502834.4863237931
 20
481012.274972199
 10
502834.4690187037
 20
481012.2911901197
 10
502834.4596932206
 20
481012.3173317616
 10
502834.4563463226
 20
481012.3480056223
 10
502834.4603969099
 20
481012.382073236
 10
502834.47323941
 20
481012.4067537982
 10
502834.4866397833
 20
481012.4263220653
 10
502834.5098326103
 20
481012.4391990223
 10
502834.5403985595
 20
481012.4438274568
 10
502834.5728017161
 20
481012.4434831612
 10
502834.5966675089
 20
481012.4383274525
 10
502834.6190901562
 20
481012.4226679206
 10
502834.6369287584
 20
481012.3896954033
 10
502834.6429738913
 20
481012.3580226426
 10
502834.6412031737
 20
481012.3267903869
 10
502834.6313378149
 20
481012.2985547865
 10
502834.6155181156
 20
481012.277429256
 10
502834.5918826267
 20
481012.2567442112
 10
502834.5690730458
 20
481012.2505389778
 10
502834.5425149336
 20
481012.2521845215
 10
502834.5203533264
 20
481012.2552184558
 10
502834.5020983806
 20
481012.2641306696
  0
LWPOLYLINE
  5
30E
330
1F
100
AcDbEntity
  8
Contexts
100
AcDbPolyline
 90
       18
 70
     1
 43
0.0
 10
502835.6639053473
 20
481012.1520969867
 10
502835.6746420993
 20
481012.1711370088
 10
502835.6948056064
 20
481012.1885609914
 10
502835.7179614875
 20
481012.1995061233
 10
502835.7469737682
 20
481012.2021763489
 10
502835.7676766696
 20
481012.1999322731
 10
502835.7867356624
 20
481012.18920763
 10
502835.8004776509
 20
481012.1670898006
 10
502835.8067450169
 20
481012.1438297312
 10
502835.8037397413
 20
481012.1165662266
 10
502835.7875832428
 20
481012.0898793348
 10
502835.766199696
 20
481012.0827319429
 10
502835.7382019723
 20
481012.077277691
 10
502835.7138002886
 20
481012.0775457612
 10
502835.6920057744
 20
481012.0853835664
 10
502835.6748808567
 20
481012.0947578143
 10
502835.6640208738
 20
481012.113671736
 10
502835.6625953505
 20
481012.1314409253
  0
LWPOLYLINE
  5
325
330
1F
100
AcDbEntity
  8
Hachures
100
AcDbPolyline
 90
        4
 70
     1
 43
0.0
 10
502834.4484494806
 20
481012.1277767978
 10
502834.4539714814
 20
481012.1529173045
 10
502834.464218487
 20
481012.1425419767
 10
502834.4744654929
 20
481012.1321666489
  0
LWPOLYLINE
  5
34D
330
1F
100
AcDbEntity
  8
Hachures
100
AcDbPolyline
 90
        4
 70
     1
 43
0.0
 10
502831.9335348342
 20
481012.6237556764
 10
502831.9438461657
 20
481012.6076927962
 10
502831.9338198845
 20
481012.6072612389
 10
502831.9237936034
 20
481012.6068296816
  0
LWPOLYLINE
  5
34E
330
1F
100
AcDbEntity
  8
Hachures
100
AcDbPolyline
 90
        2
 70
     0
 43
0.0
 10
502831.9335348342
 20
481012.6237556764
 10
502831.9374142376
 20
481012.6560946175
  0
LWPOLYLINE
  5
34F
330
1F
100
AcDbEntity
  8
Hachures
100
AcDbPolyline
 90
        4
 70
     1
 43
0.0
 10
502832.0049489789
 20
481012.651397864
 10
502832.0233140374
 20
481012.6460930589
 10
502832.0155951902
 20
481012.6396796391
 10
502832.0078763429
 20
481012.6332662193
  0
LWPOLYLINE
  5
350
330
1F
100
AcDbEntity
  8
Hachures
100
AcDbPolyline
 90
        2
 70
     0
 43
0.0
 10
502832.0049489789
 20
481012.651397864
 10
502831.9865609985
 20
481012.6704919316
  0
LWPOLYLINE
  5
351
330
1F
100
AcDbEntity
  8
Hachures
100
AcDbPolyline
 90
        4
 70
     1
 43
0.0
 10
502832.0271039602
 20
481012.7243634809
 10
502832.0469105414
 20
481012.7349115669
 10
502832.0471684596
 20
481012.7248793172
 10
502832.0474263778
 20
481012.7148470675
  0
LWPOLYLINE
  5
352
330
1F
100
AcDbEntity
  8
Hachures
100
AcDbPolyline
 90
        2
 70
     0
 43
0.0
 10
502832.0271039602
 20
481012.7243634809
 10
502832.0029679134
 20
481012.7247171641
  0
LWPOLYLINE
  5
353
330
1F
100
AcDbEntity
  8
Hachures
100
AcDbPolyline
 90
        4
 70
     1
 43
0.0
 10
502832.0089427573
 20
481012.789901069
 10
502832.0159036251
 20
481012.80900156
 10
502832.0217121246
 20
481012.8008178025
 10
502832.0275206242
 20
481012.7926340448
  0
LWPOLYLINE
  5
354
330
1F
100
AcDbEntity
  8
Hachures
100
AcDbPolyline
 90
        2
 70
     0
 43
0.0
 10
502832.0089427573
 20
481012.789901069
 10
502831.9919620206
 20
481012.7763009373
  0
LWPOLYLINE
  5
355
330
1F
100
AcDbEntity
  8
Hachures
100
AcDbPolyline
 90
        4
 70
     1
 43
0.0
 10
502832.3755682658
 20
481012.5426424492
 10
502832.3667201439
 20
481012.5317490507
 10
502832.3626865713
 20
481012.5367955478
 10
502832.3586529986
 20
481012.541842045
  0
LWPOLYLINE
  5
356
330
1F
100
AcDbEntity
  8
Hachures
100
AcDbPolyline
 90
        2
 70
     0
 43
0.0
 10
502832.3755682658
 20
481012.5426424492
 10
502832.4299342824
 20
481012.5672386104
  0
LWPOLYLINE
  5
357
330
1F
100
AcDbEntity
  8
Hachures
100
AcDbPolyline
 90
        4
 70
     1
 43
0.0
 10
502832.3870094955
 20
481012.5238552279
 10
502832.3800631557
 20
481012.51118903
 10
502832.3763859444
 20
481012.5165008055
 10
502832.3727087331
 20
481012.521812581
  0
LWPOLYLINE
  5
358
330
1F
100
AcDbEntity
  8
Hachures
100
AcDbPolyline
 90
        2
 70
     0
 43
0.0
 10
502832.3870094955
 20
481012.5238552279
 10
502832.4394731321
 20
481012.5498669388
  0
LWPOLYLINE
  5
359
330
1F
100
AcDbEntity
  8
Hachures
100
AcDbPolyline
 90
        4
 70
     1
 43
0.0
 10
502832.4109031926
 20
481012.4959647536
 10
502832.4075684306
 20
481012.4819090227
 10
502832.4026130907
 20
481012.4860540737
 10
502832.3976577508
 20
481012.4901991247
  0
LWPOLYLINE
  5
35A
330
1F
100
AcDbEntity
  8
Hachures
100
AcDbPolyline
 90
        2
 70
     0
 43
0.0
 10
502832.4109031926
 20
481012.4959647536
 10
502832.449699053
 20
481012.539032882
  0
LWPOLYLINE
  5
35B
330
1F
100
AcDbEntity
  8
Hachures
100
AcDbPolyline
 90
        4
 70
     1
 43
0.0
 10
502832.4362893378
 20
481012.4768321142
 10
502832.4346277164
 20
481012.4624820892
 10
502832.4292200305
 20
481012.4660167428
 10
502832.4238123448
 20
481012.4695513964
  0
LWPOLYLINE
  5
35C
330
1F
100
AcDbEntity
  8
Hachures
100
AcDbPolyline
 90
        2
 70
     0
 43
0.0
 10
502832.4362893378
 20
481012.4768321142
 10
502832.4646587807
 20
481012.5264081526
  0
LWPOLYLINE
  5
35D
330
1F
100
AcDbEntity
  8
Hachures
100
AcDbPolyline
 90
        4
 70
     1
 43
0.0
 10
502832.4726869079
 20
481012.4602477815
 10
502832.4769713751
 20
481012.4464518564
 10
502832.4705961116
 20
481012.4474972546
 10
502832.464220848
 20
481012.4485426528
  0
LWPOLYLINE
  5
35E
330
1F
100
AcDbEntity
  8
Hachures
100
AcDbPolyline
 90
        2
 70
     0
 43
0.0
 10
502832.4726869079
 20
481012.4602477815
 10
502832.4759208553
 20
481012.5268285789
  0
LWPOLYLINE
  5
35F
330
1F
100
AcDbEntity
  8
Hachures
100
AcDbPolyline
 90
        4
 70
     1
 43
0.0
 10
502832.5184555413
 20
481012.4697384085
 10
502832.5310055139
 20
481012.4625842213
 10
502832.5256338444
 20
481012.4589950697
 10
502832.520262175
 20
481012.4554059181
  0
LWPOLYLINE
  5
360
330
1F
100
AcDbEntity
  8
Hachures
100
AcDbPolyline
 90
        2
 70
     0
 43
0.0
 10
502832.5184555413
 20
481012.4697384085
 10
502832.4824078766
 20
481012.5370244687
  0
LWPOLYLINE
  5
361
330
1F
100
AcDbEntity
  8
Hachures
100
AcDbPolyline
 90
        4
 70
     1
 43
0.0
 10
502832.5534018163
 20
481012.5157899352
 10
502832.5678156737
 20
481012.5167516645
 10
502832.5653175939
 20
481012.5107937758
 10
502832.5628195142
 20
481012.5048358869
  0
LWPOLYLINE
  5
362
330
1F
100
AcDbEntity
  8
Hachures
100
AcDbPolyline
 90
        2
 70
     0
 43
0.0
 10
502832.5534018163
 20
481012.5157899352
 10
502832.48955499
 20
481012.5425602342
  0
LWPOLYLINE
  5
363
330
1F
100
AcDbEntity
  8
Hachures
100
AcDbPolyline
 90
        4
 70
     1
 43
0.0
 10
502832.5676614186
 20
481012.5599650586
 10
502832.5843727782
 20
481012.5628816492
 10
502832.582272915
 20
481012.5567720325
 10
502832.5801730518
 20
481012.5506624159
  0
LWPOLYLINE
  5
364
330
1F
100
AcDbEntity
  8
Hachures
100
AcDbPolyline
 90
        2
 70
     0
 43
0.0
 10
502832.5676614186
 20
481012.5599650586
 10
502832.4953100929
 20
481012.5704801336
  0
LWPOLYLINE
  5
365
330
1F
100
AcDbEntity
  8
Hachures
100
AcDbPolyline
 90
        4
 70
     1
 43
0.0
 10
502832.5684589884
 20
481012.61656546
 10
502832.5795296631
 20
481012.6313309703
 10
502832.5810199302
 20
481012.6250447995
 10
502832.5825101973
 20
481012.6187586284
  0
LWPOLYLINE
  5
366
330
1F
100
AcDbEntity
  8
Hachures
100
AcDbPolyline
 90
        2
 70
     0
 43
0.0
 10
502832.5684589884
 20
481012.61656546
 10
502832.4763405527
 20
481012.5859666547
  0
LWPOLYLINE
  5
367
330
1F
100
AcDbEntity
  8
Hachures
100
AcDbPolyline
 90
        4
 70
     1
 43
0.0
 10
502831.5489345667
 20
481011.2159184914
 10
502831.5608670768
 20
481011.2067257276
 10
502831.5548034693
 20
481011.2037912763
 10
502831.5487398618
 20
481011.2008568249
  0
LWPOLYLINE
  5
368
330
1F
100
AcDbEntity
  8
Hachures
100
AcDbPolyline
 90
        2
 70
     0
 43
0.0
 10
502831.5489345667
 20
481011.2159184914
 10
502831.533029122
 20
481011.2531635052
  0
LWPOLYLINE
  5
369
330
1F
100
AcDbEntity
  8
Hachures
100
AcDbPolyline
 90
        4
 70
     1
 43
0.0
 10
502831.6187544102
 20
481011.2880221422
 10
502831.6336240782
 20
481011.2904272778
 10
502831.6316121988
 20
481011.2839983834
 10
502831.6296003194
 20
481011.2775694891
  0
LWPOLYLINE
  5
36A
330
1F
100
AcDbEntity
  8
Hachures
100
AcDbPolyline
 90
        2
 70
     0
 43
0.0
 10
502831.6187544102
 20
481011.2880221422
 10
502831.5791392967
 20
481011.3112412816
  0
LWPOLYLINE
  5
36B
330
1F
100
AcDbEntity
  8
Hachures
100
AcDbPolyline
 90
        4
 70
     1
 43
0.0
 10
502831.633073733
 20
481011.4009463182
 10
502831.6452656876
 20
481011.4097921052
 10
502831.6463656115
 20
481011.4031461659
 10
502831.6474655353
 20
481011.3965002268
  0
LWPOLYLINE
  5
36C
330
1F
100
AcDbEntity
  8
Hachures
100
AcDbPolyline
 90
        2
 70
     0
 43
0.0
 10
502831.633073733
 20
481011.4009463182
 10
502831.5958312959
 20
481011.3919687761
  0
LWPOLYLINE
  5
36D
330
1F
100
AcDbEntity
  8
Hachures
100
AcDbPolyline
 90
        4
 70
     1
 43
0.0
 10
502831.6094588293
 20
481011.4867406376
 10
502831.6147378081
 20
481011.5008482274
 10
502831.6193250482
 20
481011.4959151179
 10
502831.6239122883
 20
481011.4909820085
  0
LWPOLYLINE
  5
36E
330
1F
100
AcDbEntity
  8
Hachures
100
AcDbPolyline
 90
        4
 70
     1
 43
0.0
 10
502831.9984534919
 20
481011.4321596706
 10
502831.9855676093
 20
481011.4189133557
 10
502831.9830482241
 20
481011.4268388174
 10
502831.9805288389
 20
481011.4347642791
  0
LWPOLYLINE
  5
36F
330
1F
100
AcDbEntity
  8
Hachures
100
AcDbPolyline
 90
        2
 70
     0
 43
0.0
 10
502831.9984534919
 20
481011.4321596706
 10
502832.0698073042
 20
481011.4701462291
  0
LWPOLYLINE
  5
370
330
1F
100
AcDbEntity
  8
Hachures
100
AcDbPolyline
 90
        4
 70
     1
 43
0.0
 10
502832.0179240719
 20
481011.5122243016
 10
502831.9973798817
 20
481011.5130830276
 10
502832.0019873332
 20
481011.5200062951
 10
502832.0065947847
 20
481011.5269295627
  0
LWPOLYLINE
  5
371
330
1F
100
AcDbEntity
  8
Hachures
100
AcDbPolyline
 90
        2
 70
     0
 43
0.0
 10
502832.0179240719
 20
481011.5122243016
 10
502832.0631968615
 20
481011.4907865798
  0
LWPOLYLINE
  5
372
330
1F
100
AcDbEntity
  8
Hachures
100
AcDbPolyline
 90
        4
 70
     1
 43
0.0
 10
502832.074301099
 20
481011.5374354532
 10
502832.0595659991
 20
481011.5518546567
 10
502832.067699943
 20
481011.5535864761
 10
502832.0758338873
 20
481011.5553182952
  0
LWPOLYLINE
  5
373
330
1F
100
AcDbEntity
  8
Hachures
100
AcDbPolyline
 90
        2
 70
     0
 43
0.0
 10
502832.074301099
 20
481011.5374354532
 10
502832.0808424337
 20
481011.5132481563
  0
LWPOLYLINE
  5
374
330
1F
100
AcDbEntity
  8
Hachures
100
AcDbPolyline
 90
        4
 70
     1
 43
0.0
 10
502832.1072231086
 20
481011.5370966072
 10
502832.0993987389
 20
481011.5539661199
 10
502832.1077114179
 20
481011.5537219652
 10
502832.1160240968
 20
481011.5534778106
  0
LWPOLYLINE
  5
375
330
1F
100
AcDbEntity
  8
Hachures
100
AcDbPolyline
 90
        2
 70
     0
 43
0.0
 10
502832.1072231086
 20
481011.5370966072
 10
502832.1042347262
 20
481011.5201036733
  0
LWPOLYLINE
  5
376
330
1F
100
AcDbEntity
  8
Hachures
100
AcDbPolyline
 90
        4
 70
     1
 43
0.0
 10
502832.1318942077
 20
481011.5277443755
 10
502832.1365210103
 20
481011.5442239881
 10
502832.1435218647
 20
481011.5397353047
 10
502832.1505227192
 20
481011.5352466212
  0
LWPOLYLINE
  5
377
330
1F
100
AcDbEntity
  8
Hachures
100
AcDbPolyline
 90
        2
 70
     0
 43
0.0
 10
502832.1318942077
 20
481011.5277443755
 10
502832.1215989612
 20
481011.5153963502
  0
LWPOLYLINE
  5
378
330
1F
100
AcDbEntity
  8
Hachures
100
AcDbPolyline
 90
        4
 70
     1
 43
0.0
 10
502832.0991189189
 20
481011.1419493062
 10
502832.0955252948
 20
481011.1280935486
 10
502832.0907017165
 20
481011.1323021497
 10
502832.0858781383
 20
481011.1365107507
  0
LWPOLYLINE
  5
379
330
1F
100
AcDbEntity
  8
Hachures
100
AcDbPolyline
 90
        2
 70
     0
 43
0.0
 10
502832.0991189189
 20
481011.1419493062
 10
502832.1095585318
 20
481011.1568473822
  0
LWPOLYLINE
  5
37A
330
1F
100
AcDbEntity
  8
Hachures
100
AcDbPolyline
 90
        4
 70
     1
 43
0.0
 10
502832.1204840601
 20
481011.1286292576
 10
502832.1218078331
 20
481011.1143764058
 10
502832.1158419378
 20
481011.116697467
 10
502832.1098760426
 20
481011.1190185281
  0
LWPOLYLINE
  5
37B
330
1F
100
AcDbEntity
  8
Hachures
100
AcDbPolyline
 90
        2
 70
     0
 43
0.0
 10
502832.1204840601
 20
481011.1286292576
 10
502832.1252495754
 20
481011.1502237299
  0
LWPOLYLINE
  5
37C
330
1F
100
AcDbEntity
  8
Hachures
100
AcDbPolyline
 90
        4
 70
     1
 43
0.0
 10
502832.1509836434
 20
481011.1222597704
 10
502832.1589829358
 20
481011.1103893251
 10
502832.1526348991
 20
481011.1095636971
 10
502832.1462868624
 20
481011.1087380692
  0
LWPOLYLINE
  5
37D
330
1F
100
AcDbEntity
  8
Hachures
100
AcDbPolyline
 90
        2
 70
     0
 43
0.0
 10
502832.1509836434
 20
481011.1222597704
 10
502832.1477426148
 20
481011.1476282749
  0
LWPOLYLINE
  5
37E
330
1F
100
AcDbEntity
  8
Hachures
100
AcDbPolyline
 90
        4
 70
     1
 43
0.0
 10
502832.1827147218
 20
481011.1345622402
 10
502832.1947473303
 20
481011.1268090158
 10
502832.1892395187
 20
481011.1235466172
 10
502832.1837317073
 20
481011.1202842188
  0
LWPOLYLINE
  5
37F
330
1F
100
AcDbEntity
  8
Hachures
100
AcDbPolyline
 90
        2
 70
     0
 43
0.0
 10
502832.1827147218
 20
481011.1345622402
 10
502832.1685565702
 20
481011.1579421631
  0
LWPOLYLINE
  5
380
330
1F
100
AcDbEntity
  8
Hachures
100
AcDbPolyline
 90
        4
 70
     1
 43
0.0
 10
502832.2089956375
 20
481011.164618901
 10
502832.2233097379
 20
481011.1645670976
 10
502832.2204261963
 20
481011.1588518182
 10
502832.2175426548
 20
481011.1531365386
  0
LWPOLYLINE
  5
381
330
1F
100
AcDbEntity
  8
Hachures
100
AcDbPolyline
 90
        2
 70
     0
 43
0.0
 10
502832.2089956375
 20
481011.164618901
 10
502832.1866072427
 20
481011.1745099833
  0
LWPOLYLINE
  5
382
330
1F
100
AcDbEntity
  8
Hachures
100
AcDbPolyline
 90
        4
 70
     1
 43
0.0
 10
502832.2130784589
 20
481011.19114991
 10
502832.224986302
 20
481011.1990934248
 10
502832.2257821395
 20
481011.1927415846
 10
502832.2265779766
 20
481011.1863897445
  0
LWPOLYLINE
  5
383
330
1F
100
AcDbEntity
  8
Hachures
100
AcDbPolyline
 90
        2
 70
     0
 43
0.0
 10
502832.2130784589
 20
481011.19114991
 10
502832.1925910801
 20
481011.1902707744
  0
LWPOLYLINE
  5
384
330
1F
100
AcDbEntity
  8
Hachures
100
AcDbPolyline
 90
        4
 70
     1
 43
0.0
 10
502832.2068886064
 20
481011.2204877262
 10
502832.217305396
 20
481011.2303053965
 10
502832.2191491063
 20
481011.2241751467
 10
502832.2209928164
 20
481011.2180448967
  0
LWPOLYLINE
  5
385
330
1F
100
AcDbEntity
  8
Hachures
100
AcDbPolyline
 90
        2
 70
     0
 43
0.0
 10
502832.2068886064
 20
481011.2204877262
 10
502832.1923168049
 20
481011.2183266543
  0
LWPOLYLINE
  5
386
330
1F
100
AcDbEntity
  8
Hachures
100
AcDbPolyline
 90
        4
 70
     1
 43
0.0
 10
502832.1971472319
 20
481011.2457954177
 10
502832.2036248881
 20
481011.2585600612
 10
502832.2074352143
 20
481011.25341607
 10
502832.2112455404
 20
481011.2482720788
  0
LWPOLYLINE
  5
387
330
1F
100
AcDbEntity
  8
Hachures
100
AcDbPolyline
 90
        2
 70
     0
 43
0.0
 10
502832.1971472319
 20
481011.2457954177
 10
502832.1830122508
 20
481011.2391240022
  0
LWPOLYLINE
  5
388
330
1F
100
AcDbEntity
  8
Hachures
100
AcDbPolyline
 90
        4
 70
     1
 43
0.0
 10
502832.2555997915
 20
481010.8054675876
 10
502832.2554589084
 20
481010.793439759
 10
502832.2498636767
 20
481010.7948475478
 10
502832.244268445
 20
481010.7962553366
  0
LWPOLYLINE
  5
389
330
1F
100
AcDbEntity
  8
Hachures
100
AcDbPolyline
 90
        2
 70
     0
 43
0.0
 10
502832.2555997915
 20
481010.8054675876
 10
502832.2746651736
 20
481010.8415506355
  0
LWPOLYLINE
  5
38A
330
1F
100
AcDbEntity
  8
Hachures
100
AcDbPolyline
 90
        4
 70
     1
 43
0.0
 10
502832.299786684
 20
481010.8079857946
 10
502832.3100666098
 20
481010.8001905678
 10
502832.3048925339
 20
481010.7976376428
 10
502832.299718458
 20
481010.795084718
  0
LWPOLYLINE
  5
38B
330
1F
100
AcDbEntity
  8
Hachures
100
AcDbPolyline
 90
        2
 70
     0
 43
0.0
 10
502832.299786684
 20
481010.8079857946
 10
502832.2914793747
 20
481010.8398288354
  0
LWPOLYLINE
  5
38C
330
1F
100
AcDbEntity
  8
Hachures
100
AcDbPolyline
 90
        4
 70
     1
 43
0.0
 10
502832.33655225
 20
481010.8582644908
 10
502832.3476973901
 20
481010.8647628205
 10
502832.3480676941
 20
481010.8590050986
 10
502832.3484379977
 20
481010.8532473767
  0
LWPOLYLINE
  5
38D
330
1F
100
AcDbEntity
  8
Hachures
100
AcDbPolyline
 90
        2
 70
     0
 43
0.0
 10
502832.33655225
 20
481010.8582644908
 10
502832.3061382113
 20
481010.8624729978
  0
LWPOLYLINE
  5
38E
330
1F
100
AcDbEntity
  8
Hachures
100
AcDbPolyline
 90
        4
 70
     1
 43
0.0
 10
502832.3135931418
 20
481010.9075307475
 10
502832.3171093108
 20
481010.9199436035
 10
502832.3213712194
 20
481010.9160545647
 10
502832.3256331279
 20
481010.912165526
  0
LWPOLYLINE
  5
38F
330
1F
100
AcDbEntity
  8
Hachures
100
AcDbPolyline
 90
        2
 70
     0
 43
0.0
 10
502832.3135931418
 20
481010.9075307475
 10
502832.2923164067
 20
481010.8843701851
  0
LWPOLYLINE
  5
390
330
1F
100
AcDbEntity
  8
Hachures
100
AcDbPolyline
 90
        4
 70
     1
 43
0.0
 10
502834.050563613
 20
481010.4991055355
 10
502834.0515246412
 20
481010.4822262719
 10
502834.0438983137
 20
481010.4827606828
 10
502834.0362719861
 20
481010.4832950937
  0
LWPOLYLINE
  5
391
330
1F
100
AcDbEntity
  8
Hachures
100
AcDbPolyline
 90
        2
 70
     0
 43
0.0
 10
502834.050563613
 20
481010.4991055355
 10
502834.0978826518
 20
481010.5674378406
  0
LWPOLYLINE
  5
392
330
1F
100
AcDbEntity
  8
Hachures
100
AcDbPolyline
 90
        4
 70
     1
 43
0.0
 10
502834.1319348481
 20
481010.5145883821
 10
502834.1402953668
 20
481010.5022016356
 10
502834.1331972418
 20
481010.4993620776
 10
502834.1260991168
 20
481010.4965225195
  0
LWPOLYLINE
  5
393
330
1F
100
AcDbEntity
  8
Hachures
100
AcDbPolyline
 90
        2
 70
     0
 43
0.0
 10
502834.1319348481
 20
481010.5145883821
 10
502834.1260884126
 20
481010.5566848205
  0
LWPOLYLINE
  5
394
330
1F
100
AcDbEntity
  8
Hachures
100
AcDbPolyline
 90
        4
 70
     1
 43
0.0
 10
502834.2101790248
 20
481010.6078677553
 10
502834.2277398218
 20
481010.6200481342
 10
502834.2262379467
 20
481010.6125520793
 10
502834.2247360714
 20
481010.6050560244
  0
LWPOLYLINE
  5
395
330
1F
100
AcDbEntity
  8
Hachures
100
AcDbPolyline
 90
        2
 70
     0
 43
0.0
 10
502834.2101790248
 20
481010.6078677553
 10
502834.1497135432
 20
481010.6003086284
  0
LWPOLYLINE
  5
396
330
1F
100
AcDbEntity
  8
Hachures
100
AcDbPolyline
 90
        4
 70
     1
 43
0.0
 10
502834.1909718806
 20
481010.7132867483
 10
502834.1950159098
 20
481010.7298963289
 10
502834.2008509362
 20
481010.7249568012
 10
502834.2066859625
 20
481010.7200172733
  0
LWPOLYLINE
  5
397
330
1F
100
AcDbEntity
  8
Hachures
100
AcDbPolyline
 90
        2
 70
     0
 43
0.0
 10
502834.1909718806
 20
481010.7132867483
 10
502834.1440699847
 20
481010.6362557484
  0
LWPOLYLINE
  5
398
330
1F
100
AcDbEntity
  8
Hachures
100
AcDbPolyline
 90
        4
 70
     1
 43
0.0
 10
502833.867546421
 20
481010.1991252546
 10
502833.8779126888
 20
481010.1871884484
 10
502833.8710647128
 20
481010.1854293026
 10
502833.8642167368
 20
481010.1836701566
  0
LWPOLYLINE
  5
399
330
1F
100
AcDbEntity
  8
Hachures
100
AcDbPolyline
 90
        2
 70
     0
 43
0.0
 10
502833.867546421
 20
481010.1991252546
 10
502833.8609662091
 20
481010.224920465
  0
LWPOLYLINE
  5
39A
330
1F
100
AcDbEntity
  8
Hachures
100
AcDbPolyline
 90
        4
 70
     1
 43
0.0
 10
502833.9045100073
 20
481010.2477084176
 10
502833.9174034931
 20
481010.2568574543
 10
502833.9184844107
 20
481010.2498702527
 10
502833.9195653282
 20
481010.2428830509
  0
LWPOLYLINE
  5
39B
330
1F
100
AcDbEntity
  8
Hachures
100
AcDbPolyline
 90
        2
 70
     0
 43
0.0
 10
502833.9045100073
 20
481010.2477084176
 10
502833.8812912754
 20
481010.2436315937
  0
LWPOLYLINE
  5
39C
330
1F
100
AcDbEntity
  8
Hachures
100
AcDbPolyline
 90
        4
 70
     1
 43
0.0
 10
502834.6207339825
 20
481009.5372339615
 10
502834.6289525169
 20
481009.5243231137
 10
502834.6226426983
 20
481009.5221827251
 10
502834.6163328796
 20
481009.5200423367
  0
LWPOLYLINE
  5
39D
330
1F
100
AcDbEntity
  8
Hachures
100
AcDbPolyline
 90
        2
 70
     0
 43
0.0
 10
502834.6207339825
 20
481009.5372339615
 10
502834.6164248024
 20
481009.5707135405
  0
LWPOLYLINE
  5
39E
330
1F
100
AcDbEntity
  8
Hachures
100
AcDbPolyline
 90
        4
 70
     1
 43
0.0
 10
502834.663109366
 20
481009.5966282696
 10
502834.6759656586
 20
481009.6041576198
 10
502834.6764061401
 20
481009.5975092327
 10
502834.6768466216
 20
481009.5908608456
  0
LWPOLYLINE
  5
39F
330
1F
100
AcDbEntity
  8
Hachures
100
AcDbPolyline
 90
        2
 70
     0
 43
0.0
 10
502834.663109366
 20
481009.5966282696
 10
502834.627630487
 20
481009.5949745886
  0
LWPOLYLINE
  5
3A0
330
1F
100
AcDbEntity
  8
Hachures
100
AcDbPolyline
 90
        4
 70
     1
 43
0.0
 10
502833.363513882
 20
481009.3463383191
 10
502833.365406153
 20
481009.337737388
 10
502833.3607623682
 20
481009.3386491902
 10
502833.3561185834
 20
481009.3395609924
  0
LWPOLYLINE
  5
3A1
330
1F
100
AcDbEntity
  8
Hachures
100
AcDbPolyline
 90
        2
 70
     0
 43
0.0
 10
502833.363513882
 20
481009.3463383191
 10
502833.3806503
 20
481009.3790746666
  0
LWPOLYLINE
  5
3A2
330
1F
100
AcDbEntity
  8
Hachures
100
AcDbPolyline
 90
        4
 70
     1
 43
0.0
 10
502833.4036383867
 20
481009.3510649132
 10
502833.4119175099
 20
481009.3444742588
 10
502833.4076254236
 20
481009.3424807405
 10
502833.4033333373
 20
481009.3404872221
  0
LWPOLYLINE
  5
3A3
330
1F
100
AcDbEntity
  8
Hachures
100
AcDbPolyline
 90
        2
 70
     0
 43
0.0
 10
502833.4036383867
 20
481009.3510649132
 10
502833.3966187774
 20
481009.3746853898
  0
LWPOLYLINE
  5
3A4
330
1F
100
AcDbEntity
  8
Hachures
100
AcDbPolyline
 90
        4
 70
     1
 43
0.0
 10
502833.4277751826
 20
481009.3842646428
 10
502833.4377458404
 20
481009.3878095812
 10
502833.4371696842
 20
481009.3831123304
 10
502833.4365935281
 20
481009.3784150798
  0
LWPOLYLINE
  5
3A5
330
1F
100
AcDbEntity
  8
Hachures
100
AcDbPolyline
 90
        2
 70
     0
 43
0.0
 10
502833.4277751826
 20
481009.3842646428
 10
502833.4035349214
 20
481009.386498442
  0
LWPOLYLINE
  5
3A6
330
1F
100
AcDbEntity
  8
Hachures
100
AcDbPolyline
 90
        4
 70
     1
 43
0.0
 10
502833.4122279433
 20
481009.4151378747
 10
502833.4137521414
 20
481009.4256096188
 10
502833.4176359995
 20
481009.4229055908
 10
502833.4215198575
 20
481009.4202015628
  0
LWPOLYLINE
  5
3A7
330
1F
100
AcDbEntity
  8
Hachures
100
AcDbPolyline
 90
        2
 70
     0
 43
0.0
 10
502833.4122279433
 20
481009.4151378747
 10
502833.3977280561
 20
481009.3949299866
  0
LWPOLYLINE
  5
3A8
330
1F
100
AcDbEntity
  8
Hachures
100
AcDbPolyline
 90
        4
 70
     1
 43
0.0
 10
502835.2149372033
 20
481011.0008355092
 10
502835.2216865974
 20
481010.9859944724
 10
502835.214400304
 20
481010.9862629221
 10
502835.2071140104
 20
481010.9865313718
  0
LWPOLYLINE
  5
3A9
330
1F
100
AcDbEntity
  8
Hachures
100
AcDbPolyline
 90
        2
 70
     0
 43
0.0
 10
502835.2149372033
 20
481011.0008355092
 10
502835.2164706047
 20
481011.0360918862
  0
LWPOLYLINE
  5
3AA
330
1F
100
AcDbEntity
  8
Hachures
100
AcDbPolyline
 90
        4
 70
     1
 43
0.0
 10
502835.1794792162
 20
481011.0064253392
 10
502835.1823401472
 20
481010.9903746144
 10
502835.175347671
 20
481010.992440387
 10
502835.168355195
 20
481010.9945061596
  0
LWPOLYLINE
  5
3AB
330
1F
100
AcDbEntity
  8
Hachures
100
AcDbPolyline
 90
        2
 70
     0
 43
0.0
 10
502835.1794792162
 20
481011.0064253392
 10
502835.1911513458
 20
481011.0448984322
  0
LWPOLYLINE
  5
3AC
330
1F
100
AcDbEntity
  8
Hachures
100
AcDbPolyline
 90
        4
 70
     1
 43
0.0
 10
502835.1446871699
 20
481011.0345073854
 10
502835.1379084158
 20
481011.019679736
 10
502835.1333331068
 20
481011.0253567675
 10
502835.1287577979
 20
481011.0310337991
  0
LWPOLYLINE
  5
3AD
330
1F
100
AcDbEntity
  8
Hachures
100
AcDbPolyline
 90
        2
 70
     0
 43
0.0
 10
502835.1446871699
 20
481011.0345073854
 10
502835.1749356698
 20
481011.0580054123
  0
LWPOLYLINE
  5
3AE
330
1F
100
AcDbEntity
  8
Hachures
100
AcDbPolyline
 90
        4
 70
     1
 43
0.0
 10
502835.123534249
 20
481011.0678232242
 10
502835.11610273
 20
481011.057120538
 10
502835.1135791373
 20
481011.063961124
 10
502835.1110555446
 20
481011.0708017101
  0
LWPOLYLINE
  5
3AF
330
1F
100
AcDbEntity
  8
Hachures
100
AcDbPolyline
 90
        2
 70
     0
 43
0.0
 10
502835.123534249
 20
481011.0678232242
 10
502835.1638634335
 20
481011.0746792558
  0
LWPOLYLINE
  5
3B0
330
1F
100
AcDbEntity
  8
Hachures
100
AcDbPolyline
 90
        4
 70
     1
 43
0.0
 10
502835.1278089211
 20
481011.1163058713
 10
502835.1115078419
 20
481011.1165982893
 10
502835.1148850248
 20
481011.1230602374
 10
502835.1182622078
 20
481011.1295221855
  0
LWPOLYLINE
  5
3B1
330
1F
100
AcDbEntity
  8
Hachures
100
AcDbPolyline
 90
        2
 70
     0
 43
0.0
 10
502835.1278089211
 20
481011.1163058713
 10
502835.1552655509
 20
481011.1014087128
  0
LWPOLYLINE
  5
3B2
330
1F
100
AcDbEntity
  8
Hachures
100
AcDbPolyline
 90
        4
 70
     1
 43
0.0
 10
502835.1007915125
 20
481011.1293113655
 10
502835.1170896471
 20
481011.1297373971
 10
502835.1140004328
 20
481011.1231329371
 10
502835.1109112185
 20
481011.1165284769
  0
LWPOLYLINE
  5
3B3
330
1F
100
AcDbEntity
  8
Hachures
100
AcDbPolyline
 90
        2
 70
     0
 43
0.0
 10
502835.1007915125
 20
481011.1293113655
 10
502835.0679570636
 20
481011.1449303139
  0
LWPOLYLINE
  5
3B4
330
1F
100
AcDbEntity
  8
Hachures
100
AcDbPolyline
 90
        4
 70
     1
 43
0.0
 10
502835.0514207791
 20
481011.0961174058
 10
502835.0595066643
 20
481011.0819601053
 10
502835.0522265672
 20
481011.0815572113
 10
502835.0449464699
 20
481011.0811543174
  0
LWPOLYLINE
  5
3B5
330
1F
100
AcDbEntity
  8
Hachures
100
AcDbPolyline
 90
        2
 70
     0
 43
0.0
 10
502835.0514207791
 20
481011.0961174058
 10
502835.0483108052
 20
481011.1334749487
  0
LWPOLYLINE
  5
3B6
330
1F
100
AcDbEntity
  8
Hachures
100
AcDbPolyline
 90
        4
 70
     1
 43
0.0
 10
502834.9942145003
 20
481011.1125313261
 10
502834.9931905803
 20
481011.0962598087
 10
502834.9868867573
 20
481011.0999236802
 10
502834.9805829343
 20
481011.1035875517
  0
LWPOLYLINE
  5
3B7
330
1F
100
AcDbEntity
  8
Hachures
100
AcDbPolyline
 90
        2
 70
     0
 43
0.0
 10
502834.9942145003
 20
481011.1125313261
 10
502835.0133804929
 20
481011.139914037
  0
LWPOLYLINE
  5
3B8
330
1F
100
AcDbEntity
  8
Hachures
100
AcDbPolyline
 90
        4
 70
     1
 43
0.0
 10
502834.9594323445
 20
481011.1569684483
 10
502834.9444853322
 20
481011.1504571109
 10
502834.9448701997
 20
481011.1577381833
 10
502834.9452550673
 20
481011.1650192558
  0
LWPOLYLINE
  5
3B9
330
1F
100
AcDbEntity
  8
Hachures
100
AcDbPolyline
 90
        2
 70
     0
 43
0.0
 10
502834.9594323445
 20
481011.1569684483
 10
502835.0055206903
 20
481011.1556622453
  0
LWPOLYLINE
  5
3BA
330
1F
100
AcDbEntity
  8
Hachures
100
AcDbPolyline
 90
        4
 70
     1
 43
0.0
 10
502835.5359031279
 20
481011.1589161513
 10
502835.5211850891
 20
481011.1519025911
 10
502835.5213232728
 20
481011.1591925186
 10
502835.5214614565
 20
481011.1664824462
  0
LWPOLYLINE
  5
3BB
330
1F
100
AcDbEntity
  8
Hachures
100
AcDbPolyline
 90
        2
 70
     0
 43
0.0
 10
502835.5359031279
 20
481011.1589161513
 10
502835.54924541
 20
481011.1582816839
  0
LWPOLYLINE
  5
3BC
330
1F
100
AcDbEntity
  8
Hachures
100
AcDbPolyline
 90
        4
 70
     1
 43
0.0
 10
502835.5374861046
 20
481011.1829461079
 10
502835.5219426657
 20
481011.1780255186
 10
502835.5230831177
 20
481011.185227012
 10
502835.5242235697
 20
481011.1924285055
  0
LWPOLYLINE
  5
3BD
330
1F
100
AcDbEntity
  8
Hachures
100
AcDbPolyline
 90
        2
 70
     0
 43
0.0
 10
502835.5374861046
 20
481011.1829461079
 10
502835.5528653323
 20
481011.1802097267
  0
LWPOLYLINE
  5
3BE
330
1F
100
AcDbEntity
  8
Hachures
100
AcDbPolyline
 90
        4
 70
     1
 43
0.0
 10
502835.5448857335
 20
481011.2199136574
 10
502835.5334101333
 20
481011.2194035733
 10
502835.5367077559
 20
481011.2259064821
 10
502835.5400053783
 20
481011.2324093911
  0
LWPOLYLINE
  5
3BF
330
1F
100
AcDbEntity
  8
Hachures
100
AcDbPolyline
 90
        2
 70
     0
 43
0.0
 10
502835.5448857335
 20
481011.2199136574
 10
502835.563038583
 20
481011.2026814083
  0
LWPOLYLINE
  5
3C0
330
1F
100
AcDbEntity
  8
Hachures
100
AcDbPolyline
 90
        4
 70
     1
 43
0.0
 10
502835.5835073818
 20
481011.2581589667
 10
502835.5769914962
 20
481011.263516346
 10
502835.5835200991
 20
481011.266762803
 10
502835.590048702
 20
481011.27000926
  0
LWPOLYLINE
  5
3C1
330
1F
100
AcDbEntity
  8
Hachures
100
AcDbPolyline
 90
        2
 70
     0
 43
0.0
 10
502835.5835073818
 20
481011.2581589667
 10
502835.5846208002
 20
481011.218364372
  0
LWPOLYLINE
  5
3C2
330
1F
100
AcDbEntity
  8
Hachures
100
AcDbPolyline
 90
        4
 70
     1
 43
0.0
 10
502835.6313484845
 20
481011.24648577
 10
502835.6338766973
 20
481011.2625922543
 10
502835.6398136484
 20
481011.2583596723
 10
502835.6457505996
 20
481011.2541270904
  0
LWPOLYLINE
  5
3C3
330
1F
100
AcDbEntity
  8
Hachures
100
AcDbPolyline
 90
        2
 70
     0
 43
0.0
 10
502835.6313484845
 20
481011.24648577
 10
502835.6167354965
 20
481011.2259884477
  0
LWPOLYLINE
  5
3C4
330
1F
100
AcDbEntity
  8
Hachures
100
AcDbPolyline
 90
        4
 70
     1
 43
0.0
 10
502835.6465151931
 20
481011.2056842368
 10
502835.6597563478
 20
481011.2151964666
 10
502835.6609130087
 20
481011.2079975588
 10
502835.6620696698
 20
481011.200798651
  0
LWPOLYLINE
  5
3C5
330
1F
100
AcDbEntity
  8
Hachures
100
AcDbPolyline
 90
        2
 70
     0
 43
0.0
 10
502835.6465151931
 20
481011.2056842368
 10
502835.613423044
 20
481011.200002495
  0
LWPOLYLINE
  5
3C6
330
1F
100
AcDbEntity
  8
Hachures
100
AcDbPolyline
 90
        4
 70
     1
 43
0.0
 10
502835.6509561083
 20
481011.1733273341
 10
502835.6651896153
 20
481011.181278307
 10
502835.6655233031
 20
481011.1739947096
 10
502835.6658569909
 20
481011.1667111123
  0
LWPOLYLINE
  5
3C7
330
1F
100
AcDbEntity
  8
Hachures
100
AcDbPolyline
 90
        2
 70
     0
 43
0.0
 10
502835.6509561083
 20
481011.1733273341
 10
502835.6212240137
 20
481011.1717425344
  0
LWPOLYLINE
  5
3C8
330
1F
100
AcDbEntity
  8
Hachures
100
AcDbPolyline
 90
        4
 70
     1
 43
0.0
 10
502835.6528036256
 20
481011.148930065
 10
502835.6671394462
 20
481011.1566950466
 10
502835.6673782747
 20
481011.149407722
 10
502835.6676171032
 20
481011.1421203975
  0
LWPOLYLINE
  5
3C9
330
1F
100
AcDbEntity
  8
Hachures
100
AcDbPolyline
 90
        2
 70
     0
 43
0.0
 10
502835.6528036256
 20
481011.148930065
 10
502835.620738087
 20
481011.1485703062
  0
LWPOLYLINE
  5
3CA
330
1F
100
AcDbEntity
  8
Hachures
100
AcDbPolyline
 90
        2
 70
     0
 43
0.0
 10
502831.6094588293
 20
481011.4867406376
 10
502831.5772076607
 20
481011.4571618682
  0
LWPOLYLINE
  5
3CB
330
1F
100
AcDbEntity
  8
Hachures
100
AcDbPolyline
 90
        4
 70
     1
 43
0.0
 10
502831.8754647649
 20
481012.4102023364
 10
502831.8785028481
 20
481012.401240717
 10
502831.8743105837
 20
481012.4018178076
 10
502831.8701183193
 20
481012.4023948982
  0
LWPOLYLINE
  5
3CC
330
1F
100
AcDbEntity
  8
Hachures
100
AcDbPolyline
 90
        2
 70
     0
 43
0.0
 10
502831.8754647649
 20
481012.4102023364
 10
502831.8758286595
 20
481012.4201691371
  0
LWPOLYLINE
  5
3CD
330
1F
100
AcDbEntity
  8
Hachures
100
AcDbPolyline
 90
        4
 70
     1
 43
0.0
 10
502831.8896983776
 20
481012.4086370044
 10
502831.8927364607
 20
481012.399675385
 10
502831.8885441964
 20
481012.4002524756
 10
502831.884351932
 20
481012.4008295663
  0
LWPOLYLINE
  5
3CE
330
1F
100
AcDbEntity
  8
Hachures
100
AcDbPolyline
 90
        2
 70
     0
 43
0.0
 10
502831.8896983776
 20
481012.4086370044
 10
502831.8909266077
 20
481012.4202782872
  0
LWPOLYLINE
  5
3CF
330
1F
100
AcDbEntity
  8
Hachures
100
AcDbPolyline
 90
        4
 70
     1
 43
0.0
 10
502831.9045695738
 20
481012.4086241628
 10
502831.9103039446
 20
481012.4010970411
 10
502831.9061462219
 20
481012.4003087171
 10
502831.901988499
 20
481012.3995203931
  0
LWPOLYLINE
  5
3D0
330
1F
100
AcDbEntity
  8
Hachures
100
AcDbPolyline
 90
        2
 70
     0
 43
0.0
 10
502831.9045695738
 20
481012.4086241628
 10
502831.9017748924
 20
481012.4233636734
  0
LWPOLYLINE
  5
3D1
330
1F
100
AcDbEntity
  8
Hachures
100
AcDbPolyline
 90
        4
 70
     1
 43
0.0
 10
502831.9186221742
 20
481012.4138353127
 10
502831.9261690061
 20
481012.4081269067
 10
502831.9223762774
 20
481012.4062498551
 10
502831.9185835486
 20
481012.4043728036
  0
LWPOLYLINE
  5
3D2
330
1F
100
AcDbEntity
  8
Hachures
100
AcDbPolyline
 90
        2
 70
     0
 43
0.0
 10
502831.9186221742
 20
481012.4138353127
 10
502831.9119678535
 20
481012.4272808856
  0
LWPOLYLINE
  5
3D3
330
1F
100
AcDbEntity
  8
Hachures
100
AcDbPolyline
 90
        4
 70
     1
 43
0.0
 10
502831.9319779764
 20
481012.4230542869
 10
502831.9403112377
 20
481012.4185712827
 10
502831.9368513838
 20
481012.416134579
 10
502831.93339153
 20
481012.4136978753
  0
LWPOLYLINE
  5
3D4
330
1F
100
AcDbEntity
  8
Hachures
100
AcDbPolyline
 90
        2
 70
     0
 43
0.0
 10
502831.9319779764
 20
481012.4230542869
 10
502831.9233396371
 20
481012.4353197877
  0
LWPOLYLINE
  5
3D5
330
1F
100
AcDbEntity
  8
Hachures
100
AcDbPolyline
 90
        4
 70
     1
 43
0.0
 10
502831.9423514326
 20
481012.4333346567
 10
502831.9515359832
 20
481012.4310576848
 10
502831.9487882843
 20
481012.4278392589
 10
502831.9460405854
 20
481012.424620833
  0
LWPOLYLINE
  5
3D6
330
1F
100
AcDbEntity
  8
Hachures
100
AcDbPolyline
 90
        2
 70
     0
 43
0.0
 10
502831.9423514326
 20
481012.4333346567
 10
502831.9339397698
 20
481012.4410932827
  0
LWPOLYLINE
  5
3D7
330
1F
100
AcDbEntity
  8
Hachures
100
AcDbPolyline
 90
        4
 70
     1
 43
0.0
 10
502831.948653303
 20
481012.445722853
 10
502831.9580715022
 20
481012.4466383274
 10
502831.9565540521
 20
481012.4426879528
 10
502831.955036602
 20
481012.4387375783
  0
LWPOLYLINE
  5
3D8
330
1F
100
AcDbEntity
  8
Hachures
100
AcDbPolyline
 90
        2
 70
     0
 43
0.0
 10
502831.948653303
 20
481012.445722853
 10
502831.9387343608
 20
481012.4494273395
  0
LWPOLYLINE
  5
3D9
330
1F
100
AcDbEntity
  8
Hachures
100
AcDbPolyline
 90
        4
 70
     1
 43
0.0
 10
502831.9525712867
 20
481012.4599130759
 10
502831.9618604618
 20
481012.4617163496
 10
502831.9607239364
 20
481012.4576400249
 10
502831.9595874109
 20
481012.4535637001
  0
LWPOLYLINE
  5
3DA
330
1F
100
AcDbEntity
  8
Hachures
100
AcDbPolyline
 90
        2
 70
     0
 43
0.0
 10
502831.9525712867
 20
481012.4599130759
 10
502831.9453005358
 20
481012.4617663902
  0
LWPOLYLINE
  5
3DB
330
1F
100
AcDbEntity
  8
Hachures
100
AcDbPolyline
 90
        4
 70
     1
 43
0.0
 10
502831.9546440389
 20
481012.475432803
 10
502831.9635335018
 20
481012.4786759529
 10
502831.9630528691
 20
481012.4744715379
 10
502831.9625722365
 20
481012.4702671227
  0
LWPOLYLINE
  5
3DC
330
1F
100
AcDbEntity
  8
Hachures
100
AcDbPolyline
 90
        2
 70
     0
 43
0.0
 10
502831.9546440389
 20
481012.475432803
 10
502831.9462826172
 20
481012.4759728658
  0
LWPOLYLINE
  5
3DD
330
1F
100
AcDbEntity
  8
Hachures
100
AcDbPolyline
 90
        4
 70
     1
 43
0.0
 10
502831.9558459227
 20
481012.4886411572
 10
502831.9641863538
 20
481012.493110808
 10
502831.9643061279
 20
481012.4888807054
 10
502831.964425902
 20
481012.4846506028
  0
LWPOLYLINE
  5
3DE
330
1F
100
AcDbEntity
  8
Hachures
100
AcDbPolyline
 90
        2
 70
     0
 43
0.0
 10
502831.9558459227
 20
481012.4886411572
 10
502831.9464933998
 20
481012.4880960399
  0
LWPOLYLINE
  5
3DF
330
1F
100
AcDbEntity
  8
Hachures
100
AcDbPolyline
 90
        4
 70
     1
 43
0.0
 10
502831.9517200917
 20
481012.5006852699
 10
502831.9576796619
 20
481012.5080353784
 10
502831.9594277911
 20
481012.5041815286
 10
502831.9611759206
 20
481012.5003276789
  0
LWPOLYLINE
  5
3E0
330
1F
100
AcDbEntity
  8
Hachures
100
AcDbPolyline
 90
        2
 70
     0
 43
0.0
 10
502831.9517200917
 20
481012.5006852699
 10
502831.9437553745
 20
481012.4964943515
  0
LWPOLYLINE
  5
3E1
330
1F
100
AcDbEntity
  8
Hachures
100
AcDbPolyline
 90
        4
 70
     1
 43
0.0
 10
502831.9456753941
 20
481012.5137627937
 10
502831.951726189
 20
481012.5210379879
 10
502831.9534261076
 20
481012.517162631
 10
502831.9551260264
 20
481012.5132872743
  0
LWPOLYLINE
  5
3E2
330
1F
100
AcDbEntity
  8
Hachures
100
AcDbPolyline
 90
        2
 70
     0
 43
0.0
 10
502831.9456753941
 20
481012.5137627937
 10
502831.9377739916
 20
481012.5060676218
  0
LWPOLYLINE
  5
3E3
330
1F
100
AcDbEntity
  8
Hachures
100
AcDbPolyline
 90
        4
 70
     1
 43
0.0
 10
502831.9408637796
 20
481012.5211506465
 10
502831.942393451
 20
481012.5304887766
 10
502831.9458227688
 20
481012.528009282
 10
502831.9492520866
 20
481012.5255297874
  0
LWPOLYLINE
  5
3E4
330
1F
100
AcDbEntity
  8
Hachures
100
AcDbPolyline
 90
        2
 70
     0
 43
0.0
 10
502831.9408637796
 20
481012.5211506465
 10
502831.9311936337
 20
481012.5130495427
  0
LWPOLYLINE
  5
3E5
330
1F
100
AcDbEntity
  8
Hachures
100
AcDbPolyline
 90
        4
 70
     1
 43
0.0
 10
502831.9305015181
 20
481012.5270462729
 10
502831.9318683123
 20
481012.5364096294
 10
502831.935340296
 20
481012.5339902405
 10
502831.9388122798
 20
481012.5315708515
  0
LWPOLYLINE
  5
3E6
330
1F
100
AcDbEntity
  8
Hachures
100
AcDbPolyline
 90
        2
 70
     0
 43
0.0
 10
502831.9305015181
 20
481012.5270462729
 10
502831.923456619
 20
481012.5187337025
  0
LWPOLYLINE
  5
3E7
330
1F
100
AcDbEntity
  8
Hachures
100
AcDbPolyline
 90
        4
 70
     1
 43
0.0
 10
502831.8971645655
 20
481012.4320077188
 10
502831.9031143635
 20
481012.4246496979
 10
502831.8989811955
 20
481012.4237413828
 10
502831.8948480274
 20
481012.4228330679
  0
LWPOLYLINE
  5
3E8
330
1F
100
AcDbEntity
  8
Hachures
100
AcDbPolyline
 90
        4
 70
     1
 43
0.0
 10
502831.9281154106
 20
481012.452044161
 10
502831.9372632673
 20
481012.449623978
 10
502831.9344656228
 20
481012.4464488719
 10
502831.9316679781
 20
481012.4432737657
  0
LWPOLYLINE
  5
3E9
330
1F
100
AcDbEntity
  8
Hachures
100
AcDbPolyline
 90
        4
 70
     1
 43
0.0
 10
502831.9369313637
 20
481012.48690337
 10
502831.9445880486
 20
481012.4924635628
 10
502831.9452807888
 20
481012.4882888503
 10
502831.945973529
 20
481012.4841141378
  0
LWPOLYLINE
  5
3EA
330
1F
100
AcDbEntity
  8
Hachures
100
AcDbPolyline
 90
        2
 70
     0
 43
0.0
 10
502831.9369313637
 20
481012.48690337
 10
502831.9304256315
 20
481012.4854065625
  0
LWPOLYLINE
  5
3EB
330
1F
100
AcDbEntity
  8
Hachures
100
AcDbPolyline
 90
        4
 70
     1
 43
0.0
 10
502831.9210012197
 20
481012.5077161125
 10
502831.9229792932
 20
481012.5169696414
 10
502831.92628509
 20
481012.5143277061
 10
502831.9295908868
 20
481012.5116857709
  0
LWPOLYLINE
  5
3EC
330
1F
100
AcDbEntity
  8
Hachures
100
AcDbPolyline
 90
        2
 70
     0
 43
0.0
 10
502831.9210012197
 20
481012.5077161125
 10
502831.9136135977
 20
481012.500547485
  0
LWPOLYLINE
  5
3ED
330
1F
100
AcDbEntity
  8
Hachures
100
AcDbPolyline
 90
        2
 70
     0
 43
0.0
 10
502831.8971645655
 20
481012.4320077188
 10
502831.8950351808
 20
481012.4402825796
  0
LWPOLYLINE
  5
3EE
330
1F
100
AcDbEntity
  8
Hachures
100
AcDbPolyline
 90
        2
 70
     0
 43
0.0
 10
502831.9281154106
 20
481012.452044161
 10
502831.9240603223
 20
481012.4558522783
  0
LWPOLYLINE
  5
3EF
330
1F
100
AcDbEntity
  8
Hachures
100
AcDbPolyline
 90
        4
 70
     1
 43
0.0
 10
502832.0655754628
 20
481012.2936045734
 10
502832.0616477017
 20
481012.2833837593
 10
502832.0572506752
 20
481012.2849462473
 10
502832.0528536485
 20
481012.2865087354
  0
LWPOLYLINE
  5
3F0
330
1F
100
AcDbEntity
  8
Hachures
100
AcDbPolyline
 90
        2
 70
     0
 43
0.0
 10
502832.0655754628
 20
481012.2936045734
 10
502832.0771355121
 20
481012.3071115278
  0
LWPOLYLINE
  5
3F1
330
1F
100
AcDbEntity
  8
Hachures
100
AcDbPolyline
 90
        4
 70
     1
 43
0.0
 10
502832.08451879
 20
481012.289150591
 10
502832.0842122769
 20
481012.2781116343
 10
502832.0796441502
 20
481012.2790642264
 10
502832.0750760236
 20
481012.2800168185
  0
LWPOLYLINE
  5
3F2
330
1F
100
AcDbEntity
  8
Hachures
100
AcDbPolyline
 90
        2
 70
     0
 43
0.0
 10
502832.08451879
 20
481012.289150591
 10
502832.0900119785
 20
481012.3034487065
  0
LWPOLYLINE
  5
3F3
330
1F
100
AcDbEntity
  8
Hachures
100
AcDbPolyline
 90
        4
 70
     1
 43
0.0
 10
502832.100836849
 20
481012.2876577282
 10
502832.1035308212
 20
481012.2778507003
 10
502832.0988672359
 20
481012.2780125163
 10
502832.0942036507
 20
481012.2781743321
  0
LWPOLYLINE
  5
3F4
330
1F
100
AcDbEntity
  8
Hachures
100
AcDbPolyline
 90
        2
 70
     0
 43
0.0
 10
502832.100836849
 20
481012.2876577282
 10
502832.1023812738
 20
481012.3016354911
  0
LWPOLYLINE
  5
3F5
330
1F
100
AcDbEntity
  8
Hachures
100
AcDbPolyline
 90
        4
 70
     1
 43
0.0
 10
502832.1165073804
 20
481012.2901706907
 10
502832.1237039565
 20
481012.2826152057
 10
502832.1192424473
 20
481012.2812476723
 10
502832.1147809381
 20
481012.2798801388
  0
LWPOLYLINE
  5
3F6
330
1F
100
AcDbEntity
  8
Hachures
100
AcDbPolyline
 90
        2
 70
     0
 43
0.0
 10
502832.1165073804
 20
481012.2901706907
 10
502832.1146982201
 20
481012.3023753011
  0
LWPOLYLINE
  5
3F7
330
1F
100
AcDbEntity
  8
Hachures
100
AcDbPolyline
 90
        4
 70
     1
 43
0.0
 10
502832.1349861698
 20
481012.3000420662
 10
502832.1471781829
 20
481012.2957922302
 10
502832.1432333427
 20
481012.2932995515
 10
502832.1392885025
 20
481012.2908068727
  0
LWPOLYLINE
  5
3F8
330
1F
100
AcDbEntity
  8
Hachures
100
AcDbPolyline
 90
        2
 70
     0
 43
0.0
 10
502832.1349861698
 20
481012.3000420662
 10
502832.1262002274
 20
481012.3079778063
  0
LWPOLYLINE
  5
3F9
330
1F
100
AcDbEntity
  8
Hachures
100
AcDbPolyline
 90
        4
 70
     1
 43
0.0
 10
502832.1496686951
 20
481012.3140997293
 10
502832.1599089819
 20
481012.3120965859
 10
502832.1570596672
 20
481012.3084010998
 10
502832.1542103525
 20
481012.3047056137
  0
LWPOLYLINE
  5
3FA
330
1F
100
AcDbEntity
  8
Hachures
100
AcDbPolyline
 90
        2
 70
     0
 43
0.0
 10
502832.1496686951
 20
481012.3140997293
 10
502832.1403305789
 20
481012.3199090911
  0
LWPOLYLINE
  5
3FB
330
1F
100
AcDbEntity
  8
Hachures
100
AcDbPolyline
 90
        4
 70
     1
 43
0.0
 10
502832.1575291971
 20
481012.333168642
 10
502832.1677907475
 20
481012.3350598427
 10
502832.1664949178
 20
481012.3305769824
 10
502832.165199088
 20
481012.326094122
  0
LWPOLYLINE
  5
3FC
330
1F
100
AcDbEntity
  8
Hachures
100
AcDbPolyline
 90
        2
 70
     0
 43
0.0
 10
502832.1575291971
 20
481012.333168642
 10
502832.1467113479
 20
481012.3351493584
  0
LWPOLYLINE
  5
3FD
330
1F
100
AcDbEntity
  8
Hachures
100
AcDbPolyline
 90
        4
 70
     1
 43
0.0
 10
502832.1629020105
 20
481012.3519073252
 10
502832.1701944086
 20
481012.3568050997
 10
502832.1700404224
 20
481012.3521412493
 10
502832.1698864361
 20
481012.347477399
  0
LWPOLYLINE
  5
3FE
330
1F
100
AcDbEntity
  8
Hachures
100
AcDbPolyline
 90
        2
 70
     0
 43
0.0
 10
502832.1629020105
 20
481012.3519073252
 10
502832.1436858986
 20
481012.3477588226
  0
LWPOLYLINE
  5
3FF
330
1F
100
AcDbEntity
  8
Hachures
100
AcDbPolyline
 90
        4
 70
     1
 43
0.0
 10
502832.1600371115
 20
481012.3655544074
 10
502832.1691208846
 20
481012.374250001
 10
502832.1698938651
 20
481012.369648076
 10
502832.1706668456
 20
481012.365046151
  0
LWPOLYLINE
  5
400
330
1F
100
AcDbEntity
  8
Hachures
100
AcDbPolyline
 90
        2
 70
     0
 43
0.0
 10
502832.1600371115
 20
481012.3655544074
 10
502832.1388382798
 20
481012.3564804726
  0
LWPOLYLINE
  5
401
330
1F
100
AcDbEntity
  8
Hachures
100
AcDbPolyline
 90
        4
 70
     1
 43
0.0
 10
502832.1549499107
 20
481012.3849598342
 10
502832.1605910328
 20
481012.3932771021
 10
502832.1633138691
 20
481012.3894874617
 10
502832.1660367054
 20
481012.3856978212
  0
LWPOLYLINE
  5
402
330
1F
100
AcDbEntity
  8
Hachures
100
AcDbPolyline
 90
        2
 70
     0
 43
0.0
 10
502832.1549499107
 20
481012.3849598342
 10
502832.1320402526
 20
481012.3691099589
  0
LWPOLYLINE
  5
403
330
1F
100
AcDbEntity
  8
Hachures
100
AcDbPolyline
 90
        4
 70
     1
 43
0.0
 10
502832.4961288326
 20
481011.3850435519
 10
502832.5090166865
 20
481011.3872050974
 10
502832.5078968569
 20
481011.3812415894
 10
502832.5067770273
 20
481011.3752780817
  0
LWPOLYLINE
  5
404
330
1F
100
AcDbEntity
  8
Hachures
100
AcDbPolyline
 90
        2
 70
     0
 43
0.0
 10
502832.4961288326
 20
481011.3850435519
 10
502832.4606517227
 20
481011.3923615073
  0
LWPOLYLINE
  5
405
330
1F
100
AcDbEntity
  8
Hachures
100
AcDbPolyline
 90
        4
 70
     1
 43
0.0
 10
502832.4973176743
 20
481011.4299841373
 10
502832.5084075543
 20
481011.4368967068
 10
502832.509646312
 20
481011.4309567638
 10
502832.51088507
 20
481011.4250168209
  0
LWPOLYLINE
  5
406
330
1F
100
AcDbEntity
  8
Hachures
100
AcDbPolyline
 90
        2
 70
     0
 43
0.0
 10
502832.4973176743
 20
481011.4299841373
 10
502832.4701252985
 20
481011.4243645017
  0
LWPOLYLINE
  5
407
330
1F
100
AcDbEntity
  8
Hachures
100
AcDbPolyline
 90
        4
 70
     1
 43
0.0
 10
502832.484965076
 20
481011.4582166938
 10
502832.4921225128
 20
481011.4681505559
 10
502832.496425542
 20
481011.463872544
 10
502832.5007285708
 20
481011.459594532
  0
LWPOLYLINE
  5
408
330
1F
100
AcDbEntity
  8
Hachures
100
AcDbPolyline
 90
        2
 70
     0
 43
0.0
 10
502832.484965076
 20
481011.4582166938
 10
502832.4704752997
 20
481011.4500376785
  0
LWPOLYLINE
  5
409
330
1F
100
AcDbEntity
  8
Hachures
100
AcDbPolyline
 90
        4
 70
     1
 43
0.0
 10
502832.4732483796
 20
481011.3309624124
 10
502832.4858597664
 20
481011.3275386745
 10
502832.4823496105
 20
481011.3225893058
 10
502832.4788394543
 20
481011.3176399373
  0
LWPOLYLINE
  5
40A
330
1F
100
AcDbEntity
  8
Hachures
100
AcDbPolyline
 90
        2
 70
     0
 43
0.0
 10
502832.4732483796
 20
481011.3309624124
 10
502832.4528601015
 20
481011.3459745712
  0
LWPOLYLINE
  5
40B
330
1F
100
AcDbEntity
  8
Hachures
100
AcDbPolyline
 90
        4
 70
     1
 43
0.0
 10
502832.4393591319
 20
481011.2981099635
 10
502832.4489897157
 20
481011.2892770189
 10
502832.4435986697
 20
481011.2864924064
 10
502832.4382076237
 20
481011.2837077939
  0
LWPOLYLINE
  5
40C
330
1F
100
AcDbEntity
  8
Hachures
100
AcDbPolyline
 90
        2
 70
     0
 43
0.0
 10
502832.4393591319
 20
481011.2981099635
 10
502832.4233106875
 20
481011.3305849574
  0
LWPOLYLINE
  5
40D
330
1F
100
AcDbEntity
  8
Hachures
100
AcDbPolyline
 90
        4
 70
     1
 43
0.0
 10
502832.4074007584
 20
481011.2980259683
 10
502832.4137519727
 20
481011.2816361159
 10
502832.4077779933
 20
481011.2826986655
 10
502832.4018040138
 20
481011.2837612153
  0
LWPOLYLINE
  5
40E
330
1F
100
AcDbEntity
  8
Hachures
100
AcDbPolyline
 90
        2
 70
     0
 43
0.0
 10
502832.4074007584
 20
481011.2980259683
 10
502832.4109684887
 20
481011.3255192883
  0
LWPOLYLINE
  5
40F
330
1F
100
AcDbEntity
  8
Hachures
100
AcDbPolyline
 90
        4
 70
     1
 43
0.0
 10
502832.3806319069
 20
481011.3059210329
 10
502832.3828414655
 20
481011.2904248066
 10
502832.3770798102
 20
481011.2923276392
 10
502832.3713181548
 20
481011.2942304717
  0
LWPOLYLINE
  5
410
330
1F
100
AcDbEntity
  8
Hachures
100
AcDbPolyline
 90
        2
 70
     0
 43
0.0
 10
502832.3806319069
 20
481011.3059210329
 10
502832.3832655604
 20
481011.3219158833
  0
LWPOLYLINE
  5
411
330
1F
100
AcDbEntity
  8
Hachures
100
AcDbPolyline
 90
        4
 70
     1
 43
0.0
 10
502834.629478099
 20
481012.3282191899
 10
502834.6413414617
 20
481012.3284501274
 10
502834.6395440184
 20
481012.3232420755
 10
502834.637746575
 20
481012.3180340236
  0
LWPOLYLINE
  5
412
330
1F
100
AcDbEntity
  8
Hachures
100
AcDbPolyline
 90
        2
 70
     0
 43
0.0
 10
502834.629478099
 20
481012.3282191899
 10
502834.6083106306
 20
481012.3356068049
  0
LWPOLYLINE
  5
413
330
1F
100
AcDbEntity
  8
Hachures
100
AcDbPolyline
 90
        4
 70
     1
 43
0.0
 10
502834.6216271654
 20
481012.3042340379
 10
502834.6333361015
 20
481012.3023121852
 10
502834.6306249896
 20
481012.2975158867
 10
502834.6279138777
 20
481012.2927195881
  0
LWPOLYLINE
  5
414
330
1F
100
AcDbEntity
  8
Hachures
100
AcDbPolyline
 90
        2
 70
     0
 43
0.0
 10
502834.6216271654
 20
481012.3042340379
 10
502834.6021480946
 20
481012.3153337847
  0
LWPOLYLINE
  5
415
330
1F
100
AcDbEntity
  8
Hachures
100
AcDbPolyline
 90
        4
 70
     1
 43
0.0
 10
502834.6056829922
 20
481012.2827650562
 10
502834.6181511706
 20
481012.2807963887
 10
502834.6146473728
 20
481012.2765445649
 10
502834.6111435751
 20
481012.2722927406
  0
LWPOLYLINE
  5
416
330
1F
100
AcDbEntity
  8
Hachures
100
AcDbPolyline
 90
        2
 70
     0
 43
0.0
 10
502834.6056829922
 20
481012.2827650562
 10
502834.5841393873
 20
481012.2940880406
  0
LWPOLYLINE
  5
417
330
1F
100
AcDbEntity
  8
Hachures
100
AcDbPolyline
 90
        4
 70
     1
 43
0.0
 10
502834.5888843674
 20
481012.2684839766
 10
502834.5981161724
 20
481012.2610296838
 10
502834.5933898686
 20
481012.2581983136
 10
502834.5886635644
 20
481012.2553669437
  0
LWPOLYLINE
  5
418
330
1F
100
AcDbEntity
  8
Hachures
100
AcDbPolyline
 90
        2
 70
     0
 43
0.0
 10
502834.5888843674
 20
481012.2684839766
 10
502834.5774294545
 20
481012.2877563284
  0
LWPOLYLINE
  5
419
330
1F
100
AcDbEntity
  8
Hachures
100
AcDbPolyline
 90
        4
 70
     1
 43
0.0
 10
502834.564919621
 20
481012.2597879807
 10
502834.5720559417
 20
481012.2508028833
 10
502834.5665487432
 20
481012.2506436005
 10
502834.5610415448
 20
481012.2504843178
  0
LWPOLYLINE
  5
41A
330
1F
100
AcDbEntity
  8
Hachures
100
AcDbPolyline
 90
        2
 70
     0
 43
0.0
 10
502834.564919621
 20
481012.2597879807
 10
502834.5640372565
 20
481012.2799840774
  0
LWPOLYLINE
  5
41B
330
1F
100
AcDbEntity
  8
Hachures
100
AcDbPolyline
 90
        4
 70
     1
 43
0.0
 10
502834.5400507065
 20
481012.2610446647
 10
502834.5461575176
 20
481012.2512494341
 10
502834.5406627136
 20
481012.251651596
 10
502834.5351679093
 20
481012.252053758
  0
LWPOLYLINE
  5
41C
330
1F
100
AcDbEntity
  8
Hachures
100
AcDbPolyline
 90
        2
 70
     0
 43
0.0
 10
502834.5400507065
 20
481012.2610446647
 10
502834.5378535459
 20
481012.2771271104
  0
LWPOLYLINE
  5
41D
330
1F
100
AcDbEntity
  8
Hachures
100
AcDbPolyline
 90
        4
 70
     1
 43
0.0
 10
502834.5187153565
 20
481012.2684401168
 10
502834.5179387117
 20
481012.2565999508
 10
502834.5129019815
 20
481012.2588328765
 10
502834.5078652513
 20
481012.2610658016
  0
LWPOLYLINE
  5
41E
330
1F
100
AcDbEntity
  8
Hachures
100
AcDbPolyline
 90
        2
 70
     0
 43
0.0
 10
502834.5187153565
 20
481012.2684401168
 10
502834.525796932
 20
481012.2824277031
  0
LWPOLYLINE
  5
41F
330
1F
100
AcDbEntity
  8
Hachures
100
AcDbPolyline
 90
        4
 70
     1
 43
0.0
 10
502834.6329790512
 20
481012.3523511959
 10
502834.6431728865
 20
481012.3585869306
 10
502834.6426755246
 20
481012.353099924
 10
502834.6421781628
 20
481012.347612918
  0
LWPOLYLINE
  5
420
330
1F
100
AcDbEntity
  8
Hachures
100
AcDbPolyline
 90
        2
 70
     0
 43
0.0
 10
502834.6329790512
 20
481012.3523511959
 10
502834.6135404413
 20
481012.352437307
  0
LWPOLYLINE
  5
421
330
1F
100
AcDbEntity
  8
Hachures
100
AcDbPolyline
 90
        4
 70
     1
 43
0.0
 10
502834.6297446407
 20
481012.3819941232
 10
502834.6360615407
 20
481012.3916663135
 10
502834.6376179761
 20
481012.3863812294
 10
502834.6391744114
 20
481012.3810961451
  0
LWPOLYLINE
  5
422
330
1F
100
AcDbEntity
  8
Hachures
100
AcDbPolyline
 90
        2
 70
     0
 43
0.0
 10
502834.6297446407
 20
481012.3819941232
 10
502834.6108293267
 20
481012.3772843
  0
LWPOLYLINE
  5
423
330
1F
100
AcDbEntity
  8
Hachures
100
AcDbPolyline
 90
        4
 70
     1
 43
0.0
 10
502834.6186271328
 20
481012.4029066337
 10
502834.6230078714
 20
481012.4146083581
 10
502834.6260032711
 20
481012.4099842703
 10
502834.6289986707
 20
481012.4053601827
  0
LWPOLYLINE
  5
424
330
1F
100
AcDbEntity
  8
Hachures
100
AcDbPolyline
 90
        2
 70
     0
 43
0.0
 10
502834.6186271328
 20
481012.4029066337
 10
502834.6061025814
 20
481012.3922780032
  0
LWPOLYLINE
  5
425
330
1F
100
AcDbEntity
  8
Hachures
100
AcDbPolyline
 90
        4
 70
     1
 43
0.0
 10
502835.6784486668
 20
481012.1416824348
 10
502835.663195741
 20
481012.1343140875
 10
502835.6632989873
 20
481012.1418889271
 10
502835.6634022334
 20
481012.149463767
  0
LWPOLYLINE
  5
426
330
1F
100
AcDbEntity
  8
Hachures
100
AcDbPolyline
 90
        2
 70
     0
 43
0.0
 10
502835.6784486668
 20
481012.1416824348
 10
502835.6921685152
 20
481012.1405419009
  0
LWPOLYLINE
  5
427
330
1F
100
AcDbEntity
  8
Hachures
100
AcDbPolyline
 90
        4
 70
     1
 43
0.0
 10
502834.5383313504
 20
481012.2915924381
 10
502834.5424605593
 20
481012.2794419683
 10
502834.5367745298
 20
481012.2802203788
 10
502834.5310885
 20
481012.280998789
  0
LWPOLYLINE
  5
428
330
1F
100
AcDbEntity
  8
Hachures
100
AcDbPolyline
 90
        2
 70
     0
 43
0.0
 10
502834.5383313504
 20
481012.2915924381
 10
502834.5410442058
 20
481012.311408948
  0
LWPOLYLINE
  5
429
330
1F
100
AcDbEntity
  8
Hachures
100
AcDbPolyline
 90
        4
 70
     1
 43
0.0
 10
502834.5851144487
 20
481012.3155912835
 10
502834.5978942462
 20
481012.3144246384
 10
502834.5948716286
 20
481012.3095460484
 10
502834.5918490111
 20
481012.3046674585
  0
LWPOLYLINE
  5
42A
330
1F
100
AcDbEntity
  8
Hachures
100
AcDbPolyline
 90
        2
 70
     0
 43
0.0
 10
502834.5851144487
 20
481012.3155912835
 10
502834.5681119654
 20
481012.3261254758
  0
LWPOLYLINE
  5
42B
330
1F
100
AcDbEntity
  8
Hachures
100
AcDbPolyline
 90
        4
 70
     1
 43
0.0
 10
502834.5943085371
 20
481012.3757658429
 10
502834.6014967976
 20
481012.3863966091
 10
502834.604311452
 20
481012.3813951516
 10
502834.6071261062
 20
481012.3763936942
  0
LWPOLYLINE
  5
42C
330
1F
100
AcDbEntity
  8
Hachures
100
AcDbPolyline
 90
        2
 70
     0
 43
0.0
 10
502834.5943085371
 20
481012.3757658429
 10
502834.576877845
 20
481012.3659564276
  0
LWPOLYLINE
  5
42D
330
1F
100
AcDbEntity
  8
Hachures
100
AcDbPolyline
 90
        4
 70
     1
 43
0.0
 10
502835.6782889566
 20
481012.1234674996
 10
502835.6660335561
 20
481012.1117735078
 10
502835.6638070396
 20
481012.1190144663
 10
502835.661580523
 20
481012.1262554248
  0
LWPOLYLINE
  5
42E
330
1F
100
AcDbEntity
  8
Hachures
100
AcDbPolyline
 90
        2
 70
     0
 43
0.0
 10
502835.6782889566
 20
481012.1234674996
 10
502835.6953438573
 20
481012.1286786026
  0
LWPOLYLINE
  5
42F
330
1F
100
AcDbEntity
  8
Hachures
100
AcDbPolyline
 90
        4
 70
     1
 43
0.0
 10
502835.6914876438
 20
481012.1029609901
 10
502835.6899500347
 20
481012.0875466035
 10
502835.6830137873
 20
481012.0905924746
 10
502835.6760775401
 20
481012.0936383454
  0
LWPOLYLINE
  5
430
330
1F
100
AcDbEntity
  8
Hachures
100
AcDbPolyline
 90
        2
 70
     0
 43
0.0
 10
502835.6914876438
 20
481012.1029609901
 10
502835.7030541467
 20
481012.1175054942
  0
LWPOLYLINE
  5
431
330
1F
100
AcDbEntity
  8
Hachures
100
AcDbPolyline
 90
        4
 70
     1
 43
0.0
 10
502835.7163115649
 20
481012.0932011246
 10
502835.7210782421
 20
481012.0769461846
 10
502835.7136229307
 20
481012.0782905016
 10
502835.7061676193
 20
481012.0796348187
  0
LWPOLYLINE
  5
432
330
1F
100
AcDbEntity
  8
Hachures
100
AcDbPolyline
 90
        2
 70
     0
 43
0.0
 10
502835.7163115649
 20
481012.0932011246
 10
502835.7186728732
 20
481012.1088295949
  0
LWPOLYLINE
  5
433
330
1F
100
AcDbEntity
  8
Hachures
100
AcDbPolyline
 90
        4
 70
     1
 43
0.0
 10
502835.7538881911
 20
481012.0958238853
 10
502835.7640987305
 20
481012.0823076297
 10
502835.7566501203
 20
481012.080926665
 10
502835.7492015102
 20
481012.0795457005
  0
LWPOLYLINE
  5
434
330
1F
100
AcDbEntity
  8
Hachures
100
AcDbPolyline
 90
        2
 70
     0
 43
0.0
 10
502835.7538881911
 20
481012.0958238853
 10
502835.750580148
 20
481012.1085661922
  0
LWPOLYLINE
  5
435
330
1F
100
AcDbEntity
  8
Hachures
100
AcDbPolyline
 90
        4
 70
     1
 43
0.0
 10
502835.7799288521
 20
481012.1053119056
 10
502835.7958220827
 20
481012.0994510603
 10
502835.7902990985
 20
481012.0942659371
 10
502835.7847761143
 20
481012.089080814
  0
LWPOLYLINE
  5
436
330
1F
100
AcDbEntity
  8
Hachures
100
AcDbPolyline
 90
        2
 70
     0
 43
0.0
 10
502835.7799288521
 20
481012.1053119056
 10
502835.7639815893
 20
481012.118610603
  0
LWPOLYLINE
  5
437
330
1F
100
AcDbEntity
  8
Hachures
100
AcDbPolyline
 90
        4
 70
     1
 43
0.0
 10
502835.7896567265
 20
481012.1263279822
 10
502835.805897819
 20
481012.1311416287
 10
502835.8045750591
 20
481012.1236824626
 10
502835.803252299
 20
481012.116223296
  0
LWPOLYLINE
  5
438
330
1F
100
AcDbEntity
  8
Hachures
100
AcDbPolyline
 90
        2
 70
     0
 43
0.0
 10
502835.7896567265
 20
481012.1263279822
 10
502835.7710835999
 20
481012.1296173004
  0
LWPOLYLINE
  5
43A
330
1F
100
AcDbEntity
  8
Section
100
AcDbPolyline
 90
        4
 70
     0
 43
0.0
 10
502833.3136526212
 20
481012.9132141909
 10
502833.2846261761
 20
481012.2158887515
 10
502835.2283750502
 20
481012.1295033334
 10
502835.1875637748
 20
481011.1571702076
  0
LWPOLYLINE
  5
43B
330
1F
100
AcDbEntity
  8
Section
100
AcDbPolyline
 90
        2
 70
     0
 43
0.0
 10
502836.1502802258
 20
481011.1133916774
 10
502834.6445456271
 20
481011.1781676682
  0
LWPOLYLINE
  5
43E
330
1F
100
AcDbEntity
  8
Section
100
AcDbPolyline
 90
        2
 70
     0
 43
0.0
 10
502831.8949615473
 20
481012.61944726
 10
502831.9925326387
 20
481012.8284452147
  0
LWPOLYLINE
  5
43F
330
1F
100
AcDbEntity
  8
Section
100
AcDbPolyline
 90
        2
 70
     0
 43
0.0
 10
502832.3523294993
 20
481012.5528784201
 10
502832.5775567254
 20
481012.6353180945
  0
LWPOLYLINE
  5
440
330
1F
100
AcDbEntity
  8
Section
100
AcDbPolyline
 90
        2
 70
     0
 43
0.0
 10
502832.1455676557
 20
481012.4063186393
 10
502832.0477113611
 20
481012.289486542
  0
LWPOLYLINE
  5
441
330
1F
100
AcDbEntity
  8
Section
100
AcDbPolyline
 90
        2
 70
     0
 43
0.0
 10
502831.9218341208
 20
481012.5398207456
 10
502831.8603531116
 20
481012.4060476659
  0
LWPOLYLINE
  5
442
330
1F
100
AcDbEntity
  8
Section
100
AcDbPolyline
 90
        2
 70
     0
 43
0.0
 10
502831.4589078714
 20
481011.1960940884
 10
502831.5877207632
 20
481011.5284516278
  0
LWPOLYLINE
  5
443
330
1F
100
AcDbEntity
  8
Section
100
AcDbPolyline
 90
        2
 70
     0
 43
0.0
 10
502832.0050075689
 20
481011.3855045403
 10
502832.1505227192
 20
481011.5352466212
  0
LWPOLYLINE
  5
444
330
1F
100
AcDbEntity
  8
Section
100
AcDbPolyline
 90
        2
 70
     0
 43
0.0
 10
502832.0771669716
 20
481011.1483234483
 10
502832.1944307317
 20
481011.2690478512
  0
LWPOLYLINE
  5
445
330
1F
100
AcDbEntity
  8
Section
100
AcDbPolyline
 90
        2
 70
     0
 43
0.0
 10
502832.3575033473
 20
481011.3064737406
 10
502832.4712742506
 20
481011.4927510817
  0
LWPOLYLINE
  5
446
330
1F
100
AcDbEntity
  8
Section
100
AcDbPolyline
 90
        2
 70
     0
 43
0.0
 10
502833.3461560189
 20
481009.3438331261
 10
502833.4066418493
 20
481009.430814112
  0
LWPOLYLINE
  5
447
330
1F
100
AcDbEntity
  8
Section
100
AcDbPolyline
 90
        2
 70
     0
 43
0.0
 10
502833.898725522
 20
481010.2960673064
 10
502833.8264426065
 20
481010.1778911804
  0
LWPOLYLINE
  5
448
330
1F
100
AcDbEntity
  8
Section
100
AcDbPolyline
 90
        2
 70
     0
 43
0.0
 10
502834.0126580346
 20
481010.490503058
 10
502834.1809581129
 20
481010.7388193884
  0
LWPOLYLINE
  5
449
330
1F
100
AcDbEntity
  8
Section
100
AcDbPolyline
 90
        2
 70
     0
 43
0.0
 10
502834.560063102
 20
481009.5392995292
 10
502834.6585029267
 20
481009.6366697247
  0
LWPOLYLINE
  5
44A
330
1F
100
AcDbEntity
  8
Section
100
AcDbPolyline
 90
        2
 70
     0
 43
0.0
 10
502835.1392919323
 20
481011.156883916
 10
502835.2524889308
 20
481010.9980419388
  0
LWPOLYLINE
  5
44B
330
1F
100
AcDbEntity
  8
Section
100
AcDbPolyline
 90
        2
 70
     0
 43
0.0
 10
502834.4880044337
 20
481012.2738171313
 10
502834.6126348605
 20
481012.4271761711
  0
LWPOLYLINE
  5
44C
330
1F
100
AcDbEntity
  8
Section
100
AcDbPolyline
 90
        2
 70
     0
 43
0.0
 10
502835.6647744344
 20
481012.1536381824
 10
502835.8067340991
 20
481012.1437306856
  0
LWPOLYLINE
  5
44D
330
1F
100
AcDbEntity
  8
Section
100
AcDbPolyline
 90
        4
 70
     0
 43
0.0
 10
502835.1816550495
 20
481010.990375886
 10
502835.176419324
 20
481010.8628057966
 10
502836.1405876413
 20
481010.8219622392
 10
502836.1502802258
 20
481011.1133916774
  0
LWPOLYLINE
  5
44E
330
1F
100
AcDbEntity
  8
Section
100
AcDbPolyline
 90
        2
 70
     0
 43
0.0
 10
502832.2366789595
 20
481010.799479007
 10
502832.3082223542
 20
481010.9269359284
  0
POINT
  5
44F
330
1F
100
AcDbEntity
  8
Points
100
AcDbPoint
 10
502836.17
 20
481011.99
 30
0.0
  0
POINT
  5
450
330
1F
100
AcDbEntity
  8
Points
100
AcDbPoint
 10
502831.2086027581
 20
481009.2701558563
 30
0.0
 50
357.8900000000001
  0
TEXT
  5
477
330
1F
100
AcDbEntity
  8
Title
100
AcDbText
 10
502832.7697304472
 20
481012.7627208129
 30
0.0
 40
0.0124936099164188
  1
(125) Kept to reveal extent of cut 164
100
AcDbText
  0
POINT
  5
478
330
1F
100
AcDbEntity
  8
Points
100
AcDbPoint
 10
502831.45
 20
481011.16
 30
0.0
 50
4.390305110735484
  0
POINT
  5
479
330
1F
100
AcDbEntity
  8
Points
100
AcDbPoint
 10
502832.059785239
 20
481011.1302016096
 30
0.0
 50
352.9671978060949
  0
POINT
  5
47A
330
1F
100
AcDbEntity
  8
Points
100
AcDbPoint
 10
502832.23
 20
481010.78
 30
0.0
 50
11.1560596832638
  0
POINT
  5
47B
330
1F
100
AcDbEntity
  8
Points
100
AcDbPoint
 10
502832.32119574
 20
481010.9493615571
 30
0.0
 50
11.1560596832638
  0
POINT
  5
47C
330
1F
100
AcDbEntity
  8
Points
100
AcDbPoint
 10
502832.2100000001
 20
481011.29
 30
0.0
 50
352.9671978060949
  0
POINT
  5
47D
330
1F
100
AcDbEntity
  8
Points
100
AcDbPoint
 10
502832.34
 20
481011.28
 30
0.0
 50
346.5761894905451
  0
POINT
  5
47E
330
1F
100
AcDbEntity
  8
Points
100
AcDbPoint
 10
502832.4918823904
 20
481011.5188131896
 30
0.0
 50
346.5761894905451
  0
POINT
  5
47F
330
1F
100
AcDbEntity
  8
Points
100
AcDbPoint
 10
502831.85
 20
481012.38
 30
0.0
 50
354.2721480624653
  0
POINT
  5
480
330
1F
100
AcDbEntity
  8
Points
100
AcDbPoint
 10
502831.9314124471
 20
481012.559365586
 30
0.0
 50
354.2721480624653
  0
POINT
  5
481
330
1F
100
AcDbEntity
  8
Points
100
AcDbPoint
 10
502831.88
 20
481012.59
 30
0.0
  0
POINT
  5
482
330
1F
100
AcDbEntity
  8
Points
100
AcDbPoint
 10
502832.0082171524
 20
481012.8608511802
 30
0.0
 50
4.574638273216149
  0
POINT
  5
483
330
1F
100
AcDbEntity
  8
Points
100
AcDbPoint
 10
502832.1654282318
 20
481012.4312303091
 30
0.0
 50
3.394632466317767
  0
POINT
  5
484
330
1F
100
AcDbEntity
  8
Points
100
AcDbPoint
 10
502832.03
 20
481012.27
 30
0.0
 50
3.394632466317767
  0
POINT
  5
485
330
1F
100
AcDbEntity
  8
Points
100
AcDbPoint
 10
502832.32
 20
481012.54
 30
0.0
  0
POINT
  5
486
330
1F
100
AcDbEntity
  8
Points
100
AcDbPoint
 10
502832.6181726652
 20
481012.6548610539
 30
0.0
 50
2.405968085587698
  0
POINT
  5
487
330
1F
100
AcDbEntity
  8
Points
100
AcDbPoint
 10
502833.2925937079
 20
481012.8182204533
 30
0.0
  0
POINT
  5
488
330
1F
100
AcDbEntity
  8
Points
100
AcDbPoint
 10
502834.47
 20
481012.25
 30
0.0
 50
8.337044908641888
  0
POINT
  5
489
330
1F
100
AcDbEntity
  8
Points
100
AcDbPoint
 10
502834.6333865567
 20
481012.4472430813
 30
0.0
 50
8.337044908641888
  0
POINT
  5
48A
330
1F
100
AcDbEntity
  8
Points
100
AcDbPoint
 10
502835.6299999999
 20
481012.16
 30
0.0
 50
3.680936577020311
  0
POINT
  5
48B
330
1F
100
AcDbEntity
  8
Points
100
AcDbPoint
 10
502835.8401435292
 20
481012.1415691259
 30
0.0
 50
3.680936577020311
  0
POINT
  5
48C
330
1F
100
AcDbEntity
  8
Points
100
AcDbPoint
 10
502835.79
 20
481011.13
 30
0.0
  0
POINT
  5
48D
330
1F
100
AcDbEntity
  8
Points
100
AcDbPoint
 10
502835.4788246849
 20
481011.143515268
 30
0.0
  0
POINT
  5
48E
330
1F
100
AcDbEntity
  8
Points
100
AcDbPoint
 10
502834.9275031813
 20
481011.1688564025
 30
0.0
  0
POINT
  5
48F
330
1F
100
AcDbEntity
  8
Points
100
AcDbPoint
 10
502835.270810743
 20
481010.9741520465
 30
0.0
  0
TEXT
  5
490
330
1F
100
AcDbEntity
  8
Title
100
AcDbText
 10
502834.9153096541
 20
481012.7097593211
 30
0.0
 40
0.0124936099164188
  1
Edge of excavation
100
AcDbText
  0
POINT
  5
491
330
1F
100
AcDbEntity
  8
Points
100
AcDbPoint
 10
502831.5983538622
 20
481011.5606134441
 30
0.0
 50
4.390305110735484
  0
POINT
  5
492
330
1F
100
AcDbEntity
  8
Points
100
AcDbPoint
 10
502832.17
 20
481011.55
 30
0.0
 50
7.326121249238232
  0
TEXT
  5
493
330
1F
100
AcDbEntity
  8
Points
100
AcDbText
 10
502836.1835499573
 20
481011.9621248138
 30
0.0
 40
0.0124936099164188
  1
grid point Z4
100
AcDbText
  0
TEXT
  5
494
330
1F
100
AcDbEntity
  8
Points
100
AcDbText
 10
502831.2325500628
 20
481009.2452683034
 30
0.0
 40
0.0124936099164188
  1
grid point G1
100
AcDbText
  0
POINT
  5
4E0
330
1F
100
AcDbEntity
  8
Points
100
AcDbPoint
 10
502835.56
 20
481010.83
 30
0.0
  0
LWPOLYLINE
  5
63A
102
{ACAD_XDICTIONARY
360
63B
102
}
330
1F
100
AcDbEntity
  8
Contexts
100
AcDbPolyline
 90
      102
 70
     1
 43
0.0
 10
502831.977722168
 20
481012.1260986328
 10
502832.0211181641
 20
481012.1810913086
 10
502832.1021118164
 20
481012.2186889648
 10
502832.2064819336
 20
481012.2476806641
 10
502832.3223266602
 20
481012.2855224609
 10
502832.4063110352
 20
481012.3115234375
 10
502832.4932861328
 20
481012.3463134766
 10
502832.588684082
 20
481012.3927001953
 10
502832.6727294922
 20
481012.4302978516
 10
502832.7481079102
 20
481012.4562988281
 10
502832.8348999023
 20
481012.5170898438
 10
502832.9246826172
 20
481012.5894775391
 10
502833.0029296875
 20
481012.638671875
 10
502833.0783081055
 20
481012.670715332
 10
502833.1477050781
 20
481012.6909179688
 10
502833.2288818359
 20
481012.6823120117
 10
502833.3331298828
 20
481012.6735229492
 10
502833.5474853516
 20
481012.635925293
 10
502833.6834716797
 20
481012.6185302734
 10
502833.7907104492
 20
481012.6099243164
 10
502833.9124755859
 20
481012.5546875
 10
502834.0006713867
 20
481012.5084838867
 10
502834.1137084961
 20
481012.4766845703
 10
502834.1947021484
 20
481012.4418945312
 10
502834.2614746094
 20
481012.3753051758
 10
502834.3425292969
 20
481012.294128418
 10
502834.4149169922
 20
481012.2244873047
 10
502834.5018920898
 20
481012.155090332
 10
502834.5944824219
 20
481012.0653076172
 10
502834.646484375
 20
481011.9929199219
 10
502834.7103271484
 20
481011.897277832
 10
502834.7246704102
 20
481011.8104858398
 10
502834.7421264648
 20
481011.720703125
 10
502834.7537231445
 20
481011.6309204102
 10
502834.7595214844
 20
481011.5322875977
 10
502834.7479248047
 20
481011.4252929688
 10
502834.736328125
 20
481011.2977294922
 10
502834.7017211914
 20
481011.1644897461
 10
502834.637878418
 20
481011.0921020508
 10
502834.5452880859
 20
481011.028503418
 10
502834.4351196289
 20
481010.9907226562
 10
502834.3425292969
 20
481010.9589233398
 10
502834.2498779297
 20
481010.953125
 10
502834.154296875
 20
481010.9763183594
 10
502834.0935058594
 20
481010.9907226562
 10
502834.0471191406
 20
481010.9849243164
 10
502833.986328125
 20
481010.944519043
 10
502833.9282836914
 20
481010.8834838867
 10
502833.896484375
 20
481010.8198852539
 10
502833.8790893555
 20
481010.7474975586
 10
502833.8588867188
 20
481010.6549072266
 10
502833.8414916992
 20
481010.5795288086
 10
502833.8095092773
 20
481010.5012817383
 10
502833.7807006836
 20
481010.4490966797
 10
502833.7197265625
 20
481010.4086914062
 10
502833.6561279297
 20
481010.3825073242
 10
502833.5894775391
 20
481010.3593139648
 10
502833.5314941406
 20
481010.3593139648
 10
502833.4649047852
 20
481010.3593139648
 10
502833.4157104492
 20
481010.3739013672
 10
502833.3635253906
 20
481010.3739013672
 10
502833.3112792969
 20
481010.3739013672
 10
502833.2592773438
 20
481010.3565063477
 10
502833.1810913086
 20
481010.3363037109
 10
502833.1115112305
 20
481010.3217163086
 10
502833.0507202148
 20
481010.3305053711
 10
502832.9984741211
 20
481010.3421020508
 10
502832.9434814453
 20
481010.3681030273
 10
502832.9232788086
 20
481010.3941040039
 10
502832.9202880859
 20
481010.4548950195
 10
502832.9406738281
 20
481010.5186767578
 10
502832.9639282227
 20
481010.5822753906
 10
502832.9755249023
 20
481010.6837158203
 10
502832.9755249023
 20
481010.7619018555
 10
502832.9666748047
 20
481010.8228759766
 10
502832.9202880859
 20
481010.8806762695
 10
502832.8566894531
 20
481010.9240722656
 10
502832.8146972656
 20
481010.9561157227
 10
502832.7335205078
 20
481011.0343017578
 10
502832.6583251953
 20
481011.0747070312
 10
502832.5742797852
 20
481011.12109375
 10
502832.5250854492
 20
481011.1356811523
 10
502832.4990844727
 20
481011.1702880859
 10
502832.504699707
 20
481011.213684082
 10
502832.5308837891
 20
481011.2515258789
 10
502832.5858764648
 20
481011.2631225586
 10
502832.637878418
 20
481011.2860717773
 10
502832.6641235352
 20
481011.3529052734
 10
502832.6641235352
 20
481011.4252929688
 10
502832.6409301758
 20
481011.5004882812
 10
502832.580078125
 20
481011.5612792969
 10
502832.4932861328
 20
481011.5786743164
 10
502832.403503418
 20
481011.6019287109
 10
502832.2990722656
 20
481011.63671875
 10
502832.1976928711
 20
481011.694519043
 10
502832.1282958984
 20
481011.7670898438
 10
502832.0761108398
 20
481011.8364868164
 10
502832.0355224609
 20
481011.888671875
 10
502831.9835205078
 20
481011.9348754883
 10
502831.9428710938
 20
481011.978515625
 10
502831.9340820312
 20
481012.0451049805
 10
502831.9456787109
 20
481012.0885009766
  0
LWPOLYLINE
  5
63D
330
1F
100
AcDbEntity
  8
Hachures
100
AcDbPolyline
 90
        4
 70
     1
 43
0.0
 10
502833.5532462426
 20
481010.375117401
 10
502833.5703302713
 20
481010.3591674581
 10
502833.5557576843
 20
481010.3597043575
 10
502833.5411850972
 20
481010.3602412568
  0
LWPOLYLINE
  5
63E
330
1F
100
AcDbEntity
  8
Hachures
100
AcDbPolyline
 90
        2
 70
     0
 43
0.0
 10
502833.5532462426
 20
481010.375117401
 10
502833.5340209533
 20
481010.5239034584
  0
LWPOLYLINE
  5
63F
330
1F
100
AcDbEntity
  8
Hachures
100
AcDbPolyline
 90
        4
 70
     1
 43
0.0
 10
502833.6724721205
 20
481010.4148142675
 10
502833.6927004938
 20
481010.4001620435
 10
502833.6794522501
 20
481010.3940683915
 10
502833.6662040065
 20
481010.3879747395
  0
LWPOLYLINE
  5
640
330
1F
100
AcDbEntity
  8
Hachures
100
AcDbPolyline
 90
        2
 70
     0
 43
0.0
 10
502833.6724721205
 20
481010.4148142675
 10
502833.6192199241
 20
481010.555825145
  0
LWPOLYLINE
  5
641
330
1F
100
AcDbEntity
  8
Hachures
100
AcDbPolyline
 90
        4
 70
     1
 43
0.0
 10
502833.7480677773
 20
481010.4655838035
 10
502833.7792093831
 20
481010.4559172028
 10
502833.7691144216
 20
481010.4453938807
 10
502833.7590194602
 20
481010.4348705585
  0
LWPOLYLINE
  5
642
330
1F
100
AcDbEntity
  8
Hachures
100
AcDbPolyline
 90
        2
 70
     0
 43
0.0
 10
502833.7480677773
 20
481010.4655838035
 10
502833.6513670992
 20
481010.5841928463
  0
LWPOLYLINE
  5
643
330
1F
100
AcDbEntity
  8
Hachures
100
AcDbPolyline
 90
        4
 70
     1
 43
0.0
 10
502833.819487337
 20
481010.5750518779
 10
502833.8384621356
 20
481010.5798909521
 10
502833.8339228761
 20
481010.5660329697
 10
502833.8293836165
 20
481010.5521749872
  0
LWPOLYLINE
  5
644
330
1F
100
AcDbEntity
  8
Hachures
100
AcDbPolyline
 90
        2
 70
     0
 43
0.0
 10
502833.819487337
 20
481010.5750518779
 10
502833.6952173866
 20
481010.6761035019
  0
LWPOLYLINE
  5
645
330
1F
100
AcDbEntity
  8
Hachures
100
AcDbPolyline
 90
        4
 70
     1
 43
0.0
 10
502833.8608583162
 20
481010.748723337
 10
502833.8784915417
 20
481010.7496541956
 10
502833.875651186
 20
481010.7353510165
 10
502833.8728108302
 20
481010.7210478373
  0
LWPOLYLINE
  5
646
330
1F
100
AcDbEntity
  8
Hachures
100
AcDbPolyline
 90
        2
 70
     0
 43
0.0
 10
502833.8608583162
 20
481010.748723337
 10
502833.744945714
 20
481010.840875763
  0
LWPOLYLINE
  5
647
330
1F
100
AcDbEntity
  8
Hachures
100
AcDbPolyline
 90
        4
 70
     1
 43
0.0
 10
502833.8910450239
 20
481010.8618153224
 10
502833.9164984689
 20
481010.8592358298
 10
502833.9082521444
 20
481010.8472089148
 10
502833.9000058198
 20
481010.8351819998
  0
LWPOLYLINE
  5
648
330
1F
100
AcDbEntity
  8
Hachures
100
AcDbPolyline
 90
        2
 70
     0
 43
0.0
 10
502833.8910450239
 20
481010.8618153224
 10
502833.7993139107
 20
481010.939836575
  0
LWPOLYLINE
  5
649
330
1F
100
AcDbEntity
  8
Hachures
100
AcDbPolyline
 90
        4
 70
     1
 43
0.0
 10
502833.9818775645
 20
481010.9712354469
 10
502834.0095035725
 20
481010.9619952661
 10
502833.9973208585
 20
481010.9539809018
 10
502833.9851381445
 20
481010.9459665375
  0
LWPOLYLINE
  5
64A
330
1F
100
AcDbEntity
  8
Hachures
100
AcDbPolyline
 90
        2
 70
     0
 43
0.0
 10
502833.9818775645
 20
481010.9712354469
 10
502833.9071049824
 20
481011.0678928299
  0
LWPOLYLINE
  5
64B
330
1F
100
AcDbEntity
  8
Hachures
100
AcDbPolyline
 90
        4
 70
     1
 43
0.0
 10
502834.1861171247
 20
481010.9864321193
 10
502834.2090305169
 20
481010.9641475474
 10
502834.1946028909
 20
481010.9662670203
 10
502834.1801752651
 20
481010.9683864932
  0
LWPOLYLINE
  5
64C
330
1F
100
AcDbEntity
  8
Hachures
100
AcDbPolyline
 90
        2
 70
     0
 43
0.0
 10
502834.1861171247
 20
481010.9864321193
 10
502833.9665117277
 20
481011.2407169341
  0
LWPOLYLINE
  5
64D
330
1F
100
AcDbEntity
  8
Hachures
100
AcDbPolyline
 90
        4
 70
     1
 43
0.0
 10
502834.5120633247
 20
481011.0438743078
 10
502834.5486163523
 20
481011.0316321981
 10
502834.5353408228
 20
481011.0255982219
 10
502834.5220652932
 20
481011.0195642455
  0
LWPOLYLINE
  5
64E
330
1F
100
AcDbEntity
  8
Hachures
100
AcDbPolyline
 90
        2
 70
     0
 43
0.0
 10
502834.5120633247
 20
481011.0438743078
 10
502833.9930008149
 20
481011.3687244832
  0
LWPOLYLINE
  5
64F
330
1F
100
AcDbEntity
  8
Hachures
100
AcDbPolyline
 90
        4
 70
     1
 43
0.0
 10
502834.7165181817
 20
481011.3663984771
 10
502834.7424484293
 20
481011.3723791188
 10
502834.7400379558
 20
481011.3579972492
 10
502834.7376274824
 20
481011.3436153797
  0
LWPOLYLINE
  5
650
330
1F
100
AcDbEntity
  8
Hachures
100
AcDbPolyline
 90
        2
 70
     0
 43
0.0
 10
502834.7165181817
 20
481011.3663984771
 10
502833.9948363616
 20
481011.4916798098
  0
LWPOLYLINE
  5
651
330
1F
100
AcDbEntity
  8
Hachures
100
AcDbPolyline
 90
        4
 70
     1
 43
0.0
 10
502834.7023350551
 20
481011.7672252159
 10
502834.728822494
 20
481011.786242533
 10
502834.7311319331
 20
481011.771844094
 10
502834.7334413723
 20
481011.757445655
  0
LWPOLYLINE
  5
652
330
1F
100
AcDbEntity
  8
Hachures
100
AcDbPolyline
 90
        2
 70
     0
 43
0.0
 10
502834.7023350551
 20
481011.7672252159
 10
502834.0107353568
 20
481011.7065653498
  0
LWPOLYLINE
  5
653
330
1F
100
AcDbEntity
  8
Hachures
100
AcDbPolyline
 90
        4
 70
     1
 43
0.0
 10
502834.4356655919
 20
481012.1796232845
 10
502834.4411875926
 20
481012.2047637912
 10
502834.4514345983
 20
481012.1943884634
 10
502834.4616816042
 20
481012.1840131356
  0
LWPOLYLINE
  5
654
330
1F
100
AcDbEntity
  8
Hachures
100
AcDbPolyline
 90
        2
 70
     0
 43
0.0
 10
502834.4356655919
 20
481012.1796232845
 10
502833.9672987216
 20
481011.86885098
  0
LWPOLYLINE
  5
655
330
1F
100
AcDbEntity
  8
Hachures
100
AcDbPolyline
 90
        4
 70
     1
 43
0.0
 10
502834.011922156
 20
481012.4755252486
 10
502834.0101172544
 20
481012.5080826609
 10
502834.0235011997
 20
481012.5022931391
 10
502834.036885145
 20
481012.4965036173
  0
LWPOLYLINE
  5
656
330
1F
100
AcDbEntity
  8
Hachures
100
AcDbPolyline
 90
        2
 70
     0
 43
0.0
 10
502834.011922156
 20
481012.4755252486
 10
502833.7855440829
 20
481011.936751902
  0
LWPOLYLINE
  5
657
330
1F
100
AcDbEntity
  8
Hachures
100
AcDbPolyline
 90
        4
 70
     1
 43
0.0
 10
502833.637521676
 20
481012.5942739748
 10
502833.6257966462
 20
481012.6247003852
 10
502833.6403122163
 20
481012.623305115
 10
502833.6548277864
 20
481012.6219098449
  0
LWPOLYLINE
  5
658
330
1F
100
AcDbEntity
  8
Hachures
100
AcDbPolyline
 90
        2
 70
     0
 43
0.0
 10
502833.637521676
 20
481012.5942739748
 10
502833.5560563512
 20
481011.9477627829
  0
LWPOLYLINE
  5
659
330
1F
100
AcDbEntity
  8
Hachures
100
AcDbPolyline
 90
        4
 70
     1
 43
0.0
 10
502833.2005239707
 20
481012.6589844962
 10
502833.1818608798
 20
481012.6853931852
 10
502833.1964364491
 20
481012.6858418821
 10
502833.2110120187
 20
481012.686290579
  0
LWPOLYLINE
  5
65A
330
1F
100
AcDbEntity
  8
Hachures
100
AcDbPolyline
 90
        2
 70
     0
 43
0.0
 10
502833.2005239707
 20
481012.6589844962
 10
502833.3467640725
 20
481011.9257410212
  0
LWPOLYLINE
  5
65B
330
1F
100
AcDbEntity
  8
Hachures
100
AcDbPolyline
 90
        4
 70
     1
 43
0.0
 10
502832.548387127
 20
481012.3453597328
 10
502832.516616062
 20
481012.3573265293
 10
502832.529749852
 20
481012.3636630989
 10
502832.542883642
 20
481012.3699996686
  0
LWPOLYLINE
  5
65C
330
1F
100
AcDbEntity
  8
Hachures
100
AcDbPolyline
 90
        2
 70
     0
 43
0.0
 10
502832.548387127
 20
481012.3453597328
 10
502833.3302419325
 20
481011.9128945036
  0
LWPOLYLINE
  5
65D
330
1F
100
AcDbEntity
  8
Hachures
100
AcDbPolyline
 90
        4
 70
     1
 43
0.0
 10
502832.4303003262
 20
481012.3026278878
 10
502832.4111287968
 20
481012.3163293358
 10
502832.4252580961
 20
481012.3199364754
 10
502832.4393873955
 20
481012.3235436149
  0
LWPOLYLINE
  5
65E
330
1F
100
AcDbEntity
  8
Hachures
100
AcDbPolyline
 90
        2
 70
     0
 43
0.0
 10
502832.4303003262
 20
481012.3026278878
 10
502832.4617822153
 20
481012.0987665616
  0
LWPOLYLINE
  5
65F
330
1F
100
AcDbEntity
  8
Hachures
100
AcDbPolyline
 90
        4
 70
     1
 43
0.0
 10
502832.0116945271
 20
481012.1403231397
 10
502831.9885308914
 20
481012.1374392342
 10
502831.9967905461
 20
481012.1494569986
 10
502832.0050502006
 20
481012.161474763
  0
LWPOLYLINE
  5
660
330
1F
100
AcDbEntity
  8
Hachures
100
AcDbPolyline
 90
        2
 70
     0
 43
0.0
 10
502832.0116945271
 20
481012.1403231397
 10
502832.2495259027
 20
481012.0616687012
  0
LWPOLYLINE
  5
661
330
1F
100
AcDbEntity
  8
Hachures
100
AcDbPolyline
 90
        4
 70
     1
 43
0.0
 10
502832.1291722186
 20
481011.8010134973
 10
502832.1141137175
 20
481011.7829642262
 10
502832.1058605014
 20
481011.7949864133
 10
502832.0976072854
 20
481011.8070086002
  0
LWPOLYLINE
  5
662
330
1F
100
AcDbEntity
  8
Hachures
100
AcDbPolyline
 90
        2
 70
     0
 43
0.0
 10
502832.1291722186
 20
481011.8010134973
 10
502832.313049362
 20
481011.8759950435
  0
LWPOLYLINE
  5
663
330
1F
100
AcDbEntity
  8
Hachures
100
AcDbPolyline
 90
        4
 70
     1
 43
0.0
 10
502832.3371447597
 20
481011.6464824064
 10
502832.3371796755
 20
481011.625567315
 10
502832.3236375971
 20
481011.6309766284
 10
502832.310095519
 20
481011.6363859417
  0
LWPOLYLINE
  5
664
330
1F
100
AcDbEntity
  8
Hachures
100
AcDbPolyline
 90
        2
 70
     0
 43
0.0
 10
502832.3371447597
 20
481011.6464824064
 10
502832.4269699787
 20
481011.7559273219
  0
LWPOLYLINE
  5
665
330
1F
100
AcDbEntity
  8
Hachures
100
AcDbPolyline
 90
        4
 70
     1
 43
0.0
 10
502832.5339395838
 20
481011.592150194
 10
502832.5392496113
 20
481011.5704050601
 10
502832.5251991968
 20
481011.5743081881
 10
502832.5111487823
 20
481011.5782113161
  0
LWPOLYLINE
  5
666
330
1F
100
AcDbEntity
  8
Hachures
100
AcDbPolyline
 90
        4
 70
     1
 43
0.0
 10
502832.6520984957
 20
481011.5186184562
 10
502832.6323453627
 20
481011.5058706189
 10
502832.6242648499
 20
481011.518009559
 10
502832.6161843371
 20
481011.5301484992
  0
LWPOLYLINE
  5
667
330
1F
100
AcDbEntity
  8
Hachures
100
AcDbPolyline
 90
        2
 70
     0
 43
0.0
 10
502832.6520984957
 20
481011.5186184562
 10
502833.4110215252
 20
481011.5669203393
  0
LWPOLYLINE
  5
668
330
1F
100
AcDbEntity
  8
Hachures
100
AcDbPolyline
 90
        4
 70
     1
 43
0.0
 10
502832.528043249
 20
481011.169169418
 10
502832.513217698
 20
481011.1529122355
 10
502832.5071798777
 20
481011.1661860172
 10
502832.5011420574
 20
481011.1794597989
  0
LWPOLYLINE
  5
669
330
1F
100
AcDbEntity
  8
Hachures
100
AcDbPolyline
 90
        2
 70
     0
 43
0.0
 10
502832.528043249
 20
481011.169169418
 10
502833.3908260721
 20
481011.2971522877
  0
LWPOLYLINE
  5
66A
330
1F
100
AcDbEntity
  8
Hachures
100
AcDbPolyline
 90
        4
 70
     1
 43
0.0
 10
502832.8209343731
 20
481010.9743403115
 10
502832.8156343899
 20
481010.9583169983
 10
502832.8040210917
 20
481010.9671362874
 10
502832.7924077935
 20
481010.9759555765
  0
LWPOLYLINE
  5
66B
330
1F
100
AcDbEntity
  8
Hachures
100
AcDbPolyline
 90
        2
 70
     0
 43
0.0
 10
502832.8209343731
 20
481010.9743403115
 10
502833.4018415721
 20
481011.1191425567
  0
LWPOLYLINE
  5
66C
330
1F
100
AcDbEntity
  8
Hachures
100
AcDbPolyline
 90
        4
 70
     1
 43
0.0
 10
502832.9729686143
 20
481010.8463775765
 10
502832.9615888541
 20
481010.8287218087
 10
502832.9567988325
 20
481010.8424951253
 10
502832.9520088109
 20
481010.8562684418
  0
LWPOLYLINE
  5
66D
330
1F
100
AcDbEntity
  8
Hachures
100
AcDbPolyline
 90
        2
 70
     0
 43
0.0
 10
502832.9729686143
 20
481010.8463775765
 10
502833.3871549787
 20
481010.9594847838
  0
LWPOLYLINE
  5
66E
330
1F
100
AcDbEntity
  8
Hachures
100
AcDbPolyline
 90
        4
 70
     1
 43
0.0
 10
502832.9923249083
 20
481010.7157930805
 10
502832.9732201475
 20
481010.6976639336
 10
502832.9737623282
 20
481010.7122363251
 10
502832.9743045089
 20
481010.7268087167
  0
LWPOLYLINE
  5
66F
330
1F
100
AcDbEntity
  8
Hachures
100
AcDbPolyline
 90
        2
 70
     0
 43
0.0
 10
502832.9923249083
 20
481010.7157930805
 10
502833.3549563767
 20
481010.8248130592
  0
LWPOLYLINE
  5
670
330
1F
100
AcDbEntity
  8
Hachures
100
AcDbPolyline
 90
        4
 70
     1
 43
0.0
 10
502832.9549910448
 20
481010.5150129243
 10
502832.9350825552
 20
481010.4924989667
 10
502832.9389982161
 20
481010.5065458936
 10
502832.9429138771
 20
481010.5205928204
  0
LWPOLYLINE
  5
671
330
1F
100
AcDbEntity
  8
Hachures
100
AcDbPolyline
 90
        2
 70
     0
 43
0.0
 10
502832.9549910448
 20
481010.5150129243
 10
502833.3449285258
 20
481010.7759696123
  0
LWPOLYLINE
  5
672
330
1F
100
AcDbEntity
  8
Hachures
100
AcDbPolyline
 90
        4
 70
     1
 43
0.0
 10
502833.021292067
 20
481010.3629123025
 10
502833.0191804408
 20
481010.3405613686
 10
502833.005072104
 20
481010.3442496456
 10
502832.9909637672
 20
481010.3479379227
  0
LWPOLYLINE
  5
673
330
1F
100
AcDbEntity
  8
Hachures
100
AcDbPolyline
 90
        2
 70
     0
 43
0.0
 10
502833.021292067
 20
481010.3629123025
 10
502833.3449285258
 20
481010.7172439344
  0
LWPOLYLINE
  5
674
330
1F
100
AcDbEntity
  8
Hachures
100
AcDbPolyline
 90
        4
 70
     1
 43
0.0
 10
502833.1722600185
 20
481010.35509537
 10
502833.1811718664
 20
481010.3432516081
 10
502833.1675332866
 20
481010.3380904359
 10
502833.1538947069
 20
481010.3329292638
  0
LWPOLYLINE
  5
675
330
1F
100
AcDbEntity
  8
Hachures
100
AcDbPolyline
 90
        4
 70
     1
 43
0.0
 10
502833.3336751871
 20
481010.3958349559
 10
502833.3463651597
 20
481010.3751826381
 10
502833.3319087526
 20
481010.3732693038
 10
502833.3174523455
 20
481010.3713559695
  0
LWPOLYLINE
  5
676
330
1F
100
AcDbEntity
  8
Hachures
100
AcDbPolyline
 90
        2
 70
     0
 43
0.0
 10
502833.3336751871
 20
481010.3958349559
 10
502833.3577660991
 20
481010.6444078541
  0
LWPOLYLINE
  5
677
330
1F
100
AcDbEntity
  8
Hachures
100
AcDbPolyline
 90
        4
 70
     1
 43
0.0
 10
502833.4341950882
 20
481010.3921991179
 10
502833.4411686602
 20
481010.3685593184
 10
502833.4266835029
 20
481010.3702412134
 10
502833.4121983455
 20
481010.3719231084
  0
LWPOLYLINE
  5
678
330
1F
100
AcDbEntity
  8
Hachures
100
AcDbPolyline
 90
        2
 70
     0
 43
0.0
 10
502833.4341950882
 20
481010.3921991179
 10
502833.463832124
 20
481010.5284059002
  0
LWPOLYLINE
  5
679
330
1F
100
AcDbEntity
  8
Hachures
100
AcDbPolyline
 90
        2
 70
     0
 43
0.0
 10
502833.1722600185
 20
481010.35509537
 10
502833.3504373856
 20
481010.682375655
  0
LWPOLYLINE
  5
67A
330
1F
100
AcDbEntity
  8
Hachures
100
AcDbPolyline
 90
        2
 70
     0
 43
0.0
 10
502832.5339395838
 20
481011.592150194
 10
502832.5835094441
 20
481011.6968759758
  0
LWPOLYLINE
  5
67B
330
1F
100
AcDbEntity
  8
Hachures
100
AcDbPolyline
 90
        4
 70
     1
 43
0.0
 10
502832.8634337965
 20
481011.7445713851
 10
502832.8419303438
 20
481011.7288950547
 10
502832.8385038154
 20
481011.7430692376
 10
502832.8350772871
 20
481011.7572434203
  0
LWPOLYLINE
  5
67C
330
1F
100
AcDbEntity
  8
Hachures
100
AcDbPolyline
 90
        2
 70
     0
 43
0.0
 10
502832.8634337965
 20
481011.7445713851
 10
502833.3364448136
 20
481011.8181114532
  0
LWPOLYLINE
  5
67D
330
1F
100
AcDbEntity
  8
Contexts
100
AcDbPolyline
 90
       63
 70
     1
 43
0.0
 10
502833.3894758214
 20
481011.40156078
 10
502833.4003966181
 20
481011.4433802533
 10
502833.409497289
 20
481011.4997456191
 10
502833.409497289
 20
481011.5433833244
 10
502833.409497289
 20
481011.5779298422
 10
502833.4149576873
 20
481011.6306587349
 10
502833.409497289
 20
481011.6797511546
 10
502833.4003966181
 20
481011.7161159043
 10
502833.3894758214
 20
481011.7524806634
 10
502833.351253033
 20
481011.7924818862
 10
502833.3239510202
 20
481011.8379378327
 10
502833.3176587514
 20
481011.8728470618
 10
502833.320523562
 20
481011.9028962517
 10
502833.3448744516
 20
481011.9257908619
 10
502833.3835494151
 20
481011.9401000027
 10
502833.4494400577
 20
481011.9415309111
 10
502833.5210603213
 20
481011.9458236552
 10
502833.5583028584
 20
481011.95011639
 10
502833.6327879537
 20
481011.9515473078
 10
502833.7172998648
 20
481011.9443927374
 10
502833.8003793706
 20
481011.9343763408
 10
502833.8777292764
 20
481011.9200672094
 10
502833.9393227032
 20
481011.9028962517
 10
502833.9737004297
 20
481011.8656925008
 10
502833.9937541035
 20
481011.8113177828
 10
502834.006645751
 20
481011.7397721072
 10
502834.0037809404
 20
481011.6796737366
 10
502834.0037809404
 20
481011.6066971525
 10
502833.9966189141
 20
481011.5294278244
 10
502833.9966189141
 20
481011.4457193894
 10
502833.990889293
 20
481011.3741737137
 10
502833.9851596719
 20
481011.3226608314
 10
502833.9636735928
 20
481011.2496842379
 10
502833.9493495401
 20
481011.2010331819
 10
502833.9292958663
 20
481011.143796647
 10
502833.9035125714
 20
481011.0887064841
 10
502833.8662700132
 20
481011.0486409069
 10
502833.823297855
 20
481011.0042825856
 10
502833.7917849389
 20
481010.9642170083
 10
502833.7631368335
 20
481010.9155659523
 10
502833.7330563228
 20
481010.8654839784
 10
502833.7087054331
 20
481010.7982310469
 10
502833.6915165699
 20
481010.7409945026
 10
502833.6728953013
 20
481010.6701642999
 10
502833.649976817
 20
481010.6258059786
 10
502833.614166664
 20
481010.5857404014
 10
502833.5711945058
 20
481010.5657076081
 10
502833.5081686738
 20
481010.5614148733
 10
502833.440845626
 20
481010.5614148733
 10
502833.3849818204
 20
481010.5886022276
 10
502833.3577660991
 20
481010.6444078541
 10
502833.3448744516
 20
481010.7145226119
 10
502833.3448744516
 20
481010.7717591561
 10
502833.3549012885
 20
481010.8275647826
 10
502833.3706577465
 20
481010.8876631531
 10
502833.3878466309
 20
481010.9592088287
 10
502833.3907114415
 20
481011.0207381077
 10
502833.4007382784
 20
481011.1101701859
 10
502833.4079003048
 20
481011.1688376386
 10
502833.4036030889
 20
481011.2203505303
 10
502833.3964410626
 20
481011.2804489008
 10
502833.3907114415
 20
481011.3434090883
 10
502833.3892790362
 20
481011.3820437571
  0
TEXT
  5
6E4
330
1F
100
AcDbEntity
  8
Labels
100
AcDbText
 10
502833.4629434755
 20
481009.4089032962
 30
0.0
 40
0.025
  1
[162]
100
AcDbText
  0
TEXT
  5
6E5
330
1F
100
AcDbEntity
  8
Labels
100
AcDbText
 10
502834.6977024076
 20
481009.5706383105
 30
0.0
 40
0.025
  1
[160]
100
AcDbText
  0
TEXT
  5
6E6
330
1F
100
AcDbEntity
  8
Labels
100
AcDbText
 10
502833.9297928564
 20
481010.2807337939
 30
0.0
 40
0.025
  1
[158]
100
AcDbText
  0
TEXT
  5
6E7
330
1F
100
AcDbEntity
  8
Labels
100
AcDbText
 10
502834.2771798173
 20
481010.6765541453
 30
0.0
 40
0.025
  1
[156]
100
AcDbText
  0
TEXT
  5
6E8
330
1F
100
AcDbEntity
  8
Labels
100
AcDbText
 10
502831.6805992152
 20
481011.3325429238
 30
0.0
 40
0.025
  1
[169]
100
AcDbText
  0
TEXT
  5
6E9
330
1F
100
AcDbEntity
  8
Labels
100
AcDbText
 10
502832.2315751002
 20
481011.1370552772
 30
0.0
 40
0.025
  1
[171]
100
AcDbText
  0
TEXT
  5
6EA
330
1F
100
AcDbEntity
  8
Labels
100
AcDbText
 10
502832.5415233052
 20
481011.3831352707
 30
0.0
 40
0.025
  1
[201]
100
AcDbText
  0
TEXT
  5
6EB
330
1F
100
AcDbEntity
  8
Labels
100
AcDbText
 10
502832.1940736121
 20
481012.2881732709
 30
0.0
 40
0.025
  1
[179]
100
AcDbText
  0
TEXT
  5
6EC
330
1F
100
AcDbEntity
  8
Labels
100
AcDbText
 10
502831.9917683481
 20
481012.523595293
 30
0.0
 40
0.025
  1
[177]
100
AcDbText
  0
TEXT
  5
6ED
330
1F
100
AcDbEntity
  8
Labels
100
AcDbText
 10
502832.0709312657
 20
481012.7091977074
 30
0.0
 40
0.025
  1
[175]
100
AcDbText
  0
TEXT
  5
6EE
330
1F
100
AcDbEntity
  8
Labels
100
AcDbText
 10
502832.5933566523
 20
481012.4863768739
 30
0.0
 40
0.025
  1
[167]
100
AcDbText
  0
TEXT
  5
6EF
330
1F
100
AcDbEntity
  8
Labels
100
AcDbText
 10
502832.2040883034
 20
481011.4609342763
 30
0.0
 40
0.025
  1
[209]
100
AcDbText
  0
TEXT
  5
6F0
330
1F
100
AcDbEntity
  8
Labels
100
AcDbText
 10
502832.3783299856
 20
481010.8570755533
 30
0.0
 40
0.025
  1
[173]
100
AcDbText
  0
TEXT
  5
6F1
330
1F
100
AcDbEntity
  8
Labels
100
AcDbText
 10
502834.6703463937
 20
481012.3419119456
 30
0.0
 40
0.025
  1
[193]
100
AcDbText
  0
TEXT
  5
6F2
330
1F
100
AcDbEntity
  8
Labels
100
AcDbText
 10
502835.6812555828
 20
481012.0241818578
 30
0.0
 40
0.025
  1
[181]
100
AcDbText
  0
TEXT
  5
6F3
330
1F
100
AcDbEntity
  8
Labels
100
AcDbText
 10
502835.6323130375
 20
481011.2942402914
 30
0.0
 40
0.025
  1
[199]
100
AcDbText
  0
TEXT
  5
6F4
330
1F
100
AcDbEntity
  8
Labels
100
AcDbText
 10
502834.9600526539
 20
481011.2843394585
 30
0.0
 40
0.025
  1
[191]
100
AcDbText
  0
TEXT
  5
6F5
330
1F
100
AcDbEntity
  8
Labels
100
AcDbText
 10
502835.3225700973
 20
481011.0471602727
 30
0.0
 40
0.025
  1
[207]
100
AcDbText
  0
TEXT
  5
6F7
330
1F
100
AcDbEntity
  8
Labels
100
AcDbText
 10
502831.3137459526
 20
481013.5906305335
 30
0.0
 40
0.05
  1
SC08 SC23
100
AcDbText
  0
TEXT
  5
6F8
330
1F
100
AcDbEntity
  8
Labels
100
AcDbText
 10
502831.3137459526
 20
481013.5072972002
 30
0.0
 40
0.05
  1
Plan of structure [164] and surrounding postholes
100
AcDbText
  0
TEXT
  5
6F9
330
1F
100
AcDbEntity
  8
Labels
100
AcDbText
 10
502834.835948793
 20
481011.8352231995
 30
0.0
 40
0.025
  1
[164]
100
AcDbText
  0
ENDSEC
  0
SECTION
  2
OBJECTS
  0
DICTIONARY
  5
C
330
0
100
AcDbDictionary
281
     1
  3
ACAD_CIP_PREVIOUS_PRODUCT_INFO
350
539
  3
ACAD_COLOR
350
6B
  3
ACAD_DETAILVIEWSTYLE
350
535
  3
ACAD_GROUP
350
D
  3
ACAD_IMAGE_DICT
350
E5
  3
ACAD_IMAGE_VARS
350
E6
  3
ACAD_LAYOUT
350
1A
  3
ACAD_MATERIAL
350
6A
  3
ACAD_MLEADERSTYLE
350
531
  3
ACAD_MLINESTYLE
350
17
  3
ACAD_PLOTSETTINGS
350
19
  3
ACAD_PLOTSTYLENAME
350
E
  3
ACAD_SCALELIST
350
51F
  3
ACAD_SECTIONVIEWSTYLE
350
533
  3
ACAD_TABLESTYLE
350
7E
  3
ACAD_VISUALSTYLE
350
506
  3
ACDB_RECOMPOSE_DATA
350
73F
  3
AcDbVariableDictionary
350
5E
  0
DICTIONARY
  5
593
330
8
100
AcDbDictionary
280
     1
281
     1
  0
DICTIONARY
  5
151
330
2
100
AcDbDictionary
280
     1
281
     1
  3
ACAD_LAYERFILTERS
360
153
  3
ACAD_LAYERSTATES
360
565
  3
ACLYDICTIONARY
360
152
  0
DICTIONARY
  5
556
330
10
100
AcDbDictionary
280
     1
281
     1
  3
ADSK_XREC_LAYER_RECONCILED
360
557
  0
DICTIONARY
  5
55A
330
154
100
AcDbDictionary
280
     1
281
     1
  3
ADSK_XREC_LAYER_RECONCILED
360
55B
  0
DICTIONARY
  5
55C
330
155
100
AcDbDictionary
280
     1
281
     1
  3
ADSK_XREC_LAYER_RECONCILED
360
55D
  0
DICTIONARY
  5
560
330
157
100
AcDbDictionary
280
     1
281
     1
  3
ADSK_XREC_LAYER_RECONCILED
360
561
  0
DICTIONARY
  5
F0
330
1F
100
AcDbDictionary
280
     1
281
     1
  3
ACAD_SORTENTS
360
F1
  0
DICTIONARY
  5
63B
330
63A
100
AcDbDictionary
280
     1
281
     1
  3
ESRI_Attributes
360
63C
  0
XRECORD
  5
539
102
{ACAD_REACTORS
330
C
102
}
330
C
100
AcDbXrecord
280
     1
300
ACD
300
2013
300

  0
DICTIONARY
  5
6B
102
{ACAD_REACTORS
330
C
102
}
330
C
100
AcDbDictionary
281
     1
  0
DICTIONARY
  5
535
102
{ACAD_REACTORS
330
C
102
}
330
C
100
AcDbDictionary
281
     1
  3
Metric50
350
536
  0
DICTIONARY
  5
D
102
{ACAD_REACTORS
330
C
102
}
330
C
100
AcDbDictionary
281
     1
  0
DICTIONARY
  5
E5
102
{ACAD_REACTORS
330
C
102
}
330
C
100
AcDbDictionary
281
     1
  3
HouseScans
350
E7
  3
section13
350
4CE
  3
section14
350
4BB
  3
section15
350
4B7
  3
section16
350
4CA
  3
section17
350
ED
  3
section18
350
105
  3
section19
350
F7
  3
section20
350
F3
  3
section21
350
113
  3
section22
350
126
  3
section23
350
134
  3
section24
350
4DD
  3
section25
350
4A1
  3
section26
350
142
  3
section27
350
4A8
  3
section28
350
121
  0
RASTERVARIABLES
  5
E6
102
{ACAD_REACTORS
330
C
102
}
330
C
100
AcDbRasterVariables
 90
        0
 70
     1
 71
     1
 72
     1
  0
DICTIONARY
  5
1A
102
{ACAD_REACTORS
330
C
102
}
330
C
100
AcDbDictionary
281
     1
  3
Layout1
350
D3
  3
Layout2
350
D7
  3
Model
350
22
  0
DICTIONARY
  5
6A
102
{ACAD_REACTORS
330
C
102
}
330
C
100
AcDbDictionary
281
     1
  3
ByBlock
350
4F6
  3
ByLayer
350
4EE
  3
Global
350
4FE
  0
DICTIONARY
  5
531
102
{ACAD_REACTORS
330
C
102
}
330
C
100
AcDbDictionary
281
     1
  3
Standard
350
532
  0
DICTIONARY
  5
17
102
{ACAD_REACTORS
330
C
102
}
330
C
100
AcDbDictionary
281
     1
  3
Standard
350
18
  0
DICTIONARY
  5
19
102
{ACAD_REACTORS
330
C
102
}
330
C
100
AcDbDictionary
281
     1
  0
ACDBDICTIONARYWDFLT
  5
E
102
{ACAD_REACTORS
330
C
102
}
330
C
100
AcDbDictionary
281
     1
  3
Normal
350
F
100
AcDbDictionaryWithDefault
340
F
  0
DICTIONARY
  5
51F
102
{ACAD_REACTORS
330
C
102
}
330
C
100
AcDbDictionary
281
     1
  3
A0
350
520
  3
A1
350
521
  3
A2
350
522
  3
A3
350
523
  3
A4
350
524
  3
A5
350
525
  3
A6
350
526
  3
A7
350
527
  3
A8
350
528
  3
A9
350
529
  3
B0
350
52A
  3
B1
350
52B
  3
B2
350
52C
  3
B3
350
52D
  3
B4
350
52E
  3
B5
350
52F
  3
B6
350
530
  0
DICTIONARY
  5
533
102
{ACAD_REACTORS
330
C
102
}
330
C
100
AcDbDictionary
281
     1
  3
Metric50
350
534
  0
DICTIONARY
  5
7E
102
{ACAD_REACTORS
330
C
102
}
330
C
100
AcDbDictionary
281
     1
  3
Standard
350
7F
  0
DICTIONARY
  5
506
102
{ACAD_REACTORS
330
C
102
}
330
C
100
AcDbDictionary
281
     1
  3
2dWireframe
350
50C
  3
Basic
350
50B
  3
Brighten
350
512
  3
ColorChange
350
516
  3
Conceptual
350
50F
  3
Dim
350
511
  3
EdgeColorOff
350
51E
  3
Facepattern
350
515
  3
Flat
350
507
  3
FlatWithEdges
350
508
  3
Gouraud
350
509
  3
GouraudWithEdges
350
50A
  3
Hidden
350
50E
  3
JitterOff
350
51C
  3
Linepattern
350
514
  3
OverhangOff
350
51D
  3
Realistic
350
510
  3
Shaded
350
51B
  3
Shaded with edges
350
51A
  3
Shades of Gray
350
517
  3
Sketchy
350
518
  3
Thicken
350
513
  3
Wireframe
350
50D
  3
X-Ray
350
519
  0
XRECORD
  5
73F
102
{ACAD_REACTORS
330
C
102
}
330
C
100
AcDbXrecord
280
     1
 90
        1
330
7F
  0
DICTIONARY
  5
5E
102
{ACAD_REACTORS
330
C
102
}
330
C
100
AcDbDictionary
281
     1
  3
CANNOSCALE
350
57D
  3
CMLEADERSTYLE
350
579
  3
CTABLESTYLE
350
84
  3
CVIEWDETAILSTYLE
350
57A
  3
CVIEWSECTIONSTYLE
350
57B
  3
DIMASSOC
350
5F
  3
HIDETEXT
350
63
  3
INDEXCTL
350
5D4
  3
LAYEREVAL
350
57F
  3
LAYERNOTIFY
350
580
  3
LIGHTINGUNITS
350
57E
  3
MSLTSCALE
350
57C
  3
PROJECTNAME
350
4EC
  3
SORTENTS
350
5D3
  0
DICTIONARY
  5
153
102
{ACAD_REACTORS
330
151
102
}
330
151
100
AcDbDictionary
281
     1
  0
DICTIONARY
  5
565
102
{ACAD_REACTORS
330
151
102
}
330
151
100
AcDbDictionary
281
     1
  0
DICTIONARY
  5
152
102
{ACAD_REACTORS
330
151
102
}
330
151
100
AcDbDictionary
281
     1
1001
ACAD
1000
<All
  0
XRECORD
  5
557
102
{ACAD_REACTORS
330
556
102
}
330
556
100
AcDbXrecord
280
     1
290
     1
  0
XRECORD
  5
55B
102
{ACAD_REACTORS
330
55A
102
}
330
55A
100
AcDbXrecord
280
     1
290
     1
  0
XRECORD
  5
55D
102
{ACAD_REACTORS
330
55C
102
}
330
55C
100
AcDbXrecord
280
     1
290
     1
  0
XRECORD
  5
561
102
{ACAD_REACTORS
330
560
102
}
330
560
100
AcDbXrecord
280
     1
290
     1
  0
SORTENTSTABLE
  5
F1
102
{ACAD_REACTORS
330
F0
102
}
330
F0
100
AcDbSortentsTable
330
1F
331
2FD
  5
30B
331
2FE
  5
30C
331
2FF
  5
30D
331
300
  5
30E
331
301
  5
30F
331
302
  5
310
331
303
  5
311
331
304
  5
312
331
305
  5
313
331
306
  5
314
331
307
  5
315
331
308
  5
316
331
309
  5
34D
331
30A
  5
34E
331
30B
  5
34F
331
30C
  5
350
331
30D
  5
353
331
30E
  5
359
331
325
  5
35A
331
34D
  5
35B
331
34E
  5
35C
331
34F
  5
35D
331
350
  5
35E
331
351
  5
35F
331
352
  5
360
331
353
  5
361
331
354
  5
362
331
355
  5
363
331
356
  5
364
331
357
  5
365
331
358
  5
366
331
359
  5
367
331
35A
  5
368
331
35B
  5
369
331
35C
  5
36A
331
35D
  5
36B
331
35E
  5
36C
331
35F
  5
36D
331
360
  5
36E
331
361
  5
36F
331
362
  5
370
331
363
  5
371
331
364
  5
372
331
365
  5
373
331
366
  5
374
331
367
  5
375
331
368
  5
376
331
369
  5
377
331
36A
  5
378
331
36B
  5
379
331
36C
  5
37A
331
36D
  5
37B
331
36E
  5
37C
331
36F
  5
37D
331
370
  5
37E
331
371
  5
37F
331
372
  5
380
331
373
  5
381
331
374
  5
382
331
375
  5
383
331
376
  5
384
331
377
  5
385
331
378
  5
386
331
379
  5
387
331
37A
  5
388
331
37B
  5
389
331
37C
  5
38A
331
37D
  5
38B
331
37E
  5
38C
331
37F
  5
38D
331
380
  5
38E
331
381
  5
38F
331
382
  5
390
331
383
  5
391
331
384
  5
392
331
385
  5
393
331
386
  5
394
331
387
  5
395
331
388
  5
396
331
389
  5
397
331
38A
  5
398
331
38B
  5
399
331
38C
  5
39A
331
38D
  5
39B
331
38E
  5
39C
331
38F
  5
39D
331
390
  5
39E
331
391
  5
39F
331
392
  5
3A0
331
393
  5
3A1
331
394
  5
3A2
331
395
  5
3A3
331
396
  5
3A4
331
397
  5
3A5
331
398
  5
3A6
331
399
  5
3A7
331
39A
  5
3A8
331
39B
  5
3A9
331
39C
  5
3AA
331
39D
  5
3AB
331
39E
  5
3AC
331
39F
  5
3AD
331
3A0
  5
3AE
331
3A1
  5
3AF
331
3A2
  5
3B0
331
3A3
  5
3B1
331
3A4
  5
3B2
331
3A5
  5
3B3
331
3A6
  5
3B4
331
3A7
  5
3B5
331
3A8
  5
3B6
331
3A9
  5
3B7
331
3AA
  5
3B8
331
3AB
  5
3B9
331
3AC
  5
3BA
331
3AD
  5
3BB
331
3AE
  5
3BC
331
3AF
  5
3BD
331
3B0
  5
3BE
331
3B1
  5
3BF
331
3B2
  5
3C0
331
3B3
  5
3C1
331
3B4
  5
3C2
331
3B5
  5
3C3
331
3B6
  5
3C4
331
3B7
  5
3C5
331
3B8
  5
3C6
331
3B9
  5
3C7
331
3BA
  5
3C8
331
3BB
  5
3C9
331
3BC
  5
3CA
331
3BD
  5
3CB
331
3BE
  5
3CC
331
3BF
  5
3CD
331
3C0
  5
3CE
331
3C1
  5
3CF
331
3C2
  5
3D0
331
3C3
  5
3D1
331
3C4
  5
3D2
331
3C5
  5
3D3
331
3C6
  5
3D4
331
3C7
  5
3D5
331
3C8
  5
3D6
331
3C9
  5
3D7
331
3CA
  5
3D8
331
3CB
  5
3D9
331
3CC
  5
3DA
331
3CD
  5
3DB
331
3CE
  5
3DC
331
3CF
  5
3DD
331
3D0
  5
3DE
331
3D1
  5
3DF
331
3D2
  5
3E0
331
3D3
  5
3E1
331
3D4
  5
3E2
331
3D5
  5
3E3
331
3D6
  5
3E4
331
3D7
  5
3E5
331
3D8
  5
3E6
331
3D9
  5
3E7
331
3DA
  5
3E8
331
3DB
  5
3E9
331
3DC
  5
3EA
331
3DD
  5
3EB
331
3DE
  5
3EC
331
3DF
  5
3ED
331
3E0
  5
3EE
331
3E1
  5
3EF
331
3E2
  5
3F0
331
3E3
  5
3F1
331
3E4
  5
3F2
331
3E5
  5
3F3
331
3E6
  5
3F4
331
3E7
  5
3F5
331
3E8
  5
3F6
331
3E9
  5
3F7
331
3EA
  5
3F8
331
3EB
  5
3F9
331
3EC
  5
3FA
331
3ED
  5
3FB
331
3EE
  5
3FC
331
3EF
  5
3FD
331
3F0
  5
3FE
331
3F1
  5
3FF
331
3F2
  5
400
331
3F3
  5
401
331
3F4
  5
402
331
3F5
  5
403
331
3F6
  5
404
331
3F7
  5
405
331
3F8
  5
406
331
3F9
  5
407
331
3FA
  5
408
331
3FB
  5
409
331
3FC
  5
40A
331
3FD
  5
40B
331
3FE
  5
40C
331
3FF
  5
40D
331
400
  5
40E
331
401
  5
40F
331
402
  5
410
331
403
  5
411
331
404
  5
412
331
405
  5
413
331
406
  5
414
331
407
  5
415
331
408
  5
416
331
409
  5
417
331
40A
  5
418
331
40B
  5
419
331
40C
  5
41A
331
40D
  5
41B
331
40E
  5
41C
331
40F
  5
41D
331
410
  5
41E
331
411
  5
41F
331
412
  5
420
331
413
  5
421
331
414
  5
422
331
415
  5
423
331
416
  5
424
331
417
  5
425
331
418
  5
426
331
419
  5
427
331
41A
  5
428
331
41B
  5
429
331
41C
  5
42A
331
41D
  5
42B
331
41E
  5
42C
331
41F
  5
42D
331
420
  5
42E
331
421
  5
42F
331
422
  5
430
331
423
  5
431
331
424
  5
432
331
425
  5
433
331
426
  5
434
331
427
  5
435
331
428
  5
436
331
429
  5
437
331
42A
  5
438
331
42B
  5
43A
331
42C
  5
43B
331
42D
  5
43E
331
42E
  5
43F
331
42F
  5
440
331
430
  5
441
331
431
  5
442
331
432
  5
443
331
433
  5
444
331
434
  5
445
331
435
  5
446
331
436
  5
447
331
437
  5
448
331
438
  5
449
331
43A
  5
44A
331
43B
  5
44B
331
43E
  5
44C
331
43F
  5
44D
331
440
  5
44E
331
441
  5
44F
331
442
  5
450
331
443
  5
451
331
444
  5
452
331
445
  5
453
331
446
  5
454
331
447
  5
455
331
448
  5
456
331
449
  5
457
331
44A
  5
458
331
44B
  5
459
331
44C
  5
45A
331
44D
  5
45B
331
44E
  5
45C
331
44F
  5
45D
331
450
  5
45E
331
477
  5
485
331
478
  5
486
331
479
  5
487
331
47A
  5
488
331
47B
  5
489
331
47C
  5
48A
331
47D
  5
48B
331
47E
  5
48C
331
47F
  5
48D
331
480
  5
48E
331
481
  5
48F
331
482
  5
490
331
483
  5
491
331
484
  5
492
331
485
  5
493
331
486
  5
494
331
487
  5
4A3
331
488
  5
4A5
331
489
  5
4A6
331
48A
  5
4AA
331
48B
  5
4B6
331
48C
  5
4B9
331
48D
  5
4BA
331
48E
  5
4BD
331
48F
  5
4C9
331
490
  5
4CC
331
491
  5
4CD
331
492
  5
4D0
331
493
  5
4DC
331
494
  5
4DF
331
4E0
  5
53D
  0
DICTIONARY
  5
63C
102
{ACAD_REACTORS
330
63B
102
}
330
63B
100
AcDbDictionary
281
     1
  0
ACAD_PROXY_OBJECT
  5
536
102
{ACAD_REACTORS
330
535
102
}
330
535
100
AcDbProxyObject
 90
      499
 91
      515
 95
   524319
 70
     0
162
              1030
311
42134019401D001C801A4018C00D400C0024DC9400F001700104018C0158018401C80080015801A4019401DC0110019401D0018401A401B00124019000F80094008000A0009400F001700104018C0158018401C80080015801A4019401DC014C018C018401B0019400800170019800800088009401CC01B8008800F8009400
311
A400
161
               603
310
9207000000180000000000000000A20403000000180000000000000000A2023300000018001000000180000000000000000A20400000000000017202028CC000000600023300000018000000
340
11
340
0
340
16
340
11
340
16
340
16
 94
        0
  0
IMAGEDEF
  5
E7
102
{ACAD_REACTORS
330
E5
102
}
330
E5
100
AcDbRasterImageDef
 90
        0
  1
C:\Barry\VoP_Files_Modified\SC_House_Done\SC08_Feature_Scans\HouseScans.tif
 10
3528.0
 20
2384.0
 11
0.1693333333333333
 21
0.1693333333333333
280
     1
281
     5
  0
IMAGEDEF
  5
4CE
102
{ACAD_REACTORS
330
E5
102
}
330
E5
100
AcDbRasterImageDef
 90
        0
  1
C:\Documents and Settings\Barry\My Documents\Barry\temporary\SCHouse\section13.tif
 10
416.0
 20
296.0
 11
0.1693333333333333
 21
0.1693333333333333
280
     1
281
     5
  0
IMAGEDEF
  5
4BB
102
{ACAD_REACTORS
330
E5
102
}
330
E5
100
AcDbRasterImageDef
 90
        0
  1
C:\Documents and Settings\Barry\My Documents\Barry\temporary\SCHouse\section14.tif
 10
283.0
 20
210.0
 11
0.1693333333333333
 21
0.1693333333333333
280
     1
281
     5
  0
IMAGEDEF
  5
4B7
102
{ACAD_REACTORS
330
E5
102
}
330
E5
100
AcDbRasterImageDef
 90
        0
  1
C:\Documents and Settings\Barry\My Documents\Barry\temporary\SCHouse\section15.tif
 10
318.0
 20
227.0
 11
0.1693333333333333
 21
0.1693333333333333
280
     1
281
     5
  0
IMAGEDEF
  5
4CA
102
{ACAD_REACTORS
330
E5
102
}
330
E5
100
AcDbRasterImageDef
 90
        0
  1
C:\Documents and Settings\Barry\My Documents\Barry\temporary\SCHouse\section16.tif
 10
260.0
 20
246.0
 11
0.1693333333333333
 21
0.1693333333333333
280
     1
281
     5
  0
IMAGEDEF
  5
ED
102
{ACAD_REACTORS
330
E5
102
}
330
E5
100
AcDbRasterImageDef
 90
        0
  1
C:\Documents and Settings\Barry\My Documents\Barry\temporary\SCHouse\section17.tif
 10
269.0
 20
203.0
 11
0.1693333333333333
 21
0.1693333333333333
280
     1
281
     5
  0
IMAGEDEF
  5
105
102
{ACAD_REACTORS
330
E5
102
}
330
E5
100
AcDbRasterImageDef
 90
        0
  1
C:\Documents and Settings\Barry\My Documents\Barry\temporary\SCHouse\section18.tif
 10
276.0
 20
254.0
 11
0.1693333333333333
 21
0.1693333333333333
280
     1
281
     5
  0
IMAGEDEF
  5
F7
102
{ACAD_REACTORS
330
E5
102
}
330
E5
100
AcDbRasterImageDef
 90
        0
  1
C:\Documents and Settings\Barry\My Documents\Barry\temporary\SCHouse\section19.tif
 10
184.0
 20
139.0
 11
0.1693333333333333
 21
0.1693333333333333
280
     1
281
     5
  0
IMAGEDEF
  5
F3
102
{ACAD_REACTORS
330
E5
102
}
330
E5
100
AcDbRasterImageDef
 90
        0
  1
C:\Documents and Settings\Barry\My Documents\Barry\temporary\SCHouse\section20.tif
 10
180.0
 20
150.0
 11
0.1693333333333333
 21
0.1693333333333333
280
     1
281
     5
  0
IMAGEDEF
  5
113
102
{ACAD_REACTORS
330
E5
102
}
330
E5
100
AcDbRasterImageDef
 90
        0
  1
C:\Documents and Settings\Barry\My Documents\Barry\temporary\SCHouse\section21.tif
 10
333.0
 20
402.0
 11
0.1693333333333333
 21
0.1693333333333333
280
     1
281
     5
  0
IMAGEDEF
  5
126
102
{ACAD_REACTORS
330
E5
102
}
330
E5
100
AcDbRasterImageDef
 90
        0
  1
C:\Documents and Settings\Barry\My Documents\Barry\temporary\SCHouse\section22.tif
 10
225.0
 20
170.0
 11
0.1693333333333333
 21
0.1693333333333333
280
     1
281
     5
  0
IMAGEDEF
  5
134
102
{ACAD_REACTORS
330
E5
102
}
330
E5
100
AcDbRasterImageDef
 90
        0
  1
C:\Documents and Settings\Barry\My Documents\Barry\temporary\SCHouse\section23.tif
 10
292.0
 20
200.0
 11
0.1693333333333333
 21
0.1693333333333333
280
     1
281
     5
  0
IMAGEDEF
  5
4DD
102
{ACAD_REACTORS
330
E5
102
}
330
E5
100
AcDbRasterImageDef
 90
        0
  1
C:\Documents and Settings\Barry\My Documents\Barry\temporary\SCHouse\section24.tif
 10
823.0
 20
324.0
 11
0.1693333333333333
 21
0.1693333333333333
280
     1
281
     5
  0
IMAGEDEF
  5
4A1
102
{ACAD_REACTORS
330
E5
102
}
330
E5
100
AcDbRasterImageDef
 90
        0
  1
C:\Documents and Settings\Barry\My Documents\Barry\temporary\SCHouse\section25.tif
 10
430.0
 20
277.0
 11
0.1693333333333333
 21
0.1693333333333333
280
     1
281
     5
  0
IMAGEDEF
  5
142
102
{ACAD_REACTORS
330
E5
102
}
330
E5
100
AcDbRasterImageDef
 90
        0
  1
C:\Documents and Settings\Barry\My Documents\Barry\temporary\SCHouse\section26.tif
 10
177.0
 20
214.0
 11
0.1693333333333333
 21
0.1693333333333333
280
     1
281
     5
  0
IMAGEDEF
  5
4A8
102
{ACAD_REACTORS
330
E5
102
}
330
E5
100
AcDbRasterImageDef
 90
        0
  1
C:\Documents and Settings\Barry\My Documents\Barry\temporary\SCHouse\section27.tif
 10
310.0
 20
229.0
 11
0.1693333333333333
 21
0.1693333333333333
280
     1
281
     5
  0
IMAGEDEF
  5
121
102
{ACAD_REACTORS
330
E5
102
}
330
E5
100
AcDbRasterImageDef
 90
        0
  1
C:\Documents and Settings\Barry\My Documents\Barry\temporary\SCHouse\section28.tif
 10
215.0
 20
192.0
 11
0.1693333333333333
 21
0.1693333333333333
280
     1
281
     5
  0
LAYOUT
  5
D3
102
{ACAD_REACTORS
330
1A
102
}
330
1A
100
AcDbPlotSettings
  1

  2
C:\Documents and Settings\basas\Application Data\Autodesk\AutoCAD 2005\R16.1\enu\plotters\Default Windows System Printer.pc3
  4

  6

 40
0.0
 41
0.0
 42
0.0
 43
0.0
 44
0.0
 45
0.0
 46
0.0
 47
0.0
 48
0.0
 49
0.0
140
0.0
141
0.0
142
1.0
143
1.0
 70
   688
 72
     0
 73
     0
 74
     5
  7

 75
    16
 76
     0
 77
     2
 78
   300
147
1.0
148
0.0
149
0.0
100
AcDbLayout
  1
Layout1
 70
     1
 71
     1
 10
0.0
 20
0.0
 11
12.0
 21
9.0
 12
0.0
 22
0.0
 32
0.0
 14
0.0
 24
0.0
 34
0.0
 15
0.0
 25
0.0
 35
0.0
146
0.0
 13
0.0
 23
0.0
 33
0.0
 16
1.0
 26
0.0
 36
0.0
 17
0.0
 27
1.0
 37
0.0
 76
     0
330
D2
  0
LAYOUT
  5
D7
102
{ACAD_REACTORS
330
1A
102
}
330
1A
100
AcDbPlotSettings
  1

  2
C:\Documents and Settings\basas\Application Data\Autodesk\AutoCAD 2005\R16.1\enu\plotters\Default Windows System Printer.pc3
  4

  6

 40
0.0
 41
0.0
 42
0.0
 43
0.0
 44
0.0
 45
0.0
 46
0.0
 47
0.0
 48
0.0
 49
0.0
140
0.0
141
0.0
142
1.0
143
1.0
 70
   688
 72
     0
 73
     0
 74
     5
  7

 75
    16
 76
     0
 77
     2
 78
   300
147
1.0
148
0.0
149
0.0
100
AcDbLayout
  1
Layout2
 70
     1
 71
     2
 10
0.0
 20
0.0
 11
12.0
 21
9.0
 12
0.0
 22
0.0
 32
0.0
 14
0.0
 24
0.0
 34
0.0
 15
0.0
 25
0.0
 35
0.0
146
0.0
 13
0.0
 23
0.0
 33
0.0
 16
1.0
 26
0.0
 36
0.0
 17
0.0
 27
1.0
 37
0.0
 76
     0
330
D6
  0
LAYOUT
  5
22
102
{ACAD_REACTORS
330
1A
102
}
102
{ACAD_XDICTIONARY
360
595
102
}
330
1A
100
AcDbPlotSettings
  1

  2
none_device
  4
ISO_A4_(210.00_x_297.00_MM)
  6

 40
7.5
 41
20.0
 42
7.5
 43
20.0
 44
210.0
 45
297.0
 46
11.54999923706055
 47
-13.65000009536743
 48
0.0
 49
0.0
140
0.0
141
0.0
142
1.0
143
8.704084754739808
 70
 11952
 72
     1
 73
     0
 74
     0
  7

 75
     0
 76
     0
 77
     2
 78
   300
147
0.1148885871608098
148
0.0
149
0.0
100
AcDbLayout
  1
Model
 70
     1
 71
     0
 10
0.0
 20
0.0
 11
12.0
 21
9.0
 12
0.0
 22
0.0
 32
0.0
 14
0.0
 24
0.0
 34
0.0
 15
0.0
 25
0.0
 35
0.0
146
0.0
 13
0.0
 23
0.0
 33
0.0
 16
1.0
 26
0.0
 36
0.0
 17
0.0
 27
1.0
 37
0.0
 76
     0
330
1F
331
4E3
1001
ACAD_PSEXT
1000
None
1000
None
1000
Not applicable
1000
The layout will not be plotted unless a new plotter configuration name is selected.
1070
     0
  0
MATERIAL
  5
4F6
102
{ACAD_REACTORS
330
6A
102
}
330
6A
100
AcDbMaterial
  1
ByBlock
 72
     0
 73
     2
 43
0.0008202099737533
 43
0.0
 43
0.0
 43
0.0
 43
0.0
 43
0.0008202099737533
 43
0.0
 43
0.0
 43
0.0
 43
0.0
 43
1.0
 43
0.0
 43
0.0
 43
0.0
 43
0.0
 43
1.0
 77
     0
 78
     2
 47
0.0008202099737533
 47
0.0
 47
0.0
 47
0.0
 47
0.0
 47
0.0008202099737533
 47
0.0
 47
0.0
 47
0.0
 47
0.0
 47
1.0
 47
0.0
 47
0.0
 47
0.0
 47
0.0
 47
1.0
171
     0
172
     2
 49
0.0008202099737533
 49
0.0
 49
0.0
 49
0.0
 49
0.0
 49
0.0008202099737533
 49
0.0
 49
0.0
 49
0.0
 49
0.0
 49
1.0
 49
0.0
 49
0.0
 49
0.0
 49
0.0
 49
1.0
175
     0
176
     2
142
0.0008202099737533
142
0.0
142
0.0
142
0.0
142
0.0
142
0.0008202099737533
142
0.0
142
0.0
142
0.0
142
0.0
142
1.0
142
0.0
142
0.0
142
0.0
142
0.0
142
1.0
179
     0
270
     2
144
0.0008202099737533
144
0.0
144
0.0
144
0.0
144
0.0
144
0.0008202099737533
144
0.0
144
0.0
144
0.0
144
0.0
144
1.0
144
0.0
144
0.0
144
0.0
144
0.0
144
1.0
274
     2
147
0.0008202099737533
147
0.0
147
0.0
147
0.0
147
0.0
147
0.0008202099737533
147
0.0
147
0.0
147
0.0
147
0.0
147
1.0
147
0.0
147
0.0
147
0.0
147
0.0
147
1.0
 94
      127
  0
MATERIAL
  5
4EE
102
{ACAD_REACTORS
330
6A
102
}
330
6A
100
AcDbMaterial
  1
ByLayer
 72
     0
 73
     2
 43
0.0008202099737533
 43
0.0
 43
0.0
 43
0.0
 43
0.0
 43
0.0008202099737533
 43
0.0
 43
0.0
 43
0.0
 43
0.0
 43
1.0
 43
0.0
 43
0.0
 43
0.0
 43
0.0
 43
1.0
 77
     0
 78
     2
 47
0.0008202099737533
 47
0.0
 47
0.0
 47
0.0
 47
0.0
 47
0.0008202099737533
 47
0.0
 47
0.0
 47
0.0
 47
0.0
 47
1.0
 47
0.0
 47
0.0
 47
0.0
 47
0.0
 47
1.0
171
     0
172
     2
 49
0.0008202099737533
 49
0.0
 49
0.0
 49
0.0
 49
0.0
 49
0.0008202099737533
 49
0.0
 49
0.0
 49
0.0
 49
0.0
 49
1.0
 49
0.0
 49
0.0
 49
0.0
 49
0.0
 49
1.0
175
     0
176
     2
142
0.0008202099737533
142
0.0
142
0.0
142
0.0
142
0.0
142
0.0008202099737533
142
0.0
142
0.0
142
0.0
142
0.0
142
1.0
142
0.0
142
0.0
142
0.0
142
0.0
142
1.0
179
     0
270
     2
144
0.0008202099737533
144
0.0
144
0.0
144
0.0
144
0.0
144
0.0008202099737533
144
0.0
144
0.0
144
0.0
144
0.0
144
1.0
144
0.0
144
0.0
144
0.0
144
0.0
144
1.0
274
     2
147
0.0008202099737533
147
0.0
147
0.0
147
0.0
147
0.0
147
0.0008202099737533
147
0.0
147
0.0
147
0.0
147
0.0
147
1.0
147
0.0
147
0.0
147
0.0
147
0.0
147
1.0
 94
      127
  0
MATERIAL
  5
4FE
102
{ACAD_REACTORS
330
6A
102
}
330
6A
100
AcDbMaterial
  1
Global
 72
     0
 73
     2
 43
0.0008202099737533
 43
0.0
 43
0.0
 43
0.0
 43
0.0
 43
0.0008202099737533
 43
0.0
 43
0.0
 43
0.0
 43
0.0
 43
1.0
 43
0.0
 43
0.0
 43
0.0
 43
0.0
 43
1.0
 77
     0
 78
     2
 47
0.0008202099737533
 47
0.0
 47
0.0
 47
0.0
 47
0.0
 47
0.0008202099737533
 47
0.0
 47
0.0
 47
0.0
 47
0.0
 47
1.0
 47
0.0
 47
0.0
 47
0.0
 47
0.0
 47
1.0
171
     0
172
     2
 49
0.0008202099737533
 49
0.0
 49
0.0
 49
0.0
 49
0.0
 49
0.0008202099737533
 49
0.0
 49
0.0
 49
0.0
 49
0.0
 49
1.0
 49
0.0
 49
0.0
 49
0.0
 49
0.0
 49
1.0
175
     0
176
     2
142
0.0008202099737533
142
0.0
142
0.0
142
0.0
142
0.0
142
0.0008202099737533
142
0.0
142
0.0
142
0.0
142
0.0
142
1.0
142
0.0
142
0.0
142
0.0
142
0.0
142
1.0
179
     0
270
     2
144
0.0008202099737533
144
0.0
144
0.0
144
0.0
144
0.0
144
0.0008202099737533
144
0.0
144
0.0
144
0.0
144
0.0
144
1.0
144
0.0
144
0.0
144
0.0
144
0.0
144
1.0
274
     2
147
0.0008202099737533
147
0.0
147
0.0
147
0.0
147
0.0
147
0.0008202099737533
147
0.0
147
0.0
147
0.0
147
0.0
147
1.0
147
0.0
147
0.0
147
0.0
147
0.0
147
1.0
 94
      127
  0
MLEADERSTYLE
  5
532
102
{ACAD_REACTORS
330
531
102
}
102
{ACAD_XDICTIONARY
360
70B
102
}
330
531
100
AcDbMLeaderStyle
179
     2
170
     2
171
     1
172
     0
 90
        2
 40
0.0
 41
0.0
173
     1
 91
-1056964608
340
14
 92
       -2
290
     1
 42
2.0
291
     1
 43
0.36
  3
Standard
341
0
 44
4.0
300

342
11
174
     1
178
     6
175
     1
176
     0
 93
-1056964608
 45
4.0
292
     0
297
     0
 46
4.0
343
0
 94
-1056964608
 47
1.0
 49
1.0
140
1.0
293
     1
141
0.0
294
     1
177
     0
142
1.0
295
     0
296
     0
143
0.125
271
     0
272
     9
273
     9
1001
ACAD_MLEADERVER
1070
     2
  0
MLINESTYLE
  5
18
102
{ACAD_REACTORS
330
17
102
}
330
17
100
AcDbMlineStyle
  2
STANDARD
 70
     0
  3

 62
   256
 51
90.0
 52
90.0
 71
     2
 49
0.5
 62
   256
  6
BYLAYER
 49
-0.5
 62
   256
  6
BYLAYER
  0
ACDBPLACEHOLDER
  5
F
102
{ACAD_REACTORS
330
E
102
}
330
E
  0
SCALE
  5
520
102
{ACAD_REACTORS
330
51F
102
}
330
51F
100
AcDbScale
 70
     0
300
1:1
140
1.0
141
1.0
290
     1
  0
SCALE
  5
521
102
{ACAD_REACTORS
330
51F
102
}
330
51F
100
AcDbScale
 70
     0
300
1:2
140
1.0
141
2.0
290
     0
  0
SCALE
  5
522
102
{ACAD_REACTORS
330
51F
102
}
330
51F
100
AcDbScale
 70
     0
300
1:4
140
1.0
141
4.0
290
     0
  0
SCALE
  5
523
102
{ACAD_REACTORS
330
51F
102
}
330
51F
100
AcDbScale
 70
     0
300
1:5
140
1.0
141
5.0
290
     0
  0
SCALE
  5
524
102
{ACAD_REACTORS
330
51F
102
}
330
51F
100
AcDbScale
 70
     0
300
1:8
140
1.0
141
8.0
290
     0
  0
SCALE
  5
525
102
{ACAD_REACTORS
330
51F
102
}
330
51F
100
AcDbScale
 70
     0
300
1:10
140
1.0
141
10.0
290
     0
  0
SCALE
  5
526
102
{ACAD_REACTORS
330
51F
102
}
330
51F
100
AcDbScale
 70
     0
300
1:16
140
1.0
141
16.0
290
     0
  0
SCALE
  5
527
102
{ACAD_REACTORS
330
51F
102
}
330
51F
100
AcDbScale
 70
     0
300
1:20
140
1.0
141
20.0
290
     0
  0
SCALE
  5
528
102
{ACAD_REACTORS
330
51F
102
}
330
51F
100
AcDbScale
 70
     0
300
1:30
140
1.0
141
30.0
290
     0
  0
SCALE
  5
529
102
{ACAD_REACTORS
330
51F
102
}
330
51F
100
AcDbScale
 70
     0
300
1:40
140
1.0
141
40.0
290
     0
  0
SCALE
  5
52A
102
{ACAD_REACTORS
330
51F
102
}
330
51F
100
AcDbScale
 70
     0
300
1:50
140
1.0
141
50.0
290
     0
  0
SCALE
  5
52B
102
{ACAD_REACTORS
330
51F
102
}
330
51F
100
AcDbScale
 70
     0
300
1:100
140
1.0
141
100.0
290
     0
  0
SCALE
  5
52C
102
{ACAD_REACTORS
330
51F
102
}
330
51F
100
AcDbScale
 70
     0
300
2:1
140
2.0
141
1.0
290
     0
  0
SCALE
  5
52D
102
{ACAD_REACTORS
330
51F
102
}
330
51F
100
AcDbScale
 70
     0
300
4:1
140
4.0
141
1.0
290
     0
  0
SCALE
  5
52E
102
{ACAD_REACTORS
330
51F
102
}
330
51F
100
AcDbScale
 70
     0
300
8:1
140
8.0
141
1.0
290
     0
  0
SCALE
  5
52F
102
{ACAD_REACTORS
330
51F
102
}
330
51F
100
AcDbScale
 70
     0
300
10:1
140
10.0
141
1.0
290
     0
  0
SCALE
  5
530
102
{ACAD_REACTORS
330
51F
102
}
330
51F
100
AcDbScale
 70
     0
300
100:1
140
100.0
141
1.0
290
     0
  0
ACAD_PROXY_OBJECT
  5
534
102
{ACAD_REACTORS
330
533
102
}
330
533
100
AcDbProxyObject
 90
      499
 91
      514
 95
   524319
 70
     0
162
              1944
311
42134019401D001C801A4018C00D400C0011049002C0020004F002C00200051002C00200053002C00200058002C0020005A005649400F001700104018C0158018401C80080015801A4019401DC014C0194018C01D001A401BC01B8014C01D0018401C801D00124019000F8009400B4009400F001700104018C0158018401C8
311
0080015801A4019401DC014C0194018C01D001A401BC01B8011401B801900124019000F80094008000A0009400F001700104018C0158018401C80080015801A4019401DC014C018C018401B0019400800170019800800088009401CC01B8008800F8009400A4010641004E005300490033003100
161
              1301
310
92CD000000180000000000000000A2040000006000000000000000028800000000000001220233000000180009940000006000000000000000028800000000000000A20400000060000000000000000288100000000000005C8080C0000006000400000064003100000000000000881000000000000008808340C16A22A7D9
310
0FC9F8CAE65A70A583A07E1FE81C635378FA1F8CAE65A70A583A17E7944A7F127A97E9F8
340
11
340
0
340
0
340
16
340
16
340
11
 94
        0
  0
TABLESTYLE
  5
7F
102
{ACAD_REACTORS
330
7E
102
}
102
{ACAD_XDICTIONARY
360
70D
102
}
330
7E
100
AcDbTableStyle
  3
Standard
 70
     0
 71
     0
 40
1.5
 41
1.5
280
     0
281
     0
  7
Standard
140
4.5
170
     2
 62
     0
 63
   257
283
     0
 90
        4
 91
        0
  1

274
    -2
284
     1
 64
     0
275
    -2
285
     1
 65
     0
276
    -2
286
     1
 66
     0
277
    -2
287
     1
 67
     0
278
    -2
288
     1
 68
     0
279
    -2
289
     1
 69
     0
  7
Standard
140
6.0
170
     5
 62
     0
 63
   257
283
     0
 90
        4
 91
        0
  1

274
    -2
284
     1
 64
     0
275
    -2
285
     1
 65
     0
276
    -2
286
     1
 66
     0
277
    -2
287
     1
 67
     0
278
    -2
288
     1
 68
     0
279
    -2
289
     1
 69
     0
  7
Standard
140
4.5
170
     5
 62
     0
 63
   257
283
     0
 90
        4
 91
        0
  1

274
    -2
284
     1
 64
     0
275
    -2
285
     1
 65
     0
276
    -2
286
     1
 66
     0
277
    -2
287
     1
 67
     0
278
    -2
288
     1
 68
     0
279
    -2
289
     1
 69
     0
  0
VISUALSTYLE
  5
50C
102
{ACAD_REACTORS
330
506
102
}
102
{ACAD_XDICTIONARY
360
70F
102
}
330
506
100
AcDbVisualStyle
  2
2dWireframe
 70
     4
177
     2
291
     0
 71
     0
176
     1
 72
     2
176
     1
 73
     0
176
     1
 90
        0
176
     1
 40
0.6
176
     1
 41
30.0
176
     1
 62
     5
 63
     7
176
     1
 74
     1
176
     1
 91
        4
176
     1
 64
     7
176
     1
 65
   257
176
     1
 75
     1
176
     1
175
     1
176
     1
 42
1.0
176
     1
 92
        0
176
     1
 66
   257
176
     1
 43
1.0
176
     1
 76
     1
176
     1
 77
     6
176
     1
 78
     2
176
     1
 67
     7
176
     1
 79
     5
176
     1
170
     0
176
     1
171
     0
176
     1
290
     0
176
     1
 93
        1
176
     1
 44
0.0
176
     1
173
     0
176
     1
  0
VISUALSTYLE
  5
50B
102
{ACAD_REACTORS
330
506
102
}
102
{ACAD_XDICTIONARY
360
711
102
}
330
506
100
AcDbVisualStyle
  2
Basic
 70
     7
177
     2
291
     1
 71
     1
176
     1
 72
     0
176
     1
 73
     1
176
     1
 90
        0
176
     1
 40
0.6
176
     1
 41
30.0
176
     1
 62
     5
 63
     7
176
     1
 74
     0
176
     1
 91
        4
176
     1
 64
     7
176
     1
 65
   257
176
     1
 75
     1
176
     1
175
     1
176
     1
 42
1.0
176
     1
 92
        8
176
     1
 66
     7
176
     1
 43
1.0
176
     1
 76
     1
176
     1
 77
     6
176
     1
 78
     2
176
     1
 67
     7
176
     1
 79
     5
176
     1
170
     0
176
     1
171
     0
176
     1
290
     0
176
     1
 93
        1
176
     1
 44
0.0
176
     1
173
     0
176
     1
  0
VISUALSTYLE
  5
512
102
{ACAD_REACTORS
330
506
102
}
102
{ACAD_XDICTIONARY
360
713
102
}
330
506
100
AcDbVisualStyle
  2
Brighten
 70
    12
177
     2
291
     1
 71
     2
176
     1
 72
     2
176
     1
 73
     0
176
     1
 90
        0
176
     1
 40
0.6
176
     1
 41
30.0
176
     1
 62
     5
 63
     7
176
     1
 74
     1
176
     1
 91
        4
176
     1
 64
     7
176
     1
 65
   257
176
     1
 75
     1
176
     1
175
     1
176
     1
 42
1.0
176
     1
 92
        8
176
     1
 66
     7
176
     1
 43
1.0
176
     1
 76
     1
176
     1
 77
     6
176
     1
 78
     2
176
     1
 67
     7
176
     1
 79
     5
176
     1
170
     0
176
     1
171
     0
176
     1
290
     0
176
     1
 93
        1
176
     1
 44
50.0
176
     1
173
     0
176
     1
  0
VISUALSTYLE
  5
516
102
{ACAD_REACTORS
330
506
102
}
102
{ACAD_XDICTIONARY
360
715
102
}
330
506
100
AcDbVisualStyle
  2
ColorChange
 70
    16
177
     2
291
     1
 71
     2
176
     1
 72
     2
176
     1
 73
     3
176
     1
 90
        0
176
     1
 40
0.6
176
     1
 41
30.0
176
     1
 62
     5
 63
     8
176
     1
 74
     1
176
     1
 91
        4
176
     1
 64
     7
176
     1
 65
   257
176
     1
 75
     1
176
     1
175
     1
176
     1
 42
1.0
176
     1
 92
        8
176
     1
 66
     8
176
     1
 43
1.0
176
     1
 76
     1
176
     1
 77
     6
176
     1
 78
     2
176
     1
 67
     7
176
     1
 79
     5
176
     1
170
     0
176
     1
171
     0
176
     1
290
     0
176
     1
 93
        1
176
     1
 44
0.0
176
     1
173
     0
176
     1
  0
VISUALSTYLE
  5
50F
102
{ACAD_REACTORS
330
506
102
}
102
{ACAD_XDICTIONARY
360
717
102
}
330
506
100
AcDbVisualStyle
  2
Conceptual
 70
     9
177
     2
291
     0
 71
     3
176
     1
 72
     2
176
     1
 73
     0
176
     1
 90
        0
176
     1
 40
0.6
176
     1
 41
30.0
176
     1
 62
     5
 63
     7
176
     1
 74
     2
176
     1
 91
        2
176
     1
 64
     7
176
     1
 65
   257
176
     1
 75
     1
176
     1
175
     1
176
     1
 42
179.0
176
     1
 92
        8
176
     1
 66
     7
176
     1
 43
1.0
176
     1
 76
     1
176
     1
 77
     6
176
     1
 78
     2
176
     1
 67
     7
176
     1
 79
     3
176
     1
170
     0
176
     1
171
     0
176
     1
290
     0
176
     1
 93
        1
176
     1
 44
0.0
176
     1
173
     0
176
     1
  0
VISUALSTYLE
  5
511
102
{ACAD_REACTORS
330
506
102
}
102
{ACAD_XDICTIONARY
360
719
102
}
330
506
100
AcDbVisualStyle
  2
Dim
 70
    11
177
     2
291
     1
 71
     2
176
     1
 72
     2
176
     1
 73
     0
176
     1
 90
        0
176
     1
 40
0.6
176
     1
 41
30.0
176
     1
 62
     5
 63
     7
176
     1
 74
     1
176
     1
 91
        4
176
     1
 64
     7
176
     1
 65
   257
176
     1
 75
     1
176
     1
175
     1
176
     1
 42
1.0
176
     1
 92
        8
176
     1
 66
     7
176
     1
 43
1.0
176
     1
 76
     1
176
     1
 77
     6
176
     1
 78
     2
176
     1
 67
     7
176
     1
 79
     5
176
     1
170
     0
176
     1
171
     0
176
     1
290
     0
176
     1
 93
        1
176
     1
 44
-50.0
176
     1
173
     0
176
     1
  0
VISUALSTYLE
  5
51E
102
{ACAD_REACTORS
330
506
102
}
102
{ACAD_XDICTIONARY
360
71B
102
}
330
506
100
AcDbVisualStyle
  2
EdgeColorOff
 70
    22
177
     2
291
     1
 71
     2
176
     0
 72
     2
176
     0
 73
     0
176
     0
 90
        0
176
     0
 40
0.6
176
     0
 41
30.0
176
     0
 62
     5
 63
     7
176
     0
 74
     1
176
     0
 91
        4
176
     0
 64
     7
176
     0
 65
   257
176
     0
 75
     1
176
     0
175
     1
176
     0
 42
1.0
176
     0
 92
        8
176
     2
 66
     7
176
     0
 43
1.0
176
     0
 76
     1
176
     0
 77
     6
176
     0
 78
     2
176
     0
 67
     7
176
     0
 79
     5
176
     0
170
     0
176
     0
171
     0
176
     0
290
     0
176
     0
 93
        1
176
     0
 44
0.0
176
     0
173
     0
176
     0
  0
VISUALSTYLE
  5
515
102
{ACAD_REACTORS
330
506
102
}
102
{ACAD_XDICTIONARY
360
71D
102
}
330
506
100
AcDbVisualStyle
  2
Facepattern
 70
    15
177
     2
291
     1
 71
     2
176
     1
 72
     2
176
     1
 73
     0
176
     1
 90
        0
176
     1
 40
0.6
176
     1
 41
30.0
176
     1
 62
     5
 63
     7
176
     1
 74
     1
176
     1
 91
        4
176
     1
 64
     7
176
     1
 65
   257
176
     1
 75
     1
176
     1
175
     1
176
     1
 42
1.0
176
     1
 92
        8
176
     1
 66
     7
176
     1
 43
1.0
176
     1
 76
     1
176
     1
 77
     6
176
     1
 78
     2
176
     1
 67
     7
176
     1
 79
     5
176
     1
170
     0
176
     1
171
     0
176
     1
290
     0
176
     1
 93
        1
176
     1
 44
0.0
176
     1
173
     0
176
     1
  0
VISUALSTYLE
  5
507
102
{ACAD_REACTORS
330
506
102
}
102
{ACAD_XDICTIONARY
360
71F
102
}
330
506
100
AcDbVisualStyle
  2
Flat
 70
     0
177
     2
291
     1
 71
     2
176
     1
 72
     1
176
     1
 73
     1
176
     1
 90
        2
176
     1
 40
0.6
176
     1
 41
30.0
176
     1
 62
     5
 63
     7
176
     1
 74
     0
176
     1
 91
        0
176
     1
 64
     7
176
     1
 65
   257
176
     1
 75
     1
176
     1
175
     1
176
     1
 42
1.0
176
     1
 92
        8
176
     1
 66
     7
176
     1
 43
1.0
176
     1
 76
     1
176
     1
 77
     6
176
     1
 78
     2
176
     1
 67
     7
176
     1
 79
     5
176
     1
170
     0
176
     1
171
     0
176
     1
290
     0
176
     1
 93
       13
176
     1
 44
0.0
176
     1
173
     0
176
     1
  0
VISUALSTYLE
  5
508
102
{ACAD_REACTORS
330
506
102
}
102
{ACAD_XDICTIONARY
360
721
102
}
330
506
100
AcDbVisualStyle
  2
FlatWithEdges
 70
     1
177
     2
291
     1
 71
     2
176
     1
 72
     1
176
     1
 73
     1
176
     1
 90
        2
176
     1
 40
0.6
176
     1
 41
30.0
176
     1
 62
     5
 63
     7
176
     1
 74
     1
176
     1
 91
        0
176
     1
 64
     7
176
     1
 65
   257
176
     1
 75
     1
176
     1
175
     1
176
     1
 42
1.0
176
     1
 92
        0
176
     1
 66
   257
176
     1
 43
1.0
176
     1
 76
     1
176
     1
 77
     6
176
     1
 78
     2
176
     1
 67
     7
176
     1
 79
     5
176
     1
170
     0
176
     1
171
     0
176
     1
290
     0
176
     1
 93
       13
176
     1
 44
0.0
176
     1
173
     0
176
     1
  0
VISUALSTYLE
  5
509
102
{ACAD_REACTORS
330
506
102
}
102
{ACAD_XDICTIONARY
360
723
102
}
330
506
100
AcDbVisualStyle
  2
Gouraud
 70
     2
177
     2
291
     1
 71
     2
176
     1
 72
     2
176
     1
 73
     1
176
     1
 90
        2
176
     1
 40
0.6
176
     1
 41
30.0
176
     1
 62
     5
 63
     7
176
     1
 74
     0
176
     1
 91
        0
176
     1
 64
     7
176
     1
 65
   257
176
     1
 75
     1
176
     1
175
     1
176
     1
 42
1.0
176
     1
 92
        0
176
     1
 66
     7
176
     1
 43
1.0
176
     1
 76
     1
176
     1
 77
     6
176
     1
 78
     2
176
     1
 67
     7
176
     1
 79
     5
176
     1
170
     0
176
     1
171
     0
176
     1
290
     0
176
     1
 93
       13
176
     1
 44
0.0
176
     1
173
     0
176
     1
  0
VISUALSTYLE
  5
50A
102
{ACAD_REACTORS
330
506
102
}
102
{ACAD_XDICTIONARY
360
725
102
}
330
506
100
AcDbVisualStyle
  2
GouraudWithEdges
 70
     3
177
     2
291
     1
 71
     2
176
     1
 72
     2
176
     1
 73
     1
176
     1
 90
        2
176
     1
 40
0.6
176
     1
 41
30.0
176
     1
 62
     5
 63
     7
176
     1
 74
     1
176
     1
 91
        0
176
     1
 64
     7
176
     1
 65
   257
176
     1
 75
     1
176
     1
175
     1
176
     1
 42
1.0
176
     1
 92
        0
176
     1
 66
   257
176
     1
 43
1.0
176
     1
 76
     1
176
     1
 77
     6
176
     1
 78
     2
176
     1
 67
     7
176
     1
 79
     5
176
     1
170
     0
176
     1
171
     0
176
     1
290
     0
176
     1
 93
       13
176
     1
 44
0.0
176
     1
173
     0
176
     1
  0
VISUALSTYLE
  5
50E
102
{ACAD_REACTORS
330
506
102
}
102
{ACAD_XDICTIONARY
360
727
102
}
330
506
100
AcDbVisualStyle
  2
Hidden
 70
     6
177
     2
291
     0
 71
     1
176
     1
 72
     2
176
     1
 73
     2
176
     1
 90
        0
176
     1
 40
0.6
176
     1
 41
30.0
176
     1
 62
     5
 63
     7
176
     1
 74
     2
176
     1
 91
        2
176
     1
 64
     7
176
     1
 65
   257
176
     1
 75
     2
176
     1
175
     1
176
     1
 42
40.0
176
     1
 92
        0
176
     1
 66
   257
176
     1
 43
1.0
176
     1
 76
     1
176
     1
 77
     6
176
     1
 78
     2
176
     1
 67
     7
176
     1
 79
     3
176
     1
170
     0
176
     1
171
     0
176
     1
290
     0
176
     1
 93
        1
176
     1
 44
0.0
176
     1
173
     0
176
     1
  0
VISUALSTYLE
  5
51C
102
{ACAD_REACTORS
330
506
102
}
102
{ACAD_XDICTIONARY
360
729
102
}
330
506
100
AcDbVisualStyle
  2
JitterOff
 70
    20
177
     2
291
     1
 71
     2
176
     0
 72
     2
176
     0
 73
     0
176
     0
 90
        0
176
     0
 40
0.6
176
     0
 41
30.0
176
     0
 62
     5
 63
     7
176
     0
 74
     1
176
     0
 91
        4
176
     0
 64
     7
176
     0
 65
   257
176
     0
 75
     1
176
     0
175
     1
176
     0
 42
1.0
176
     0
 92
       10
176
     2
 66
     7
176
     0
 43
1.0
176
     0
 76
     1
176
     0
 77
     6
176
     0
 78
     2
176
     0
 67
     7
176
     0
 79
     5
176
     0
170
     0
176
     0
171
     0
176
     0
290
     0
176
     0
 93
        1
176
     0
 44
0.0
176
     0
173
     0
176
     0
  0
VISUALSTYLE
  5
514
102
{ACAD_REACTORS
330
506
102
}
102
{ACAD_XDICTIONARY
360
72B
102
}
330
506
100
AcDbVisualStyle
  2
Linepattern
 70
    14
177
     2
291
     1
 71
     2
176
     1
 72
     2
176
     1
 73
     0
176
     1
 90
        0
176
     1
 40
0.6
176
     1
 41
30.0
176
     1
 62
     5
 63
     7
176
     1
 74
     1
176
     1
 91
        4
176
     1
 64
     7
176
     1
 65
   257
176
     1
 75
     7
176
     1
175
     7
176
     1
 42
1.0
176
     1
 92
        8
176
     1
 66
     7
176
     1
 43
1.0
176
     1
 76
     1
176
     1
 77
     6
176
     1
 78
     2
176
     1
 67
     7
176
     1
 79
     5
176
     1
170
     0
176
     1
171
     0
176
     1
290
     0
176
     1
 93
        1
176
     1
 44
0.0
176
     1
173
     0
176
     1
  0
VISUALSTYLE
  5
51D
102
{ACAD_REACTORS
330
506
102
}
102
{ACAD_XDICTIONARY
360
72D
102
}
330
506
100
AcDbVisualStyle
  2
OverhangOff
 70
    21
177
     2
291
     1
 71
     2
176
     0
 72
     2
176
     0
 73
     0
176
     0
 90
        0
176
     0
 40
0.6
176
     0
 41
30.0
176
     0
 62
     5
 63
     7
176
     0
 74
     1
176
     0
 91
        4
176
     0
 64
     7
176
     0
 65
   257
176
     0
 75
     1
176
     0
175
     1
176
     0
 42
1.0
176
     0
 92
        9
176
     2
 66
     7
176
     0
 43
1.0
176
     0
 76
     1
176
     0
 77
     6
176
     0
 78
     2
176
     0
 67
     7
176
     0
 79
     5
176
     0
170
     0
176
     0
171
     0
176
     0
290
     0
176
     0
 93
        1
176
     0
 44
0.0
176
     0
173
     0
176
     0
  0
VISUALSTYLE
  5
510
102
{ACAD_REACTORS
330
506
102
}
102
{ACAD_XDICTIONARY
360
72F
102
}
330
506
100
AcDbVisualStyle
  2
Realistic
 70
     8
177
     2
291
     0
 71
     2
176
     1
 72
     2
176
     1
 73
     0
176
     1
 90
        2
176
     1
 40
0.6
176
     1
 41
30.0
176
     1
 62
     5
 63
     7
176
     1
 74
     0
176
     1
 91
        0
176
     1
 64
     7
176
     1
 65
   257
176
     1
 75
     1
176
     1
175
     1
176
     1
 42
1.0
176
     1
 92
        8
176
     1
 66
   257
176
     1
 43
1.0
176
     1
 76
     1
176
     1
 77
     6
176
     1
 78
     2
176
     1
 67
     7
176
     1
 79
     3
176
     1
170
     0
176
     1
171
     0
176
     1
290
     0
176
     1
 93
       13
176
     1
 44
0.0
176
     1
173
     0
176
     1
  0
VISUALSTYLE
  5
51B
102
{ACAD_REACTORS
330
506
102
}
102
{ACAD_XDICTIONARY
360
731
102
}
330
506
100
AcDbVisualStyle
  2
Shaded
 70
    27
177
     2
291
     0
 71
     2
176
     1
 72
     2
176
     1
 73
     1
176
     1
 90
        2
176
     1
 40
0.6
176
     1
 41
30.0
176
     1
 62
     5
 63
     7
176
     1
 74
     0
176
     1
 91
        4
176
     1
 64
     7
176
     1
 65
   257
176
     1
 75
     1
176
     1
175
     1
176
     1
 42
1.0
176
     1
 92
        8
176
     1
 66
   257
176
     1
 43
1.0
176
     1
 76
     1
176
     1
 77
     6
176
     1
 78
     2
176
     1
 67
     8
176
     1
 79
     3
176
     1
170
     0
176
     1
171
     0
176
     1
290
     0
176
     1
 93
        5
176
     1
 44
0.0
176
     1
173
     0
176
     1
  0
VISUALSTYLE
  5
51A
102
{ACAD_REACTORS
330
506
102
}
102
{ACAD_XDICTIONARY
360
733
102
}
330
506
100
AcDbVisualStyle
  2
Shaded with edges
 70
    26
177
     2
291
     0
 71
     2
176
     1
 72
     2
176
     1
 73
     1
176
     1
 90
        2
176
     1
 40
0.6
176
     1
 41
30.0
176
     1
 62
     5
 63
     7
176
     1
 74
     1
176
     1
 91
       10
176
     1
 64
     7
176
     1
 65
   257
176
     1
 75
     2
176
     1
175
     1
176
     1
 42
1.0
176
     1
 92
        8
176
     1
 66
   257
176
     1
 43
1.0
176
     1
 76
     1
176
     1
 77
     6
176
     1
 78
     2
176
     1
 67
     7
176
     1
 79
     3
176
     1
170
     0
176
     1
171
     0
176
     1
290
     0
176
     1
 93
        5
176
     1
 44
0.0
176
     1
173
     0
176
     1
  0
VISUALSTYLE
  5
517
102
{ACAD_REACTORS
330
506
102
}
102
{ACAD_XDICTIONARY
360
735
102
}
330
506
100
AcDbVisualStyle
  2
Shades of Gray
 70
    23
177
     2
291
     0
 71
     2
176
     1
 72
     2
176
     1
 73
     3
176
     1
 90
        0
176
     1
 40
0.6
176
     1
 41
30.0
176
     1
 62
     5
 63
     7
176
     1
 74
     2
176
     1
 91
        2
176
     1
 64
     7
176
     1
 65
     7
176
     1
 75
     1
176
     1
175
     1
176
     1
 42
40.0
176
     1
 92
        8
176
     1
 66
     7
176
     1
 43
1.0
176
     1
 76
     1
176
     1
 77
     6
176
     1
 78
     2
176
     1
 67
     7
176
     1
 79
     3
176
     1
170
     0
176
     1
171
     0
176
     1
290
     0
176
     1
 93
        1
176
     1
 44
0.0
176
     1
173
     0
176
     1
  0
VISUALSTYLE
  5
518
102
{ACAD_REACTORS
330
506
102
}
102
{ACAD_XDICTIONARY
360
737
102
}
330
506
100
AcDbVisualStyle
  2
Sketchy
 70
    24
177
     2
291
     0
 71
     1
176
     1
 72
     2
176
     1
 73
     2
176
     1
 90
        0
176
     1
 40
0.6
176
     1
 41
30.0
176
     1
 62
     5
 63
     7
176
     1
 74
     2
176
     1
 91
        2
176
     1
 64
     7
176
     1
 65
     7
176
     1
 75
     1
176
     1
175
     1
176
     1
 42
40.0
176
     1
 92
       11
176
     1
 66
     7
176
     1
 43
1.0
176
     1
 76
     1
176
     1
 77
     6
176
     1
 78
     2
176
     1
 67
     7
176
     1
 79
     6
176
     1
170
     0
176
     1
171
     0
176
     1
290
     0
176
     1
 93
        1
176
     1
 44
0.0
176
     1
173
     0
176
     1
  0
VISUALSTYLE
  5
513
102
{ACAD_REACTORS
330
506
102
}
102
{ACAD_XDICTIONARY
360
739
102
}
330
506
100
AcDbVisualStyle
  2
Thicken
 70
    13
177
     2
291
     1
 71
     2
176
     1
 72
     2
176
     1
 73
     0
176
     1
 90
        0
176
     1
 40
0.6
176
     1
 41
30.0
176
     1
 62
     5
 63
     7
176
     1
 74
     1
176
     1
 91
        4
176
     1
 64
     7
176
     1
 65
   257
176
     1
 75
     1
176
     1
175
     1
176
     1
 42
1.0
176
     1
 92
       12
176
     1
 66
     7
176
     1
 43
1.0
176
     1
 76
     1
176
     1
 77
     6
176
     1
 78
     2
176
     1
 67
     7
176
     1
 79
     5
176
     1
170
     0
176
     1
171
     0
176
     1
290
     0
176
     1
 93
        1
176
     1
 44
0.0
176
     1
173
     0
176
     1
  0
VISUALSTYLE
  5
50D
102
{ACAD_REACTORS
330
506
102
}
102
{ACAD_XDICTIONARY
360
73B
102
}
330
506
100
AcDbVisualStyle
  2
Wireframe
 70
     5
177
     2
291
     0
 71
     0
176
     1
 72
     2
176
     1
 73
     0
176
     1
 90
        0
176
     1
 40
0.6
176
     1
 41
30.0
176
     1
 62
     5
 63
     7
176
     1
 74
     1
176
     1
 91
        4
176
     1
 64
     7
176
     1
 65
   257
176
     1
 75
     1
176
     1
175
     1
176
     1
 42
1.0
176
     1
 92
        0
176
     1
 66
   257
176
     1
 43
1.0
176
     1
 76
     1
176
     1
 77
     6
176
     1
 78
     2
176
     1
 67
     7
176
     1
 79
     3
176
     1
170
     0
176
     1
171
     0
176
     1
290
     0
176
     1
 93
        1
176
     1
 44
0.0
176
     1
173
     0
176
     1
  0
VISUALSTYLE
  5
519
102
{ACAD_REACTORS
330
506
102
}
102
{ACAD_XDICTIONARY
360
73D
102
}
330
506
100
AcDbVisualStyle
  2
X-Ray
 70
    25
177
     2
291
     0
 71
     2
176
     1
 72
     2
176
     1
 73
     1
176
     1
 90
        1
176
     1
 40
0.5
176
     1
 41
30.0
176
     1
 62
     5
 63
     7
176
     1
 74
     1
176
     1
 91
        0
176
     1
 64
     7
176
     1
 65
   257
176
     1
 75
     1
176
     1
175
     1
176
     1
 42
1.0
176
     1
 92
        8
176
     1
 66
     7
176
     1
 43
1.0
176
     1
 76
     1
176
     1
 77
     6
176
     1
 78
     2
176
     1
 67
     7
176
     1
 79
     3
176
     1
170
     0
176
     1
171
     0
176
     1
290
     0
176
     1
 93
       13
176
     1
 44
0.0
176
     1
173
     0
176
     1
  0
DICTIONARYVAR
  5
57D
102
{ACAD_REACTORS
330
5E
102
}
330
5E
100
DictionaryVariables
280
     0
  1
1:1
  0
DICTIONARYVAR
  5
579
102
{ACAD_REACTORS
330
5E
102
}
330
5E
100
DictionaryVariables
280
     0
  1
Standard
  0
DICTIONARYVAR
  5
84
102
{ACAD_REACTORS
330
5E
102
}
330
5E
100
DictionaryVariables
280
     0
  1
Standard
  0
DICTIONARYVAR
  5
57A
102
{ACAD_REACTORS
330
5E
102
}
330
5E
100
DictionaryVariables
280
     0
  1
Metric50
  0
DICTIONARYVAR
  5
57B
102
{ACAD_REACTORS
330
5E
102
}
330
5E
100
DictionaryVariables
280
     0
  1
Metric50
  0
DICTIONARYVAR
  5
5F
102
{ACAD_REACTORS
330
5E
102
}
330
5E
100
DictionaryVariables
280
     0
  1
2
  0
DICTIONARYVAR
  5
63
102
{ACAD_REACTORS
330
5E
102
}
330
5E
100
DictionaryVariables
280
     0
  1
1
  0
DICTIONARYVAR
  5
5D4
102
{ACAD_REACTORS
330
5E
102
}
330
5E
100
DictionaryVariables
280
     0
  1
0
  0
DICTIONARYVAR
  5
57F
102
{ACAD_REACTORS
330
5E
102
}
330
5E
100
DictionaryVariables
280
     0
  1
1
  0
DICTIONARYVAR
  5
580
102
{ACAD_REACTORS
330
5E
102
}
330
5E
100
DictionaryVariables
280
     0
  1
15
  0
DICTIONARYVAR
  5
57E
102
{ACAD_REACTORS
330
5E
102
}
330
5E
100
DictionaryVariables
280
     0
  1
0
  0
DICTIONARYVAR
  5
57C
102
{ACAD_REACTORS
330
5E
102
}
330
5E
100
DictionaryVariables
280
     0
  1
0
  0
DICTIONARYVAR
  5
4EC
102
{ACAD_REACTORS
330
5E
102
}
330
5E
100
DictionaryVariables
280
     0
  1

  0
DICTIONARYVAR
  5
5D3
102
{ACAD_REACTORS
330
5E
102
}
330
5E
100
DictionaryVariables
280
     0
  1
127
  0
DICTIONARY
  5
595
330
22
100
AcDbDictionary
280
     1
281
     1
  0
DICTIONARY
  5
70B
330
532
100
AcDbDictionary
280
     1
281
     1
  3
ACAD_XREC_ROUNDTRIP
360
70C
  0
DICTIONARY
  5
70D
330
7F
100
AcDbDictionary
280
     1
281
     1
  3
ACAD_ROUNDTRIP_2008_TABLESTYLE_CELLSTYLEMAP
360
70E
  0
DICTIONARY
  5
70F
330
50C
100
AcDbDictionary
280
     1
281
     1
  3
ACAD_XREC_ROUNDTRIP
360
710
  0
DICTIONARY
  5
711
330
50B
100
AcDbDictionary
280
     1
281
     1
  3
ACAD_XREC_ROUNDTRIP
360
712
  0
DICTIONARY
  5
713
330
512
100
AcDbDictionary
280
     1
281
     1
  3
ACAD_XREC_ROUNDTRIP
360
714
  0
DICTIONARY
  5
715
330
516
100
AcDbDictionary
280
     1
281
     1
  3
ACAD_XREC_ROUNDTRIP
360
716
  0
DICTIONARY
  5
717
330
50F
100
AcDbDictionary
280
     1
281
     1
  3
ACAD_XREC_ROUNDTRIP
360
718
  0
DICTIONARY
  5
719
330
511
100
AcDbDictionary
280
     1
281
     1
  3
ACAD_XREC_ROUNDTRIP
360
71A
  0
DICTIONARY
  5
71B
330
51E
100
AcDbDictionary
280
     1
281
     1
  3
ACAD_XREC_ROUNDTRIP
360
71C
  0
DICTIONARY
  5
71D
330
515
100
AcDbDictionary
280
     1
281
     1
  3
ACAD_XREC_ROUNDTRIP
360
71E
  0
DICTIONARY
  5
71F
330
507
100
AcDbDictionary
280
     1
281
     1
  3
ACAD_XREC_ROUNDTRIP
360
720
  0
DICTIONARY
  5
721
330
508
100
AcDbDictionary
280
     1
281
     1
  3
ACAD_XREC_ROUNDTRIP
360
722
  0
DICTIONARY
  5
723
330
509
100
AcDbDictionary
280
     1
281
     1
  3
ACAD_XREC_ROUNDTRIP
360
724
  0
DICTIONARY
  5
725
330
50A
100
AcDbDictionary
280
     1
281
     1
  3
ACAD_XREC_ROUNDTRIP
360
726
  0
DICTIONARY
  5
727
330
50E
100
AcDbDictionary
280
     1
281
     1
  3
ACAD_XREC_ROUNDTRIP
360
728
  0
DICTIONARY
  5
729
330
51C
100
AcDbDictionary
280
     1
281
     1
  3
ACAD_XREC_ROUNDTRIP
360
72A
  0
DICTIONARY
  5
72B
330
514
100
AcDbDictionary
280
     1
281
     1
  3
ACAD_XREC_ROUNDTRIP
360
72C
  0
DICTIONARY
  5
72D
330
51D
100
AcDbDictionary
280
     1
281
     1
  3
ACAD_XREC_ROUNDTRIP
360
72E
  0
DICTIONARY
  5
72F
330
510
100
AcDbDictionary
280
     1
281
     1
  3
ACAD_XREC_ROUNDTRIP
360
730
  0
DICTIONARY
  5
731
330
51B
100
AcDbDictionary
280
     1
281
     1
  3
ACAD_XREC_ROUNDTRIP
360
732
  0
DICTIONARY
  5
733
330
51A
100
AcDbDictionary
280
     1
281
     1
  3
ACAD_XREC_ROUNDTRIP
360
734
  0
DICTIONARY
  5
735
330
517
100
AcDbDictionary
280
     1
281
     1
  3
ACAD_XREC_ROUNDTRIP
360
736
  0
DICTIONARY
  5
737
330
518
100
AcDbDictionary
280
     1
281
     1
  3
ACAD_XREC_ROUNDTRIP
360
738
  0
DICTIONARY
  5
739
330
513
100
AcDbDictionary
280
     1
281
     1
  3
ACAD_XREC_ROUNDTRIP
360
73A
  0
DICTIONARY
  5
73B
330
50D
100
AcDbDictionary
280
     1
281
     1
  3
ACAD_XREC_ROUNDTRIP
360
73C
  0
DICTIONARY
  5
73D
330
519
100
AcDbDictionary
280
     1
281
     1
  3
ACAD_XREC_ROUNDTRIP
360
73E
  0
XRECORD
  5
70C
102
{ACAD_REACTORS
330
70B
102
}
330
70B
100
AcDbXrecord
280
     1
102
ACAD_ROUNDTRIP_2012_MLEADER_STYLE
298
     1
  0
CELLSTYLEMAP
  5
70E
102
{ACAD_REACTORS
330
70D
102
}
330
70D
100
AcDbCellStyleMap
 90
        3
300
CELLSTYLE
  1
TABLEFORMAT_BEGIN
 90
        5
170
     1
 91
        0
 92
    32768
 62
   257
 93
        1
300
CONTENTFORMAT
  1
CONTENTFORMAT_BEGIN
 90
        0
 91
        0
 92
        4
 93
        0
300

 40
0.0
140
1.0
 94
        5
 62
     0
340
11
144
6.0
309
CONTENTFORMAT_END
171
     1
301
MARGIN
  1
CELLMARGIN_BEGIN
 40
1.5
 40
1.5
 40
1.5
 40
1.5
 40
0.18
 40
0.18
309
CELLMARGIN_END
 94
        6
 95
        1
302
GRIDFORMAT
  1
GRIDFORMAT_BEGIN
 90
        0
 91
        1
 62
     0
 92
       -2
340
0
 93
        0
 40
0.045
309
GRIDFORMAT_END
 95
        2
302
GRIDFORMAT
  1
GRIDFORMAT_BEGIN
 90
        0
 91
        1
 62
     0
 92
       -2
340
0
 93
        0
 40
0.045
309
GRIDFORMAT_END
 95
        4
302
GRIDFORMAT
  1
GRIDFORMAT_BEGIN
 90
        0
 91
        1
 62
     0
 92
       -2
340
0
 93
        0
 40
0.045
309
GRIDFORMAT_END
 95
        8
302
GRIDFORMAT
  1
GRIDFORMAT_BEGIN
 90
        0
 91
        1
 62
     0
 92
       -2
340
0
 93
        0
 40
0.045
309
GRIDFORMAT_END
 95
       16
302
GRIDFORMAT
  1
GRIDFORMAT_BEGIN
 90
        0
 91
        1
 62
     0
 92
       -2
340
0
 93
        0
 40
0.045
309
GRIDFORMAT_END
 95
       32
302
GRIDFORMAT
  1
GRIDFORMAT_BEGIN
 90
        0
 91
        1
 62
     0
 92
       -2
340
0
 93
        0
 40
0.045
309
GRIDFORMAT_END
309
TABLEFORMAT_END
  1
CELLSTYLE_BEGIN
 90
        1
 91
        1
300
_TITLE
309
CELLSTYLE_END
300
CELLSTYLE
  1
TABLEFORMAT_BEGIN
 90
        5
170
     1
 91
        0
 92
        0
 62
   257
 93
        1
300
CONTENTFORMAT
  1
CONTENTFORMAT_BEGIN
 90
        0
 91
        0
 92
        4
 93
        0
300

 40
0.0
140
1.0
 94
        5
 62
     0
340
11
144
4.5
309
CONTENTFORMAT_END
171
     1
301
MARGIN
  1
CELLMARGIN_BEGIN
 40
1.5
 40
1.5
 40
1.5
 40
1.5
 40
0.18
 40
0.18
309
CELLMARGIN_END
 94
        6
 95
        1
302
GRIDFORMAT
  1
GRIDFORMAT_BEGIN
 90
        0
 91
        1
 62
     0
 92
       -2
340
0
 93
        0
 40
0.045
309
GRIDFORMAT_END
 95
        2
302
GRIDFORMAT
  1
GRIDFORMAT_BEGIN
 90
        0
 91
        1
 62
     0
 92
       -2
340
0
 93
        0
 40
0.045
309
GRIDFORMAT_END
 95
        4
302
GRIDFORMAT
  1
GRIDFORMAT_BEGIN
 90
        0
 91
        1
 62
     0
 92
       -2
340
0
 93
        0
 40
0.045
309
GRIDFORMAT_END
 95
        8
302
GRIDFORMAT
  1
GRIDFORMAT_BEGIN
 90
        0
 91
        1
 62
     0
 92
       -2
340
0
 93
        0
 40
0.045
309
GRIDFORMAT_END
 95
       16
302
GRIDFORMAT
  1
GRIDFORMAT_BEGIN
 90
        0
 91
        1
 62
     0
 92
       -2
340
0
 93
        0
 40
0.045
309
GRIDFORMAT_END
 95
       32
302
GRIDFORMAT
  1
GRIDFORMAT_BEGIN
 90
        0
 91
        1
 62
     0
 92
       -2
340
0
 93
        0
 40
0.045
309
GRIDFORMAT_END
309
TABLEFORMAT_END
  1
CELLSTYLE_BEGIN
 90
        2
 91
        1
300
_HEADER
309
CELLSTYLE_END
300
CELLSTYLE
  1
TABLEFORMAT_BEGIN
 90
        5
170
     1
 91
        0
 92
        0
 62
   257
 93
        1
300
CONTENTFORMAT
  1
CONTENTFORMAT_BEGIN
 90
        0
 91
        0
 92
        4
 93
        0
300

 40
0.0
140
1.0
 94
        2
 62
     0
340
11
144
4.5
309
CONTENTFORMAT_END
171
     1
301
MARGIN
  1
CELLMARGIN_BEGIN
 40
1.5
 40
1.5
 40
1.5
 40
1.5
 40
0.18
 40
0.18
309
CELLMARGIN_END
 94
        6
 95
        1
302
GRIDFORMAT
  1
GRIDFORMAT_BEGIN
 90
        0
 91
        1
 62
     0
 92
       -2
340
0
 93
        0
 40
0.045
309
GRIDFORMAT_END
 95
        2
302
GRIDFORMAT
  1
GRIDFORMAT_BEGIN
 90
        0
 91
        1
 62
     0
 92
       -2
340
0
 93
        0
 40
0.045
309
GRIDFORMAT_END
 95
        4
302
GRIDFORMAT
  1
GRIDFORMAT_BEGIN
 90
        0
 91
        1
 62
     0
 92
       -2
340
0
 93
        0
 40
0.045
309
GRIDFORMAT_END
 95
        8
302
GRIDFORMAT
  1
GRIDFORMAT_BEGIN
 90
        0
 91
        1
 62
     0
 92
       -2
340
0
 93
        0
 40
0.045
309
GRIDFORMAT_END
 95
       16
302
GRIDFORMAT
  1
GRIDFORMAT_BEGIN
 90
        0
 91
        1
 62
     0
 92
       -2
340
0
 93
        0
 40
0.045
309
GRIDFORMAT_END
 95
       32
302
GRIDFORMAT
  1
GRIDFORMAT_BEGIN
 90
        0
 91
        1
 62
     0
 92
       -2
340
0
 93
        0
 40
0.045
309
GRIDFORMAT_END
309
TABLEFORMAT_END
  1
CELLSTYLE_BEGIN
 90
        3
 91
        2
300
_DATA
309
CELLSTYLE_END
  0
XRECORD
  5
710
102
{ACAD_REACTORS
330
70F
102
}
330
70F
100
AcDbXrecord
280
     1
102
RTVSPost2010Prop28
280
     1
102
RTVSPost2010PropOp28
 70
     1
102
RTVSPost2010Prop29
280
     1
102
RTVSPost2010PropOp29
 70
     1
102
RTVSPost2010Prop30
280
     0
102
RTVSPost2010PropOp30
 70
     1
102
RTVSPost2010Prop31
280
     0
102
RTVSPost2010PropOp31
 70
     1
102
RTVSPost2010Prop32
280
     0
102
RTVSPost2010PropOp32
 70
     1
102
RTVSPost2010Prop33
280
     0
102
RTVSPost2010PropOp33
 70
     1
102
RTVSPost2010Prop34
280
     0
102
RTVSPost2010PropOp34
 70
     1
102
RTVSPost2010Prop35
280
     0
102
RTVSPost2010PropOp35
 70
     1
102
RTVSPost2010Prop36
280
     0
102
RTVSPost2010PropOp36
 70
     1
102
RTVSPost2010Prop37
 90
       50
102
RTVSPost2010PropOp37
 70
     1
102
RTVSPost2010Prop38
140
0.0
102
RTVSPost2010PropOp38
 70
     1
102
RTVSPost2010Prop39
140
1.0
102
RTVSPost2010PropOp39
 70
     1
102
RTVSPost2010Prop40
 90
        0
102
RTVSPost2010PropOp40
 70
     1
102
RTVSPost2010Prop41ColorIndex
 90
       18
102
RTVSPost2010Prop41ColorRGB
 90
        0
102
RTVSPost2010PropOp41
 70
     1
102
RTVSPost2010Prop42
 90
       50
102
RTVSPost2010PropOp42
 70
     1
102
RTVSPost2010Prop43
 90
        3
102
RTVSPost2010PropOp43
 70
     1
102
RTVSPost2010Prop44ColorIndex
 90
        5
102
RTVSPost2010Prop44ColorRGB
 90
      255
102
RTVSPost2010PropOp44
 70
     1
102
RTVSPost2010Prop45
280
     0
102
RTVSPost2010PropOp45
 70
     1
102
RTVSPost2010Prop46
 90
       50
102
RTVSPost2010PropOp46
 70
     1
102
RTVSPost2010Prop47
 90
       50
102
RTVSPost2010PropOp47
 70
     1
102
RTVSPost2010Prop48
 90
       50
102
RTVSPost2010PropOp48
 70
     1
102
RTVSPost2010Prop49
280
     0
102
RTVSPost2010PropOp49
 70
     1
102
RTVSPost2010Prop50
 90
       50
102
RTVSPost2010PropOp50
 70
     1
102
RTVSPost2010Prop51ColorIndex
 90
      256
102
RTVSPost2010Prop51ColorRGB
 90
-16777216
102
RTVSPost2010PropOp51
 70
     0
102
RTVSPost2010Prop52
140
1.0
102
RTVSPost2010PropOp52
 70
     0
102
RTVSPost2010Prop53
 90
        2
102
RTVSPost2010PropOp53
 70
     1
102
RTVSPost2010Prop54
  1
strokes_ogs.tif
102
RTVSPost2010PropOp54
 70
     1
102
RTVSPost2010Prop55
280
     0
102
RTVSPost2010PropOp55
 70
     1
102
RTVSPost2010Prop56
140
1.0
102
RTVSPost2010PropOp56
 70
     1
102
RTVSPost2010Prop57
140
1.0
102
RTVSPost2010PropOp57
 70
     1
  0
XRECORD
  5
712
102
{ACAD_REACTORS
330
711
102
}
330
711
100
AcDbXrecord
280
     1
102
RTVSPost2010Prop28
280
     0
102
RTVSPost2010PropOp28
 70
     1
102
RTVSPost2010Prop29
280
     1
102
RTVSPost2010PropOp29
 70
     1
102
RTVSPost2010Prop30
280
     1
102
RTVSPost2010PropOp30
 70
     1
102
RTVSPost2010Prop31
280
     0
102
RTVSPost2010PropOp31
 70
     1
102
RTVSPost2010Prop32
280
     0
102
RTVSPost2010PropOp32
 70
     1
102
RTVSPost2010Prop33
280
     0
102
RTVSPost2010PropOp33
 70
     1
102
RTVSPost2010Prop34
280
     0
102
RTVSPost2010PropOp34
 70
     1
102
RTVSPost2010Prop35
280
     0
102
RTVSPost2010PropOp35
 70
     1
102
RTVSPost2010Prop36
280
     0
102
RTVSPost2010PropOp36
 70
     1
102
RTVSPost2010Prop37
 90
       50
102
RTVSPost2010PropOp37
 70
     1
102
RTVSPost2010Prop38
140
0.0
102
RTVSPost2010PropOp38
 70
     1
102
RTVSPost2010Prop39
140
1.0
102
RTVSPost2010PropOp39
 70
     1
102
RTVSPost2010Prop40
 90
        0
102
RTVSPost2010PropOp40
 70
     1
102
RTVSPost2010Prop41ColorIndex
 90
       18
102
RTVSPost2010Prop41ColorRGB
 90
        0
102
RTVSPost2010PropOp41
 70
     1
102
RTVSPost2010Prop42
 90
       50
102
RTVSPost2010PropOp42
 70
     1
102
RTVSPost2010Prop43
 90
        3
102
RTVSPost2010PropOp43
 70
     1
102
RTVSPost2010Prop44ColorIndex
 90
        5
102
RTVSPost2010Prop44ColorRGB
 90
      255
102
RTVSPost2010PropOp44
 70
     1
102
RTVSPost2010Prop45
280
     0
102
RTVSPost2010PropOp45
 70
     1
102
RTVSPost2010Prop46
 90
       50
102
RTVSPost2010PropOp46
 70
     1
102
RTVSPost2010Prop47
 90
       50
102
RTVSPost2010PropOp47
 70
     1
102
RTVSPost2010Prop48
 90
       50
102
RTVSPost2010PropOp48
 70
     1
102
RTVSPost2010Prop49
280
     0
102
RTVSPost2010PropOp49
 70
     1
102
RTVSPost2010Prop50
 90
       50
102
RTVSPost2010PropOp50
 70
     1
102
RTVSPost2010Prop51ColorIndex
 90
      256
102
RTVSPost2010Prop51ColorRGB
 90
-16777216
102
RTVSPost2010PropOp51
 70
     0
102
RTVSPost2010Prop52
140
1.0
102
RTVSPost2010PropOp52
 70
     0
102
RTVSPost2010Prop53
 90
        2
102
RTVSPost2010PropOp53
 70
     1
102
RTVSPost2010Prop54
  1
strokes_ogs.tif
102
RTVSPost2010PropOp54
 70
     1
102
RTVSPost2010Prop55
280
     0
102
RTVSPost2010PropOp55
 70
     1
102
RTVSPost2010Prop56
140
1.0
102
RTVSPost2010PropOp56
 70
     1
102
RTVSPost2010Prop57
140
1.0
102
RTVSPost2010PropOp57
 70
     1
  0
XRECORD
  5
714
102
{ACAD_REACTORS
330
713
102
}
330
713
100
AcDbXrecord
280
     1
102
RTVSPost2010Prop28
280
     0
102
RTVSPost2010PropOp28
 70
     1
102
RTVSPost2010Prop29
280
     1
102
RTVSPost2010PropOp29
 70
     1
102
RTVSPost2010Prop30
280
     1
102
RTVSPost2010PropOp30
 70
     1
102
RTVSPost2010Prop31
280
     0
102
RTVSPost2010PropOp31
 70
     1
102
RTVSPost2010Prop32
280
     0
102
RTVSPost2010PropOp32
 70
     1
102
RTVSPost2010Prop33
280
     0
102
RTVSPost2010PropOp33
 70
     1
102
RTVSPost2010Prop34
280
     0
102
RTVSPost2010PropOp34
 70
     1
102
RTVSPost2010Prop35
280
     0
102
RTVSPost2010PropOp35
 70
     1
102
RTVSPost2010Prop36
280
     0
102
RTVSPost2010PropOp36
 70
     1
102
RTVSPost2010Prop37
 90
       50
102
RTVSPost2010PropOp37
 70
     1
102
RTVSPost2010Prop38
140
0.0
102
RTVSPost2010PropOp38
 70
     1
102
RTVSPost2010Prop39
140
1.0
102
RTVSPost2010PropOp39
 70
     1
102
RTVSPost2010Prop40
 90
        0
102
RTVSPost2010PropOp40
 70
     1
102
RTVSPost2010Prop41ColorIndex
 90
       18
102
RTVSPost2010Prop41ColorRGB
 90
        0
102
RTVSPost2010PropOp41
 70
     1
102
RTVSPost2010Prop42
 90
       50
102
RTVSPost2010PropOp42
 70
     1
102
RTVSPost2010Prop43
 90
        3
102
RTVSPost2010PropOp43
 70
     1
102
RTVSPost2010Prop44ColorIndex
 90
        5
102
RTVSPost2010Prop44ColorRGB
 90
      255
102
RTVSPost2010PropOp44
 70
     1
102
RTVSPost2010Prop45
280
     0
102
RTVSPost2010PropOp45
 70
     1
102
RTVSPost2010Prop46
 90
       50
102
RTVSPost2010PropOp46
 70
     1
102
RTVSPost2010Prop47
 90
       50
102
RTVSPost2010PropOp47
 70
     1
102
RTVSPost2010Prop48
 90
       50
102
RTVSPost2010PropOp48
 70
     1
102
RTVSPost2010Prop49
280
     0
102
RTVSPost2010PropOp49
 70
     1
102
RTVSPost2010Prop50
 90
       50
102
RTVSPost2010PropOp50
 70
     1
102
RTVSPost2010Prop51ColorIndex
 90
      256
102
RTVSPost2010Prop51ColorRGB
 90
-16777216
102
RTVSPost2010PropOp51
 70
     0
102
RTVSPost2010Prop52
140
1.0
102
RTVSPost2010PropOp52
 70
     0
102
RTVSPost2010Prop53
 90
        2
102
RTVSPost2010PropOp53
 70
     1
102
RTVSPost2010Prop54
  1
strokes_ogs.tif
102
RTVSPost2010PropOp54
 70
     1
102
RTVSPost2010Prop55
280
     0
102
RTVSPost2010PropOp55
 70
     1
102
RTVSPost2010Prop56
140
1.0
102
RTVSPost2010PropOp56
 70
     1
102
RTVSPost2010Prop57
140
1.0
102
RTVSPost2010PropOp57
 70
     1
  0
XRECORD
  5
716
102
{ACAD_REACTORS
330
715
102
}
330
715
100
AcDbXrecord
280
     1
102
RTVSPost2010Prop28
280
     0
102
RTVSPost2010PropOp28
 70
     1
102
RTVSPost2010Prop29
280
     1
102
RTVSPost2010PropOp29
 70
     1
102
RTVSPost2010Prop30
280
     1
102
RTVSPost2010PropOp30
 70
     1
102
RTVSPost2010Prop31
280
     0
102
RTVSPost2010PropOp31
 70
     1
102
RTVSPost2010Prop32
280
     0
102
RTVSPost2010PropOp32
 70
     1
102
RTVSPost2010Prop33
280
     0
102
RTVSPost2010PropOp33
 70
     1
102
RTVSPost2010Prop34
280
     0
102
RTVSPost2010PropOp34
 70
     1
102
RTVSPost2010Prop35
280
     0
102
RTVSPost2010PropOp35
 70
     1
102
RTVSPost2010Prop36
280
     0
102
RTVSPost2010PropOp36
 70
     1
102
RTVSPost2010Prop37
 90
       50
102
RTVSPost2010PropOp37
 70
     1
102
RTVSPost2010Prop38
140
0.0
102
RTVSPost2010PropOp38
 70
     1
102
RTVSPost2010Prop39
140
1.0
102
RTVSPost2010PropOp39
 70
     1
102
RTVSPost2010Prop40
 90
        0
102
RTVSPost2010PropOp40
 70
     1
102
RTVSPost2010Prop41ColorIndex
 90
       18
102
RTVSPost2010Prop41ColorRGB
 90
        0
102
RTVSPost2010PropOp41
 70
     1
102
RTVSPost2010Prop42
 90
       50
102
RTVSPost2010PropOp42
 70
     1
102
RTVSPost2010Prop43
 90
        3
102
RTVSPost2010PropOp43
 70
     1
102
RTVSPost2010Prop44ColorIndex
 90
        5
102
RTVSPost2010Prop44ColorRGB
 90
      255
102
RTVSPost2010PropOp44
 70
     1
102
RTVSPost2010Prop45
280
     0
102
RTVSPost2010PropOp45
 70
     1
102
RTVSPost2010Prop46
 90
       50
102
RTVSPost2010PropOp46
 70
     1
102
RTVSPost2010Prop47
 90
       50
102
RTVSPost2010PropOp47
 70
     1
102
RTVSPost2010Prop48
 90
       50
102
RTVSPost2010PropOp48
 70
     1
102
RTVSPost2010Prop49
280
     0
102
RTVSPost2010PropOp49
 70
     1
102
RTVSPost2010Prop50
 90
       50
102
RTVSPost2010PropOp50
 70
     1
102
RTVSPost2010Prop51ColorIndex
 90
      256
102
RTVSPost2010Prop51ColorRGB
 90
-16777216
102
RTVSPost2010PropOp51
 70
     0
102
RTVSPost2010Prop52
140
1.0
102
RTVSPost2010PropOp52
 70
     0
102
RTVSPost2010Prop53
 90
        2
102
RTVSPost2010PropOp53
 70
     1
102
RTVSPost2010Prop54
  1
strokes_ogs.tif
102
RTVSPost2010PropOp54
 70
     1
102
RTVSPost2010Prop55
280
     0
102
RTVSPost2010PropOp55
 70
     1
102
RTVSPost2010Prop56
140
1.0
102
RTVSPost2010PropOp56
 70
     1
102
RTVSPost2010Prop57
140
1.0
102
RTVSPost2010PropOp57
 70
     1
  0
XRECORD
  5
718
102
{ACAD_REACTORS
330
717
102
}
330
717
100
AcDbXrecord
280
     1
102
RTVSPost2010Prop28
280
     0
102
RTVSPost2010PropOp28
 70
     1
102
RTVSPost2010Prop29
280
     1
102
RTVSPost2010PropOp29
 70
     1
102
RTVSPost2010Prop30
280
     1
102
RTVSPost2010PropOp30
 70
     1
102
RTVSPost2010Prop31
280
     0
102
RTVSPost2010PropOp31
 70
     1
102
RTVSPost2010Prop32
280
     0
102
RTVSPost2010PropOp32
 70
     1
102
RTVSPost2010Prop33
280
     0
102
RTVSPost2010PropOp33
 70
     1
102
RTVSPost2010Prop34
280
     0
102
RTVSPost2010PropOp34
 70
     1
102
RTVSPost2010Prop35
280
     0
102
RTVSPost2010PropOp35
 70
     1
102
RTVSPost2010Prop36
280
     0
102
RTVSPost2010PropOp36
 70
     1
102
RTVSPost2010Prop37
 90
       50
102
RTVSPost2010PropOp37
 70
     1
102
RTVSPost2010Prop38
140
0.0
102
RTVSPost2010PropOp38
 70
     1
102
RTVSPost2010Prop39
140
1.0
102
RTVSPost2010PropOp39
 70
     1
102
RTVSPost2010Prop40
 90
        0
102
RTVSPost2010PropOp40
 70
     1
102
RTVSPost2010Prop41ColorIndex
 90
       18
102
RTVSPost2010Prop41ColorRGB
 90
        0
102
RTVSPost2010PropOp41
 70
     1
102
RTVSPost2010Prop42
 90
       50
102
RTVSPost2010PropOp42
 70
     1
102
RTVSPost2010Prop43
 90
        3
102
RTVSPost2010PropOp43
 70
     1
102
RTVSPost2010Prop44ColorIndex
 90
        5
102
RTVSPost2010Prop44ColorRGB
 90
      255
102
RTVSPost2010PropOp44
 70
     1
102
RTVSPost2010Prop45
280
     0
102
RTVSPost2010PropOp45
 70
     1
102
RTVSPost2010Prop46
 90
       50
102
RTVSPost2010PropOp46
 70
     1
102
RTVSPost2010Prop47
 90
       50
102
RTVSPost2010PropOp47
 70
     1
102
RTVSPost2010Prop48
 90
       50
102
RTVSPost2010PropOp48
 70
     1
102
RTVSPost2010Prop49
280
     0
102
RTVSPost2010PropOp49
 70
     1
102
RTVSPost2010Prop50
 90
       50
102
RTVSPost2010PropOp50
 70
     1
102
RTVSPost2010Prop51ColorIndex
 90
      256
102
RTVSPost2010Prop51ColorRGB
 90
-16777216
102
RTVSPost2010PropOp51
 70
     0
102
RTVSPost2010Prop52
140
1.0
102
RTVSPost2010PropOp52
 70
     0
102
RTVSPost2010Prop53
 90
        2
102
RTVSPost2010PropOp53
 70
     1
102
RTVSPost2010Prop54
  1
strokes_ogs.tif
102
RTVSPost2010PropOp54
 70
     1
102
RTVSPost2010Prop55
280
     0
102
RTVSPost2010PropOp55
 70
     1
102
RTVSPost2010Prop56
140
1.0
102
RTVSPost2010PropOp56
 70
     1
102
RTVSPost2010Prop57
140
1.0
102
RTVSPost2010PropOp57
 70
     1
  0
XRECORD
  5
71A
102
{ACAD_REACTORS
330
719
102
}
330
719
100
AcDbXrecord
280
     1
102
RTVSPost2010Prop28
280
     0
102
RTVSPost2010PropOp28
 70
     1
102
RTVSPost2010Prop29
280
     1
102
RTVSPost2010PropOp29
 70
     1
102
RTVSPost2010Prop30
280
     1
102
RTVSPost2010PropOp30
 70
     1
102
RTVSPost2010Prop31
280
     0
102
RTVSPost2010PropOp31
 70
     1
102
RTVSPost2010Prop32
280
     0
102
RTVSPost2010PropOp32
 70
     1
102
RTVSPost2010Prop33
280
     0
102
RTVSPost2010PropOp33
 70
     1
102
RTVSPost2010Prop34
280
     0
102
RTVSPost2010PropOp34
 70
     1
102
RTVSPost2010Prop35
280
     0
102
RTVSPost2010PropOp35
 70
     1
102
RTVSPost2010Prop36
280
     0
102
RTVSPost2010PropOp36
 70
     1
102
RTVSPost2010Prop37
 90
       50
102
RTVSPost2010PropOp37
 70
     1
102
RTVSPost2010Prop38
140
0.0
102
RTVSPost2010PropOp38
 70
     1
102
RTVSPost2010Prop39
140
1.0
102
RTVSPost2010PropOp39
 70
     1
102
RTVSPost2010Prop40
 90
        0
102
RTVSPost2010PropOp40
 70
     1
102
RTVSPost2010Prop41ColorIndex
 90
       18
102
RTVSPost2010Prop41ColorRGB
 90
        0
102
RTVSPost2010PropOp41
 70
     1
102
RTVSPost2010Prop42
 90
       50
102
RTVSPost2010PropOp42
 70
     1
102
RTVSPost2010Prop43
 90
        3
102
RTVSPost2010PropOp43
 70
     1
102
RTVSPost2010Prop44ColorIndex
 90
        5
102
RTVSPost2010Prop44ColorRGB
 90
      255
102
RTVSPost2010PropOp44
 70
     1
102
RTVSPost2010Prop45
280
     0
102
RTVSPost2010PropOp45
 70
     1
102
RTVSPost2010Prop46
 90
       50
102
RTVSPost2010PropOp46
 70
     1
102
RTVSPost2010Prop47
 90
       50
102
RTVSPost2010PropOp47
 70
     1
102
RTVSPost2010Prop48
 90
       50
102
RTVSPost2010PropOp48
 70
     1
102
RTVSPost2010Prop49
280
     0
102
RTVSPost2010PropOp49
 70
     1
102
RTVSPost2010Prop50
 90
       50
102
RTVSPost2010PropOp50
 70
     1
102
RTVSPost2010Prop51ColorIndex
 90
      256
102
RTVSPost2010Prop51ColorRGB
 90
-16777216
102
RTVSPost2010PropOp51
 70
     0
102
RTVSPost2010Prop52
140
1.0
102
RTVSPost2010PropOp52
 70
     0
102
RTVSPost2010Prop53
 90
        2
102
RTVSPost2010PropOp53
 70
     1
102
RTVSPost2010Prop54
  1
strokes_ogs.tif
102
RTVSPost2010PropOp54
 70
     1
102
RTVSPost2010Prop55
280
     0
102
RTVSPost2010PropOp55
 70
     1
102
RTVSPost2010Prop56
140
1.0
102
RTVSPost2010PropOp56
 70
     1
102
RTVSPost2010Prop57
140
1.0
102
RTVSPost2010PropOp57
 70
     1
  0
XRECORD
  5
71C
102
{ACAD_REACTORS
330
71B
102
}
330
71B
100
AcDbXrecord
280
     1
102
RTVSPost2010Prop28
280
     0
102
RTVSPost2010PropOp28
 70
     0
102
RTVSPost2010Prop29
280
     1
102
RTVSPost2010PropOp29
 70
     0
102
RTVSPost2010Prop30
280
     1
102
RTVSPost2010PropOp30
 70
     0
102
RTVSPost2010Prop31
280
     0
102
RTVSPost2010PropOp31
 70
     0
102
RTVSPost2010Prop32
280
     0
102
RTVSPost2010PropOp32
 70
     0
102
RTVSPost2010Prop33
280
     0
102
RTVSPost2010PropOp33
 70
     0
102
RTVSPost2010Prop34
280
     0
102
RTVSPost2010PropOp34
 70
     0
102
RTVSPost2010Prop35
280
     0
102
RTVSPost2010PropOp35
 70
     0
102
RTVSPost2010Prop36
280
     0
102
RTVSPost2010PropOp36
 70
     0
102
RTVSPost2010Prop37
 90
       50
102
RTVSPost2010PropOp37
 70
     0
102
RTVSPost2010Prop38
140
0.0
102
RTVSPost2010PropOp38
 70
     0
102
RTVSPost2010Prop39
140
1.0
102
RTVSPost2010PropOp39
 70
     0
102
RTVSPost2010Prop40
 90
        0
102
RTVSPost2010PropOp40
 70
     0
102
RTVSPost2010Prop41ColorIndex
 90
       18
102
RTVSPost2010Prop41ColorRGB
 90
        0
102
RTVSPost2010PropOp41
 70
     0
102
RTVSPost2010Prop42
 90
       50
102
RTVSPost2010PropOp42
 70
     0
102
RTVSPost2010Prop43
 90
        3
102
RTVSPost2010PropOp43
 70
     0
102
RTVSPost2010Prop44ColorIndex
 90
        5
102
RTVSPost2010Prop44ColorRGB
 90
      255
102
RTVSPost2010PropOp44
 70
     0
102
RTVSPost2010Prop45
280
     0
102
RTVSPost2010PropOp45
 70
     0
102
RTVSPost2010Prop46
 90
       50
102
RTVSPost2010PropOp46
 70
     0
102
RTVSPost2010Prop47
 90
       50
102
RTVSPost2010PropOp47
 70
     0
102
RTVSPost2010Prop48
 90
       50
102
RTVSPost2010PropOp48
 70
     0
102
RTVSPost2010Prop49
280
     0
102
RTVSPost2010PropOp49
 70
     0
102
RTVSPost2010Prop50
 90
       50
102
RTVSPost2010PropOp50
 70
     0
102
RTVSPost2010Prop51ColorIndex
 90
      256
102
RTVSPost2010Prop51ColorRGB
 90
-16777216
102
RTVSPost2010PropOp51
 70
     0
102
RTVSPost2010Prop52
140
1.0
102
RTVSPost2010PropOp52
 70
     0
102
RTVSPost2010Prop53
 90
        2
102
RTVSPost2010PropOp53
 70
     0
102
RTVSPost2010Prop54
  1
strokes_ogs.tif
102
RTVSPost2010PropOp54
 70
     0
102
RTVSPost2010Prop55
280
     0
102
RTVSPost2010PropOp55
 70
     0
102
RTVSPost2010Prop56
140
1.0
102
RTVSPost2010PropOp56
 70
     0
102
RTVSPost2010Prop57
140
1.0
102
RTVSPost2010PropOp57
 70
     0
  0
XRECORD
  5
71E
102
{ACAD_REACTORS
330
71D
102
}
330
71D
100
AcDbXrecord
280
     1
102
RTVSPost2010Prop28
280
     0
102
RTVSPost2010PropOp28
 70
     1
102
RTVSPost2010Prop29
280
     1
102
RTVSPost2010PropOp29
 70
     1
102
RTVSPost2010Prop30
280
     1
102
RTVSPost2010PropOp30
 70
     1
102
RTVSPost2010Prop31
280
     0
102
RTVSPost2010PropOp31
 70
     1
102
RTVSPost2010Prop32
280
     0
102
RTVSPost2010PropOp32
 70
     1
102
RTVSPost2010Prop33
280
     0
102
RTVSPost2010PropOp33
 70
     1
102
RTVSPost2010Prop34
280
     0
102
RTVSPost2010PropOp34
 70
     1
102
RTVSPost2010Prop35
280
     0
102
RTVSPost2010PropOp35
 70
     1
102
RTVSPost2010Prop36
280
     0
102
RTVSPost2010PropOp36
 70
     1
102
RTVSPost2010Prop37
 90
       50
102
RTVSPost2010PropOp37
 70
     1
102
RTVSPost2010Prop38
140
0.0
102
RTVSPost2010PropOp38
 70
     1
102
RTVSPost2010Prop39
140
1.0
102
RTVSPost2010PropOp39
 70
     1
102
RTVSPost2010Prop40
 90
        0
102
RTVSPost2010PropOp40
 70
     1
102
RTVSPost2010Prop41ColorIndex
 90
       18
102
RTVSPost2010Prop41ColorRGB
 90
        0
102
RTVSPost2010PropOp41
 70
     1
102
RTVSPost2010Prop42
 90
       50
102
RTVSPost2010PropOp42
 70
     1
102
RTVSPost2010Prop43
 90
        3
102
RTVSPost2010PropOp43
 70
     1
102
RTVSPost2010Prop44ColorIndex
 90
        5
102
RTVSPost2010Prop44ColorRGB
 90
      255
102
RTVSPost2010PropOp44
 70
     1
102
RTVSPost2010Prop45
280
     0
102
RTVSPost2010PropOp45
 70
     1
102
RTVSPost2010Prop46
 90
       50
102
RTVSPost2010PropOp46
 70
     1
102
RTVSPost2010Prop47
 90
       50
102
RTVSPost2010PropOp47
 70
     1
102
RTVSPost2010Prop48
 90
       50
102
RTVSPost2010PropOp48
 70
     1
102
RTVSPost2010Prop49
280
     0
102
RTVSPost2010PropOp49
 70
     1
102
RTVSPost2010Prop50
 90
       50
102
RTVSPost2010PropOp50
 70
     1
102
RTVSPost2010Prop51ColorIndex
 90
      256
102
RTVSPost2010Prop51ColorRGB
 90
-16777216
102
RTVSPost2010PropOp51
 70
     0
102
RTVSPost2010Prop52
140
1.0
102
RTVSPost2010PropOp52
 70
     0
102
RTVSPost2010Prop53
 90
        2
102
RTVSPost2010PropOp53
 70
     1
102
RTVSPost2010Prop54
  1
strokes_ogs.tif
102
RTVSPost2010PropOp54
 70
     1
102
RTVSPost2010Prop55
280
     0
102
RTVSPost2010PropOp55
 70
     1
102
RTVSPost2010Prop56
140
1.0
102
RTVSPost2010PropOp56
 70
     1
102
RTVSPost2010Prop57
140
1.0
102
RTVSPost2010PropOp57
 70
     1
  0
XRECORD
  5
720
102
{ACAD_REACTORS
330
71F
102
}
330
71F
100
AcDbXrecord
280
     1
102
RTVSPost2010Prop28
280
     0
102
RTVSPost2010PropOp28
 70
     1
102
RTVSPost2010Prop29
280
     1
102
RTVSPost2010PropOp29
 70
     1
102
RTVSPost2010Prop30
280
     1
102
RTVSPost2010PropOp30
 70
     1
102
RTVSPost2010Prop31
280
     0
102
RTVSPost2010PropOp31
 70
     1
102
RTVSPost2010Prop32
280
     0
102
RTVSPost2010PropOp32
 70
     1
102
RTVSPost2010Prop33
280
     0
102
RTVSPost2010PropOp33
 70
     1
102
RTVSPost2010Prop34
280
     0
102
RTVSPost2010PropOp34
 70
     1
102
RTVSPost2010Prop35
280
     0
102
RTVSPost2010PropOp35
 70
     1
102
RTVSPost2010Prop36
280
     0
102
RTVSPost2010PropOp36
 70
     1
102
RTVSPost2010Prop37
 90
       50
102
RTVSPost2010PropOp37
 70
     1
102
RTVSPost2010Prop38
140
0.0
102
RTVSPost2010PropOp38
 70
     1
102
RTVSPost2010Prop39
140
1.0
102
RTVSPost2010PropOp39
 70
     1
102
RTVSPost2010Prop40
 90
        0
102
RTVSPost2010PropOp40
 70
     1
102
RTVSPost2010Prop41ColorIndex
 90
       18
102
RTVSPost2010Prop41ColorRGB
 90
        0
102
RTVSPost2010PropOp41
 70
     1
102
RTVSPost2010Prop42
 90
       50
102
RTVSPost2010PropOp42
 70
     1
102
RTVSPost2010Prop43
 90
        3
102
RTVSPost2010PropOp43
 70
     1
102
RTVSPost2010Prop44ColorIndex
 90
        5
102
RTVSPost2010Prop44ColorRGB
 90
      255
102
RTVSPost2010PropOp44
 70
     1
102
RTVSPost2010Prop45
280
     0
102
RTVSPost2010PropOp45
 70
     1
102
RTVSPost2010Prop46
 90
       50
102
RTVSPost2010PropOp46
 70
     1
102
RTVSPost2010Prop47
 90
       50
102
RTVSPost2010PropOp47
 70
     1
102
RTVSPost2010Prop48
 90
       50
102
RTVSPost2010PropOp48
 70
     1
102
RTVSPost2010Prop49
280
     0
102
RTVSPost2010PropOp49
 70
     1
102
RTVSPost2010Prop50
 90
       50
102
RTVSPost2010PropOp50
 70
     1
102
RTVSPost2010Prop51ColorIndex
 90
      256
102
RTVSPost2010Prop51ColorRGB
 90
-16777216
102
RTVSPost2010PropOp51
 70
     0
102
RTVSPost2010Prop52
140
1.0
102
RTVSPost2010PropOp52
 70
     0
102
RTVSPost2010Prop53
 90
        2
102
RTVSPost2010PropOp53
 70
     1
102
RTVSPost2010Prop54
  1
strokes_ogs.tif
102
RTVSPost2010PropOp54
 70
     1
102
RTVSPost2010Prop55
280
     0
102
RTVSPost2010PropOp55
 70
     1
102
RTVSPost2010Prop56
140
1.0
102
RTVSPost2010PropOp56
 70
     1
102
RTVSPost2010Prop57
140
1.0
102
RTVSPost2010PropOp57
 70
     1
  0
XRECORD
  5
722
102
{ACAD_REACTORS
330
721
102
}
330
721
100
AcDbXrecord
280
     1
102
RTVSPost2010Prop28
280
     0
102
RTVSPost2010PropOp28
 70
     1
102
RTVSPost2010Prop29
280
     1
102
RTVSPost2010PropOp29
 70
     1
102
RTVSPost2010Prop30
280
     1
102
RTVSPost2010PropOp30
 70
     1
102
RTVSPost2010Prop31
280
     0
102
RTVSPost2010PropOp31
 70
     1
102
RTVSPost2010Prop32
280
     0
102
RTVSPost2010PropOp32
 70
     1
102
RTVSPost2010Prop33
280
     0
102
RTVSPost2010PropOp33
 70
     1
102
RTVSPost2010Prop34
280
     0
102
RTVSPost2010PropOp34
 70
     1
102
RTVSPost2010Prop35
280
     0
102
RTVSPost2010PropOp35
 70
     1
102
RTVSPost2010Prop36
280
     0
102
RTVSPost2010PropOp36
 70
     1
102
RTVSPost2010Prop37
 90
       50
102
RTVSPost2010PropOp37
 70
     1
102
RTVSPost2010Prop38
140
0.0
102
RTVSPost2010PropOp38
 70
     1
102
RTVSPost2010Prop39
140
1.0
102
RTVSPost2010PropOp39
 70
     1
102
RTVSPost2010Prop40
 90
        0
102
RTVSPost2010PropOp40
 70
     1
102
RTVSPost2010Prop41ColorIndex
 90
       18
102
RTVSPost2010Prop41ColorRGB
 90
        0
102
RTVSPost2010PropOp41
 70
     1
102
RTVSPost2010Prop42
 90
       50
102
RTVSPost2010PropOp42
 70
     1
102
RTVSPost2010Prop43
 90
        3
102
RTVSPost2010PropOp43
 70
     1
102
RTVSPost2010Prop44ColorIndex
 90
        5
102
RTVSPost2010Prop44ColorRGB
 90
      255
102
RTVSPost2010PropOp44
 70
     1
102
RTVSPost2010Prop45
280
     0
102
RTVSPost2010PropOp45
 70
     1
102
RTVSPost2010Prop46
 90
       50
102
RTVSPost2010PropOp46
 70
     1
102
RTVSPost2010Prop47
 90
       50
102
RTVSPost2010PropOp47
 70
     1
102
RTVSPost2010Prop48
 90
       50
102
RTVSPost2010PropOp48
 70
     1
102
RTVSPost2010Prop49
280
     0
102
RTVSPost2010PropOp49
 70
     1
102
RTVSPost2010Prop50
 90
       50
102
RTVSPost2010PropOp50
 70
     1
102
RTVSPost2010Prop51ColorIndex
 90
      256
102
RTVSPost2010Prop51ColorRGB
 90
-16777216
102
RTVSPost2010PropOp51
 70
     0
102
RTVSPost2010Prop52
140
1.0
102
RTVSPost2010PropOp52
 70
     0
102
RTVSPost2010Prop53
 90
        2
102
RTVSPost2010PropOp53
 70
     1
102
RTVSPost2010Prop54
  1
strokes_ogs.tif
102
RTVSPost2010PropOp54
 70
     1
102
RTVSPost2010Prop55
280
     0
102
RTVSPost2010PropOp55
 70
     1
102
RTVSPost2010Prop56
140
1.0
102
RTVSPost2010PropOp56
 70
     1
102
RTVSPost2010Prop57
140
1.0
102
RTVSPost2010PropOp57
 70
     1
  0
XRECORD
  5
724
102
{ACAD_REACTORS
330
723
102
}
330
723
100
AcDbXrecord
280
     1
102
RTVSPost2010Prop28
280
     0
102
RTVSPost2010PropOp28
 70
     1
102
RTVSPost2010Prop29
280
     1
102
RTVSPost2010PropOp29
 70
     1
102
RTVSPost2010Prop30
280
     1
102
RTVSPost2010PropOp30
 70
     1
102
RTVSPost2010Prop31
280
     0
102
RTVSPost2010PropOp31
 70
     1
102
RTVSPost2010Prop32
280
     0
102
RTVSPost2010PropOp32
 70
     1
102
RTVSPost2010Prop33
280
     0
102
RTVSPost2010PropOp33
 70
     1
102
RTVSPost2010Prop34
280
     0
102
RTVSPost2010PropOp34
 70
     1
102
RTVSPost2010Prop35
280
     0
102
RTVSPost2010PropOp35
 70
     1
102
RTVSPost2010Prop36
280
     0
102
RTVSPost2010PropOp36
 70
     1
102
RTVSPost2010Prop37
 90
       50
102
RTVSPost2010PropOp37
 70
     1
102
RTVSPost2010Prop38
140
0.0
102
RTVSPost2010PropOp38
 70
     1
102
RTVSPost2010Prop39
140
1.0
102
RTVSPost2010PropOp39
 70
     1
102
RTVSPost2010Prop40
 90
        0
102
RTVSPost2010PropOp40
 70
     1
102
RTVSPost2010Prop41ColorIndex
 90
       18
102
RTVSPost2010Prop41ColorRGB
 90
        0
102
RTVSPost2010PropOp41
 70
     1
102
RTVSPost2010Prop42
 90
       50
102
RTVSPost2010PropOp42
 70
     1
102
RTVSPost2010Prop43
 90
        3
102
RTVSPost2010PropOp43
 70
     1
102
RTVSPost2010Prop44ColorIndex
 90
        5
102
RTVSPost2010Prop44ColorRGB
 90
      255
102
RTVSPost2010PropOp44
 70
     1
102
RTVSPost2010Prop45
280
     0
102
RTVSPost2010PropOp45
 70
     1
102
RTVSPost2010Prop46
 90
       50
102
RTVSPost2010PropOp46
 70
     1
102
RTVSPost2010Prop47
 90
       50
102
RTVSPost2010PropOp47
 70
     1
102
RTVSPost2010Prop48
 90
       50
102
RTVSPost2010PropOp48
 70
     1
102
RTVSPost2010Prop49
280
     0
102
RTVSPost2010PropOp49
 70
     1
102
RTVSPost2010Prop50
 90
       50
102
RTVSPost2010PropOp50
 70
     1
102
RTVSPost2010Prop51ColorIndex
 90
      256
102
RTVSPost2010Prop51ColorRGB
 90
-16777216
102
RTVSPost2010PropOp51
 70
     0
102
RTVSPost2010Prop52
140
1.0
102
RTVSPost2010PropOp52
 70
     0
102
RTVSPost2010Prop53
 90
        2
102
RTVSPost2010PropOp53
 70
     1
102
RTVSPost2010Prop54
  1
strokes_ogs.tif
102
RTVSPost2010PropOp54
 70
     1
102
RTVSPost2010Prop55
280
     0
102
RTVSPost2010PropOp55
 70
     1
102
RTVSPost2010Prop56
140
1.0
102
RTVSPost2010PropOp56
 70
     1
102
RTVSPost2010Prop57
140
1.0
102
RTVSPost2010PropOp57
 70
     1
  0
XRECORD
  5
726
102
{ACAD_REACTORS
330
725
102
}
330
725
100
AcDbXrecord
280
     1
102
RTVSPost2010Prop28
280
     0
102
RTVSPost2010PropOp28
 70
     1
102
RTVSPost2010Prop29
280
     1
102
RTVSPost2010PropOp29
 70
     1
102
RTVSPost2010Prop30
280
     1
102
RTVSPost2010PropOp30
 70
     1
102
RTVSPost2010Prop31
280
     0
102
RTVSPost2010PropOp31
 70
     1
102
RTVSPost2010Prop32
280
     0
102
RTVSPost2010PropOp32
 70
     1
102
RTVSPost2010Prop33
280
     0
102
RTVSPost2010PropOp33
 70
     1
102
RTVSPost2010Prop34
280
     0
102
RTVSPost2010PropOp34
 70
     1
102
RTVSPost2010Prop35
280
     0
102
RTVSPost2010PropOp35
 70
     1
102
RTVSPost2010Prop36
280
     0
102
RTVSPost2010PropOp36
 70
     1
102
RTVSPost2010Prop37
 90
       50
102
RTVSPost2010PropOp37
 70
     1
102
RTVSPost2010Prop38
140
0.0
102
RTVSPost2010PropOp38
 70
     1
102
RTVSPost2010Prop39
140
1.0
102
RTVSPost2010PropOp39
 70
     1
102
RTVSPost2010Prop40
 90
        0
102
RTVSPost2010PropOp40
 70
     1
102
RTVSPost2010Prop41ColorIndex
 90
       18
102
RTVSPost2010Prop41ColorRGB
 90
        0
102
RTVSPost2010PropOp41
 70
     1
102
RTVSPost2010Prop42
 90
       50
102
RTVSPost2010PropOp42
 70
     1
102
RTVSPost2010Prop43
 90
        3
102
RTVSPost2010PropOp43
 70
     1
102
RTVSPost2010Prop44ColorIndex
 90
        5
102
RTVSPost2010Prop44ColorRGB
 90
      255
102
RTVSPost2010PropOp44
 70
     1
102
RTVSPost2010Prop45
280
     0
102
RTVSPost2010PropOp45
 70
     1
102
RTVSPost2010Prop46
 90
       50
102
RTVSPost2010PropOp46
 70
     1
102
RTVSPost2010Prop47
 90
       50
102
RTVSPost2010PropOp47
 70
     1
102
RTVSPost2010Prop48
 90
       50
102
RTVSPost2010PropOp48
 70
     1
102
RTVSPost2010Prop49
280
     0
102
RTVSPost2010PropOp49
 70
     1
102
RTVSPost2010Prop50
 90
       50
102
RTVSPost2010PropOp50
 70
     1
102
RTVSPost2010Prop51ColorIndex
 90
      256
102
RTVSPost2010Prop51ColorRGB
 90
-16777216
102
RTVSPost2010PropOp51
 70
     0
102
RTVSPost2010Prop52
140
1.0
102
RTVSPost2010PropOp52
 70
     0
102
RTVSPost2010Prop53
 90
        2
102
RTVSPost2010PropOp53
 70
     1
102
RTVSPost2010Prop54
  1
strokes_ogs.tif
102
RTVSPost2010PropOp54
 70
     1
102
RTVSPost2010Prop55
280
     0
102
RTVSPost2010PropOp55
 70
     1
102
RTVSPost2010Prop56
140
1.0
102
RTVSPost2010PropOp56
 70
     1
102
RTVSPost2010Prop57
140
1.0
102
RTVSPost2010PropOp57
 70
     1
  0
XRECORD
  5
728
102
{ACAD_REACTORS
330
727
102
}
330
727
100
AcDbXrecord
280
     1
102
RTVSPost2010Prop28
280
     0
102
RTVSPost2010PropOp28
 70
     1
102
RTVSPost2010Prop29
280
     1
102
RTVSPost2010PropOp29
 70
     1
102
RTVSPost2010Prop30
280
     1
102
RTVSPost2010PropOp30
 70
     1
102
RTVSPost2010Prop31
280
     0
102
RTVSPost2010PropOp31
 70
     1
102
RTVSPost2010Prop32
280
     0
102
RTVSPost2010PropOp32
 70
     1
102
RTVSPost2010Prop33
280
     0
102
RTVSPost2010PropOp33
 70
     1
102
RTVSPost2010Prop34
280
     0
102
RTVSPost2010PropOp34
 70
     1
102
RTVSPost2010Prop35
280
     0
102
RTVSPost2010PropOp35
 70
     1
102
RTVSPost2010Prop36
280
     0
102
RTVSPost2010PropOp36
 70
     1
102
RTVSPost2010Prop37
 90
       50
102
RTVSPost2010PropOp37
 70
     1
102
RTVSPost2010Prop38
140
0.0
102
RTVSPost2010PropOp38
 70
     1
102
RTVSPost2010Prop39
140
1.0
102
RTVSPost2010PropOp39
 70
     1
102
RTVSPost2010Prop40
 90
        0
102
RTVSPost2010PropOp40
 70
     1
102
RTVSPost2010Prop41ColorIndex
 90
       18
102
RTVSPost2010Prop41ColorRGB
 90
        0
102
RTVSPost2010PropOp41
 70
     1
102
RTVSPost2010Prop42
 90
       50
102
RTVSPost2010PropOp42
 70
     1
102
RTVSPost2010Prop43
 90
        3
102
RTVSPost2010PropOp43
 70
     1
102
RTVSPost2010Prop44ColorIndex
 90
        5
102
RTVSPost2010Prop44ColorRGB
 90
      255
102
RTVSPost2010PropOp44
 70
     1
102
RTVSPost2010Prop45
280
     0
102
RTVSPost2010PropOp45
 70
     1
102
RTVSPost2010Prop46
 90
       50
102
RTVSPost2010PropOp46
 70
     1
102
RTVSPost2010Prop47
 90
       50
102
RTVSPost2010PropOp47
 70
     1
102
RTVSPost2010Prop48
 90
       50
102
RTVSPost2010PropOp48
 70
     1
102
RTVSPost2010Prop49
280
     0
102
RTVSPost2010PropOp49
 70
     1
102
RTVSPost2010Prop50
 90
       50
102
RTVSPost2010PropOp50
 70
     1
102
RTVSPost2010Prop51ColorIndex
 90
      256
102
RTVSPost2010Prop51ColorRGB
 90
-16777216
102
RTVSPost2010PropOp51
 70
     0
102
RTVSPost2010Prop52
140
1.0
102
RTVSPost2010PropOp52
 70
     0
102
RTVSPost2010Prop53
 90
        2
102
RTVSPost2010PropOp53
 70
     1
102
RTVSPost2010Prop54
  1
strokes_ogs.tif
102
RTVSPost2010PropOp54
 70
     1
102
RTVSPost2010Prop55
280
     0
102
RTVSPost2010PropOp55
 70
     1
102
RTVSPost2010Prop56
140
1.0
102
RTVSPost2010PropOp56
 70
     1
102
RTVSPost2010Prop57
140
1.0
102
RTVSPost2010PropOp57
 70
     1
  0
XRECORD
  5
72A
102
{ACAD_REACTORS
330
729
102
}
330
729
100
AcDbXrecord
280
     1
102
RTVSPost2010Prop28
280
     0
102
RTVSPost2010PropOp28
 70
     0
102
RTVSPost2010Prop29
280
     1
102
RTVSPost2010PropOp29
 70
     0
102
RTVSPost2010Prop30
280
     1
102
RTVSPost2010PropOp30
 70
     0
102
RTVSPost2010Prop31
280
     0
102
RTVSPost2010PropOp31
 70
     0
102
RTVSPost2010Prop32
280
     0
102
RTVSPost2010PropOp32
 70
     0
102
RTVSPost2010Prop33
280
     0
102
RTVSPost2010PropOp33
 70
     0
102
RTVSPost2010Prop34
280
     0
102
RTVSPost2010PropOp34
 70
     0
102
RTVSPost2010Prop35
280
     0
102
RTVSPost2010PropOp35
 70
     0
102
RTVSPost2010Prop36
280
     0
102
RTVSPost2010PropOp36
 70
     0
102
RTVSPost2010Prop37
 90
       50
102
RTVSPost2010PropOp37
 70
     0
102
RTVSPost2010Prop38
140
0.0
102
RTVSPost2010PropOp38
 70
     0
102
RTVSPost2010Prop39
140
1.0
102
RTVSPost2010PropOp39
 70
     0
102
RTVSPost2010Prop40
 90
        0
102
RTVSPost2010PropOp40
 70
     0
102
RTVSPost2010Prop41ColorIndex
 90
       18
102
RTVSPost2010Prop41ColorRGB
 90
        0
102
RTVSPost2010PropOp41
 70
     0
102
RTVSPost2010Prop42
 90
       50
102
RTVSPost2010PropOp42
 70
     0
102
RTVSPost2010Prop43
 90
        3
102
RTVSPost2010PropOp43
 70
     0
102
RTVSPost2010Prop44ColorIndex
 90
        5
102
RTVSPost2010Prop44ColorRGB
 90
      255
102
RTVSPost2010PropOp44
 70
     0
102
RTVSPost2010Prop45
280
     0
102
RTVSPost2010PropOp45
 70
     0
102
RTVSPost2010Prop46
 90
       50
102
RTVSPost2010PropOp46
 70
     0
102
RTVSPost2010Prop47
 90
       50
102
RTVSPost2010PropOp47
 70
     0
102
RTVSPost2010Prop48
 90
       50
102
RTVSPost2010PropOp48
 70
     0
102
RTVSPost2010Prop49
280
     0
102
RTVSPost2010PropOp49
 70
     0
102
RTVSPost2010Prop50
 90
       50
102
RTVSPost2010PropOp50
 70
     0
102
RTVSPost2010Prop51ColorIndex
 90
      256
102
RTVSPost2010Prop51ColorRGB
 90
-16777216
102
RTVSPost2010PropOp51
 70
     0
102
RTVSPost2010Prop52
140
1.0
102
RTVSPost2010PropOp52
 70
     0
102
RTVSPost2010Prop53
 90
        2
102
RTVSPost2010PropOp53
 70
     0
102
RTVSPost2010Prop54
  1
strokes_ogs.tif
102
RTVSPost2010PropOp54
 70
     0
102
RTVSPost2010Prop55
280
     0
102
RTVSPost2010PropOp55
 70
     0
102
RTVSPost2010Prop56
140
1.0
102
RTVSPost2010PropOp56
 70
     0
102
RTVSPost2010Prop57
140
1.0
102
RTVSPost2010PropOp57
 70
     0
  0
XRECORD
  5
72C
102
{ACAD_REACTORS
330
72B
102
}
330
72B
100
AcDbXrecord
280
     1
102
RTVSPost2010Prop28
280
     0
102
RTVSPost2010PropOp28
 70
     1
102
RTVSPost2010Prop29
280
     1
102
RTVSPost2010PropOp29
 70
     1
102
RTVSPost2010Prop30
280
     1
102
RTVSPost2010PropOp30
 70
     1
102
RTVSPost2010Prop31
280
     0
102
RTVSPost2010PropOp31
 70
     1
102
RTVSPost2010Prop32
280
     0
102
RTVSPost2010PropOp32
 70
     1
102
RTVSPost2010Prop33
280
     0
102
RTVSPost2010PropOp33
 70
     1
102
RTVSPost2010Prop34
280
     0
102
RTVSPost2010PropOp34
 70
     1
102
RTVSPost2010Prop35
280
     0
102
RTVSPost2010PropOp35
 70
     1
102
RTVSPost2010Prop36
280
     0
102
RTVSPost2010PropOp36
 70
     1
102
RTVSPost2010Prop37
 90
       50
102
RTVSPost2010PropOp37
 70
     1
102
RTVSPost2010Prop38
140
0.0
102
RTVSPost2010PropOp38
 70
     1
102
RTVSPost2010Prop39
140
1.0
102
RTVSPost2010PropOp39
 70
     1
102
RTVSPost2010Prop40
 90
        0
102
RTVSPost2010PropOp40
 70
     1
102
RTVSPost2010Prop41ColorIndex
 90
       18
102
RTVSPost2010Prop41ColorRGB
 90
        0
102
RTVSPost2010PropOp41
 70
     1
102
RTVSPost2010Prop42
 90
       50
102
RTVSPost2010PropOp42
 70
     1
102
RTVSPost2010Prop43
 90
        3
102
RTVSPost2010PropOp43
 70
     1
102
RTVSPost2010Prop44ColorIndex
 90
        5
102
RTVSPost2010Prop44ColorRGB
 90
      255
102
RTVSPost2010PropOp44
 70
     1
102
RTVSPost2010Prop45
280
     0
102
RTVSPost2010PropOp45
 70
     1
102
RTVSPost2010Prop46
 90
       50
102
RTVSPost2010PropOp46
 70
     1
102
RTVSPost2010Prop47
 90
       50
102
RTVSPost2010PropOp47
 70
     1
102
RTVSPost2010Prop48
 90
       50
102
RTVSPost2010PropOp48
 70
     1
102
RTVSPost2010Prop49
280
     0
102
RTVSPost2010PropOp49
 70
     1
102
RTVSPost2010Prop50
 90
       50
102
RTVSPost2010PropOp50
 70
     1
102
RTVSPost2010Prop51ColorIndex
 90
      256
102
RTVSPost2010Prop51ColorRGB
 90
-16777216
102
RTVSPost2010PropOp51
 70
     0
102
RTVSPost2010Prop52
140
1.0
102
RTVSPost2010PropOp52
 70
     0
102
RTVSPost2010Prop53
 90
        2
102
RTVSPost2010PropOp53
 70
     1
102
RTVSPost2010Prop54
  1
strokes_ogs.tif
102
RTVSPost2010PropOp54
 70
     1
102
RTVSPost2010Prop55
280
     0
102
RTVSPost2010PropOp55
 70
     1
102
RTVSPost2010Prop56
140
1.0
102
RTVSPost2010PropOp56
 70
     1
102
RTVSPost2010Prop57
140
1.0
102
RTVSPost2010PropOp57
 70
     1
  0
XRECORD
  5
72E
102
{ACAD_REACTORS
330
72D
102
}
330
72D
100
AcDbXrecord
280
     1
102
RTVSPost2010Prop28
280
     0
102
RTVSPost2010PropOp28
 70
     0
102
RTVSPost2010Prop29
280
     1
102
RTVSPost2010PropOp29
 70
     0
102
RTVSPost2010Prop30
280
     1
102
RTVSPost2010PropOp30
 70
     0
102
RTVSPost2010Prop31
280
     0
102
RTVSPost2010PropOp31
 70
     0
102
RTVSPost2010Prop32
280
     0
102
RTVSPost2010PropOp32
 70
     0
102
RTVSPost2010Prop33
280
     0
102
RTVSPost2010PropOp33
 70
     0
102
RTVSPost2010Prop34
280
     0
102
RTVSPost2010PropOp34
 70
     0
102
RTVSPost2010Prop35
280
     0
102
RTVSPost2010PropOp35
 70
     0
102
RTVSPost2010Prop36
280
     0
102
RTVSPost2010PropOp36
 70
     0
102
RTVSPost2010Prop37
 90
       50
102
RTVSPost2010PropOp37
 70
     0
102
RTVSPost2010Prop38
140
0.0
102
RTVSPost2010PropOp38
 70
     0
102
RTVSPost2010Prop39
140
1.0
102
RTVSPost2010PropOp39
 70
     0
102
RTVSPost2010Prop40
 90
        0
102
RTVSPost2010PropOp40
 70
     0
102
RTVSPost2010Prop41ColorIndex
 90
       18
102
RTVSPost2010Prop41ColorRGB
 90
        0
102
RTVSPost2010PropOp41
 70
     0
102
RTVSPost2010Prop42
 90
       50
102
RTVSPost2010PropOp42
 70
     0
102
RTVSPost2010Prop43
 90
        3
102
RTVSPost2010PropOp43
 70
     0
102
RTVSPost2010Prop44ColorIndex
 90
        5
102
RTVSPost2010Prop44ColorRGB
 90
      255
102
RTVSPost2010PropOp44
 70
     0
102
RTVSPost2010Prop45
280
     0
102
RTVSPost2010PropOp45
 70
     0
102
RTVSPost2010Prop46
 90
       50
102
RTVSPost2010PropOp46
 70
     0
102
RTVSPost2010Prop47
 90
       50
102
RTVSPost2010PropOp47
 70
     0
102
RTVSPost2010Prop48
 90
       50
102
RTVSPost2010PropOp48
 70
     0
102
RTVSPost2010Prop49
280
     0
102
RTVSPost2010PropOp49
 70
     0
102
RTVSPost2010Prop50
 90
       50
102
RTVSPost2010PropOp50
 70
     0
102
RTVSPost2010Prop51ColorIndex
 90
      256
102
RTVSPost2010Prop51ColorRGB
 90
-16777216
102
RTVSPost2010PropOp51
 70
     0
102
RTVSPost2010Prop52
140
1.0
102
RTVSPost2010PropOp52
 70
     0
102
RTVSPost2010Prop53
 90
        2
102
RTVSPost2010PropOp53
 70
     0
102
RTVSPost2010Prop54
  1
strokes_ogs.tif
102
RTVSPost2010PropOp54
 70
     0
102
RTVSPost2010Prop55
280
     0
102
RTVSPost2010PropOp55
 70
     0
102
RTVSPost2010Prop56
140
1.0
102
RTVSPost2010PropOp56
 70
     0
102
RTVSPost2010Prop57
140
1.0
102
RTVSPost2010PropOp57
 70
     0
  0
XRECORD
  5
730
102
{ACAD_REACTORS
330
72F
102
}
330
72F
100
AcDbXrecord
280
     1
102
RTVSPost2010Prop28
280
     0
102
RTVSPost2010PropOp28
 70
     1
102
RTVSPost2010Prop29
280
     1
102
RTVSPost2010PropOp29
 70
     1
102
RTVSPost2010Prop30
280
     1
102
RTVSPost2010PropOp30
 70
     1
102
RTVSPost2010Prop31
280
     0
102
RTVSPost2010PropOp31
 70
     1
102
RTVSPost2010Prop32
280
     0
102
RTVSPost2010PropOp32
 70
     1
102
RTVSPost2010Prop33
280
     0
102
RTVSPost2010PropOp33
 70
     1
102
RTVSPost2010Prop34
280
     0
102
RTVSPost2010PropOp34
 70
     1
102
RTVSPost2010Prop35
280
     0
102
RTVSPost2010PropOp35
 70
     1
102
RTVSPost2010Prop36
280
     0
102
RTVSPost2010PropOp36
 70
     1
102
RTVSPost2010Prop37
 90
       50
102
RTVSPost2010PropOp37
 70
     1
102
RTVSPost2010Prop38
140
0.0
102
RTVSPost2010PropOp38
 70
     1
102
RTVSPost2010Prop39
140
1.0
102
RTVSPost2010PropOp39
 70
     1
102
RTVSPost2010Prop40
 90
        0
102
RTVSPost2010PropOp40
 70
     1
102
RTVSPost2010Prop41ColorIndex
 90
       18
102
RTVSPost2010Prop41ColorRGB
 90
        0
102
RTVSPost2010PropOp41
 70
     1
102
RTVSPost2010Prop42
 90
       50
102
RTVSPost2010PropOp42
 70
     1
102
RTVSPost2010Prop43
 90
        3
102
RTVSPost2010PropOp43
 70
     1
102
RTVSPost2010Prop44ColorIndex
 90
        5
102
RTVSPost2010Prop44ColorRGB
 90
      255
102
RTVSPost2010PropOp44
 70
     1
102
RTVSPost2010Prop45
280
     0
102
RTVSPost2010PropOp45
 70
     1
102
RTVSPost2010Prop46
 90
       50
102
RTVSPost2010PropOp46
 70
     1
102
RTVSPost2010Prop47
 90
       50
102
RTVSPost2010PropOp47
 70
     1
102
RTVSPost2010Prop48
 90
       50
102
RTVSPost2010PropOp48
 70
     1
102
RTVSPost2010Prop49
280
     0
102
RTVSPost2010PropOp49
 70
     1
102
RTVSPost2010Prop50
 90
       50
102
RTVSPost2010PropOp50
 70
     1
102
RTVSPost2010Prop51ColorIndex
 90
      256
102
RTVSPost2010Prop51ColorRGB
 90
-16777216
102
RTVSPost2010PropOp51
 70
     0
102
RTVSPost2010Prop52
140
1.0
102
RTVSPost2010PropOp52
 70
     0
102
RTVSPost2010Prop53
 90
        2
102
RTVSPost2010PropOp53
 70
     1
102
RTVSPost2010Prop54
  1
strokes_ogs.tif
102
RTVSPost2010PropOp54
 70
     1
102
RTVSPost2010Prop55
280
     0
102
RTVSPost2010PropOp55
 70
     1
102
RTVSPost2010Prop56
140
1.0
102
RTVSPost2010PropOp56
 70
     1
102
RTVSPost2010Prop57
140
1.0
102
RTVSPost2010PropOp57
 70
     1
  0
XRECORD
  5
732
102
{ACAD_REACTORS
330
731
102
}
330
731
100
AcDbXrecord
280
     1
102
RTVSPost2010Prop28
280
     0
102
RTVSPost2010PropOp28
 70
     1
102
RTVSPost2010Prop29
280
     1
102
RTVSPost2010PropOp29
 70
     1
102
RTVSPost2010Prop30
280
     1
102
RTVSPost2010PropOp30
 70
     1
102
RTVSPost2010Prop31
280
     0
102
RTVSPost2010PropOp31
 70
     1
102
RTVSPost2010Prop32
280
     0
102
RTVSPost2010PropOp32
 70
     1
102
RTVSPost2010Prop33
280
     0
102
RTVSPost2010PropOp33
 70
     1
102
RTVSPost2010Prop34
280
     0
102
RTVSPost2010PropOp34
 70
     1
102
RTVSPost2010Prop35
280
     0
102
RTVSPost2010PropOp35
 70
     1
102
RTVSPost2010Prop36
280
     0
102
RTVSPost2010PropOp36
 70
     1
102
RTVSPost2010Prop37
 90
       50
102
RTVSPost2010PropOp37
 70
     1
102
RTVSPost2010Prop38
140
0.0
102
RTVSPost2010PropOp38
 70
     1
102
RTVSPost2010Prop39
140
1.0
102
RTVSPost2010PropOp39
 70
     1
102
RTVSPost2010Prop40
 90
        0
102
RTVSPost2010PropOp40
 70
     1
102
RTVSPost2010Prop41ColorIndex
 90
       18
102
RTVSPost2010Prop41ColorRGB
 90
        0
102
RTVSPost2010PropOp41
 70
     1
102
RTVSPost2010Prop42
 90
       50
102
RTVSPost2010PropOp42
 70
     1
102
RTVSPost2010Prop43
 90
        3
102
RTVSPost2010PropOp43
 70
     1
102
RTVSPost2010Prop44ColorIndex
 90
        5
102
RTVSPost2010Prop44ColorRGB
 90
      255
102
RTVSPost2010PropOp44
 70
     1
102
RTVSPost2010Prop45
280
     0
102
RTVSPost2010PropOp45
 70
     1
102
RTVSPost2010Prop46
 90
       50
102
RTVSPost2010PropOp46
 70
     1
102
RTVSPost2010Prop47
 90
       50
102
RTVSPost2010PropOp47
 70
     1
102
RTVSPost2010Prop48
 90
       50
102
RTVSPost2010PropOp48
 70
     1
102
RTVSPost2010Prop49
280
     0
102
RTVSPost2010PropOp49
 70
     1
102
RTVSPost2010Prop50
 90
       50
102
RTVSPost2010PropOp50
 70
     1
102
RTVSPost2010Prop51ColorIndex
 90
      256
102
RTVSPost2010Prop51ColorRGB
 90
-16777216
102
RTVSPost2010PropOp51
 70
     0
102
RTVSPost2010Prop52
140
1.0
102
RTVSPost2010PropOp52
 70
     0
102
RTVSPost2010Prop53
 90
        2
102
RTVSPost2010PropOp53
 70
     1
102
RTVSPost2010Prop54
  1
strokes_ogs.tif
102
RTVSPost2010PropOp54
 70
     1
102
RTVSPost2010Prop55
280
     0
102
RTVSPost2010PropOp55
 70
     1
102
RTVSPost2010Prop56
140
1.0
102
RTVSPost2010PropOp56
 70
     1
102
RTVSPost2010Prop57
140
1.0
102
RTVSPost2010PropOp57
 70
     1
  0
XRECORD
  5
734
102
{ACAD_REACTORS
330
733
102
}
330
733
100
AcDbXrecord
280
     1
102
RTVSPost2010Prop28
280
     0
102
RTVSPost2010PropOp28
 70
     1
102
RTVSPost2010Prop29
280
     1
102
RTVSPost2010PropOp29
 70
     1
102
RTVSPost2010Prop30
280
     1
102
RTVSPost2010PropOp30
 70
     1
102
RTVSPost2010Prop31
280
     0
102
RTVSPost2010PropOp31
 70
     1
102
RTVSPost2010Prop32
280
     0
102
RTVSPost2010PropOp32
 70
     1
102
RTVSPost2010Prop33
280
     0
102
RTVSPost2010PropOp33
 70
     1
102
RTVSPost2010Prop34
280
     0
102
RTVSPost2010PropOp34
 70
     1
102
RTVSPost2010Prop35
280
     0
102
RTVSPost2010PropOp35
 70
     1
102
RTVSPost2010Prop36
280
     0
102
RTVSPost2010PropOp36
 70
     1
102
RTVSPost2010Prop37
 90
       50
102
RTVSPost2010PropOp37
 70
     1
102
RTVSPost2010Prop38
140
0.0
102
RTVSPost2010PropOp38
 70
     1
102
RTVSPost2010Prop39
140
1.0
102
RTVSPost2010PropOp39
 70
     1
102
RTVSPost2010Prop40
 90
        0
102
RTVSPost2010PropOp40
 70
     1
102
RTVSPost2010Prop41ColorIndex
 90
       18
102
RTVSPost2010Prop41ColorRGB
 90
        0
102
RTVSPost2010PropOp41
 70
     1
102
RTVSPost2010Prop42
 90
       50
102
RTVSPost2010PropOp42
 70
     1
102
RTVSPost2010Prop43
 90
        3
102
RTVSPost2010PropOp43
 70
     1
102
RTVSPost2010Prop44ColorIndex
 90
        5
102
RTVSPost2010Prop44ColorRGB
 90
      255
102
RTVSPost2010PropOp44
 70
     1
102
RTVSPost2010Prop45
280
     0
102
RTVSPost2010PropOp45
 70
     1
102
RTVSPost2010Prop46
 90
       50
102
RTVSPost2010PropOp46
 70
     1
102
RTVSPost2010Prop47
 90
       50
102
RTVSPost2010PropOp47
 70
     1
102
RTVSPost2010Prop48
 90
       50
102
RTVSPost2010PropOp48
 70
     1
102
RTVSPost2010Prop49
280
     0
102
RTVSPost2010PropOp49
 70
     1
102
RTVSPost2010Prop50
 90
       50
102
RTVSPost2010PropOp50
 70
     1
102
RTVSPost2010Prop51ColorIndex
 90
      256
102
RTVSPost2010Prop51ColorRGB
 90
-16777216
102
RTVSPost2010PropOp51
 70
     0
102
RTVSPost2010Prop52
140
1.0
102
RTVSPost2010PropOp52
 70
     0
102
RTVSPost2010Prop53
 90
        2
102
RTVSPost2010PropOp53
 70
     1
102
RTVSPost2010Prop54
  1
strokes_ogs.tif
102
RTVSPost2010PropOp54
 70
     1
102
RTVSPost2010Prop55
280
     0
102
RTVSPost2010PropOp55
 70
     1
102
RTVSPost2010Prop56
140
1.0
102
RTVSPost2010PropOp56
 70
     1
102
RTVSPost2010Prop57
140
1.0
102
RTVSPost2010PropOp57
 70
     1
  0
XRECORD
  5
736
102
{ACAD_REACTORS
330
735
102
}
330
735
100
AcDbXrecord
280
     1
102
RTVSPost2010Prop28
280
     0
102
RTVSPost2010PropOp28
 70
     1
102
RTVSPost2010Prop29
280
     1
102
RTVSPost2010PropOp29
 70
     1
102
RTVSPost2010Prop30
280
     1
102
RTVSPost2010PropOp30
 70
     1
102
RTVSPost2010Prop31
280
     0
102
RTVSPost2010PropOp31
 70
     1
102
RTVSPost2010Prop32
280
     0
102
RTVSPost2010PropOp32
 70
     1
102
RTVSPost2010Prop33
280
     0
102
RTVSPost2010PropOp33
 70
     1
102
RTVSPost2010Prop34
280
     0
102
RTVSPost2010PropOp34
 70
     1
102
RTVSPost2010Prop35
280
     0
102
RTVSPost2010PropOp35
 70
     1
102
RTVSPost2010Prop36
280
     0
102
RTVSPost2010PropOp36
 70
     1
102
RTVSPost2010Prop37
 90
       50
102
RTVSPost2010PropOp37
 70
     1
102
RTVSPost2010Prop38
140
0.0
102
RTVSPost2010PropOp38
 70
     1
102
RTVSPost2010Prop39
140
1.0
102
RTVSPost2010PropOp39
 70
     1
102
RTVSPost2010Prop40
 90
        0
102
RTVSPost2010PropOp40
 70
     1
102
RTVSPost2010Prop41ColorIndex
 90
       18
102
RTVSPost2010Prop41ColorRGB
 90
        0
102
RTVSPost2010PropOp41
 70
     1
102
RTVSPost2010Prop42
 90
       50
102
RTVSPost2010PropOp42
 70
     1
102
RTVSPost2010Prop43
 90
        3
102
RTVSPost2010PropOp43
 70
     1
102
RTVSPost2010Prop44ColorIndex
 90
        5
102
RTVSPost2010Prop44ColorRGB
 90
      255
102
RTVSPost2010PropOp44
 70
     1
102
RTVSPost2010Prop45
280
     0
102
RTVSPost2010PropOp45
 70
     1
102
RTVSPost2010Prop46
 90
       50
102
RTVSPost2010PropOp46
 70
     1
102
RTVSPost2010Prop47
 90
       50
102
RTVSPost2010PropOp47
 70
     1
102
RTVSPost2010Prop48
 90
       50
102
RTVSPost2010PropOp48
 70
     1
102
RTVSPost2010Prop49
280
     0
102
RTVSPost2010PropOp49
 70
     1
102
RTVSPost2010Prop50
 90
       50
102
RTVSPost2010PropOp50
 70
     1
102
RTVSPost2010Prop51ColorIndex
 90
      256
102
RTVSPost2010Prop51ColorRGB
 90
-16777216
102
RTVSPost2010PropOp51
 70
     0
102
RTVSPost2010Prop52
140
1.0
102
RTVSPost2010PropOp52
 70
     0
102
RTVSPost2010Prop53
 90
        2
102
RTVSPost2010PropOp53
 70
     1
102
RTVSPost2010Prop54
  1
strokes_ogs.tif
102
RTVSPost2010PropOp54
 70
     1
102
RTVSPost2010Prop55
280
     0
102
RTVSPost2010PropOp55
 70
     1
102
RTVSPost2010Prop56
140
1.0
102
RTVSPost2010PropOp56
 70
     1
102
RTVSPost2010Prop57
140
1.0
102
RTVSPost2010PropOp57
 70
     1
  0
XRECORD
  5
738
102
{ACAD_REACTORS
330
737
102
}
330
737
100
AcDbXrecord
280
     1
102
RTVSPost2010Prop28
280
     0
102
RTVSPost2010PropOp28
 70
     1
102
RTVSPost2010Prop29
280
     1
102
RTVSPost2010PropOp29
 70
     1
102
RTVSPost2010Prop30
280
     1
102
RTVSPost2010PropOp30
 70
     1
102
RTVSPost2010Prop31
280
     0
102
RTVSPost2010PropOp31
 70
     1
102
RTVSPost2010Prop32
280
     0
102
RTVSPost2010PropOp32
 70
     1
102
RTVSPost2010Prop33
280
     0
102
RTVSPost2010PropOp33
 70
     1
102
RTVSPost2010Prop34
280
     0
102
RTVSPost2010PropOp34
 70
     1
102
RTVSPost2010Prop35
280
     0
102
RTVSPost2010PropOp35
 70
     1
102
RTVSPost2010Prop36
280
     0
102
RTVSPost2010PropOp36
 70
     1
102
RTVSPost2010Prop37
 90
       50
102
RTVSPost2010PropOp37
 70
     1
102
RTVSPost2010Prop38
140
0.0
102
RTVSPost2010PropOp38
 70
     1
102
RTVSPost2010Prop39
140
1.0
102
RTVSPost2010PropOp39
 70
     1
102
RTVSPost2010Prop40
 90
        0
102
RTVSPost2010PropOp40
 70
     1
102
RTVSPost2010Prop41ColorIndex
 90
       18
102
RTVSPost2010Prop41ColorRGB
 90
        0
102
RTVSPost2010PropOp41
 70
     1
102
RTVSPost2010Prop42
 90
       50
102
RTVSPost2010PropOp42
 70
     1
102
RTVSPost2010Prop43
 90
        3
102
RTVSPost2010PropOp43
 70
     1
102
RTVSPost2010Prop44ColorIndex
 90
        5
102
RTVSPost2010Prop44ColorRGB
 90
      255
102
RTVSPost2010PropOp44
 70
     1
102
RTVSPost2010Prop45
280
     0
102
RTVSPost2010PropOp45
 70
     1
102
RTVSPost2010Prop46
 90
       50
102
RTVSPost2010PropOp46
 70
     1
102
RTVSPost2010Prop47
 90
       50
102
RTVSPost2010PropOp47
 70
     1
102
RTVSPost2010Prop48
 90
       50
102
RTVSPost2010PropOp48
 70
     1
102
RTVSPost2010Prop49
280
     0
102
RTVSPost2010PropOp49
 70
     1
102
RTVSPost2010Prop50
 90
       50
102
RTVSPost2010PropOp50
 70
     1
102
RTVSPost2010Prop51ColorIndex
 90
      256
102
RTVSPost2010Prop51ColorRGB
 90
-16777216
102
RTVSPost2010PropOp51
 70
     0
102
RTVSPost2010Prop52
140
1.0
102
RTVSPost2010PropOp52
 70
     0
102
RTVSPost2010Prop53
 90
        2
102
RTVSPost2010PropOp53
 70
     1
102
RTVSPost2010Prop54
  1
strokes_ogs.tif
102
RTVSPost2010PropOp54
 70
     1
102
RTVSPost2010Prop55
280
     0
102
RTVSPost2010PropOp55
 70
     1
102
RTVSPost2010Prop56
140
1.0
102
RTVSPost2010PropOp56
 70
     1
102
RTVSPost2010Prop57
140
1.0
102
RTVSPost2010PropOp57
 70
     1
  0
XRECORD
  5
73A
102
{ACAD_REACTORS
330
739
102
}
330
739
100
AcDbXrecord
280
     1
102
RTVSPost2010Prop28
280
     0
102
RTVSPost2010PropOp28
 70
     1
102
RTVSPost2010Prop29
280
     1
102
RTVSPost2010PropOp29
 70
     1
102
RTVSPost2010Prop30
280
     1
102
RTVSPost2010PropOp30
 70
     1
102
RTVSPost2010Prop31
280
     0
102
RTVSPost2010PropOp31
 70
     1
102
RTVSPost2010Prop32
280
     0
102
RTVSPost2010PropOp32
 70
     1
102
RTVSPost2010Prop33
280
     0
102
RTVSPost2010PropOp33
 70
     1
102
RTVSPost2010Prop34
280
     0
102
RTVSPost2010PropOp34
 70
     1
102
RTVSPost2010Prop35
280
     0
102
RTVSPost2010PropOp35
 70
     1
102
RTVSPost2010Prop36
280
     0
102
RTVSPost2010PropOp36
 70
     1
102
RTVSPost2010Prop37
 90
       50
102
RTVSPost2010PropOp37
 70
     1
102
RTVSPost2010Prop38
140
0.0
102
RTVSPost2010PropOp38
 70
     1
102
RTVSPost2010Prop39
140
1.0
102
RTVSPost2010PropOp39
 70
     1
102
RTVSPost2010Prop40
 90
        0
102
RTVSPost2010PropOp40
 70
     1
102
RTVSPost2010Prop41ColorIndex
 90
       18
102
RTVSPost2010Prop41ColorRGB
 90
        0
102
RTVSPost2010PropOp41
 70
     1
102
RTVSPost2010Prop42
 90
       50
102
RTVSPost2010PropOp42
 70
     1
102
RTVSPost2010Prop43
 90
        3
102
RTVSPost2010PropOp43
 70
     1
102
RTVSPost2010Prop44ColorIndex
 90
        5
102
RTVSPost2010Prop44ColorRGB
 90
      255
102
RTVSPost2010PropOp44
 70
     1
102
RTVSPost2010Prop45
280
     0
102
RTVSPost2010PropOp45
 70
     1
102
RTVSPost2010Prop46
 90
       50
102
RTVSPost2010PropOp46
 70
     1
102
RTVSPost2010Prop47
 90
       50
102
RTVSPost2010PropOp47
 70
     1
102
RTVSPost2010Prop48
 90
       50
102
RTVSPost2010PropOp48
 70
     1
102
RTVSPost2010Prop49
280
     0
102
RTVSPost2010PropOp49
 70
     1
102
RTVSPost2010Prop50
 90
       50
102
RTVSPost2010PropOp50
 70
     1
102
RTVSPost2010Prop51ColorIndex
 90
      256
102
RTVSPost2010Prop51ColorRGB
 90
-16777216
102
RTVSPost2010PropOp51
 70
     0
102
RTVSPost2010Prop52
140
1.0
102
RTVSPost2010PropOp52
 70
     0
102
RTVSPost2010Prop53
 90
        2
102
RTVSPost2010PropOp53
 70
     1
102
RTVSPost2010Prop54
  1
strokes_ogs.tif
102
RTVSPost2010PropOp54
 70
     1
102
RTVSPost2010Prop55
280
     0
102
RTVSPost2010PropOp55
 70
     1
102
RTVSPost2010Prop56
140
1.0
102
RTVSPost2010PropOp56
 70
     1
102
RTVSPost2010Prop57
140
1.0
102
RTVSPost2010PropOp57
 70
     1
  0
XRECORD
  5
73C
102
{ACAD_REACTORS
330
73B
102
}
330
73B
100
AcDbXrecord
280
     1
102
RTVSPost2010Prop28
280
     0
102
RTVSPost2010PropOp28
 70
     1
102
RTVSPost2010Prop29
280
     1
102
RTVSPost2010PropOp29
 70
     1
102
RTVSPost2010Prop30
280
     1
102
RTVSPost2010PropOp30
 70
     1
102
RTVSPost2010Prop31
280
     0
102
RTVSPost2010PropOp31
 70
     1
102
RTVSPost2010Prop32
280
     0
102
RTVSPost2010PropOp32
 70
     1
102
RTVSPost2010Prop33
280
     0
102
RTVSPost2010PropOp33
 70
     1
102
RTVSPost2010Prop34
280
     0
102
RTVSPost2010PropOp34
 70
     1
102
RTVSPost2010Prop35
280
     0
102
RTVSPost2010PropOp35
 70
     1
102
RTVSPost2010Prop36
280
     0
102
RTVSPost2010PropOp36
 70
     1
102
RTVSPost2010Prop37
 90
       50
102
RTVSPost2010PropOp37
 70
     1
102
RTVSPost2010Prop38
140
0.0
102
RTVSPost2010PropOp38
 70
     1
102
RTVSPost2010Prop39
140
1.0
102
RTVSPost2010PropOp39
 70
     1
102
RTVSPost2010Prop40
 90
        0
102
RTVSPost2010PropOp40
 70
     1
102
RTVSPost2010Prop41ColorIndex
 90
       18
102
RTVSPost2010Prop41ColorRGB
 90
        0
102
RTVSPost2010PropOp41
 70
     1
102
RTVSPost2010Prop42
 90
       50
102
RTVSPost2010PropOp42
 70
     1
102
RTVSPost2010Prop43
 90
        3
102
RTVSPost2010PropOp43
 70
     1
102
RTVSPost2010Prop44ColorIndex
 90
        5
102
RTVSPost2010Prop44ColorRGB
 90
      255
102
RTVSPost2010PropOp44
 70
     1
102
RTVSPost2010Prop45
280
     0
102
RTVSPost2010PropOp45
 70
     1
102
RTVSPost2010Prop46
 90
       50
102
RTVSPost2010PropOp46
 70
     1
102
RTVSPost2010Prop47
 90
       50
102
RTVSPost2010PropOp47
 70
     1
102
RTVSPost2010Prop48
 90
       50
102
RTVSPost2010PropOp48
 70
     1
102
RTVSPost2010Prop49
280
     0
102
RTVSPost2010PropOp49
 70
     1
102
RTVSPost2010Prop50
 90
       50
102
RTVSPost2010PropOp50
 70
     1
102
RTVSPost2010Prop51ColorIndex
 90
      256
102
RTVSPost2010Prop51ColorRGB
 90
-16777216
102
RTVSPost2010PropOp51
 70
     0
102
RTVSPost2010Prop52
140
1.0
102
RTVSPost2010PropOp52
 70
     0
102
RTVSPost2010Prop53
 90
        2
102
RTVSPost2010PropOp53
 70
     1
102
RTVSPost2010Prop54
  1
strokes_ogs.tif
102
RTVSPost2010PropOp54
 70
     1
102
RTVSPost2010Prop55
280
     0
102
RTVSPost2010PropOp55
 70
     1
102
RTVSPost2010Prop56
140
1.0
102
RTVSPost2010PropOp56
 70
     1
102
RTVSPost2010Prop57
140
1.0
102
RTVSPost2010PropOp57
 70
     1
  0
XRECORD
  5
73E
102
{ACAD_REACTORS
330
73D
102
}
330
73D
100
AcDbXrecord
280
     1
102
RTVSPost2010Prop28
280
     0
102
RTVSPost2010PropOp28
 70
     1
102
RTVSPost2010Prop29
280
     1
102
RTVSPost2010PropOp29
 70
     1
102
RTVSPost2010Prop30
280
     1
102
RTVSPost2010PropOp30
 70
     1
102
RTVSPost2010Prop31
280
     0
102
RTVSPost2010PropOp31
 70
     1
102
RTVSPost2010Prop32
280
     0
102
RTVSPost2010PropOp32
 70
     1
102
RTVSPost2010Prop33
280
     0
102
RTVSPost2010PropOp33
 70
     1
102
RTVSPost2010Prop34
280
     0
102
RTVSPost2010PropOp34
 70
     1
102
RTVSPost2010Prop35
280
     0
102
RTVSPost2010PropOp35
 70
     1
102
RTVSPost2010Prop36
280
     0
102
RTVSPost2010PropOp36
 70
     1
102
RTVSPost2010Prop37
 90
       50
102
RTVSPost2010PropOp37
 70
     1
102
RTVSPost2010Prop38
140
0.0
102
RTVSPost2010PropOp38
 70
     1
102
RTVSPost2010Prop39
140
1.0
102
RTVSPost2010PropOp39
 70
     1
102
RTVSPost2010Prop40
 90
        0
102
RTVSPost2010PropOp40
 70
     1
102
RTVSPost2010Prop41ColorIndex
 90
       18
102
RTVSPost2010Prop41ColorRGB
 90
        0
102
RTVSPost2010PropOp41
 70
     1
102
RTVSPost2010Prop42
 90
       50
102
RTVSPost2010PropOp42
 70
     1
102
RTVSPost2010Prop43
 90
        3
102
RTVSPost2010PropOp43
 70
     1
102
RTVSPost2010Prop44ColorIndex
 90
        5
102
RTVSPost2010Prop44ColorRGB
 90
      255
102
RTVSPost2010PropOp44
 70
     1
102
RTVSPost2010Prop45
280
     0
102
RTVSPost2010PropOp45
 70
     1
102
RTVSPost2010Prop46
 90
       50
102
RTVSPost2010PropOp46
 70
     1
102
RTVSPost2010Prop47
 90
       50
102
RTVSPost2010PropOp47
 70
     1
102
RTVSPost2010Prop48
 90
       50
102
RTVSPost2010PropOp48
 70
     1
102
RTVSPost2010Prop49
280
     0
102
RTVSPost2010PropOp49
 70
     1
102
RTVSPost2010Prop50
 90
       50
102
RTVSPost2010PropOp50
 70
     1
102
RTVSPost2010Prop51ColorIndex
 90
      256
102
RTVSPost2010Prop51ColorRGB
 90
-16777216
102
RTVSPost2010PropOp51
 70
     0
102
RTVSPost2010Prop52
140
1.0
102
RTVSPost2010PropOp52
 70
     0
102
RTVSPost2010Prop53
 90
        2
102
RTVSPost2010PropOp53
 70
     1
102
RTVSPost2010Prop54
  1
strokes_ogs.tif
102
RTVSPost2010PropOp54
 70
     1
102
RTVSPost2010Prop55
280
     0
102
RTVSPost2010PropOp55
 70
     1
102
RTVSPost2010Prop56
140
1.0
102
RTVSPost2010PropOp56
 70
     1
102
RTVSPost2010Prop57
140
1.0
102
RTVSPost2010PropOp57
 70
     1
  0
ENDSEC
  0
EOF
