  0
SECTION
  2
HEADER
  9
$ACADVER
  1
AC1024
  9
$ACADMAINTVER
 70
   182
  9
$DWGCODEPAGE
  3
ANSI_1252
  9
$LASTSAVEDBY
  1
lkt513
  9
$INSBASE
 10
0.0
 20
0.0
 30
0.0
  9
$EXTMIN
 10
-3745.947863167378
 20
8921.676204841636
 30
-2241.1777432337
  9
$EXTMAX
 10
-1505.265308869191
 20
24041.5738292877
 30
6009.557528638674
  9
$LIMMIN
 10
0.0
 20
0.0
  9
$LIMMAX
 10
420.0
 20
297.0
  9
$ORTHOMODE
 70
     0
  9
$REGENMODE
 70
     1
  9
$FILLMODE
 70
     1
  9
$QTEXTMODE
 70
     0
  9
$MIRRTEXT
 70
     0
  9
$LTSCALE
 40
1.0
  9
$ATTMODE
 70
     1
  9
$TEXTSIZE
 40
2.5
  9
$TRACEWID
 40
1.0
  9
$TEXTSTYLE
  7
Standard
  9
$CLAYER
  8
trace
  9
$CELTYPE
  6
ByLayer
  9
$CECOLOR
 62
   256
  9
$CELTSCALE
 40
1.0
  9
$DISPSILH
 70
     0
  9
$DIMSCALE
 40
1.0
  9
$DIMASZ
 40
2.5
  9
$DIMEXO
 40
0.625
  9
$DIMDLI
 40
3.75
  9
$DIMRND
 40
0.0
  9
$DIMDLE
 40
0.0
  9
$DIMEXE
 40
1.25
  9
$DIMTP
 40
0.0
  9
$DIMTM
 40
0.0
  9
$DIMTXT
 40
2.5
  9
$DIMCEN
 40
2.5
  9
$DIMTSZ
 40
0.0
  9
$DIMTOL
 70
     0
  9
$DIMLIM
 70
     0
  9
$DIMTIH
 70
     0
  9
$DIMTOH
 70
     0
  9
$DIMSE1
 70
     0
  9
$DIMSE2
 70
     0
  9
$DIMTAD
 70
     1
  9
$DIMZIN
 70
     8
  9
$DIMBLK
  1

  9
$DIMASO
 70
     1
  9
$DIMSHO
 70
     1
  9
$DIMPOST
  1

  9
$DIMAPOST
  1

  9
$DIMALT
 70
     0
  9
$DIMALTD
 70
     3
  9
$DIMALTF
 40
0.03937007874016
  9
$DIMLFAC
 40
1.0
  9
$DIMTOFL
 70
     1
  9
$DIMTVP
 40
0.0
  9
$DIMTIX
 70
     0
  9
$DIMSOXD
 70
     0
  9
$DIMSAH
 70
     0
  9
$DIMBLK1
  1

  9
$DIMBLK2
  1

  9
$DIMSTYLE
  2
ISO-25
  9
$DIMCLRD
 70
     0
  9
$DIMCLRE
 70
     0
  9
$DIMCLRT
 70
     0
  9
$DIMTFAC
 40
1.0
  9
$DIMGAP
 40
0.625
  9
$DIMJUST
 70
     0
  9
$DIMSD1
 70
     0
  9
$DIMSD2
 70
     0
  9
$DIMTOLJ
 70
     0
  9
$DIMTZIN
 70
     8
  9
$DIMALTZ
 70
     0
  9
$DIMALTTZ
 70
     0
  9
$DIMUPT
 70
     0
  9
$DIMDEC
 70
     2
  9
$DIMTDEC
 70
     2
  9
$DIMALTU
 70
     2
  9
$DIMALTTD
 70
     3
  9
$DIMTXSTY
  7
Standard
  9
$DIMAUNIT
 70
     0
  9
$DIMADEC
 70
     0
  9
$DIMALTRND
 40
0.0
  9
$DIMAZIN
 70
     0
  9
$DIMDSEP
 70
    44
  9
$DIMATFIT
 70
     3
  9
$DIMFRAC
 70
     0
  9
$DIMLDRBLK
  1

  9
$DIMLUNIT
 70
     2
  9
$DIMLWD
 70
    -2
  9
$DIMLWE
 70
    -2
  9
$DIMTMOVE
 70
     0
  9
$DIMFXL
 40
1.0
  9
$DIMFXLON
 70
     0
  9
$DIMJOGANG
 40
0.7853981633974483
  9
$DIMTFILL
 70
     0
  9
$DIMTFILLCLR
 70
     0
  9
$DIMARCSYM
 70
     0
  9
$DIMLTYPE
  6

  9
$DIMLTEX1
  6

  9
$DIMLTEX2
  6

  9
$DIMTXTDIRECTION
 70
     0
  9
$LUNITS
 70
     2
  9
$LUPREC
 70
     4
  9
$SKETCHINC
 40
1.0
  9
$FILLETRAD
 40
0.0
  9
$AUNITS
 70
     0
  9
$AUPREC
 70
     0
  9
$MENU
  1
.
  9
$ELEVATION
 40
0.0
  9
$PELEVATION
 40
0.0
  9
$THICKNESS
 40
0.0
  9
$LIMCHECK
 70
     0
  9
$CHAMFERA
 40
0.0
  9
$CHAMFERB
 40
0.0
  9
$CHAMFERC
 40
0.0
  9
$CHAMFERD
 40
0.0
  9
$SKPOLY
 70
     0
  9
$TDCREATE
 40
2454424.692186551
  9
$TDUCREATE
 40
2454424.650519884
  9
$TDUPDATE
 40
2458054.454968970
  9
$TDUUPDATE
 40
2458054.413302303
  9
$TDINDWG
 40
0.0451872685
  9
$TDUSRTIMER
 40
0.0451806250
  9
$USRTIMER
 70
     1
  9
$ANGBASE
 50
0.0
  9
$ANGDIR
 70
     0
  9
$PDMODE
 70
     0
  9
$PDSIZE
 40
0.0
  9
$PLINEWID
 40
0.0
  9
$SPLFRAME
 70
     0
  9
$SPLINETYPE
 70
     6
  9
$SPLINESEGS
 70
     8
  9
$HANDSEED
  5
19AB
  9
$SURFTAB1
 70
     6
  9
$SURFTAB2
 70
     6
  9
$SURFTYPE
 70
     6
  9
$SURFU
 70
     6
  9
$SURFV
 70
     6
  9
$UCSBASE
  2
aligned
  9
$UCSNAME
  2

  9
$UCSORG
 10
-3241.024250139715
 20
12329.84285239735
 30
0.0
  9
$UCSXDIR
 10
-0.1466119649545877
 20
-0.9891940819334468
 30
0.0
  9
$UCSYDIR
 10
0.0
 20
0.0
 30
1.0
  9
$UCSORTHOREF
  2
aligned
  9
$UCSORTHOVIEW
 70
     4
  9
$UCSORGTOP
 10
0.0
 20
0.0
 30
0.0
  9
$UCSORGBOTTOM
 10
0.0
 20
0.0
 30
0.0
  9
$UCSORGLEFT
 10
0.0
 20
0.0
 30
0.0
  9
$UCSORGRIGHT
 10
0.0
 20
0.0
 30
0.0
  9
$UCSORGFRONT
 10
0.0
 20
0.0
 30
0.0
  9
$UCSORGBACK
 10
0.0
 20
0.0
 30
0.0
  9
$PUCSBASE
  2

  9
$PUCSNAME
  2

  9
$PUCSORG
 10
0.0
 20
0.0
 30
0.0
  9
$PUCSXDIR
 10
1.0
 20
0.0
 30
0.0
  9
$PUCSYDIR
 10
0.0
 20
1.0
 30
0.0
  9
$PUCSORTHOREF
  2

  9
$PUCSORTHOVIEW
 70
     0
  9
$PUCSORGTOP
 10
0.0
 20
0.0
 30
0.0
  9
$PUCSORGBOTTOM
 10
0.0
 20
0.0
 30
0.0
  9
$PUCSORGLEFT
 10
0.0
 20
0.0
 30
0.0
  9
$PUCSORGRIGHT
 10
0.0
 20
0.0
 30
0.0
  9
$PUCSORGFRONT
 10
0.0
 20
0.0
 30
0.0
  9
$PUCSORGBACK
 10
0.0
 20
0.0
 30
0.0
  9
$USERI1
 70
     0
  9
$USERI2
 70
     0
  9
$USERI3
 70
     0
  9
$USERI4
 70
     0
  9
$USERI5
 70
     0
  9
$USERR1
 40
0.0
  9
$USERR2
 40
0.0
  9
$USERR3
 40
0.0
  9
$USERR4
 40
0.0
  9
$USERR5
 40
0.0
  9
$WORLDVIEW
 70
     1
  9
$SHADEDGE
 70
     3
  9
$SHADEDIF
 70
    70
  9
$TILEMODE
 70
     1
  9
$MAXACTVP
 70
    64
  9
$PINSBASE
 10
0.0
 20
0.0
 30
0.0
  9
$PLIMCHECK
 70
     0
  9
$PEXTMIN
 10
0.0
 20
0.0
 30
0.0
  9
$PEXTMAX
 10
0.0
 20
0.0
 30
0.0
  9
$PLIMMIN
 10
0.0
 20
0.0
  9
$PLIMMAX
 10
12.0
 20
9.0
  9
$UNITMODE
 70
     0
  9
$VISRETAIN
 70
     1
  9
$PLINEGEN
 70
     0
  9
$PSLTSCALE
 70
     1
  9
$TREEDEPTH
 70
  3020
  9
$CMLSTYLE
  2
Standard
  9
$CMLJUST
 70
     0
  9
$CMLSCALE
 40
20.0
  9
$PROXYGRAPHICS
 70
     1
  9
$MEASUREMENT
 70
     1
  9
$CELWEIGHT
370
    -1
  9
$ENDCAPS
280
     0
  9
$JOINSTYLE
280
     0
  9
$LWDISPLAY
290
     0
  9
$INSUNITS
 70
     4
  9
$HYPERLINKBASE
  1

  9
$STYLESHEET
  1

  9
$XEDIT
290
     1
  9
$CEPSNTYPE
380
     0
  9
$PSTYLEMODE
290
     1
  9
$FINGERPRINTGUID
  2
{2360D94A-D2D4-42A1-AC5B-BB9A97E042AF}
  9
$VERSIONGUID
  2
{8ADA3BFA-DB9B-4A69-BA15-C4FD9D0326DB}
  9
$EXTNAMES
290
     1
  9
$PSVPSCALE
 40
0.0
  9
$OLESTARTUP
290
     0
  9
$SORTENTS
280
   127
  9
$INDEXCTL
280
     0
  9
$HIDETEXT
280
     1
  9
$XCLIPFRAME
280
     0
  9
$HALOGAP
280
     0
  9
$OBSCOLOR
 70
   257
  9
$OBSLTYPE
280
     0
  9
$INTERSECTIONDISPLAY
280
     0
  9
$INTERSECTIONCOLOR
 70
   257
  9
$DIMASSOC
280
     2
  9
$PROJECTNAME
  1

  9
$CAMERADISPLAY
290
     0
  9
$LENSLENGTH
 40
50.0
  9
$CAMERAHEIGHT
 40
0.0
  9
$STEPSPERSEC
 40
2.0
  9
$STEPSIZE
 40
6.0
  9
$3DDWFPREC
 40
2.0
  9
$PSOLWIDTH
 40
0.25
  9
$PSOLHEIGHT
 40
4.0
  9
$LOFTANG1
 40
1.570796326794896
  9
$LOFTANG2
 40
1.570796326794896
  9
$LOFTMAG1
 40
0.0
  9
$LOFTMAG2
 40
0.0
  9
$LOFTPARAM
 70
     7
  9
$LOFTNORMALS
280
     1
  9
$LATITUDE
 40
37.795
  9
$LONGITUDE
 40
-122.394
  9
$NORTHDIRECTION
 40
0.0
  9
$TIMEZONE
 70
 -8000
  9
$LIGHTGLYPHDISPLAY
280
     1
  9
$TILEMODELIGHTSYNCH
280
     1
  9
$CMATERIAL
347
18CF
  9
$SOLIDHIST
280
     0
  9
$SHOWHIST
280
     1
  9
$DWFFRAME
280
     2
  9
$DGNFRAME
280
     0
  9
$REALWORLDSCALE
290
     1
  9
$INTERFERECOLOR
 62
     1
  9
$INTERFEREOBJVS
345
18F1
  9
$INTERFEREVPVS
346
18EE
  9
$CSHADOW
280
     0
  9
$SHADOWPLANELOCATION
 40
0.0
  0
ENDSEC
  0
SECTION
  2
CLASSES
  0
CLASS
  1
ACDBDICTIONARYWDFLT
  2
AcDbDictionaryWithDefault
  3
ObjectDBX Classes
 90
        0
 91
        1
280
     0
281
     0
  0
CLASS
  1
ACDBPLACEHOLDER
  2
AcDbPlaceHolder
  3
ObjectDBX Classes
 90
        0
 91
        1
280
     0
281
     0
  0
CLASS
  1
LAYOUT
  2
AcDbLayout
  3
ObjectDBX Classes
 90
        0
 91
        3
280
     0
281
     0
  0
CLASS
  1
DICTIONARYVAR
  2
AcDbDictionaryVar
  3
ObjectDBX Classes
 90
        0
 91
       19
280
     0
281
     0
  0
CLASS
  1
TABLESTYLE
  2
AcDbTableStyle
  3
ObjectDBX Classes
 90
     4095
 91
        1
280
     0
281
     0
  0
CLASS
  1
CYCURRENTVIEW
  2
CyCurrentView
  3
CloudWorx
 90
        0
 91
        1
280
     0
281
     0
  0
CLASS
  1
CYPREFERENCE
  2
CyPreferences
  3
CloudWorx
 90
        0
 91
        1
280
     0
281
     0
  0
CLASS
  1
CYPOINTCONTROL
  2
CyPointControl
  3
CloudWorx
 90
        0
 91
        1
280
     0
281
     0
  0
CLASS
  1
CYEXTVIEWREFS
  2
CyExtViewRefs
  3
CloudWorx
 90
        0
 91
        0
280
     0
281
     0
  0
CLASS
  1
CYCUTPLANES
  2
CyCutPlanes
  3
CloudWorx
 90
        0
 91
        0
280
     0
281
     0
  0
CLASS
  1
CYLIMITBOX
  2
CyLimitBox
  3
CloudWorx
 90
        0
 91
        0
280
     0
281
     0
  0
CLASS
  1
CYHIDERGNS
  2
CyHideRgns
  3
CloudWorx
 90
        0
 91
        0
280
     0
281
     0
  0
CLASS
  1
CYINTENSITYMAPPING
  2
CyIntensityMapping
  3
CloudWorx
 90
        0
 91
        0
280
     0
281
     0
  0
CLASS
  1
CYSCANWORLDS
  2
CyScanWorlds
  3
CloudWorx
 90
        0
 91
        0
280
     0
281
     0
  0
CLASS
  1
CYVIEWATTRIBUTE
  2
CyViewAttributes
  3
CloudWorx
 90
        0
 91
        0
280
     0
281
     0
  0
CLASS
  1
CYLAYERS
  2
CyLayers
  3
CloudWorx
 90
        0
 91
        0
280
     0
281
     0
  0
CLASS
  1
CYPOINTCLOUDS
  2
CyPointClouds
  3
CloudWorx
 90
        0
 91
        0
280
     0
281
     0
  0
CLASS
  1
CYPOINTBLOCKS
  2
CyPointBlocks
  3
CloudWorx
 90
        0
 91
        0
280
     0
281
     0
  0
CLASS
  1
CYPOINTVIEWMGRS
  2
CyPointViewMgrs
  3
CloudWorx
 90
        0
 91
        0
280
     0
281
     0
  0
CLASS
  1
CYLODMANAGER
  2
CyLodManager
  3
CloudWorx
 90
        0
 91
        0
280
     0
281
     0
  0
CLASS
  1
CYPOINTVIEWMGR
  2
CyPointViewMgr
  3
CloudWorx
 90
        0
 91
        0
280
     0
281
     0
  0
CLASS
  1
CYCLOUDEXTENT
  2
CyCloudExtent
  3
CloudWorx
 90
        0
 91
        0
280
     0
281
     1
  0
CLASS
  1
CYINTERFERENCETOOLS
  2
CyInterferenceTools
  3
CloudWorx
 90
        0
 91
        0
280
     0
281
     0
  0
CLASS
  1
CYPOINTBLOCK
  2
CyPointBlock
  3
CloudWorx
 90
        0
 91
        0
280
     0
281
     0
  0
CLASS
  1
CYPOINTBLOCKENT
  2
CyPointBlockEnt
  3
CloudWorx
 90
        0
 91
        0
280
     0
281
     1
  0
CLASS
  1
SORTENTSTABLE
  2
AcDbSortentsTable
  3
ObjectDBX Classes
 90
        0
 91
        1
280
     0
281
     0
  0
CLASS
  1
MATERIAL
  2
AcDbMaterial
  3
ObjectDBX Classes
 90
     1153
 91
        3
280
     0
281
     0
  0
CLASS
  1
VISUALSTYLE
  2
AcDbVisualStyle
  3
ObjectDBX Classes
 90
     4095
 91
       24
280
     0
281
     0
  0
CLASS
  1
SCALE
  2
AcDbScale
  3
ObjectDBX Classes
 90
     1153
 91
       17
280
     0
281
     0
  0
CLASS
  1
MLEADERSTYLE
  2
AcDbMLeaderStyle
  3
ACDB_MLEADERSTYLE_CLASS
 90
     4095
 91
        1
280
     0
281
     0
  0
CLASS
  1
ACDBSECTIONVIEWSTYLE
  2
AcDbSectionViewStyle
  3
ObjectDBX Classes
 90
     1025
 91
        1
280
     0
281
     0
  0
CLASS
  1
ACDBDETAILVIEWSTYLE
  2
AcDbDetailViewStyle
  3
ObjectDBX Classes
 90
     1025
 91
        1
280
     0
281
     0
  0
CLASS
  1
CELLSTYLEMAP
  2
AcDbCellStyleMap
  3
ObjectDBX Classes
 90
     1152
 91
        1
280
     0
281
     0
  0
ENDSEC
  0
SECTION
  2
TABLES
  0
TABLE
  2
VPORT
  5
8
330
0
100
AcDbSymbolTable
 70
     1
  0
VPORT
  5
18CD
330
8
100
AcDbSymbolTableRecord
100
AcDbViewportTableRecord
  2
*Active
 70
     0
 10
0.0
 20
0.0
 11
1.0
 21
1.0
 12
-17470.56587557708
 22
1759.510113569917
 13
0.0
 23
0.0
 14
10.0
 24
10.0
 15
10.0
 25
10.0
 16
-0.9891940819334468
 26
0.1466119649545877
 36
0.0
 17
0.0
 27
0.0
 37
0.0
 40
16198.44998099926
 41
1.561660561660561
 42
50.0
 43
0.0
 44
0.0
 50
0.0
 51
0.0
 71
     0
 72
  1000
 73
     1
 74
     3
 75
     0
 76
     0
 77
     0
 78
     0
281
     0
 65
     1
110
-3241.024250139715
120
12329.84285239735
130
0.0
111
-0.1466119649545877
121
-0.9891940819334468
131
0.0
112
0.0
122
0.0
132
1.0
 79
     0
146
0.0
348
18ED
 60
     3
 61
     5
292
     1
282
     1
141
0.0
142
0.0
 63
   250
421
  3355443
1001
ACAD_NAV_VCDISPLAY
1070
     3
  0
ENDTAB
  0
TABLE
  2
LTYPE
  5
5
330
0
100
AcDbSymbolTable
 70
     1
  0
LTYPE
  5
14
330
5
100
AcDbSymbolTableRecord
100
AcDbLinetypeTableRecord
  2
ByBlock
 70
     0
  3

 72
    65
 73
     0
 40
0.0
  0
LTYPE
  5
15
330
5
100
AcDbSymbolTableRecord
100
AcDbLinetypeTableRecord
  2
ByLayer
 70
     0
  3

 72
    65
 73
     0
 40
0.0
  0
LTYPE
  5
16
330
5
100
AcDbSymbolTableRecord
100
AcDbLinetypeTableRecord
  2
Continuous
 70
     0
  3
Solid line
 72
    65
 73
     0
 40
0.0
  0
ENDTAB
  0
TABLE
  2
LAYER
  5
2
102
{ACAD_XDICTIONARY
360
27A
102
}
330
0
100
AcDbSymbolTable
 70
     3
  0
LAYER
  5
10
102
{ACAD_XDICTIONARY
360
191C
102
}
330
2
100
AcDbSymbolTableRecord
100
AcDbLayerTableRecord
  2
0
 70
     0
 62
     7
  6
Continuous
370
    -3
390
F
347
18DF
  0
LAYER
  5
277
102
{ACAD_XDICTIONARY
360
191E
102
}
330
2
100
AcDbSymbolTableRecord
100
AcDbLayerTableRecord
  2
ucs
 70
     0
 62
  -241
  6
Continuous
370
    -3
390
F
347
18DF
1001
AcAecLayerStandard
1000

1000

  0
LAYER
  5
279
102
{ACAD_XDICTIONARY
360
1920
102
}
330
2
100
AcDbSymbolTableRecord
100
AcDbLayerTableRecord
  2
trace
 70
     0
 62
     7
  6
Continuous
370
    -3
390
F
347
18DF
1001
AcAecLayerStandard
1000

1000

  0
ENDTAB
  0
TABLE
  2
STYLE
  5
3
330
0
100
AcDbSymbolTable
 70
     2
  0
STYLE
  5
11
330
3
100
AcDbSymbolTableRecord
100
AcDbTextStyleTableRecord
  2
Standard
 70
     0
 40
0.0
 41
1.0
 50
0.0
 71
     0
 42
2.5
  3
txt
  4

  0
ENDTAB
  0
TABLE
  2
VIEW
  5
6
330
0
100
AcDbSymbolTable
 70
     0
  0
ENDTAB
  0
TABLE
  2
UCS
  5
7
330
0
100
AcDbSymbolTable
 70
     1
  0
UCS
  5
48B
330
7
100
AcDbSymbolTableRecord
100
AcDbUCSTableRecord
  2
aligned
 70
     0
 10
-3241.024250139715
 20
12329.84285239735
 30
0.0
 11
0.1466119649545877
 21
0.9891940819334468
 31
0.0
 12
-0.9891940819334468
 22
0.1466119649545877
 32
0.0
 79
     0
146
0.0
  0
ENDTAB
  0
TABLE
  2
APPID
  5
9
330
0
100
AcDbSymbolTable
 70
     5
  0
APPID
  5
12
330
9
100
AcDbSymbolTableRecord
100
AcDbRegAppTableRecord
  2
ACAD
 70
     0
  0
APPID
  5
9E
330
9
100
AcDbSymbolTableRecord
100
AcDbRegAppTableRecord
  2
ACAD_PSEXT
 70
     0
  0
APPID
  5
278
330
9
100
AcDbSymbolTableRecord
100
AcDbRegAppTableRecord
  2
AcAecLayerStandard
 70
     0
  0
APPID
  5
485
330
9
100
AcDbSymbolTableRecord
100
AcDbRegAppTableRecord
  2
ACAD_EXEMPT_FROM_CAD_STANDARDS
 70
     0
  0
APPID
  5
192B
330
9
100
AcDbSymbolTableRecord
100
AcDbRegAppTableRecord
  2
ACAD_NAV_VCDISPLAY
 70
     0
  0
ENDTAB
  0
TABLE
  2
DIMSTYLE
  5
A
330
0
100
AcDbSymbolTable
 70
     2
100
AcDbDimStyleTable
 71
     1
340
27
  0
DIMSTYLE
105
27
330
A
100
AcDbSymbolTableRecord
100
AcDbDimStyleTableRecord
  2
ISO-25
 70
     0
 41
2.5
 42
0.625
 43
3.75
 44
1.25
 73
     0
 74
     0
 77
     1
 78
     8
140
2.5
141
2.5
143
0.03937007874016
147
0.625
171
     3
172
     1
271
     2
272
     2
274
     3
278
    44
283
     0
284
     8
340
11
  0
ENDTAB
  0
TABLE
  2
BLOCK_RECORD
  5
1
330
0
100
AcDbSymbolTable
 70
     2
  0
BLOCK_RECORD
  5
1F
102
{ACAD_XDICTIONARY
360
E9F
102
}
330
1
100
AcDbSymbolTableRecord
100
AcDbBlockTableRecord
  2
*Model_Space
340
22
 70
     0
280
     1
281
     0
  0
BLOCK_RECORD
  5
D2
330
1
100
AcDbSymbolTableRecord
100
AcDbBlockTableRecord
  2
*Paper_Space
340
D3
 70
     0
280
     1
281
     0
  0
BLOCK_RECORD
  5
D6
330
1
100
AcDbSymbolTableRecord
100
AcDbBlockTableRecord
  2
*Paper_Space0
340
D7
 70
     0
280
     1
281
     0
  0
ENDTAB
  0
ENDSEC
  0
SECTION
  2
BLOCKS
  0
BLOCK
  5
20
330
1F
100
AcDbEntity
  8
0
100
AcDbBlockBegin
  2
*Model_Space
 70
     0
 10
0.0
 20
0.0
 30
0.0
  3
*Model_Space
  1

  0
ENDBLK
  5
21
330
1F
100
AcDbEntity
  8
0
100
AcDbBlockEnd
  0
BLOCK
  5
D4
330
D2
100
AcDbEntity
 67
     1
  8
0
100
AcDbBlockBegin
  2
*Paper_Space
 70
     0
 10
0.0
 20
0.0
 30
0.0
  3
*Paper_Space
  1

  0
ENDBLK
  5
D5
330
D2
100
AcDbEntity
 67
     1
  8
0
100
AcDbBlockEnd
  0
BLOCK
  5
D8
330
D6
100
AcDbEntity
 67
     1
  8
0
100
AcDbBlockBegin
  2
*Paper_Space0
 70
     0
 10
0.0
 20
0.0
 30
0.0
  3
*Paper_Space0
  1

  0
ENDBLK
  5
D9
330
D6
100
AcDbEntity
 67
     1
  8
0
100
AcDbBlockEnd
  0
ENDSEC
  0
SECTION
  2
ENTITIES
  0
LWPOLYLINE
  5
483
330
1F
100
AcDbEntity
  8
ucs
100
AcDbPolyline
 90
        2
 70
     0
 43
0.0
 10
-2301.854783080052
 20
18666.43945306202
 10
-3241.024250139715
 20
12329.84285239735
  0
POLYLINE
  5
527
330
1F
100
AcDbEntity
  8
trace
100
AcDb3dPolyline
 66
     1
 10
0.0
 20
0.0
 30
0.0
 70
     8
  0
VERTEX
  5
528
330
527
100
AcDbEntity
  8
trace
100
AcDbVertex
100
AcDb3dPolylineVertex
 10
-3214.84471491799
 20
12506.47673979611
 30
5634.738940179712
 70
    32
  0
VERTEX
  5
529
330
527
100
AcDbEntity
  8
trace
100
AcDbVertex
100
AcDb3dPolylineVertex
 10
-3245.438695103199
 20
12300.0584972511
 30
5640.565211141307
 70
    32
  0
VERTEX
  5
52A
330
527
100
AcDbEntity
  8
trace
100
AcDbVertex
100
AcDb3dPolylineVertex
 10
-3255.009991124192
 20
12235.48075706917
 30
5641.730484019849
 70
    32
  0
VERTEX
  5
52B
330
527
100
AcDbEntity
  8
trace
100
AcDbVertex
100
AcDb3dPolylineVertex
 10
-3258.08648737741
 20
12214.72357065728
 30
5652.217799780046
 70
    32
  0
VERTEX
  5
52C
330
527
100
AcDbEntity
  8
trace
100
AcDbVertex
100
AcDb3dPolylineVertex
 10
-3258.08648737741
 20
12214.72357065728
 30
5673.192431300442
 70
    32
  0
VERTEX
  5
52D
330
527
100
AcDbEntity
  8
trace
100
AcDbVertex
100
AcDb3dPolylineVertex
 10
-3257.573739751125
 20
12218.18308992369
 30
5709.315423379645
 70
    32
  0
VERTEX
  5
52E
330
527
100
AcDbEntity
  8
trace
100
AcDbVertex
100
AcDb3dPolylineVertex
 10
-3260.308397256481
 20
12199.73229689837
 30
5726.794282979972
 70
    32
  0
VERTEX
  5
52F
330
527
100
AcDbEntity
  8
trace
100
AcDbVertex
100
AcDb3dPolylineVertex
 10
-3268.512359277042
 20
12144.37998863582
 30
5729.124828737062
 70
    32
  0
VERTEX
  5
530
330
527
100
AcDbEntity
  8
trace
100
AcDbVertex
100
AcDb3dPolylineVertex
 10
-3274.152593661687
 20
12106.32520589188
 30
5723.298511059911
 70
    32
  0
VERTEX
  5
531
330
527
100
AcDbEntity
  8
trace
100
AcDbVertex
100
AcDb3dPolylineVertex
 10
-3273.810765409333
 20
12108.63152846501
 30
5663.870388418786
 70
    32
  0
VERTEX
  5
532
330
527
100
AcDbEntity
  8
trace
100
AcDbVertex
100
AcDb3dPolylineVertex
 10
-3273.639846035401
 20
12109.78472515829
 30
5642.89575689839
 70
    32
  0
VERTEX
  5
533
330
527
100
AcDbEntity
  8
trace
100
AcDbVertex
100
AcDb3dPolylineVertex
 10
-3275.007180035835
 20
12100.55929323891
 30
5626.582123461041
 70
    32
  0
VERTEX
  5
534
330
527
100
AcDbEntity
  8
trace
100
AcDbVertex
100
AcDb3dPolylineVertex
 10
-3275.349008288189
 20
12098.25297066577
 30
5617.260080579384
 70
    32
  0
VERTEX
  5
535
330
527
100
AcDbEntity
  8
trace
100
AcDbVertex
100
AcDb3dPolylineVertex
 10
-3274.836260661902
 20
12101.7124899322
 30
5588.12863234031
 70
    32
  0
VERTEX
  5
536
330
527
100
AcDbEntity
  8
trace
100
AcDbVertex
100
AcDb3dPolylineVertex
 10
-3276.37450354076
 20
12091.33393213296
 30
5581.137088500181
 70
    32
  0
VERTEX
  5
537
330
527
100
AcDbEntity
  8
trace
100
AcDbVertex
100
AcDb3dPolylineVertex
 10
-3275.861755914474
 20
12094.79345139937
 30
5555.501412181176
 70
    32
  0
VERTEX
  5
538
330
527
100
AcDbEntity
  8
trace
100
AcDbVertex
100
AcDb3dPolylineVertex
 10
-3275.861755914474
 20
12094.79345139937
 30
5521.708919143494
 70
    32
  0
VERTEX
  5
539
330
527
100
AcDbEntity
  8
trace
100
AcDbVertex
100
AcDb3dPolylineVertex
 10
-3274.665341287973
 20
12102.86568662546
 30
5493.742743782968
 70
    32
  0
VERTEX
  5
53A
330
527
100
AcDbEntity
  8
trace
100
AcDbVertex
100
AcDb3dPolylineVertex
 10
-3274.836260661902
 20
12101.7124899322
 30
5477.429157061175
 70
    32
  0
VERTEX
  5
53B
330
527
100
AcDbEntity
  8
trace
100
AcDbVertex
100
AcDb3dPolylineVertex
 10
-3277.741827045681
 20
12082.10857102702
 30
5464.611295543895
 70
    32
  0
VERTEX
  5
53C
330
527
100
AcDbEntity
  8
trace
100
AcDbVertex
100
AcDb3dPolylineVertex
 10
-3279.6219086724
 20
12069.42361984123
 30
5455.289252662238
 70
    32
  0
VERTEX
  5
53D
330
527
100
AcDbEntity
  8
trace
100
AcDbVertex
100
AcDb3dPolylineVertex
 10
-3279.6219086724
 20
12069.42361984123
 30
5448.297708822101
 70
    32
  0
VERTEX
  5
53E
330
527
100
AcDbEntity
  8
trace
100
AcDbVertex
100
AcDb3dPolylineVertex
 10
-3279.280080420046
 20
12071.72994241436
 30
5437.810393061903
 70
    32
  0
VERTEX
  5
53F
330
527
100
AcDbEntity
  8
trace
100
AcDbVertex
100
AcDb3dPolylineVertex
 10
-3277.741827045681
 20
12082.10857102702
 30
5426.157804423165
 70
    32
  0
VERTEX
  5
540
330
527
100
AcDbEntity
  8
trace
100
AcDbVertex
100
AcDb3dPolylineVertex
 10
-3276.716331793112
 20
12089.02760955983
 30
5415.670488662967
 70
    32
  0
VERTEX
  5
541
330
527
100
AcDbEntity
  8
trace
100
AcDbVertex
100
AcDb3dPolylineVertex
 10
-3276.37450354076
 20
12091.33393213296
 30
5413.33998962144
 70
    32
  0
VERTEX
  5
542
330
527
100
AcDbEntity
  8
trace
100
AcDbVertex
100
AcDb3dPolylineVertex
 10
-3273.127098409117
 20
12113.2442444247
 30
5409.844217701379
 70
    32
  0
VERTEX
  5
543
330
527
100
AcDbEntity
  8
trace
100
AcDbVertex
100
AcDb3dPolylineVertex
 10
-3270.905188530046
 20
12128.23551818361
 30
5404.017900024228
 70
    32
  0
VERTEX
  5
544
330
527
100
AcDbEntity
  8
trace
100
AcDbVertex
100
AcDb3dPolylineVertex
 10
-3269.537865025121
 20
12137.46087928957
 30
5392.365358101044
 70
    32
  0
VERTEX
  5
545
330
527
100
AcDbEntity
  8
trace
100
AcDbVertex
100
AcDb3dPolylineVertex
 10
-3268.854198024905
 20
12142.07359524926
 30
5378.382223705223
 70
    32
  0
VERTEX
  5
546
330
527
100
AcDbEntity
  8
trace
100
AcDbVertex
100
AcDb3dPolylineVertex
 10
-3265.948621145618
 20
12161.67758496786
 30
5367.894907945025
 70
    32
  0
VERTEX
  5
547
330
527
100
AcDbEntity
  8
trace
100
AcDbVertex
100
AcDb3dPolylineVertex
 10
-3263.21396364026
 20
12180.12837799319
 30
5364.399136024957
 70
    32
  0
VERTEX
  5
548
330
527
100
AcDbEntity
  8
trace
100
AcDbVertex
100
AcDb3dPolylineVertex
 10
-3267.657783398404
 20
12150.14583047535
 30
5363.233909861978
 70
    32
  0
VERTEX
  5
549
330
527
100
AcDbEntity
  8
trace
100
AcDbVertex
100
AcDb3dPolylineVertex
 10
-3270.050612651406
 20
12134.00136002316
 30
5362.068636983437
 70
    32
  0
VERTEX
  5
54A
330
527
100
AcDbEntity
  8
trace
100
AcDbVertex
100
AcDb3dPolylineVertex
 10
-3270.734269156115
 20
12129.38871487689
 30
5351.581321223232
 70
    32
  0
VERTEX
  5
54B
330
527
100
AcDbEntity
  8
trace
100
AcDbVertex
100
AcDb3dPolylineVertex
 10
-3270.392440903761
 20
12131.69503745002
 30
5332.937188744363
 70
    32
  0
VERTEX
  5
54C
330
527
100
AcDbEntity
  8
trace
100
AcDbVertex
100
AcDb3dPolylineVertex
 10
-3270.981658813032
 20
12127.71957153903
 30
5259.769132902315
 70
    32
  0
VERTEX
  5
54D
330
527
100
AcDbEntity
  8
trace
100
AcDbVertex
100
AcDb3dPolylineVertex
 10
-3246.924313496889
 20
12290.0349979855
 30
5262.751267262268
 70
    32
  0
VERTEX
  5
54E
330
527
100
AcDbEntity
  8
trace
100
AcDbVertex
100
AcDb3dPolylineVertex
 10
-3242.112846532762
 20
12322.4980691121
 30
5253.804910897976
 70
    32
  0
VERTEX
  5
54F
330
527
100
AcDbEntity
  8
trace
100
AcDbVertex
100
AcDb3dPolylineVertex
 10
-3237.301379568633
 20
12354.96114023872
 30
5206.091134863258
 70
    32
  0
VERTEX
  5
550
330
527
100
AcDbEntity
  8
trace
100
AcDbVertex
100
AcDb3dPolylineVertex
 10
-3246.486913134064
 20
12292.98614764423
 30
5182.234246845895
 70
    32
  0
VERTEX
  5
551
330
527
100
AcDbEntity
  8
trace
100
AcDbVertex
100
AcDb3dPolylineVertex
 10
-3249.644445216952
 20
12271.68221074607
 30
5149.700037362723
 70
    32
  0
SEQEND
  5
552
330
527
100
AcDbEntity
  8
trace
  0
POLYLINE
  5
554
330
1F
100
AcDbEntity
  8
trace
100
AcDb3dPolyline
 66
     1
 10
0.0
 20
0.0
 30
0.0
 70
     8
  0
VERTEX
  5
555
330
554
100
AcDbEntity
  8
trace
100
AcDbVertex
100
AcDb3dPolylineVertex
 10
-3249.644445216953
 20
12271.68221074607
 30
5149.700037362723
 70
    32
  0
VERTEX
  5
556
330
554
100
AcDbEntity
  8
trace
100
AcDbVertex
100
AcDb3dPolylineVertex
 10
-3254.476189505638
 20
12239.0823280744
 30
5149.700037362723
 70
    32
  0
VERTEX
  5
557
330
554
100
AcDbEntity
  8
trace
100
AcDbVertex
100
AcDb3dPolylineVertex
 10
-3262.1767868855
 20
12187.12623187262
 30
5146.611811970572
 70
    32
  0
VERTEX
  5
558
330
554
100
AcDbEntity
  8
trace
100
AcDbVertex
100
AcDb3dPolylineVertex
 10
-3265.196628377867
 20
12166.75129635114
 30
5143.523539862865
 70
    32
  0
VERTEX
  5
559
330
554
100
AcDbEntity
  8
trace
100
AcDbVertex
100
AcDb3dPolylineVertex
 10
-3265.951591374835
 20
12161.65754476742
 30
5133.229299503844
 70
    32
  0
VERTEX
  5
55A
330
554
100
AcDbEntity
  8
trace
100
AcDbVertex
100
AcDb3dPolylineVertex
 10
-3263.686712879439
 20
12176.93872870516
 30
5098.228975714294
 70
    32
  0
VERTEX
  5
55B
330
554
100
AcDbEntity
  8
trace
100
AcDbVertex
100
AcDb3dPolylineVertex
 10
-3263.535713982739
 20
12177.95752150997
 30
5084.846509963128
 70
    32
  0
VERTEX
  5
55C
330
554
100
AcDbEntity
  8
trace
100
AcDbVertex
100
AcDb3dPolylineVertex
 10
-3263.535713982739
 20
12177.95752150997
 30
5056.022730388992
 70
    32
  0
VERTEX
  5
55D
330
554
100
AcDbEntity
  8
trace
100
AcDbVertex
100
AcDb3dPolylineVertex
 10
-3261.874799587611
 20
12189.16374666879
 30
5038.522568494212
 70
    32
  0
VERTEX
  5
55E
330
554
100
AcDbEntity
  8
trace
100
AcDbVertex
100
AcDb3dPolylineVertex
 10
-3254.778176803526
 20
12237.04481327823
 30
5040.581369850464
 70
    32
  0
VERTEX
  5
55F
330
554
100
AcDbEntity
  8
trace
100
AcDbVertex
100
AcDb3dPolylineVertex
 10
-3249.19146951787
 20
12274.73844753363
 30
5048.816762137678
 70
    32
  0
VERTEX
  5
560
330
554
100
AcDbEntity
  8
trace
100
AcDbVertex
100
AcDb3dPolylineVertex
 10
-3245.567663925233
 20
12299.18834183403
 30
5047.787338101778
 70
    32
  0
VERTEX
  5
561
330
554
100
AcDbEntity
  8
trace
100
AcDbVertex
100
AcDb3dPolylineVertex
 10
-3244.057737931296
 20
12309.37584500148
 30
5034.404872350606
 70
    32
  0
VERTEX
  5
562
330
554
100
AcDbEntity
  8
trace
100
AcDbVertex
100
AcDb3dPolylineVertex
 10
-3246.322616426694
 20
12294.09466106373
 30
4979.845538594476
 70
    32
  0
VERTEX
  5
563
330
554
100
AcDbEntity
  8
trace
100
AcDbVertex
100
AcDb3dPolylineVertex
 10
-3246.775602621283
 20
12291.03835346276
 30
4970.580722271363
 70
    32
  0
VERTEX
  5
564
330
554
100
AcDbEntity
  8
trace
100
AcDbVertex
100
AcDb3dPolylineVertex
 10
-3252.362299411429
 20
12253.34479002077
 30
4972.639570343162
 70
    32
  0
VERTEX
  5
565
330
554
100
AcDbEntity
  8
trace
100
AcDbVertex
100
AcDb3dPolylineVertex
 10
-3257.647029894702
 20
12217.68859974813
 30
4969.551298235455
 70
    32
  0
VERTEX
  5
566
330
554
100
AcDbEntity
  8
trace
100
AcDbVertex
100
AcDb3dPolylineVertex
 10
-3260.07703424273
 20
12201.29330812997
 30
4919.13054247736
 70
    32
  0
SEQEND
  5
567
330
554
100
AcDbEntity
  8
trace
  0
POLYLINE
  5
569
330
1F
100
AcDbEntity
  8
trace
100
AcDb3dPolyline
 66
     1
 10
0.0
 20
0.0
 30
0.0
 70
     8
  0
VERTEX
  5
56A
330
569
100
AcDbEntity
  8
trace
100
AcDbVertex
100
AcDb3dPolylineVertex
 10
-3260.077034242731
 20
12201.29330812997
 30
4919.13054247736
 70
    32
  0
VERTEX
  5
56B
330
569
100
AcDbEntity
  8
trace
100
AcDbVertex
100
AcDb3dPolylineVertex
 10
-3263.096875735098
 20
12180.91837260849
 30
4887.218490795516
 70
    32
  0
VERTEX
  5
56C
330
569
100
AcDbEntity
  8
trace
100
AcDbVertex
100
AcDb3dPolylineVertex
 10
-3267.788263573824
 20
12149.26547792448
 30
4819.734550472094
 70
    32
  0
VERTEX
  5
56D
330
569
100
AcDbEntity
  8
trace
100
AcDbVertex
100
AcDb3dPolylineVertex
 10
-3268.845203373174
 20
12142.13428235801
 30
4750.763280213337
 70
    32
  0
VERTEX
  5
56E
330
569
100
AcDbEntity
  8
trace
100
AcDbVertex
100
AcDb3dPolylineVertex
 10
-3268.845203373174
 20
12142.13428235801
 30
4464.584145681525
 70
    32
  0
VERTEX
  5
56F
330
569
100
AcDbEntity
  8
trace
100
AcDbVertex
100
AcDb3dPolylineVertex
 10
-3269.291545910181
 20
12139.12279965767
 30
4277.747467125518
 70
    32
  0
VERTEX
  5
570
330
569
100
AcDbEntity
  8
trace
100
AcDbVertex
100
AcDb3dPolylineVertex
 10
-3267.781619916243
 20
12149.31030282513
 30
4228.335253548896
 70
    32
  0
VERTEX
  5
571
330
569
100
AcDbEntity
  8
trace
100
AcDbVertex
100
AcDb3dPolylineVertex
 10
-3267.932618812943
 20
12148.29151002032
 30
4084.216262247085
 70
    32
  0
VERTEX
  5
572
330
569
100
AcDbEntity
  8
trace
100
AcDbVertex
100
AcDb3dPolylineVertex
 10
-3268.531702501247
 20
12144.24947948593
 30
3603.677983002563
 70
    32
  0
VERTEX
  5
573
330
569
100
AcDbEntity
  8
trace
100
AcDbVertex
100
AcDb3dPolylineVertex
 10
-3265.964836707959
 20
12161.56817821986
 30
3455.441295557139
 70
    32
  0
VERTEX
  5
574
330
569
100
AcDbEntity
  8
trace
100
AcDbVertex
100
AcDb3dPolylineVertex
 10
-3264.45491071402
 20
12171.75568138732
 30
3409.117307372668
 70
    32
  0
VERTEX
  5
575
330
569
100
AcDbEntity
  8
trace
100
AcDbVertex
100
AcDb3dPolylineVertex
 10
-3265.360862112179
 20
12165.64320781221
 30
3366.911062047366
 70
    32
  0
VERTEX
  5
576
330
569
100
AcDbEntity
  8
trace
100
AcDbVertex
100
AcDb3dPolylineVertex
 10
-3256.447949408761
 20
12225.77882158523
 30
3385.322924771899
 70
    32
  0
VERTEX
  5
577
330
569
100
AcDbEntity
  8
trace
100
AcDbVertex
100
AcDb3dPolylineVertex
 10
-3252.975132217315
 20
12249.20999389424
 30
3391.499422271758
 70
    32
  0
VERTEX
  5
578
330
569
100
AcDbEntity
  8
trace
100
AcDbVertex
100
AcDb3dPolylineVertex
 10
-3252.424401341766
 20
12252.92578696065
 30
3333.71596756528
 70
    32
  0
SEQEND
  5
579
330
569
100
AcDbEntity
  8
trace
  0
POLYLINE
  5
5AE
330
1F
100
AcDbEntity
  8
trace
100
AcDb3dPolyline
 66
     1
 10
0.0
 20
0.0
 30
0.0
 70
     8
  0
VERTEX
  5
5AF
330
5AE
100
AcDbEntity
  8
trace
100
AcDbVertex
100
AcDb3dPolylineVertex
 10
-3252.424401341766
 20
12252.92578696065
 30
3333.71596756528
 70
    32
  0
VERTEX
  5
5B0
330
5AE
100
AcDbEntity
  8
trace
100
AcDbVertex
100
AcDb3dPolylineVertex
 10
-3252.542234428111
 20
12252.13076459189
 30
3125.633567105855
 70
    32
  0
VERTEX
  5
5B1
330
5AE
100
AcDbEntity
  8
trace
100
AcDbVertex
100
AcDb3dPolylineVertex
 10
-3252.895765173675
 20
12249.74548504528
 30
3103.13820402616
 70
    32
  0
VERTEX
  5
5B2
330
5AE
100
AcDbEntity
  8
trace
100
AcDbVertex
100
AcDb3dPolylineVertex
 10
-3251.01029935053
 20
12262.4667635202
 30
3091.890499128531
 70
    32
  0
VERTEX
  5
5B3
330
5AE
100
AcDbEntity
  8
trace
100
AcDbVertex
100
AcDb3dPolylineVertex
 10
-3249.831895018512
 20
12270.41748290193
 30
3083.856450896259
 70
    32
  0
VERTEX
  5
5B4
330
5AE
100
AcDbEntity
  8
trace
100
AcDbVertex
100
AcDb3dPolylineVertex
 10
-3249.596207854802
 20
12272.00766926633
 30
3060.557626934664
 70
    32
  0
VERTEX
  5
5B5
330
5AE
100
AcDbEntity
  8
trace
100
AcDbVertex
100
AcDb3dPolylineVertex
 10
-3251.01029935053
 20
12262.4667635202
 30
3041.275873804763
 70
    32
  0
VERTEX
  5
5B6
330
5AE
100
AcDbEntity
  8
trace
100
AcDbVertex
100
AcDb3dPolylineVertex
 10
-3253.013598260021
 20
12248.9504626765
 30
3021.190706508525
 70
    32
  0
VERTEX
  5
5B7
330
5AE
100
AcDbEntity
  8
trace
100
AcDbVertex
100
AcDb3dPolylineVertex
 10
-3253.013598260021
 20
12248.9504626765
 30
3009.943001610897
 70
    32
  0
VERTEX
  5
5B8
330
5AE
100
AcDbEntity
  8
trace
100
AcDbVertex
100
AcDb3dPolylineVertex
 10
-3251.495685183272
 20
12259.19185486352
 30
2552.52710166543
 70
    32
  0
VERTEX
  5
5B9
330
5AE
100
AcDbEntity
  8
trace
100
AcDbVertex
100
AcDb3dPolylineVertex
 10
-3252.249756061925
 20
12254.10412242127
 30
2322.467927535567
 70
    32
  0
VERTEX
  5
5BA
330
5AE
100
AcDbEntity
  8
trace
100
AcDbVertex
100
AcDb3dPolylineVertex
 10
-3252.243658170844
 20
12254.14526502359
 30
2240.896443544218
 70
    32
  0
VERTEX
  5
5BB
330
5AE
100
AcDbEntity
  8
trace
100
AcDbVertex
100
AcDb3dPolylineVertex
 10
-3253.940299280671
 20
12242.69799095203
 30
2231.899727808414
 70
    32
  0
VERTEX
  5
5BC
330
5AE
100
AcDbEntity
  8
trace
100
AcDbVertex
100
AcDb3dPolylineVertex
 10
-3254.694359663813
 20
12237.61032932321
 30
2216.476773199727
 70
    32
  0
VERTEX
  5
5BD
330
5AE
100
AcDbEntity
  8
trace
100
AcDbVertex
100
AcDb3dPolylineVertex
 10
-3253.75178943264
 20
12243.96987095252
 30
2202.339057022509
 70
    32
  0
VERTEX
  5
5BE
330
5AE
100
AcDbEntity
  8
trace
100
AcDbVertex
100
AcDb3dPolylineVertex
 10
-3253.5632690891
 20
12245.24182176643
 30
2192.057056139689
 70
    32
  0
VERTEX
  5
5BF
330
5AE
100
AcDbEntity
  8
trace
100
AcDbVertex
100
AcDb3dPolylineVertex
 10
-3252.437804107533
 20
12252.83535821167
 30
2112.17905784108
 70
    32
  0
VERTEX
  5
5C0
330
5AE
100
AcDbEntity
  8
trace
100
AcDbVertex
100
AcDb3dPolylineVertex
 10
-3251.87225357242
 20
12256.65113984
 30
2020.926568620467
 70
    32
  0
VERTEX
  5
5C1
330
5AE
100
AcDbEntity
  8
trace
100
AcDbVertex
100
AcDb3dPolylineVertex
 10
-3252.437804107533
 20
12252.83535821167
 30
1970.80194278447
 70
    32
  0
VERTEX
  5
5C2
330
5AE
100
AcDbEntity
  8
trace
100
AcDbVertex
100
AcDb3dPolylineVertex
 10
-3252.626313955565
 20
12251.56347821117
 30
1943.811748861502
 70
    32
  0
VERTEX
  5
5C3
330
5AE
100
AcDbEntity
  8
trace
100
AcDbVertex
100
AcDb3dPolylineVertex
 10
-3251.118193189278
 20
12261.73880146882
 30
1933.529794694237
 70
    32
  0
VERTEX
  5
5C4
330
5AE
100
AcDbEntity
  8
trace
100
AcDbVertex
100
AcDb3dPolylineVertex
 10
-3251.87225357242
 20
12256.65113984
 30
1903.96912390834
 70
    32
  0
VERTEX
  5
5C5
330
5AE
100
AcDbEntity
  8
trace
100
AcDbVertex
100
AcDb3dPolylineVertex
 10
-3249.42155207945
 20
12273.18607554038
 30
1887.260884152638
 70
    32
  0
VERTEX
  5
5C6
330
5AE
100
AcDbEntity
  8
trace
100
AcDbVertex
100
AcDb3dPolylineVertex
 10
-3249.048741082741
 20
12275.70143935628
 30
1790.135782136895
 70
    32
  0
VERTEX
  5
5C7
330
5AE
100
AcDbEntity
  8
trace
100
AcDbVertex
100
AcDb3dPolylineVertex
 10
-3246.975069781342
 20
12289.69254424226
 30
1696.31276933779
 70
    32
  0
VERTEX
  5
5C8
330
5AE
100
AcDbEntity
  8
trace
100
AcDbVertex
100
AcDb3dPolylineVertex
 10
-3245.655458863086
 20
12298.59598749942
 30
1615.342234284442
 70
    32
  0
VERTEX
  5
5C9
330
5AE
100
AcDbEntity
  8
trace
100
AcDbVertex
100
AcDb3dPolylineVertex
 10
-3245.843968711119
 20
12297.32410749892
 30
1542.08317653543
 70
    32
  0
VERTEX
  5
5CA
330
5AE
100
AcDbEntity
  8
trace
100
AcDbVertex
100
AcDb3dPolylineVertex
 10
-3245.101316946917
 20
12302.33479493028
 30
1245.839548758798
 70
    32
  0
VERTEX
  5
5CB
330
5AE
100
AcDbEntity
  8
trace
100
AcDbVertex
100
AcDb3dPolylineVertex
 10
-3244.724286755346
 20
12304.87862574469
 30
1006.783658893131
 70
    32
  0
VERTEX
  5
5CC
330
5AE
100
AcDbEntity
  8
trace
100
AcDbVertex
100
AcDb3dPolylineVertex
 10
-3244.347256563774
 20
12307.42245655911
 30
897.5376914853477
 70
    32
  0
VERTEX
  5
5CD
330
5AE
100
AcDbEntity
  8
trace
100
AcDbVertex
100
AcDb3dPolylineVertex
 10
-3243.216155493549
 20
12315.05401981577
 30
864.1213054050531
 70
    32
  0
VERTEX
  5
5CE
330
5AE
100
AcDbEntity
  8
trace
100
AcDbVertex
100
AcDb3dPolylineVertex
 10
-3239.068812890752
 20
12343.03622958772
 30
848.698350796374
 70
    32
  0
VERTEX
  5
5CF
330
5AE
100
AcDbEntity
  8
trace
100
AcDbVertex
100
AcDb3dPolylineVertex
 10
-3238.314752507611
 20
12348.12389121654
 30
843.5573503549603
 70
    32
  0
VERTEX
  5
5D0
330
5AE
100
AcDbEntity
  8
trace
100
AcDbVertex
100
AcDb3dPolylineVertex
 10
-3232.648657187296
 20
12386.35315824983
 30
36.75724037293548
 70
    32
  0
SEQEND
  5
5D1
330
5AE
100
AcDbEntity
  8
trace
  0
POLYLINE
  5
67F
330
1F
100
AcDbEntity
  8
trace
100
AcDb3dPolyline
 66
     1
 10
0.0
 20
0.0
 30
0.0
 70
     8
  0
VERTEX
  5
680
330
67F
100
AcDbEntity
  8
trace
100
AcDbVertex
100
AcDb3dPolylineVertex
 10
-3386.03812660534
 20
11351.43110788212
 30
-512.0056543669707
 70
    32
  0
VERTEX
  5
681
330
67F
100
AcDbEntity
  8
trace
100
AcDbVertex
100
AcDb3dPolylineVertex
 10
-3387.12887244113
 20
11344.07182226044
 30
-13.76811151950824
 70
    32
  0
VERTEX
  5
682
330
67F
100
AcDbEntity
  8
trace
100
AcDbVertex
100
AcDb3dPolylineVertex
 10
-3391.491845288778
 20
11314.63475058715
 30
596.0150655089964
 70
    32
  0
VERTEX
  5
683
330
67F
100
AcDbEntity
  8
trace
100
AcDbVertex
100
AcDb3dPolylineVertex
 10
-3390.401099452989
 20
11321.99403620883
 30
878.5975225154833
 70
    32
  0
VERTEX
  5
684
330
67F
100
AcDbEntity
  8
trace
100
AcDbVertex
100
AcDb3dPolylineVertex
 10
-3393.673326464848
 20
11299.91625015722
 30
1116.561716506439
 70
    32
  0
VERTEX
  5
685
330
67F
100
AcDbEntity
  8
trace
100
AcDbVertex
100
AcDb3dPolylineVertex
 10
-3390.401099452989
 20
11321.99403620883
 30
1287.598445900774
 70
    32
  0
VERTEX
  5
686
330
67F
100
AcDbEntity
  8
trace
100
AcDbVertex
100
AcDb3dPolylineVertex
 10
-3376.221435074252
 20
11417.6645368504
 30
1376.835018647383
 70
    32
  0
VERTEX
  5
687
330
67F
100
AcDbEntity
  8
trace
100
AcDbVertex
100
AcDb3dPolylineVertex
 10
-3363.132516531304
 20
11505.97575187028
 30
1510.689901125079
 70
    32
  0
VERTEX
  5
688
330
67F
100
AcDbEntity
  8
trace
100
AcDbVertex
100
AcDb3dPolylineVertex
 10
-3357.678797847864
 20
11542.77210916527
 30
1592.490057772804
 70
    32
  0
VERTEX
  5
689
330
67F
100
AcDbEntity
  8
trace
100
AcDbVertex
100
AcDb3dPolylineVertex
 10
-3334.773187773828
 20
11697.31675315343
 30
1644.544736887212
 70
    32
  0
VERTEX
  5
68A
330
67F
100
AcDbEntity
  8
trace
100
AcDbVertex
100
AcDb3dPolylineVertex
 10
-3309.686096523724
 20
11866.57989757152
 30
1696.599416001627
 70
    32
  0
VERTEX
  5
68B
330
67F
100
AcDbEntity
  8
trace
100
AcDbVertex
100
AcDb3dPolylineVertex
 10
-3261.693395199581
 20
12190.38768597778
 30
1733.781309633829
 70
    32
  0
VERTEX
  5
68C
330
67F
100
AcDbEntity
  8
trace
100
AcDbVertex
100
AcDb3dPolylineVertex
 10
-3246.975069781342
 20
12289.69254424226
 30
1696.31276933779
 70
    32
  0
SEQEND
  5
68D
330
67F
100
AcDbEntity
  8
trace
  0
POLYLINE
  5
6DA
330
1F
100
AcDbEntity
  8
trace
100
AcDb3dPolyline
 66
     1
 10
0.0
 20
0.0
 30
0.0
 70
     8
  0
VERTEX
  5
6DB
330
6DA
100
AcDbEntity
  8
trace
100
AcDbVertex
100
AcDb3dPolylineVertex
 10
-3214.844714917991
 20
12506.47673979611
 30
5634.738940179712
 70
    32
  0
VERTEX
  5
6DC
330
6DA
100
AcDbEntity
  8
trace
100
AcDbVertex
100
AcDb3dPolylineVertex
 10
-3214.603643557852
 20
12508.10325344966
 30
5597.649076196758
 70
    32
  0
VERTEX
  5
6DD
330
6DA
100
AcDbEntity
  8
trace
100
AcDbVertex
100
AcDb3dPolylineVertex
 10
-3212.270260871257
 20
12523.84663663929
 30
5580.149895328701
 70
    32
  0
VERTEX
  5
6DE
330
6DA
100
AcDbEntity
  8
trace
100
AcDbVertex
100
AcDb3dPolylineVertex
 10
-3206.203467985211
 20
12564.77941876967
 30
5581.740700224989
 70
    32
  0
VERTEX
  5
6DF
330
6DA
100
AcDbEntity
  8
trace
100
AcDbVertex
100
AcDb3dPolylineVertex
 10
-3175.636156889912
 20
12771.01772439128
 30
5613.557405452972
 70
    32
  0
VERTEX
  5
6E0
330
6DA
100
AcDbEntity
  8
trace
100
AcDbVertex
100
AcDb3dPolylineVertex
 10
-3168.402672660568
 20
12819.82219811648
 30
5662.873291549011
 70
    32
  0
VERTEX
  5
6E1
330
6DA
100
AcDbEntity
  8
trace
100
AcDbVertex
100
AcDb3dPolylineVertex
 10
-3160.002486592415
 20
12876.49843424994
 30
5739.233328037503
 70
    32
  0
VERTEX
  5
6E2
330
6DA
100
AcDbEntity
  8
trace
100
AcDbVertex
100
AcDb3dPolylineVertex
 10
-3152.068993854398
 20
12930.02588044397
 30
5799.685035269781
 70
    32
  0
VERTEX
  5
6E3
330
6DA
100
AcDbEntity
  8
trace
100
AcDbVertex
100
AcDb3dPolylineVertex
 10
-3144.835499129546
 20
12978.83042498259
 30
5856.955085993926
 70
    32
  0
VERTEX
  5
6E4
330
6DA
100
AcDbEntity
  8
trace
100
AcDbVertex
100
AcDb3dPolylineVertex
 10
-3136.201987387345
 20
13037.08091445889
 30
5933.31516919798
 70
    32
  0
VERTEX
  5
6E5
330
6DA
100
AcDbEntity
  8
trace
100
AcDbVertex
100
AcDb3dPolylineVertex
 10
-3126.868456640963
 20
13100.05444721746
 30
5977.85850045849
 70
    32
  0
VERTEX
  5
6E6
330
6DA
100
AcDbEntity
  8
trace
100
AcDbVertex
100
AcDb3dPolylineVertex
 10
-3110.229075126504
 20
13212.32071229503
 30
6008.684695710377
 70
    32
  0
VERTEX
  5
6E7
330
6DA
100
AcDbEntity
  8
trace
100
AcDbVertex
100
AcDb3dPolylineVertex
 10
-3099.962199701892
 20
13281.59154167871
 30
6005.503039202245
 70
    32
  0
VERTEX
  5
6E8
330
6DA
100
AcDbEntity
  8
trace
100
AcDbVertex
100
AcDb3dPolylineVertex
 10
-3087.82860343429
 20
13363.45717675289
 30
6003.912187590402
 70
    32
  0
VERTEX
  5
6E9
330
6DA
100
AcDbEntity
  8
trace
100
AcDbVertex
100
AcDb3dPolylineVertex
 10
-3077.795064179235
 20
13431.15368198029
 30
5988.003858334188
 70
    32
  0
VERTEX
  5
6EA
330
6DA
100
AcDbEntity
  8
trace
100
AcDbVertex
100
AcDb3dPolylineVertex
 10
-3073.828307314716
 20
13457.91747589074
 30
5895.735445873928
 70
    32
  0
VERTEX
  5
6EB
330
6DA
100
AcDbEntity
  8
trace
100
AcDbVertex
100
AcDb3dPolylineVertex
 10
-3069.861560945708
 20
13484.68119898776
 30
5832.102082133519
 70
    32
  0
VERTEX
  5
6EC
330
6DA
100
AcDbEntity
  8
trace
100
AcDbVertex
100
AcDb3dPolylineVertex
 10
-3063.794768059661
 20
13525.61398111814
 30
5782.786196037472
 70
    32
  0
VERTEX
  5
6ED
330
6DA
100
AcDbEntity
  8
trace
100
AcDbVertex
100
AcDb3dPolylineVertex
 10
-3052.127854626683
 20
13604.33089706635
 30
5787.558704157447
 70
    32
  0
VERTEX
  5
6EE
330
6DA
100
AcDbEntity
  8
trace
100
AcDbVertex
100
AcDb3dPolylineVertex
 10
-3040.22760502415
 20
13684.62213717082
 30
5785.967852545604
 70
    32
  0
VERTEX
  5
6EF
330
6DA
100
AcDbEntity
  8
trace
100
AcDbVertex
100
AcDb3dPolylineVertex
 10
-3031.127410447326
 20
13746.0213457731
 30
5789.149509053736
 70
    32
  0
VERTEX
  5
6F0
330
6DA
100
AcDbEntity
  8
trace
100
AcDbVertex
100
AcDb3dPolylineVertex
 10
-3022.493898705125
 20
13804.27183524941
 30
5789.149509053736
 70
    32
  0
VERTEX
  5
6F1
330
6DA
100
AcDbEntity
  8
trace
100
AcDbVertex
100
AcDb3dPolylineVertex
 10
-3018.760478010164
 20
13829.46130500358
 30
5782.786196037472
 70
    32
  0
VERTEX
  5
6F2
330
6DA
100
AcDbEntity
  8
trace
100
AcDbVertex
100
AcDb3dPolylineVertex
 10
-3018.06046950149
 20
13834.18427747242
 30
5744.606177793226
 70
    32
  0
VERTEX
  5
6F3
330
6DA
100
AcDbEntity
  8
trace
100
AcDbVertex
100
AcDb3dPolylineVertex
 10
-3020.627188357644
 20
13816.86657012649
 30
5730.288653433301
 70
    32
  0
VERTEX
  5
6F4
330
6DA
100
AcDbEntity
  8
trace
100
AcDbVertex
100
AcDb3dPolylineVertex
 10
-3022.027215870498
 20
13807.4205543754
 30
5727.10699692517
 70
    32
  0
VERTEX
  5
6F5
330
6DA
100
AcDbEntity
  8
trace
100
AcDbVertex
100
AcDb3dPolylineVertex
 10
-3015.221906451035
 20
13853.33612344607
 30
5642.538055870842
 70
    32
  0
VERTEX
  5
6F6
330
6DA
100
AcDbEntity
  8
trace
100
AcDbVertex
100
AcDb3dPolylineVertex
 10
-3008.22175839125
 20
13900.56627301499
 30
5569.359675890482
 70
    32
  0
VERTEX
  5
6F7
330
6DA
100
AcDbEntity
  8
trace
100
AcDbVertex
100
AcDb3dPolylineVertex
 10
-2997.488200132013
 20
13972.98582152464
 30
5567.768824278639
 70
    32
  0
VERTEX
  5
6F8
330
6DA
100
AcDbEntity
  8
trace
100
AcDbVertex
100
AcDb3dPolylineVertex
 10
-2991.654743415524
 20
14012.34427949875
 30
5567.768824278639
 70
    32
  0
VERTEX
  5
6F9
330
6DA
100
AcDbEntity
  8
trace
100
AcDbVertex
100
AcDb3dPolylineVertex
 10
-2987.687997046516
 20
14039.10800259576
 30
5596.403872998497
 70
    32
  0
VERTEX
  5
6FA
330
6DA
100
AcDbEntity
  8
trace
100
AcDbVertex
100
AcDb3dPolylineVertex
 10
-2987.687997046516
 20
14039.10800259576
 30
5628.220531510916
 70
    32
  0
VERTEX
  5
6FB
330
6DA
100
AcDbEntity
  8
trace
100
AcDbVertex
100
AcDb3dPolylineVertex
 10
-2984.887931525296
 20
14058.00010491138
 30
5667.991401367006
 70
    32
  0
VERTEX
  5
6FC
330
6DA
100
AcDbEntity
  8
trace
100
AcDbVertex
100
AcDb3dPolylineVertex
 10
-2986.054622868593
 20
14050.12841331657
 30
5696.626450086863
 70
    32
  0
VERTEX
  5
6FD
330
6DA
100
AcDbEntity
  8
trace
100
AcDbVertex
100
AcDb3dPolylineVertex
 10
-2997.954872471128
 20
13969.83717321208
 30
5720.488943971184
 70
    32
  0
VERTEX
  5
6FE
330
6DA
100
AcDbEntity
  8
trace
100
AcDbVertex
100
AcDb3dPolylineVertex
 10
-2996.088172619156
 20
13982.43183727575
 30
5769.804830067223
 70
    32
  0
VERTEX
  5
6FF
330
6DA
100
AcDbEntity
  8
trace
100
AcDbVertex
100
AcDb3dPolylineVertex
 10
-2973.921037096499
 20
14131.99397757733
 30
5796.84902717523
 70
    32
  0
VERTEX
  5
700
330
6DA
100
AcDbEntity
  8
trace
100
AcDbVertex
100
AcDb3dPolylineVertex
 10
-2963.887487345936
 20
14199.69055361816
 30
5817.52986455142
 70
    32
  0
VERTEX
  5
701
330
6DA
100
AcDbEntity
  8
trace
100
AcDbVertex
100
AcDb3dPolylineVertex
 10
-2961.320768489782
 20
14217.00826096408
 30
5905.025768891704
 70
    32
  0
VERTEX
  5
702
330
6DA
100
AcDbEntity
  8
trace
100
AcDbVertex
100
AcDb3dPolylineVertex
 10
-2960.154077146485
 20
14224.87995255889
 30
5990.930821620146
 70
    32
  0
VERTEX
  5
703
330
6DA
100
AcDbEntity
  8
trace
100
AcDbVertex
100
AcDb3dPolylineVertex
 10
-2834.266936144557
 20
15074.24320138514
 30
5984.587689724941
 70
    32
  0
VERTEX
  5
704
330
6DA
100
AcDbEntity
  8
trace
100
AcDbVertex
100
AcDb3dPolylineVertex
 10
-2835.047413725379
 20
15068.97730235521
 30
5938.510453117778
 70
    32
  0
VERTEX
  5
705
330
6DA
100
AcDbEntity
  8
trace
100
AcDbVertex
100
AcDb3dPolylineVertex
 10
-2806.750984556972
 20
15259.89391875761
 30
5917.27187869473
 70
    32
  0
VERTEX
  5
706
330
6DA
100
AcDbEntity
  8
trace
100
AcDbVertex
100
AcDb3dPolylineVertex
 10
-2804.674175098202
 20
15273.90619685889
 30
5943.820096723539
 70
    32
  0
VERTEX
  5
707
330
6DA
100
AcDbEntity
  8
trace
100
AcDbVertex
100
AcDb3dPolylineVertex
 10
-2800.001374806988
 20
15305.43368095991
 30
6009.305732338319
 70
    32
  0
VERTEX
  5
708
330
6DA
100
AcDbEntity
  8
trace
100
AcDbVertex
100
AcDb3dPolylineVertex
 10
-2741.591302945995
 20
15699.52769251005
 30
5991.606889175404
 70
    32
  0
VERTEX
  5
709
330
6DA
100
AcDbEntity
  8
trace
100
AcDbVertex
100
AcDb3dPolylineVertex
 10
-2741.072111076812
 20
15703.03069122194
 30
5931.430897166393
 70
    32
  0
VERTEX
  5
70A
330
6DA
100
AcDbEntity
  8
trace
100
AcDbVertex
100
AcDb3dPolylineVertex
 10
-2694.084449257018
 20
16020.05745646874
 30
5917.27187869473
 70
    32
  0
VERTEX
  5
70B
330
6DA
100
AcDbEntity
  8
trace
100
AcDbVertex
100
AcDb3dPolylineVertex
 10
-2691.228851994474
 20
16039.32423263785
 30
5850.016377449887
 70
    32
  0
VERTEX
  5
70C
330
6DA
100
AcDbEntity
  8
trace
100
AcDbVertex
100
AcDb3dPolylineVertex
 10
-2688.113648301828
 20
16060.34257897634
 30
5825.238025051142
 70
    32
  0
VERTEX
  5
70D
330
6DA
100
AcDbEntity
  8
trace
100
AcDbVertex
100
AcDb3dPolylineVertex
 10
-2688.632850666521
 20
16056.83950945102
 30
5782.760876205044
 70
    32
  0
VERTEX
  5
70E
330
6DA
100
AcDbEntity
  8
trace
100
AcDbVertex
100
AcDb3dPolylineVertex
 10
-2663.711221125351
 20
16224.98628015899
 30
5784.530741835108
 70
    32
  0
VERTEX
  5
70F
330
6DA
100
AcDbEntity
  8
trace
100
AcDbVertex
100
AcDb3dPolylineVertex
 10
-2662.288586284805
 20
16234.58482803641
 30
5717.099823670011
 70
    32
  0
VERTEX
  5
710
330
6DA
100
AcDbEntity
  8
trace
100
AcDbVertex
100
AcDb3dPolylineVertex
 10
-2648.270174915652
 20
16329.16735115293
 30
5717.099823670011
 70
    32
  0
VERTEX
  5
711
330
6DA
100
AcDbEntity
  8
trace
100
AcDbVertex
100
AcDb3dPolylineVertex
 10
-2645.414567157598
 20
16348.43419813547
 30
5787.895056174988
 70
    32
  0
VERTEX
  5
712
330
6DA
100
AcDbEntity
  8
trace
100
AcDbVertex
100
AcDb3dPolylineVertex
 10
-2578.956895378152
 20
16796.82553948108
 30
5782.585412569227
 70
    32
  0
VERTEX
  5
713
330
6DA
100
AcDbEntity
  8
trace
100
AcDbVertex
100
AcDb3dPolylineVertex
 10
-2451.621237608991
 20
17655.96196210097
 30
5791.311131353118
 70
    32
  0
VERTEX
  5
714
330
6DA
100
AcDbEntity
  8
trace
100
AcDbVertex
100
AcDb3dPolylineVertex
 10
-2447.46762918696
 20
17683.9864474901
 30
5927.591999472876
 70
    32
  0
VERTEX
  5
715
330
6DA
100
AcDbEntity
  8
trace
100
AcDbVertex
100
AcDb3dPolylineVertex
 10
-2402.037584956757
 20
17990.50393334749
 30
5924.052268212741
 70
    32
  0
VERTEX
  5
716
330
6DA
100
AcDbEntity
  8
trace
100
AcDbVertex
100
AcDb3dPolylineVertex
 10
-2400.220381928086
 20
18002.76464127941
 30
5863.876276203729
 70
    32
  0
SEQEND
  5
717
330
6DA
100
AcDbEntity
  8
trace
  0
POLYLINE
  5
74A
330
1F
100
AcDbEntity
  8
trace
100
AcDb3dPolyline
 66
     1
 10
0.0
 20
0.0
 30
0.0
 70
     8
  0
VERTEX
  5
74B
330
74A
100
AcDbEntity
  8
trace
100
AcDbVertex
100
AcDb3dPolylineVertex
 10
-2400.220381928086
 20
18002.76464127942
 30
5863.876276203729
 70
    32
  0
VERTEX
  5
74C
330
74A
100
AcDbEntity
  8
trace
100
AcDbVertex
100
AcDb3dPolylineVertex
 10
-2359.569530969969
 20
18277.03680730476
 30
5856.285792194583
 70
    32
  0
VERTEX
  5
74D
330
74A
100
AcDbEntity
  8
trace
100
AcDbVertex
100
AcDb3dPolylineVertex
 10
-2339.537685885605
 20
18412.192097078
 30
5862.49358911829
 70
    32
  0
VERTEX
  5
74E
330
74A
100
AcDbEntity
  8
trace
100
AcDbVertex
100
AcDb3dPolylineVertex
 10
-2335.713426555008
 20
18437.99445706122
 30
5860.010470348811
 70
    32
  0
VERTEX
  5
74F
330
74A
100
AcDbEntity
  8
trace
100
AcDbVertex
100
AcDb3dPolylineVertex
 10
-2336.077641729349
 20
18435.53708944378
 30
5786.758513364613
 70
    32
  0
VERTEX
  5
750
330
74A
100
AcDbEntity
  8
trace
100
AcDbVertex
100
AcDb3dPolylineVertex
 10
-2331.524952050065
 20
18466.2541846619
 30
5784.275394595127
 70
    32
  0
VERTEX
  5
751
330
74A
100
AcDbEntity
  8
trace
100
AcDbVertex
100
AcDb3dPolylineVertex
 10
-2330.79652170138
 20
18471.16891989681
 30
5712.264950280115
 70
    32
  0
VERTEX
  5
752
330
74A
100
AcDbEntity
  8
trace
100
AcDbVertex
100
AcDb3dPolylineVertex
 10
-2322.237454608813
 20
18528.91712972034
 30
5712.264950280115
 70
    32
  0
VERTEX
  5
753
330
74A
100
AcDbEntity
  8
trace
100
AcDbVertex
100
AcDb3dPolylineVertex
 10
-2321.6911318473
 20
18532.60318114651
 30
5645.220790219624
 70
    32
  0
VERTEX
  5
754
330
74A
100
AcDbEntity
  8
trace
100
AcDbVertex
100
AcDb3dPolylineVertex
 10
-2334.62078103198
 20
18445.36655991357
 30
5641.496112065404
 70
    32
  0
VERTEX
  5
755
330
74A
100
AcDbEntity
  8
trace
100
AcDbVertex
100
AcDb3dPolylineVertex
 10
-2334.256565857636
 20
18447.82392753103
 30
5573.210392620175
 70
    32
  0
VERTEX
  5
756
330
74A
100
AcDbEntity
  8
trace
100
AcDbVertex
100
AcDb3dPolylineVertex
 10
-2287.090679789224
 20
18766.05317561778
 30
5576.935070774394
 70
    32
  0
VERTEX
  5
757
330
74A
100
AcDbEntity
  8
trace
100
AcDbVertex
100
AcDb3dPolylineVertex
 10
-2285.187906870739
 20
18778.89122543733
 30
5572.825456422317
 70
    32
  0
VERTEX
  5
758
330
74A
100
AcDbEntity
  8
trace
100
AcDbVertex
100
AcDb3dPolylineVertex
 10
-2284.459476522053
 20
18783.80596067223
 30
5516.955284108946
 70
    32
  0
VERTEX
  5
759
330
74A
100
AcDbEntity
  8
trace
100
AcDbVertex
100
AcDb3dPolylineVertex
 10
-2268.980321116976
 20
18888.24415522731
 30
5515.713724724206
 70
    32
  0
VERTEX
  5
75A
330
74A
100
AcDbEntity
  8
trace
100
AcDbVertex
100
AcDb3dPolylineVertex
 10
-2250.769562399837
 20
19011.11253609985
 30
5507.022809031012
 70
    32
  0
VERTEX
  5
75B
330
74A
100
AcDbEntity
  8
trace
100
AcDbVertex
100
AcDb3dPolylineVertex
 10
-2237.839913215157
 20
19098.3491573328
 30
5511.989046569979
 70
    32
  0
VERTEX
  5
75C
330
74A
100
AcDbEntity
  8
trace
100
AcDbVertex
100
AcDb3dPolylineVertex
 10
-2229.827179379615
 20
19152.41124491672
 30
5497.09038066864
 70
    32
  0
VERTEX
  5
75D
330
74A
100
AcDbEntity
  8
trace
100
AcDbVertex
100
AcDb3dPolylineVertex
 10
-2219.629144002507
 20
19221.21760901878
 30
5493.365702514413
 70
    32
  0
VERTEX
  5
75E
330
74A
100
AcDbEntity
  8
trace
100
AcDbVertex
100
AcDb3dPolylineVertex
 10
-2219.993359176851
 20
19218.76024140132
 30
5427.563055123108
 70
    32
  0
VERTEX
  5
75F
330
74A
100
AcDbEntity
  8
trace
100
AcDbVertex
100
AcDb3dPolylineVertex
 10
-2145.259251816236
 20
19722.99287168221
 30
5437.79871290653
 70
    32
  0
VERTEX
  5
760
330
74A
100
AcDbEntity
  8
trace
100
AcDbVertex
100
AcDb3dPolylineVertex
 10
-2144.937436381681
 20
19725.16416734306
 30
5367.593562234193
 70
    32
  0
SEQEND
  5
761
330
74A
100
AcDbEntity
  8
trace
  0
POLYLINE
  5
845
330
1F
100
AcDbEntity
  8
trace
100
AcDb3dPolyline
 66
     1
 10
0.0
 20
0.0
 30
0.0
 70
     8
  0
VERTEX
  5
846
330
845
100
AcDbEntity
  8
trace
100
AcDbVertex
100
AcDb3dPolylineVertex
 10
-2066.418528563661
 20
20254.93292774077
 30
4184.995174915573
 70
    32
  0
VERTEX
  5
847
330
845
100
AcDbEntity
  8
trace
100
AcDbVertex
100
AcDb3dPolylineVertex
 10
-2069.177672092926
 20
20236.3169269853
 30
4167.263957870978
 70
    32
  0
VERTEX
  5
848
330
845
100
AcDbEntity
  8
trace
100
AcDbVertex
100
AcDb3dPolylineVertex
 10
-2069.507577446366
 20
20234.09104846767
 30
4133.526729338401
 70
    32
  0
VERTEX
  5
849
330
845
100
AcDbEntity
  8
trace
100
AcDbVertex
100
AcDb3dPolylineVertex
 10
-2067.308253903968
 20
20248.9299317271
 30
4079.547135656947
 70
    32
  0
VERTEX
  5
84A
330
845
100
AcDbEntity
  8
trace
100
AcDbVertex
100
AcDb3dPolylineVertex
 10
-2066.098625430873
 20
20257.09132106046
 30
4059.304817223623
 70
    32
  0
VERTEX
  5
84B
330
845
100
AcDbEntity
  8
trace
100
AcDbVertex
100
AcDb3dPolylineVertex
 10
-2060.930237671578
 20
20291.96254447129
 30
4063.803105018188
 70
    32
  0
VERTEX
  5
84C
330
845
100
AcDbEntity
  8
trace
100
AcDbVertex
100
AcDb3dPolylineVertex
 10
-2056.641562536429
 20
20320.89832787982
 30
4019.569824916071
 70
    32
  0
VERTEX
  5
84D
330
845
100
AcDbEntity
  8
trace
100
AcDbVertex
100
AcDb3dPolylineVertex
 10
-2058.071124413315
 20
20311.25304313917
 30
4001.576627022251
 70
    32
  0
VERTEX
  5
84E
330
845
100
AcDbEntity
  8
trace
100
AcDbVertex
100
AcDb3dPolylineVertex
 10
-2069.947433758439
 20
20231.12332846652
 30
4000.077197757397
 70
    32
  0
VERTEX
  5
84F
330
845
100
AcDbEntity
  8
trace
100
AcDbVertex
100
AcDb3dPolylineVertex
 10
-2069.397605496716
 20
20234.83303157802
 30
3937.850719761467
 70
    32
  0
VERTEX
  5
850
330
845
100
AcDbEntity
  8
trace
100
AcDbVertex
100
AcDb3dPolylineVertex
 10
-2067.418215358108
 20
20248.18801943018
 30
3923.606118387565
 70
    32
  0
VERTEX
  5
851
330
845
100
AcDbEntity
  8
trace
100
AcDbVertex
100
AcDb3dPolylineVertex
 10
-2065.768730572941
 20
20259.31712876468
 30
3929.603835446986
 70
    32
  0
VERTEX
  5
852
330
845
100
AcDbEntity
  8
trace
100
AcDbVertex
100
AcDb3dPolylineVertex
 10
-2061.699999337093
 20
20286.76894595249
 30
3923.606118387565
 70
    32
  0
VERTEX
  5
853
330
845
100
AcDbEntity
  8
trace
100
AcDbVertex
100
AcDb3dPolylineVertex
 10
-2056.531601082288
 20
20321.64024017674
 30
3871.125953970965
 70
    32
  0
VERTEX
  5
854
330
845
100
AcDbEntity
  8
trace
100
AcDbVertex
100
AcDb3dPolylineVertex
 10
-2066.538492238453
 20
20254.1235302459
 30
3871.125953970965
 70
    32
  0
VERTEX
  5
855
330
845
100
AcDbEntity
  8
trace
100
AcDbVertex
100
AcDb3dPolylineVertex
 10
-2065.617185909741
 20
20260.3396038678
 30
3794.052570911939
 70
    32
  0
VERTEX
  5
856
330
845
100
AcDbEntity
  8
trace
100
AcDbVertex
100
AcDb3dPolylineVertex
 10
-2076.872329014351
 20
20184.40091118441
 30
3797.121923218663
 70
    32
  0
VERTEX
  5
857
330
845
100
AcDbEntity
  8
trace
100
AcDbVertex
100
AcDb3dPolylineVertex
 10
-2082.725003008928
 20
20144.91279382159
 30
3778.705669231669
 70
    32
  0
VERTEX
  5
858
330
845
100
AcDbEntity
  8
trace
100
AcDbVertex
100
AcDb3dPolylineVertex
 10
-2082.725003008928
 20
20144.91279382159
 30
3744.942560279968
 70
    32
  0
VERTEX
  5
859
330
845
100
AcDbEntity
  8
trace
100
AcDbVertex
100
AcDb3dPolylineVertex
 10
-2099.832820108117
 20
20029.48598377536
 30
3726.526306292981
 70
    32
  0
VERTEX
  5
85A
330
845
100
AcDbEntity
  8
trace
100
AcDbVertex
100
AcDb3dPolylineVertex
 10
-2100.28302499266
 20
20026.4484417331
 30
3533.155662787365
 70
    32
  0
VERTEX
  5
85B
330
845
100
AcDbEntity
  8
trace
100
AcDbVertex
100
AcDb3dPolylineVertex
 10
-2080.473978586211
 20
20160.10050403289
 30
3505.531258449104
 70
    32
  0
VERTEX
  5
85C
330
845
100
AcDbEntity
  8
trace
100
AcDbVertex
100
AcDb3dPolylineVertex
 10
-2069.669040366144
 20
20233.00165467402
 30
3450.282543203691
 70
    32
  0
VERTEX
  5
85D
330
845
100
AcDbEntity
  8
trace
100
AcDbVertex
100
AcDb3dPolylineVertex
 10
-2056.613077723359
 20
20321.09051552645
 30
3447.213144181413
 70
    32
  0
VERTEX
  5
85E
330
845
100
AcDbEntity
  8
trace
100
AcDbVertex
100
AcDb3dPolylineVertex
 10
-2050.76040372878
 20
20360.57863288929
 30
3459.490646839411
 70
    32
  0
VERTEX
  5
85F
330
845
100
AcDbEntity
  8
trace
100
AcDbVertex
100
AcDb3dPolylineVertex
 10
-2044.907729734204
 20
20400.06675025211
 30
3404.241884878437
 70
    32
  0
VERTEX
  5
860
330
845
100
AcDbEntity
  8
trace
100
AcDbVertex
100
AcDb3dPolylineVertex
 10
-2043.181029484866
 20
20411.71683398469
 30
3382.94697149245
 70
    32
  0
VERTEX
  5
861
330
845
100
AcDbEntity
  8
trace
100
AcDbVertex
100
AcDb3dPolylineVertex
 10
-2043.802668023313
 20
20407.52262539112
 30
3358.57747365725
 70
    32
  0
VERTEX
  5
862
330
845
100
AcDbEntity
  8
trace
100
AcDbVertex
100
AcDb3dPolylineVertex
 10
-2044.11349254029
 20
20405.42548568762
 30
3334.207929106488
 70
    32
  0
VERTEX
  5
863
330
845
100
AcDbEntity
  8
trace
100
AcDbVertex
100
AcDb3dPolylineVertex
 10
-2041.626927890998
 20
20422.20239087531
 30
3317.25522683582
 70
    32
  0
VERTEX
  5
864
330
845
100
AcDbEntity
  8
trace
100
AcDbVertex
100
AcDb3dPolylineVertex
 10
-2039.451177263172
 20
20436.88222717295
 30
3308.778875700482
 70
    32
  0
VERTEX
  5
865
330
845
100
AcDbEntity
  8
trace
100
AcDbVertex
100
AcDb3dPolylineVertex
 10
-2039.140352746194
 20
20438.97936687645
 30
3268.516184449858
 70
    32
  0
VERTEX
  5
866
330
845
100
AcDbEntity
  8
trace
100
AcDbVertex
100
AcDb3dPolylineVertex
 10
-2037.897075669301
 20
20447.36778406359
 30
3260.039833314521
 70
    32
  0
VERTEX
  5
867
330
845
100
AcDbEntity
  8
trace
100
AcDbVertex
100
AcDb3dPolylineVertex
 10
-2038.98494573546
 20
20440.02790132148
 30
3250.503926608377
 70
    32
  0
VERTEX
  5
868
330
845
100
AcDbEntity
  8
trace
100
AcDbVertex
100
AcDb3dPolylineVertex
 10
-2040.072815801618
 20
20432.68801857938
 30
3230.372557625284
 70
    32
  0
VERTEX
  5
869
330
845
100
AcDbEntity
  8
trace
100
AcDbVertex
100
AcDb3dPolylineVertex
 10
-2038.98494573546
 20
20440.02790132148
 30
3192.228977516272
 70
    32
  0
VERTEX
  5
86A
330
845
100
AcDbEntity
  8
trace
100
AcDbVertex
100
AcDb3dPolylineVertex
 10
-2038.98494573546
 20
20440.02790132148
 30
3167.859432965518
 70
    32
  0
VERTEX
  5
86B
330
845
100
AcDbEntity
  8
trace
100
AcDbVertex
100
AcDb3dPolylineVertex
 10
-2041.471510384752
 20
20423.25099613379
 30
3164.680812968655
 70
    32
  0
VERTEX
  5
86C
330
845
100
AcDbEntity
  8
trace
100
AcDbVertex
100
AcDb3dPolylineVertex
 10
-2039.917408790883
 20
20433.73655302442
 30
3158.323526259374
 70
    32
  0
VERTEX
  5
86D
330
845
100
AcDbEntity
  8
trace
100
AcDbVertex
100
AcDb3dPolylineVertex
 10
-2039.444733020273
 20
20436.92570661844
 30
3111.345473547459
 70
    32
  0
VERTEX
  5
86E
330
845
100
AcDbEntity
  8
trace
100
AcDbVertex
100
AcDb3dPolylineVertex
 10
-2041.465076637365
 20
20423.29440476584
 30
3100.750011270509
 70
    32
  0
VERTEX
  5
86F
330
845
100
AcDbEntity
  8
trace
100
AcDbVertex
100
AcDb3dPolylineVertex
 10
-2041.620483648098
 20
20422.24587032081
 30
3082.737753429035
 70
    32
  0
VERTEX
  5
870
330
845
100
AcDbEntity
  8
trace
100
AcDbVertex
100
AcDb3dPolylineVertex
 10
-2039.910964547986
 20
20433.7800324699
 30
3068.963671155223
 70
    32
  0
VERTEX
  5
871
330
845
100
AcDbEntity
  8
trace
100
AcDbVertex
100
AcDb3dPolylineVertex
 10
-2039.289326009539
 20
20437.97424106347
 30
3067.904162299972
 70
    32
  0
VERTEX
  5
872
330
845
100
AcDbEntity
  8
trace
100
AcDbVertex
100
AcDb3dPolylineVertex
 10
-2039.910964547986
 20
20433.7800324699
 30
3025.522359907736
 70
    32
  0
VERTEX
  5
873
330
845
100
AcDbEntity
  8
trace
100
AcDbVertex
100
AcDb3dPolylineVertex
 10
-2039.755557537251
 20
20434.82856691494
 30
3011.748277633924
 70
    32
  0
VERTEX
  5
874
330
845
100
AcDbEntity
  8
trace
100
AcDbVertex
100
AcDb3dPolylineVertex
 10
-2039.600150526518
 20
20435.87710135997
 30
2994.795575363256
 70
    32
  0
VERTEX
  5
875
330
845
100
AcDbEntity
  8
trace
100
AcDbVertex
100
AcDb3dPolylineVertex
 10
-2038.667687471094
 20
20442.16844965704
 30
2936.520626271151
 70
    32
  0
VERTEX
  5
876
330
845
100
AcDbEntity
  8
trace
100
AcDbVertex
100
AcDb3dPolylineVertex
 10
-2040.998845109652
 20
20426.44007891438
 30
2883.543408317521
 70
    32
  0
VERTEX
  5
877
330
845
100
AcDbEntity
  8
trace
100
AcDbVertex
100
AcDb3dPolylineVertex
 10
-2040.532613581941
 20
20429.5857530629
 30
2867.650214902096
 70
    32
  0
VERTEX
  5
878
330
845
100
AcDbEntity
  8
trace
100
AcDbVertex
100
AcDb3dPolylineVertex
 10
-2039.444733020273
 20
20436.92570661844
 30
2871.888390469765
 70
    32
  0
VERTEX
  5
879
330
845
100
AcDbEntity
  8
trace
100
AcDbVertex
100
AcDb3dPolylineVertex
 10
-2039.600150526518
 20
20435.87710135997
 30
2839.042541499228
 70
    32
  0
VERTEX
  5
87A
330
845
100
AcDbEntity
  8
trace
100
AcDbVertex
100
AcDb3dPolylineVertex
 10
-2043.174585241969
 20
20411.76031343016
 30
2831.625699219141
 70
    32
  0
VERTEX
  5
87B
330
845
100
AcDbEntity
  8
trace
100
AcDbVertex
100
AcDb3dPolylineVertex
 10
-2045.97197440824
 20
20392.88626853897
 30
2833.744810360753
 70
    32
  0
VERTEX
  5
87C
330
845
100
AcDbEntity
  8
trace
100
AcDbVertex
100
AcDb3dPolylineVertex
 10
-2047.526076002109
 20
20382.40071164834
 30
2830.566190363891
 70
    32
  0
VERTEX
  5
87D
330
845
100
AcDbEntity
  8
trace
100
AcDbVertex
100
AcDb3dPolylineVertex
 10
-2049.857233640667
 20
20366.67234090567
 30
2821.030283657746
 70
    32
  0
VERTEX
  5
87E
330
845
100
AcDbEntity
  8
trace
100
AcDbVertex
100
AcDb3dPolylineVertex
 10
-2050.000402887201
 20
20365.70637491899
 30
2782.191996485846
 70
    32
  0
VERTEX
  5
87F
330
845
100
AcDbEntity
  8
trace
100
AcDbVertex
100
AcDb3dPolylineVertex
 10
-2047.980069765619
 20
20379.33760595816
 30
2751.465211941359
 70
    32
  0
VERTEX
  5
880
330
845
100
AcDbEntity
  8
trace
100
AcDbVertex
100
AcDb3dPolylineVertex
 10
-2046.115143654771
 20
20391.9203025523
 30
2736.631620812303
 70
    32
  0
VERTEX
  5
881
330
845
100
AcDbEntity
  8
trace
100
AcDbVertex
100
AcDb3dPolylineVertex
 10
-2045.648912127061
 20
20395.06597670082
 30
2703.785725126203
 70
    32
  0
VERTEX
  5
882
330
845
100
AcDbEntity
  8
trace
100
AcDbVertex
100
AcDb3dPolylineVertex
 10
-2048.290894282597
 20
20377.24046625466
 30
2671.999385010917
 70
    32
  0
VERTEX
  5
883
330
845
100
AcDbEntity
  8
trace
100
AcDbVertex
100
AcDb3dPolylineVertex
 10
-2047.669255744151
 20
20381.43467484824
 30
2635.974869327962
 70
    32
  0
VERTEX
  5
884
330
845
100
AcDbEntity
  8
trace
100
AcDbVertex
100
AcDb3dPolylineVertex
 10
-2044.87186657788
 20
20400.30871973943
 30
2617.962611486481
 70
    32
  0
VERTEX
  5
885
330
845
100
AcDbEntity
  8
trace
100
AcDbVertex
100
AcDb3dPolylineVertex
 10
-2040.520375817741
 20
20429.66832152126
 30
2612.664880348006
 70
    32
  0
VERTEX
  5
886
330
845
100
AcDbEntity
  8
trace
100
AcDbVertex
100
AcDb3dPolylineVertex
 10
-2038.344625189916
 20
20444.34815781889
 30
2590.414446938856
 70
    32
  0
VERTEX
  5
887
330
845
100
AcDbEntity
  8
trace
100
AcDbVertex
100
AcDb3dPolylineVertex
 10
-2037.256755123757
 20
20451.688040561
 30
2308.575608184481
 70
    32
  0
VERTEX
  5
888
330
845
100
AcDbEntity
  8
trace
100
AcDbVertex
100
AcDb3dPolylineVertex
 10
-2041.763652894632
 20
20421.27990433413
 30
2276.789268069195
 70
    32
  0
VERTEX
  5
889
330
845
100
AcDbEntity
  8
trace
100
AcDbVertex
100
AcDb3dPolylineVertex
 10
-2049.689588865734
 20
20367.80344380906
 30
2278.908332495252
 70
    32
  0
SEQEND
  5
88A
330
845
100
AcDbEntity
  8
trace
  0
POLYLINE
  5
88B
330
1F
100
AcDbEntity
  8
trace
100
AcDb3dPolyline
 66
     1
 10
0.0
 20
0.0
 30
0.0
 70
     8
  0
VERTEX
  5
88C
330
88B
100
AcDbEntity
  8
trace
100
AcDbVertex
100
AcDb3dPolylineVertex
 10
-2819.987522442526
 20
15170.58671285709
 30
4691.305539908447
 70
    32
  0
VERTEX
  5
88D
330
88B
100
AcDbEntity
  8
trace
100
AcDbVertex
100
AcDb3dPolylineVertex
 10
-2835.560623154087
 20
15065.51466729792
 30
4691.305539908447
 70
    32
  0
VERTEX
  5
88E
330
88B
100
AcDbEntity
  8
trace
100
AcDbVertex
100
AcDb3dPolylineVertex
 10
-2858.212399328305
 20
14912.68264609311
 30
4700.957674922872
 70
    32
  0
VERTEX
  5
88F
330
88B
100
AcDbEntity
  8
trace
100
AcDbVertex
100
AcDb3dPolylineVertex
 10
-2873.785500039865
 20
14807.61060053394
 30
4734.73998396891
 70
    32
  0
VERTEX
  5
890
330
88B
100
AcDbEntity
  8
trace
100
AcDbVertex
100
AcDb3dPolylineVertex
 10
-2884.403523729361
 20
14735.97056625207
 30
4773.348337164374
 70
    32
  0
VERTEX
  5
891
330
88B
100
AcDbEntity
  8
trace
100
AcDbVertex
100
AcDb3dPolylineVertex
 10
-2885.111393374728
 20
14731.19455452482
 30
4459.655374020061
 70
    32
  0
VERTEX
  5
892
330
88B
100
AcDbEntity
  8
trace
100
AcDbVertex
100
AcDb3dPolylineVertex
 10
-2868.122553372434
 20
14845.81862353849
 30
4464.481418169497
 70
    32
  0
VERTEX
  5
893
330
88B
100
AcDbEntity
  8
trace
100
AcDbVertex
100
AcDb3dPolylineVertex
 10
-2834.144883863351
 20
15075.06669075241
 30
4474.133506468366
 70
    32
  0
VERTEX
  5
894
330
88B
100
AcDbEntity
  8
trace
100
AcDbVertex
100
AcDb3dPolylineVertex
 10
-2818.571783151791
 20
15180.13873631159
 30
4483.785594767236
 70
    32
  0
VERTEX
  5
895
330
88B
100
AcDbEntity
  8
trace
100
AcDbVertex
100
AcDb3dPolylineVertex
 10
-2819.987522442526
 20
15170.58671285709
 30
4700.957674922872
 70
    32
  0
SEQEND
  5
896
330
88B
100
AcDbEntity
  8
trace
  0
POLYLINE
  5
898
330
1F
100
AcDbEntity
  8
trace
100
AcDb3dPolyline
 66
     1
 10
0.0
 20
0.0
 30
0.0
 70
     8
  0
VERTEX
  5
899
330
898
100
AcDbEntity
  8
trace
100
AcDbVertex
100
AcDb3dPolylineVertex
 10
-2822.077671694005
 20
15156.4844308874
 30
2831.781729182833
 70
    32
  0
VERTEX
  5
89A
330
898
100
AcDbEntity
  8
trace
100
AcDbVertex
100
AcDb3dPolylineVertex
 10
-2877.999258227447
 20
14779.1802833825
 30
2817.303596734528
 70
    32
  0
VERTEX
  5
89B
330
898
100
AcDbEntity
  8
trace
100
AcDbVertex
100
AcDb3dPolylineVertex
 10
-2882.954335249512
 20
14745.74827210518
 30
2730.434755329167
 70
    32
  0
VERTEX
  5
89C
330
898
100
AcDbEntity
  8
trace
100
AcDbVertex
100
AcDb3dPolylineVertex
 10
-2892.864489293641
 20
14678.88424955055
 30
2730.434755329167
 70
    32
  0
VERTEX
  5
89D
330
898
100
AcDbEntity
  8
trace
100
AcDbVertex
100
AcDb3dPolylineVertex
 10
-2899.943175251807
 20
14631.12420309151
 30
2677.34826968539
 70
    32
  0
VERTEX
  5
89E
330
898
100
AcDbEntity
  8
trace
100
AcDbVertex
100
AcDb3dPolylineVertex
 10
-2899.943175251807
 20
14631.12420309151
 30
2629.087781475493
 70
    32
  0
VERTEX
  5
89F
330
898
100
AcDbEntity
  8
trace
100
AcDbVertex
100
AcDb3dPolylineVertex
 10
-2897.819566315704
 20
14645.45223827325
 30
2595.305472429456
 70
    32
  0
VERTEX
  5
8A0
330
898
100
AcDbEntity
  8
trace
100
AcDbVertex
100
AcDb3dPolylineVertex
 10
-2893.572358939009
 20
14674.10823782331
 30
2595.305472429456
 70
    32
  0
VERTEX
  5
8A1
330
898
100
AcDbEntity
  8
trace
100
AcDbVertex
100
AcDb3dPolylineVertex
 10
-2891.448750002906
 20
14688.43627300505
 30
2407.089703885984
 70
    32
  0
VERTEX
  5
8A2
330
898
100
AcDbEntity
  8
trace
100
AcDbVertex
100
AcDb3dPolylineVertex
 10
-2819.954073253413
 20
15170.81239525571
 30
2416.741792184854
 70
    32
  0
VERTEX
  5
8A3
330
898
100
AcDbEntity
  8
trace
100
AcDbVertex
100
AcDb3dPolylineVertex
 10
-2817.61607254259
 20
15186.58693635417
 30
2460.837962124264
 70
    32
  0
SEQEND
  5
8A4
330
898
100
AcDbEntity
  8
trace
  0
POLYLINE
  5
8A5
330
1F
100
AcDbEntity
  8
trace
100
AcDb3dPolyline
 66
     1
 10
0.0
 20
0.0
 30
0.0
 70
     8
  0
VERTEX
  5
8A6
330
8A5
100
AcDbEntity
  8
trace
100
AcDbVertex
100
AcDb3dPolylineVertex
 10
-2817.616072542591
 20
15186.58693635416
 30
2460.837962124264
 70
    32
  0
VERTEX
  5
8A7
330
8A5
100
AcDbEntity
  8
trace
100
AcDbVertex
100
AcDb3dPolylineVertex
 10
-2817.495825489036
 20
15187.39824581164
 30
2475.594332435961
 70
    32
  0
VERTEX
  5
8A8
330
8A5
100
AcDbEntity
  8
trace
100
AcDbVertex
100
AcDb3dPolylineVertex
 10
-2817.61607254259
 20
15186.58693635417
 30
2505.107026343802
 70
    32
  0
VERTEX
  5
8A9
330
8A5
100
AcDbEntity
  8
trace
100
AcDbVertex
100
AcDb3dPolylineVertex
 10
-2819.900735073597
 20
15171.17226910251
 30
2547.736514624514
 70
    32
  0
VERTEX
  5
8AA
330
8A5
100
AcDbEntity
  8
trace
100
AcDbVertex
100
AcDb3dPolylineVertex
 10
-2822.065140055537
 20
15156.56898212177
 30
2566.591848141063
 70
    32
  0
VERTEX
  5
8AB
330
8A5
100
AcDbEntity
  8
trace
100
AcDbVertex
100
AcDb3dPolylineVertex
 10
-2822.425881216201
 20
15154.13505374935
 30
2597.74416470329
 70
    32
  0
VERTEX
  5
8AC
330
8A5
100
AcDbEntity
  8
trace
100
AcDbVertex
100
AcDb3dPolylineVertex
 10
-2821.348254767417
 20
15161.40582258463
 30
2627.498518192624
 70
    32
  0
VERTEX
  5
8AD
330
8A5
100
AcDbEntity
  8
trace
100
AcDbVertex
100
AcDb3dPolylineVertex
 10
-2820.506535888046
 20
15167.0849179735
 30
2652.912248895613
 70
    32
  0
VERTEX
  5
8AE
330
8A5
100
AcDbEntity
  8
trace
100
AcDbVertex
100
AcDb3dPolylineVertex
 10
-2820.6267829416
 20
15166.27360851603
 30
2675.046781005382
 70
    32
  0
VERTEX
  5
8AF
330
8A5
100
AcDbEntity
  8
trace
100
AcDbVertex
100
AcDb3dPolylineVertex
 10
-2820.506535888046
 20
15167.0849179735
 30
2702.100134362758
 70
    32
  0
VERTEX
  5
8B0
330
8A5
100
AcDbEntity
  8
trace
100
AcDbVertex
100
AcDb3dPolylineVertex
 10
-2819.063592236413
 20
15176.82048983628
 30
2720.135656552113
 70
    32
  0
VERTEX
  5
8B1
330
8A5
100
AcDbEntity
  8
trace
100
AcDbVertex
100
AcDb3dPolylineVertex
 10
-2818.101636798996
 20
15183.31082386919
 30
2739.810801395856
 70
    32
  0
VERTEX
  5
8B2
330
8A5
100
AcDbEntity
  8
trace
100
AcDbVertex
100
AcDb3dPolylineVertex
 10
-2817.861142691888
 20
15184.93344278413
 30
2751.287973114341
 70
    32
  0
VERTEX
  5
8B3
330
8A5
100
AcDbEntity
  8
trace
100
AcDbVertex
100
AcDb3dPolylineVertex
 10
-2822.077671694005
 20
15156.4844308874
 30
2831.781729182833
 70
    32
  0
SEQEND
  5
8B4
330
8A5
100
AcDbEntity
  8
trace
  0
POLYLINE
  5
902
330
1F
100
AcDbEntity
  8
trace
100
AcDb3dPolyline
 66
     1
 10
0.0
 20
0.0
 30
0.0
 70
     8
  0
VERTEX
  5
903
330
902
100
AcDbEntity
  8
trace
100
AcDbVertex
100
AcDb3dPolylineVertex
 10
-2941.267061258911
 20
14352.31105511016
 30
2587.338040582887
 70
    32
  0
VERTEX
  5
904
330
902
100
AcDbEntity
  8
trace
100
AcDbVertex
100
AcDb3dPolylineVertex
 10
-2952.327995453774
 20
14277.68269411927
 30
2584.737665762841
 70
    32
  0
VERTEX
  5
905
330
902
100
AcDbEntity
  8
trace
100
AcDbVertex
100
AcDb3dPolylineVertex
 10
-2950.993061091495
 20
14286.68952498295
 30
2413.114142244573
 70
    32
  0
VERTEX
  5
906
330
902
100
AcDbEntity
  8
trace
100
AcDbVertex
100
AcDb3dPolylineVertex
 10
-2941.457764668449
 20
14351.02437510299
 30
2411.813954834557
 70
    32
  0
VERTEX
  5
907
330
902
100
AcDbEntity
  8
trace
100
AcDbVertex
100
AcDb3dPolylineVertex
 10
-2940.885654439833
 20
14354.88441512452
 30
2587.338040582887
 70
    32
  0
SEQEND
  5
908
330
902
100
AcDbEntity
  8
trace
  0
POLYLINE
  5
909
330
1F
100
AcDbEntity
  8
trace
100
AcDb3dPolyline
 66
     1
 10
0.0
 20
0.0
 30
0.0
 70
     8
  0
VERTEX
  5
90A
330
909
100
AcDbEntity
  8
trace
100
AcDbVertex
100
AcDb3dPolylineVertex
 10
-3010.111842238621
 20
13887.81383663125
 30
2583.437525068381
 70
    32
  0
VERTEX
  5
90B
330
909
100
AcDbEntity
  8
trace
100
AcDbVertex
100
AcDb3dPolylineVertex
 10
-3001.33938044475
 20
13947.00182509572
 30
2587.338040582887
 70
    32
  0
VERTEX
  5
90C
330
909
100
AcDbEntity
  8
trace
100
AcDbVertex
100
AcDb3dPolylineVertex
 10
-3000.385852901548
 20
13953.43529594503
 30
2550.933026680083
 70
    32
  0
VERTEX
  5
90D
330
909
100
AcDbEntity
  8
trace
100
AcDbVertex
100
AcDb3dPolylineVertex
 10
-3002.102204578415
 20
13941.85503425357
 30
2522.329137237415
 70
    32
  0
VERTEX
  5
90E
330
909
100
AcDbEntity
  8
trace
100
AcDbVertex
100
AcDb3dPolylineVertex
 10
-3003.627852845742
 20
13931.56145256929
 30
2491.12482625914
 70
    32
  0
VERTEX
  5
90F
330
909
100
AcDbEntity
  8
trace
100
AcDbVertex
100
AcDb3dPolylineVertex
 10
-3009.539732010007
 20
13891.67387665278
 30
2488.524498154657
 70
    32
  0
VERTEX
  5
910
330
909
100
AcDbEntity
  8
trace
100
AcDbVertex
100
AcDb3dPolylineVertex
 10
-3009.921138829084
 20
13889.10051663842
 30
2583.437525068381
 70
    32
  0
SEQEND
  5
911
330
909
100
AcDbEntity
  8
trace
  0
POLYLINE
  5
912
330
1F
100
AcDbEntity
  8
trace
100
AcDb3dPolyline
 66
     1
 10
0.0
 20
0.0
 30
0.0
 70
     8
  0
VERTEX
  5
913
330
912
100
AcDbEntity
  8
trace
100
AcDbVertex
100
AcDb3dPolylineVertex
 10
-3058.25666547899
 20
13562.97967838328
 30
2587.200930420178
 70
    32
  0
VERTEX
  5
914
330
912
100
AcDbEntity
  8
trace
100
AcDbVertex
100
AcDb3dPolylineVertex
 10
-3066.647720453786
 20
13506.36504993316
 30
2585.900743010156
 70
    32
  0
VERTEX
  5
915
330
912
100
AcDbEntity
  8
trace
100
AcDbVertex
100
AcDb3dPolylineVertex
 10
-3067.029137768372
 20
13503.79161910538
 30
2479.286122837359
 70
    32
  0
VERTEX
  5
916
330
912
100
AcDbEntity
  8
trace
100
AcDbVertex
100
AcDb3dPolylineVertex
 10
-3059.59161033678
 20
13553.97277670617
 30
2485.78701317191
 70
    32
  0
VERTEX
  5
917
330
912
100
AcDbEntity
  8
trace
100
AcDbVertex
100
AcDb3dPolylineVertex
 10
-3058.44736888853
 20
13561.69299837609
 30
2507.890058995596
 70
    32
  0
VERTEX
  5
918
330
912
100
AcDbEntity
  8
trace
100
AcDbVertex
100
AcDb3dPolylineVertex
 10
-3058.638082793577
 20
13560.40624755549
 30
2531.293245513742
 70
    32
  0
VERTEX
  5
919
330
912
100
AcDbEntity
  8
trace
100
AcDbVertex
100
AcDb3dPolylineVertex
 10
-3058.44736888853
 20
13561.69299837609
 30
2589.801258524662
 70
    32
  0
SEQEND
  5
91A
330
912
100
AcDbEntity
  8
trace
  0
POLYLINE
  5
91B
330
1F
100
AcDbEntity
  8
trace
100
AcDb3dPolyline
 66
     1
 10
0.0
 20
0.0
 30
0.0
 70
     8
  0
VERTEX
  5
91C
330
91B
100
AcDbEntity
  8
trace
100
AcDbVertex
100
AcDb3dPolylineVertex
 10
-3126.018162930245
 20
13105.79139717791
 30
2582.178540780507
 70
    32
  0
VERTEX
  5
91D
330
91B
100
AcDbEntity
  8
trace
100
AcDbVertex
100
AcDb3dPolylineVertex
 10
-3126.628319381182
 20
13101.6746584758
 30
2419.942088200623
 70
    32
  0
VERTEX
  5
91E
330
91B
100
AcDbEntity
  8
trace
100
AcDbVertex
100
AcDb3dPolylineVertex
 10
-3123.577516135477
 20
13122.2584936132
 30
2403.302473599608
 70
    32
  0
VERTEX
  5
91F
330
91B
100
AcDbEntity
  8
trace
100
AcDbVertex
100
AcDb3dPolylineVertex
 10
-3114.730168880566
 20
13181.95173589447
 30
2417.862124696607
 70
    32
  0
VERTEX
  5
920
330
91B
100
AcDbEntity
  8
trace
100
AcDbVertex
100
AcDb3dPolylineVertex
 10
-3115.95049227795
 20
13173.71818767683
 30
2586.338467788541
 70
    32
  0
VERTEX
  5
921
330
91B
100
AcDbEntity
  8
trace
100
AcDbVertex
100
AcDb3dPolylineVertex
 10
-3126.018162930245
 20
13105.79139717791
 30
2586.338467788541
 70
    32
  0
SEQEND
  5
922
330
91B
100
AcDbEntity
  8
trace
  0
POLYLINE
  5
923
330
1F
100
AcDbEntity
  8
trace
100
AcDb3dPolyline
 66
     1
 10
0.0
 20
0.0
 30
0.0
 70
     8
  0
VERTEX
  5
924
330
923
100
AcDbEntity
  8
trace
100
AcDbVertex
100
AcDb3dPolylineVertex
 10
-3182.153018218877
 20
12727.04832079321
 30
2586.338467788541
 70
    32
  0
VERTEX
  5
925
330
923
100
AcDbEntity
  8
trace
100
AcDbVertex
100
AcDb3dPolylineVertex
 10
-3182.4581016921
 20
12724.98991603545
 30
2401.222510095591
 70
    32
  0
VERTEX
  5
926
330
923
100
AcDbEntity
  8
trace
100
AcDbVertex
100
AcDb3dPolylineVertex
 10
-3174.526004856862
 20
12778.50794404341
 30
2405.38239038807
 70
    32
  0
VERTEX
  5
927
330
923
100
AcDbEntity
  8
trace
100
AcDbVertex
100
AcDb3dPolylineVertex
 10
-3174.526004856862
 20
12778.50794404341
 30
2573.858733479996
 70
    32
  0
VERTEX
  5
928
330
923
100
AcDbEntity
  8
trace
100
AcDbVertex
100
AcDb3dPolylineVertex
 10
-3183.068258143037
 20
12720.87317733335
 30
2584.258504284524
 70
    32
  0
SEQEND
  5
929
330
923
100
AcDbEntity
  8
trace
  0
POLYLINE
  5
92A
330
1F
100
AcDbEntity
  8
trace
100
AcDb3dPolyline
 66
     1
 10
0.0
 20
0.0
 30
0.0
 70
     8
  0
VERTEX
  5
92B
330
92A
100
AcDbEntity
  8
trace
100
AcDbVertex
100
AcDb3dPolylineVertex
 10
-3240.118363851339
 20
12335.95488667535
 30
2567.618889683509
 70
    32
  0
VERTEX
  5
92C
330
92A
100
AcDbEntity
  8
trace
100
AcDbVertex
100
AcDb3dPolylineVertex
 10
-3241.643770721947
 20
12325.66293369993
 30
2419.942088200623
 70
    32
  0
VERTEX
  5
92D
330
92A
100
AcDbEntity
  8
trace
100
AcDbVertex
100
AcDb3dPolylineVertex
 10
-3238.592956980733
 20
12346.24683965076
 30
2355.463499869467
 70
    32
  0
VERTEX
  5
92E
330
92A
100
AcDbEntity
  8
trace
100
AcDbVertex
100
AcDb3dPolylineVertex
 10
-3226.694806480119
 20
12426.52391706941
 30
2351.303572861441
 70
    32
  0
VERTEX
  5
92F
330
92A
100
AcDbEntity
  8
trace
100
AcDbVertex
100
AcDb3dPolylineVertex
 10
-3224.864326631799
 20
12438.87420398916
 30
2536.419577269939
 70
    32
  0
VERTEX
  5
930
330
92A
100
AcDbEntity
  8
trace
100
AcDbVertex
100
AcDb3dPolylineVertex
 10
-3226.084650029182
 20
12430.64065577152
 30
2563.458962675475
 70
    32
  0
VERTEX
  5
931
330
92A
100
AcDbEntity
  8
trace
100
AcDbVertex
100
AcDb3dPolylineVertex
 10
-3231.881183542878
 20
12391.53131944107
 30
2578.018660488029
 70
    32
  0
VERTEX
  5
932
330
92A
100
AcDbEntity
  8
trace
100
AcDbVertex
100
AcDb3dPolylineVertex
 10
-3240.728520302276
 20
12331.83814797324
 30
2571.778769975987
 70
    32
  0
SEQEND
  5
933
330
92A
100
AcDbEntity
  8
trace
  0
POLYLINE
  5
AB7
330
1F
100
AcDbEntity
  8
trace
100
AcDb3dPolyline
 66
     1
 10
0.0
 20
0.0
 30
0.0
 70
     8
  0
VERTEX
  5
AB8
330
AB7
100
AcDbEntity
  8
trace
100
AcDbVertex
100
AcDb3dPolylineVertex
 10
-2041.763652894632
 20
20421.27990433413
 30
2276.789268069195
 70
    32
  0
VERTEX
  5
AB9
330
AB7
100
AcDbEntity
  8
trace
100
AcDbVertex
100
AcDb3dPolylineVertex
 10
-2036.70501077842
 20
20455.41067152987
 30
2209.772063863937
 70
    32
  0
VERTEX
  5
ABA
330
AB7
100
AcDbEntity
  8
trace
100
AcDbVertex
100
AcDb3dPolylineVertex
 10
-2038.095414226825
 20
20446.02958954869
 30
2114.978800056211
 70
    32
  0
VERTEX
  5
ABB
330
AB7
100
AcDbEntity
  8
trace
100
AcDbVertex
100
AcDb3dPolylineVertex
 10
-2032.070361764157
 20
20486.68074814449
 30
2064.422363501981
 70
    32
  0
VERTEX
  5
ABC
330
AB7
100
AcDbEntity
  8
trace
100
AcDbVertex
100
AcDb3dPolylineVertex
 10
-2016.312539813439
 20
20592.99911187857
 30
2058.102802851434
 70
    32
  0
VERTEX
  5
ABD
330
AB7
100
AcDbEntity
  8
trace
100
AcDbVertex
100
AcDb3dPolylineVertex
 10
-2001.48163892145
 20
20693.06351928653
 30
2070.741924152535
 70
    32
  0
VERTEX
  5
ABE
330
AB7
100
AcDbEntity
  8
trace
100
AcDbVertex
100
AcDb3dPolylineVertex
 10
-1994.529654469896
 20
20739.96870795445
 30
2070.741924152535
 70
    32
  0
VERTEX
  5
ABF
330
AB7
100
AcDbEntity
  8
trace
100
AcDbVertex
100
AcDb3dPolylineVertex
 10
-1994.529654469896
 20
20739.96870795445
 30
2032.824608899406
 70
    32
  0
VERTEX
  5
AC0
330
AB7
100
AcDbEntity
  8
trace
100
AcDbVertex
100
AcDb3dPolylineVertex
 10
-1975.064115493798
 20
20871.30311823103
 30
2039.144120899786
 70
    32
  0
VERTEX
  5
AC1
330
AB7
100
AcDbEntity
  8
trace
100
AcDbVertex
100
AcDb3dPolylineVertex
 10
-1974.600644034279
 20
20874.43017014009
 30
1972.788831369355
 70
    32
  0
VERTEX
  5
AC2
330
AB7
100
AcDbEntity
  8
trace
100
AcDbVertex
100
AcDb3dPolylineVertex
 10
-1970.429455549378
 20
20902.57326859164
 30
1884.315079562002
 70
    32
  0
VERTEX
  5
AC3
330
AB7
100
AcDbEntity
  8
trace
100
AcDbVertex
100
AcDb3dPolylineVertex
 10
-1970.8929270089
 20
20899.44621668257
 30
1821.119521706678
 70
    32
  0
VERTEX
  5
AC4
330
AB7
100
AcDbEntity
  8
trace
100
AcDbVertex
100
AcDb3dPolylineVertex
 10
-1969.965995020014
 20
20905.7002467547
 30
1795.841327754657
 70
    32
  0
VERTEX
  5
AC5
330
AB7
100
AcDbEntity
  8
trace
100
AcDbVertex
100
AcDb3dPolylineVertex
 10
-1964.404403086708
 20
20943.22442718744
 30
1767.403353477355
 70
    32
  0
VERTEX
  5
AC6
330
AB7
100
AcDbEntity
  8
trace
100
AcDbVertex
100
AcDb3dPolylineVertex
 10
-1965.331335075593
 20
20936.97039711532
 30
1738.96533054988
 70
    32
  0
VERTEX
  5
AC7
330
AB7
100
AcDbEntity
  8
trace
100
AcDbVertex
100
AcDb3dPolylineVertex
 10
-1973.21025151603
 20
20883.81117837527
 30
1732.645818549507
 70
    32
  0
VERTEX
  5
AC8
330
AB7
100
AcDbEntity
  8
trace
100
AcDbVertex
100
AcDb3dPolylineVertex
 10
-1973.673712045393
 20
20880.68420021222
 30
1641.01228641688
 70
    32
  0
VERTEX
  5
AC9
330
AB7
100
AcDbEntity
  8
trace
100
AcDbVertex
100
AcDb3dPolylineVertex
 10
-1980.162235967583
 20
20836.90598970735
 30
1637.8525060916
 70
    32
  0
VERTEX
  5
ACA
330
AB7
100
AcDbEntity
  8
trace
100
AcDbVertex
100
AcDb3dPolylineVertex
 10
-1980.625696496947
 20
20833.77901154429
 30
1565.177607260448
 70
    32
  0
VERTEX
  5
ACB
330
AB7
100
AcDbEntity
  8
trace
100
AcDbVertex
100
AcDb3dPolylineVertex
 10
-1985.723816970732
 20
20799.38188302061
 30
1543.0591936337
 70
    32
  0
VERTEX
  5
ACC
330
AB7
100
AcDbEntity
  8
trace
100
AcDbVertex
100
AcDb3dPolylineVertex
 10
-1984.333424452483
 20
20808.7628912558
 30
1492.502757079477
 70
    32
  0
VERTEX
  5
ACD
330
AB7
100
AcDbEntity
  8
trace
100
AcDbVertex
100
AcDb3dPolylineVertex
 10
-1977.38144000093
 20
20855.66807992373
 30
1470.384343452722
 70
    32
  0
VERTEX
  5
ACE
330
AB7
100
AcDbEntity
  8
trace
100
AcDbVertex
100
AcDb3dPolylineVertex
 10
-1973.673712045393
 20
20880.68420021222
 30
1473.544123778003
 70
    32
  0
VERTEX
  5
ACF
330
AB7
100
AcDbEntity
  8
trace
100
AcDbVertex
100
AcDb3dPolylineVertex
 10
-1968.112131042246
 20
20918.20830689894
 30
1454.585441826348
 70
    32
  0
VERTEX
  5
AD0
330
AB7
100
AcDbEntity
  8
trace
100
AcDbVertex
100
AcDb3dPolylineVertex
 10
-1963.014010568462
 20
20952.60543542261
 30
1445.10610085052
 70
    32
  0
VERTEX
  5
AD1
330
AB7
100
AcDbEntity
  8
trace
100
AcDbVertex
100
AcDb3dPolylineVertex
 10
-1946.32925662886
 20
21065.17782922882
 30
1381.91059164537
 70
    32
  0
VERTEX
  5
AD2
330
AB7
100
AcDbEntity
  8
trace
100
AcDbVertex
100
AcDb3dPolylineVertex
 10
-1926.863706722605
 20
21196.5123132514
 30
1309.235692814218
 70
    32
  0
VERTEX
  5
AD3
330
AB7
100
AcDbEntity
  8
trace
100
AcDbVertex
100
AcDb3dPolylineVertex
 10
-1913.886680738541
 20
21284.06858676912
 30
1246.040183609068
 70
    32
  0
VERTEX
  5
AD4
330
AB7
100
AcDbEntity
  8
trace
100
AcDbVertex
100
AcDb3dPolylineVertex
 10
-1903.22696833145
 20
21355.98989572554
 30
1233.401062307966
 70
    32
  0
VERTEX
  5
AD5
330
AB7
100
AcDbEntity
  8
trace
100
AcDbVertex
100
AcDb3dPolylineVertex
 10
-1881.444093918063
 20
21502.95941805542
 30
1227.081501657419
 70
    32
  0
VERTEX
  5
AD6
330
AB7
100
AcDbEntity
  8
trace
100
AcDbVertex
100
AcDb3dPolylineVertex
 10
-1880.517161929181
 20
21509.21344812754
 30
1122.808896873866
 70
    32
  0
VERTEX
  5
AD7
330
AB7
100
AcDbEntity
  8
trace
100
AcDbVertex
100
AcDb3dPolylineVertex
 10
-1890.249942347387
 20
21443.54616924324
 30
1094.370873946391
 70
    32
  0
VERTEX
  5
AD8
330
AB7
100
AcDbEntity
  8
trace
100
AcDbVertex
100
AcDb3dPolylineVertex
 10
-1889.323010358501
 20
21449.80019931538
 30
1015.376463114866
 70
    32
  0
VERTEX
  5
AD9
330
AB7
100
AcDbEntity
  8
trace
100
AcDbVertex
100
AcDb3dPolylineVertex
 10
-1881.907565377585
 20
21499.83236614635
 30
1002.737390463939
 70
    32
  0
VERTEX
  5
ADA
330
AB7
100
AcDbEntity
  8
trace
100
AcDbVertex
100
AcDb3dPolylineVertex
 10
-1874.492120396668
 20
21549.86453297733
 30
898.4647370302118
 70
    32
  0
VERTEX
  5
ADB
330
AB7
100
AcDbEntity
  8
trace
100
AcDbVertex
100
AcDb3dPolylineVertex
 10
-1872.083703958692
 20
21566.11417050191
 30
738.2074549288663
 70
    32
  0
VERTEX
  5
ADC
330
AB7
100
AcDbEntity
  8
trace
100
AcDbVertex
100
AcDb3dPolylineVertex
 10
-1872.547175418213
 20
21562.98711859284
 30
662.3728244226149
 70
    32
  0
VERTEX
  5
ADD
330
AB7
100
AcDbEntity
  8
trace
100
AcDbVertex
100
AcDb3dPolylineVertex
 10
-1863.74132698889
 20
21622.40036740501
 30
662.3728244226149
 70
    32
  0
VERTEX
  5
ADE
330
AB7
100
AcDbEntity
  8
trace
100
AcDbVertex
100
AcDb3dPolylineVertex
 10
-1864.204798448411
 20
21619.27331549595
 30
573.8990726152624
 70
    32
  0
VERTEX
  5
ADF
330
AB7
100
AcDbEntity
  8
trace
100
AcDbVertex
100
AcDb3dPolylineVertex
 10
-1841.494992046142
 20
21772.49686789795
 30
564.4197316394347
 70
    32
  0
VERTEX
  5
AE0
330
AB7
100
AcDbEntity
  8
trace
100
AcDbVertex
100
AcDb3dPolylineVertex
 10
-1840.568060057258
 20
21778.75089797007
 30
529.6621967115861
 70
    32
  0
VERTEX
  5
AE1
330
AB7
100
AcDbEntity
  8
trace
100
AcDbVertex
100
AcDb3dPolylineVertex
 10
-1842.421924035025
 20
21766.24283782583
 30
494.9046617837375
 70
    32
  0
VERTEX
  5
AE2
330
AB7
100
AcDbEntity
  8
trace
100
AcDbVertex
100
AcDb3dPolylineVertex
 10
-1831.298751098573
 20
21841.2911249453
 30
488.5851011331905
 70
    32
  0
VERTEX
  5
AE3
330
AB7
100
AcDbEntity
  8
trace
100
AcDbVertex
100
AcDb3dPolylineVertex
 10
-1828.054494602557
 20
21863.18019332472
 30
450.6677858800612
 70
    32
  0
VERTEX
  5
AE4
330
AB7
100
AcDbEntity
  8
trace
100
AcDbVertex
100
AcDb3dPolylineVertex
 10
-1827.127562613671
 20
21869.43422339686
 30
425.389543277859
 70
    32
  0
VERTEX
  5
AE5
330
AB7
100
AcDbEntity
  8
trace
100
AcDbVertex
100
AcDb3dPolylineVertex
 10
-1828.981426591441
 20
21856.9261632526
 30
409.5906903016584
 70
    32
  0
VERTEX
  5
AE6
330
AB7
100
AcDbEntity
  8
trace
100
AcDbVertex
100
AcDb3dPolylineVertex
 10
-1823.419834658135
 20
21894.45034368534
 30
403.2711296511115
 70
    32
  0
VERTEX
  5
AE7
330
AB7
100
AcDbEntity
  8
trace
100
AcDbVertex
100
AcDb3dPolylineVertex
 10
-1817.394793125623
 20
21935.10142853514
 30
324.2767188195867
 70
    32
  0
VERTEX
  5
AE8
330
AB7
100
AcDbEntity
  8
trace
100
AcDbVertex
100
AcDb3dPolylineVertex
 10
-1801.636960244749
 20
22041.41986601523
 30
314.797377843759
 70
    32
  0
VERTEX
  5
AE9
330
AB7
100
AcDbEntity
  8
trace
100
AcDbVertex
100
AcDb3dPolylineVertex
 10
-1803.027363693154
 20
22032.03878403404
 30
270.5605019400827
 70
    32
  0
VERTEX
  5
AEA
330
AB7
100
AcDbEntity
  8
trace
100
AcDbVertex
100
AcDb3dPolylineVertex
 10
-1786.342609753552
 20
22144.61117784025
 30
264.2409412895359
 70
    32
  0
VERTEX
  5
AEB
330
AB7
100
AcDbEntity
  8
trace
100
AcDbVertex
100
AcDb3dPolylineVertex
 10
-1776.609829335347
 20
22210.27845672453
 30
216.8442850605789
 70
    32
  0
VERTEX
  5
AEC
330
AB7
100
AcDbEntity
  8
trace
100
AcDbVertex
100
AcDb3dPolylineVertex
 10
-1773.780623702062
 20
22229.36716800322
 30
178.6459177367651
 70
    32
  0
VERTEX
  5
AED
330
AB7
100
AcDbEntity
  8
trace
100
AcDbVertex
100
AcDb3dPolylineVertex
 10
-1772.853691713176
 20
22235.62119807535
 30
134.4090418330961
 70
    32
  0
VERTEX
  5
AEE
330
AB7
100
AcDbEntity
  8
trace
100
AcDbVertex
100
AcDb3dPolylineVertex
 10
-1767.755571239392
 20
22270.01832659902
 30
99.65150690524026
 70
    32
  0
VERTEX
  5
AEF
330
AB7
100
AcDbEntity
  8
trace
100
AcDbVertex
100
AcDb3dPolylineVertex
 10
-1761.267058247361
 20
22313.79646335786
 30
58.57441132684473
 70
    32
  0
VERTEX
  5
AF0
330
AB7
100
AcDbEntity
  8
trace
100
AcDbVertex
100
AcDb3dPolylineVertex
 10
-1757.09586976246
 20
22341.93956180942
 30
30.13638839936174
 70
    32
  0
VERTEX
  5
AF1
330
AB7
100
AcDbEntity
  8
trace
100
AcDbVertex
100
AcDb3dPolylineVertex
 10
-1752.92468127756
 20
22370.08266026097
 30
-74.13621638418408
 70
    32
  0
VERTEX
  5
AF2
330
AB7
100
AcDbEntity
  8
trace
100
AcDbVertex
100
AcDb3dPolylineVertex
 10
-1737.630319856206
 20
22473.274045832
 30
-74.13621638418407
 70
    32
  0
VERTEX
  5
AF3
330
AB7
100
AcDbEntity
  8
trace
100
AcDbVertex
100
AcDb3dPolylineVertex
 10
-1738.55725184509
 20
22467.02001575988
 30
-134.1719939142349
 70
    32
  0
VERTEX
  5
AF4
330
AB7
100
AcDbEntity
  8
trace
100
AcDbVertex
100
AcDb3dPolylineVertex
 10
-1732.995670841942
 20
22504.54412244661
 30
-159.4501878662631
 70
    32
  0
VERTEX
  5
AF5
330
AB7
100
AcDbEntity
  8
trace
100
AcDbVertex
100
AcDb3dPolylineVertex
 10
-1731.799376056831
 20
22512.61554910027
 30
-173.8915549625235
 70
    32
  0
VERTEX
  5
AF6
330
AB7
100
AcDbEntity
  8
trace
100
AcDbVertex
100
AcDb3dPolylineVertex
 10
-1733.437128964683
 20
22501.56559499442
 30
-201.8059073882032
 70
    32
  0
VERTEX
  5
AF7
330
AB7
100
AcDbEntity
  8
trace
100
AcDbVertex
100
AcDb3dPolylineVertex
 10
-1733.846561726567
 20
22498.80314334097
 30
-215.7631079261264
 70
    32
  0
VERTEX
  5
AF8
330
AB7
100
AcDbEntity
  8
trace
100
AcDbVertex
100
AcDb3dPolylineVertex
 10
-1719.925662009822
 20
22592.7277532407
 30
-221.3459589511912
 70
    32
  0
VERTEX
  5
AF9
330
AB7
100
AcDbEntity
  8
trace
100
AcDbVertex
100
AcDb3dPolylineVertex
 10
-1716.071972733849
 20
22618.72867769856
 30
-232.6908396020444
 70
    32
  0
VERTEX
  5
AFA
330
AB7
100
AcDbEntity
  8
trace
100
AcDbVertex
100
AcDb3dPolylineVertex
 10
-1713.774224138421
 20
22634.23163690841
 30
-265.979771646409
 70
    32
  0
VERTEX
  5
AFB
330
AB7
100
AcDbEntity
  8
trace
100
AcDbVertex
100
AcDb3dPolylineVertex
 10
-1713.199789722103
 20
22638.10735827438
 30
-324.724908639284
 70
    32
  0
VERTEX
  5
AFC
330
AB7
100
AcDbEntity
  8
trace
100
AcDbVertex
100
AcDb3dPolylineVertex
 10
-1712.625355305785
 20
22641.98307964035
 30
-395.2190633006976
 70
    32
  0
VERTEX
  5
AFD
330
AB7
100
AcDbEntity
  8
trace
100
AcDbVertex
100
AcDb3dPolylineVertex
 10
-1712.912577979022
 20
22640.04518208437
 30
-489.2112532991887
 70
    32
  0
VERTEX
  5
AFE
330
AB7
100
AcDbEntity
  8
trace
100
AcDbVertex
100
AcDb3dPolylineVertex
 10
-1712.625355305785
 20
22641.98307964035
 30
-512.7092886362661
 70
    32
  0
SEQEND
  5
AFF
330
AB7
100
AcDbEntity
  8
trace
  0
POLYLINE
  5
BCC
330
1F
100
AcDbEntity
  8
trace
100
AcDb3dPolyline
 66
     1
 10
0.0
 20
0.0
 30
0.0
 70
     8
  0
VERTEX
  5
BCD
330
BCC
100
AcDbEntity
  8
trace
100
AcDbVertex
100
AcDb3dPolylineVertex
 10
-3251.495685183272
 20
12259.19185486352
 30
2552.52710166543
 70
    32
  0
VERTEX
  5
BCE
330
BCC
100
AcDbEntity
  8
trace
100
AcDbVertex
100
AcDb3dPolylineVertex
 10
-3242.235002757968
 20
12321.67387843243
 30
2658.980891791558
 70
    32
  0
VERTEX
  5
BCF
330
BCC
100
AcDbEntity
  8
trace
100
AcDbVertex
100
AcDb3dPolylineVertex
 10
-3224.498560014187
 20
12441.34203922772
 30
2621.453313103826
 70
    32
  0
VERTEX
  5
BD0
330
BCC
100
AcDbEntity
  8
trace
100
AcDbVertex
100
AcDb3dPolylineVertex
 10
-3190.86047631008
 20
12668.29891370922
 30
2621.453313103826
 70
    32
  0
VERTEX
  5
BD1
330
BCC
100
AcDbEntity
  8
trace
100
AcDbVertex
100
AcDb3dPolylineVertex
 10
-3105.847866158088
 20
13241.8808234675
 30
2688.168954492932
 70
    32
  0
VERTEX
  5
BD2
330
BCC
100
AcDbEntity
  8
trace
100
AcDbVertex
100
AcDb3dPolylineVertex
 10
-3081.99541018268
 20
13402.81385712379
 30
2713.187307851302
 70
    32
  0
VERTEX
  5
BD3
330
BCC
100
AcDbEntity
  8
trace
100
AcDbVertex
100
AcDb3dPolylineVertex
 10
-3066.705377103613
 20
13505.97603927628
 30
2650.641424455375
 70
    32
  0
VERTEX
  5
BD4
330
BCC
100
AcDbEntity
  8
trace
100
AcDbVertex
100
AcDb3dPolylineVertex
 10
-3042.241313246948
 20
13671.03560446627
 30
2646.47171511237
 70
    32
  0
VERTEX
  5
BD5
330
BCC
100
AcDbEntity
  8
trace
100
AcDbVertex
100
AcDb3dPolylineVertex
 10
-2959.063515808569
 20
14232.23799336945
 30
2600.604717738635
 70
    32
  0
VERTEX
  5
BD6
330
BCC
100
AcDbEntity
  8
trace
100
AcDbVertex
100
AcDb3dPolylineVertex
 10
-2949.277888079873
 20
14298.26183419464
 30
2633.962538433189
 70
    32
  0
VERTEX
  5
BD7
330
BCC
100
AcDbEntity
  8
trace
100
AcDbVertex
100
AcDb3dPolylineVertex
 10
-2927.260233887921
 20
14446.81542074184
 30
2725.696484530483
 70
    32
  0
VERTEX
  5
BD8
330
BCC
100
AcDbEntity
  8
trace
100
AcDbVertex
100
AcDb3dPolylineVertex
 10
-2910.746995976497
 20
14558.23059221572
 30
2813.260769934954
 70
    32
  0
VERTEX
  5
BD9
330
BCC
100
AcDbEntity
  8
trace
100
AcDbVertex
100
AcDb3dPolylineVertex
 10
-2893.622150183816
 20
14673.77229522333
 30
2925.843408697794
 70
    32
  0
VERTEX
  5
BDA
330
BCC
100
AcDbEntity
  8
trace
100
AcDbVertex
100
AcDb3dPolylineVertex
 10
-2889.952546616902
 20
14698.53118944152
 30
3009.237936109086
 70
    32
  0
SEQEND
  5
BDB
330
BCC
100
AcDbEntity
  8
trace
  0
POLYLINE
  5
D04
330
1F
100
AcDbEntity
  8
trace
100
AcDb3dPolyline
 66
     1
 10
0.0
 20
0.0
 30
0.0
 70
     8
  0
VERTEX
  5
D05
330
D04
100
AcDbEntity
  8
trace
100
AcDbVertex
100
AcDb3dPolylineVertex
 10
-2889.952546616904
 20
14698.53118944152
 30
3009.237936109086
 70
    32
  0
VERTEX
  5
D06
330
D04
100
AcDbEntity
  8
trace
100
AcDbVertex
100
AcDb3dPolylineVertex
 10
-2894.439245022103
 20
14668.25933876945
 30
3059.264280338197
 70
    32
  0
VERTEX
  5
D07
330
D04
100
AcDbEntity
  8
trace
100
AcDbVertex
100
AcDb3dPolylineVertex
 10
-2896.457990422575
 20
14654.63882011877
 30
3145.28470103586
 70
    32
  0
VERTEX
  5
D08
330
D04
100
AcDbEntity
  8
trace
100
AcDbVertex
100
AcDb3dPolylineVertex
 10
-2901.000181236332
 20
14623.99256097223
 30
4638.598857958081
 70
    32
  0
SEQEND
  5
D09
330
D04
100
AcDbEntity
  8
trace
  0
POLYLINE
  5
D2B
330
1F
100
AcDbEntity
  8
trace
100
AcDb3dPolyline
 66
     1
 10
0.0
 20
0.0
 30
0.0
 70
     8
  0
VERTEX
  5
D2C
330
D2B
100
AcDbEntity
  8
trace
100
AcDbVertex
100
AcDb3dPolylineVertex
 10
-2901.000181236333
 20
14623.99256097223
 30
4638.598857958081
 70
    32
  0
VERTEX
  5
D2D
330
D2B
100
AcDbEntity
  8
trace
100
AcDbVertex
100
AcDb3dPolylineVertex
 10
-2900.554143377688
 20
14627.00198800109
 30
4811.812752413556
 70
    32
  0
VERTEX
  5
D2E
330
D2B
100
AcDbEntity
  8
trace
100
AcDbVertex
100
AcDb3dPolylineVertex
 10
-2924.070245622844
 20
14468.33834019953
 30
4821.384480074899
 70
    32
  0
VERTEX
  5
D2F
330
D2B
100
AcDbEntity
  8
trace
100
AcDbVertex
100
AcDb3dPolylineVertex
 10
-2931.089986119431
 20
14420.97600003798
 30
4761.561255166765
 70
    32
  0
VERTEX
  5
D30
330
D2B
100
AcDbEntity
  8
trace
100
AcDbVertex
100
AcDb3dPolylineVertex
 10
-2951.447218257312
 20
14283.62531681389
 30
4756.775391336094
 70
    32
  0
VERTEX
  5
D31
330
D2B
100
AcDbEntity
  8
trace
100
AcDbVertex
100
AcDb3dPolylineVertex
 10
-2959.168926245465
 20
14231.52678688379
 30
4723.274393171567
 70
    32
  0
VERTEX
  5
D32
330
D2B
100
AcDbEntity
  8
trace
100
AcDbVertex
100
AcDb3dPolylineVertex
 10
-2962.327796352738
 20
14210.21382230631
 30
4649.093625421599
 70
    32
  0
VERTEX
  5
D33
330
D2B
100
AcDbEntity
  8
trace
100
AcDbVertex
100
AcDb3dPolylineVertex
 10
-2976.367266415756
 20
14115.48921572921
 30
4606.020899595729
 70
    32
  0
VERTEX
  5
D34
330
D2B
100
AcDbEntity
  8
trace
100
AcDbVertex
100
AcDb3dPolylineVertex
 10
-3002.691271417643
 20
13937.88058761541
 30
4550.983538518273
 70
    32
  0
VERTEX
  5
D35
330
D2B
100
AcDbEntity
  8
trace
100
AcDbVertex
100
AcDb3dPolylineVertex
 10
-3036.385995196817
 20
13710.54156132881
 30
4560.555266179617
 70
    32
  0
VERTEX
  5
D36
330
D2B
100
AcDbEntity
  8
trace
100
AcDbVertex
100
AcDb3dPolylineVertex
 10
-3044.458692395831
 20
13656.07489964142
 30
4610.806763426401
 70
    32
  0
VERTEX
  5
D37
330
D2B
100
AcDbEntity
  8
trace
100
AcDbVertex
100
AcDb3dPolylineVertex
 10
-3058.498162458847
 20
13561.35029306432
 30
4625.164354918416
 70
    32
  0
VERTEX
  5
D38
330
D2B
100
AcDbEntity
  8
trace
100
AcDbVertex
100
AcDb3dPolylineVertex
 10
-3059.902108372132
 20
13551.87783978122
 30
4775.91884665878
 70
    32
  0
VERTEX
  5
D39
330
D2B
100
AcDbEntity
  8
trace
100
AcDbVertex
100
AcDb3dPolylineVertex
 10
-3116.410966904903
 20
13170.61135546158
 30
4773.525890418357
 70
    32
  0
VERTEX
  5
D3A
330
D2B
100
AcDbEntity
  8
trace
100
AcDbVertex
100
AcDb3dPolylineVertex
 10
-3142.032993485067
 20
12997.73899086234
 30
4830.956207736242
 70
    32
  0
VERTEX
  5
D3B
330
D2B
100
AcDbEntity
  8
trace
100
AcDbVertex
100
AcDb3dPolylineVertex
 10
-3166.953052573667
 20
12829.60281603165
 30
4976.924835645928
 70
    32
  0
VERTEX
  5
D3C
330
D2B
100
AcDbEntity
  8
trace
100
AcDbVertex
100
AcDb3dPolylineVertex
 10
-3198.190862806975
 20
12618.84063829999
 30
5053.498559636325
 70
    32
  0
VERTEX
  5
D3D
330
D2B
100
AcDbEntity
  8
trace
100
AcDbVertex
100
AcDb3dPolylineVertex
 10
-3216.793159820709
 20
12493.3305401163
 30
5067.85610247816
 70
    32
  0
VERTEX
  5
D3E
330
D2B
100
AcDbEntity
  8
trace
100
AcDbVertex
100
AcDb3dPolylineVertex
 10
-3216.793159820709
 20
12493.3305401163
 30
5067.85610247816
 70
    32
  0
VERTEX
  5
D3F
330
D2B
100
AcDbEntity
  8
trace
100
AcDbVertex
100
AcDb3dPolylineVertex
 10
-3244.057737931296
 20
12309.37584500148
 30
5034.404872350606
 70
    32
  0
SEQEND
  5
D40
330
D2B
100
AcDbEntity
  8
trace
  0
LINE
  5
E9E
330
1F
100
AcDbEntity
  8
trace
100
AcDbLine
 10
-2172.287594168869
 20
19540.63206430896
 30
-1633.714495368636
 11
-2423.14654066254
 21
17848.0813550373
 31
-2234.23652819806
  0
LINE
  5
EA1
330
1F
100
AcDbEntity
  8
trace
100
AcDbLine
 10
-2193.352085859174
 20
19398.50948566784
 30
-1033.192369177588
 11
-2968.908414548418
 21
14165.81424975678
 31
-1215.959911912928
  0
LINE
  5
EA2
330
1F
100
AcDbEntity
  8
trace
100
AcDbLine
 10
-3232.648657187296
 20
12386.35315824983
 30
36.75724037293548
 11
-3232.100377145477
 21
12390.05241548833
 31
-707.7581857485347
  0
LINE
  5
EA3
330
1F
100
AcDbEntity
  8
trace
100
AcDbLine
 10
-3232.100377145477
 20
12390.05241548833
 30
-707.7581857485347
 11
-3219.186547042015
 21
12477.18230503995
 31
-698.6502937699551
  0
LINE
  5
EA4
330
1F
100
AcDbEntity
  8
trace
100
AcDbLine
 10
-3219.186547042015
 20
12477.18230503995
 30
-698.6502937699551
 11
-3204.49149682045
 21
12576.33012505171
 31
-716.8660777271216
  0
LINE
  5
EA5
330
1F
100
AcDbEntity
  8
trace
100
AcDbLine
 10
-3204.49149682045
 20
12576.33012505171
 30
-716.8660777271216
 11
-3196.030717012247
 21
12633.41518845297
 31
-832.2325692243904
  0
LINE
  5
EA6
330
1F
100
AcDbEntity
  8
trace
100
AcDbLine
 10
-3196.030717012247
 20
12633.41518845297
 30
-832.2325692243904
 11
-3204.046197041854
 21
12579.3345722386
 31
-868.664090394901
  0
LINE
  5
EA7
330
1F
100
AcDbEntity
  8
trace
100
AcDbLine
 10
-3204.046197041854
 20
12579.3345722386
 30
-868.664090394901
 11
-3203.155586982802
 21
12585.34353746868
 31
-917.2394675368632
  0
LINE
  5
EA8
330
1F
100
AcDbEntity
  8
trace
100
AcDbLine
 10
-3203.155586982802
 20
12585.34353746868
 30
-917.2394675368632
 11
-3104.297985948513
 21
13252.33789858747
 31
-1020.462103062687
  0
LINE
  5
EA9
330
1F
100
AcDbEntity
  8
trace
100
AcDbLine
 10
-3104.297985948513
 20
13252.33789858747
 30
-1020.462103062687
 11
-3070.454845711984
 21
13480.67829390505
 31
-1041.713851012711
  0
LINE
  5
EAA
330
1F
100
AcDbEntity
  8
trace
100
AcDbLine
 10
-3070.454845711984
 20
13480.67829390505
 30
-1041.713851012711
 11
-3053.978585874175
 21
13591.84397352068
 31
-1108.504965368025
  0
LINE
  5
EAB
330
1F
100
AcDbEntity
  8
trace
100
AcDbLine
 10
-3053.978585874175
 20
13591.84397352068
 30
-1108.504965368025
 11
-3039.28353565261
 21
13690.99179353243
 31
-1081.181336176087
  0
LINE
  5
EAC
330
1F
100
AcDbEntity
  8
trace
100
AcDbLine
 10
-3039.28353565261
 20
13690.99179353243
 30
-1081.181336176087
 11
-3017.018305180035
 21
13841.21578257164
 31
-1111.540929360883
  0
LINE
  5
EAD
330
1F
100
AcDbEntity
  8
trace
100
AcDbLine
 10
-3017.018305180035
 20
13841.21578257164
 30
-1111.540929360883
 11
-2992.52656531262
 21
14006.46207840162
 31
-1202.619755659078
  0
LINE
  5
EAE
330
1F
100
AcDbEntity
  8
trace
100
AcDbLine
 10
-2992.52656531262
 20
14006.46207840162
 30
-1202.619755659078
 11
-2857.011840716137
 21
14920.78284087966
 31
-1285.651540843493
  0
LINE
  5
EAF
330
1F
100
AcDbEntity
  8
trace
100
AcDbLine
 10
-2857.011840716137
 20
14920.78284087966
 30
-1285.651540843493
 11
-2756.373030065602
 21
15599.79506160233
 31
-1470.845157432748
  0
LINE
  5
EB0
330
1F
100
AcDbEntity
  8
trace
100
AcDbLine
 10
-2756.373030065602
 20
15599.79506160233
 30
-1470.845157432748
 11
-2692.98766997429
 21
16027.45744988673
 31
-1620.208985972553
  0
LINE
  5
EB1
330
1F
100
AcDbEntity
  8
trace
100
AcDbLine
 10
-2692.98766997429
 20
16027.45744988673
 30
-1620.208985972553
 11
-2615.504689353524
 21
16550.23678719638
 31
-1744.683369448401
  0
LINE
  5
EB2
330
1F
100
AcDbEntity
  8
trace
100
AcDbLine
 10
-2615.504689353524
 20
16550.23678719638
 30
-1744.683369448401
 11
-2563.849368939678
 21
16898.75634540283
 31
-1984.52429116534
  0
LINE
  5
EB3
330
1F
100
AcDbEntity
  8
trace
100
AcDbLine
 10
-2563.849368939678
 20
16898.75634540283
 30
-1984.52429116534
 11
-2551.380838614813
 21
16982.88178776754
 31
-2078.639034712578
  0
LINE
  5
EB4
330
1F
100
AcDbEntity
  8
trace
100
AcDbLine
 10
-2551.380838614813
 20
16982.88178776754
 30
-2078.639034712578
 11
-2526.692283428528
 21
17149.45600078846
 31
-2231.818093372902
  0
LINE
  5
EB5
330
1F
100
AcDbEntity
  8
trace
100
AcDbLine
 10
-2526.692283428528
 20
17149.45600078846
 30
-2231.818093372902
 11
-2415.811472851687
 21
17897.57121537253
 31
-2240.925985351481
  0
LINE
  5
EB9
330
1F
100
AcDbEntity
  8
trace
100
AcDbLine
 10
-2189.613551866095
 20
19423.73345495443
 30
-1039.410269101797
 11
-2186.89453663136
 21
19442.07870924333
 31
-1669.819693423807
  0
LINE
  5
EBA
330
1F
100
AcDbEntity
  8
trace
100
AcDbLine
 10
-2171.382568097658
 20
19546.73829468323
 30
-1623.590667215736
 11
-1812.232228816717
 21
21969.9333610009
 31
-840.5403473341502
  0
LINE
  5
EBB
330
1F
100
AcDbEntity
  8
trace
100
AcDbLine
 10
-1812.232228816717
 20
21969.9333610009
 30
-840.5403473341502
 11
-1721.077320476396
 21
22584.95748878857
 31
-790.8228785781975
  0
LINE
  5
EBC
330
1F
100
AcDbEntity
  8
trace
100
AcDbLine
 10
-1721.077320476396
 20
22584.95748878857
 30
-790.8228785781975
 11
-1712.625355305785
 21
22641.98307964035
 31
-512.7092886362661
  0
LINE
  5
EBD
330
1F
100
AcDbEntity
  8
trace
100
AcDbLine
 10
-2310.78375745348
 20
18606.19547085589
 30
809.1777361844433
 11
-2322.729347657512
 21
18525.5983167376
 31
812.879617146369
  0
LINE
  5
EBE
330
1F
100
AcDbEntity
  8
trace
100
AcDbLine
 10
-2322.729347657512
 20
18525.5983167376
 30
812.879617146369
 11
-2325.98723780325
 21
18503.61726183017
 31
827.6871877096272
  0
LINE
  5
EBF
330
1F
100
AcDbEntity
  8
trace
100
AcDbLine
 10
-2325.98723780325
 20
18503.61726183017
 30
827.6871877096272
 11
-2322.729347657512
 21
18525.5983167376
 31
853.600447874218
  0
LINE
  5
EC0
330
1F
100
AcDbEntity
  8
trace
100
AcDbLine
 10
-2322.729347657512
 20
18525.5983167376
 30
853.600447874218
 11
-2331.417058211318
 21
18466.98214671329
 31
849.8985669122921
  0
LINE
  5
EC1
330
1F
100
AcDbEntity
  8
trace
100
AcDbLine
 10
-2331.417058211318
 20
18466.98214671329
 30
849.8985669122921
 11
-2332.503018094727
 21
18459.65515201529
 31
842.4948049884479
  0
LINE
  5
EC2
330
1F
100
AcDbEntity
  8
trace
100
AcDbLine
 10
-2332.503018094727
 20
18459.65515201529
 30
842.4948049884479
 11
-2335.760908240463
 21
18437.67409710787
 31
816.5814981082949
  0
LINE
  5
EC3
330
1F
100
AcDbEntity
  8
trace
100
AcDbLine
 10
-2335.760908240463
 20
18437.67409710787
 30
816.5814981082949
 11
-2339.561773080151
 21
18412.02958025815
 31
790.6682379437043
  0
LINE
  5
EC4
330
1F
100
AcDbEntity
  8
trace
100
AcDbLine
 10
-2339.561773080151
 20
18412.02958025815
 30
790.6682379437043
 11
-2340.64774345907
 21
18404.70251474672
 31
461.1996177278779
  0
LINE
  5
EC5
330
1F
100
AcDbEntity
  8
trace
100
AcDbLine
 10
-2340.64774345907
 20
18404.70251474672
 30
461.1996177278779
 11
-2309.15481238061
 21
18617.18599830961
 31
468.6033796517295
  0
LINE
  5
EC6
330
1F
100
AcDbEntity
  8
trace
100
AcDbLine
 10
-2309.15481238061
 20
18617.18599830961
 30
468.6033796517295
 11
-2310.78375745348
 21
18606.19547085589
 31
505.6223294176525
  0
LINE
  5
EC7
330
1F
100
AcDbEntity
  8
trace
100
AcDbLine
 10
-2310.78375745348
 20
18606.19547085589
 30
505.6223294176525
 11
-2312.41270252635
 21
18595.20494340217
 31
513.0261380570591
  0
LINE
  5
EC8
330
1F
100
AcDbEntity
  8
trace
100
AcDbLine
 10
-2312.41270252635
 20
18595.20494340217
 30
513.0261380570591
 11
-2314.584632788678
 21
18580.55088319273
 31
746.2455262539297
  0
LINE
  5
EC9
330
1F
100
AcDbEntity
  8
trace
100
AcDbLine
 10
-2314.584632788678
 20
18580.55088319273
 30
746.2455262539297
 11
-2308.611827191151
 21
18620.84953106533
 31
812.879617146369
  0
LINE
  5
ECA
330
1F
100
AcDbEntity
  8
trace
100
AcDbLine
 10
-2808.988921079213
 20
15244.79451289241
 30
737.4722977475612
 11
-2836.142305287463
 21
15061.59004542902
 31
739.7863529126698
  0
LINE
  5
ECB
330
1F
100
AcDbEntity
  8
trace
100
AcDbLine
 10
-2836.142305287463
 20
15061.59004542902
 30
739.7863529126698
 11
-2838.178811989347
 21
15047.84969089558
 31
716.6458012615549
  0
LINE
  5
ECC
330
1F
100
AcDbEntity
  8
trace
100
AcDbLine
 10
-2838.178811989347
 20
15047.84969089558
 30
716.6458012615549
 11
-2837.839397704204
 21
15050.13972638
 31
654.1664052346532
  0
LINE
  5
ECD
330
1F
100
AcDbEntity
  8
trace
100
AcDbLine
 10
-2837.839397704204
 20
15050.13972638
 30
654.1664052346532
 11
-2837.160558638406
 21
15054.71986816229
 31
570.8605594373002
  0
LINE
  5
ECE
330
1F
100
AcDbEntity
  8
trace
100
AcDbLine
 10
-2837.160558638406
 20
15054.71986816229
 30
570.8605594373002
 11
-2835.80289100232
 21
15063.88008091345
 31
494.4968324197325
  0
LINE
  5
ECF
330
1F
100
AcDbEntity
  8
trace
100
AcDbLine
 10
-2835.80289100232
 20
15063.88008091345
 30
494.4968324197325
 11
-2841.572986327318
 21
15024.94912361097
 31
471.3563274841726
  0
LINE
  5
ED0
330
1F
100
AcDbEntity
  8
trace
100
AcDbLine
 10
-2841.572986327318
 20
15024.94912361097
 30
471.3563274841726
 11
-2841.233572042174
 21
15027.2391590954
 31
450.5298309981663
  0
LINE
  5
ED1
330
1F
100
AcDbEntity
  8
trace
100
AcDbLine
 10
-2841.233572042174
 20
15027.2391590954
 30
450.5298309981663
 11
-2807.97066772827
 21
15251.66469015914
 31
455.1579413283834
  0
LINE
  5
ED2
330
1F
100
AcDbEntity
  8
trace
100
AcDbLine
 10
-2807.97066772827
 20
15251.66469015914
 30
455.1579413283834
 11
-2808.310082013413
 21
15249.37465467471
 31
739.7863529126698
  0
POLYLINE
  5
ED5
330
1F
100
AcDbEntity
  8
trace
100
AcDb3dPolyline
 66
     1
 10
0.0
 20
0.0
 30
0.0
 70
     8
  0
VERTEX
  5
ED6
330
ED5
100
AcDbEntity
  8
trace
100
AcDbVertex
100
AcDb3dPolylineVertex
 10
-2144.941985039004
 20
19725.13347745423
 30
5368.585867569658
 70
    32
  0
VERTEX
  5
ED7
330
ED5
100
AcDbEntity
  8
trace
100
AcDbVertex
100
AcDb3dPolylineVertex
 10
-2151.903173851273
 20
19678.16618676653
 30
5367.214215549531
 70
    32
  0
VERTEX
  5
ED8
330
ED5
100
AcDbEntity
  8
trace
100
AcDbVertex
100
AcDb3dPolylineVertex
 10
-2157.449211037203
 20
19640.74695454899
 30
5366.457984096763
 70
    32
  0
VERTEX
  5
ED9
330
ED5
100
AcDbEntity
  8
trace
100
AcDbVertex
100
AcDb3dPolylineVertex
 10
-2156.450930641042
 20
19647.48237386008
 30
5356.627068641901
 70
    32
  0
VERTEX
  5
EDA
330
ED5
100
AcDbEntity
  8
trace
100
AcDbVertex
100
AcDb3dPolylineVertex
 10
-2147.577271143549
 20
19707.35314540818
 30
5349.064800829786
 70
    32
  0
VERTEX
  5
EDB
330
ED5
100
AcDbEntity
  8
trace
100
AcDbVertex
100
AcDb3dPolylineVertex
 10
-2147.244511011495
 20
19709.59828517854
 30
5285.541779237355
 70
    32
  0
VERTEX
  5
EDC
330
ED5
100
AcDbEntity
  8
trace
100
AcDbVertex
100
AcDb3dPolylineVertex
 10
-2139.701902537731
 20
19760.48842683172
 30
5277.223279972473
 70
    32
  0
VERTEX
  5
EDD
330
ED5
100
AcDbEntity
  8
trace
100
AcDbVertex
100
AcDb3dPolylineVertex
 10
-2139.036371778114
 20
19764.97877718588
 30
5211.431610737294
 70
    32
  0
VERTEX
  5
EDE
330
ED5
100
AcDbEntity
  8
trace
100
AcDbVertex
100
AcDb3dPolylineVertex
 10
-2120.179845345944
 20
19892.20416672555
 30
5215.212721285571
 70
    32
  0
VERTEX
  5
EDF
330
ED5
100
AcDbEntity
  8
trace
100
AcDbVertex
100
AcDb3dPolylineVertex
 10
-2120.068928800428
 20
19892.95252304453
 30
5160.008198958021
 70
    32
  0
VERTEX
  5
EE0
330
ED5
100
AcDbEntity
  8
trace
100
AcDbVertex
100
AcDb3dPolylineVertex
 10
-2126.613246382523
 20
19848.79787151588
 30
5154.71462550421
 70
    32
  0
VERTEX
  5
EE1
330
ED5
100
AcDbEntity
  8
trace
100
AcDbVertex
100
AcDb3dPolylineVertex
 10
-2125.393122399823
 20
19857.03007427836
 30
5088.922909553476
 70
    32
  0
VERTEX
  5
EE2
330
ED5
100
AcDbEntity
  8
trace
100
AcDbVertex
100
AcDb3dPolylineVertex
 10
-2124.283914962636
 20
19864.51392072187
 30
5070.017263380964
 70
    32
  0
VERTEX
  5
EE3
330
ED5
100
AcDbEntity
  8
trace
100
AcDbVertex
100
AcDb3dPolylineVertex
 10
-2115.29933891963
 20
19925.13304858892
 30
5048.086691397387
 70
    32
  0
VERTEX
  5
EE4
330
ED5
100
AcDbEntity
  8
trace
100
AcDbVertex
100
AcDb3dPolylineVertex
 10
-2115.107082174669
 20
19926.43020898362
 30
5005.531854578345
 70
    32
  0
VERTEX
  5
EE5
330
ED5
100
AcDbEntity
  8
trace
100
AcDbVertex
100
AcDb3dPolylineVertex
 10
-2114.982605430744
 20
19927.27005625303
 30
4981.769799143709
 70
    32
  0
VERTEX
  5
EE6
330
ED5
100
AcDbEntity
  8
trace
100
AcDbVertex
100
AcDb3dPolylineVertex
 10
-2105.024497403225
 20
19994.45762536532
 30
4980.921164317231
 70
    32
  0
VERTEX
  5
EE7
330
ED5
100
AcDbEntity
  8
trace
100
AcDbVertex
100
AcDb3dPolylineVertex
 10
-2104.888874428098
 20
19995.37267649645
 30
4917.771026308692
 70
    32
  0
VERTEX
  5
EE8
330
ED5
100
AcDbEntity
  8
trace
100
AcDbVertex
100
AcDb3dPolylineVertex
 10
-2108.747632498773
 20
19969.33755277169
 30
4911.830535807807
 70
    32
  0
VERTEX
  5
EE9
330
ED5
100
AcDbEntity
  8
trace
100
AcDbVertex
100
AcDb3dPolylineVertex
 10
-2108.125259274653
 20
19973.5367183053
 30
4859.214569264128
 70
    32
  0
VERTEX
  5
EEA
330
ED5
100
AcDbEntity
  8
trace
100
AcDbVertex
100
AcDb3dPolylineVertex
 10
-2108.000782530728
 20
19974.37656557471
 30
4837.14978348244
 70
    32
  0
VERTEX
  5
EEB
330
ED5
100
AcDbEntity
  8
trace
100
AcDbVertex
100
AcDb3dPolylineVertex
 10
-2104.639920940247
 20
19997.05237103527
 30
4837.14978348244
 70
    32
  0
VERTEX
  5
EEC
330
ED5
100
AcDbEntity
  8
trace
100
AcDbVertex
100
AcDb3dPolylineVertex
 10
-2104.639920940247
 20
19997.05237103527
 30
4771.804154394966
 70
    32
  0
VERTEX
  5
EED
330
ED5
100
AcDbEntity
  8
trace
100
AcDbVertex
100
AcDb3dPolylineVertex
 10
-2076.508260777144
 20
20186.85728741385
 30
4765.014982352055
 70
    32
  0
VERTEX
  5
EEE
330
ED5
100
AcDbEntity
  8
trace
100
AcDbVertex
100
AcDb3dPolylineVertex
 10
-2076.577825014812
 20
20186.38793600562
 30
4696.695300696163
 70
    32
  0
VERTEX
  5
EEF
330
ED5
100
AcDbEntity
  8
trace
100
AcDbVertex
100
AcDb3dPolylineVertex
 10
-2067.117623962996
 20
20250.21611604028
 30
4690.754810195286
 70
    32
  0
VERTEX
  5
EF0
330
ED5
100
AcDbEntity
  8
trace
100
AcDbVertex
100
AcDb3dPolylineVertex
 10
-2067.615530938697
 20
20246.85672696266
 30
4639.836113304547
 70
    32
  0
VERTEX
  5
EF1
330
ED5
100
AcDbEntity
  8
trace
100
AcDbVertex
100
AcDb3dPolylineVertex
 10
-2070.1050553217
 20
20230.05985238794
 30
4640.684748131024
 70
    32
  0
VERTEX
  5
EF2
330
ED5
100
AcDbEntity
  8
trace
100
AcDbVertex
100
AcDb3dPolylineVertex
 10
-2069.482671602072
 20
20234.25908873497
 30
4618.620009064892
 70
    32
  0
VERTEX
  5
EF3
330
ED5
100
AcDbEntity
  8
trace
100
AcDbVertex
100
AcDb3dPolylineVertex
 10
-2065.126006555695
 20
20263.65360153737
 30
4616.074057869911
 70
    32
  0
VERTEX
  5
EF4
330
ED5
100
AcDbEntity
  8
trace
100
AcDbVertex
100
AcDb3dPolylineVertex
 10
-2064.628099579995
 20
20267.01299061499
 30
4557.517554109792
 70
    32
  0
VERTEX
  5
EF5
330
ED5
100
AcDbEntity
  8
trace
100
AcDbVertex
100
AcDb3dPolylineVertex
 10
-2068.36239140225
 20
20241.81764334621
 30
4562.609456499755
 70
    32
  0
VERTEX
  5
EF6
330
ED5
100
AcDbEntity
  8
trace
100
AcDbVertex
100
AcDb3dPolylineVertex
 10
-2069.109241370295
 20
20236.77863054319
 30
4526.117738521331
 70
    32
  0
VERTEX
  5
EF7
330
ED5
100
AcDbEntity
  8
trace
100
AcDbVertex
100
AcDb3dPolylineVertex
 10
-2068.966995728608
 20
20237.73836494811
 30
4478.193602328967
 70
    32
  0
VERTEX
  5
EF8
330
ED5
100
AcDbEntity
  8
trace
100
AcDbVertex
100
AcDb3dPolylineVertex
 10
-2067.374197190822
 20
20248.48501095191
 30
4471.678090024776
 70
    32
  0
VERTEX
  5
EF9
330
ED5
100
AcDbEntity
  8
trace
100
AcDbVertex
100
AcDb3dPolylineVertex
 10
-2067.692756898379
 20
20246.33568175115
 30
4423.897604173238
 70
    32
  0
VERTEX
  5
EFA
330
ED5
100
AcDbEntity
  8
trace
100
AcDbVertex
100
AcDb3dPolylineVertex
 10
-2069.92266435577
 20
20231.29044815924
 30
4423.897604173238
 70
    32
  0
VERTEX
  5
EFB
330
ED5
100
AcDbEntity
  8
trace
100
AcDbVertex
100
AcDb3dPolylineVertex
 10
-2068.329876313492
 20
20242.03702334963
 30
4341.367657078568
 70
    32
  0
VERTEX
  5
EFC
330
ED5
100
AcDbEntity
  8
trace
100
AcDbVertex
100
AcDb3dPolylineVertex
 10
-2065.781409148545
 20
20259.2315861423
 30
4330.5084387612
 70
    32
  0
VERTEX
  5
EFD
330
ED5
100
AcDbEntity
  8
trace
100
AcDbVertex
100
AcDb3dPolylineVertex
 10
-2065.14428973343
 20
20263.53024454382
 30
4297.930830524652
 70
    32
  0
VERTEX
  5
EFE
330
ED5
100
AcDbEntity
  8
trace
100
AcDbVertex
100
AcDb3dPolylineVertex
 10
-2067.692756898379
 20
20246.33568175115
 30
4291.415318220454
 70
    32
  0
VERTEX
  5
EFF
330
ED5
100
AcDbEntity
  8
trace
100
AcDbVertex
100
AcDb3dPolylineVertex
 10
-2067.692756898379
 20
20246.33568175115
 30
4247.978538382092
 70
    32
  0
VERTEX
  5
F00
330
ED5
100
AcDbEntity
  8
trace
100
AcDbVertex
100
AcDb3dPolylineVertex
 10
-2066.099968856101
 20
20257.08225694154
 30
4211.057224132368
 70
    32
  0
VERTEX
  5
F01
330
ED5
100
AcDbEntity
  8
trace
100
AcDbVertex
100
AcDb3dPolylineVertex
 10
-2062.595833063991
 20
20280.72473652307
 30
4200.198052530562
 70
    32
  0
VERTEX
  5
F02
330
ED5
100
AcDbEntity
  8
trace
100
AcDbVertex
100
AcDb3dPolylineVertex
 10
-2062.914382276037
 20
20278.57547813575
 30
4189.338834213187
 70
    32
  0
VERTEX
  5
F03
330
ED5
100
AcDbEntity
  8
trace
100
AcDbVertex
100
AcDb3dPolylineVertex
 10
-2066.41852856366
 20
20254.93292774077
 30
4184.995174915573
 70
    32
  0
SEQEND
  5
F04
330
ED5
100
AcDbEntity
  8
trace
  0
POLYLINE
  5
F05
330
1F
100
AcDbEntity
  8
trace
100
AcDb3dPolyline
 66
     1
 10
0.0
 20
0.0
 30
0.0
 70
     8
  0
VERTEX
  5
F06
330
F05
100
AcDbEntity
  8
trace
100
AcDbVertex
100
AcDb3dPolylineVertex
 10
-3271.460072079659
 20
12124.49170693595
 30
5342.249985521149
 70
    32
  0
VERTEX
  5
F07
330
F05
100
AcDbEntity
  8
trace
100
AcDbVertex
100
AcDb3dPolylineVertex
 10
-3322.752082562226
 20
11778.42340865252
 30
5379.057717807562
 70
    32
  0
VERTEX
  5
F08
330
F05
100
AcDbEntity
  8
trace
100
AcDbVertex
100
AcDb3dPolylineVertex
 10
-3357.846603392221
 20
11541.63992154713
 30
5379.057717807562
 70
    32
  0
VERTEX
  5
F09
330
F05
100
AcDbEntity
  8
trace
100
AcDbVertex
100
AcDb3dPolylineVertex
 10
-3398.340294727724
 20
11268.42811487687
 30
5305.442253234724
 70
    32
  0
VERTEX
  5
F0A
330
F05
100
AcDbEntity
  8
trace
100
AcDbVertex
100
AcDb3dPolylineVertex
 10
-3390.644710150468
 20
11320.35038959161
 30
1297.142675515306
 70
    32
  0
SEQEND
  5
F0B
330
F05
100
AcDbEntity
  8
trace
  0
POLYLINE
  5
F0C
330
1F
100
AcDbEntity
  8
trace
100
AcDb3dPolyline
 66
     1
 10
0.0
 20
0.0
 30
0.0
 70
     8
  0
VERTEX
  5
F0D
330
F0C
100
AcDbEntity
  8
trace
100
AcDbVertex
100
AcDb3dPolylineVertex
 10
-1940.054063040174
 20
21107.5166953837
 30
-1160.346344952341
 70
    32
  0
VERTEX
  5
F0E
330
F0C
100
AcDbEntity
  8
trace
100
AcDbVertex
100
AcDb3dPolylineVertex
 10
-1928.696179899868
 20
21184.1485772984
 30
-824.8160093166079
 70
    32
  0
VERTEX
  5
F0F
330
F0C
100
AcDbEntity
  8
trace
100
AcDbVertex
100
AcDb3dPolylineVertex
 10
-1921.124279670274
 20
21235.23635105837
 30
-334.4256983136729
 70
    32
  0
VERTEX
  5
F10
330
F0C
100
AcDbEntity
  8
trace
100
AcDbVertex
100
AcDb3dPolylineVertex
 10
-1921.124279670274
 20
21235.23635105837
 30
1.104637322074268
 70
    32
  0
VERTEX
  5
F11
330
F0C
100
AcDbEntity
  8
trace
100
AcDbVertex
100
AcDb3dPolylineVertex
 10
-1921.124279670274
 20
21235.23635105837
 30
233.394740415315
 70
    32
  0
VERTEX
  5
F12
330
F0C
100
AcDbEntity
  8
trace
100
AcDbVertex
100
AcDb3dPolylineVertex
 10
-1905.980457347144
 20
21337.4120460948
 30
801.2151791443029
 70
    32
  0
VERTEX
  5
F13
330
F0C
100
AcDbEntity
  8
trace
100
AcDbVertex
100
AcDb3dPolylineVertex
 10
-1890.836635024016
 20
21439.58774113122
 30
1059.315387053997
 70
    32
  0
SEQEND
  5
F14
330
F0C
100
AcDbEntity
  8
trace
  0
POLYLINE
  5
F15
330
1F
100
AcDbEntity
  8
trace
100
AcDb3dPolyline
 66
     1
 10
0.0
 20
0.0
 30
0.0
 70
     8
  0
VERTEX
  5
F16
330
F15
100
AcDbEntity
  8
trace
100
AcDbVertex
100
AcDb3dPolylineVertex
 10
-3208.349177136208
 20
12550.30227296255
 30
-928.0561484974604
 70
    32
  0
VERTEX
  5
F17
330
F15
100
AcDbEntity
  8
trace
100
AcDbVertex
100
AcDb3dPolylineVertex
 10
-3386.289083966982
 20
11349.73789316373
 30
-902.2461370426608
 70
    32
  0
VERTEX
  5
F18
330
F15
100
AcDbEntity
  8
trace
100
AcDbVertex
100
AcDb3dPolylineVertex
 10
-3386.289083966982
 20
11349.73789316373
 30
-489.2857670425001
 70
    32
  0
SEQEND
  5
F19
330
F15
100
AcDbEntity
  8
trace
  0
POLYLINE
  5
1540
330
1F
100
AcDbEntity
  8
trace
100
AcDb3dPolyline
 66
     1
 10
0.0
 20
0.0
 30
0.0
 70
     8
  0
VERTEX
  5
1541
330
1540
100
AcDbEntity
  8
trace
100
AcDbVertex
100
AcDb3dPolylineVertex
 10
-3268.29315796579
 20
12145.85894459899
 30
3702.222828698366
 70
    32
  0
VERTEX
  5
1542
330
1540
100
AcDbEntity
  8
trace
100
AcDbVertex
100
AcDb3dPolylineVertex
 10
-2898.467329667252
 20
14641.08176500361
 30
3708.763326446476
 70
    32
  0
VERTEX
  5
1543
330
1540
100
AcDbEntity
  8
trace
100
AcDbVertex
100
AcDb3dPolylineVertex
 10
-2897.987662076295
 20
14644.31809255993
 30
3659.709476210614
 70
    32
  0
VERTEX
  5
1544
330
1540
100
AcDbEntity
  8
trace
100
AcDbVertex
100
AcDb3dPolylineVertex
 10
-3268.772836082467
 20
12142.62254602541
 30
3653.168978462512
 70
    32
  0
SEQEND
  5
1545
330
1540
100
AcDbEntity
  8
trace
  0
POLYLINE
  5
1546
330
1F
100
AcDbEntity
  8
trace
100
AcDb3dPolyline
 66
     1
 10
0.0
 20
0.0
 30
0.0
 70
     8
  0
VERTEX
  5
1547
330
1546
100
AcDbEntity
  8
trace
100
AcDbVertex
100
AcDb3dPolylineVertex
 10
-3172.412373631873
 20
12792.76865939358
 30
5623.102059757468
 70
    32
  0
VERTEX
  5
1548
330
1546
100
AcDbEntity
  8
trace
100
AcDbVertex
100
AcDb3dPolylineVertex
 10
-3168.102891203127
 20
12821.84483005969
 30
3064.077981494295
 70
    32
  0
VERTEX
  5
1549
330
1546
100
AcDbEntity
  8
trace
100
AcDbVertex
100
AcDb3dPolylineVertex
 10
-3173.379266280827
 20
12786.24501388821
 30
3064.077981494295
 70
    32
  0
VERTEX
  5
154A
330
1546
100
AcDbEntity
  8
trace
100
AcDbVertex
100
AcDb3dPolylineVertex
 10
-3178.189088814823
 20
12753.79303776708
 30
5613.112650564755
 70
    32
  0
SEQEND
  5
154B
330
1546
100
AcDbEntity
  8
trace
  0
POLYLINE
  5
154C
330
1F
100
AcDbEntity
  8
trace
100
AcDb3dPolyline
 66
     1
 10
0.0
 20
0.0
 30
0.0
 70
     8
  0
VERTEX
  5
154D
330
154C
100
AcDbEntity
  8
trace
100
AcDbVertex
100
AcDb3dPolylineVertex
 10
-2896.05996064461
 20
14657.32433559439
 30
5609.715883198035
 70
    32
  0
VERTEX
  5
154E
330
154C
100
AcDbEntity
  8
trace
100
AcDbVertex
100
AcDb3dPolylineVertex
 10
-2890.785069693444
 20
14692.9141383322
 30
3017.806366846475
 70
    32
  0
SEQEND
  5
154F
330
154C
100
AcDbEntity
  8
trace
  0
POLYLINE
  5
1550
330
1F
100
AcDbEntity
  8
trace
100
AcDb3dPolyline
 66
     1
 10
0.0
 20
0.0
 30
0.0
 70
     8
  0
VERTEX
  5
1551
330
1550
100
AcDbEntity
  8
trace
100
AcDbVertex
100
AcDb3dPolylineVertex
 10
-2899.949172120959
 20
14631.08374208632
 30
4809.996543577785
 70
    32
  0
VERTEX
  5
1552
330
1550
100
AcDbEntity
  8
trace
100
AcDbVertex
100
AcDb3dPolylineVertex
 10
-2901.550134149106
 20
14620.2820168374
 30
5610.427441378604
 70
    32
  0
SEQEND
  5
1553
330
1550
100
AcDbEntity
  8
trace
  0
POLYLINE
  5
169E
330
1F
100
AcDbEntity
  8
trace
100
AcDb3dPolyline
 66
     1
 10
0.0
 20
0.0
 30
0.0
 70
     8
  0
VERTEX
  5
169F
330
169E
100
AcDbEntity
  8
trace
100
AcDbVertex
100
AcDb3dPolylineVertex
 10
-2456.268407713954
 20
17624.60740541802
 30
3335.821338532951
 70
    32
  0
VERTEX
  5
16A0
330
169E
100
AcDbEntity
  8
trace
100
AcDbVertex
100
AcDb3dPolylineVertex
 10
-2439.873209253541
 20
17735.2261621763
 30
3335.821338532951
 70
    32
  0
VERTEX
  5
16A1
330
169E
100
AcDbEntity
  8
trace
100
AcDbVertex
100
AcDb3dPolylineVertex
 10
-2440.78405244293
 20
17729.08068358052
 30
3152.629869755205
 70
    32
  0
VERTEX
  5
16A2
330
169E
100
AcDbEntity
  8
trace
100
AcDbVertex
100
AcDb3dPolylineVertex
 10
-2455.812991382121
 20
17627.68010920727
 30
3152.629869755205
 70
    32
  0
VERTEX
  5
16A3
330
169E
100
AcDbEntity
  8
trace
100
AcDbVertex
100
AcDb3dPolylineVertex
 10
-2455.812991382121
 20
17627.68010920727
 30
3338.92627709359
 70
    32
  0
SEQEND
  5
16A4
330
169E
100
AcDbEntity
  8
trace
  0
POLYLINE
  5
16A6
330
1F
100
AcDbEntity
  8
trace
100
AcDb3dPolyline
 66
     1
 10
0.0
 20
0.0
 30
0.0
 70
     8
  0
VERTEX
  5
16A7
330
16A6
100
AcDbEntity
  8
trace
100
AcDbVertex
100
AcDb3dPolylineVertex
 10
-2530.957633449477
 20
17120.67759242728
 30
3345.136154214866
 70
    32
  0
VERTEX
  5
16A8
330
16A6
100
AcDbEntity
  8
trace
100
AcDbVertex
100
AcDb3dPolylineVertex
 10
-2530.046790260089
 20
17126.82307102304
 30
3161.94468543712
 70
    32
  0
VERTEX
  5
16A9
330
16A6
100
AcDbEntity
  8
trace
100
AcDbVertex
100
AcDb3dPolylineVertex
 10
-2513.196175467844
 20
17240.51453157057
 30
3155.734808315843
 70
    32
  0
VERTEX
  5
16AA
330
16A6
100
AcDbEntity
  8
trace
100
AcDbVertex
100
AcDb3dPolylineVertex
 10
-2514.107018657233
 20
17234.3690529748
 30
3348.241092775505
 70
    32
  0
VERTEX
  5
16AB
330
16A6
100
AcDbEntity
  8
trace
100
AcDbVertex
100
AcDb3dPolylineVertex
 10
-2531.41306030703
 20
17117.60481762077
 30
3351.346031336143
 70
    32
  0
SEQEND
  5
16AC
330
16A6
100
AcDbEntity
  8
trace
  0
POLYLINE
  5
16B4
330
1F
100
AcDbEntity
  8
trace
100
AcDb3dPolyline
 66
     1
 10
0.0
 20
0.0
 30
0.0
 70
     8
  0
VERTEX
  5
16B5
330
16B4
100
AcDbEntity
  8
trace
100
AcDbVertex
100
AcDb3dPolylineVertex
 10
-3387.920893122589
 20
11338.72804168216
 30
-898.7943075501753
 70
    32
  0
VERTEX
  5
16B6
330
16B4
100
AcDbEntity
  8
trace
100
AcDbVertex
100
AcDb3dPolylineVertex
 10
-3435.941028145071
 20
11014.73515752296
 30
-888.8734867941456
 70
    32
  0
VERTEX
  5
16B7
330
16B4
100
AcDbEntity
  8
trace
100
AcDbVertex
100
AcDb3dPolylineVertex
 10
-3495.602409616294
 20
10612.19853311043
 30
-878.9526191880868
 70
    32
  0
VERTEX
  5
16B8
330
16B4
100
AcDbEntity
  8
trace
100
AcDbVertex
100
AcDb3dPolylineVertex
 10
-3606.194235090753
 20
9866.033107229702
 30
-998.0027493606181
 70
    32
  0
VERTEX
  5
16B9
330
16B4
100
AcDbEntity
  8
trace
100
AcDbVertex
100
AcDb3dPolylineVertex
 10
-3705.144814116471
 20
9198.411421602299
 30
-1057.527767596854
 70
    32
  0
VERTEX
  5
16BA
330
16B4
100
AcDbEntity
  8
trace
100
AcDbVertex
100
AcDb3dPolylineVertex
 10
-3745.889171424203
 20
8923.508366224281
 30
-1146.815341801237
 70
    32
  0
SEQEND
  5
16BB
330
16B4
100
AcDbEntity
  8
trace
  0
POLYLINE
  5
16BC
330
1F
100
AcDbEntity
  8
trace
100
AcDb3dPolyline
 66
     1
 10
0.0
 20
0.0
 30
0.0
 70
     8
  0
VERTEX
  5
16BD
330
16BC
100
AcDbEntity
  8
trace
100
AcDbVertex
100
AcDb3dPolylineVertex
 10
-1719.996612471571
 20
22592.24904894876
 30
-784.3091032691445
 70
    32
  0
VERTEX
  5
16BE
330
16BC
100
AcDbEntity
  8
trace
100
AcDbVertex
100
AcDb3dPolylineVertex
 10
-1676.46646545194
 20
22885.94788744977
 30
-768.6892580650598
 70
    32
  0
VERTEX
  5
16BF
330
16BC
100
AcDbEntity
  8
trace
100
AcDbVertex
100
AcDb3dPolylineVertex
 10
-1635.227378247776
 20
23164.18889608322
 30
-760.8793588880289
 70
    32
  0
VERTEX
  5
16C0
330
16BC
100
AcDbEntity
  8
trace
100
AcDbVertex
100
AcDb3dPolylineVertex
 10
-1598.570410674551
 20
23411.51424498153
 30
-768.6892580650601
 70
    32
  0
SEQEND
  5
16C1
330
16BC
100
AcDbEntity
  8
trace
  0
POLYLINE
  5
16C2
330
1F
100
AcDbEntity
  8
trace
100
AcDb3dPolyline
 66
     1
 10
0.0
 20
0.0
 30
0.0
 70
     8
  0
VERTEX
  5
16C3
330
16C2
100
AcDbEntity
  8
trace
100
AcDbVertex
100
AcDb3dPolylineVertex
 10
-1598.008042500716
 20
23415.30855514985
 30
-775.2149043552199
 70
    32
  0
VERTEX
  5
16C4
330
16C2
100
AcDbEntity
  8
trace
100
AcDbVertex
100
AcDb3dPolylineVertex
 10
-1536.23746460602
 20
23832.07597321132
 30
-775.2149043552199
 70
    32
  0
VERTEX
  5
16C5
330
16C2
100
AcDbEntity
  8
trace
100
AcDbVertex
100
AcDb3dPolylineVertex
 10
-1505.352170395813
 20
24040.45971775067
 30
-713.2833408818694
 70
    32
  0
SEQEND
  5
16C6
330
16C2
100
AcDbEntity
  8
trace
  0
ENDSEC
  0
SECTION
  2
OBJECTS
  0
DICTIONARY
  5
C
330
0
100
AcDbDictionary
281
     1
  3
ACAD_CIP_PREVIOUS_PRODUCT_INFO
350
191B
  3
ACAD_COLOR
350
6B
  3
ACAD_DETAILVIEWSTYLE
350
1916
  3
ACAD_GROUP
350
D
  3
ACAD_LAYOUT
350
1A
  3
ACAD_MATERIAL
350
6A
  3
ACAD_MLEADERSTYLE
350
1912
  3
ACAD_MLINESTYLE
350
17
  3
ACAD_PLOTSETTINGS
350
19
  3
ACAD_PLOTSTYLENAME
350
E
  3
ACAD_SCALELIST
350
1900
  3
ACAD_SECTIONVIEWSTYLE
350
1914
  3
ACAD_TABLESTYLE
350
7E
  3
ACAD_VISUALSTYLE
350
18E7
  3
ACDB_RECOMPOSE_DATA
350
1974
  3
AcDbVariableDictionary
350
5E
  3
CyCurrentView
350
F20
  3
CyPointControl
350
E7
  3
CyPreferences
350
E6
  0
DICTIONARY
  5
27A
330
2
100
AcDbDictionary
280
     1
281
     1
  3
ACAD_LAYERFILTERS
360
27E
  3
ACLYDICTIONARY
360
27D
  0
DICTIONARY
  5
191C
330
10
100
AcDbDictionary
280
     1
281
     1
  3
ADSK_XREC_LAYER_RECONCILED
360
191D
  0
DICTIONARY
  5
191E
330
277
100
AcDbDictionary
280
     1
281
     1
  3
ADSK_XREC_LAYER_RECONCILED
360
191F
  0
DICTIONARY
  5
1920
330
279
100
AcDbDictionary
280
     1
281
     1
  3
ADSK_XREC_LAYER_RECONCILED
360
1921
  0
DICTIONARY
  5
E9F
330
1F
100
AcDbDictionary
280
     1
281
     1
  3
ACAD_SORTENTS
360
EA0
  0
XRECORD
  5
191B
102
{ACAD_REACTORS
330
C
102
}
330
C
100
AcDbXrecord
280
     1
300
ACD
300
2015
300
ACD_F_S
  0
DICTIONARY
  5
6B
102
{ACAD_REACTORS
330
C
102
}
330
C
100
AcDbDictionary
281
     1
  0
DICTIONARY
  5
1916
102
{ACAD_REACTORS
330
C
102
}
330
C
100
AcDbDictionary
281
     1
  3
Metric50
350
1917
  0
DICTIONARY
  5
D
102
{ACAD_REACTORS
330
C
102
}
330
C
100
AcDbDictionary
281
     1
  0
DICTIONARY
  5
1A
102
{ACAD_REACTORS
330
C
102
}
330
C
100
AcDbDictionary
281
     1
  3
Layout1
350
D3
  3
Layout2
350
D7
  3
Model
350
22
  0
DICTIONARY
  5
6A
102
{ACAD_REACTORS
330
C
102
}
330
C
100
AcDbDictionary
281
     1
  3
ByBlock
350
18D7
  3
ByLayer
350
18CF
  3
Global
350
18DF
  0
DICTIONARY
  5
1912
102
{ACAD_REACTORS
330
C
102
}
330
C
100
AcDbDictionary
281
     1
  3
Standard
350
1913
  0
DICTIONARY
  5
17
102
{ACAD_REACTORS
330
C
102
}
330
C
100
AcDbDictionary
281
     1
  3
Standard
350
18
  0
DICTIONARY
  5
19
102
{ACAD_REACTORS
330
C
102
}
330
C
100
AcDbDictionary
281
     1
  0
ACDBDICTIONARYWDFLT
  5
E
102
{ACAD_REACTORS
330
C
102
}
330
C
100
AcDbDictionary
281
     1
  3
Normal
350
F
100
AcDbDictionaryWithDefault
340
F
  0
DICTIONARY
  5
1900
102
{ACAD_REACTORS
330
C
102
}
330
C
100
AcDbDictionary
281
     1
  3
A0
350
1901
  3
A1
350
1902
  3
A2
350
1903
  3
A3
350
1904
  3
A4
350
1905
  3
A5
350
1906
  3
A6
350
1907
  3
A7
350
1908
  3
A8
350
1909
  3
A9
350
190A
  3
B0
350
190B
  3
B1
350
190C
  3
B2
350
190D
  3
B3
350
190E
  3
B4
350
190F
  3
B5
350
1910
  3
B6
350
1911
  0
DICTIONARY
  5
1914
102
{ACAD_REACTORS
330
C
102
}
330
C
100
AcDbDictionary
281
     1
  3
Metric50
350
1915
  0
DICTIONARY
  5
7E
102
{ACAD_REACTORS
330
C
102
}
330
C
100
AcDbDictionary
281
     1
  3
Standard
350
7F
  0
DICTIONARY
  5
18E7
102
{ACAD_REACTORS
330
C
102
}
330
C
100
AcDbDictionary
281
     1
  3
2dWireframe
350
18ED
  3
Basic
350
18EC
  3
Brighten
350
18F3
  3
ColorChange
350
18F7
  3
Conceptual
350
18F0
  3
Dim
350
18F2
  3
EdgeColorOff
350
18FF
  3
Facepattern
350
18F6
  3
Flat
350
18E8
  3
FlatWithEdges
350
18E9
  3
Gouraud
350
18EA
  3
GouraudWithEdges
350
18EB
  3
Hidden
350
18EF
  3
JitterOff
350
18FD
  3
Linepattern
350
18F5
  3
OverhangOff
350
18FE
  3
Realistic
350
18F1
  3
Shaded
350
18FC
  3
Shaded with edges
350
18FB
  3
Shades of Gray
350
18F8
  3
Sketchy
350
18F9
  3
Thicken
350
18F4
  3
Wireframe
350
18EE
  3
X-Ray
350
18FA
  0
XRECORD
  5
1974
102
{ACAD_REACTORS
330
C
102
}
330
C
100
AcDbXrecord
280
     1
 90
        1
330
7F
  0
DICTIONARY
  5
5E
102
{ACAD_REACTORS
330
C
102
}
330
C
100
AcDbDictionary
281
     1
  3
CANNOSCALE
350
196E
  3
CMLEADERSTYLE
350
196A
  3
CTABLESTYLE
350
84
  3
CVIEWDETAILSTYLE
350
196B
  3
CVIEWSECTIONSTYLE
350
196C
  3
DIMASSOC
350
5F
  3
HIDETEXT
350
63
  3
LAYEREVAL
350
1970
  3
LAYERNOTIFY
350
1971
  3
LIGHTINGUNITS
350
196F
  3
MSLTSCALE
350
196D
  0
ACAD_PROXY_OBJECT
  5
F20
102
{ACAD_REACTORS
330
C
102
}
330
C
100
AcDbProxyObject
 90
      499
 91
      505
 95
  4980761
 70
     0
161
              4834
310
80000000000000000000000000000000000000000000000000000000000000000000000000000000000000000000000000000000000000000000000000000000000000000000000000000000000000000000000000000000000000000000000000000000000000000000000000000000000000000000000000000000000000
310
00000000000000000000000000000000000000000000000000000000000000000000000000000000000000000000000000000000000000000000000000000000000000000000000000000000000000000000000000000000000000000000000000000000000000000000000000000000000000000000000000000000000000
310
00000000000000000000000000000000000000000000000000000000000000000000000000000000000000003C0FC0000000000000000000000000000000000000000000000000000000000000000000000000003C0FC0000000000000000000000000000000000000000000000000000000000000000000000000003C0FC0
310
000000000000000000000000000000000000000000000000000000000000000000000000003C0FC000000000003C0FC0000000000000000000000000000000000000000000000000000000000000000000000000003C0FC0000000000000000000000000000000000000000000000000000000000000000000000000003C0F
310
C0000000000000000000000000000000000000000000000000000000000000000000000000003C0FD8400000343BBB0144203EDF97E72499223BBB01400000003410B8D900000000184000003C3BBB0158273EDF97E7249900000000184000000C
 94
        0
  0
ACAD_PROXY_OBJECT
  5
E7
102
{ACAD_REACTORS
330
C
102
}
330
C
100
AcDbProxyObject
 90
      499
 91
      507
 95
  4980761
 70
     0
161
                34
310
0000C0000C
 94
        0
  0
ACAD_PROXY_OBJECT
  5
E6
102
{ACAD_REACTORS
330
C
102
}
330
C
100
AcDbProxyObject
 90
      499
 91
      506
 95
  4980761
 70
     0
161
              3584
310
00000000000000000000000002000000000000000000000000000000000000000000000000000000000000000000000000000000000000000000000000000000FCA9F1D24D62503F00000000000000000000000000000000000000000000000000000000000000000000000000000000000000000000000000000000000000
310
001000000000000000FFFFFF0000000000000000000000000000000000000000000000000000000000000000000000000000000000000000000000000000000000000000000000F0BFFA7E6ABC7493783F00000000000000000000000000000000000000000000000000000000000000000000000000000000000000000000
310
00006002000000000000000000000000000000000000000000000000000000000000000000000000000000000000000000000000000000000000000000000000000000000000000014400000000000000000FCA9F1D24D62503F00000000000000009A9999999999A93FFA7E6ABC7493783F00000000000000000000000000
310
0000000000000000000000000000000000000000000000000000000000000000000000000000000000000000000000000000000000000000000000000000000000000000
 94
        0
  0
DICTIONARY
  5
27E
102
{ACAD_REACTORS
330
27A
102
}
330
27A
100
AcDbDictionary
281
     1
  0
DICTIONARY
  5
27D
102
{ACAD_REACTORS
330
27A
102
}
330
27A
100
AcDbDictionary
281
     1
1001
ACAD
1000
<All
  0
XRECORD
  5
191D
102
{ACAD_REACTORS
330
191C
102
}
330
191C
100
AcDbXrecord
280
     1
290
     1
  0
XRECORD
  5
191F
102
{ACAD_REACTORS
330
191E
102
}
330
191E
100
AcDbXrecord
280
     1
290
     1
  0
XRECORD
  5
1921
102
{ACAD_REACTORS
330
1920
102
}
330
1920
100
AcDbXrecord
280
     1
290
     1
  0
SORTENTSTABLE
  5
EA0
102
{ACAD_REACTORS
330
E9F
102
}
330
E9F
100
AcDbSortentsTable
330
1F
331
EB3
  5
EC8
331
EC2
  5
EAB
331
EA3
  5
EB8
331
ED1
  5
EA4
331
BCC
  5
EB4
331
527
  5
527
331
EB2
  5
EC7
331
5AE
  5
5AE
331
EC1
  5
EAA
331
EA2
  5
EB7
331
ED0
  5
EA3
331
EB1
  5
EC6
331
898
  5
8A5
331
554
  5
554
331
EC0
  5
EA9
331
EA1
  5
ED2
331
ECF
  5
EA2
331
EB0
  5
EC5
331
8A5
  5
902
331
91B
  5
923
331
EBF
  5
EA8
331
ECE
  5
EA1
331
92A
  5
AB7
331
EAF
  5
EC4
331
EBE
  5
EA7
331
ECD
  5
E9E
331
EAE
  5
EC3
331
845
  5
88B
331
EBD
  5
EA6
331
483
  5
483
331
E9E
  5
ED5
331
ECC
  5
D2B
331
EAD
  5
EC2
331
909
  5
912
331
EBC
  5
ED1
331
D04
  5
EB5
331
ECB
  5
D04
331
D2B
  5
EB6
331
EAC
  5
EC1
331
EBB
  5
ED0
331
ECA
  5
BCC
331
EAB
  5
EC0
331
EBA
  5
ECF
331
EC9
  5
EB2
331
EAA
  5
EBF
331
6DA
  5
6DA
331
EB9
  5
ECE
331
74A
  5
74A
331
EC7
  5
EB0
331
EC8
  5
EB1
331
EA9
  5
EBE
331
EC6
  5
EAF
331
923
  5
92A
331
EA7
  5
EBC
331
EA8
  5
EBD
331
ED5
  5
845
331
EC5
  5
EAE
331
EA6
  5
EBB
331
569
  5
569
331
EB5
  5
ECD
331
912
  5
91B
331
AB7
  5
EB3
331
67F
  5
67F
331
EC4
  5
EAD
331
EA5
  5
EBA
331
902
  5
909
331
EB4
  5
EC9
331
EC3
  5
EAC
331
EA4
  5
EB9
331
88B
  5
898
331
ED2
  5
EA5
  0
ACDBDETAILVIEWSTYLE
  5
1917
102
{ACAD_XDICTIONARY
360
19A9
102
}
102
{ACAD_REACTORS
330
1916
102
}
330
1916
100
AcDbModelDocViewStyle
 70
     0
  3
Metric50
290
     0
100
AcDbDetailViewStyle
 70
     0
 71
     0
 90
        3
 71
     1
340
11
 62
   256
 40
5.0
340
0
 62
   256
 40
5.0
300

 40
0.0
280
     1
 71
     2
340
16
 90
       25
 62
   256
 71
     3
340
11
 62
   256
 40
5.0
 90
        0
 40
15.0
 90
        1
300
%<\AcVar ViewDetailId>% (%<\AcVar ViewScale \f "%sn">%)
 71
     4
340
16
 90
       25
 62
   256
340
16
 90
       25
 62
   256
280
     0
  0
LAYOUT
  5
D3
102
{ACAD_REACTORS
330
1A
102
}
330
1A
100
AcDbPlotSettings
  1

  2
C:\Documents and Settings\basas\Application Data\Autodesk\AutoCAD 2005\R16.1\enu\plotters\Default Windows System Printer.pc3
  4

  6

 40
0.0
 41
0.0
 42
0.0
 43
0.0
 44
0.0
 45
0.0
 46
0.0
 47
0.0
 48
0.0
 49
0.0
140
0.0
141
0.0
142
1.0
143
1.0
 70
   688
 72
     0
 73
     0
 74
     5
  7

 75
    16
147
1.0
 76
     0
 77
     2
 78
   300
148
0.0
149
0.0
100
AcDbLayout
  1
Layout1
 70
     1
 71
     1
 10
0.0
 20
0.0
 11
12.0
 21
9.0
 12
0.0
 22
0.0
 32
0.0
 14
0.0
 24
0.0
 34
0.0
 15
0.0
 25
0.0
 35
0.0
146
0.0
 13
0.0
 23
0.0
 33
0.0
 16
1.0
 26
0.0
 36
0.0
 17
0.0
 27
1.0
 37
0.0
 76
     0
330
D2
  0
LAYOUT
  5
D7
102
{ACAD_REACTORS
330
1A
102
}
330
1A
100
AcDbPlotSettings
  1

  2
C:\Documents and Settings\basas\Application Data\Autodesk\AutoCAD 2005\R16.1\enu\plotters\Default Windows System Printer.pc3
  4

  6

 40
0.0
 41
0.0
 42
0.0
 43
0.0
 44
0.0
 45
0.0
 46
0.0
 47
0.0
 48
0.0
 49
0.0
140
0.0
141
0.0
142
1.0
143
1.0
 70
   688
 72
     0
 73
     0
 74
     5
  7

 75
    16
147
1.0
 76
     0
 77
     2
 78
   300
148
0.0
149
0.0
100
AcDbLayout
  1
Layout2
 70
     1
 71
     2
 10
0.0
 20
0.0
 11
12.0
 21
9.0
 12
0.0
 22
0.0
 32
0.0
 14
0.0
 24
0.0
 34
0.0
 15
0.0
 25
0.0
 35
0.0
146
0.0
 13
0.0
 23
0.0
 33
0.0
 16
1.0
 26
0.0
 36
0.0
 17
0.0
 27
1.0
 37
0.0
 76
     0
330
D6
  0
LAYOUT
  5
22
102
{ACAD_REACTORS
330
1A
102
}
330
1A
100
AcDbPlotSettings
  1

  2
none_device
  4
ISO_A4_(210.00_x_297.00_MM)
  6

 40
7.5
 41
20.0
 42
7.5
 43
20.0
 44
210.0
 45
297.0
 46
11.54999923706054
 47
-13.65000009536743
 48
0.0
 49
0.0
140
0.0
141
0.0
142
1.0
143
8.704084754739808
 70
 11952
 72
     1
 73
     0
 74
     0
  7

 75
     0
147
0.1148885871608098
 76
     0
 77
     2
 78
   300
148
0.0
149
0.0
100
AcDbLayout
  1
Model
 70
     1
 71
     0
 10
0.0
 20
0.0
 11
12.0
 21
9.0
 12
0.0
 22
0.0
 32
0.0
 14
0.0
 24
0.0
 34
0.0
 15
0.0
 25
0.0
 35
0.0
146
0.0
 13
0.0
 23
0.0
 33
0.0
 16
1.0
 26
0.0
 36
0.0
 17
0.0
 27
1.0
 37
0.0
 76
     0
330
1F
331
18CD
1001
ACAD_PSEXT
1000
None
1000
None
1000
Not applicable
1000
The layout will not be plotted unless a new plotter configuration name is selected.
1070
     0
  0
MATERIAL
  5
18D7
102
{ACAD_XDICTIONARY
360
18D8
102
}
102
{ACAD_REACTORS
330
6A
102
}
330
6A
100
AcDbMaterial
  1
ByBlock
 72
     0
 43
0.0008202099737533
 43
0.0
 43
0.0
 43
0.0
 43
0.0
 43
0.0008202099737533
 43
0.0
 43
0.0
 43
0.0
 43
0.0
 43
1.0
 43
0.0
 43
0.0
 43
0.0
 43
0.0
 43
1.0
 77
     0
 47
0.0008202099737533
 47
0.0
 47
0.0
 47
0.0
 47
0.0
 47
0.0008202099737533
 47
0.0
 47
0.0
 47
0.0
 47
0.0
 47
1.0
 47
0.0
 47
0.0
 47
0.0
 47
0.0
 47
1.0
171
     0
 49
0.0008202099737533
 49
0.0
 49
0.0
 49
0.0
 49
0.0
 49
0.0008202099737533
 49
0.0
 49
0.0
 49
0.0
 49
0.0
 49
1.0
 49
0.0
 49
0.0
 49
0.0
 49
0.0
 49
1.0
175
     0
142
0.0008202099737533
142
0.0
142
0.0
142
0.0
142
0.0
142
0.0008202099737533
142
0.0
142
0.0
142
0.0
142
0.0
142
1.0
142
0.0
142
0.0
142
0.0
142
0.0
142
1.0
179
     0
144
0.0008202099737533
144
0.0
144
0.0
144
0.0
144
0.0
144
0.0008202099737533
144
0.0
144
0.0
144
0.0
144
0.0
144
1.0
144
0.0
144
0.0
144
0.0
144
0.0
144
1.0
147
0.0008202099737533
147
0.0
147
0.0
147
0.0
147
0.0
147
0.0008202099737533
147
0.0
147
0.0
147
0.0
147
0.0
147
1.0
147
0.0
147
0.0
147
0.0
147
0.0
147
1.0
  0
MATERIAL
  5
18CF
102
{ACAD_XDICTIONARY
360
18D0
102
}
102
{ACAD_REACTORS
330
6A
102
}
330
6A
100
AcDbMaterial
  1
ByLayer
 72
     0
 43
0.0008202099737533
 43
0.0
 43
0.0
 43
0.0
 43
0.0
 43
0.0008202099737533
 43
0.0
 43
0.0
 43
0.0
 43
0.0
 43
1.0
 43
0.0
 43
0.0
 43
0.0
 43
0.0
 43
1.0
 77
     0
 47
0.0008202099737533
 47
0.0
 47
0.0
 47
0.0
 47
0.0
 47
0.0008202099737533
 47
0.0
 47
0.0
 47
0.0
 47
0.0
 47
1.0
 47
0.0
 47
0.0
 47
0.0
 47
0.0
 47
1.0
171
     0
 49
0.0008202099737533
 49
0.0
 49
0.0
 49
0.0
 49
0.0
 49
0.0008202099737533
 49
0.0
 49
0.0
 49
0.0
 49
0.0
 49
1.0
 49
0.0
 49
0.0
 49
0.0
 49
0.0
 49
1.0
175
     0
142
0.0008202099737533
142
0.0
142
0.0
142
0.0
142
0.0
142
0.0008202099737533
142
0.0
142
0.0
142
0.0
142
0.0
142
1.0
142
0.0
142
0.0
142
0.0
142
0.0
142
1.0
179
     0
144
0.0008202099737533
144
0.0
144
0.0
144
0.0
144
0.0
144
0.0008202099737533
144
0.0
144
0.0
144
0.0
144
0.0
144
1.0
144
0.0
144
0.0
144
0.0
144
0.0
144
1.0
147
0.0008202099737533
147
0.0
147
0.0
147
0.0
147
0.0
147
0.0008202099737533
147
0.0
147
0.0
147
0.0
147
0.0
147
1.0
147
0.0
147
0.0
147
0.0
147
0.0
147
1.0
  0
MATERIAL
  5
18DF
102
{ACAD_XDICTIONARY
360
18E0
102
}
102
{ACAD_REACTORS
330
6A
102
}
330
6A
100
AcDbMaterial
  1
Global
 72
     0
 43
0.0008202099737533
 43
0.0
 43
0.0
 43
0.0
 43
0.0
 43
0.0008202099737533
 43
0.0
 43
0.0
 43
0.0
 43
0.0
 43
1.0
 43
0.0
 43
0.0
 43
0.0
 43
0.0
 43
1.0
 77
     0
 47
0.0008202099737533
 47
0.0
 47
0.0
 47
0.0
 47
0.0
 47
0.0008202099737533
 47
0.0
 47
0.0
 47
0.0
 47
0.0
 47
1.0
 47
0.0
 47
0.0
 47
0.0
 47
0.0
 47
1.0
171
     0
 49
0.0008202099737533
 49
0.0
 49
0.0
 49
0.0
 49
0.0
 49
0.0008202099737533
 49
0.0
 49
0.0
 49
0.0
 49
0.0
 49
1.0
 49
0.0
 49
0.0
 49
0.0
 49
0.0
 49
1.0
175
     0
142
0.0008202099737533
142
0.0
142
0.0
142
0.0
142
0.0
142
0.0008202099737533
142
0.0
142
0.0
142
0.0
142
0.0
142
1.0
142
0.0
142
0.0
142
0.0
142
0.0
142
1.0
179
     0
144
0.0008202099737533
144
0.0
144
0.0
144
0.0
144
0.0
144
0.0008202099737533
144
0.0
144
0.0
144
0.0
144
0.0
144
1.0
144
0.0
144
0.0
144
0.0
144
0.0
144
1.0
147
0.0008202099737533
147
0.0
147
0.0
147
0.0
147
0.0
147
0.0008202099737533
147
0.0
147
0.0
147
0.0
147
0.0
147
1.0
147
0.0
147
0.0
147
0.0
147
0.0
147
1.0
  0
MLEADERSTYLE
  5
1913
102
{ACAD_XDICTIONARY
360
19A5
102
}
102
{ACAD_REACTORS
330
1912
102
}
330
1912
100
AcDbMLeaderStyle
179
     2
170
     2
171
     1
172
     0
 90
        2
 40
0.0
 41
0.0
173
     1
 91
-1056964608
340
14
 92
       -2
290
     1
 42
2.0
291
     1
 43
0.36
  3
Standard
 44
4.0
300

342
11
174
     1
178
     6
175
     1
176
     0
 93
-1056964608
 45
4.0
292
     0
297
     0
 46
4.0
 94
-1056964608
 47
1.0
 49
1.0
140
1.0
293
     1
141
0.0
294
     1
177
     0
142
1.0
295
     0
296
     0
143
0.125
271
     0
272
     9
273
     9
  0
MLINESTYLE
  5
18
102
{ACAD_REACTORS
330
17
102
}
330
17
100
AcDbMlineStyle
  2
STANDARD
 70
     0
  3

 62
   256
 51
90.0
 52
90.0
 71
     2
 49
0.5
 62
   256
  6
BYLAYER
 49
-0.5
 62
   256
  6
BYLAYER
  0
ACDBPLACEHOLDER
  5
F
102
{ACAD_REACTORS
330
E
102
}
330
E
  0
SCALE
  5
1901
102
{ACAD_REACTORS
330
1900
102
}
330
1900
100
AcDbScale
 70
     0
300
1:1
140
1.0
141
1.0
290
     1
  0
SCALE
  5
1902
102
{ACAD_REACTORS
330
1900
102
}
330
1900
100
AcDbScale
 70
     0
300
1:2
140
1.0
141
2.0
290
     0
  0
SCALE
  5
1903
102
{ACAD_REACTORS
330
1900
102
}
330
1900
100
AcDbScale
 70
     0
300
1:4
140
1.0
141
4.0
290
     0
  0
SCALE
  5
1904
102
{ACAD_REACTORS
330
1900
102
}
330
1900
100
AcDbScale
 70
     0
300
1:5
140
1.0
141
5.0
290
     0
  0
SCALE
  5
1905
102
{ACAD_REACTORS
330
1900
102
}
330
1900
100
AcDbScale
 70
     0
300
1:8
140
1.0
141
8.0
290
     0
  0
SCALE
  5
1906
102
{ACAD_REACTORS
330
1900
102
}
330
1900
100
AcDbScale
 70
     0
300
1:10
140
1.0
141
10.0
290
     0
  0
SCALE
  5
1907
102
{ACAD_REACTORS
330
1900
102
}
330
1900
100
AcDbScale
 70
     0
300
1:16
140
1.0
141
16.0
290
     0
  0
SCALE
  5
1908
102
{ACAD_REACTORS
330
1900
102
}
330
1900
100
AcDbScale
 70
     0
300
1:20
140
1.0
141
20.0
290
     0
  0
SCALE
  5
1909
102
{ACAD_REACTORS
330
1900
102
}
330
1900
100
AcDbScale
 70
     0
300
1:30
140
1.0
141
30.0
290
     0
  0
SCALE
  5
190A
102
{ACAD_REACTORS
330
1900
102
}
330
1900
100
AcDbScale
 70
     0
300
1:40
140
1.0
141
40.0
290
     0
  0
SCALE
  5
190B
102
{ACAD_REACTORS
330
1900
102
}
330
1900
100
AcDbScale
 70
     0
300
1:50
140
1.0
141
50.0
290
     0
  0
SCALE
  5
190C
102
{ACAD_REACTORS
330
1900
102
}
330
1900
100
AcDbScale
 70
     0
300
1:100
140
1.0
141
100.0
290
     0
  0
SCALE
  5
190D
102
{ACAD_REACTORS
330
1900
102
}
330
1900
100
AcDbScale
 70
     0
300
2:1
140
2.0
141
1.0
290
     0
  0
SCALE
  5
190E
102
{ACAD_REACTORS
330
1900
102
}
330
1900
100
AcDbScale
 70
     0
300
4:1
140
4.0
141
1.0
290
     0
  0
SCALE
  5
190F
102
{ACAD_REACTORS
330
1900
102
}
330
1900
100
AcDbScale
 70
     0
300
8:1
140
8.0
141
1.0
290
     0
  0
SCALE
  5
1910
102
{ACAD_REACTORS
330
1900
102
}
330
1900
100
AcDbScale
 70
     0
300
10:1
140
10.0
141
1.0
290
     0
  0
SCALE
  5
1911
102
{ACAD_REACTORS
330
1900
102
}
330
1900
100
AcDbScale
 70
     0
300
100:1
140
100.0
141
1.0
290
     0
  0
ACDBSECTIONVIEWSTYLE
  5
1915
102
{ACAD_XDICTIONARY
360
19A7
102
}
102
{ACAD_REACTORS
330
1914
102
}
330
1914
100
AcDbModelDocViewStyle
 70
     0
  3
Metric50
290
     0
100
AcDbSectionViewStyle
 70
     0
 71
     0
 90
      102
 71
     1
340
11
 62
   256
 40
5.0
340
0
340
0
 62
   256
 40
5.0
300
I, O, Q, S, X, Z
 40
10.0
 90
        0
 40
2.5
 90
        0
 71
     2
340
16
 90
       25
 62
   256
340
16
 90
       50
 62
   256
 40
5.0
 40
2.5
 40
5.0
 71
     3
340
11
 62
   256
 40
5.0
 90
        0
 40
15.0
 90
        1
300
%<\AcVar ViewSectionStartId>%-%<\AcVar ViewSectionEndId>% (%<\AcVar ViewScale \f "%sn">%)
 71
     4
 62
   256
 62
   257
300
ANSI31
 40
1.0
 90
        0
290
     0
290
     0
 90
        6
 40
0.0
 40
1.570796326794896
 40
0.2617993877991494
 40
1.308996938995747
 40
-0.2617993877991494
 40
1.832595714594046
  0
TABLESTYLE
  5
7F
102
{ACAD_XDICTIONARY
360
1972
102
}
102
{ACAD_REACTORS
330
7E
102
}
330
7E
100
AcDbTableStyle
280
     0
  3
Standard
 70
     0
 71
     0
 40
1.5
 41
1.5
280
     0
281
     0
  7
Standard
140
4.5
170
     2
 62
     0
 63
     7
283
     0
 90
        4
 91
        0
  1

274
    -2
284
     1
 64
     0
275
    -2
285
     1
 65
     0
276
    -2
286
     1
 66
     0
277
    -2
287
     1
 67
     0
278
    -2
288
     1
 68
     0
279
    -2
289
     1
 69
     0
  7
Standard
140
6.0
170
     5
 62
     0
 63
     7
283
     0
 90
        4
 91
        0
  1

274
    -2
284
     1
 64
     0
275
    -2
285
     1
 65
     0
276
    -2
286
     1
 66
     0
277
    -2
287
     1
 67
     0
278
    -2
288
     1
 68
     0
279
    -2
289
     1
 69
     0
  7
Standard
140
4.5
170
     5
 62
     0
 63
     7
283
     0
 90
        4
 91
        0
  1

274
    -2
284
     1
 64
     0
275
    -2
285
     1
 65
     0
276
    -2
286
     1
 66
     0
277
    -2
287
     1
 67
     0
278
    -2
288
     1
 68
     0
279
    -2
289
     1
 69
     0
  0
VISUALSTYLE
  5
18ED
102
{ACAD_XDICTIONARY
360
197F
102
}
102
{ACAD_REACTORS
330
18E7
102
}
330
18E7
100
AcDbVisualStyle
  2
2dWireframe
 70
     4
177
     2
291
     0
 71
     0
176
     1
 72
     2
176
     1
 73
     0
176
     1
 90
        0
176
     1
 40
0.6
176
     1
 41
30.0
176
     1
 63
     7
421
 16777215
176
     1
 74
     1
176
     1
 91
        4
176
     1
 64
     7
176
     1
 65
   257
176
     1
 75
     1
176
     1
175
     1
176
     1
 42
1.0
176
     1
 92
        0
176
     1
 66
   257
176
     1
 43
1.0
176
     1
 76
     1
176
     1
 77
     6
176
     1
 78
     2
176
     1
 67
     7
176
     1
 79
     5
176
     1
170
     0
176
     1
171
     0
176
     1
290
     0
176
     1
 93
        1
176
     1
 44
0.0
176
     1
173
     0
176
     1
1001
ACAD
1000
AcDbSavedByObjectVersion
1070
     0
  0
VISUALSTYLE
  5
18EC
102
{ACAD_XDICTIONARY
360
197D
102
}
102
{ACAD_REACTORS
330
18E7
102
}
330
18E7
100
AcDbVisualStyle
  2
Basic
 70
     7
177
     2
291
     1
 71
     1
176
     1
 72
     0
176
     1
 73
     1
176
     1
 90
        0
176
     1
 40
0.6
176
     1
 41
30.0
176
     1
 63
     7
421
 16777215
176
     1
 74
     0
176
     1
 91
        4
176
     1
 64
     7
176
     1
 65
   257
176
     1
 75
     1
176
     1
175
     1
176
     1
 42
1.0
176
     1
 92
        8
176
     1
 66
     7
176
     1
 43
1.0
176
     1
 76
     1
176
     1
 77
     6
176
     1
 78
     2
176
     1
 67
     7
176
     1
 79
     5
176
     1
170
     0
176
     1
171
     0
176
     1
290
     0
176
     1
 93
        1
176
     1
 44
0.0
176
     1
173
     0
176
     1
1001
ACAD
1000
AcDbSavedByObjectVersion
1070
     0
  0
VISUALSTYLE
  5
18F3
102
{ACAD_XDICTIONARY
360
198B
102
}
102
{ACAD_REACTORS
330
18E7
102
}
330
18E7
100
AcDbVisualStyle
  2
Brighten
 70
    12
177
     2
291
     1
 71
     2
176
     1
 72
     2
176
     1
 73
     0
176
     1
 90
        0
176
     1
 40
0.6
176
     1
 41
30.0
176
     1
 63
     7
421
 16777215
176
     1
 74
     1
176
     1
 91
        4
176
     1
 64
     7
176
     1
 65
   257
176
     1
 75
     1
176
     1
175
     1
176
     1
 42
1.0
176
     1
 92
        8
176
     1
 66
     7
176
     1
 43
1.0
176
     1
 76
     1
176
     1
 77
     6
176
     1
 78
     2
176
     1
 67
     7
176
     1
 79
     5
176
     1
170
     0
176
     1
171
     0
176
     1
290
     0
176
     1
 93
        1
176
     1
 44
50.0
176
     1
173
     0
176
     1
1001
ACAD
1000
AcDbSavedByObjectVersion
1070
     0
  0
VISUALSTYLE
  5
18F7
102
{ACAD_XDICTIONARY
360
1993
102
}
102
{ACAD_REACTORS
330
18E7
102
}
330
18E7
100
AcDbVisualStyle
  2
ColorChange
 70
    16
177
     2
291
     1
 71
     2
176
     1
 72
     2
176
     1
 73
     3
176
     1
 90
        0
176
     1
 40
0.6
176
     1
 41
30.0
176
     1
 63
     8
421
  8421504
176
     1
 74
     1
176
     1
 91
        4
176
     1
 64
     7
176
     1
 65
   257
176
     1
 75
     1
176
     1
175
     1
176
     1
 42
1.0
176
     1
 92
        8
176
     1
 66
     8
424
  8421504
176
     1
 43
1.0
176
     1
 76
     1
176
     1
 77
     6
176
     1
 78
     2
176
     1
 67
     7
176
     1
 79
     5
176
     1
170
     0
176
     1
171
     0
176
     1
290
     0
176
     1
 93
        1
176
     1
 44
0.0
176
     1
173
     0
176
     1
1001
ACAD
1000
AcDbSavedByObjectVersion
1070
     0
  0
VISUALSTYLE
  5
18F0
102
{ACAD_XDICTIONARY
360
1985
102
}
102
{ACAD_REACTORS
330
18E7
102
}
330
18E7
100
AcDbVisualStyle
  2
Conceptual
 70
     9
177
     2
291
     0
 71
     3
176
     1
 72
     2
176
     1
 73
     0
176
     1
 90
        0
176
     1
 40
0.6
176
     1
 41
30.0
176
     1
 63
     7
421
 16777215
176
     1
 74
     2
176
     1
 91
        2
176
     1
 64
     7
176
     1
 65
   257
176
     1
 75
     1
176
     1
175
     1
176
     1
 42
179.0
176
     1
 92
        8
176
     1
 66
     7
176
     1
 43
1.0
176
     1
 76
     1
176
     1
 77
     6
176
     1
 78
     2
176
     1
 67
     7
176
     1
 79
     3
176
     1
170
     0
176
     1
171
     0
176
     1
290
     0
176
     1
 93
        1
176
     1
 44
0.0
176
     1
173
     0
176
     1
1001
ACAD
1000
AcDbSavedByObjectVersion
1070
     0
  0
VISUALSTYLE
  5
18F2
102
{ACAD_XDICTIONARY
360
1989
102
}
102
{ACAD_REACTORS
330
18E7
102
}
330
18E7
100
AcDbVisualStyle
  2
Dim
 70
    11
177
     2
291
     1
 71
     2
176
     1
 72
     2
176
     1
 73
     0
176
     1
 90
        0
176
     1
 40
0.6
176
     1
 41
30.0
176
     1
 63
     7
421
 16777215
176
     1
 74
     1
176
     1
 91
        4
176
     1
 64
     7
176
     1
 65
   257
176
     1
 75
     1
176
     1
175
     1
176
     1
 42
1.0
176
     1
 92
        8
176
     1
 66
     7
176
     1
 43
1.0
176
     1
 76
     1
176
     1
 77
     6
176
     1
 78
     2
176
     1
 67
     7
176
     1
 79
     5
176
     1
170
     0
176
     1
171
     0
176
     1
290
     0
176
     1
 93
        1
176
     1
 44
-50.0
176
     1
173
     0
176
     1
1001
ACAD
1000
AcDbSavedByObjectVersion
1070
     0
  0
VISUALSTYLE
  5
18FF
102
{ACAD_XDICTIONARY
360
19A3
102
}
102
{ACAD_REACTORS
330
18E7
102
}
330
18E7
100
AcDbVisualStyle
  2
EdgeColorOff
 70
    22
177
     2
291
     1
 71
     2
176
     0
 72
     2
176
     0
 73
     0
176
     0
 90
        0
176
     0
 40
0.6
176
     0
 41
30.0
176
     0
 63
     7
421
 16777215
176
     0
 74
     1
176
     0
 91
        4
176
     0
 64
     7
176
     0
 65
   257
176
     0
 75
     1
176
     0
175
     1
176
     0
 42
1.0
176
     0
 92
        8
176
     2
 66
     7
176
     0
 43
1.0
176
     0
 76
     1
176
     0
 77
     6
176
     0
 78
     2
176
     0
 67
     7
176
     0
 79
     5
176
     0
170
     0
176
     0
171
     0
176
     0
290
     0
176
     0
 93
        1
176
     0
 44
0.0
176
     0
173
     0
176
     0
1001
ACAD
1000
AcDbSavedByObjectVersion
1070
     0
  0
VISUALSTYLE
  5
18F6
102
{ACAD_XDICTIONARY
360
1991
102
}
102
{ACAD_REACTORS
330
18E7
102
}
330
18E7
100
AcDbVisualStyle
  2
Facepattern
 70
    15
177
     2
291
     1
 71
     2
176
     1
 72
     2
176
     1
 73
     0
176
     1
 90
        0
176
     1
 40
0.6
176
     1
 41
30.0
176
     1
 63
     7
421
 16777215
176
     1
 74
     1
176
     1
 91
        4
176
     1
 64
     7
176
     1
 65
   257
176
     1
 75
     1
176
     1
175
     1
176
     1
 42
1.0
176
     1
 92
        8
176
     1
 66
     7
176
     1
 43
1.0
176
     1
 76
     1
176
     1
 77
     6
176
     1
 78
     2
176
     1
 67
     7
176
     1
 79
     5
176
     1
170
     0
176
     1
171
     0
176
     1
290
     0
176
     1
 93
        1
176
     1
 44
0.0
176
     1
173
     0
176
     1
1001
ACAD
1000
AcDbSavedByObjectVersion
1070
     0
  0
VISUALSTYLE
  5
18E8
102
{ACAD_XDICTIONARY
360
1975
102
}
102
{ACAD_REACTORS
330
18E7
102
}
330
18E7
100
AcDbVisualStyle
  2
Flat
 70
     0
177
     2
291
     1
 71
     2
176
     1
 72
     1
176
     1
 73
     1
176
     1
 90
        2
176
     1
 40
0.6
176
     1
 41
30.0
176
     1
 63
     7
421
 16777215
176
     1
 74
     0
176
     1
 91
        0
176
     1
 64
     7
176
     1
 65
   257
176
     1
 75
     1
176
     1
175
     1
176
     1
 42
1.0
176
     1
 92
        8
176
     1
 66
     7
176
     1
 43
1.0
176
     1
 76
     1
176
     1
 77
     6
176
     1
 78
     2
176
     1
 67
     7
176
     1
 79
     5
176
     1
170
     0
176
     1
171
     0
176
     1
290
     0
176
     1
 93
       13
176
     1
 44
0.0
176
     1
173
     0
176
     1
1001
ACAD
1000
AcDbSavedByObjectVersion
1070
     0
  0
VISUALSTYLE
  5
18E9
102
{ACAD_XDICTIONARY
360
1977
102
}
102
{ACAD_REACTORS
330
18E7
102
}
330
18E7
100
AcDbVisualStyle
  2
FlatWithEdges
 70
     1
177
     2
291
     1
 71
     2
176
     1
 72
     1
176
     1
 73
     1
176
     1
 90
        2
176
     1
 40
0.6
176
     1
 41
30.0
176
     1
 63
     7
421
 16777215
176
     1
 74
     1
176
     1
 91
        0
176
     1
 64
     7
176
     1
 65
   257
176
     1
 75
     1
176
     1
175
     1
176
     1
 42
1.0
176
     1
 92
        0
176
     1
 66
   257
176
     1
 43
1.0
176
     1
 76
     1
176
     1
 77
     6
176
     1
 78
     2
176
     1
 67
     7
176
     1
 79
     5
176
     1
170
     0
176
     1
171
     0
176
     1
290
     0
176
     1
 93
       13
176
     1
 44
0.0
176
     1
173
     0
176
     1
1001
ACAD
1000
AcDbSavedByObjectVersion
1070
     0
  0
VISUALSTYLE
  5
18EA
102
{ACAD_XDICTIONARY
360
1979
102
}
102
{ACAD_REACTORS
330
18E7
102
}
330
18E7
100
AcDbVisualStyle
  2
Gouraud
 70
     2
177
     2
291
     1
 71
     2
176
     1
 72
     2
176
     1
 73
     1
176
     1
 90
        2
176
     1
 40
0.6
176
     1
 41
30.0
176
     1
 63
     7
421
 16777215
176
     1
 74
     0
176
     1
 91
        0
176
     1
 64
     7
176
     1
 65
   257
176
     1
 75
     1
176
     1
175
     1
176
     1
 42
1.0
176
     1
 92
        0
176
     1
 66
     7
176
     1
 43
1.0
176
     1
 76
     1
176
     1
 77
     6
176
     1
 78
     2
176
     1
 67
     7
176
     1
 79
     5
176
     1
170
     0
176
     1
171
     0
176
     1
290
     0
176
     1
 93
       13
176
     1
 44
0.0
176
     1
173
     0
176
     1
1001
ACAD
1000
AcDbSavedByObjectVersion
1070
     0
  0
VISUALSTYLE
  5
18EB
102
{ACAD_XDICTIONARY
360
197B
102
}
102
{ACAD_REACTORS
330
18E7
102
}
330
18E7
100
AcDbVisualStyle
  2
GouraudWithEdges
 70
     3
177
     2
291
     1
 71
     2
176
     1
 72
     2
176
     1
 73
     1
176
     1
 90
        2
176
     1
 40
0.6
176
     1
 41
30.0
176
     1
 63
     7
421
 16777215
176
     1
 74
     1
176
     1
 91
        0
176
     1
 64
     7
176
     1
 65
   257
176
     1
 75
     1
176
     1
175
     1
176
     1
 42
1.0
176
     1
 92
        0
176
     1
 66
   257
176
     1
 43
1.0
176
     1
 76
     1
176
     1
 77
     6
176
     1
 78
     2
176
     1
 67
     7
176
     1
 79
     5
176
     1
170
     0
176
     1
171
     0
176
     1
290
     0
176
     1
 93
       13
176
     1
 44
0.0
176
     1
173
     0
176
     1
1001
ACAD
1000
AcDbSavedByObjectVersion
1070
     0
  0
VISUALSTYLE
  5
18EF
102
{ACAD_XDICTIONARY
360
1983
102
}
102
{ACAD_REACTORS
330
18E7
102
}
330
18E7
100
AcDbVisualStyle
  2
Hidden
 70
     6
177
     2
291
     0
 71
     1
176
     1
 72
     2
176
     1
 73
     2
176
     1
 90
        0
176
     1
 40
0.6
176
     1
 41
30.0
176
     1
 63
     7
421
 16777215
176
     1
 74
     2
176
     1
 91
        2
176
     1
 64
     7
176
     1
 65
   257
176
     1
 75
     2
176
     1
175
     1
176
     1
 42
40.0
176
     1
 92
        0
176
     1
 66
   257
176
     1
 43
1.0
176
     1
 76
     1
176
     1
 77
     6
176
     1
 78
     2
176
     1
 67
     7
176
     1
 79
     3
176
     1
170
     0
176
     1
171
     0
176
     1
290
     0
176
     1
 93
        1
176
     1
 44
0.0
176
     1
173
     0
176
     1
1001
ACAD
1000
AcDbSavedByObjectVersion
1070
     0
  0
VISUALSTYLE
  5
18FD
102
{ACAD_XDICTIONARY
360
199F
102
}
102
{ACAD_REACTORS
330
18E7
102
}
330
18E7
100
AcDbVisualStyle
  2
JitterOff
 70
    20
177
     2
291
     1
 71
     2
176
     0
 72
     2
176
     0
 73
     0
176
     0
 90
        0
176
     0
 40
0.6
176
     0
 41
30.0
176
     0
 63
     7
421
 16777215
176
     0
 74
     1
176
     0
 91
        4
176
     0
 64
     7
176
     0
 65
   257
176
     0
 75
     1
176
     0
175
     1
176
     0
 42
1.0
176
     0
 92
       10
176
     2
 66
     7
176
     0
 43
1.0
176
     0
 76
     1
176
     0
 77
     6
176
     0
 78
     2
176
     0
 67
     7
176
     0
 79
     5
176
     0
170
     0
176
     0
171
     0
176
     0
290
     0
176
     0
 93
        1
176
     0
 44
0.0
176
     0
173
     0
176
     0
1001
ACAD
1000
AcDbSavedByObjectVersion
1070
     0
  0
VISUALSTYLE
  5
18F5
102
{ACAD_XDICTIONARY
360
198F
102
}
102
{ACAD_REACTORS
330
18E7
102
}
330
18E7
100
AcDbVisualStyle
  2
Linepattern
 70
    14
177
     2
291
     1
 71
     2
176
     1
 72
     2
176
     1
 73
     0
176
     1
 90
        0
176
     1
 40
0.6
176
     1
 41
30.0
176
     1
 63
     7
421
 16777215
176
     1
 74
     1
176
     1
 91
        4
176
     1
 64
     7
176
     1
 65
   257
176
     1
 75
     7
176
     1
175
     7
176
     1
 42
1.0
176
     1
 92
        8
176
     1
 66
     7
176
     1
 43
1.0
176
     1
 76
     1
176
     1
 77
     6
176
     1
 78
     2
176
     1
 67
     7
176
     1
 79
     5
176
     1
170
     0
176
     1
171
     0
176
     1
290
     0
176
     1
 93
        1
176
     1
 44
0.0
176
     1
173
     0
176
     1
1001
ACAD
1000
AcDbSavedByObjectVersion
1070
     0
  0
VISUALSTYLE
  5
18FE
102
{ACAD_XDICTIONARY
360
19A1
102
}
102
{ACAD_REACTORS
330
18E7
102
}
330
18E7
100
AcDbVisualStyle
  2
OverhangOff
 70
    21
177
     2
291
     1
 71
     2
176
     0
 72
     2
176
     0
 73
     0
176
     0
 90
        0
176
     0
 40
0.6
176
     0
 41
30.0
176
     0
 63
     7
421
 16777215
176
     0
 74
     1
176
     0
 91
        4
176
     0
 64
     7
176
     0
 65
   257
176
     0
 75
     1
176
     0
175
     1
176
     0
 42
1.0
176
     0
 92
        9
176
     2
 66
     7
176
     0
 43
1.0
176
     0
 76
     1
176
     0
 77
     6
176
     0
 78
     2
176
     0
 67
     7
176
     0
 79
     5
176
     0
170
     0
176
     0
171
     0
176
     0
290
     0
176
     0
 93
        1
176
     0
 44
0.0
176
     0
173
     0
176
     0
1001
ACAD
1000
AcDbSavedByObjectVersion
1070
     0
  0
VISUALSTYLE
  5
18F1
102
{ACAD_XDICTIONARY
360
1987
102
}
102
{ACAD_REACTORS
330
18E7
102
}
330
18E7
100
AcDbVisualStyle
  2
Realistic
 70
     8
177
     2
291
     0
 71
     2
176
     1
 72
     3
176
     1
 73
     0
176
     1
 90
        2
176
     1
 40
0.6
176
     1
 41
30.0
176
     1
 63
     7
421
 16777215
176
     1
 74
     0
176
     1
 91
        0
176
     1
 64
     7
176
     1
 65
   257
176
     1
 75
     1
176
     1
175
     1
176
     1
 42
1.0
176
     1
 92
        8
176
     1
 66
   257
176
     1
 43
1.0
176
     1
 76
     1
176
     1
 77
     6
176
     1
 78
     2
176
     1
 67
     7
176
     1
 79
     3
176
     1
170
     0
176
     1
171
     0
176
     1
290
     0
176
     1
 93
       13
176
     1
 44
0.0
176
     1
173
     0
176
     1
1001
ACAD
1000
AcDbSavedByObjectVersion
1070
     0
  0
VISUALSTYLE
  5
18FC
102
{ACAD_XDICTIONARY
360
199D
102
}
102
{ACAD_REACTORS
330
18E7
102
}
330
18E7
100
AcDbVisualStyle
  2
Shaded
 70
    27
177
     2
291
     0
 71
     2
176
     1
 72
     2
176
     1
 73
     1
176
     1
 90
        2
176
     1
 40
0.6
176
     1
 41
30.0
176
     1
 63
     7
421
 16777215
176
     1
 74
     0
176
     1
 91
        4
176
     1
 64
     7
176
     1
 65
   257
176
     1
 75
     1
176
     1
175
     1
176
     1
 42
1.0
176
     1
 92
        8
176
     1
 66
   257
176
     1
 43
1.0
176
     1
 76
     1
176
     1
 77
     6
176
     1
 78
     2
176
     1
 67
     8
425
  7895160
176
     1
 79
     3
176
     1
170
     0
176
     1
171
     0
176
     1
290
     0
176
     1
 93
        5
176
     1
 44
0.0
176
     1
173
     0
176
     1
1001
ACAD
1000
AcDbSavedByObjectVersion
1070
     0
  0
VISUALSTYLE
  5
18FB
102
{ACAD_XDICTIONARY
360
199B
102
}
102
{ACAD_REACTORS
330
18E7
102
}
330
18E7
100
AcDbVisualStyle
  2
Shaded with edges
 70
    26
177
     2
291
     0
 71
     2
176
     1
 72
     2
176
     1
 73
     1
176
     1
 90
        2
176
     1
 40
0.6
176
     1
 41
30.0
176
     1
 63
     7
421
 16777215
176
     1
 74
     1
176
     1
 91
       10
176
     1
 64
     7
176
     1
 65
   257
176
     1
 75
     2
176
     1
175
     1
176
     1
 42
1.0
176
     1
 92
        8
176
     1
 66
   257
176
     1
 43
1.0
176
     1
 76
     1
176
     1
 77
     6
176
     1
 78
     2
176
     1
 67
     7
176
     1
 79
     3
176
     1
170
     0
176
     1
171
     0
176
     1
290
     0
176
     1
 93
        5
176
     1
 44
0.0
176
     1
173
     0
176
     1
1001
ACAD
1000
AcDbSavedByObjectVersion
1070
     0
  0
VISUALSTYLE
  5
18F8
102
{ACAD_XDICTIONARY
360
1995
102
}
102
{ACAD_REACTORS
330
18E7
102
}
330
18E7
100
AcDbVisualStyle
  2
Shades of Gray
 70
    23
177
     2
291
     0
 71
     2
176
     1
 72
     2
176
     1
 73
     3
176
     1
 90
        0
176
     1
 40
0.6
176
     1
 41
30.0
176
     1
 63
     7
421
 16777215
176
     1
 74
     2
176
     1
 91
        2
176
     1
 64
     7
176
     1
 65
     7
176
     1
 75
     1
176
     1
175
     1
176
     1
 42
40.0
176
     1
 92
        8
176
     1
 66
     7
176
     1
 43
1.0
176
     1
 76
     1
176
     1
 77
     6
176
     1
 78
     2
176
     1
 67
     7
176
     1
 79
     3
176
     1
170
     0
176
     1
171
     0
176
     1
290
     0
176
     1
 93
        1
176
     1
 44
0.0
176
     1
173
     0
176
     1
1001
ACAD
1000
AcDbSavedByObjectVersion
1070
     0
  0
VISUALSTYLE
  5
18F9
102
{ACAD_XDICTIONARY
360
1997
102
}
102
{ACAD_REACTORS
330
18E7
102
}
330
18E7
100
AcDbVisualStyle
  2
Sketchy
 70
    24
177
     2
291
     0
 71
     1
176
     1
 72
     2
176
     1
 73
     2
176
     1
 90
        0
176
     1
 40
0.6
176
     1
 41
30.0
176
     1
 63
     7
421
 16777215
176
     1
 74
     2
176
     1
 91
        2
176
     1
 64
     7
176
     1
 65
     7
176
     1
 75
     1
176
     1
175
     1
176
     1
 42
40.0
176
     1
 92
       11
176
     1
 66
     7
176
     1
 43
1.0
176
     1
 76
     1
176
     1
 77
     6
176
     1
 78
     2
176
     1
 67
     7
176
     1
 79
     6
176
     1
170
     0
176
     1
171
     0
176
     1
290
     0
176
     1
 93
        1
176
     1
 44
0.0
176
     1
173
     0
176
     1
1001
ACAD
1000
AcDbSavedByObjectVersion
1070
     0
  0
VISUALSTYLE
  5
18F4
102
{ACAD_XDICTIONARY
360
198D
102
}
102
{ACAD_REACTORS
330
18E7
102
}
330
18E7
100
AcDbVisualStyle
  2
Thicken
 70
    13
177
     2
291
     1
 71
     2
176
     1
 72
     2
176
     1
 73
     0
176
     1
 90
        0
176
     1
 40
0.6
176
     1
 41
30.0
176
     1
 63
     7
421
 16777215
176
     1
 74
     1
176
     1
 91
        4
176
     1
 64
     7
176
     1
 65
   257
176
     1
 75
     1
176
     1
175
     1
176
     1
 42
1.0
176
     1
 92
       12
176
     1
 66
     7
176
     1
 43
1.0
176
     1
 76
     1
176
     1
 77
     6
176
     1
 78
     2
176
     1
 67
     7
176
     1
 79
     5
176
     1
170
     0
176
     1
171
     0
176
     1
290
     0
176
     1
 93
        1
176
     1
 44
0.0
176
     1
173
     0
176
     1
1001
ACAD
1000
AcDbSavedByObjectVersion
1070
     0
  0
VISUALSTYLE
  5
18EE
102
{ACAD_XDICTIONARY
360
1981
102
}
102
{ACAD_REACTORS
330
18E7
102
}
330
18E7
100
AcDbVisualStyle
  2
Wireframe
 70
     5
177
     2
291
     0
 71
     0
176
     1
 72
     2
176
     1
 73
     0
176
     1
 90
        0
176
     1
 40
0.6
176
     1
 41
30.0
176
     1
 63
     7
421
 16777215
176
     1
 74
     1
176
     1
 91
        4
176
     1
 64
     7
176
     1
 65
   257
176
     1
 75
     1
176
     1
175
     1
176
     1
 42
1.0
176
     1
 92
        0
176
     1
 66
   257
176
     1
 43
1.0
176
     1
 76
     1
176
     1
 77
     6
176
     1
 78
     2
176
     1
 67
     7
176
     1
 79
     3
176
     1
170
     0
176
     1
171
     0
176
     1
290
     0
176
     1
 93
        1
176
     1
 44
0.0
176
     1
173
     0
176
     1
1001
ACAD
1000
AcDbSavedByObjectVersion
1070
     0
  0
VISUALSTYLE
  5
18FA
102
{ACAD_XDICTIONARY
360
1999
102
}
102
{ACAD_REACTORS
330
18E7
102
}
330
18E7
100
AcDbVisualStyle
  2
X-Ray
 70
    25
177
     2
291
     0
 71
     2
176
     1
 72
     2
176
     1
 73
     1
176
     1
 90
        1
176
     1
 40
0.5
176
     1
 41
30.0
176
     1
 63
     7
421
 16777215
176
     1
 74
     1
176
     1
 91
        0
176
     1
 64
     7
176
     1
 65
   257
176
     1
 75
     1
176
     1
175
     1
176
     1
 42
1.0
176
     1
 92
        8
176
     1
 66
     7
176
     1
 43
1.0
176
     1
 76
     1
176
     1
 77
     6
176
     1
 78
     2
176
     1
 67
     7
176
     1
 79
     3
176
     1
170
     0
176
     1
171
     0
176
     1
290
     0
176
     1
 93
       13
176
     1
 44
0.0
176
     1
173
     0
176
     1
1001
ACAD
1000
AcDbSavedByObjectVersion
1070
     0
  0
DICTIONARYVAR
  5
196E
102
{ACAD_REACTORS
330
5E
102
}
330
5E
100
DictionaryVariables
280
     0
  1
1:1
  0
DICTIONARYVAR
  5
196A
102
{ACAD_REACTORS
330
5E
102
}
330
5E
100
DictionaryVariables
280
     0
  1
STANDARD
  0
DICTIONARYVAR
  5
84
102
{ACAD_REACTORS
330
5E
102
}
330
5E
100
DictionaryVariables
280
     0
  1
STANDARD
  0
DICTIONARYVAR
  5
196B
102
{ACAD_REACTORS
330
5E
102
}
330
5E
100
DictionaryVariables
280
     0
  1
Metric50
  0
DICTIONARYVAR
  5
196C
102
{ACAD_REACTORS
330
5E
102
}
330
5E
100
DictionaryVariables
280
     0
  1
Metric50
  0
DICTIONARYVAR
  5
5F
102
{ACAD_REACTORS
330
5E
102
}
330
5E
100
DictionaryVariables
280
     0
  1
2
  0
DICTIONARYVAR
  5
63
102
{ACAD_REACTORS
330
5E
102
}
330
5E
100
DictionaryVariables
280
     0
  1
1
  0
DICTIONARYVAR
  5
1970
102
{ACAD_REACTORS
330
5E
102
}
330
5E
100
DictionaryVariables
280
     0
  1
1
  0
DICTIONARYVAR
  5
1971
102
{ACAD_REACTORS
330
5E
102
}
330
5E
100
DictionaryVariables
280
     0
  1
15
  0
DICTIONARYVAR
  5
196F
102
{ACAD_REACTORS
330
5E
102
}
330
5E
100
DictionaryVariables
280
     0
  1
0
  0
DICTIONARYVAR
  5
196D
102
{ACAD_REACTORS
330
5E
102
}
330
5E
100
DictionaryVariables
280
     0
  1
0
  0
DICTIONARY
  5
19A9
330
1917
100
AcDbDictionary
280
     1
281
     1
  3
ACAD_XREC_ROUNDTRIP
360
19AA
  0
DICTIONARY
  5
18D8
330
18D7
100
AcDbDictionary
280
     1
281
     1
  3
BUMPTILE
360
18DA
  3
DIFFUSETILE
360
18D9
  3
OPACITYTILE
360
18DD
  3
REFLECTIONTILE
360
18DC
  3
REFRACTIONTILE
360
18DE
  3
SPECULARTILE
360
18DB
  0
DICTIONARY
  5
18D0
330
18CF
100
AcDbDictionary
280
     1
281
     1
  3
BUMPTILE
360
18D2
  3
DIFFUSETILE
360
18D1
  3
OPACITYTILE
360
18D5
  3
REFLECTIONTILE
360
18D4
  3
REFRACTIONTILE
360
18D6
  3
SPECULARTILE
360
18D3
  0
DICTIONARY
  5
18E0
330
18DF
100
AcDbDictionary
280
     1
281
     1
  3
BUMPTILE
360
18E2
  3
DIFFUSETILE
360
18E1
  3
FBXASSET
360
192A
  3
OPACITYTILE
360
18E5
  3
REFLECTIONTILE
360
18E4
  3
REFRACTIONTILE
360
18E6
  3
SPECULARTILE
360
18E3
  0
DICTIONARY
  5
19A5
330
1913
100
AcDbDictionary
280
     1
281
     1
  3
ACAD_XREC_ROUNDTRIP
360
19A6
  0
DICTIONARY
  5
19A7
330
1915
100
AcDbDictionary
280
     1
281
     1
  3
ACAD_XREC_ROUNDTRIP
360
19A8
  0
DICTIONARY
  5
1972
330
7F
100
AcDbDictionary
280
     1
281
     1
  3
ACAD_ROUNDTRIP_2008_TABLESTYLE_CELLSTYLEMAP
360
1973
  0
DICTIONARY
  5
197F
330
18ED
100
AcDbDictionary
280
     1
281
     1
  3
ACAD_XREC_ROUNDTRIP
360
1980
  0
DICTIONARY
  5
197D
330
18EC
100
AcDbDictionary
280
     1
281
     1
  3
ACAD_XREC_ROUNDTRIP
360
197E
  0
DICTIONARY
  5
198B
330
18F3
100
AcDbDictionary
280
     1
281
     1
  3
ACAD_XREC_ROUNDTRIP
360
198C
  0
DICTIONARY
  5
1993
330
18F7
100
AcDbDictionary
280
     1
281
     1
  3
ACAD_XREC_ROUNDTRIP
360
1994
  0
DICTIONARY
  5
1985
330
18F0
100
AcDbDictionary
280
     1
281
     1
  3
ACAD_XREC_ROUNDTRIP
360
1986
  0
DICTIONARY
  5
1989
330
18F2
100
AcDbDictionary
280
     1
281
     1
  3
ACAD_XREC_ROUNDTRIP
360
198A
  0
DICTIONARY
  5
19A3
330
18FF
100
AcDbDictionary
280
     1
281
     1
  3
ACAD_XREC_ROUNDTRIP
360
19A4
  0
DICTIONARY
  5
1991
330
18F6
100
AcDbDictionary
280
     1
281
     1
  3
ACAD_XREC_ROUNDTRIP
360
1992
  0
DICTIONARY
  5
1975
330
18E8
100
AcDbDictionary
280
     1
281
     1
  3
ACAD_XREC_ROUNDTRIP
360
1976
  0
DICTIONARY
  5
1977
330
18E9
100
AcDbDictionary
280
     1
281
     1
  3
ACAD_XREC_ROUNDTRIP
360
1978
  0
DICTIONARY
  5
1979
330
18EA
100
AcDbDictionary
280
     1
281
     1
  3
ACAD_XREC_ROUNDTRIP
360
197A
  0
DICTIONARY
  5
197B
330
18EB
100
AcDbDictionary
280
     1
281
     1
  3
ACAD_XREC_ROUNDTRIP
360
197C
  0
DICTIONARY
  5
1983
330
18EF
100
AcDbDictionary
280
     1
281
     1
  3
ACAD_XREC_ROUNDTRIP
360
1984
  0
DICTIONARY
  5
199F
330
18FD
100
AcDbDictionary
280
     1
281
     1
  3
ACAD_XREC_ROUNDTRIP
360
19A0
  0
DICTIONARY
  5
198F
330
18F5
100
AcDbDictionary
280
     1
281
     1
  3
ACAD_XREC_ROUNDTRIP
360
1990
  0
DICTIONARY
  5
19A1
330
18FE
100
AcDbDictionary
280
     1
281
     1
  3
ACAD_XREC_ROUNDTRIP
360
19A2
  0
DICTIONARY
  5
1987
330
18F1
100
AcDbDictionary
280
     1
281
     1
  3
ACAD_XREC_ROUNDTRIP
360
1988
  0
DICTIONARY
  5
199D
330
18FC
100
AcDbDictionary
280
     1
281
     1
  3
ACAD_XREC_ROUNDTRIP
360
199E
  0
DICTIONARY
  5
199B
330
18FB
100
AcDbDictionary
280
     1
281
     1
  3
ACAD_XREC_ROUNDTRIP
360
199C
  0
DICTIONARY
  5
1995
330
18F8
100
AcDbDictionary
280
     1
281
     1
  3
ACAD_XREC_ROUNDTRIP
360
1996
  0
DICTIONARY
  5
1997
330
18F9
100
AcDbDictionary
280
     1
281
     1
  3
ACAD_XREC_ROUNDTRIP
360
1998
  0
DICTIONARY
  5
198D
330
18F4
100
AcDbDictionary
280
     1
281
     1
  3
ACAD_XREC_ROUNDTRIP
360
198E
  0
DICTIONARY
  5
1981
330
18EE
100
AcDbDictionary
280
     1
281
     1
  3
ACAD_XREC_ROUNDTRIP
360
1982
  0
DICTIONARY
  5
1999
330
18FA
100
AcDbDictionary
280
     1
281
     1
  3
ACAD_XREC_ROUNDTRIP
360
199A
  0
XRECORD
  5
19AA
102
{ACAD_REACTORS
330
19A9
102
}
330
19A9
100
AcDbXrecord
280
     1
102
DISPLAYNAME
  1
Metric50
102
FLAGS
 90
        0
  0
XRECORD
  5
18DA
102
{ACAD_REACTORS
330
18D8
102
}
330
18D8
100
AcDbXrecord
280
     1
270
     1
271
     1
  0
XRECORD
  5
18D9
102
{ACAD_REACTORS
330
18D8
102
}
330
18D8
100
AcDbXrecord
280
     1
270
     1
271
     1
  0
XRECORD
  5
18DD
102
{ACAD_REACTORS
330
18D8
102
}
330
18D8
100
AcDbXrecord
280
     1
270
     1
271
     1
  0
XRECORD
  5
18DC
102
{ACAD_REACTORS
330
18D8
102
}
330
18D8
100
AcDbXrecord
280
     1
270
     1
271
     1
  0
XRECORD
  5
18DE
102
{ACAD_REACTORS
330
18D8
102
}
330
18D8
100
AcDbXrecord
280
     1
270
     1
271
     1
  0
XRECORD
  5
18DB
102
{ACAD_REACTORS
330
18D8
102
}
330
18D8
100
AcDbXrecord
280
     1
270
     1
271
     1
  0
XRECORD
  5
18D2
102
{ACAD_REACTORS
330
18D0
102
}
330
18D0
100
AcDbXrecord
280
     1
270
     1
271
     1
  0
XRECORD
  5
18D1
102
{ACAD_REACTORS
330
18D0
102
}
330
18D0
100
AcDbXrecord
280
     1
270
     1
271
     1
  0
XRECORD
  5
18D5
102
{ACAD_REACTORS
330
18D0
102
}
330
18D0
100
AcDbXrecord
280
     1
270
     1
271
     1
  0
XRECORD
  5
18D4
102
{ACAD_REACTORS
330
18D0
102
}
330
18D0
100
AcDbXrecord
280
     1
270
     1
271
     1
  0
XRECORD
  5
18D6
102
{ACAD_REACTORS
330
18D0
102
}
330
18D0
100
AcDbXrecord
280
     1
270
     1
271
     1
  0
XRECORD
  5
18D3
102
{ACAD_REACTORS
330
18D0
102
}
330
18D0
100
AcDbXrecord
280
     1
270
     1
271
     1
  0
XRECORD
  5
18E2
102
{ACAD_REACTORS
330
18E0
102
}
330
18E0
100
AcDbXrecord
280
     1
270
     1
271
     1
  0
XRECORD
  5
18E1
102
{ACAD_REACTORS
330
18E0
102
}
330
18E0
100
AcDbXrecord
280
     1
270
     1
271
     1
  0
XRECORD
  5
192A
102
{ACAD_REACTORS
330
18E0
102
}
330
18E0
100
AcDbXrecord
280
     1
 70
     1
 90
-1506045146
 71
     1
  1
17AF5927-1DC4-4C62-ABEA-305FA5FC29F0
311
504B0304140006080800DD565B4B263338FCD9000000200100004F00000044383233334644342D353935322D343136422D414538392D4644383632423342383231342F4173736574446174612F446566696E6974696F6E4974657261746F7250726F706572746965732E62696E454E3D4FC33010350C540C0CFC03FE80EBC4
311
B1D318819013D79DBAD0AD0BBA86A38DE42455ED8895917F0DB628EA49EFDEBBEFFB2684FC9C2D4A7215F115FD5DE4150E78EADA4D7BC01EC84DCAB871076E76A95D479942831F30B990A6D69D6FD13918709CFCFDA5F5A18710D7819BA7A1DB88FF844F1BF67FC7D2FDCF88F45262783F3EBE80F7189E99A978515823A854
311
9253919735D5CB4A516BAA92D7455DF15CB057F4E3746AD1B37CA1AD547C4173D3082A9A92535D2F352D3269B5B40D573663E130F5BB013AC732767EE1ED38ECA5DA3EB1D0F5F80B504B0304140006080800DD565B4B6BF72FE7EC000000300200004500000044383233334644342D353935322D343136422D414538392D46
311
44383632423342383231342F4173736574446174612F496E7374616E636550726F706572746965732E62696EEB606060F80F0540260323103700495E20ED9E9A975A94991C9C9C919A9BA802143034777433B53432D735747136D135713633D275747275D4353630757334757336B27433604768046931363471713532B5D4
311
35353131D635313332D475727372D13534373670367376B67474B5042A03DBCBA019D37FE8ABC6157B20CD04146B0062181F4C03F940F0C11EA29A8141C08141002C0426541C106CAC2CA046088033B02A030AC2157C6006F21A8018AAF50194E6010A610250382264E08660284CD9E98021862280A91564B406929A0FF62C
311
401E28B6F88038B83CB1243943D7A928312F25350524432B0000504B0304140006080800DD565B4B88E57597CD3F0000904100006B00000044383233334644342D353935322D343136422D414538392D4644383632423342383231342F5265736F75726365732F31374146353932372D314443342D344336322D414245412D
311
3330354641354643323946302F7468756D626E61696C2F302F67656E657269635F706E67355B773CD4FF1FBF73E71C0E67EF7576C9DEF3EC995D46C6A1EC5046649CBDF79E192942562825CE965D8A868C2842C8DE9FDFD1F7E7F138F7078FCF6B3F5FCFD7EBFDFEC41B196891913091804020321D6D7513FC77D8C5070EC3
311
FFEE51B21F068154CC75D455CC028A3EA68992803810109FDDE5D5CEC5521B28A1B422BF80741695D5B529DA1C2D058AD2388BDA9F476F7C2CADC939304173DBF48A452BF8A700C0C70C3D121C1AA15A5270C22E2B9E28763651F7DA0D12CE11077B2ECD0D560B5E3DE2368B1E65C5E1C87384A4CC5F2D9FB8BE39E9B77C75
311
3783A37998F5CEF1B4FEE553463245C9712270880DF339E0B882A6BA713D865F6F384C842D440934EF264F4A304F8DE4EEFA1E2BF5E2D91F5ADD9613D6E31DDB33ED31DB1D7916CAF091286EA3D31B9CFECB78BB0060245B943C4C040119FF780A74DD308BA9D028678674EB5504ECF284EE814DAED07440BAF649BE4B55DA
311
2890F4D73E2D489A59EE54FDB0A85B59F2F52C4858A02705C4815A792B0C4A996A2023ECB195073E115E3E3647F64243A8338F2000BCB58DA5692C7E7C3D413F963FEDF3CF00FBB0F831A9D51360FECA43819F527B89FA260EB63C5DA676830AA3626A3693B23F1A17A0DFFCE3EE164E31B5365EDF0C89EF64D8E38AB0BA9A
311
1117D7C3A0EC44F44F4023095E80BA610DE336D0F99593A88BFC5306E72DF98F7FD132ED95878DF2964EA7E43071359FD83B2BDF9C6B5BDF768F0F3C0FC351199526F53D9460A34511F75D1B63E488178569472C91A94497807A3FD4A390C6558F26D416365C3656DE6E769DA9D8FC73774E1709812842DD8EF96AED1960F7
311
9D21B395CDDFE6F92CB4EB962A4668C76990E2EF29798C8941D67DA50F4A5F947872460F1F6FDB794E8A29FD7AC0C0D6E0714339CE258FB17AE8535221E3464A10F29A0BE5EEECEFC5675926A89F49EB14E5711894F6586DB5754EB4D5DA9C6437EBA57DB97A24F8B8A8DB295FFD73266CF57E82694DF5166DDF93573AFE9C
311
9C5EB05F8FEF8E89E0A8917B0B3724DB7BEBB53252581EFC3E38166BA131A3A5B42FE2AD00A769BBFA4458D2DE7822F8C4F63D0B8E21B285AE13325F3410A435C648C9D91FDEB109E73CEDA7BC796961AF79175E1A3CE4C5E8B0D009B0C9E29EFD98BC8E97554E3D8D838424E270F7685226E5AC268E021EDE3522D583E8F2
311
0C0BDE2959EF5BBFEEDAB32FE9A3ED0E39F211A86AA9DEBFC68182EDED132AB8BB794442D2D7EA9F4D8BFF52BC4D55BB165124EE90A42D101E67BBBB292FFB4F66DE5BF2300E44546757DA7CEF8932BFC9F92A0707953491A55C5A5ACEDABD9FA1AEA01BAC3DC5A24E22E7C47213493996EFBC369D086ED9397C9BA6C7F985
311
5C7BD5E15BFC8C53DB3D2A4C5901A57ACD2FBDF4D1676E95338B2C2BCE65FDA4C64F5FEFDC7D9CA5AA1FCF11E193F2FDABF0F4916BF13FB916A224380E6462A9815F2300DC49CC4DF8D055CEF76462F4B7A7ACA7365C2707891370BC1D0AA6203C44CCAB47084FEC057F27FFCD57F89B8B9852459798A675C66BD7CE572CAF
311
71FF7E6D7ECF7BF62CAB7B3F1107DCD04DC55A3F9961700286141C94A4F771FEB2BCDA2DDEE0CB0BAE402FF1DB0100F8E475DFFFC074DDB4498AB7D186A7654DDB1CB680D703D47CEB4E72F8CB13D86A4AA68116E26387B93FD6738779B34FEDB8E517EDF2BAF28D9BE93A1D3A164320E07D42E514725C29515FF361754213
311
EDE06B079A2E99EB1CA82A02019EADEEB87B9AF005BD04BBCECB14AACD6B24EFBE482194A97DD32400685FF1FEF1544D1B14EFB1E7F08E6D2CD2AF52DE757F35F5E62332EE88EA26417AD5C3E0E319D68F25414E6D672BD4522B278C57D18F0113921C71D96527E091F00CEB15AE23D24667369BD3CEFA10C7549D930890BA
311
4366F4EBC55F01F746109F98ABCDD5A3EE06619C6AD78AB33E48E4C9BD21BF7478B385EC05C4F8987E2C1BFA0A60EBEDAA0AE0B015C2720ECE180FB6F2DEFBEB822D96338C9B63822183BBF52FB664A7AE57003AABCE512BF77E7E31BDA2E739AC4C131657DDFE5225E900FB56CC01CDE808FA4A9C9DA16AC679656BB64796
311
283D89812B8F91136AE18EE5EBBAF47A73BE3C153EB5D4CD491B4BFB4FE690A4CF9ABA08C0D8AA64220C438C96EA6CA80B58FE5761E697B3A292EB9FBDA502FA863E49FE694ADDFFF9D62C520BDD1A22014147A0903A05B9B729F54272EF83931FEEC057BFF8C8055C279EAC5C0011804828734024F6CFA319C9CC6867C727
311
184465CD9BB7ED386AFFD96B294A85E3802FAE47244602D8273615952B98C4F23F7EAE4463D9D638EEE374A20959E0FE519C4CFB0FBFE5DD80C2AA3F9DB961D1BDE57E67C9BB47B77FDD74EE3094F5DBBE3EBC1FBDB7393F5116263009E2EFE1AF9A221B2AE234C902BF70E9F280ED23E73908361565964333A3F01D0B006A
311
F32FB21AA1316744B489D5A198E85299241735BE559675130955C902A8ED761FC0DBE337A9F91919AF5CE32AF902ADF9AB2615E00E8A94586BA1A90839B61832FF1BFB76D2EFADE6DB1BA04CCAD3DA649E7E2A0219F592E22F2AD54847EEA8E42271011E9074F8F3DD9FBA6CDF88FFC9FC7E811AD1CA8F4557CE4AFC7BBEDC
311
F0114A48689F20A584520C74DA8127124B767E2FB91A6B186246727BE63C9445BAE02088D58B8EFDC0F1072407CD9B89A13F6303B4A928F593AD489B58E6869325790ADC406036C591729FE14021F94B7796BB11848D463536A092A26F077F94639F7CEEE2A724C66EC885F4A24F8B8A0AC321F8FD149BA529460FAA34E466
311
3C02D41FDF80BCA222D42F0ABFF8490F4FA74C673807C2051D8E467B47B616072860069A9A303ABA9B319D58404461401B0A0F9BE5E1E151C14BC33B32ABE03DDE91708DFAEB15E7C0D593C86BB7D7EC17BE56E57975F077BFD5525F3A1A361D584A75E08CF29FC7B44B2B3085014F3A5A14517377C3F6B8F37E59514C3B12
311
F8AACDEDDA4DFC49BE5710101534CD6FB6DE15B50F11A09472AABA727F0C49D9CB906B158030065F48EB3625E010CEC1D511D0053474B11E6A4F01C0D6EF1BED3A944FDEC70E0DDCDC756C86545910E0DAE3BE3AA9A404574C2995CD5CAF9549226BC94B4F4F0F5F9086F418F6B32346464610D8BC7391D3C3A3CCF04CFC1F
311
B2A3A3170E369511868F14EEA4E5E438CC73DB1F3248AA94B6B2FF33B222FF3D1E7BF146CAD229770158063BCE4F5391964DF62F7E52A7BE0EEA829C9E13C4C147D6F93FE59E111DAB5E4594D6F3CD1AD375EE039930EFE5AF2BB2D41C83C7DABD8C659BAFBE8FAB392CA634F3D15C1D945DB4588D2B0824A4EC928AAC5655
311
57CA2F0DAA588CA5BE30B3A8004F7BF005E96CBF891D7F18112A3619FDF530DC8AA64954258E1811789B5189B49B4EB53F5F89F7D37523894F3EB57B373763C91E502F52CC99EB7BDDF933FC324C4FFC2561DFFA7339FAFDD0A4BFBE6D3A8FF9ED1FC49898139864602458968913181918F719CCF5A68B2EE9C1FF050E34E6
311
3107003B8120FA982C21B30A874E4F5E4B38D5A8290C4B8D9BE48A0BE31EA995BDC37AC6DE90BA17D259DEF53605D55922FEB1855D915B659FBEB350EE0DFB2F9F766E1C84CC8964B75D08667445EAB966015F63A18A9E0A325C1B3DC628C0D3CB60F767FA93CC65F25458BD23C3B312716E5F40E5858AC06EBA9AB14F95DB
311
99147B832069201541D09A0D856E12C629CF32683760EE855537D1901988D5EBC156676C7DD51D7207CF3267AF1D76C2AD867315E44618015313A98B19941C696FED3461CAA9B5415F918556D7802EDACEFD6B2E45853A9735DFC9DBF7E440F9319F8B6805A973BCCDC76C069A9144E51F187EDCC12FC31B5DEAAF0A761371
311
99B106EC84ADA6B6EE697D4E6A96E007417F4E880E8B1E89B4BCE9D81EF611E2ED8F0C1A6C25F620FAFAAB656A7C42D464880E8AFAB0E0FC8EA38CA9A8AEEAEE3E4648BA4680270A89743CDD3E6C6CBF34B7B640EFA285ABC7EA0A1E28F3CC963D114A80123EE66D0AF7D5380EB41909B605AB4765B709B808590458157E69
311
BA1378FEC4B48CAF6A730E3BE3C5EF2DD1A5EAF94B1DDE50CEB55DDFD7EE9A16747FA4B223359FB1FCC69E1194892BABB93A1D5C4E807AC0EA2E30180811E77A2291F6E7F7FAA5E0F60215BC6024E48DE436C511F0628B8CA189982D4D83CCA17D305A7E923C37941CFDFDCD93ACAF735EF5F0E61BBD3E6C41A59B242790D3
311
A3BAC7064DCD89AA2E37214EC839820949D5CAA31E240D2948E48F690298974A96BA9A8432BC90F5071D6537C9666EA4564796B7AFFFA548077BEEA75F63083435074BA182F3699557397F71548383FDA8CA34D99B981E72835ECDA5DDDC151315173D05A21F651AAF8524E88209E2E7A737ED1045800CE3390050BCFB8BE5
311
88DF111617874C62575039CA588EEFDEFEFE319B739DE2EDC147092A262611E159650E787917885EF08F1F51B8F2D8A71D60B58B190FEF9541A1BE94BC19FEA50784DA1419FE4B0FB51B8D36B5FF8E1286FD8AF42B91E59A5F1CC4D60174E764045FD8C57B18209B217F89A62252BD20BE0E63E12B8E8F029FE19E0E8D0870
311
F58721A557082250D5424F7909369376E41666C0EE77CD87CB283F661D5FB6D0DA023CB67320A20DC7BE661E9E1BFE5463085C557DA1FF9BE835733766C3D139F2CF9E2208873AD0EB4814DE9E6BF2CAF81614D4D43906ED1C05A3265CABBFE192770FC2F64F940CB6B17B5F166F133C9AEEAD2641807C3E69515171DD74C4
311
A85311513D6EC9530B3B601B6BA3EBFF3B5C3D2F7D69765141E345F75433953D013ADDF8F6AA7DC3F4A7563FE5C7D367937E2900D7EAD0F9FC9A4A1A9B5BDF1FEF08532660C01C5D6DE22199AA774383E306DAB87E301ABB7D213887F9869D4942D0D71E94B27EDF216A318BD488D45DF84529EF575AF3C3938C0AAA0215B0
311
1994153E2054A0B894DA5C784980633AAD48576957CF4AEAEAFADC7C587368551C73DBE1E57C58AC713303A8BFC258BD04B51724459FF9E24C03A81E0E0679CEB9B348C0DC998FEB9C6D6EFA77D247CC8F92D3848599ED89A23218D0636465AD1CEEB7DC140D7426F83491C4E8E8281C2FB35240918FFECE880CA2A42D70E8
311
B20B34DF5221C7DB0CF90ECCB9C745B37A47E9B716FF7A97B7A252C1F3814DC7B1E1A7F72B8751D524EF7CAE45B0C73B3BE7D08ED39781B380DDFC9AA4A4749C9493DB5BAD07A6EA6C092FBD0E85DB004DF06B8C9D3089C5320187E4CE1846158C7EA7DDAE8AD9AFFF21AA3A1026BB06A259845E8232DEE62811A4DA9CEAB3
311
A4887320B76E2AE5615EAB7BDF738CBDD01F1E64064BC13D9EC53576751CA8CACD58B3CEB0E6CA585BD089B2A59B9FC101403387AADBDBE70586B93D64BF3AD4453EF9C3B6A93817E8346991798601344F79A83C51F3D50F7BF2683A3605F51A72449489E0EE6169C749C60B1035651103AEE24D24E51A759C840DD3FC6504
311
DA6FE107510E447B43461C79D22970B75DE5E1BD3007D1AFC619A4A4A69B5626AF5E9B8374E20677F77E2F8E73DF868E8BEC7EBA7B6A75EEF7205E1AB9486CB642741D6E03FF13FCCEDB1C4AC129886268B01CDF4B124AF797CF784F3C6DEC97A17D4B558070A0F1C04DA4FF9BDBF34159AEFE958479824B3F58EBD1E19088
311
A2AFDE501B6F2052368A3FD0E650A179EFAB1561E1D27527077136E652676C3670F42DCB3352F48F6BC86D2C3B0051727E41A0A4DC6CE2BE9D47F5CAA2935A3C0539AF080665997194ABECD723B08129CC5B6B21D2E7D54CD4D12610E7E9FB8306771A89576C7A982002775ED44F3F744CF21EEBB27A631671D921938AAEE3
311
EB0D19CD1E083727F607823E817BF599DCED5394E37EEBC2E88782E638920CA641EF74D4CDFCDEF06F4278ECB18E31E7E9876F2D783C8BF429C75395F57E98C2B495A3DA077EB3AC3C158608B6B57FE3EA48484D9A480096FCEE0DE880950E7E5A5714131C5C41AAA29FD19AE81AC145FA1B9E85C7169A5AB837B213493DF7
311
E9AA4B5FBF9CDEB36EBD21EF1181B7CF7366AB2A951D01E37AF4EB835D1BE8C117CFBE7625D2EBCDB0B20C5A4B45CED0BCDE3EE8DA9DA78C2E21DEAAFFD1197E463C33CC6A80FB785669B856EFF7A8CCCA2841B5A5369173320B1170C368B2748D81062EA0296E5E2D95D7667A4A46D98A6FF475C76AAB0A8C8D45E226FAFC
311
9FE0133EA9F60111F99CA81ACE03A1D14C89E8B0D69079C91464FA1D99E651D0EAF606F345C42A8A1AA9BA391031582B96D5B4176A77AADB01F12FD298A75DEEBB2C82F0B8650E880722F8DDD90C56A7A058E5FDEF1AC93545BA27367C76F5D8F9690CB6F8DAE141EDD7971F0FB548A2AE435F224D6E5954CA155512F73320
311
29D5A1230854B79F258EC5FFDB09F5F6343A8EB193229B7F7E79B3E48F8E183860B38C8269D1B53738FF1E0BACF6AADA6D4869E9DE708E79B5DADCC09B1BC76F649731CFAF59A83FD8BAE4C749D66FA87A3810D4D62FFE826FA400C0F325D2BC0F3CA35F5847B82A2ACC7961745C823E4D863D54460AF792CE6F79B5C7A33B
311
25C3AEA6CDE15A919B6367D781E9D44F61BF828672594A3E1D9EDD6DF179A81F27EAC05B936575D73E05C209DDD2115CFB705DF9BBF3C911589B3640735E9E618FC9C36A7326C82B2205E244C55D56FDB9D5DC93CE958D4BF8174D2B3DA54CB3C09F2C2A6DFF73D23B2197355761AD421EC581284A7EF8DE2CE3497C0C804D
311
49B41DFD6A7360844E5BEFFB495CFCDB97A4595911CDBA623274CE852B5E278AF0BEB1770E9D37CD977B2766A7DED0E94B840E1E95E8C77DE5CB6354AF7871427C28ADBEEF7BA0A28E19DE9ACD75F379FE373EAE6DDDAE3834692F9C2B03B4FCA8FCA9ABE8EEEBEBB725B88A7C90941E850682CA04061A7DF0CE82ED49BFAF
311
FD42C309818FAE14755CAAE78B0F73243ECCCAD7DF58FCB9CDFAE7A4D3E6671A613639130D056C8383C8F4FCF4808C331E544DD26E4755D09EA05253B3049A1E32587CC25D72E073E2CD96D04A71BBCB0038FEC3F53D254199C3CDC67CD66640269431860225392B2CB3ECD0B4498AAE78BA1994246AE1EE78F2EDFB79F6C6
311
CB6B5E279C4D373FBC21CB2698C9ACBBEB6A4BB6B39E16AB0E421CCBFC7654D81ED86022F9BB522146F9F4772E2D0E4FA70120C95A85A417BF5078B232F4754363EB1750B2AC2148EB46B1EA72AD9B4D23ADCBC589D70106C3EC2ABEEED84DFE28E718C6C83502C28E9FDD3B09DA0A6F6F7B72B706A31C9E2A331EE70DA56A
311
083D2177BFD63C55B11D8D949FAFCF90B23A1E24B9B5018B9A17E99F2890EC302F330FE7936E2C23F0D237EC8916F5166AB84B62A21BB0B950146962D754F92CC2C8877BED8FC7B7B25726DD19545392570B3A2C66B58F027BEF412E552D12A588C4A3CC5C3193FCB3485EFFF700D0B9EEC077754A33DC1FB9E25AF814628F
311
91DDFECB667D3F7690803F38D13F8AE39353523BB08FC6760144AFA2CE28236F65EDBB3D5F59A57D612B99E3D7E5F8A851666BF9B5A6658EFC96EEB37A378ABB0EB3FDDF1303AF32C41BD1C8560745D7BD81066B0D6313359CF488563D3BA3F8E2185D1FAA3EBA1397C9D0E3DD232180A4DCADB6AF25DB3AC3CC26589C8239
311
E66E81547BC7E2F328F9884764CA37EB5DBE390DFC03A5246B456A7C3684C4377D0EEF9A350680FA9A077E8B2957B489E09AB1AD41316944C2254B5984830F691C93CAA767EECF976FA5647538830B5E63236A6F0365C1E0F3E327F24FE35EDDBD7360B0F7374837409F7A6311BECC12B7026D4FA1AE204FA3F5FE904B1F42
311
0C7A9044AE58E403E7C4848E7DA25DC9EDAC79DD756FAA26B9EA83ACE8A214A2612A22AFA19DAE7DBAC5F8CDE1292A485F98DAC731A29FE01A3966E96BCB9FB5A4C8830E1B9AF0C54B87FBE221A097036E5D28D1F869F810C06A9BB0AC0612F69AEBAF893C6E7AD59460208BAB3A6B09CA4F6BDDAB8CF0D1F84B7248749839
311
5A70DCD754796E271099A567A55CF242BBED64696378BB6CF25EF0FCDB589F3A82F1116D010A9AB9FA4358809EE0C973A2B4229BAA876A70B03AB49CBA7FBE71DB1832FFD32F9BF2C8E98075CACAFB36921235D0F552B6A67E94E094097A5D7DF681B40623DA535ADA7A9AD8E9A62407D7C9A5AE51D62A17A83A23728DE86B
311
B56115804D3F2675F2C6B87541A0FC497BF0CA86420F558C9859EBE9FAD62747E323E3AADC03FDCDDFE7407B09DA90B44E3185723C5381EAEF589765E2F7A099BA46695BAD60CEF3491B8A171F5F56444F7CE9455312C3498C74173AEA0214EC029833B34B650CBB5A5508D5091665309642791708ECF27CF11DB3D797D6CF
311
E474453BD4BFADB768094B2147814D81C7CBAF8228DCAF5564B5891F5EF6A860EB2E323CB82AB868D8EA048880D63B0DE5341F1B3D53297B928A11E15F25E5148990F710747C3509ED14909C552EBE3973246FCE55D00564D8310BC3EBC5085D08D806799B77D6C57FDF5E55837F9E934F09C03C729271B64F12D0A9F9E938
311
107CAF7BF1EC8CF1BB9B42363D33070F4CACB425E605DDB0A34A12BB936DE286B9887A4E2E558F0886498BFF49C311D96C277CF6A9FC0D75AD0ECC5226D7E0E3572012E56D7FDE4410CEC7A6D0F997F225A2055B8B92E3956E875AE4993CB3D4C9063AF98FD45E1BAB165640A43439A2C9181A7C355B297C0A0CCFFAE19B6F
311
A3C2BA238A885FBC98B8F6DAF4B94B97304878DF4D8BFF6A4AEDF79E90ED4E68F00CD7299F4E0D83E35601AF0CBEF18C1E870E74758FA91F5131075004DB3CFCF09AE1DABC11957FD9808C92E8A678CE9DBE40DDA0E0D1D505AAFBCBA208232BFB6FB3704E8985E61ADE53DE74152F5C7DE74B1DEDCD37DC3E8FB30D7EBA8B
311
9EFFC3606BF90B8D438279CB7709FC7C00D327F41817EEA71CD9E49FE9C8C9A81C70915D9F0F15958EC5AA4C3BBFAF46986B90F188BDB24B89DE3C6F29EC3E6F66D84856EE96A35E657CA41B41EFD8DBFA16AD6E91439EA92B40B21C053249F51AE50EB0B24C770FFAF40DF12C8436366819C48E36547D4E7B72FE2BBF1082
311
8583057814A668BDF183F6B2E58DFB151103E56303E63D00F39C27C4661605DB644D19175D02E3F0241E8FC3458D17AAAADB117CE9EEA690D0DB01E634878C04C2C9310B69FCAB831151E3AD293BEF6E46B0ABCECB50F5939B39C613D41E81FAE8D34CAE3C4566B761D37185FE864AC32FCB71AEF39DAA5BAB88609BB980CD
311
2F07A8F941653B529567726E2B2A58D079DD57E1E5E31426CF184A04D7B03B985F276D47406AF276FE32E3328BA866EB1FD39BEF57863A317634AA5FE467409B3873F5069EF0D71AF00AD189D17BA1974ECDB2D623E9E14086386A6AAB5807825C37B015BFE892AFD154920EC437EB945D958E18622E1E0FE2FA06557CE4BB
311
9BBD05A2D40E774DA2B65473791E314B7D6C886820B2FCFE4AA272B3B8B15E7344A145E8AF919B5454D89D36D413E87211186BF6F645E5EC94DCCE8E1C799022E4EC9BC86D7A0F2AFB1FC4B2CE48F84B3F49ECE65BAD24CADCC07EFF39AB06BE9E6B27A059938EA7208838455383DDBCFCD967DDE4650EF92A14FF933C975D
311
B20BD7FEEBC4487576485963D757D16340D9599FEB362F775F38CA4185A86F74B629C81B133644A3B18FD056E997E0734F9BE26D11C0AAFC669E2AC9FC41D281F8B2E1C35AE27BCE05F3DA295488096688719D974DF1B5D182DB7792288697F8763CFB43562C1CDEE11C4AABD5C22B6E33F6F389CFC3477C5919DC0D533F8A
311
7A1846B7ADB60ABDC26C43D0CFC8910B7C15EE22675BD02702ED39DB77A87A192CA7A543E6205B979B9F5A6B512A3CA799E198B2D5797C0AF8D1D872CA455D4D431A7879D4DD76110B5FF7F4176B54477A9EB5E4A5D11214FDA585F0382751D8E2582BA5D2075053298FEB8F1537304E32CB22C2E2B693DC0A760B1DFCA751
311
BDC445AFDCBB12820ED85F6D5298933C7EF1211E9E057684056CDA3FEF3BB6052355E162DF27C59E965A8DDB7F9437EB72CDDA3A090DE65A5B2F50326247B7EC67B73ACC7047FC9B353D6EE990F772207C6EC52B39DC2F3C0754821DAB559F7C1809C7D0DD5B0499D0442E0A6E391B3D5DB46D11E731E6794EC77523FBDAA2
311
42ED67F9FA1FB684255671F63C9BCFE6E7E896D51001A6113EF2298BA494E0B0980D1FA5B9D60796554C02256B1E0345FB7C6186B6A19D2DCA270416262845FA4F42DB5D9B0A0B6F07FCA2E56C242522E001E0CEB734AF310FC8BFB57E38E03AACE93B3326A2197891E68452B26A6307FDABFEE0223D3C03C3C73D2D5BC054
311
C8311F12004CAE488E5C29287F8156A2CAA4AD0D7BE6B97264E4139F437CE73ADF52E5134C52B819777C18B323A5924E4F67AFD13B1CDC3A61793A79FAF5C0CEB718E441071E797C6DCCB9EFCF7E4A1E9F3DF3C2F9C9E8294E9586868788C972857FB0556D7A26941A7EEB9B580AD78EC40B85DC906B4120A563CA3B87797E
311
D612D3B035962BB75F6515A393F4CB057F564CDF54F2E5A024514E6A1F901DB80C7E70B1FC05E356A7E72FABF4775B3E3FB8F70A2A8E7B6A94542BB304157978CCC999E707A29CC795E67A59CC546A5D47B368954CA7B6E75EC9E1F6FC73CE3B4F71F8CB1A6B15923D61EAAEB14626AAA9D04A26EB9C66CD1BE86CA31A5D87
311
03DE04CD1EBCE4F5CCB62F93909AD11E55799A781A956ED27D3E738F4538CB04ADABC7DAEF20BC35BA6A90BCC1DC61BA05F20D8832FFB9BC9B15E2DB838A0AFBB7E0C82A562127E0446894F427794C3037186F622BF24DE1B00AA10A23BFA47B2A180D6DA5AD6F7326FEB8C100C2D7142EB2A0B2A9D1008A09BA343D70E054
311
AB69E2A7EDB783CBD92537FAF4A44D1296AC2792729104B3276C276C951D0CF3CF3F1E6B017720A7B8505A5FF9589365979678C36F1BAF759EAF57C60F1FF5FE9DCF5F8E764FF25A2D06CF25117A8FED51884C13B2B750DB0E4F5E3D64124FCF11F0AD8F1CC3B3DA4B38ED22BF1CB2585EE6BFEBBA63FBFD44F9537B9B37BD
311
D6B358720F98A8125AED4349CCFEB0E135F19E208A04CA7E2B10711185D72E381F448036EF57C9F874E54A971CA37A639E986AC0226DC5AA00D5B14FEA9192234B3DE617814FC221C92F33F1D392F297731B567FD98FD91D989379AF567A65B8ADF177591DB90FBEA99BF4ED11B16E50A0AB1DBF1156D034BBE04D69D08F93
311
9D8E92BF525A1DDAFF80ECBC95D8F45D3FDD289FD23F7D8B452F8EBB34EC082DEEE68E18EDDF072060FAD2AB1504DD4879BF67099FC58F6E9DEFBF645D16334A3E9A127C6F1AF6132CF287E433B43A0EE93812B4AA0B194E03EE3FF91EF9C6ED0074A2F6EB18A96A7C9890B1FCDA1F2095E944DB911ED54C60DF16FB74C8CE
311
9BDC7C54C4F14078CF73C2FFF1F1BBCCD7CF64F71407EA1683DBC410D226627F66E509060D5C0AFD611DE681D509DB8DD12FB1265B03C6F5C55FF4C30BD94187FF692B4F152982502F193098A789526A038AB529A52BC0DC4FB6285CBAC10A8B8DB75DCD9BDABBB221E27D1F8DA9F5EE5926A1C8AA9BA9BC09239C6A7F1291
311
4EA3B59EFF7AAEC3FFCCE56F1C5C2980AD072793527565E774F4631DB178CEEC691B1F367BEA0CF2907E1D6B854D527065979DDEF002D8B2ACEA7CE21AE297737EDE1D45B31233B73FEA35BCFDD0B09721FDBAF6432681F2FD10C3E9EFB246FD6E854B344ACC9D8A0EEF876A7314B49B6A499FC650B099D650DBFEC7638ADF
311
D245E2B7839DA5AC5F7D5623FC0ECEEC8653FC9B2BDD1AD4D00A566FBA7186DD3C9CD26512551637498CADB950FEC71ADB9A5524285DE328B8EC7EC75D2345AEC6A27C42AF6D9B92155315C80DBFCABBB7DA0FAE425C4FB896B15C9BFAC4FE67DF5A23D30C93DA4D8F36FB15D100050DA6062E22AEC5F4DAC4F6FEEF97AE05
311
DE63C6D38F9E068A20BC5E3B6BCD75320C5090924E7F93640A7735B1A43451C2D91EE62C6238B797349E59890AF3A520DF4A87095F3ABEC2E61F0593416CE46CDCBE0E00E2523FCCD04408588B5B6C9DB6459C786CE378770B54F51DA3A5E1DF2A3349BEAAC234A6CF8993B598B3B25B4B113E353A4D750FA7534749430F3E
311
BF2512E7EA3FD43C6AB9A1F765A58463B306721A15D224FAFE8C6F5E3432D57EE697DA0DD5A9D4866A8BCCAAA9DFF1F06047851408FEC060471D0E3EB86BFAF46E4B5E60311DC3E3CEA147C75CF971BE74689507154FF2D2E92F15CDB2B9182B11459FD8ACAC5A85F174BC94A7F4EE4C4F5CAFA7C02E37BF0BC77B7DCD0C04
311
7BC316F562A01A441AFA7931CC84A28CB9F4AA367EB515778F29BFE61195FA671F4352E5E46E3A64773F1F76EE5EB36D7BCE9BCEAD837A4D77F8DB8C92AEEF6711920D7C7D0F76B0FD0EB7AB83724CD35BCA7D36DDDF5FBB7FF6F04A91F3E2BB3B8F1A43CD659639507FF6331C5F697BCC782AE57D757A27D97F1AB9E0AEDB
311
43F92F1B2AACDF5FEC8ADBAF9F814E2027003BA2F9E144B1938A7A04050AE5D953B82C45619165C813A10E76DD6906B3C16438064D14CDA713AEC420034613E1AC7241904A49FBF87409AFB1FCB9B72FE7933A87D8FBEDACECE4EDCF6A4FE9FB94D5DEB74FAB7CFEAE17EE965DF980DCCA2D04134994F9A2E94D2265DA4FE6
311
AA7B7AC15FACAC2B5ABBCD7DFF542C5314FDAB2E1B9D8B65220B8E2B638BE008E8DCA22678C820C5053664D15E89F2D735B51A84955E81A443545E9FF787BE0FA700A76D136C27DA179A7C6E8939E01BE756E19CB292798063D8B97F44E8A27BCF3A614FEB8BE974A718E86F7EC99B53CA35FA24F61F2B07266684623A3D4C
311
F073E511F3A10A8FDAFAF0078C577F4DF9D339FE7862E5FA47CF4344209E5BF76D783B1B48E152AD281B15FCB934DCDA49CEC5706B1EE8B460F435324A5CAD154725E21AB8044B75A557A79F6C807B9340AA3D92503E866F4274412926C8C504E4D5EF8C0E68DD0B028781A6B4054F11CF18941F101C57CCC796773ABC8DED
311
9CD91FE5788806C05E548895354AEAC96546D55B0E94A59F148D061F42AA398D822CDECA4CDE79E13469BDCC44FDC990F366BA5978C15F97ED80CBFD73B0CD9B8B83A4F6845BDFBFAF034019473FB9A63BD55D3A4A7284757071574029A4D016DCCBE95DD679EF3C4880BF169422F8C89B68A988D2B13793CAED4F74DE7486
311
C72DC94DF46B8E93D8E02EFCB1FF9B3BA10C8AE7F653DF94F4AF466CDDCEF5776687F7C4C14B63E4EED1719DC2EC482D7DBCC7AE518CDE3D5FF86D39000EC3673C0044E1D308BF05F74D1B5F033A7D1BE7F74BC55BBE3E4A20F920946CA0271EB17BD2B80E5660ACB8A29A79F5E4BBA49D4D945B6EEF4A7EFEAA65E5555BBB
311
57A7E15D2F83C69F30BBB978D2B39F1F26FC097424D39BB33CA3D87ABF64E307938B685BAD44F71556A30B7E712CA4FE600613C3E554B69ADE949A7CFE214DF1FFF05CB82151EC6FC31950239F94CF7AD39DC473F6EA356E5EC2C4EFA04383CEFE985A127484366FBEE3C0EC4FEA363E4F6632AE781392FD45D67B63FB8DF7
311
0E82734F431FD3443172A0E30A83D60982D55FA6A2CF86DBA8382502ACC6CDEF3B907982EED1160E14863FA242F9757347E1544275CCDCF71ECD5F8621CBEA326B8BA884AD7F825781923E66971F04010D574C541D8427A438A37EEF8AF88240EED7362C953F5A81DE2D56109CDE2524EA0F5D2F87308C0C47BD97AD605878
311
AB8589E17CA83930CB5E0DCCD75853D68B1AB136594926DE426C367428E9334AFAFF90ECE221BB5DC9E5BB53D2CDEF954EAA9CD814F0E5725F1965DD458E5F8487683AD86B9D0076BE3EE91EB1CECC5331A67A3F79D8B27587C12EC2A6A70474749F27B4C0BBAFB94B34189E88DC18964BE4121B9137FD516C7755356E50D6
311
714E31ACD222621EBBCD1CFF81D87479056A9DA0E0B8EA19D24CF937DA89F78E8650CCBDC110AAB6C4E46DCBFD0446BA9E2060E81F314AC2031E88135E5476AC0160EF5C0DD2EEF1B8B5CB2D198BE9A554A9093B5F7D7E4B5407DDFCA1D9C152FD97F55BFFFDFE802954DFEC8995B983E28AC92F1971E28F531DC407A1280E
311
B125F64A72E617EFB27DFBCEDCDA2D6F2BDADA36873EE46B9BE1782998C63DA7182BC383FB6FD15DA472B175D7E8B4FC88F38D6E07FEAA3FA3CBB8F6B449ECF14D2175E5C5CCA3A42ABF24CA6C9395AF74535F4DDB38CB84F56614B0FD32D7E19CA5CF988DB4449C40E23DF2B16772594554579094450F56F253CD25EA7F77
311
366FB1CFE79696C428BB64D5A41E986189427E5E4D7E2DAE3D5BB4972B3DC44EAABDDDD63A2264ECFA5C786EB0EE1FDC5BE34FA0F08376869FD1E61EA06CAE15191135445EE8F0394161C3266A596AA035572BB0C8876180D8B9C77D307DF9DCDF7365ABDA6F3A2366436457A4DFC1F259666569A9E4A79C817BDD5610E520
311
0FCE894A358EC72858D50EF67545DA81C6FACE3D457BAF70367E1E6BDD9A952FB4F56247F58F523B97E640246051A72F79BE42FFA0B3187F63097F91C48B868586F714B0EBD5A00A8412C1236E1298F60C72BE6C96B82B404CADAA304AE9F303176B14BA53FBC2D5E86377E35542019E24D97B96A49B2C0E5006E7795954DE
311
AF5DA58958839043C6C70BD3B1B33B6DC5C31316D8A6923F142E26F6711A2258AF977DDF1F970ECC4F1F2B434B96D81BEB6E89BF3BBB3C7C8CC80505070723D6D7D7D3C8CA27CA164A26024FED94B12A86031867241DA53D929636DA600F050BC40CE48B8BA03D69224720DEE2ED2127390BDF5E6EA64527BBD4C4C63FA76B
311
B801FEEC0E61218EC98A8A86CD8313781617877E66692839B9468CF4DB8E50A73986E558E309C0D6F676F921BE02F1185454DC75B111572FF9D27D85EA14C05AD7271225B391C4275659CA4A43759D0BA44639BE4C30A84DB7F67A41399FB95CBF923B1B1672ABC807C1590557FB18D811983FA97F5E609516D62281D38B12
311
81F68FC75528C35E4CD7DF0F7DBB5E5DD69C414EBEA2F4A5B241B996BA77AE6C772E367408C633EA3E438B68563EA8BE7667F3A4C4FDEEA52ABD78A2820F443B7914A15F180018D231E64519C56A12F6CA7C8DAE18F06F6B769DBF92329EF6A5D18FBCE600F36BD8E8198DE5CDAA96181F3A756EBA5501CEE58F497EA4F418
311
A2B82565B9BCC611713C0B708CCA1F398B78C5F7D03B3437CC18F13061F55C7BEDADD5ACB1DB0E36D3CE47FF6EA1A563A57E9649EA5D14D1A50EAA457463381C073777EF1600607BAF6428A7DDC079D47A204EF1E1F1F0589FB054D45E02CE623B3823C317C601E589E22B1E88B448524B86A82828E32345EC18AE17214B42
311
F8C41C6D428016D9BA31DDCB47572561E5A402E5BA4FCE55F78AF7268524AA04130F3A20BA5D1E9F9948EA48FC8F5314FDB35E21898198060034ACE5E3E2BBCA34092518F275190AF65F45867FF0900AA4B81F25427414C372BF51DC29AA855C5428EE1EEDD6B849AD60F6E73475C2D2523F8A2772C840A478DED18A8C5C91
311
B085F255DC4F54EA7AA8947354FD17ECF8FB3B4A0DE7B483CAF3A1165EE05BBA413E5C1FEF3DE1D6B8F2F3F3251C17D9FCAB48A9AAF63AC773A0E413BBC46A9ADF84A566FC920E4D8C52C9769EE3301CADEEEDD92B312E02E2A7E35B7F1E7D203FE5A7D75578B06E99D0E46FFADB8FDA17ED8880390DA29094202D6F645F76
311
F6F96409CDA05495A96E84B04A00D1A6C6C81D7F3DE9376E828CCF144EE50E364ACCE7237EA0BFB5607ED1AC3CFE73794E5B61739D14DF1743441B1AC98F00ECEDE9E7301FA29755FBEFA68C91EF2B314CF510537EF1ABFC9A762496280B546F5EDAAF8A5B387D469FC9A878A92828C88608453ACEC6094DCA54111E7AD5B2
311
663DFE2DD151B7F123B9F4FEF8EE36AB125FD7AD52A59B1B765B3E3F73E3F73DEA93875004D2AFFE3CDE9493B87A9904DD052028949041A91DC0E1BA47BA714343FD5B25E0A6A09503AFC17C790058A836A324FE31D7893512E28230332F153181C1E018E1124EBE1BA262AA428A518237D1EA7275E48C5C561BD19ED6912E
311
DD8367DA0F31E40EEAE9683DA9257525AEA7B632B97119E17145A90231768A4F3B9120FF32E8319B015E3CBE26F1A754177D8185345817C096B0CE443A955D13AC15E1FB5DEEA0239EC32A3C92241A237B0B02FFCB4F93CF2B02570C8D192E2F2A68CEEB42F12E6F8CEEFF46C251E22B4341C56FB08CCE550E7A9D6F4D6564
311
B9EA52A83D5BF2C6E03FA19D2775E15A8A7ACF30A13C259EE7F5EF2AC3BA354F1500E1A07FC63FB4686E2F12EC69719F9ECF5FE3F35598DF2CE944008CE78F0911BA5BE5D0A34E0098FF038669C26030BA9B300303039852A8F6F496341737CA7E0D2E3AAA36DE0A70AA7D9CA0D54D9AD84B18A44C9E625475E1C97B93BEBB
311
38DCE7D227E67A2D00F531436136355F243D1FC0D712C5765754FA22FCFFAE97919161F46D6E61ACB37D83777B385889770B50765B127768443A5C4D3A4E35A3151111F146B7CA116F918A049F1C272F2CD7976C69A0068773451659A97E0F4A08FE604C3FF6CE7385DB19F4D3ABC8A0D80DA8A42096AC377DB49382B36E27
311
0B6FA7570188B4B7D1DDDDA82ACA487CCA5D38BD3BD039ADBAFA4ACFF27809239B722081E2EB9F145320553D183F28471C388BC8814E5045676767AB58A8E72D1CED2CA731379515D2E533E4CF0B39DFC625F97AC4836831A4DE330E87A8126FA17EBE583D614E71E22A8DBF2825599743E0640037303E8E1B1E8EA4E1ABFA
311
4F62907B5E4E0E5DCFDAB417C36C6848A2B8D15F1E505434C0707E16B1CFC2A1C36A42BBF55734F8F4301DDC2A5110CEE8C0747F69519265012A2174BF4E955ECD4FDE095A3ABC70536B7AD0B9D7892F81287D667C108703C9B66A221E9A0929D030008F77FF6F5D2108EF5706FC87A3069B976F7C9FC3239D13D283CDEA83
311
597461079FEEE049B0F392889898B7D87D31F8D60ED7B56B91823A8E4EDDB36C6172ECEE42BD42B12CD67994FA0F0DFAE9389356F4CD4425A4B8AA55CBF7ECD585C6A2C2316791E43D5C06841ADBB226A87FD61515FFBB0167B74E56BD7F3E90A57A97FEDCBDF483A0D6699A8C0849CAEB4947FAA90D8E332D9DEBD9F4738C
311
37DA0CAF9CF3DAA68BCB67C420459C7A64498D6E848E5CADE92BB6901F607AA331104A67F7CD650EE169B1DAE94D2C31C2F993632259B6957E246EFE4C5481107B07118607700040E5812A2A2A38DA0076875258C753F60E0F2662C748EDD5F3F3686B8FC3BD6FE631ECCAA1E8B1C1E565AD117E54893E79F4672E32F9E46B
311
2A183DFDCF3EECB4D4D077DBEA0DA254D256045109670050129E9B9B1A9E4A11344D61497A992778095151510C4BB7EF2009B63AA4360635312E4CF668B7E0D3D85A8688E2BD83B569439892ADB63461930D428E0DE42E4AC57CE48DA5CC1449530D8BD3D6A0F08DF20C8E8F570F2CFFFCEA286E30969B4654D498A58D9DA7
311
82E19FE3F002181838925592C4A1EF0B332D88B61A92C644547BED490D3A42CFFAB70E36D961F694F6307F72FF15A1C79D5B1B5CEFD353D9E2B52566DEC8F8F09CB3E8359C0F68EBBB7898243E34E12A015B2685AB303C04D3A9E00671FF3DFF0A184E4A2ABEB2B666AF5B3A209C73D8EF29DCDB069C9F391EEE9DD0F74C7B
311
CDE16F8F02E3B8816122BBEB50665775B600549D8BB33A54A6BF940C028118BC6878C79958D6784F9DEAA6E26748386FFAF8D0D0101E2847B6563F5D8DC1D78F787BE00E2C941AE12148D4A81599FE8F68D4DA5CDED75530ADE138240300EE13B0FC13A1687FED6774662C05A2B7DFB186732F0D7A93545D8B0A6390AE5054
311
D9CB582DA846D7A061B3358B45E2B52DDE63E114397EDB7E09233A579155D795BE76102CF277F4DF8B188C4F2879BEAE3C08347124BF9ED23B128259FE107D31E34A652F090B30B39E0D9AF917B76A2806135621A8A60681F16AF216514BBD02711585B5B1AE823F4B2D0369EA5B6BCB863072727FFC871CA6C9AB79A814D9
311
89057E9470A3D238BC87CBB4A0EA49AFE2B86F22E499793CAA9047080450166BDC357524561E258C77CB697F1ABB32562CF87C3B7AA12F911EF19FB3E5C02222E887D08202A60A17151F5E053A86B437771088B4FEE14D652C43E8D939995D34545E12E2FF93D4E366EAD25F10CB7DED141563C3D0C447AF06078A91135FD4
311
B9611583CB4BF3BD167F2399CEAB0E0100F8FFC305F00F1711717173138B4B48C83022295DE657EFEDD97F238ECA80F528AFB4F8D67AD4E2594B9A3AA86D7487EFC313BA95745C186F0CDD84CC12DC9CB0424B42203D351FD9C0A3AF10CC7F388E0329279087386421F194F4A29464C1DEF7EF8BE515E4A199DCD5B9093425
311
98D8FE6A231F71336248D5CEC5454455C7BE383B3BC7B260FED27F703FDC39A170F3827239102F59D4DEE7FEF82EAA1A5E4BA94DCC4CC44E7E2EDE20F24244E4454369D2E87C3F823F193FD4FD27E1C23984B01898D15ABC20711A8A558054951A6AE280096BA36CBA439603B7B0B4C45F248C14B2383B4B5CD8ECECE4FF85
311
9AD4A6CA2326D020EF090F4041D28DB66E5256B56232CC52829DE8060BAE6BBF37D4B7469B822454FE93210A3E8D15E69FFCF01123222611C51C4FD0A041A0CFA2471CF6BE38D2B20FA4C3525B5B8B586759475CF80ADFE67A284AC24651E52B8E683D24C2622642F27E7C3C22783BCF63648BC398BD6CD0D9C97E7E7E3EAC
311
B6126DB7A6C1FD9F1031302EE67ED96F22B77C7CA0239BB324207559B105E4693EB26EC46182A92C9C0DBD24F29B31C5C5AC1F84300E0E17CEEAC15F5736FA4A98971E2F1423BFCD68D4BBD5F86E74B40A369F39507C88FCDB35D2DD8DEBEA4AF999E23CF2816D204200DF6E611781B9884C1AC8888B4DE397320472959434
311
323A5A36B22A8E1F721A270DF3BD65E4A31C11FF048AFB0D8B7B6881423793963A23CFCE935FC189ED36FAE35C46DA3574C979E4394BE52084F3081837BE033396D2EBD80F1F691B273F660D2B32FA27A33B1DE4ADA5F0FA4651511102DFA410DDA86E065272CA314D5249DF91B06BB92807B28EFD54F08F7B525252782CD2
311
76DD02E6B0319B13DF87B1F6361AD6B28FC0D711CF445429B9E5A433CD493051C49A9E03DDB1B147D880253514A5DED88009018620EE229101C041950E2D8AA8E1F5F5438E0C0C0C60EEDEE9E3E0C051948C69F84BB7B2A48A1F3C8EB9E6864687F4F4F6F6E2FA87608ADAF9C5E117B7C1A737E710769DA1D15ECE6A84502A
311
A855398712D5FB51BE92E4EF824969CE18278798AC303C2C7980DD2500ADF8FB1E6D6C2FAAFF9987178923334A244758BAA01A9A1B70FA5097D01E1CC2A58DAD0EC94CE6430AA9B0C10D75E3C6BAC670EFBADEE1607739CE0FC18A2587E3EC3058562014C64219C69BC269082D5C2F4A659278D585755912176D78A1B64171
311
9C2A394CED495A1AC5D583FD2F5EDD93308EA7EAE8A6DD396598BDBD3D4CFED62D18A5BDFDE0DD5C80D1A89BA62697B131AE7CE9A6594138582F1B37D68F1749AC7CB67A70695D48A4A056AC1FBD4E82358CEAE38F54B95A9016F9000F9879C0D9D131768635CA798895F27D6F1614F11F2838A83611AA51C9A3DDB539D429
311
79C29F10465655C17BEC3E2760B80DCBF609198C7B171A531905F3EC218D696025975E986C6B4C666666787271F202805577DD5A3EF0CAFAF91B62DC4B2DB4217A7606282F31D8DDBC290593BAA93EA6353AFA9939B877978481E15CFC9F2755CDC00C538F63A4BA3E80AE009B73CA0185687D339A507D165B74290D6EE46D
311
5C58148F020C3668ABE9EF2F7549170DC80DB41FFC1D678FF19AEB10C7133832B104B80F691B3138F97A92D26E551F1F110400D45AC71A9B9AC41A1A1B1DAEED0B0810638EFFB511D46B121C6FEA0F38CD00E03CFFEB9713FE1F9C263E4DDEC160D0497FA9A132BA608584057FB15380825DE6C7FC3C667EE947D488A09898
311
D8E939C4953BF4EC9836344D2CC6B2971B2A21A572B06096F4982D2CC7232D46E8EA69DC83722E267754D777F97F96D5DA74E1E75178084D0E70F12AD33E5F71EF2AFA599B2BEBF60A5BE475F444F240CBFE8143C334E7ED9150FEEFEF7EB020C4DBED388DD1D6A167A76F3CBF119B578AE8CFA7736ACAFA4440A1C4718563
311
8A0D2F3EB5BDDEFDA958FB13CE4AA4923D5BF840392D45544329525749734866684BF7F8D9D54D892E19BCA9F829A0F8BFCBEEA6CFDFC61D74EA1A645ED7A1FF241739F15694BD835B66FEC5677E40FE69BD3F91AE402F036537218A401CB0828604AD189E575015C6F3F6BBC8AC79CF6C70653847254B31551EFCBEB5978B
311
9DB85D58D0FA41A9DFE9C624834AA04949D24B5AE6D299E072D152D12097920F14AA92C31C3B97E28B6C2E6E9C23D63043ECBBC0A60FDF5BD0C33C127EA8A3308B8B6AFFEB28B4455BF6E7AF4FC6222728357EB8E46E85053E6A8843AB23295BF838ABDA94658FEF3F832F147046B4ACD6F7D48E8FCC9618582961C898D1C7
311
A253C91BFECBDA6BA18A1FCF70755DCCEE2222F41B76D23CA98D0CB3D95F0CF66D57FFF65E2A90F5DF40FC3187621E981BD0BC1D992787212688976B94A8F0C6EF646624B570B78E068826F87CE27041A95C9A4871FF65CC17FCB1639629AD6A9517000D63AC231F3D741CB8430777E7ECF80CE7A3F73C0F162F7E56AA71F4
311
DA80A33CD6ACEE78E2C11FAC03DAFCE929B106F8F6B3ED2DC71FF994BD9CEF4E9A94896EF1B6E2B7B4978168BCF0847A3D2A4F1B0500B926E634B174548E9FBAD27153FB5FC36799B1E6C7C38A94E1F9E996796D7B485E635D5287A2AE76FBD11A341DB3F8F810385BB7296391973DC6C37C452A9305AEBBE0CDB6C566DB59
311
FE60C8E94B1FD090354BF51439FFD1B48D725228FFA88C84F686F547107A7A235665A4593B7C34D748C1AC8D56DD5DA861EEFBADDECBBD65117E65851F90351AEB65F0EFCFF4BCFEF24CB7A5879699FAC437A7AF9099186CF006BB923A59E37D7A36A29FD8D2CBB914A5E9D0A8FD212FBF796AE9A67958FF1D5D8B85F78F96
311
219D4714EB919929241B6C018AAE0C02069F8D919961EC5DDFBFB7573E3AC8E08BFB7C8534BE6DE045B3CD63DBD71F7638BA2309CAE398EA3A7D8F98BBBC7AEB367EFA5CFA27A9F8F2F52FE878058E6209C026453F8E7E8A237DFC389E9590F6059B397CFD65183BBF936E86896612A5B5FEE49DAC8455D026218AFEBEC12B
311
3523A45B57B82C9C97E02ACFA1184DB18E48CF615DBF39C3CC6F0B4AE6BBEEA2E39D944E290302FA3DE33FA7E40296E2EF7BF1CD855BBECFAD0FD622BEE9746FC4FDFDE545AE6E3BC234CADF83A0FB76DFB145BF3828AE3436368AC24989454F8FF70A177672C711CAA1A76107218CF948CA01F873520E7A2B118EBB161ABA
311
D432932029628B6761590C98AB590C8C8C79798CE9F715BA696E839E9131A4BB68BE923F1747FBFF165331FFDD4D05997ACD168F12CA75348DAC04C7F509FE83898A8B421181AF492861CE81E4A2DD0A30850CFA95E05F097FF70F9E777310D584A75BA7018922E271DAB1D785671157685B7D383D3E074DDB4F1E44EF04B0
311
7BAAC75A062077C54B9752C738C9D804D402E02851F3F89605AF189738C18C021D2139EAF72513824E10DDD3047BACC8521ED7E98B257D1166903B1B08FA6F918FD7E162913FEC7D0EF4787E29C35FBA8C6E2C9C20E9AB30AE42CA2A01A090E7D010C1B5BF9CEE2A304BF3A987FB40D836979B79E18D70F257DA61E808472D
311
D85B82761825779D6B90CAEB0F23360C6F80A7D7D77545E95B3DFF0CF96A827F9B5BCECD2C9698718417EF80FEEDEE938AFF55859D0D540B7FE09435583A6F04874A0C7E8CF234DF4879722000167F5872CEC6BF3EF7E5A8CC8121E6A359227C8A29C95212F9F735BC72A887D56B8F309FC525BFB4FD767AAEC4AEFF249CFB
311
BD2DE1AB9969A6155C7D8DABC307E47324C1F916C7BCFF40ABA5644E9FFB9238D19ADADA49D9610F01ABBA57E4DFCBDCCBB2B93C8953206C91DE01B0E2651A6D6C31721915B31F7B7CBCE55466F6D70402788FA91D73BE4ADCBA99A35F17D6B83383704917D6833F0FA3CD45C926ADB8BC17999A4A0AFBCE2541F7B8CF4C2F
311
5FBA611B3E626D64407CB32C122DFF4EF8674D6EDBB86C8F7C6A16D50FA685E2CCA34F8F7D1D8265BB0042E9D7F1F666F7BE5FAA5184DF58E12122A42EF02F461B3F369AC746F96528AD208512AB56844CF75B97F352DF7995024FB02855385854F3798670D01CAC771AC3E1889EC25F61A20C1F8CAB46898817F9C47E2CDA
311
1F286BF2F358298709FE567C91133E2638C8B53975E753EA8BFD3578B5F7186B7BF084EBA3F77BAC3132A5779902EC22AF2D2E79F42D324E083386DAEE9810D1B44A5DAA54513C7A71E52A4AB9257D975B621308FE4D2141CC3DCFE946C154A3C1DFCCA7629EC69ACFA831634ADDA93C0388D2A9A2DDAFCF957C6995BCE7FB
311
B6DC4EBAE79E63EB08E9A25F52F67076F7093CA545CA3053B5BF576DEAD4E0017143C5F759F32B2D6F145B52B67B48909B7C7FCA6586EE385A2189C16932CB6DDFD9152AE317C430492A578ED27B72D85D40C7C93C097939E1B50F4D67F05334FE9DC362C30B7FF561B95259138ECFD9274C8D695C31B14D4EAA9F3D7FA8DD
311
F652F8C5DEFA23284C799B7D94416DEE81E05A866302DC70192A5368EA65E1CED8BF107A1E2D3119A71E85DC1A7B0C1E93274CE04DD0F2ABC8AC7C987FDB002B6F81757B43502EF7A0D92E416494FAEEA4C9C090CD9557AA4D532F4996A272B94355C5A0E4974EEA9627476F30809B94D8D8D860062E02204643BEC7D0438A
311
F800FC7E2B26955D595421E83C69E1A07E0E3122285835F014AD538188CF9737CE76D464A353FA55A001AB2526B84E985083693BC76FE211CA1D000679C889E3C009832C87E1AC2EDD05C302557422DF0800E316FCAC86978A371F025A6C7DAA9F333E7BD160403A1A06EA75AA9888FF01504B0304140006080800DD565B4B
311
28BB58AF800100009E0500003D00000044383233334644342D353935322D343136422D414538392D4644383632423342383231342F536368656D61732F436F6D6D6F6E536368656D612E786D6CBD544D4FC23018BEFB2B96DE15493C78601010A34B880709DEDFB52FD0D8B54BD70DF6EFED3AC0B12E6442E2716BFB3CEFF3
311
D18E26FB440405EA8C2B1992E1C323095052C5B8DC842437EBFB673219DF8DA659866649B798C078B48AE6410122242F2A4994AC7F93815DF85C049C8564CA0A901499DD886B2EB9B1E02448F358701A9235880C49A0119892A20C89D1B9FD768815CAD268CB5E0355B40B1E47F3E37A2020464BED06AA57CE8FCC20C3C344
311
6D46761A2632A8C1283D07031EFF2AE7CCB1BFEEE916E406DFAC8E36FFD99A9D60A6944090EEDC3B670C7DC13DE86B6B2C5C240D6E503BB85ACD579D513F1B9F9A69DC9CC22AFA80C426D40AF0B21EA168559156B6276F0F726A6BFF04DCD513A87A62CAD41FB24FCB2858B3952E3D852084DA25B9303C15687973CC8E8AAE
311
11DF2836C38C6A9E765E8C1BA1BFB1DC29CDFE518C8B5A7655A4ED7E77291ABEB80DBD82EC866ADE1B8D05AF9E35CF09D7A061F38A986D9EC412B8F0F65E5D81534D9B231D1E5A8FE577A241F3A5FD01504B0304140006080800DD565B4B2CCEBD668A040000E01200003E00000044383233334644342D353935322D343136
311
422D414538392D4644383632423342383231342F536368656D61732F47656E65726963536368656D612E786D6CD5586D6FDB380CFE7EBF42F0F7A649B70E1B90744856B4970F450FCD7A5F05459613EDE4174872DADCAF3F522F8ED3B88D2F1D06AC4050DBA2493EE4438AF2F8EB73AEC8466823CB62928C06C384888297A9
311
2C5693A4B6D9D9E7E4EBD51FE3A931C22EF85AE4EC6AFC38BF261BA626C9AD288496DC3F4FCEAFC63366845F7A10452AF41DB320C0D44EC26EAB20918735565582695670811A6A49643A49A6E9069FA4604A64B29016DC4B48552F95E4932463CA888468C1D2B250DB4962750DF7CE273069CE8363F1FF4EDB00E0A2199957
311
4AE4A2B00C353B93F3BD4777B8A61ED8F604ABFEDD79CE56A2B7BDFBDBC50996E0ADDE16FED26223C5D30956C29BDF4A55EA686E5E58B112DA45CE67F76F4FA27EFA3FB672FD7372FC388FAECDCA5209E693CAD167BADCD272F943701B3812F8A3D852008B1D2E32DB927B2F833C6EA95879925356D254582695095A3CE982
311
924720BE5774A3CB9CDCDB350427D2DF20DA1B5532EBE2D5D6288D75D4F7E4FD9890A0EF8E3D93EBB8F8BA4758158EF6FB90A6F9520281C93DE7AAC6D24607DA296BB96018123F821A7D6A5C5884050C475DA4865442732C8B95684A50165CBB3A32F25F783A4A480ED59AD7F924B968AEA50131F46303223E6A397B0E5297
311
6030DC1DCA81D7E7C1EDEEA42C19FF27635C505E2BD5198A599020DF50A2330FCB3AAF28CB0124108429553EF1B228802E2265D8F7CC2401042B155BCC7070F1E5C55F13B4A9577362CCCE46C32174E010C3C378C44841A4BDA00FE3A12006CE11EE6AEC59894D3526DDE1CD59D503ECC324017F8061B7F162162FA62EDD81
311
AE3308617770796DCBDAD2B2625C5AE8A63DE20B2C8AA5E95E76E5730823955956E33E705425A2187C185D36489A1B44D3DCEC2172F6BA2105C3546287A7194B2331768EBBE64F6E70A9930ABE0ADEA89E9E2C38523B810287AD67A54A039C1606EAFE68F8304610BB9093DBDDABC0B2AE4E290DCDA15376D7E39F72B556F0
311
B32EAB5D3D498B4C41ABADEC3A1434C422D87E8025A84BDCB2B1417ED750FAE4DA8976863974C577C7F902D3F156AD354DEA3540DE6BEAE2BEA52F7A2EB4CA43802ECE5BF2CE2EDC9347179FFB023CE412E60BE16DA0BE29B374988A553F561DC04615DD35F7D2C8979F60E5955CE93DF29DED8AFA1EE6642D53418086C03C
311
47C377910F75F7E8F5EF665F70B60FFB22AEDF897D119E8423C773E819A3C1E55E550599EE6EDCA34D0C86FD72057DF2CD46F16A470682471C164E4346D5306BF12D7D12D82CFF673D41636C347443FEB51B50D72EA171A8E4A58623A4A16E0FA2B8B10A0D23268D87C33896EE8FB73305A74BF224EDBADFA0BD674AB354D6
311
3DB7BD5D83426761C077DE767728235446A552754EB93B755891C3C4CC6CADE37CF0E912A7BB38DBA010F9DE1282EDF470CA69A9CDA482E334C4A6EA4107987980B17E72F31730EBF88BBD39E7C629F56797A3C0009C2C5AE7951D9A05A02773440F02EEB4DE396A3B6A570C72CCFBCD823B0B8ED3F1D5CEDDFED772FA7023
311
6C83FB7D86C385D570B87107535572A60A96035F8F7C6A7192F13007246BBE0521855E6AC46F3E27689CEE7D186A6FD679D98CDCAD13333E04EBE7ED6F55FF01504B0304140006080800DD565B4B6180134D5F0100006B0300004500000044383233334644342D353935322D343136422D414538392D464438363242334238
311
3231342F536368656D61732F52656E6465724D6174657269616C536368656D612E786D6CA5934D6FC2300C86EFFB1551EEE343DBA41D1A103009551ADAD40EAE28A4A68D9426284961FCFBE5A340113B2071746D3F765EBF4DC6BFB5407BD0862B49F0B037C0082453059725C18DDD3EBFE3F1E829991803366715D474942C
311
D30FB4A782E00C64017A412D684E454CE3FE28995203B162A6EA5AC94B66997D225E109CD63B0135484BAD1B3C07E9080CA35DB3119C11BCA5C200461A68A1A438126C75E3E230D40FF81FB3F03C91D1E3A3A0AF79FE28E25BC39EC3E17E4C2A2D94A0833A51AF55BCCA7D88572FCBAC529C4140B020FC3AAFA886621DCED7
311
EAD7664CC86024E806DC297DA1BB393E4156543457A4537DB8817349A70F8ACBF09B3EEE2CB2F33E91B65D60786E4E3B39B77E3FEEEF5650424525DA657FB8B46BE6BF064646F0A0F7327C0BC1BC1B4CBBC1C419FA3CCB23500007872A2580CAAE5461865565294E4EDB4617B62FF579DF9A5B2F54E834076A597573A02091
311
2FED777F9B3F504B0304140006080800DD565B4B6C9F47AB51000000570000004700000044383233334644342D353935322D343136422D414538392D4644383632423342383231342F4173736574446174612F41737365745461626C654F66436F6E74656E74732E62696E536160603034777433B53432D735747136D13571
311
3633D275747275D4353630757334757336B274331002AACB4D2C492DCA4CCC492C28484D2C4ACC4B4E050A82012F90744FCD03CA26072767A4E6260200504B0304140006080800DD565B4BF865834058000000680000004500000044383233334644342D353935322D343136422D414538392D464438363242334238323134
311
2F4173736574446174612F53747265616D56657273696F6E5461626C652E696E66558CBD0A80300C06F73E4B117FB66E451741D041DC5BF98480A492E4FDD18EAEC7DD4555D89EF28DF51A0B1BD8340C4DE7DD848B988C0ACF0649566493F2408C508DDEBB99D5129FF8F1AF8CF5B9503E20FAE5A16B5AF702504B03041400
311
06080800DD565B4BC1909C6F350100009A0400003600000044383233334644342D353935322D343136422D414538392D4644383632423342383231342F4173736574446174612F636E782E786D6CCD94314FC3301085FF4AE43D765251152AC71582A51348540C6C57E752AC3A76645F10FC7BEC3403A888A943D7F3BBF3F3
311
27BF939BCFDE161F18A2F1AE6135AF58814EFBD6B843C346EACA5B566C940CDED30F192B1CF4D8B05C664A1E821F87B9D46207A3CD556BDC712EDEC788B483BDC5A7EEC13B42479115DA428C0D8BFA1D7BE030926F311E790B04BCE601A31F83C634894C8FF3241D10085BA61655BD2AEBAA5CAC7675B55EDEAC97776F5264
311
A5927BEFEDAC37E9B2E087429F6E65AA92221F2B3906336BF25B98FACB23DF1B2745522A1929242673077D0DA90386C11A0D94D009AF09A94C22845E8A9358499119FC22F1889D7126B76C9331201F9E933D0C64F0EA88FCE7F5F264B62E12388DD7CBE3DCE1E529BC4C3FE8F514C82931D796937387DCB8EE022911D31A49
311
A1C95B457D03504B0304140006080800DD565B4B1BEEAA8AE40000005E0100006700000044383233334644342D353935322D343136422D414538392D4644383632423342383231342F5265736F75726365732F31374146353932372D314443342D344336322D414245412D3330354641354643323946302F7468756D626E61
311
696C2F302F636E782E786D6C4D90C16E03210C447F05F9BECB6ED4286DC4929FE829978AB2CE1685C5084CD4FE7DA1E59093AD9927CB33EAF2BD7BF1C0941D8505E6710281C1D2EAC2B640E1DBF00AE2A25522E2270C44303B2ED064D06A4B54629756BC99E29BEA5DB87771C380C9D98F183610D69B9C17C8F60B77339AC2
311
B462BE8FAB6133CE63C24C2559AC07D8EDD80FD8848671057D98E6D3304FC3E1F43E4FE7E3CBF9F87655B2915A7D12F9CEBBC098280A4B7509F59B49C9666B5592EB4C8B00FAE93525ABA955E654D377887F62854C8CDE59C3B524499691870AA1D995FC87B5922D6D1D7F55D4D99AD1BF504B0304140006080800DD565B4B
311
A233C2345D000000800000006500000044383233334644342D353935322D343136422D414538392D4644383632423342383231342F5265736F75726365732F31374146353932372D314443342D344336322D414245412D3330354641354643323946302F7468756D626E61696C2F636E782E786D6C4D8B490E80201004BF42
311
E6EE76F3C0F216234B883063108CCF170C074F95AE5473F5C4C06E932E4F28601967600677D21E9D8092EDB002539227A2FCCB80E1168D80A6417297A89C5D6963B7129A0D1E8F2EE73AA7B62BBEB8B27DE50B504B0304140006080800DD565B4BBE89762363000000880000005B00000044383233334644342D353935322D
311
343136422D414538392D4644383632423342383231342F5265736F75726365732F31374146353932372D314443342D344336322D414245412D3330354641354643323946302F636E782E786D6C4DCC3B0E80201004D0AB90EDFD75167CCE820A4A845D83603CBE602CAC26799919AEEEE0D965E2E908050C6D0FCCE04C8BC3
311
55404EB6198129C92351FAD580A10E464065907C8D948F8F166375F655BDC3FDC3B4E530A176BE7057BDC43B2A593FE403504B0304140006080800DD565B4B43DF2B3E7F000000A30000003600000044383233334644342D353935322D343136422D414538392D4644383632423342383231342F5265736F75726365732F63
311
6E782E786D6C4D8CD10E822018465F85FDF71490646E80238AF77089CE89D0485B8F1F342FBAFAB6B3EF1CD17E168FDE2EBDA61824D00301E4C223F65318256CEB802F805A25528CEBDF0D50E81627A16050624C717BEEA87743B7F942FD14E61DD25A5BDEB01AD39BA97065CE0CEBEB5DE313E156736B586349368E45C9F3
311
EBE52D79F505504B0304140006080800DD565B4B78F4BC85080100004F0300003400000044383233334644342D353935322D343136422D414538392D4644383632423342383231342F536368656D61732F636E782E786D6CCD933F4F432114C5BF0A612FBCD7D8541B1E1D1C9C5CD4C90DE1B69202F7853F46BFBDF0646813
311
371DBAC1E11772CEE122F69FDE910F88C96298E8C8064A206834361C275AF261754BC95E8A8898CF304A82F230D12653298E11CBDC250307555C539D0DA72EDEA3F7189EF53B784589762AA589A665CB54C968209D985159B191454858A2867A43B61EFA0D3A82CA60A85C0FE376350EABF5F6651C769B9BDDE6EE55F0464A
311
F186E83A6F43868833D15817A1DA19046FC75294683BD3325079EE8DD53604AF841429C7DA4127F3D75C4935CFCE6A956B557C017F1829788B7A11F8010244ABAF33F185B97F8BFC04C1407CACAF14AD72D799FC378F7F2B802FB35F47A07D05F90D504B0304140006080800DD565B4BE3603EBE7A000000C20000002C0000
311
0044383233334644342D353935322D343136422D414538392D4644383632423342383231342F636E782E786D6C6DCD410EC2201085E1AB90D9DBEACE05D09878023D01A1D34A8419C380F1F82DA68B9AB8FDFEC93C3D7C52546FCC12980C9CBA232824CF63A0D9402DD3E10C6AB03A3397DD192872090D3406ABE7CCF5B5D1
311
8893ABB1690CF4DCF02282E5EA8A5BB96FFE536F285CB347F95BEFFE81C9ED5AFF9D5B1FB575BB00504B0304140006080800DD565B4B7BAE64D77F000000A300000007000000636E782E786D6C4D8CDF0AC2201C465F457EF756FED970A08EC4F61EA3B9216D1A36A3C74F63175D7D70F8CE91FD675BD1DBA5978F4101395D
311
00B9708F930F8B82BCCF5800EAB54C31EE7F374061DC9C828A41CB25C5FC3CD0E4E631AF95AE3E3C0E6805656CB01C375D433127ADC1D79BE8F060454B0D3382125E8C7355CAFC7A656B5E7F01504B0304140006080800DD565B4BCA1DF9C9A900000073010000130000005B436F6E74656E745F54797065735D2E786D6CA5
311
90410EC2300C04BF12E5DEBA70400835E500FC800F84E0B411AD13252E2ABF27A55740421CEDDDD9B55CEFA7A117778CC979527255565220197F75D42A39B22DB652EC9BFAFC089844F65252B2630E3B80643A1C742A7D40CA8AF571D09CC7D842D0E6A65B8475556DC07862242E78CE904D7D44ABC79EC569CAEBA537E352
311
1C16DF5CA5A40EA17746733E0B6615DE7217475F386F18B9481C510F1F021CD9FF027EA0E1F5C4E609504B0304140006080800DD565B4B3DEE336E64000000790000001B0000006175746F6465736B2D64657369676E2D7061636B6167652E786D6C35CBC10E83200C00D05F21DCA56CA76D41FC96062B120735B69A7DBE26
311
8BB7777961F8D5AF396893C2ADB70FE7ADA196782C2DF776D7A97B5933C430F15651E5469C55D70F80A4992A3ADC954792C525AE70A1E4D6AD9816CC044FEFDF01FE3FDE907802504B0304140006080800DD565B4BA2C2EE18F9000000960100003700000044383233334644342D353935322D343136422D414538392D4644
311
383632423342383231342F4173736574446174612F636F72652E786D6C8550CB6E833010FC15B477830D0442641C254DFEA0A7DE2CDB2156828DFCA8FAF9B50395DA534FBB9A9D99DD1D7AFC9A9FC5A7725E5B3302293114CA082BB5994688E186F6501C1975D6865F34280C9FD5081906462767E3B241C29AA04C468D956A
311
03B9F72A40219EA919C18BBB9A79C963480CFF28172E1E7C522529571EA3316AB949B54C6EFAA695035693BE6EC87E40DDE9DAA3F68C07B43F771D7A6B870637FD7069DB2BADB298D1A0E79FEDC2291E944C7A4C7A4430AAFB77820FBBF6B01B3E6895998CFAE0D2CFDBD2FC1DB053BEFAC203A7D53AFDE31A17F9BF6BD426
311
34F5E6BA2A3C30928E7C0D18AD724AA9BC224C3527CABE01504B0304140006080800DD565B4BA10EA5CDF30000008E0100006800000044383233334644342D353935322D343136422D414538392D4644383632423342383231342F5265736F75726365732F31374146353932372D314443342D344336322D414245412D3330
311
354641354643323946302F7468756D626E61696C2F302F636F72652E786D6C8550CB6EC32010FC156BEFD8603B7E4498A869F3073DF58680382831583CAA7E7E2176A5F6D4D3AE66676677879EBE9647F1A99CD7D64C404A0C8532C24A6DE60962B8A2018A13A3CEDAF08B0685E18B9A20C3C0E8EC6C5C7748581394C9A8B1
311
52ED20F75E0528C42335137871530B2F790C89E1EFE5CAC59DCFAA24E5C66334462D77A996C94D5FB572C06AD2D70D1946D4BD5C7AD49EF1888673D7A1D7766C70D38F6F6D7BA15516331AF4F2B35D38C58392498F498F084675FF4EF0F1D01E0FE307AD3293511F5CFA795F9ABF038669B5A17FDCE22AFF778BDA84A6DEDD
311
36850746D271CF01A3554E27956774A9E624D937504B0304140006080800DD565B4BC20CDF1AFA000000960100006600000044383233334644342D353935322D343136422D414538392D4644383632423342383231342F5265736F75726365732F31374146353932372D314443342D344336322D414245412D333035464135
311
4643323946302F7468756D626E61696C2F636F72652E786D6C8550CB6E833010FC15B477830D8447641C256DFEA0A7DE5CE3102B60233FAA7E7EED40A5F6D4D3AE66676677879EBE9639FB94D629A3072039864C6A6146A5A70182BFA10EB213A3D618FF8B0699E68B1C20C1C0E8644D58774818EDA54EA836A3DC41EE9CF4
311
90893936033871970BCF79F091E11EF9CAC5834F3227F9C663340435EE523546377553D2022B495B56A4EB5173BEB6A8BEE01E7597A6412F755FE1AAED5FEBFA4A8B2466D4ABE567BBB0927B39463D262D221895ED1BC1C7437D3CF4EFB4484C469DB7F1E77D69FA0E98BF87E5437335D3629BFE710DEBF8BF6B50DA57E5EE
311
BA291C30128F7C0E182D524AB13C238C3525CABE01504B0304140006080800DD565B4B8538941D0D010000B10100005C00000044383233334644342D353935322D343136422D414538392D4644383632423342383231342F5265736F75726365732F31374146353932372D314443342D344336322D414245412D3330354641
311
354643323946302F636F72652E786D6C8590D16E832018855FC5708F02A2960669D4EA13EC6A774469475AA11158F6F883D625DBD5AE7E7238878FFFF0D3D77ACF3ED5E6B4352DC039029932B35DB4B9B620F80B3C80EC24F866ADFF65039991AB6A419281E0D7CD86C72ECDD67865926AECA276513AA73CC8E67B3CB4C0CD
311
1F6A95B90C3E3ADC2D7FC8F926AF2AC7F9CB2778087AD9A37A89AFE98B561B100437A4C40706EB6E6C20ED118387BEAEE1405989CA869D291D7991C2827BBDFED0E74D49AF969847B8811841D2BC6174ACE8B162EFBC484EC19DDFE2CE3B346D07046EBAA9622446CE038574A809ECFAB18325AAA6AE9A06C226C48B57F00F
311
303C96FF81411B5F921DF84AB8C88CFF7F5E085EA402E378B61B672A5B7C03504B0304140006080800DD565B4B369E8945F9000000960100003700000044383233334644342D353935322D343136422D414538392D4644383632423342383231342F5265736F75726365732F636F72652E786D6C8550CB6EC32010FC158B3B
311
36D88E1F11266ADAFC40D5536F08362E4A0C168FAA9F5F885DA93DF5B4ABD999D9DD61A7AFE55E7C82F3DA9A09D192A0028CB44A9B7942315CF1808A1367CEDAF08B860A23169850861167B3B371DD21694D0093516315ECA0F01E022AE43D3513F2F20316518A1812C3DFCA55C89B98A1A4E5C6E32C46AD76A956C94D5F35
311
38C46BDAD70D1D46DC3D5D7ADC9EC9888773D7E1E7766C48D38F2F6D7B6155167316F4F2B35D3A100154D213DA634A70DDBF51723CB4C7C3F8CEAACCE4CC07977EDE97E6EF107F056FA393E059B54DFFB8C655FDEF1AB5094DBDBB6E0A8F384D473E069C5539A5541E11A69A13E5DF504B0304140006080800DD565B4BF3A6
311
E7FEF7000000940100003500000044383233334644342D353935322D343136422D414538392D4644383632423342383231342F536368656D61732F636F72652E786D6C8550CB6E833010FC15B477830D0442641C356DBEA03DF566D90EB5126CE447D5CFAF0D546A4F3DED6A76667677E8F96B7E149FCA796DCD08A4C45028
311
23ACD4661A21861B3A427166D4591B7ED1A0307C56236418189D9C8DCB0E096B8232193556AA1DE4DEAB008578A466042F3ED4CC4B1E4362F87BB97071E7932A49B9F1188D51CB5DAA6572D337AD1CB09AF475438E03EA9EAE3D6A2F7840C74BD7A1E7766870D30F2F6D7BA55516331AF4FCB35D38C58392498F498F084675
311
FF46F0E9D09E0EC33BAD3293511F5CFA795F9ABF03F6BADEE969B5CDFE78C645FEEF19B5094DBD7B6E0A0F8CA413D701A355CE289535C054739EEC1B504B0304140006080800DD565B4BF882E78B02010000D70100002D00000044383233334644342D353935322D343136422D414538392D4644383632423342383231342F
311
636F72652E786D6C9591C16E842010865FC5CC1D15D45DDD209B1ABB4FD0536F54662DD9158C60D3C72F549BB6B7F604F9F9FE19FE197E7E9FEEC91B2E4E5BD3024D7348D00C566933B6B0FA2BA921390BBE58EB7F60901839610B5106C1C7C5AEF32E0DD67834513556E12E4AE7D04332DCC3A50537BCE22453B9FA40B85B
311
3ACBE126474C69BA71827B3D7D598705A5470582E5F448684ED8F189E6A7AA3C55CD33CF2229F8AA8D2FD8DE0CA71754899D7D8804A2E2D9F61AA855AB9DD12AFC515F352E20FA9A15C5A52F49D5548C94F4D09187C7BA2197BE3EB0AEE86A46CB50249805777E0993D98BC419FCD5BE197F255B67F5CF649BC381A0DFA1B2
311
3866C1B3CF1D8433AE447C00504B0304140006080800DD565B4B2C17244D06010000B201000008000000636F72652E786D6C8D50CB6EC32010FC15C41D1B6CC78F0813356DFEA0A7DEA8212E8A0D168FA8FDFB424CA5F6D6D3A279EC0C4B4F9FEB02EED23A65F408498121907A3242E97984C15F510FC189516B8CFF258340
311
F3558E30C190D1D99AB0656832DA4B9D506D84CC20774E7A08A6253E46E8A60FB9F282071F15EE566C7CBAF15916A4D8758C7AB5FE58272BB99702B20A930E118CAAEE95E0E3A1391E86375A2625A3212891A39488E9EAAAA48D16D25535E907D43E5D3AD49CF180FA73DBA2E766A871DD0D2F4D73A1653233EABC8D7FCE4B
311
624F0F1CBFA75C5AEE14A3EFC62C59104B0960F4F20519A66522FE940E9BF84769A57D5DE585BBC3414662A1071183D305E3789C37CE746DF60D504B01021400140006080800DD565B4B263338FCD9000000200100004F000000000000000000000000000000000044383233334644342D353935322D343136422D41453839
311
2D4644383632423342383231342F4173736574446174612F446566696E6974696F6E4974657261746F7250726F706572746965732E62696E504B01021400140006080800DD565B4B6BF72FE7EC0000003002000045000000000000000000000000004601000044383233334644342D353935322D343136422D414538392D46
311
44383632423342383231342F4173736574446174612F496E7374616E636550726F706572746965732E62696E504B01021400140006080800DD565B4B88E57597CD3F0000904100006B000000000000000000000000009502000044383233334644342D353935322D343136422D414538392D4644383632423342383231342F
311
5265736F75726365732F31374146353932372D314443342D344336322D414245412D3330354641354643323946302F7468756D626E61696C2F302F67656E657269635F706E67504B01021400140006080800DD565B4B28BB58AF800100009E0500003D00000000000000000000000000EB42000044383233334644342D3539
311
35322D343136422D414538392D4644383632423342383231342F536368656D61732F436F6D6D6F6E536368656D612E786D6C504B01021400140006080800DD565B4B2CCEBD668A040000E01200003E00000000000000000000000000C644000044383233334644342D353935322D343136422D414538392D46443836324233
311
42383231342F536368656D61732F47656E65726963536368656D612E786D6C504B01021400140006080800DD565B4B6180134D5F0100006B0300004500000000000000000000000000AC49000044383233334644342D353935322D343136422D414538392D4644383632423342383231342F536368656D61732F52656E6465
311
724D6174657269616C536368656D612E786D6C504B01021400140006080800DD565B4B6C9F47AB510000005700000047000000000000000000000000006E4B000044383233334644342D353935322D343136422D414538392D4644383632423342383231342F4173736574446174612F41737365745461626C654F66436F6E
311
74656E74732E62696E504B01021400140006080800DD565B4BF865834058000000680000004500000000000000000000000000244C000044383233334644342D353935322D343136422D414538392D4644383632423342383231342F4173736574446174612F53747265616D56657273696F6E5461626C652E696E66504B01
311
021400140006080800DD565B4BC1909C6F350100009A0400003600000000000000000000000000DF4C000044383233334644342D353935322D343136422D414538392D4644383632423342383231342F4173736574446174612F636E782E786D6C504B01021400140006080800DD565B4B1BEEAA8AE40000005E0100006700
311
000000000000000000000000684E000044383233334644342D353935322D343136422D414538392D4644383632423342383231342F5265736F75726365732F31374146353932372D314443342D344336322D414245412D3330354641354643323946302F7468756D626E61696C2F302F636E782E786D6C504B010214001400
311
06080800DD565B4BA233C2345D000000800000006500000000000000000000000000D14F000044383233334644342D353935322D343136422D414538392D4644383632423342383231342F5265736F75726365732F31374146353932372D314443342D344336322D414245412D3330354641354643323946302F7468756D62
311
6E61696C2F636E782E786D6C504B01021400140006080800DD565B4BBE89762363000000880000005B00000000000000000000000000B150000044383233334644342D353935322D343136422D414538392D4644383632423342383231342F5265736F75726365732F31374146353932372D314443342D344336322D414245
311
412D3330354641354643323946302F636E782E786D6C504B01021400140006080800DD565B4B43DF2B3E7F000000A300000036000000000000000000000000008D51000044383233334644342D353935322D343136422D414538392D4644383632423342383231342F5265736F75726365732F636E782E786D6C504B010214
311
00140006080800DD565B4B78F4BC85080100004F03000034000000000000000000000000006052000044383233334644342D353935322D343136422D414538392D4644383632423342383231342F536368656D61732F636E782E786D6C504B01021400140006080800DD565B4BE3603EBE7A000000C20000002C0000000000
311
0000000000000000BA53000044383233334644342D353935322D343136422D414538392D4644383632423342383231342F636E782E786D6C504B01021400140006080800DD565B4B7BAE64D77F000000A300000007000000000000000000000000007E540000636E782E786D6C504B01021400140006080800DD565B4BCA1D
311
F9C9A9000000730100001300000000000000000000000000225500005B436F6E74656E745F54797065735D2E786D6C504B01021400140006080800DD565B4B3DEE336E64000000790000001B00000000000000000000000000FC5500006175746F6465736B2D64657369676E2D7061636B6167652E786D6C504B0102140014
311
0006080800DD565B4BA2C2EE18F90000009601000037000000000000000000000000009956000044383233334644342D353935322D343136422D414538392D4644383632423342383231342F4173736574446174612F636F72652E786D6C504B01021400140006080800DD565B4BA10EA5CDF30000008E0100006800000000
311
000000000000000000E757000044383233334644342D353935322D343136422D414538392D4644383632423342383231342F5265736F75726365732F31374146353932372D314443342D344336322D414245412D3330354641354643323946302F7468756D626E61696C2F302F636F72652E786D6C504B0102140014000608
311
0800DD565B4BC20CDF1AFA0000009601000066000000000000000000000000006059000044383233334644342D353935322D343136422D414538392D4644383632423342383231342F5265736F75726365732F31374146353932372D314443342D344336322D414245412D3330354641354643323946302F7468756D626E61
311
696C2F636F72652E786D6C504B01021400140006080800DD565B4B8538941D0D010000B10100005C00000000000000000000000000DE5A000044383233334644342D353935322D343136422D414538392D4644383632423342383231342F5265736F75726365732F31374146353932372D314443342D344336322D41424541
311
2D3330354641354643323946302F636F72652E786D6C504B01021400140006080800DD565B4B369E8945F9000000960100003700000000000000000000000000655C000044383233334644342D353935322D343136422D414538392D4644383632423342383231342F5265736F75726365732F636F72652E786D6C504B0102
311
1400140006080800DD565B4BF3A6E7FEF7000000940100003500000000000000000000000000B35D000044383233334644342D353935322D343136422D414538392D4644383632423342383231342F536368656D61732F636F72652E786D6C504B01021400140006080800DD565B4BF882E78B02010000D70100002D000000
311
00000000000000000000FD5E000044383233334644342D353935322D343136422D414538392D4644383632423342383231342F636F72652E786D6C504B01021400140006080800DD565B4B2C17244D06010000B201000008000000000000000000000000004A600000636F72652E786D6C504B0506000000001A001A00210B
311
0000766100000000
310
504B0304140006080800DD565B4B000000000000000000000000370000006662782F31394545374534372D304339462D344445452D393436462D3735354437464546394641382F617474726962757465732E62696E504B0304140006080800DD565B4B000000000000000000000000350000006662782F3139454537453437
310
2D304339462D344445452D393436462D3735354437464546394641382F76657274696365732E62696E504B0304140006080800DD565B4BF270F1330600000004000000360000006662782F31394545374534372D304339462D344445452D393436462D3735354437464546394641382F747269616E676C65732E62696E6366
310
60600000504B0304140006080800DD565B4B88E57597CD3F000090410000420000006662782F31394545374534372D304339462D344445452D393436462D3735354437464546394641382F7265736F75726365732F322F305F67656E657269632E706E67355B773CD4FF1FBF73E71C0E67EF7576C9DEF3EC995D46C6A1EC50
310
46649CBDF79E192942562825CE965D8A868C2842C8DE9FDFD1F7E7F138F7078FCF6B3F5FCFD7EBFDFEC41B196891913091804020321D6D7513FC77D8C5070EC3FFEE51B21F068154CC75D455CC028A3EA68992803810109FDDE5D5CEC5521B28A1B422BF80741695D5B529DA1C2D058AD2388BDA9F476F7C2CADC939304173
310
DBF48A452BF8A700C0C70C3D121C1AA15A5270C22E2B9E28763651F7DA0D12CE11077B2ECD0D560B5E3DE2368B1E65C5E1C87384A4CC5F2D9FB8BE39E9B77C753783A37998F5CEF1B4FEE553463245C9712270880DF339E0B882A6BA713D865F6F384C842D440934EF264F4A304F8DE4EEFA1E2BF5E2D91F5ADD9613D6E31D
310
DB33ED31DB1D7916CAF091286EA3D31B9CFECB78BB0060245B943C4C040119FF780A74DD308BA9D028678674EB5504ECF284EE814DAED07440BAF649BE4B55DA2890F4D73E2D489A59EE54FDB0A85B59F2F52C4858A02705C4815A792B0C4A996A2023ECB195073E115E3E3647F64243A8338F2000BCB58DA5692C7E7C3D41
310
3F963FEDF3CF00FBB0F831A9D51360FECA43819F527B89FA260EB63C5DA676830AA3626A3693B23F1A17A0DFFCE3EE164E31B5365EDF0C89EF64D8E38AB0BA9A1117D7C3A0EC44F44F4023095E80BA610DE336D0F99593A88BFC5306E72DF98F7FD132ED95878DF2964EA7E43071359FD83B2BDF9C6B5BDF768F0F3C0FC351
310
199526F53D9460A34511F75D1B63E488178569472C91A94497807A3FD4A390C6558F26D416365C3656DE6E769DA9D8FC73774E1709812842DD8EF96AED1960F79D21B395CDDFE6F92CB4EB962A4668C76990E2EF29798C8941D67DA50F4A5F947872460F1F6FDB794E8A29FD7AC0C0D6E0714339CE258FB17AE8535221E346
310
4A10F29A0BE5EEECEFC5675926A89F49EB14E5711894F6586DB5754EB4D5DA9C6437EBA57DB97A24F8B8A8DB295FFD73266CF57E82694DF5166DDF93573AFE9C9C5EB05F8FEF8E89E0A8917B0B3724DB7BEBB53252581EFC3E38166BA131A3A5B42FE2AD00A769BBFA4458D2DE7822F8C4F63D0B8E21B285AE13325F3410A4
310
35C648C9D91FDEB109E73CEDA7BC796961AF79175E1A3CE4C5E8B0D009B0C9E29EFD98BC8E97554E3D8D838424E270F7685226E5AC268E021EDE3522D583E8F20C0BDE2959EF5BBFEEDAB32FE9A3ED0E39F211A86AA9DEBFC68182EDED132AB8BB794442D2D7EA9F4D8BFF52BC4D55BB165124EE90A42D101E67BBBB292FFB
310
4F66DE5BF2300E44546757DA7CEF8932BFC9F92A0707953491A55C5A5ACEDABD9FA1AEA01BAC3DC5A24E22E7C47213493996EFBC369D086ED9397C9BA6C7F9855C7BD5E15BFC8C53DB3D2A4C5901A57ACD2FBDF4D1676E95338B2C2BCE65FDA4C64F5FEFDC7D9CA5AA1FCF11E193F2FDABF0F4916BF13FB916A224380E6462
310
A9815F2300DC49CC4DF8D055CEF76462F4B7A7ACA7365C2707891370BC1D0AA6203C44CCAB47084FEC057F27FFCD57F89B8B9852459798A675C66BD7CE572CAF71FF7E6D7ECF7BF62CAB7B3F1107DCD04DC55A3F9961700286141C94A4F771FEB2BCDA2DDEE0CB0BAE402FF1DB0100F8E475DFFFC074DDB4498AB7D186A765
310
4DDB1CB680D703D47CEB4E72F8CB13D86A4AA68116E26387B93FD6738779B34FEDB8E517EDF2BAF28D9BE93A1D3A164320E07D42E514725C29515FF361754213EDE06B079A2E99EB1CA82A02019EADEEB87B9AF005BD04BBCECB14AACD6B24EFBE482194A97DD32400685FF1FEF1544D1B14EFB1E7F08E6D2CD2AF52DE757F
310
35F5E62332EE88EA26417AD5C3E0E319D68F25414E6D672BD4522B278C57D18F0113921C71D96527E091F00CEB15AE23D24667369BD3CEFA10C7549D930890BA4366F4EBC55F01F746109F98ABCDD5A3EE06619C6AD78AB33E48E4C9BD21BF7478B385EC05C4F8987E2C1BFA0A60EBEDAA0AE0B015C2720ECE180FB6F2DEFB
310
EB822D96338C9B63822183BBF52FB664A7AE57003AABCE512BF77E7E31BDA2E739AC4C131657DDFE5225E900FB56CC01CDE808FA4A9C9DA16AC679656BB64796283D89812B8F91136AE18EE5EBBAF47A73BE3C153EB5D4CD491B4BFB4FE690A4CF9ABA08C0D8AA64220C438C96EA6CA80B58FE5761E697B3A292EB9FBDA502
310
FA863E49FE694ADDFFF9D62C520BDD1A22014147A0903A05B9B729F54272EF83931FEEC057BFF8C8055C279EAC5C0011804828734024F6CFA319C9CC6867C727184465CD9BB7ED386AFFD96B294A85E3802FAE47244602D8273615952B98C4F23F7EAE4463D9D638EEE374A20959E0FE519C4CFB0FBFE5DD80C2AA3F9DB961
310
D1BDE57E67C9BB47B77FDD74EE3094F5DBBE3EBC1FBDB7393F5116263009E2EFE1AF9A221B2AE234C902BF70E9F280ED23E73908361565964333A3F01D0B006AF32FB21AA1316744B489D5A198E85299241735BE559675130955C902A8ED761FC0DBE337A9F91919AF5CE32AF902ADF9AB2615E00E8A94586BA1A90839B618
310
32FF1BFB76D2EFADE6DB1BA04CCAD3DA649E7E2A0219F592E22F2AD54847EEA8E42271011E9074F8F3DD9FBA6CDF88FFC9FC7E811AD1CA8F4557CE4AFC7BBEDCF0114A48689F20A584520C74DA8127124B767E2FB91A6B186246727BE63C9445BAE02088D58B8EFDC0F1072407CD9B89A13F6303B4A928F593AD489B58E686
310
9325790ADC406036C591729FE14021F94B7796BB11848D463536A092A26F077F94639F7CEEE2A724C66EC885F4A24F8B8A0AC321F8FD149BA529460FAA34E4663C02D41FDF80BCA222D42F0ABFF8490F4FA74C673807C2051D8E467B47B616072860069A9A303ABA9B319D58404461401B0A0F9BE5E1E151C14BC33B32ABE0
310
3DDE91708DFAEB15E7C0D593C86BB7D7EC17BE56E57975F077BFD5525F3A1A361D584A75E08CF29FC7B44B2B3085014F3A5A14517377C3F6B8F37E59514C3B12F8AACDEDDA4DFC49BE5710101534CD6FB6DE15B50F11A09472AABA727F0C49D9CB906B158030065F48EB3625E010CEC1D511D0053474B11E6A4F01C0D6EF1B
310
ED3A944FDEC70E0DDCDC756C86545910E0DAE3BE3AA9A404574C2995CD5CAF9549226BC94B4F4F0F5F9086F418F6B32346464610D8BC7391D3C3A3CCF04CFC1FB2A3A3170E369511868F14EEA4E5E438CC73DB1F3248AA94B6B2FF33B222FF3D1E7BF146CAD229770158063BCE4F5391964DF62F7E52A7BE0EEA829C9E13C4
310
C147D6F93FE59E111DAB5E4594D6F3CD1AD375EE039930EFE5AF2BB2D41C83C7DABD8C659BAFBE8FAB392CA634F3D15C1D945DB4588D2B0824A4EC928AAC565557CA2F0DAA588CA5BE30B3A8004F7BF005E96CBF891D7F18112A3619FDF530DC8AA64954258E1811789B5189B49B4EB53F5F89F7D37523894F3EB57B373763
310
C91E502F52CC99EB7BDDF933FC324C4FFC2561DFFA7339FAFDD0A4BFBE6D3A8FF9ED1FC49898139864602458968913181918F719CCF5A68B2EE9C1FF050E34E63107003B8120FA982C21B30A874E4F5E4B38D5A8290C4B8D9BE48A0BE31EA995BDC37AC6DE90BA17D259DEF53605D55922FEB1855D915B659FBEB350EE0DFB
310
2F9F766E1C84CC8964B75D08667445EAB966015F63A18A9E0A325C1B3DC628C0D3CB60F767FA93CC65F25458BD23C3B312716E5F40E5858AC06EBA9AB14F95DB99147B832069201541D09A0D856E12C629CF32683760EE855537D1901988D5EBC156676C7DD51D7207CF3267AF1D76C2AD867315E44618015313A98B19941C
310
696FED3461CAA9B5415F918556D7802EDACEFD6B2E45853A9735DFC9DBF7E440F9319F8B6805A973BCCDC76C069A9144E51F187EDCC12FC31B5DEAAF0A76137199B106EC84ADA6B6EE697D4E6A96E007417F4E880E8B1E89B4BCE9D81EF611E2ED8F0C1A6C25F620FAFAAB656A7C42D464880E8AFAB0E0FC8EA38CA9A8AEEA
310
EE3E4648BA4680270A89743CDD3E6C6CBF34B7B640EFA285ABC7EA0A1E28F3CC963D114A80123EE66D0AF7D5380EB41909B605AB4765B709B808590458157E69BA1378FEC4B48CAF6A730E3BE3C5EF2DD1A5EAF94B1DDE50CEB55DDFD7EE9A16747FA4B223359FB1FCC69E1194892BABB93A1D5C4E807AC0EA2E30180811E7
310
7A2291F6E7F7FAA5E0F60215BC6024E48DE436C511F0628B8CA189982D4D83CCA17D305A7E923C37941CFDFDCD93ACAF735EF5F0E61BBD3E6C41A59B242790D3A3BAC7064DCD89AA2E37214EC839820949D5CAA31E240D2948E48F690298974A96BA9A8432BC90F5071D6537C9666EA4564796B7AFFFA548077BEEA75F6308
310
3435074BA182F3699557397F71548383FDA8CA34D99B981E72835ECDA5DDDC151315173D05A21F651AAF8524E88209E2E7A737ED1045800CE3390050BCFB8BE588DF111617874C62575039CA588EEFDEFEFE319B739DE2EDC147092A262611E159650E787917885EF08F1F51B8F2D8A71D60B58B190FEF9541A1BE94BC19FE
310
A50784DA1419FE4B0FB51B8D36B5FF8E1286FD8AF42B91E59A5F1CC4D60174E764045FD8C57B18209B217F89A62252BD20BE0E63E12B8E8F029FE19E0E8D0870F58721A557082250D5424F7909369376E41666C0EE77CD87CB283F661D5FB6D0DA023CB67320A20DC7BE661E9E1BFE5463085C557DA1FF9BE835733766C3D1
310
39F2CF9E2208873AD0EB4814DE9E6BF2CAF81614D4D43906ED1C05A3265CABBFE192770FC2F64F940CB6B17B5F166F133C9AEEAD2641807C3E69515171DD74C4A85311513D6EC9530B3B601B6BA3EBFF3B5C3D2F7D69765141E345F75433953D013ADDF8F6AA7DC3F4A7563FE5C7D367937E2900D7EAD0F9FC9A4A1A9B5BDF
310
1FEF08532660C01C5D6DE22199AA774383E306DAB87E301ABB7D213887F9869D4942D0D71E94B27EDF216A318BD488D45DF84529EF575AF3C3938C0AAA0215B01994153E2054A0B894DA5C784980633AAD48576957CF4AEAEAFADC7C587368551C73DBE1E57C58AC713303A8BFC258BD04B51724459FF9E24C03A81E0E0679
310
CEB9B348C0DC998FEB9C6D6EFA77D247CC8F92D3848599ED89A23218D0636465AD1CEEB7DC140D7426F83491C4E8E8281C2FB35240918FFECE880CA2A42D70E8B20B34DF5221C7DB0CF90ECCB9C745B37A47E9B716FF7A97B7A252C1F3814DC7B1E1A7F72B8751D524EF7CAE45B0C73B3BE7D08ED39781B380DDFC9AA4A474
310
9C9493DB5BAD07A6EA6C092FBD0E85DB004DF06B8C9D3089C5320187E4CE1846158C7EA7DDAE8AD9AFFF21AA3A1026BB06A259845E8232DEE62811A4DA9CEAB3A4887320B76E2AE5615EAB7BDF738CBDD01F1E64064BC13D9EC53576751CA8CACD58B3CEB0E6CA585BD089B2A59B9FC101403387AADBDBE70586B93D64BF3A
310
D4453EF9C3B6A93817E8346991798601344F79A83C51F3D50F7BF2683A3605F51A72449489E0EE6169C749C60B1035651103AEE24D24E51A759C840DD3FC6504DA6FE107510E447B43461C79D22970B75DE5E1BD3007D1AFC619A4A4A69B5626AF5E9B8374E20677F77E2F8E73DF868E8BEC7EBA7B6A75EEF7205E1AB9486C
310
B642741D6E03FF13FCCEDB1C4AC129886268B01CDF4B124AF797CF784F3C6DEC97A17D4B558070A0F1C04DA4FF9BDBF34159AEFE958479824B3F58EBD1E19088A2AFDE501B6F2052368A3FD0E650A179EFAB1561E1D27527077136E652676C3670F42DCB3352F48F6BC86D2C3B0051727E41A0A4DC6CE2BE9D47F5CAA2935A
310
3C0539AF080665997194ABECD723B08129CC5B6B21D2E7D54CD4D12610E7E9FB8306771A89576C7A982002775ED44F3F744CF21EEBB27A631671D921938AAEE3EB0D19CD1E083727F607823E817BF599DCED5394E37EEBC2E88782E638920CA641EF74D4CDFCDEF06F4278ECB18E31E7E9876F2D783C8BF429C75395F57E98
310
C2B495A3DA077EB3AC3C158608B6B57FE3EA48484D9A480096FCEE0DE880950E7E5A5714131C5C41AAA29FD19AE81AC145FA1B9E85C7169A5AB837B213493DF7E9AA4B5FBF9CDEB36EBD21EF1181B7CF7366AB2A951D01E37AF4EB835D1BE8C117CFBE7625D2EBCDB0B20C5A4B45CED0BCDE3EE8DA9DA78C2E21DEAAFFD119
310
7E463C33CC6A80FB785669B856EFF7A8CCCA2841B5A5369173320B1170C368B2748D81062EA0296E5E2D95D7667A4A46D98A6FF475C76AAB0A8C8D45E226FAFC9FE0133EA9F60111F99CA81ACE03A1D14C89E8B0D69079C91464FA1D99E651D0EAF606F345C42A8A1AA9BA391031582B96D5B4176A77AADB01F12FD298A75D
310
EEBB2C82F0B8650E880722F8DDD90C56A7A058E5FDEF1AC93545BA27367C76F5D8F9690CB6F8DAE141EDD7971F0FB548A2AE435F224D6E5954CA155512F7332029D5A1230854B79F258EC5FFDB09F5F6343A8EB193229B7F7E79B3E48F8E183860B38C8269D1B53738FF1E0BACF6AADA6D4869E9DE708E79B5DADCC09B1BC7
310
6F649731CFAF59A83FD8BAE4C749D66FA87A3810D4D62FFE826FA400C0F325D2BC0F3CA35F5847B82A2ACC7961745C823E4D863D54460AF792CE6F79B5C7A33B25C3AEA6CDE15A919B6367D781E9D44F61BF828672594A3E1D9EDD6DF179A81F27EAC05B936575D73E05C209DDD2115CFB705DF9BBF3C911589B3640735E9E
310
618FC9C36A7326C82B2205E244C55D56FDB9D5DC93CE958D4BF8174D2B3DA54CB3C09F2C2A6DFF73D23B2197355761AD421EC581284A7EF8DE2CE3497C0C804D49B41DFD6A7360844E5BEFFB495CFCDB97A4595911CDBA623274CE852B5E278AF0BEB1770E9D37CD977B2766A7DED0E94B840E1E95E8C77DE5CB6354AF7871
310
427C28ADBEEF7BA0A28E19DE9ACD75F379FE373EAE6DDDAE3834692F9C2B03B4FCA8FCA9ABE8EEEBEBB725B88A7C90941E850682CA04061A7DF0CE82ED49BFAFFD42C309818FAE14755CAAE78B0F73243ECCCAD7DF58FCB9CDFAE7A4D3E6671A613639130D056C8383C8F4FCF4808C331E544DD26E4755D09EA05253B3049A
310
1E32587CC25D72E073E2CD96D04A71BBCB0038FEC3F53D254199C3CDC67CD66640269431860225392B2CB3ECD0B4498AAE78BA1994246AE1EE78F2EDFB79F6C6CB6B5E279C4D373FBC21CB2698C9ACBBEB6A4BB6B39E16AB0E421CCBFC7654D81ED86022F9BB522146F9F4772E2D0E4FA70120C95A85A417BF5078B232F475
310
4363EB1750B2AC2148EB46B1EA72AD9B4D23ADCBC589D70106C3EC2ABEEED84DFE28E718C6C83502C28E9FDD3B09DA0A6F6F7B72B706A31C9E2A331EE70DA56A083D2177BFD63C55B11D8D949FAFCF90B23A1E24B9B5018B9A17E99F2890EC302F330FE7936E2C23F0D237EC8916F5166AB84B62A21BB0B950146962D754F9
310
2CC2C8877BED8FC7B7B25726DD19545392570B3A2C66B58F027BEF412E552D12A588C4A3CC5C3193FCB3485EFFF700D0B9EEC077754A33DC1FB9E25AF814628F91DDFECB667D3F7690803F38D13F8AE39353523BB08FC6760144AFA2CE28236F65EDBB3D5F59A57D612B99E3D7E5F8A851666BF9B5A6658EFC96EEB37A378A
310
BB0EB3FDDF1303AF32C41BD1C8560745D7BD81066B0D6313359CF488563D3BA3F8E2185D1FAA3EBA1397C9D0E3DD232180A4DCADB6AF25DB3AC3CC26589C8239E66E81547BC7E2F328F9884764CA37EB5DBE390DFC03A5246B456A7C3684C4377D0EEF9A350680FA9A077E8B2957B489E09AB1AD41316944C2254B5984830F
310
691C93CAA767EECF976FA5647538830B5E63236A6F0365C1E0F3E327F24FE35EDDBD7360B0F7374837409F7A6311BECC12B7026D4FA1AE204FA3F5FE904B1F420C7A9044AE58E403E7C4848E7DA25DC9EDAC79DD756FAA26B9EA83ACE8A214A2612A22AFA19DAE7DBAC5F8CDE1292A485F98DAC731A29FE01A3966E96BCB9F
310
B5A4C8830E1B9AF0C54B87FBE221A097036E5D28D1F869F810C06A9BB0AC0612F69AEBAF893C6E7AD59460208BAB3A6B09CA4F6BDDAB8CF0D1F84B72487498395A70DCD754796E271099A567A55CF242BBED64696378BB6CF25EF0FCDB589F3A82F1116D010A9AB9FA4358809EE0C973A2B4229BAA876A70B03AB49CBA7FBE
310
71DB1832FFD32F9BF2C8E98075CACAFB36921235D0F552B6A67E94E094097A5D7DF681B40623DA535ADA7A9AD8E9A62407D7C9A5AE51D62A17A83A23728DE86BB56115804D3F2675F2C6B87541A0FC497BF0CA86420F558C9859EBE9FAD62747E323E3AADC03FDCDDFE7407B09DA90B44E3185723C5381EAEF589765E2F7A0
310
99BA46695BAD60CEF3491B8A171F5F56444F7CE9455312C3498C74173AEA0214EC029833B34B650CBB5A5508D5091665309642791708ECF27CF11DB3D797D6CFE474453BD4BFADB768094B2147814D81C7CBAF8228DCAF5564B5891F5EF6A860EB2E323CB82AB868D8EA048880D63B0DE5341F1B3D53297B928A11E15F25E5
310
148990F710747C3509ED14909C552EBE3973246FCE55D00564D8310BC3EBC5085D08D806799B77D6C57FDF5E55837F9E934F09C03C729271B64F12D0A9F9E938107CAF7BF1EC8CF1BB9B42363D33070F4CACB425E605DDB0A34A12BB936DE286B9887A4E2E558F0886498BFF49C311D96C277CF6A9FC0D75AD0ECC5226D7E0
310
E3572012E56D7FDE4410CEC7A6D0F997F225A2055B8B92E3956E875AE4993CB3D4C9063AF98FD45E1BAB165640A43439A2C9181A7C355B297C0A0CCFFAE19B6FA3C2BA238A885FBC98B8F6DAF4B94B97304878DF4D8BFF6A4AEDF79E90ED4E68F00CD7299F4E0D83E35601AF0CBEF18C1E870E74758FA91F5131075004DB3C
310
FCF09AE1DABC11957FD9808C92E8A678CE9DBE40DDA0E0D1D505AAFBCBA208232BFB6FB3704E8985E61ADE53DE74152F5C7DE74B1DEDCD37DC3E8FB30D7EBA8B9EFFC3606BF90B8D438279CB7709FC7C00D327F41817EEA71CD9E49FE9C8C9A81C70915D9F0F15958EC5AA4C3BBFAF46986B90F188BDB24B89DE3C6F29EC3E
310
6F66D84856EE96A35E657CA41B41EFD8DBFA16AD6E91439EA92B40B21C053249F51AE50EB0B24C770FFAF40DF12C8436366819C48E36547D4E7B72FE2BBF10828583057814A668BDF183F6B2E58DFB151103E56303E63D00F39C27C4661605DB644D19175D02E3F0241E8FC3458D17AAAADB117CE9EEA690D0DB01E634878C
310
04C2C9310B69FCAB831151E3AD293BEF6E46B0ABCECB50F5939B39C613D41E81FAE8D34CAE3C4566B761D37185FE864AC32FCB71AEF39DAA5BAB88609BB980CD2F07A8F941653B529567726E2B2A58D079DD57E1E5E31426CF184A04D7B03B985F276D47406AF276FE32E3328BA866EB1FD39BEF57863A317634AA5FE46740
310
9B3873F5069EF0D71AF00AD189D17BA1974ECDB2D623E9E14086386A6AAB5807825C37B015BFE892AFD154920EC437EB945D958E18622E1E0FE2FA06557CE4BB9BBD05A2D40E774DA2B65473791E314B7D6C886820B2FCFE4AA272B3B8B15E7344A145E8AF919B5454D89D36D413E87211186BF6F645E5EC94DCCE8E1C7990
310
22E4EC9BC86D7A0F2AFB1FC4B2CE48F84B3F49ECE65BAD24CADCC07EFF39AB06BE9E6B27A059938EA7208838455383DDBCFCD967DDE4650EF92A14FF933C975DB20BD7FEEBC4487576485963D757D16340D9599FEB362F775F38CA4185A86F74B629C81B133644A3B18FD056E997E0734F9BE26D11C0AAFC669E2AC9FC41D2
310
81F8B2E1C35AE27BCE05F3DA295488096688719D974DF1B5D182DB7792288697F8763CFB43562C1CDEE11C4AABD5C22B6E33F6F389CFC3477C5919DC0D533F8A7A1846B7ADB60ABDC26C43D0CFC8910B7C15EE22675BD02702ED39DB77A87A192CA7A543E6205B979B9F5A6B512A3CA799E198B2D5797C0AF8D1D872CA455D
310
4D431A7879D4DD76110B5FF7F4176B54477A9EB5E4A5D11214FDA585F0382751D8E2582BA5D2075053298FEB8F1537304E32CB22C2E2B693DC0A760B1DFCA751BDC445AFDCBB12820ED85F6D5298933C7EF1211E9E057684056CDA3FEF3BB6052355E162DF27C59E965A8DDB7F9437EB72CDDA3A090DE65A5B2F50326247B7
310
EC67B73ACC7047FC9B353D6EE990F772207C6EC52B39DC2F3C0754821DAB559F7C1809C7D0DD5B0499D0442E0A6E391B3D5DB46D11E731E6794EC77523FBDAA242ED67F9FA1FB684255671F63C9BCFE6E7E896D51001A6113EF2298BA494E0B0980D1FA5B9D60796554C02256B1E0345FB7C6186B6A19D2DCA270416262845
310
FA4F42DB5D9B0A0B6F07FCA2E56C242522E001E0CEB734AF310FC8BFB57E38E03AACE93B3326A2197891E68452B26A6307FDABFEE0223D3C03C3C73D2D5BC054C8311F12004CAE488E5C29287F8156A2CAA4AD0D7BE6B97264E4139F437CE73ADF52E5134C52B819777C18B323A5924E4F67AFD13B1CDC3A61793A79FAF5C0
310
CEB718E441071E797C6DCCB9EFCF7E4A1E9F3DF3C2F9C9E8294E9586868788C972857FB0556D7A26941A7EEB9B580AD78EC40B85DC906B4120A563CA3B87797ED612D3B035962BB75F6515A393F4CB057F564CDF54F2E5A024514E6A1F901DB80C7E70B1FC05E356A7E72FABF4775B3E3FB8F70A2A8E7B6A94542BB3041579
310
78CCC999E707A29CC795E67A59CC546A5D47B368954CA7B6E75EC9E1F6FC73CE3B4F71F8CB1A6B15923D61EAAEB14626AAA9D04A26EB9C66CD1BE86CA31A5D8703DE04CD1EBCE4F5CCB62F93909AD11E55799A781A956ED27D3E738F4538CB04ADABC7DAEF20BC35BA6A90BCC1DC61BA05F20D8832FFB9BC9B15E2DB838A0A
310
FBB7E0C82A562127E0446894F427794C3037186F622BF24DE1B00AA10A23BFA47B2A180D6DA5AD6F7326FEB8C100C2D7142EB2A0B2A9D1008A09BA343D70E054AB69E2A7EDB783CBD92537FAF4A44D1296AC2792729104B3276C276C951D0CF3CF3F1E6B017720A7B8505A5FF9589365979678C36F1BAF759EAF57C60F1FF5
310
FE9DCF5F8E764FF25A2D06CF25117A8FED51884C13B2B750DB0E4F5E3D64124FCF11F0AD8F1CC3B3DA4B38ED22BF1CB2585EE6BFEBBA63FBFD44F9537B9B37BDD6B358720F98A8125AED4349CCFEB0E135F19E208A04CA7E2B10711185D72E381F448036EF57C9F874E54A971CA37A639E986AC0226DC5AA00D5B14FEA9192
310
234B3DE617814FC221C92F33F1D392F297731B567FD98FD91D989379AF567A65B8ADF177591DB90FBEA99BF4ED11B16E50A0AB1DBF1156D034BBE04D69D08F939D8E92BF525A1DDAFF80ECBC95D8F45D3FDD289FD23F7D8B452F8EBB34EC082DEEE68E18EDDF072060FAD2AB1504DD4879BF67099FC58F6E9DEFBF645D1633
310
4A3E9A127C6F1AF6132CF287E433B43A0EE93812B4AA0B194E03EE3FF91EF9C6ED0074A2F6EB18A96A7C9890B1FCDA1F2095E944DB911ED54C60DF16FB74C8CE9BDC7C54C4F14078CF73C2FFF1F1BBCCD7CF64F71407EA1683DBC410D226627F66E509060D5C0AFD611DE681D509DB8DD12FB1265B03C6F5C55FF4C30BD941
310
87FF692B4F152982502F193098A789526A038AB529A52BC0DC4FB6285CBAC10A8B8DB75DCD9BDABBB221E27D1F8DA9F5EE5926A1C8AA9BA9BC09239C6A7F12914EA3B59EFF7AAEC3FFCCE56F1C5C2980AD072793527565E774F4631DB178CEEC691B1F367BEA0CF2907E1D6B854D527065979DDEF002D8B2ACEA7CE21AE297
310
737EDE1D45B31233B73FEA35BCFDD0B09721FDBAF6432681F2FD10C3E9EFB246FD6E854B344ACC9D8A0EEF876A7314B49B6A499FC650B099D650DBFEC7638ADFD245E2B7839DA5AC5F7D5623FC0ECEEC8653FC9B2BDD1AD4D00A566FBA7186DD3C9CD26512551637498CADB950FEC71ADB9A5524285DE328B8EC7EC75D2345
310
AEC6A27C42AF6D9B92155315C80DBFCABBB7DA0FAE425C4FB896B15C9BFAC4FE67DF5A23D30C93DA4D8F36FB15D100050DA6062E22AEC5F4DAC4F6FEEF97AE05DE63C6D38F9E068A20BC5E3B6BCD75320C5090924E7F93640A7735B1A43451C2D91EE62C6238B797349E59890AF3A520DF4A87095F3ABEC2E61F0593416CE4
310
6CDCBE0E00E2523FCCD04408588B5B6C9DB6459C786CE378770B54F51DA3A5E1DF2A3349BEAAC234A6CF8993B598B3B25B4B113E353A4D750FA7534749430F3EBF2512E7EA3FD43C6AB9A1F765A58463B306721A15D224FAFE8C6F5E3432D57EE697DA0DD5A9D4866A8BCCAAA9DFF1F06047851408FEC060471D0E3EB86BFA
310
F46E4B5E60311DC3E3CEA147C75CF971BE74689507154FF2D2E92F15CDB2B9182B11459FD8ACAC5A85F174BC94A7F4EE4C4F5CAFA7C02E37BF0BC77B7DCD0C047BC316F562A01A441AFA7931CC84A28CB9F4AA367EB515778F29BFE61195FA671F4352E5E46E3A64773F1F76EE5EB36D7BCE9BCEAD837A4D77F8DB8C92AEEF
310
6711920D7C7D0F76B0FD0EB7AB83724CD35BCA7D36DDDF5FBB7FF6F04A91F3E2BB3B8F1A43CD659639507FF6331C5F697BCC782AE57D757A27D97F1AB9E0AEDB43F92F1B2AACDF5FEC8ADBAF9F814E2027003BA2F9E144B1938A7A04050AE5D953B82C45619165C813A10E76DD6906B3C16438064D14CDA713AEC420034613
310
E1AC7241904A49FBF87409AFB1FCB9B72FE7933A87D8FBEDACECE4EDCF6A4FE9FB94D5DEB74FAB7CFEAE17EE965DF980DCCA2D04134994F9A2E94D2265DA4FE6AA7B7AC15FACAC2B5ABBCD7DFF542C5314FDAB2E1B9D8B65220B8E2B638BE008E8DCA22678C820C5053664D15E89F2D735B51A84955E81A443545E9FF787BE
310
0FA700A76D136C27DA179A7C6E8939E01BE756E19CB292798063D8B97F44E8A27BCF3A614FEB8BE974A718E86F7EC99B53CA35FA24F61F2B07266684623A3D4CF073E511F3A10A8FDAFAF0078C577F4DF9D339FE7862E5FA47CF4344209E5BF76D783B1B48E152AD281B15FCB934DCDA49CEC5706B1EE8B460F435324A5CAD
310
154725E21AB8044B75A557A79F6C807B9340AA3D92503E866F4274412926C8C504E4D5EF8C0E68DD0B028781A6B4054F11CF18941F101C57CCC796773ABC8DED9CD91FE5788806C05E548895354AEAC96546D55B0E94A59F148D061F42AA398D822CDECA4CDE79E13469BDCC44FDC990F366BA5978C15F97ED80CBFD73B0CD
310
9B8B83A4F6845BDFBFAF034019473FB9A63BD55D3A4A7284757071574029A4D016DCCBE95DD679EF3C4880BF169422F8C89B68A988D2B13793CAED4F74DE7486C72DC94DF46B8E93D8E02EFCB1FF9B3BA10C8AE7F653DF94F4AF466CDDCEF5776687F7C4C14B63E4EED1719DC2EC482D7DBCC7AE518CDE3D5FF86D39000EC3
310
673C0044E1D308BF05F74D1B5F033A7D1BE7F74BC55BBE3E4A20F920946CA0271EB17BD2B80E5660ACB8A29A79F5E4BBA49D4D945B6EEF4A7EFEAA65E5555BBB57A7E15D2F83C69F30BBB978D2B39F1F26FC097424D39BB33CA3D87ABF64E307938B685BAD44F71556A30B7E712CA4FE600613C3E554B69ADE949A7CFE214D
310
F1FFF05CB82151EC6FC31950239F94CF7AD39DC473F6EA356E5EC2C4EFA04383CEFE985A127484366FBEE3C0EC4FEA363E4F6632AE781392FD45D67B63FB8DF70E82734F431FD3443172A0E30A83D60982D55FA6A2CF86DBA8382502ACC6CDEF3B907982EED1160E14863FA242F9757347E1544275CCDCF71ECD5F8621CBEA
310
326B8BA884AD7F825781923E66971F04010D574C541D8427A438A37EEF8AF88240EED7362C953F5A81DE2D56109CDE2524EA0F5D2F87308C0C47BD97AD605878AB8589E17CA83930CB5E0DCCD75853D68B1AB136594926DE426C367428E9334AFAFF90ECE221BB5DC9E5BB53D2CDEF954EAA9CD814F0E5725F1965DD458E5F
310
8487683AD86B9D0076BE3EE91EB1CECC5331A67A3F79D8B27587C12EC2A6A70474749F27B4C0BBAFB94B34189E88DC18964BE4121B9137FD516C7755356E50D6714E31ACD222621EBBCD1CFF81D87479056A9DA0E0B8EA19D24CF937DA89F78E8650CCBDC110AAB6C4E46DCBFD0446BA9E2060E81F314AC2031E88135E5476
310
AC0160EF5C0DD2EEF1B8B5CB2D198BE9A554A9093B5F7D7E4B5407DDFCA1D9C152FD97F55BFFFDFE802954DFEC8995B983E28AC92F1971E28F531DC407A1280EB125F64A72E617EFB27DFBCEDCDA2D6F2BDADA36873EE46B9BE1782998C63DA7182BC383FB6FD15DA472B175D7E8B4FC88F38D6E07FEAA3FA3CBB8F6B449EC
310
F14D2175E5C5CCA3A42ABF24CA6C9395AF74535F4DDB38CB84F56614B0FD32D7E19CA5CF988DB4449C40E23DF2B16772594554579094450F56F253CD25EA7F77366FB1CFE79696C428BB64D5A41E986189427E5E4D7E2DAE3D5BB4972B3DC44EAABDDDD63A2264ECFA5C786EB0EE1FDC5BE34FA0F08376869FD1E61EA06CAE
310
15191135445EE8F0394161C3266A596AA035572BB0C8876180D8B9C77D307DF9DCDF7365ABDA6F3A2366436457A4DFC1F259666569A9E4A79C817BDD5610E5200FCE894A358EC72858D50EF67545DA81C6FACE3D457BAF70367E1E6BDD9A952FB4F56247F58F523B97E640246051A72F79BE42FFA0B3187F63097F91C48B86
310
8586F714B0EBD5A00A8412C1236E1298F60C72BE6C96B82B404CADAA304AE9F303176B14BA53FBC2D5E86377E35542019E24D97B96A49B2C0E5006E7795954DEAF5DA58958839043C6C70BD3B1B33B6DC5C31316D8A6923F142E26F6711A2258AF977DDF1F970ECC4F1F2B434B96D81BEB6E89BF3BBB3C7C8CC80505070723
310
D6D7D7D3C8CA27CA164A26024FED94B12A86031867241DA53D929636DA600F050BC40CE48B8BA03D69224720DEE2ED2127390BDF5E6EA64527BBD4C4C63FA76BB801FEEC0E61218EC98A8A86CD8313781617877E66692839B9468CF4DB8E50A73986E558E309C0D6F676F921BE02F1185454DC75B111572FF9D27D85EA14C0
310
5AD7271225B391C4275659CA4A43759D0BA44639BE4C30A84DB7F67A41399FB95CBF923B1B1672ABC807C1590557FB18D811983FA97F5E609516D62281D38B1281F68FC75528C35E4CD7DF0F7DBB5E5DD69C414EBEA2F4A5B241B996BA77AE6C772E367408C633EA3E438B68563EA8BE7667F3A4C4FDEEA52ABD78A2820F44
310
3B7914A15F180018D231E64519C56A12F6CA7C8DAE18F06F6B769DBF92329EF6A5D18FBCE600F36BD8E8198DE5CDAA96181F3A756EBA5501CEE58F497EA4F418A2B82565B9BCC611713C0B708CCA1F398B78C5F7D03B3437CC18F13061F55C7BEDADD5ACB1DB0E36D3CE47FF6EA1A563A57E9649EA5D14D1A50EAA45746338
310
1C073777EF1600607BAF6428A7DDC079D47A204EF1E1F1F0589FB054D45E02CE623B3823C317C601E589E22B1E88B448524B86A82828E32345EC18AE17214B42F8C41C6D428016D9BA31DDCB47572561E5A402E5BA4FCE55F78AF7268524AA04130F3A20BA5D1E9F9948EA48FC8F5314FDB35E21898198060034ACE5E3E2BB
310
CA34092518F275190AF65F45867FF0900AA4B81F25427414C372BF51DC29AA855C5428EE1EEDD6B849AD60F6E73475C2D2523F8A2772C840A478DED18A8C5C91B085F255DC4F54EA7AA8947354FD17ECF8FB3B4A0DE7B483CAF3A1165EE05BBA413E5C1FEF3DE1D6B8F2F3F3251C17D9FCAB48A9AAF63AC773A0E413BBC46A
310
9ADF84A566FC920E4D8C52C9769EE3301CADEEEDD92B312E02E2A7E35B7F1E7D203FE5A7D75578B06E99D0E46FFADB8FDA17ED8880390DA29094202D6F645F76F6F96409CDA05495A96E84B04A00D1A6C6C81D7F3DE9376E828CCF144EE50E364ACCE7237EA0BFB5607ED1AC3CFE73794E5B61739D14DF1743441B1AC98F00
310
ECEDE9E7301FA29755FBEFA68C91EF2B314CF510537EF1ABFC9A762496280B546F5EDAAF8A5B387D469FC9A878A92828C88608453ACEC6094DCA54111E7AD5B2663DFE2DD151B7F123B9F4FEF8EE36AB125FD7AD52A59B1B765B3E3F73E3F73DEA93875004D2AFFE3CDE9493B87A9904DD052028949041A91DC0E1BA47BA71
310
4343FD5B25E0A6A09503AFC17C790058A836A324FE31D7893512E28230332F153181C1E018E1124EBE1BA262AA428A518237D1EA7275E48C5C561BD19ED6912EDD8367DA0F31E40EEAE9683DA9257525AEA7B632B97119E17145A90231768A4F3B9120FF32E8319B015E3CBE26F1A754177D8185345817C096B0CE443A955D
310
13AC15E1FB5DEEA0239EC32A3C92241A237B0B02FFCB4F93CF2B02570C8D192E2F2A68CEEB42F12E6F8CEEFF46C251E22B4341C56FB08CCE550E7A9D6F4D6564B9EA52A83D5BF2C6E03FA19D2775E15A8A7ACF30A13C259EE7F5EF2AC3BA354F1500E1A07FC63FB4686E2F12EC69719F9ECF5FE3F35598DF2CE944008CE78F
310
0911BA5BE5D0A34E0098FF038669C26030BA9B300303039852A8F6F496341737CA7E0D2E3AAA36DE0A70AA7D9CA0D54D9AD84B18A44C9E625475E1C97B93BEBB38DCE7D227E67A2D00F531436136355F243D1FC0D712C5765754FA22FCFFAE97919161F46D6E61ACB37D83777B385889770B50765B127768443A5C4D3A4E35
310
A3151111F146B7CA116F918A049F1C272F2CD7976C69A0068773451659A97E0F4A08FE604C3FF6CE7385DB19F4D3ABC8A0D80DA8A42096AC377DB49382B36E270B6FA7570188B4B7D1DDDDA82ACA487CCA5D38BD3BD039ADBAFA4ACFF27809239B722081E2EB9F145320553D183F28471C388BC8814E5045676767AB58A8E7
310
2D1CED2CA731379515D2E533E4CF0B39DFC625F97AC4836831A4DE330E87A8126FA17EBE583D614E71E22A8DBF2825599743E0640037303E8E1B1E8EA4E1ABFA4F62907B5E4E0E5DCFDAB417C36C6848A2B8D15F1E505434C0707E16B1CFC2A1C36A42BBF55734F8F4301DDC2A5110CEE8C0747F69519265012A2174BF4E95
310
5ECD4FDE095A3ABC70536B7AD0B9D7892F81287D667C108703C9B66A221E9A0929D030008F77FF6F5D2108EF5706FC87A3069B976F7C9FC3239D13D283CDEA83597461079FEEE049B0F392889898B7D87D31F8D60ED7B56B91823A8E4EDDB36C6172ECEE42BD42B12CD67994FA0F0DFAE9389356F4CD4425A4B8AA55CBF7EC
310
D585C6A2C2316791E43D5C06841ADBB226A87FD61515FFBB0167B74E56BD7F3E90A57A97FEDCBDF483A0D6699A8C0849CAEB4947FAA90D8E332D9DEBD9F4738C37DA0CAF9CF3DAA68BCB67C420459C7A64498D6E848E5CADE92BB6901F607AA331104A67F7CD650EE169B1DAE94D2C31C2F993632259B6957E246EFE4C5481
310
107B07118607700040E5812A2A2A38DA0076875258C753F60E0F2662C748EDD5F3F3686B8FC3BD6FE631ECCAA1E8B1C1E565AD117E54893E79F4672E32F9E46B2A183DFDCF3EECB4D4D077DBEA0DA254D256045109670050129E9B9B1A9E4A11344D61497A992778095151510C4BB7EF2009B63AA4360635312E4CF668B7E0
310
D3D85A8688E2BD83B569439892ADB63461930D428E0DE42E4AC57CE48DA5CC1449530D8BD3D6A0F08DF20C8E8F570F2CFFFCEA286E30969B4654D498A58D9DA782E19FE3F002181838925592C4A1EF0B332D88B61A92C644547BED490D3A42CFFAB70E36D961F694F6307F72FF15A1C79D5B1B5CEFD353D9E2B52566DEC8F8
310
F09CB3E8359C0F68EBBB7898243E34E12A015B2685AB303C04D3A9E00671FF3DFF0A184E4A2ABEB2B666AF5B3A209C73D8EF29DCDB069C9F391EEE9DD0F74C7BCDE16F8F02E3B8816122BBEB50665775B600549D8BB33A54A6BF940C028118BC6878C79958D6784F9DEAA6E26748386FFAF8D0D0101E2847B6563F5D8DC1D7
310
8F787BE00E2C941AE12148D4A81599FE8F68D4DA5CDED75530ADE138240300EE13B0FC13A1687FED6774662C05A2B7DFB186732F0D7A93545D8B0A6390AE5054D9CB582DA846D7A061B3358B45E2B52DDE63E114397EDB7E09233A579155D795BE76102CF277F4DF8B188C4F2879BEAE3C08347124BF9ED23B128259FE107D
310
31E34A652F090B30B39E0D9AF917B76A2806135621A8A60681F16AF216514BBD02711585B5B1AE823F4B2D0369EA5B6BCB863072727FFC871CA6C9AB79A814D989057E9470A3D238BC87CBB4A0EA49AFE2B86F22E499793CAA9047080450166BDC357524561E258C77CB697F1ABB32562CF87C3B7AA12F911EF19FB3E5C022
310
22E887D08202A60A17151F5E053A86B437771088B4FEE14D652C43E8D939995D34545E12E2FF93D4E366EAD25F10CB7DED141563C3D0C447AF06078A91135FD4B9611583CB4BF3BD167F2399CEAB0E0100F8FFC305F00F1711717173138B4B48C83022295DE657EFEDD97F238ECA80F528AFB4F8D67AD4E2594B9A3AA86D74
310
87EFC313BA95745C186F0CDD84CC12DC9CB0424B42203D351FD9C0A3AF10CC7F388E0329279087386421F194F4A29464C1DEF7EF8BE515E4A199DCD5B909342598D8FE6A231F71336248D5CEC5454455C7BE383B3BC7B260FED27F703FDC39A170F3827239102F59D4DEE7FEF82EAA1A5E4BA94DCC4CC44E7E2EDE20F24244
310
E4454369D2E87C3F823F193FD4FD27E1C23984B01898D15ABC20711A8A558054951A6AE280096BA36CBA439603B7B0B4C45F248C14B2383B4B5CD8ECECE4FF859AD4A6CA2326D020EF090F4041D28DB66E5256B56232CC52829DE8060BAE6BBF37D4B7469B822454FE93210A3E8D15E69FFCF01123222611C51C4FD0A041A0
310
CFA2471CF6BE38D2B20FA4C3525B5B8B586759475CF80ADFE67A284AC24651E52B8E683D24C2622642F27E7C3C22783BCF63648BC398BD6CD0D9C97E7E7E3EACB6126DB7A6C1FD9F1031302EE67ED96F22B77C7CA0239BB324207559B105E4693EB26EC46182A92C9C0DBD24F29B31C5C5AC1F84300E0E17CEEAC15F5736FA
310
4A98971E2F1423BFCD68D4BBD5F86E74B40A369F39507C88FCDB35D2DD8DEBEA4AF999E23CF2816D204200DF6E611781B9884C1AC8888B4DE397320472959434323A5A36B22A8E1F721A270DF3BD65E4A31C11FF048AFB0D8B7B6881423793963A23CFCE935FC189ED36FAE35C46DA3574C979E4394BE52084F3081837BE03
310
3396D2EBD80F1F691B273F660D2B32FA27A33B1DE4ADA5F0FA4651511102DFA410DDA86E065272CA314D5249DF91B06BB92807B28EFD54F08F7B525252782CD276DD02E6B0319B13DF87B1F6361AD6B28FC0D711CF445429B9E5A433CD493051C49A9E03DDB1B147D880253514A5DED88009018620EE229101C041950E2D8A
310
A8E1F5F5438E0C0C0C60EEDEE9E3E0C051948C69F84BB7B2A48A1F3C8EB9E6864687F4F4F6F6E2FA87608ADAF9C5E117B7C1A737E710769DA1D15ECE6A84502AA855398712D5FB51BE92E4EF824969CE18278798AC303C2C7980DD2500ADF8FB1E6D6C2FAAFF9987178923334A244758BAA01A9A1B70FA5097D01E1CC2A58D
310
AD0EC94CE6430AA9B0C10D75E3C6BAC670EFBADEE1607739CE0FC18A2587E3EC3058562014C64219C69BC269082D5C2F4A659278D585755912176D78A1B641719C2A394CED495A1AC5D583FD2F5EDD93308EA7EAE8A6DD396598BDBD3D4CFED62D18A5BDFDE0DD5C80D1A89BA62697B131AE7CE9A6594138582F1B37D68F17
310
49AC7CB67A70695D48A4A056AC1FBD4E82358CEAE38F54B95A9016F9000F9879C0D9D131768635CA798895F27D6F1614F11F2838A83611AA51C9A3DDB539D42979C29F10465655C17BEC3E2760B80DCBF609198C7B171A531905F3EC218D696025975E986C6B4C666666787271F202805577DD5A3EF0CAFAF91B62DC4B2DB4
310
217A7606282F31D8DDBC290593BAA93EA6353AFA9939B877978481E15CFC9F2755CDC00C538F63A4BA3E80AE009B73CA0185687D339A507D165B74290D6EE46D5C58148F020C3668ABE9EF2F7549170DC80DB41FFC1D678FF19AEB10C7133832B104B80F691B3138F97A92D26E551F1F110400D45AC71A9B9AC41A1A1B1DAE
310
ED0B0810638EFFB511D46B121C6FEA0F38CD00E03CFFEB9713FE1F9C263E4DDEC160D0497FA9A132BA608584057FB15380825DE6C7FC3C667EE947D488A09898D8E939C4953BF4EC9836344D2CC6B2971B2A21A572B06096F4982D2CC7232D46E8EA69DC83722E267754D777F97F96D5DA74E1E75178084D0E70F12AD33E5F
310
71EF2AFA599B2BEBF60A5BE475F444F240CBFE8143C334E7ED9150FEEFEF7EB020C4DBED388DD1D6A167A76F3CBF119B578AE8CFA7736ACAFA4440A1C47185638A0D2F3EB5BDDEFDA958FB13CE4AA4923D5BF840392D45544329525749734866684BF7F8D9D54D892E19BCA9F829A0F8BFCBEEA6CFDFC61D74EA1A645ED7A1
310
FF241739F15694BD835B66FEC5677E40FE69BD3F91AE402F036537218A401CB0828604AD189E575015C6F3F6BBC8AC79CF6C70653847254B31551EFCBEB5978B9DB85D58D0FA41A9DFE9C624834AA04949D24B5AE6D299E072D152D12097920F14AA92C31C3B97E28B6C2E6E9C23D63043ECBBC0A60FDF5BD0C33C127EA8A3
310
308B8B6AFFEB28B4455BF6E7AF4FC6222728357EB8E46E85053E6A8843AB23295BF838ABDA94658FEF3F832F147046B4ACD6F7D48E8FCC9618582961C898D1C7A253C91BFECBDA6BA18A1FCF70755DCCEE2222F41B76D23CA98D0CB3D95F0CF66D57FFF65E2A90F5DF40FC3187621E981BD0BC1D992787212688976B94A8F0
310
C6EF646624B570B78E068826F87CE27041A95C9A4871FF65CC17FCB1639629AD6A9517000D63AC231F3D741CB8430777E7ECF80CE7A3F73C0F162F7E56AA71F4DA80A33CD6ACEE78E2C11FAC03DAFCE929B106F8F6B3ED2DC71FF994BD9CEF4E9A94896EF1B6E2B7B4978168BCF0847A3D2A4F1B0500B926E634B174548E9F
310
BAD27153FB5FC36799B1E6C7C38A94E1F9E996796D7B485E635D5287A2AE76FBD11A341DB3F8F810385BB7296391973DC6C37C452A9305AEBBE0CDB6C566DB59FE60C8E94B1FD090354BF51439FFD1B48D725228FFA88C84F686F547107A7A235665A4593B7C34D748C1AC8D56DD5DA861EEFBADDECBBD65117E65851F9035
310
1AEB65F0EFCFF4BCFEF24CB7A5879699FAC437A7AF9099186CF006BB923A59E37D7A36A29FD8D2CBB914A5E9D0A8FD212FBF796AE9A67958FF1D5D8B85F78F96219D4714EB919929241B6C018AAE0C02069F8D919961EC5DDFBFB7573E3AC8E08BFB7C8534BE6DE045B3CD63DBD71F7638BA2309CAE398EA3A7D8F98BBBC7A
310
EB367EFA5CFA27A9F8F2F52FE878058E6209C026453F8E7E8A237DFC389E9590F6059B397CFD65183BBF936E86896612A5B5FEE49DAC8455D026218AFEBEC12B3523A45B57B82C9C97E02ACFA1184DB18E48CF615DBF39C3CC6F0B4AE6BBEEA2E39D944E290302FA3DE33FA7E40296E2EF7BF1CD855BBECFAD0FD622BEE974
310
6FC4FDFDE545AE6E3BC234CADF83A0FB76DFB145BF3828AE3436368AC24989454F8FF70A177672C711CAA1A76107218CF948CA01F873520E7A2B118EBB161ABAD432932029628B6761590C98AB590C8C8C79798CE9F715BA696E839E9131A4BB68BE923F1747FBFF165331FFDD4D05997ACD168F12CA75348DAC04C7F509FE
310
83898A8B421181AF492861CE81E4A2DD0A30850CFA95E05F097FF70F9E777310D584A75BA7018922E271DAB1D785671157685B7D383D3E074DDB4F1E44EF04B07BAAC75A062077C54B9752C738C9D804D402E02851F3F89605AF189738C18C021D2139EAF72513824E10DDD3047BACC8521ED7E98B257D1166903B1B08FA6F
310
918FD7E162913FEC7D0EF4787E29C35FBA8C6E2C9C20E9AB30AE42CA2A01A090E7D010C1B5BF9CEE2A304BF3A987FB40D836979B79E18D70F257DA61E808472DD85B82761825779D6B90CAEB0F23360C6F80A7D7D77545E95B3DFF0CF96A827F9B5BCECD2C9698718417EF80FEEDEE938AFF55859D0D540B7FE09435583A6F
310
04874A0C7E8CF234DF4879722000167F5872CEC6BF3EF7E5A8CC8121E6A359227C8A29C95212F9F735BC72A887D56B8F309FC525BFB4FD767AAEC4AEFF249CFBBD2DE1AB9969A6155C7D8DABC307E47324C1F916C7BCFF40ABA5644E9FFB9238D19ADADA49D9610F01ABBA57E4DFCBDCCBB2B93C8953206C91DE01B0E2651A
310
6D6C31721915B31F7B7CBCE55466F6D70402788FA91D73BE4ADCBA99A35F17D6B83383704917D6833F0FA3CD45C926ADB8BC17999A4A0AFBCE2541F7B8CF4C2F5FBA611B3E626D64407CB32C122DFF4EF8674D6EDBB86C8F7C6A16D50FA685E2CCA34F8F7D1D8265BB0042E9D7F1F666F7BE5FAA5184DF58E12122A42EF02F
310
461B3F369AC746F96528AD208512AB56844CF75B97F352DF7995024FB02855385854F3798670D01CAC771AC3E1889EC25F61A20C1F8CAB46898817F9C47E2CDA1F286BF2F358298709FE567C91133E2638C8B53975E753EA8BFD3578B5F7186B7BF084EBA3F77BAC3132A5779902EC22AF2D2E79F42D324E083386DAEE9810
310
D1B44A5DAA54513C7A71E52A4AB9257D975B621308FE4D2141CC3DCFE946C154A3C1DFCCA7629EC69ACFA831634ADDA93C0388D2A9A2DDAFCF957C6995BCE7FBB6DC4EBAE79E63EB08E9A25F52F67076F7093CA545CA3053B5BF576DEAD4E0017143C5F759F32B2D6F145B52B67B48909B7C7FCA6586EE385A2189C16932CB
310
6DDFD9152AE317C430492A578ED27B72D85D40C7C93C097939E1B50F4D67F05334FE9DC362C30B7FF561B95259138ECFD9274C8D695C31B14D4EAA9F3D7FA8DDF652F8C5DEFA23284C799B7D94416DEE81E05A866302DC70192A5368EA65E1CED8BF107A1E2D3119A71E85DC1A7B0C1E93274CE04DD0F2ABC8AC7C987FDB00
310
2B6F81757B43502EF7A0D92E416494FAEEA4C9C090CD9557AA4D532F4996A272B94355C5A0E4974EEA9627476F30809B94D8D8D860062E02204643BEC7D0438AF800FC7E2B26955D595421E83C69E1A07E0E3122285835F014AD538188CF9737CE76D464A353FA55A001AB2526B84E985083693BC76FE211CA1D000679C889
310
E3C009832C87E1AC2EDD05C302557422DF0800E316FCAC86978A371F025A6C7DAA9F333E7BD160403A1A06EA75AA9888FF01504B0304140006080800DD565B4B51464CB48900000043010000360000006662782F31394545374534372D304339462D344445452D393436462D3735354437464546394641382F646972656374
310
6F72792E786D6C9D8F310EC2300C45AF127987122606C71DD918B841D4B851A43646695A717C52A85029031293A5A76FBF6FACEF7DA7264E43906840EF0FA03836E242F406C6DCEE4EA06AC22492573150D1F66C60C640E8938CB705396EEDD86DE9B5042FE27813D640EA63BB001C722AF6E55CB61E4863F58284D5D3F53D
310
D715CE1C3985E63FD7F1B7EBDD617E9F1E504B0304140006080800DD565B4B9E1A960C3D070000201C0000340000006662782F31394545374534372D304339462D344445452D393436462D3735354437464546394641382F6F626A656374732E786D6CDD59596FDB3810FE2B84F665F74196E4332E1C178E8FC228D21635BA
310
D837819669871BEA002525CEFEFA1D52A42C2AB2ADF400169B00B14391C3996FEED1E4FD3164E889F094C6D1ADE5755C0B91288877343ADC5A79B6B76F2CF47E8A263C8EB3CA3E0B453824B79658B6A693038FF3442DEDC81EE7ACBEBABAFB0BA5018988850286D3F4D64A830712E20ECEB37847D2C7CE0E67B873D81F3B5E
310
A7D868923D709C3CD4AE4A30275106ACC27A045414079EF92F88E44C278ED8606CEBB5DBD6BDB0CD91829B8CD228CD7014BCE2AA765DF70C57B5EB7A5E7FB1EC0EC6F6A0DFEFD9FD61D7B3EF56770BDB1BF5DCF9703E1FCF96630B4D27DB3866A5021212ED408B2FD6D49B38E24929BE42A189EF208E221228349B36EC88A2
310
4B495AC7C400D693A2551452C85A59E8B514FECCB656A0182C19686BE1F467D57AE3EDDF0042DAC64A794A8495A719075D2BEC0B7F70274EB16AE885A628C419E11433C4E896630E0A82AD85820C32C25B04292430935AD4F4AABC82615FF7A5262EF73963C27FADA9F4341FFC9164A9E48CFE43F889FBEA6DC013489BD328
310
BB51C2662F0990184F1CB9583CEB75D5C30248B467F800D602628A4DBD6E0DAFB98805EB8535FDB8DA1E37223E345F9EF038213C1396279D59F99DD660C5B4C0F85A8052E06AEAEE84CA5780FE13205FF28226A0394E8FFD635FCBCE7194EE631E8276908B6C17FEB8487C7DF56DE29487A70819B1F21CA6E0B63F0953430C
310
E3EE0AA4D3C913187DCC7B4AB84D8019D8F43D8D849F83A12016C312C4FBFDF6684DD7104C61114E6106D2C3EFC4115F117C147420DED434D4147E5B284A3B4CDDCF4EBAFA0036C36950AACA90F11CBE839F82EF6CB1F9B8C9F91E07E45E39F682EC69443348A6CD0C19A01B2EFF6DFD497AE407166F313B9D36360570CD21
310
1671A3412D1BA51624F5029C88345C6846AEDC53F076C67044E23C55EB4D712A8859CCFDED8B5FB870E35D7F6A1B282E5306D018CB20B9079C2602136BAAB45506C24E4550B030CC95051E0AADFADB3C4C7C1CC6792442ED6B53ACF301714658225095D4B4616BAFD5647774BFCF53085E8D24E70690CA9F35E1C2C2FB10C7
310
9AF8E564CF3124D138F229E4607096C61B8C0B4AF02EF39C12B6F7296379E8EF29833CE287383943BFA504D5CCF5485E9E63BE6B24685A96F6496D43027005AC064967AB22E62B9D72F244459929F399CE06C60E55875AD3FE997421324503A0DA188B80349AAD06E3EEC8F616F3BEDD9F0FBBF6EC6E39B37BEE60351BACE6
310
DDF1EA6425128153B4AAE63B50A528730CFFCB1EF2701B61CAE081101BEF9277EF65F6BC7520343ADE78B91C2DFB23DB9D8F5736546E4B7BDC1FAEECD160B018AD96ABF16A76E37092C6390F48EA741DD7D7269944873A7AD763289435D7939DD6575D98FF710CADE7044389FFD5205A5A654341D836888AA3F5108A834791
310
A2FC00AABE46F7A905D13A1F4D71EE8D71D9EDF45CF9E379E3AE3BEEDE8C87A5B15F0CD4F29E1F8E734D1204D077E6991F2738A0597342ADE1D2324EBF29B7747ADE00013AE5DFF292CB79465DE2D3101F88BFC7A24B68088CD72468CC610716A7298D482ABBBC57D55F8DA6DB8162CACCB90D4648533F2419FE1EFB936D43
310
CDA62136331FFAD14C4C04AE5605A541AB0EE41C45D1FD42E296F2BFF8290E135674BAD730F0BA1A02DDE334599C605A5CF104F6E6E3CC7777440E2EAE512FD9D7F541A3D6EAD4C7DF4DFE0C3CBAAEF985F0E82BDA974E9D8137163F3710548603AF37D28AB88695BE2A137D1CCBA1F30C5EFC67420F0FAD0ACD763AA9946C
310
45519D9110DA589CE5BC95BF0E07EEAB8B545CA83944E5A6371687B27FD31D1CA0271BB873E56DE51AA843690473AE5682BC92A2D184A52EE44C4F8CAEDEE0D717955DA5FAC3F1F29757CC55E70BE5F0E73A0E502D170158451FA3A66EACBA8D7A287DC659008174233FED3BF0881DD99D1A33835C5389AEEBD46BD5F35A04
310
D41026B658C4D97BF1857DC5A06AE89E53E74351B439C5FA5A24B60E0CA74F7C184C9BB43E7FD8D4A8C04AEBD35F0446E4B94641ADCE45377C81D4B7F5A9E7AF5150127D5B5F38FE9FE828B4022B63349806A731A33094273B742031646F183BB4E8367848529995C1785590D26F045A9C7E2A66AA19DE327D3A78C0309866
310
AA17CB03188A42C6BCB5D43AFA0DC6A062122987539D4768C3540CB350CEE9AD05169B51E8B63A5B1867C9E1A1A45E1B578263E3E820F27D71AAFCFF744CA00351E92457B9A70D2E4A32C399A0B04DE47B02A8FA8A07D3C9F78BAED9413883AFDB3C2B85392D9CA45120E81702857030F57B54F01EA1A0B82C97D7917B0C48
310
5A4DE62FDA4141D5CE303FC8F17A05EFD9E28B2326E3EBCF2861F941A8F352F76B50B245D7CDF2620A3501C350622658D490F377CE171EC32BA610AD281801FAFD7833FCC399C7611847C59233532FAAD0E6015E3BED1C3DF28336DEF5068E9C02A8B1BEBFC529E9E05DFA080BA05A4EC56CB480D83080329A560C406B44E8
310
028E19FBD70BA46AA3CA84A41A76053C72A68FC091C4BB1CE136D50D950124F80270251F9EBEE88589C361083EFD17504B0304140006080800DD565B4BB65DD210DE000000530100003C0000006662782F31394545374534372D304339462D344445452D393436462D3735354437464546394641382F7265736F7572636573
310
2F322F636E782E786D6C4D90CD6E03210C845F05715F60A346692396BC444FBD44141C8A0278C54FD5BE7D21A5524FB6663E59339697AF18C827E4E2316D746582124806AD4F6EA3ADDE96674A2E4A66C4FA0FA324E9081B1D3255D2656CFB942CDC740B430D3EDDA728AE0E12646FAE7B729498A04BD968311F1035D3ADA2
310
8572675657CD5696A160CB06FA89EA23CC132683AE60A93A88F5B4AC62399C5E57713E3E9D8F2F6F920F52C977C430799F2A64DC89C1BEA49E47483E6C255BF6931925BAF1178EF57092775BC95273FFC0C4EAF7DE311FB503FE407E5D25F9A8D8C7A37F9FE31DEA07504B0304140006080800DD565B4BFF15A4A45D000000
310
800000003A0000006662782F31394545374534372D304339462D344445452D393436462D3735354437464546394641382F7265736F75726365732F636E782E786D6C4D8B3B0E80201005AF42B6F75B59F0390B113044D83508C6E30BC6C26AF226F3B8BA6360974DA7271430F523308B2B198F9B80925DB700539227A2FCCB
310
80A18E5640D320F996A81C9F32D6E9129A0D1EF74FCE750E6D57BC7165FBCA07504B0304140006080800DD565B4BFCEC0B9F3E01000046050000300000006662782F31394545374534372D304339462D344445452D393436462D3735354437464546394641382F636E782E786D6CCD944D4EC3301085AF62799FBF8AAA5039
310
AEC48213B040EC1C671A4C134F644F10BD3D76710A0815B1A8D4EEACF11BE97D334F2336EF43CFDEC07983B6E6555E720656636B6C57F389B6D92D671B291C227D937166D500358F652E45E7701A53A985AD9AFA58ED8DDDA5A22272A699083C67BA57DED7DCEB171854AE26C216FC2E6F15A9BCCA1D789C9C86D04F6680D4
310
AF1D288296CB4559ADB2AACC16ABC7AA5C2F6FD6CBBB675144A5140D629FF4C612381C99C6F0B0C14C298AF82DC5E44CD244022EBF9CE58DB1A208FF52F8E0D6764947FB31EAC6B1375A511853819A80B220023588E2532C4511797F503FDC3FCD0E586B1C6842B7BFD000AA5303381ACB4312FEC77F10FE8D8DCD6BC0BDD4
310
B64FC2265B67439DD3EA435C7FEF3FA448D9AEBFBED01F8D9D3FF3E19490D1D7873CFB3A137171387961E9F102CA0F504B0304140006080800DD565B4BD804DD197E000000A30000000B0000006662782F636E782E786D6C4D8CD10AC22018465F45FE7B6B039713D411EDF73D467343721A36A3C74F63175D7D70F8CE91C3
310
67F3E46DD3CBC5A0A03D35406CB8C7D9855541DE17DA0319B44C31EE7F372061DAAC828A41CB35C5FC3CD06C9729FB4ABD0B8F03B6029123E3B4B90943D9884805BB18CABB6EE4068D30D7BE18E7AA94F9F5CAD6BCFE02504B0304140006080800DD565B4BA6D797065F0000008200000007000000636E782E786D6C4DCB3B
310
0E80201045D1AD90E9FD7516806B51190811670C8A61F982B1B0BAC9C97B72CA7B1037C6D3332918DA1E04D2CAC69353902EDB8C20262D23F3F59B81A079470595414B17391D1F19B4730A5583A7ED43BBE4025D9592775E5ADFFA01504B0304140006080800DD565B4BECFD112DA800000026010000130000005B436F6E74
310
656E745F54797065735D2E786D6C7D4F4B0EC22010BD0A61DF525D18634ABB506FE00510A79458060253536F2FD89D5197F3FED3F68B9BD80362B21E25DFD40D6780DADF2C1AC9671AAA3D677DD75E9E0112CB5A4C928F44E12044D22338956A1F003333F8E814E5331A1194BE2B0362DB343BA13D122055543278D79E6050
310
F344ECBC6478EDCD76CE8EABAE5449AE4298AC56946789C28AAFBEABC53F3EAF09A84A1441B91F0101CD4780756578C173A578FFDDBD00504B0304140006080800DD565B4B3DEE336E64000000790000001B0000006175746F6465736B2D64657369676E2D7061636B6167652E786D6C35CBC10E83200C00D05F21DCA56CA7
310
6D41FC96062B120735B69A7DBE268BB7777961F8D5AF396893C2ADB70FE7ADA196782C2DF776D7A97B5933C430F15651E5469C55D70F80A4992A3ADC954792C525AE70A1E4D6AD9816CC044FEFDF01FE3FDE907802504B0304140006080800DD565B4BB7105FD8F10000008E0100003D0000006662782F3139454537453437
310
2D304339462D344445452D393436462D3735354437464546394641382F7265736F75726365732F322F636F72652E786D6C8550CB6EC32010FC158B3BB6C1B64C224CA4B8EA17F4D41B828D8B1283C5A3EAE71762576A4F3DED6A76667677F8E56B7D549FE083717642A46E510556396DEC32A1146F98A1EA22B8772EFEA2A1
310
CACA1526546024F8E25DDA0E48391BC116D43A0D07284380882AF5C8CD8482FA8055D632C5CC08F77A93EA2E17A849BDF3044FC9E8436A74763337031E09DACEC3D0911977F43AE29ED057CC46C670C7C8CCF2E47A7AE97953C48247B3FE6C571E64045DF464C4A4C5747C23ED79E8CFC3E99D37852978883EFF7C2C2DDF65
310
3A6F76F48F5BDAF4FF6EC9D8D8D1C36D570424483EEE3910BC29E9E4F28C2ED792A4F806504B0304140006080800DD565B4B45616EFFF4000000960100003B0000006662782F31394545374534372D304339462D344445452D393436462D3735354437464546394641382F7265736F75726365732F636F72652E786D6C8550
310
C96EC32010FD156BEED8C68B4C224CA4B8EA17F4D41BC2131725068BA5EAE71762576A4F3D0D7ADB308F5FBED647F189CE6B6B46A0650D051A65676D961162B81106C54570676DF82583C2C81547C83008BE381BB70352D60434193576C60394DE6380423DD26304AF3E7095A58C2129FCBDDCA4BACB054B5AEE3AC163D4F3
310
61D5734AD3378D0E44534F7DDFD289B4CD75201D6D5E091B18232DA3134BCCF5F4D2F12A9B050F7AFDD9AE1CCA8073F6D381D09A34C31BADCF7D77EE4FEFBCCA4AC17D70E9E66369BE0E84436FA353E879B5B37F52E336FF9F1AB5096D73A4EE0E0F82A64F3E09C1ABDC521ACF0AD3CC8D8A6F504B0304140006080800DD56
310
5B4BC697ED22F2000000B1010000310000006662782F31394545374534372D304339462D344445452D393436462D3735354437464546394641382F636F72652E786D6C8D504B6EC32014BC8AC51E6C5CBBC41126AA1A7C82AEBA43401C94182C3E558F5F885DA9DD65F5D0BC1966DED0D3F772AFBEB40FC6D91160D4804A5B
310
E994B1F30852BCC003A84E8C7AE7E21F1AA8AC58F4080A0C189DBD4BEB0E4967A3B605B54EE91D1421E8082A79CF8F110479D58B4022C5CC0837B40A7913B346186D3C46A3597EA5D26B11B502AC6D3081B8812DF9C0CDB1EF8EFDF049EBC2643425A3762BA3B2BBB918ED01C303E784770436EFC304BB33E770E85E2748FA
310
FE4C263E0DD3DB81D645CC68883EDFBC7F52AE7B56BE09FF654EAB7A22B3B1F1A5DD0D3745C89E39CF63C1685D0ACCE3D16E9EA56CF603504B0304140006080800DD565B4B07CC038751010000DD0200000C0000006662782F636F72652E786D6C8D52CB6EC32010FC158BBB1FF8213B11265252F50B7AEA8D60E2A2D86061
310
B0F2F95DFC909B43D3CA1246B33B33BB23C8E9D177C124CC28B5AA118E121408C57523555B23676F6185821325466BFBA30D058AF5A2461E4694B446BB6185B85656288F2ADD881564E3282C0A7807971A8DFC4BF42C62CE42C7788F06C6EFAC15118E963E4A9C93CD4A950DA8C99B1406D134B91445862F61969ECB30C7E9
310
7B589555156615BE5450391FDE72127B322556F69B3B378259D1783E2E439C8469F9819363911F8BC327897D2725A335B0F36AEAB743F4767D9078C19FF4DCD0FCADE7A4B259BAEA2D8C11510CE3CD054A629F0FFCE6F09E330463C8CFB26BB7AD70076812DC6A9343A5D16E2F4DAC7302A49360FE48BC54417916F84D277D
310
A1F35A038262AA85D19885EBD559EFFE3CD3204C38D947A0B4E959B70FB78CB89FBBD1D34A1B9DEB4E9BFFB0B755B73063FF30E937504B0304140006080800DD565B4B5B1B52AE04010000B201000008000000636F72652E786D6C8D50CB6EC32010FC15C41DDBF82193081329AEFA053DF54681382836583CA2F6EF0B0995
310
DA5B4F8BE6B1332C3D7D6E2BB82BE7B53513C455038132C24A6D9609C67041048213A3CEDAF04B0681E19B9A608621A38BB3712F90B02628935163A52A20F75E0508C49A1E13F4E2AA365EF11892C2DFAA9D8B1B5F5485ABA78ED1A0B71FAB708A0725216B1B3C22DCA0767CC3CD71E88FC3E19DD659C9688C5A96282D53BA
310
BE68E5B2651E860ECFA86BCF23EA71FB8AC84808EA089E4962CE87979ED6D9CCA80F2EFDB92C493D03F0FC9E7369FDA418FDB0762D82544A026BD62FC81A5A67E24FE9B8CB7F94D626746D59F87478C8702AF4205270BE601A8FF3A699AFCDBE01504B01021400140006080800DD565B4B0000000000000000000000003700
310
000000000000000000000000000000006662782F31394545374534372D304339462D344445452D393436462D3735354437464546394641382F617474726962757465732E62696E504B01021400140006080800DD565B4B0000000000000000000000003500000000000000000000000000550000006662782F313945453745
310
34372D304339462D344445452D393436462D3735354437464546394641382F76657274696365732E62696E504B01021400140006080800DD565B4BF270F13306000000040000003600000000000000000000000000A80000006662782F31394545374534372D304339462D344445452D393436462D37353544374645463946
310
41382F747269616E676C65732E62696E504B01021400140006080800DD565B4B88E57597CD3F0000904100004200000000000000000000000000020100006662782F31394545374534372D304339462D344445452D393436462D3735354437464546394641382F7265736F75726365732F322F305F67656E657269632E706E
310
67504B01021400140006080800DD565B4B51464CB4890000004301000036000000000000000000000000002F4100006662782F31394545374534372D304339462D344445452D393436462D3735354437464546394641382F6469726563746F72792E786D6C504B01021400140006080800DD565B4B9E1A960C3D070000201C
310
000034000000000000000000000000000C4200006662782F31394545374534372D304339462D344445452D393436462D3735354437464546394641382F6F626A656374732E786D6C504B01021400140006080800DD565B4BB65DD210DE000000530100003C000000000000000000000000009B4900006662782F3139454537
310
4534372D304339462D344445452D393436462D3735354437464546394641382F7265736F75726365732F322F636E782E786D6C504B01021400140006080800DD565B4BFF15A4A45D000000800000003A00000000000000000000000000D34A00006662782F31394545374534372D304339462D344445452D393436462D3735
310
354437464546394641382F7265736F75726365732F636E782E786D6C504B01021400140006080800DD565B4BFCEC0B9F3E010000460500003000000000000000000000000000884B00006662782F31394545374534372D304339462D344445452D393436462D3735354437464546394641382F636E782E786D6C504B010214
310
00140006080800DD565B4BD804DD197E000000A30000000B00000000000000000000000000144D00006662782F636E782E786D6C504B01021400140006080800DD565B4BA6D797065F000000820000000700000000000000000000000000BB4D0000636E782E786D6C504B01021400140006080800DD565B4BECFD112DA800
310
00002601000013000000000000000000000000003F4E00005B436F6E74656E745F54797065735D2E786D6C504B01021400140006080800DD565B4B3DEE336E64000000790000001B00000000000000000000000000184F00006175746F6465736B2D64657369676E2D7061636B6167652E786D6C504B010214001400060808
310
00DD565B4BB7105FD8F10000008E0100003D00000000000000000000000000B54F00006662782F31394545374534372D304339462D344445452D393436462D3735354437464546394641382F7265736F75726365732F322F636F72652E786D6C504B01021400140006080800DD565B4B45616EFFF4000000960100003B0000
310
0000000000000000000000015100006662782F31394545374534372D304339462D344445452D393436462D3735354437464546394641382F7265736F75726365732F636F72652E786D6C504B01021400140006080800DD565B4BC697ED22F2000000B101000031000000000000000000000000004E5200006662782F313945
310
45374534372D304339462D344445452D393436462D3735354437464546394641382F636F72652E786D6C504B01021400140006080800DD565B4B07CC038751010000DD0200000C000000000000000000000000008F5300006662782F636F72652E786D6C504B01021400140006080800DD565B4B5B1B52AE04010000B20100
310
0008000000000000000000000000000A550000636F72652E786D6C504B050600000000120012002D060000345600000000
  0
XRECORD
  5
18E5
102
{ACAD_REACTORS
330
18E0
102
}
330
18E0
100
AcDbXrecord
280
     1
270
     1
271
     1
  0
XRECORD
  5
18E4
102
{ACAD_REACTORS
330
18E0
102
}
330
18E0
100
AcDbXrecord
280
     1
270
     1
271
     1
  0
XRECORD
  5
18E6
102
{ACAD_REACTORS
330
18E0
102
}
330
18E0
100
AcDbXrecord
280
     1
270
     1
271
     1
  0
XRECORD
  5
18E3
102
{ACAD_REACTORS
330
18E0
102
}
330
18E0
100
AcDbXrecord
280
     1
270
     1
271
     1
  0
XRECORD
  5
19A6
102
{ACAD_REACTORS
330
19A5
102
}
330
19A5
100
AcDbXrecord
280
     1
102
ACAD_ROUNDTRIP_2012_MLEADER_STYLE
298
     1
  0
XRECORD
  5
19A8
102
{ACAD_REACTORS
330
19A7
102
}
330
19A7
100
AcDbXrecord
280
     1
102
DISPLAYNAME
  1
Metric50
102
FLAGS
 90
        0
  0
CELLSTYLEMAP
  5
1973
102
{ACAD_REACTORS
330
1972
102
}
330
1972
100
AcDbCellStyleMap
 90
        3
300
CELLSTYLE
  1
TABLEFORMAT_BEGIN
 90
        5
170
     1
 91
        0
 92
    32768
 62
   257
 93
        1
300
CONTENTFORMAT
  1
CONTENTFORMAT_BEGIN
 90
        0
 91
        0
 92
        4
 93
        0
300

 40
0.0
140
1.0
 94
        5
 62
     0
340
11
144
6.0
309
CONTENTFORMAT_END
171
     1
301
MARGIN
  1
CELLMARGIN_BEGIN
 40
1.5
 40
1.5
 40
1.5
 40
1.5
 40
0.18
 40
0.18
309
CELLMARGIN_END
 94
        6
 95
        1
302
GRIDFORMAT
  1
GRIDFORMAT_BEGIN
 90
        0
 91
        1
 62
     0
 92
       -2
340
0
 93
        0
 40
0.045
309
GRIDFORMAT_END
 95
        2
302
GRIDFORMAT
  1
GRIDFORMAT_BEGIN
 90
        0
 91
        1
 62
     0
 92
       -2
340
0
 93
        0
 40
0.045
309
GRIDFORMAT_END
 95
        4
302
GRIDFORMAT
  1
GRIDFORMAT_BEGIN
 90
        0
 91
        1
 62
     0
 92
       -2
340
0
 93
        0
 40
0.045
309
GRIDFORMAT_END
 95
        8
302
GRIDFORMAT
  1
GRIDFORMAT_BEGIN
 90
        0
 91
        1
 62
     0
 92
       -2
340
0
 93
        0
 40
0.045
309
GRIDFORMAT_END
 95
       16
302
GRIDFORMAT
  1
GRIDFORMAT_BEGIN
 90
        0
 91
        1
 62
     0
 92
       -2
340
0
 93
        0
 40
0.045
309
GRIDFORMAT_END
 95
       32
302
GRIDFORMAT
  1
GRIDFORMAT_BEGIN
 90
        0
 91
        1
 62
     0
 92
       -2
340
0
 93
        0
 40
0.045
309
GRIDFORMAT_END
309
TABLEFORMAT_END
  1
CELLSTYLE_BEGIN
 90
        1
 91
        1
300
_TITLE
309
CELLSTYLE_END
300
CELLSTYLE
  1
TABLEFORMAT_BEGIN
 90
        5
170
     1
 91
        0
 92
        0
 62
   257
 93
        1
300
CONTENTFORMAT
  1
CONTENTFORMAT_BEGIN
 90
        0
 91
        0
 92
        4
 93
        0
300

 40
0.0
140
1.0
 94
        5
 62
     0
340
11
144
4.5
309
CONTENTFORMAT_END
171
     1
301
MARGIN
  1
CELLMARGIN_BEGIN
 40
1.5
 40
1.5
 40
1.5
 40
1.5
 40
0.18
 40
0.18
309
CELLMARGIN_END
 94
        6
 95
        1
302
GRIDFORMAT
  1
GRIDFORMAT_BEGIN
 90
        0
 91
        1
 62
     0
 92
       -2
340
0
 93
        0
 40
0.045
309
GRIDFORMAT_END
 95
        2
302
GRIDFORMAT
  1
GRIDFORMAT_BEGIN
 90
        0
 91
        1
 62
     0
 92
       -2
340
0
 93
        0
 40
0.045
309
GRIDFORMAT_END
 95
        4
302
GRIDFORMAT
  1
GRIDFORMAT_BEGIN
 90
        0
 91
        1
 62
     0
 92
       -2
340
0
 93
        0
 40
0.045
309
GRIDFORMAT_END
 95
        8
302
GRIDFORMAT
  1
GRIDFORMAT_BEGIN
 90
        0
 91
        1
 62
     0
 92
       -2
340
0
 93
        0
 40
0.045
309
GRIDFORMAT_END
 95
       16
302
GRIDFORMAT
  1
GRIDFORMAT_BEGIN
 90
        0
 91
        1
 62
     0
 92
       -2
340
0
 93
        0
 40
0.045
309
GRIDFORMAT_END
 95
       32
302
GRIDFORMAT
  1
GRIDFORMAT_BEGIN
 90
        0
 91
        1
 62
     0
 92
       -2
340
0
 93
        0
 40
0.045
309
GRIDFORMAT_END
309
TABLEFORMAT_END
  1
CELLSTYLE_BEGIN
 90
        2
 91
        1
300
_HEADER
309
CELLSTYLE_END
300
CELLSTYLE
  1
TABLEFORMAT_BEGIN
 90
        5
170
     1
 91
        0
 92
        0
 62
   257
 93
        1
300
CONTENTFORMAT
  1
CONTENTFORMAT_BEGIN
 90
        0
 91
        0
 92
        4
 93
        0
300

 40
0.0
140
1.0
 94
        2
 62
     0
340
11
144
4.5
309
CONTENTFORMAT_END
171
     1
301
MARGIN
  1
CELLMARGIN_BEGIN
 40
1.5
 40
1.5
 40
1.5
 40
1.5
 40
0.18
 40
0.18
309
CELLMARGIN_END
 94
        6
 95
        1
302
GRIDFORMAT
  1
GRIDFORMAT_BEGIN
 90
        0
 91
        1
 62
     0
 92
       -2
340
0
 93
        0
 40
0.045
309
GRIDFORMAT_END
 95
        2
302
GRIDFORMAT
  1
GRIDFORMAT_BEGIN
 90
        0
 91
        1
 62
     0
 92
       -2
340
0
 93
        0
 40
0.045
309
GRIDFORMAT_END
 95
        4
302
GRIDFORMAT
  1
GRIDFORMAT_BEGIN
 90
        0
 91
        1
 62
     0
 92
       -2
340
0
 93
        0
 40
0.045
309
GRIDFORMAT_END
 95
        8
302
GRIDFORMAT
  1
GRIDFORMAT_BEGIN
 90
        0
 91
        1
 62
     0
 92
       -2
340
0
 93
        0
 40
0.045
309
GRIDFORMAT_END
 95
       16
302
GRIDFORMAT
  1
GRIDFORMAT_BEGIN
 90
        0
 91
        1
 62
     0
 92
       -2
340
0
 93
        0
 40
0.045
309
GRIDFORMAT_END
 95
       32
302
GRIDFORMAT
  1
GRIDFORMAT_BEGIN
 90
        0
 91
        1
 62
     0
 92
       -2
340
0
 93
        0
 40
0.045
309
GRIDFORMAT_END
309
TABLEFORMAT_END
  1
CELLSTYLE_BEGIN
 90
        3
 91
        2
300
_DATA
309
CELLSTYLE_END
  0
XRECORD
  5
1980
102
{ACAD_REACTORS
330
197F
102
}
330
197F
100
AcDbXrecord
280
     1
102
RTVSPost2010Prop28
280
     1
102
RTVSPost2010PropOp28
 70
     1
102
RTVSPost2010Prop29
280
     1
102
RTVSPost2010PropOp29
 70
     1
102
RTVSPost2010Prop30
280
     0
102
RTVSPost2010PropOp30
 70
     1
102
RTVSPost2010Prop31
280
     0
102
RTVSPost2010PropOp31
 70
     1
102
RTVSPost2010Prop32
280
     0
102
RTVSPost2010PropOp32
 70
     1
102
RTVSPost2010Prop33
280
     0
102
RTVSPost2010PropOp33
 70
     1
102
RTVSPost2010Prop34
280
     0
102
RTVSPost2010PropOp34
 70
     1
102
RTVSPost2010Prop35
280
     0
102
RTVSPost2010PropOp35
 70
     1
102
RTVSPost2010Prop36
280
     0
102
RTVSPost2010PropOp36
 70
     1
102
RTVSPost2010Prop37
 90
       50
102
RTVSPost2010PropOp37
 70
     1
102
RTVSPost2010Prop38
140
0.0
102
RTVSPost2010PropOp38
 70
     1
102
RTVSPost2010Prop39
140
1.0
102
RTVSPost2010PropOp39
 70
     1
102
RTVSPost2010Prop40
 90
        0
102
RTVSPost2010PropOp40
 70
     1
102
RTVSPost2010Prop41ColorIndex
 90
       18
102
RTVSPost2010Prop41ColorRGB
 90
        0
102
RTVSPost2010PropOp41
 70
     1
102
RTVSPost2010Prop42
 90
       50
102
RTVSPost2010PropOp42
 70
     1
102
RTVSPost2010Prop43
 90
        3
102
RTVSPost2010PropOp43
 70
     1
102
RTVSPost2010Prop44ColorIndex
 90
        5
102
RTVSPost2010Prop44ColorRGB
 90
      255
102
RTVSPost2010PropOp44
 70
     1
102
RTVSPost2010Prop45
280
     0
102
RTVSPost2010PropOp45
 70
     1
102
RTVSPost2010Prop46
 90
       50
102
RTVSPost2010PropOp46
 70
     1
102
RTVSPost2010Prop47
 90
       50
102
RTVSPost2010PropOp47
 70
     1
102
RTVSPost2010Prop48
 90
       50
102
RTVSPost2010PropOp48
 70
     1
102
RTVSPost2010Prop49
280
     0
102
RTVSPost2010PropOp49
 70
     1
102
RTVSPost2010Prop50
 90
       50
102
RTVSPost2010PropOp50
 70
     1
102
RTVSPost2010Prop51ColorIndex
 90
      256
102
RTVSPost2010Prop51ColorRGB
 90
-16777216
102
RTVSPost2010PropOp51
 70
     0
102
RTVSPost2010Prop52
140
1.0
102
RTVSPost2010PropOp52
 70
     0
102
RTVSPost2010Prop53
 90
        2
102
RTVSPost2010PropOp53
 70
     1
102
RTVSPost2010Prop54
  1
strokes_ogs.tif
102
RTVSPost2010PropOp54
 70
     1
102
RTVSPost2010Prop55
280
     0
102
RTVSPost2010PropOp55
 70
     1
102
RTVSPost2010Prop56
140
1.0
102
RTVSPost2010PropOp56
 70
     1
102
RTVSPost2010Prop57
140
1.0
102
RTVSPost2010PropOp57
 70
     1
  0
XRECORD
  5
197E
102
{ACAD_REACTORS
330
197D
102
}
330
197D
100
AcDbXrecord
280
     1
102
RTVSPost2010Prop28
280
     0
102
RTVSPost2010PropOp28
 70
     1
102
RTVSPost2010Prop29
280
     1
102
RTVSPost2010PropOp29
 70
     1
102
RTVSPost2010Prop30
280
     1
102
RTVSPost2010PropOp30
 70
     1
102
RTVSPost2010Prop31
280
     0
102
RTVSPost2010PropOp31
 70
     1
102
RTVSPost2010Prop32
280
     0
102
RTVSPost2010PropOp32
 70
     1
102
RTVSPost2010Prop33
280
     0
102
RTVSPost2010PropOp33
 70
     1
102
RTVSPost2010Prop34
280
     0
102
RTVSPost2010PropOp34
 70
     1
102
RTVSPost2010Prop35
280
     0
102
RTVSPost2010PropOp35
 70
     1
102
RTVSPost2010Prop36
280
     0
102
RTVSPost2010PropOp36
 70
     1
102
RTVSPost2010Prop37
 90
       50
102
RTVSPost2010PropOp37
 70
     1
102
RTVSPost2010Prop38
140
0.0
102
RTVSPost2010PropOp38
 70
     1
102
RTVSPost2010Prop39
140
1.0
102
RTVSPost2010PropOp39
 70
     1
102
RTVSPost2010Prop40
 90
        0
102
RTVSPost2010PropOp40
 70
     1
102
RTVSPost2010Prop41ColorIndex
 90
       18
102
RTVSPost2010Prop41ColorRGB
 90
        0
102
RTVSPost2010PropOp41
 70
     1
102
RTVSPost2010Prop42
 90
       50
102
RTVSPost2010PropOp42
 70
     1
102
RTVSPost2010Prop43
 90
        3
102
RTVSPost2010PropOp43
 70
     1
102
RTVSPost2010Prop44ColorIndex
 90
        5
102
RTVSPost2010Prop44ColorRGB
 90
      255
102
RTVSPost2010PropOp44
 70
     1
102
RTVSPost2010Prop45
280
     0
102
RTVSPost2010PropOp45
 70
     1
102
RTVSPost2010Prop46
 90
       50
102
RTVSPost2010PropOp46
 70
     1
102
RTVSPost2010Prop47
 90
       50
102
RTVSPost2010PropOp47
 70
     1
102
RTVSPost2010Prop48
 90
       50
102
RTVSPost2010PropOp48
 70
     1
102
RTVSPost2010Prop49
280
     0
102
RTVSPost2010PropOp49
 70
     1
102
RTVSPost2010Prop50
 90
       50
102
RTVSPost2010PropOp50
 70
     1
102
RTVSPost2010Prop51ColorIndex
 90
      256
102
RTVSPost2010Prop51ColorRGB
 90
-16777216
102
RTVSPost2010PropOp51
 70
     0
102
RTVSPost2010Prop52
140
1.0
102
RTVSPost2010PropOp52
 70
     0
102
RTVSPost2010Prop53
 90
        2
102
RTVSPost2010PropOp53
 70
     1
102
RTVSPost2010Prop54
  1
strokes_ogs.tif
102
RTVSPost2010PropOp54
 70
     1
102
RTVSPost2010Prop55
280
     0
102
RTVSPost2010PropOp55
 70
     1
102
RTVSPost2010Prop56
140
1.0
102
RTVSPost2010PropOp56
 70
     1
102
RTVSPost2010Prop57
140
1.0
102
RTVSPost2010PropOp57
 70
     1
  0
XRECORD
  5
198C
102
{ACAD_REACTORS
330
198B
102
}
330
198B
100
AcDbXrecord
280
     1
102
RTVSPost2010Prop28
280
     0
102
RTVSPost2010PropOp28
 70
     1
102
RTVSPost2010Prop29
280
     1
102
RTVSPost2010PropOp29
 70
     1
102
RTVSPost2010Prop30
280
     1
102
RTVSPost2010PropOp30
 70
     1
102
RTVSPost2010Prop31
280
     0
102
RTVSPost2010PropOp31
 70
     1
102
RTVSPost2010Prop32
280
     0
102
RTVSPost2010PropOp32
 70
     1
102
RTVSPost2010Prop33
280
     0
102
RTVSPost2010PropOp33
 70
     1
102
RTVSPost2010Prop34
280
     0
102
RTVSPost2010PropOp34
 70
     1
102
RTVSPost2010Prop35
280
     0
102
RTVSPost2010PropOp35
 70
     1
102
RTVSPost2010Prop36
280
     0
102
RTVSPost2010PropOp36
 70
     1
102
RTVSPost2010Prop37
 90
       50
102
RTVSPost2010PropOp37
 70
     1
102
RTVSPost2010Prop38
140
0.0
102
RTVSPost2010PropOp38
 70
     1
102
RTVSPost2010Prop39
140
1.0
102
RTVSPost2010PropOp39
 70
     1
102
RTVSPost2010Prop40
 90
        0
102
RTVSPost2010PropOp40
 70
     1
102
RTVSPost2010Prop41ColorIndex
 90
       18
102
RTVSPost2010Prop41ColorRGB
 90
        0
102
RTVSPost2010PropOp41
 70
     1
102
RTVSPost2010Prop42
 90
       50
102
RTVSPost2010PropOp42
 70
     1
102
RTVSPost2010Prop43
 90
        3
102
RTVSPost2010PropOp43
 70
     1
102
RTVSPost2010Prop44ColorIndex
 90
        5
102
RTVSPost2010Prop44ColorRGB
 90
      255
102
RTVSPost2010PropOp44
 70
     1
102
RTVSPost2010Prop45
280
     0
102
RTVSPost2010PropOp45
 70
     1
102
RTVSPost2010Prop46
 90
       50
102
RTVSPost2010PropOp46
 70
     1
102
RTVSPost2010Prop47
 90
       50
102
RTVSPost2010PropOp47
 70
     1
102
RTVSPost2010Prop48
 90
       50
102
RTVSPost2010PropOp48
 70
     1
102
RTVSPost2010Prop49
280
     0
102
RTVSPost2010PropOp49
 70
     1
102
RTVSPost2010Prop50
 90
       50
102
RTVSPost2010PropOp50
 70
     1
102
RTVSPost2010Prop51ColorIndex
 90
      256
102
RTVSPost2010Prop51ColorRGB
 90
-16777216
102
RTVSPost2010PropOp51
 70
     0
102
RTVSPost2010Prop52
140
1.0
102
RTVSPost2010PropOp52
 70
     0
102
RTVSPost2010Prop53
 90
        2
102
RTVSPost2010PropOp53
 70
     1
102
RTVSPost2010Prop54
  1
strokes_ogs.tif
102
RTVSPost2010PropOp54
 70
     1
102
RTVSPost2010Prop55
280
     0
102
RTVSPost2010PropOp55
 70
     1
102
RTVSPost2010Prop56
140
1.0
102
RTVSPost2010PropOp56
 70
     1
102
RTVSPost2010Prop57
140
1.0
102
RTVSPost2010PropOp57
 70
     1
  0
XRECORD
  5
1994
102
{ACAD_REACTORS
330
1993
102
}
330
1993
100
AcDbXrecord
280
     1
102
RTVSPost2010Prop28
280
     0
102
RTVSPost2010PropOp28
 70
     1
102
RTVSPost2010Prop29
280
     1
102
RTVSPost2010PropOp29
 70
     1
102
RTVSPost2010Prop30
280
     1
102
RTVSPost2010PropOp30
 70
     1
102
RTVSPost2010Prop31
280
     0
102
RTVSPost2010PropOp31
 70
     1
102
RTVSPost2010Prop32
280
     0
102
RTVSPost2010PropOp32
 70
     1
102
RTVSPost2010Prop33
280
     0
102
RTVSPost2010PropOp33
 70
     1
102
RTVSPost2010Prop34
280
     0
102
RTVSPost2010PropOp34
 70
     1
102
RTVSPost2010Prop35
280
     0
102
RTVSPost2010PropOp35
 70
     1
102
RTVSPost2010Prop36
280
     0
102
RTVSPost2010PropOp36
 70
     1
102
RTVSPost2010Prop37
 90
       50
102
RTVSPost2010PropOp37
 70
     1
102
RTVSPost2010Prop38
140
0.0
102
RTVSPost2010PropOp38
 70
     1
102
RTVSPost2010Prop39
140
1.0
102
RTVSPost2010PropOp39
 70
     1
102
RTVSPost2010Prop40
 90
        0
102
RTVSPost2010PropOp40
 70
     1
102
RTVSPost2010Prop41ColorIndex
 90
       18
102
RTVSPost2010Prop41ColorRGB
 90
        0
102
RTVSPost2010PropOp41
 70
     1
102
RTVSPost2010Prop42
 90
       50
102
RTVSPost2010PropOp42
 70
     1
102
RTVSPost2010Prop43
 90
        3
102
RTVSPost2010PropOp43
 70
     1
102
RTVSPost2010Prop44ColorIndex
 90
        5
102
RTVSPost2010Prop44ColorRGB
 90
      255
102
RTVSPost2010PropOp44
 70
     1
102
RTVSPost2010Prop45
280
     0
102
RTVSPost2010PropOp45
 70
     1
102
RTVSPost2010Prop46
 90
       50
102
RTVSPost2010PropOp46
 70
     1
102
RTVSPost2010Prop47
 90
       50
102
RTVSPost2010PropOp47
 70
     1
102
RTVSPost2010Prop48
 90
       50
102
RTVSPost2010PropOp48
 70
     1
102
RTVSPost2010Prop49
280
     0
102
RTVSPost2010PropOp49
 70
     1
102
RTVSPost2010Prop50
 90
       50
102
RTVSPost2010PropOp50
 70
     1
102
RTVSPost2010Prop51ColorIndex
 90
      256
102
RTVSPost2010Prop51ColorRGB
 90
-16777216
102
RTVSPost2010PropOp51
 70
     0
102
RTVSPost2010Prop52
140
1.0
102
RTVSPost2010PropOp52
 70
     0
102
RTVSPost2010Prop53
 90
        2
102
RTVSPost2010PropOp53
 70
     1
102
RTVSPost2010Prop54
  1
strokes_ogs.tif
102
RTVSPost2010PropOp54
 70
     1
102
RTVSPost2010Prop55
280
     0
102
RTVSPost2010PropOp55
 70
     1
102
RTVSPost2010Prop56
140
1.0
102
RTVSPost2010PropOp56
 70
     1
102
RTVSPost2010Prop57
140
1.0
102
RTVSPost2010PropOp57
 70
     1
  0
XRECORD
  5
1986
102
{ACAD_REACTORS
330
1985
102
}
330
1985
100
AcDbXrecord
280
     1
102
RTVSPost2010Prop28
280
     0
102
RTVSPost2010PropOp28
 70
     1
102
RTVSPost2010Prop29
280
     1
102
RTVSPost2010PropOp29
 70
     1
102
RTVSPost2010Prop30
280
     1
102
RTVSPost2010PropOp30
 70
     1
102
RTVSPost2010Prop31
280
     0
102
RTVSPost2010PropOp31
 70
     1
102
RTVSPost2010Prop32
280
     0
102
RTVSPost2010PropOp32
 70
     1
102
RTVSPost2010Prop33
280
     0
102
RTVSPost2010PropOp33
 70
     1
102
RTVSPost2010Prop34
280
     0
102
RTVSPost2010PropOp34
 70
     1
102
RTVSPost2010Prop35
280
     0
102
RTVSPost2010PropOp35
 70
     1
102
RTVSPost2010Prop36
280
     0
102
RTVSPost2010PropOp36
 70
     1
102
RTVSPost2010Prop37
 90
       50
102
RTVSPost2010PropOp37
 70
     1
102
RTVSPost2010Prop38
140
0.0
102
RTVSPost2010PropOp38
 70
     1
102
RTVSPost2010Prop39
140
1.0
102
RTVSPost2010PropOp39
 70
     1
102
RTVSPost2010Prop40
 90
        0
102
RTVSPost2010PropOp40
 70
     1
102
RTVSPost2010Prop41ColorIndex
 90
       18
102
RTVSPost2010Prop41ColorRGB
 90
        0
102
RTVSPost2010PropOp41
 70
     1
102
RTVSPost2010Prop42
 90
       50
102
RTVSPost2010PropOp42
 70
     1
102
RTVSPost2010Prop43
 90
        3
102
RTVSPost2010PropOp43
 70
     1
102
RTVSPost2010Prop44ColorIndex
 90
        5
102
RTVSPost2010Prop44ColorRGB
 90
      255
102
RTVSPost2010PropOp44
 70
     1
102
RTVSPost2010Prop45
280
     0
102
RTVSPost2010PropOp45
 70
     1
102
RTVSPost2010Prop46
 90
       50
102
RTVSPost2010PropOp46
 70
     1
102
RTVSPost2010Prop47
 90
       50
102
RTVSPost2010PropOp47
 70
     1
102
RTVSPost2010Prop48
 90
       50
102
RTVSPost2010PropOp48
 70
     1
102
RTVSPost2010Prop49
280
     0
102
RTVSPost2010PropOp49
 70
     1
102
RTVSPost2010Prop50
 90
       50
102
RTVSPost2010PropOp50
 70
     1
102
RTVSPost2010Prop51ColorIndex
 90
      256
102
RTVSPost2010Prop51ColorRGB
 90
-16777216
102
RTVSPost2010PropOp51
 70
     0
102
RTVSPost2010Prop52
140
1.0
102
RTVSPost2010PropOp52
 70
     0
102
RTVSPost2010Prop53
 90
        2
102
RTVSPost2010PropOp53
 70
     1
102
RTVSPost2010Prop54
  1
strokes_ogs.tif
102
RTVSPost2010PropOp54
 70
     1
102
RTVSPost2010Prop55
280
     0
102
RTVSPost2010PropOp55
 70
     1
102
RTVSPost2010Prop56
140
1.0
102
RTVSPost2010PropOp56
 70
     1
102
RTVSPost2010Prop57
140
1.0
102
RTVSPost2010PropOp57
 70
     1
  0
XRECORD
  5
198A
102
{ACAD_REACTORS
330
1989
102
}
330
1989
100
AcDbXrecord
280
     1
102
RTVSPost2010Prop28
280
     0
102
RTVSPost2010PropOp28
 70
     1
102
RTVSPost2010Prop29
280
     1
102
RTVSPost2010PropOp29
 70
     1
102
RTVSPost2010Prop30
280
     1
102
RTVSPost2010PropOp30
 70
     1
102
RTVSPost2010Prop31
280
     0
102
RTVSPost2010PropOp31
 70
     1
102
RTVSPost2010Prop32
280
     0
102
RTVSPost2010PropOp32
 70
     1
102
RTVSPost2010Prop33
280
     0
102
RTVSPost2010PropOp33
 70
     1
102
RTVSPost2010Prop34
280
     0
102
RTVSPost2010PropOp34
 70
     1
102
RTVSPost2010Prop35
280
     0
102
RTVSPost2010PropOp35
 70
     1
102
RTVSPost2010Prop36
280
     0
102
RTVSPost2010PropOp36
 70
     1
102
RTVSPost2010Prop37
 90
       50
102
RTVSPost2010PropOp37
 70
     1
102
RTVSPost2010Prop38
140
0.0
102
RTVSPost2010PropOp38
 70
     1
102
RTVSPost2010Prop39
140
1.0
102
RTVSPost2010PropOp39
 70
     1
102
RTVSPost2010Prop40
 90
        0
102
RTVSPost2010PropOp40
 70
     1
102
RTVSPost2010Prop41ColorIndex
 90
       18
102
RTVSPost2010Prop41ColorRGB
 90
        0
102
RTVSPost2010PropOp41
 70
     1
102
RTVSPost2010Prop42
 90
       50
102
RTVSPost2010PropOp42
 70
     1
102
RTVSPost2010Prop43
 90
        3
102
RTVSPost2010PropOp43
 70
     1
102
RTVSPost2010Prop44ColorIndex
 90
        5
102
RTVSPost2010Prop44ColorRGB
 90
      255
102
RTVSPost2010PropOp44
 70
     1
102
RTVSPost2010Prop45
280
     0
102
RTVSPost2010PropOp45
 70
     1
102
RTVSPost2010Prop46
 90
       50
102
RTVSPost2010PropOp46
 70
     1
102
RTVSPost2010Prop47
 90
       50
102
RTVSPost2010PropOp47
 70
     1
102
RTVSPost2010Prop48
 90
       50
102
RTVSPost2010PropOp48
 70
     1
102
RTVSPost2010Prop49
280
     0
102
RTVSPost2010PropOp49
 70
     1
102
RTVSPost2010Prop50
 90
       50
102
RTVSPost2010PropOp50
 70
     1
102
RTVSPost2010Prop51ColorIndex
 90
      256
102
RTVSPost2010Prop51ColorRGB
 90
-16777216
102
RTVSPost2010PropOp51
 70
     0
102
RTVSPost2010Prop52
140
1.0
102
RTVSPost2010PropOp52
 70
     0
102
RTVSPost2010Prop53
 90
        2
102
RTVSPost2010PropOp53
 70
     1
102
RTVSPost2010Prop54
  1
strokes_ogs.tif
102
RTVSPost2010PropOp54
 70
     1
102
RTVSPost2010Prop55
280
     0
102
RTVSPost2010PropOp55
 70
     1
102
RTVSPost2010Prop56
140
1.0
102
RTVSPost2010PropOp56
 70
     1
102
RTVSPost2010Prop57
140
1.0
102
RTVSPost2010PropOp57
 70
     1
  0
XRECORD
  5
19A4
102
{ACAD_REACTORS
330
19A3
102
}
330
19A3
100
AcDbXrecord
280
     1
102
RTVSPost2010Prop28
280
     0
102
RTVSPost2010PropOp28
 70
     0
102
RTVSPost2010Prop29
280
     1
102
RTVSPost2010PropOp29
 70
     0
102
RTVSPost2010Prop30
280
     1
102
RTVSPost2010PropOp30
 70
     0
102
RTVSPost2010Prop31
280
     0
102
RTVSPost2010PropOp31
 70
     0
102
RTVSPost2010Prop32
280
     0
102
RTVSPost2010PropOp32
 70
     0
102
RTVSPost2010Prop33
280
     0
102
RTVSPost2010PropOp33
 70
     0
102
RTVSPost2010Prop34
280
     0
102
RTVSPost2010PropOp34
 70
     0
102
RTVSPost2010Prop35
280
     0
102
RTVSPost2010PropOp35
 70
     0
102
RTVSPost2010Prop36
280
     0
102
RTVSPost2010PropOp36
 70
     0
102
RTVSPost2010Prop37
 90
       50
102
RTVSPost2010PropOp37
 70
     0
102
RTVSPost2010Prop38
140
0.0
102
RTVSPost2010PropOp38
 70
     0
102
RTVSPost2010Prop39
140
1.0
102
RTVSPost2010PropOp39
 70
     0
102
RTVSPost2010Prop40
 90
        0
102
RTVSPost2010PropOp40
 70
     0
102
RTVSPost2010Prop41ColorIndex
 90
       18
102
RTVSPost2010Prop41ColorRGB
 90
        0
102
RTVSPost2010PropOp41
 70
     0
102
RTVSPost2010Prop42
 90
       50
102
RTVSPost2010PropOp42
 70
     0
102
RTVSPost2010Prop43
 90
        3
102
RTVSPost2010PropOp43
 70
     0
102
RTVSPost2010Prop44ColorIndex
 90
        5
102
RTVSPost2010Prop44ColorRGB
 90
      255
102
RTVSPost2010PropOp44
 70
     0
102
RTVSPost2010Prop45
280
     0
102
RTVSPost2010PropOp45
 70
     0
102
RTVSPost2010Prop46
 90
       50
102
RTVSPost2010PropOp46
 70
     0
102
RTVSPost2010Prop47
 90
       50
102
RTVSPost2010PropOp47
 70
     0
102
RTVSPost2010Prop48
 90
       50
102
RTVSPost2010PropOp48
 70
     0
102
RTVSPost2010Prop49
280
     0
102
RTVSPost2010PropOp49
 70
     0
102
RTVSPost2010Prop50
 90
       50
102
RTVSPost2010PropOp50
 70
     0
102
RTVSPost2010Prop51ColorIndex
 90
      256
102
RTVSPost2010Prop51ColorRGB
 90
-16777216
102
RTVSPost2010PropOp51
 70
     0
102
RTVSPost2010Prop52
140
1.0
102
RTVSPost2010PropOp52
 70
     0
102
RTVSPost2010Prop53
 90
        2
102
RTVSPost2010PropOp53
 70
     0
102
RTVSPost2010Prop54
  1
strokes_ogs.tif
102
RTVSPost2010PropOp54
 70
     0
102
RTVSPost2010Prop55
280
     0
102
RTVSPost2010PropOp55
 70
     0
102
RTVSPost2010Prop56
140
1.0
102
RTVSPost2010PropOp56
 70
     0
102
RTVSPost2010Prop57
140
1.0
102
RTVSPost2010PropOp57
 70
     0
  0
XRECORD
  5
1992
102
{ACAD_REACTORS
330
1991
102
}
330
1991
100
AcDbXrecord
280
     1
102
RTVSPost2010Prop28
280
     0
102
RTVSPost2010PropOp28
 70
     1
102
RTVSPost2010Prop29
280
     1
102
RTVSPost2010PropOp29
 70
     1
102
RTVSPost2010Prop30
280
     1
102
RTVSPost2010PropOp30
 70
     1
102
RTVSPost2010Prop31
280
     0
102
RTVSPost2010PropOp31
 70
     1
102
RTVSPost2010Prop32
280
     0
102
RTVSPost2010PropOp32
 70
     1
102
RTVSPost2010Prop33
280
     0
102
RTVSPost2010PropOp33
 70
     1
102
RTVSPost2010Prop34
280
     0
102
RTVSPost2010PropOp34
 70
     1
102
RTVSPost2010Prop35
280
     0
102
RTVSPost2010PropOp35
 70
     1
102
RTVSPost2010Prop36
280
     0
102
RTVSPost2010PropOp36
 70
     1
102
RTVSPost2010Prop37
 90
       50
102
RTVSPost2010PropOp37
 70
     1
102
RTVSPost2010Prop38
140
0.0
102
RTVSPost2010PropOp38
 70
     1
102
RTVSPost2010Prop39
140
1.0
102
RTVSPost2010PropOp39
 70
     1
102
RTVSPost2010Prop40
 90
        0
102
RTVSPost2010PropOp40
 70
     1
102
RTVSPost2010Prop41ColorIndex
 90
       18
102
RTVSPost2010Prop41ColorRGB
 90
        0
102
RTVSPost2010PropOp41
 70
     1
102
RTVSPost2010Prop42
 90
       50
102
RTVSPost2010PropOp42
 70
     1
102
RTVSPost2010Prop43
 90
        3
102
RTVSPost2010PropOp43
 70
     1
102
RTVSPost2010Prop44ColorIndex
 90
        5
102
RTVSPost2010Prop44ColorRGB
 90
      255
102
RTVSPost2010PropOp44
 70
     1
102
RTVSPost2010Prop45
280
     0
102
RTVSPost2010PropOp45
 70
     1
102
RTVSPost2010Prop46
 90
       50
102
RTVSPost2010PropOp46
 70
     1
102
RTVSPost2010Prop47
 90
       50
102
RTVSPost2010PropOp47
 70
     1
102
RTVSPost2010Prop48
 90
       50
102
RTVSPost2010PropOp48
 70
     1
102
RTVSPost2010Prop49
280
     0
102
RTVSPost2010PropOp49
 70
     1
102
RTVSPost2010Prop50
 90
       50
102
RTVSPost2010PropOp50
 70
     1
102
RTVSPost2010Prop51ColorIndex
 90
      256
102
RTVSPost2010Prop51ColorRGB
 90
-16777216
102
RTVSPost2010PropOp51
 70
     0
102
RTVSPost2010Prop52
140
1.0
102
RTVSPost2010PropOp52
 70
     0
102
RTVSPost2010Prop53
 90
        2
102
RTVSPost2010PropOp53
 70
     1
102
RTVSPost2010Prop54
  1
strokes_ogs.tif
102
RTVSPost2010PropOp54
 70
     1
102
RTVSPost2010Prop55
280
     0
102
RTVSPost2010PropOp55
 70
     1
102
RTVSPost2010Prop56
140
1.0
102
RTVSPost2010PropOp56
 70
     1
102
RTVSPost2010Prop57
140
1.0
102
RTVSPost2010PropOp57
 70
     1
  0
XRECORD
  5
1976
102
{ACAD_REACTORS
330
1975
102
}
330
1975
100
AcDbXrecord
280
     1
102
RTVSPost2010Prop28
280
     0
102
RTVSPost2010PropOp28
 70
     1
102
RTVSPost2010Prop29
280
     1
102
RTVSPost2010PropOp29
 70
     1
102
RTVSPost2010Prop30
280
     1
102
RTVSPost2010PropOp30
 70
     1
102
RTVSPost2010Prop31
280
     0
102
RTVSPost2010PropOp31
 70
     1
102
RTVSPost2010Prop32
280
     0
102
RTVSPost2010PropOp32
 70
     1
102
RTVSPost2010Prop33
280
     0
102
RTVSPost2010PropOp33
 70
     1
102
RTVSPost2010Prop34
280
     0
102
RTVSPost2010PropOp34
 70
     1
102
RTVSPost2010Prop35
280
     0
102
RTVSPost2010PropOp35
 70
     1
102
RTVSPost2010Prop36
280
     0
102
RTVSPost2010PropOp36
 70
     1
102
RTVSPost2010Prop37
 90
       50
102
RTVSPost2010PropOp37
 70
     1
102
RTVSPost2010Prop38
140
0.0
102
RTVSPost2010PropOp38
 70
     1
102
RTVSPost2010Prop39
140
1.0
102
RTVSPost2010PropOp39
 70
     1
102
RTVSPost2010Prop40
 90
        0
102
RTVSPost2010PropOp40
 70
     1
102
RTVSPost2010Prop41ColorIndex
 90
       18
102
RTVSPost2010Prop41ColorRGB
 90
        0
102
RTVSPost2010PropOp41
 70
     1
102
RTVSPost2010Prop42
 90
       50
102
RTVSPost2010PropOp42
 70
     1
102
RTVSPost2010Prop43
 90
        3
102
RTVSPost2010PropOp43
 70
     1
102
RTVSPost2010Prop44ColorIndex
 90
        5
102
RTVSPost2010Prop44ColorRGB
 90
      255
102
RTVSPost2010PropOp44
 70
     1
102
RTVSPost2010Prop45
280
     0
102
RTVSPost2010PropOp45
 70
     1
102
RTVSPost2010Prop46
 90
       50
102
RTVSPost2010PropOp46
 70
     1
102
RTVSPost2010Prop47
 90
       50
102
RTVSPost2010PropOp47
 70
     1
102
RTVSPost2010Prop48
 90
       50
102
RTVSPost2010PropOp48
 70
     1
102
RTVSPost2010Prop49
280
     0
102
RTVSPost2010PropOp49
 70
     1
102
RTVSPost2010Prop50
 90
       50
102
RTVSPost2010PropOp50
 70
     1
102
RTVSPost2010Prop51ColorIndex
 90
      256
102
RTVSPost2010Prop51ColorRGB
 90
-16777216
102
RTVSPost2010PropOp51
 70
     0
102
RTVSPost2010Prop52
140
1.0
102
RTVSPost2010PropOp52
 70
     0
102
RTVSPost2010Prop53
 90
        2
102
RTVSPost2010PropOp53
 70
     1
102
RTVSPost2010Prop54
  1
strokes_ogs.tif
102
RTVSPost2010PropOp54
 70
     1
102
RTVSPost2010Prop55
280
     0
102
RTVSPost2010PropOp55
 70
     1
102
RTVSPost2010Prop56
140
1.0
102
RTVSPost2010PropOp56
 70
     1
102
RTVSPost2010Prop57
140
1.0
102
RTVSPost2010PropOp57
 70
     1
  0
XRECORD
  5
1978
102
{ACAD_REACTORS
330
1977
102
}
330
1977
100
AcDbXrecord
280
     1
102
RTVSPost2010Prop28
280
     0
102
RTVSPost2010PropOp28
 70
     1
102
RTVSPost2010Prop29
280
     1
102
RTVSPost2010PropOp29
 70
     1
102
RTVSPost2010Prop30
280
     1
102
RTVSPost2010PropOp30
 70
     1
102
RTVSPost2010Prop31
280
     0
102
RTVSPost2010PropOp31
 70
     1
102
RTVSPost2010Prop32
280
     0
102
RTVSPost2010PropOp32
 70
     1
102
RTVSPost2010Prop33
280
     0
102
RTVSPost2010PropOp33
 70
     1
102
RTVSPost2010Prop34
280
     0
102
RTVSPost2010PropOp34
 70
     1
102
RTVSPost2010Prop35
280
     0
102
RTVSPost2010PropOp35
 70
     1
102
RTVSPost2010Prop36
280
     0
102
RTVSPost2010PropOp36
 70
     1
102
RTVSPost2010Prop37
 90
       50
102
RTVSPost2010PropOp37
 70
     1
102
RTVSPost2010Prop38
140
0.0
102
RTVSPost2010PropOp38
 70
     1
102
RTVSPost2010Prop39
140
1.0
102
RTVSPost2010PropOp39
 70
     1
102
RTVSPost2010Prop40
 90
        0
102
RTVSPost2010PropOp40
 70
     1
102
RTVSPost2010Prop41ColorIndex
 90
       18
102
RTVSPost2010Prop41ColorRGB
 90
        0
102
RTVSPost2010PropOp41
 70
     1
102
RTVSPost2010Prop42
 90
       50
102
RTVSPost2010PropOp42
 70
     1
102
RTVSPost2010Prop43
 90
        3
102
RTVSPost2010PropOp43
 70
     1
102
RTVSPost2010Prop44ColorIndex
 90
        5
102
RTVSPost2010Prop44ColorRGB
 90
      255
102
RTVSPost2010PropOp44
 70
     1
102
RTVSPost2010Prop45
280
     0
102
RTVSPost2010PropOp45
 70
     1
102
RTVSPost2010Prop46
 90
       50
102
RTVSPost2010PropOp46
 70
     1
102
RTVSPost2010Prop47
 90
       50
102
RTVSPost2010PropOp47
 70
     1
102
RTVSPost2010Prop48
 90
       50
102
RTVSPost2010PropOp48
 70
     1
102
RTVSPost2010Prop49
280
     0
102
RTVSPost2010PropOp49
 70
     1
102
RTVSPost2010Prop50
 90
       50
102
RTVSPost2010PropOp50
 70
     1
102
RTVSPost2010Prop51ColorIndex
 90
      256
102
RTVSPost2010Prop51ColorRGB
 90
-16777216
102
RTVSPost2010PropOp51
 70
     0
102
RTVSPost2010Prop52
140
1.0
102
RTVSPost2010PropOp52
 70
     0
102
RTVSPost2010Prop53
 90
        2
102
RTVSPost2010PropOp53
 70
     1
102
RTVSPost2010Prop54
  1
strokes_ogs.tif
102
RTVSPost2010PropOp54
 70
     1
102
RTVSPost2010Prop55
280
     0
102
RTVSPost2010PropOp55
 70
     1
102
RTVSPost2010Prop56
140
1.0
102
RTVSPost2010PropOp56
 70
     1
102
RTVSPost2010Prop57
140
1.0
102
RTVSPost2010PropOp57
 70
     1
  0
XRECORD
  5
197A
102
{ACAD_REACTORS
330
1979
102
}
330
1979
100
AcDbXrecord
280
     1
102
RTVSPost2010Prop28
280
     0
102
RTVSPost2010PropOp28
 70
     1
102
RTVSPost2010Prop29
280
     1
102
RTVSPost2010PropOp29
 70
     1
102
RTVSPost2010Prop30
280
     1
102
RTVSPost2010PropOp30
 70
     1
102
RTVSPost2010Prop31
280
     0
102
RTVSPost2010PropOp31
 70
     1
102
RTVSPost2010Prop32
280
     0
102
RTVSPost2010PropOp32
 70
     1
102
RTVSPost2010Prop33
280
     0
102
RTVSPost2010PropOp33
 70
     1
102
RTVSPost2010Prop34
280
     0
102
RTVSPost2010PropOp34
 70
     1
102
RTVSPost2010Prop35
280
     0
102
RTVSPost2010PropOp35
 70
     1
102
RTVSPost2010Prop36
280
     0
102
RTVSPost2010PropOp36
 70
     1
102
RTVSPost2010Prop37
 90
       50
102
RTVSPost2010PropOp37
 70
     1
102
RTVSPost2010Prop38
140
0.0
102
RTVSPost2010PropOp38
 70
     1
102
RTVSPost2010Prop39
140
1.0
102
RTVSPost2010PropOp39
 70
     1
102
RTVSPost2010Prop40
 90
        0
102
RTVSPost2010PropOp40
 70
     1
102
RTVSPost2010Prop41ColorIndex
 90
       18
102
RTVSPost2010Prop41ColorRGB
 90
        0
102
RTVSPost2010PropOp41
 70
     1
102
RTVSPost2010Prop42
 90
       50
102
RTVSPost2010PropOp42
 70
     1
102
RTVSPost2010Prop43
 90
        3
102
RTVSPost2010PropOp43
 70
     1
102
RTVSPost2010Prop44ColorIndex
 90
        5
102
RTVSPost2010Prop44ColorRGB
 90
      255
102
RTVSPost2010PropOp44
 70
     1
102
RTVSPost2010Prop45
280
     0
102
RTVSPost2010PropOp45
 70
     1
102
RTVSPost2010Prop46
 90
       50
102
RTVSPost2010PropOp46
 70
     1
102
RTVSPost2010Prop47
 90
       50
102
RTVSPost2010PropOp47
 70
     1
102
RTVSPost2010Prop48
 90
       50
102
RTVSPost2010PropOp48
 70
     1
102
RTVSPost2010Prop49
280
     0
102
RTVSPost2010PropOp49
 70
     1
102
RTVSPost2010Prop50
 90
       50
102
RTVSPost2010PropOp50
 70
     1
102
RTVSPost2010Prop51ColorIndex
 90
      256
102
RTVSPost2010Prop51ColorRGB
 90
-16777216
102
RTVSPost2010PropOp51
 70
     0
102
RTVSPost2010Prop52
140
1.0
102
RTVSPost2010PropOp52
 70
     0
102
RTVSPost2010Prop53
 90
        2
102
RTVSPost2010PropOp53
 70
     1
102
RTVSPost2010Prop54
  1
strokes_ogs.tif
102
RTVSPost2010PropOp54
 70
     1
102
RTVSPost2010Prop55
280
     0
102
RTVSPost2010PropOp55
 70
     1
102
RTVSPost2010Prop56
140
1.0
102
RTVSPost2010PropOp56
 70
     1
102
RTVSPost2010Prop57
140
1.0
102
RTVSPost2010PropOp57
 70
     1
  0
XRECORD
  5
197C
102
{ACAD_REACTORS
330
197B
102
}
330
197B
100
AcDbXrecord
280
     1
102
RTVSPost2010Prop28
280
     0
102
RTVSPost2010PropOp28
 70
     1
102
RTVSPost2010Prop29
280
     1
102
RTVSPost2010PropOp29
 70
     1
102
RTVSPost2010Prop30
280
     1
102
RTVSPost2010PropOp30
 70
     1
102
RTVSPost2010Prop31
280
     0
102
RTVSPost2010PropOp31
 70
     1
102
RTVSPost2010Prop32
280
     0
102
RTVSPost2010PropOp32
 70
     1
102
RTVSPost2010Prop33
280
     0
102
RTVSPost2010PropOp33
 70
     1
102
RTVSPost2010Prop34
280
     0
102
RTVSPost2010PropOp34
 70
     1
102
RTVSPost2010Prop35
280
     0
102
RTVSPost2010PropOp35
 70
     1
102
RTVSPost2010Prop36
280
     0
102
RTVSPost2010PropOp36
 70
     1
102
RTVSPost2010Prop37
 90
       50
102
RTVSPost2010PropOp37
 70
     1
102
RTVSPost2010Prop38
140
0.0
102
RTVSPost2010PropOp38
 70
     1
102
RTVSPost2010Prop39
140
1.0
102
RTVSPost2010PropOp39
 70
     1
102
RTVSPost2010Prop40
 90
        0
102
RTVSPost2010PropOp40
 70
     1
102
RTVSPost2010Prop41ColorIndex
 90
       18
102
RTVSPost2010Prop41ColorRGB
 90
        0
102
RTVSPost2010PropOp41
 70
     1
102
RTVSPost2010Prop42
 90
       50
102
RTVSPost2010PropOp42
 70
     1
102
RTVSPost2010Prop43
 90
        3
102
RTVSPost2010PropOp43
 70
     1
102
RTVSPost2010Prop44ColorIndex
 90
        5
102
RTVSPost2010Prop44ColorRGB
 90
      255
102
RTVSPost2010PropOp44
 70
     1
102
RTVSPost2010Prop45
280
     0
102
RTVSPost2010PropOp45
 70
     1
102
RTVSPost2010Prop46
 90
       50
102
RTVSPost2010PropOp46
 70
     1
102
RTVSPost2010Prop47
 90
       50
102
RTVSPost2010PropOp47
 70
     1
102
RTVSPost2010Prop48
 90
       50
102
RTVSPost2010PropOp48
 70
     1
102
RTVSPost2010Prop49
280
     0
102
RTVSPost2010PropOp49
 70
     1
102
RTVSPost2010Prop50
 90
       50
102
RTVSPost2010PropOp50
 70
     1
102
RTVSPost2010Prop51ColorIndex
 90
      256
102
RTVSPost2010Prop51ColorRGB
 90
-16777216
102
RTVSPost2010PropOp51
 70
     0
102
RTVSPost2010Prop52
140
1.0
102
RTVSPost2010PropOp52
 70
     0
102
RTVSPost2010Prop53
 90
        2
102
RTVSPost2010PropOp53
 70
     1
102
RTVSPost2010Prop54
  1
strokes_ogs.tif
102
RTVSPost2010PropOp54
 70
     1
102
RTVSPost2010Prop55
280
     0
102
RTVSPost2010PropOp55
 70
     1
102
RTVSPost2010Prop56
140
1.0
102
RTVSPost2010PropOp56
 70
     1
102
RTVSPost2010Prop57
140
1.0
102
RTVSPost2010PropOp57
 70
     1
  0
XRECORD
  5
1984
102
{ACAD_REACTORS
330
1983
102
}
330
1983
100
AcDbXrecord
280
     1
102
RTVSPost2010Prop28
280
     0
102
RTVSPost2010PropOp28
 70
     1
102
RTVSPost2010Prop29
280
     1
102
RTVSPost2010PropOp29
 70
     1
102
RTVSPost2010Prop30
280
     1
102
RTVSPost2010PropOp30
 70
     1
102
RTVSPost2010Prop31
280
     0
102
RTVSPost2010PropOp31
 70
     1
102
RTVSPost2010Prop32
280
     0
102
RTVSPost2010PropOp32
 70
     1
102
RTVSPost2010Prop33
280
     0
102
RTVSPost2010PropOp33
 70
     1
102
RTVSPost2010Prop34
280
     0
102
RTVSPost2010PropOp34
 70
     1
102
RTVSPost2010Prop35
280
     0
102
RTVSPost2010PropOp35
 70
     1
102
RTVSPost2010Prop36
280
     0
102
RTVSPost2010PropOp36
 70
     1
102
RTVSPost2010Prop37
 90
       50
102
RTVSPost2010PropOp37
 70
     1
102
RTVSPost2010Prop38
140
0.0
102
RTVSPost2010PropOp38
 70
     1
102
RTVSPost2010Prop39
140
1.0
102
RTVSPost2010PropOp39
 70
     1
102
RTVSPost2010Prop40
 90
        0
102
RTVSPost2010PropOp40
 70
     1
102
RTVSPost2010Prop41ColorIndex
 90
       18
102
RTVSPost2010Prop41ColorRGB
 90
        0
102
RTVSPost2010PropOp41
 70
     1
102
RTVSPost2010Prop42
 90
       50
102
RTVSPost2010PropOp42
 70
     1
102
RTVSPost2010Prop43
 90
        3
102
RTVSPost2010PropOp43
 70
     1
102
RTVSPost2010Prop44ColorIndex
 90
        5
102
RTVSPost2010Prop44ColorRGB
 90
      255
102
RTVSPost2010PropOp44
 70
     1
102
RTVSPost2010Prop45
280
     0
102
RTVSPost2010PropOp45
 70
     1
102
RTVSPost2010Prop46
 90
       50
102
RTVSPost2010PropOp46
 70
     1
102
RTVSPost2010Prop47
 90
       50
102
RTVSPost2010PropOp47
 70
     1
102
RTVSPost2010Prop48
 90
       50
102
RTVSPost2010PropOp48
 70
     1
102
RTVSPost2010Prop49
280
     0
102
RTVSPost2010PropOp49
 70
     1
102
RTVSPost2010Prop50
 90
       50
102
RTVSPost2010PropOp50
 70
     1
102
RTVSPost2010Prop51ColorIndex
 90
      256
102
RTVSPost2010Prop51ColorRGB
 90
-16777216
102
RTVSPost2010PropOp51
 70
     0
102
RTVSPost2010Prop52
140
1.0
102
RTVSPost2010PropOp52
 70
     0
102
RTVSPost2010Prop53
 90
        2
102
RTVSPost2010PropOp53
 70
     1
102
RTVSPost2010Prop54
  1
strokes_ogs.tif
102
RTVSPost2010PropOp54
 70
     1
102
RTVSPost2010Prop55
280
     0
102
RTVSPost2010PropOp55
 70
     1
102
RTVSPost2010Prop56
140
1.0
102
RTVSPost2010PropOp56
 70
     1
102
RTVSPost2010Prop57
140
1.0
102
RTVSPost2010PropOp57
 70
     1
  0
XRECORD
  5
19A0
102
{ACAD_REACTORS
330
199F
102
}
330
199F
100
AcDbXrecord
280
     1
102
RTVSPost2010Prop28
280
     0
102
RTVSPost2010PropOp28
 70
     0
102
RTVSPost2010Prop29
280
     1
102
RTVSPost2010PropOp29
 70
     0
102
RTVSPost2010Prop30
280
     1
102
RTVSPost2010PropOp30
 70
     0
102
RTVSPost2010Prop31
280
     0
102
RTVSPost2010PropOp31
 70
     0
102
RTVSPost2010Prop32
280
     0
102
RTVSPost2010PropOp32
 70
     0
102
RTVSPost2010Prop33
280
     0
102
RTVSPost2010PropOp33
 70
     0
102
RTVSPost2010Prop34
280
     0
102
RTVSPost2010PropOp34
 70
     0
102
RTVSPost2010Prop35
280
     0
102
RTVSPost2010PropOp35
 70
     0
102
RTVSPost2010Prop36
280
     0
102
RTVSPost2010PropOp36
 70
     0
102
RTVSPost2010Prop37
 90
       50
102
RTVSPost2010PropOp37
 70
     0
102
RTVSPost2010Prop38
140
0.0
102
RTVSPost2010PropOp38
 70
     0
102
RTVSPost2010Prop39
140
1.0
102
RTVSPost2010PropOp39
 70
     0
102
RTVSPost2010Prop40
 90
        0
102
RTVSPost2010PropOp40
 70
     0
102
RTVSPost2010Prop41ColorIndex
 90
       18
102
RTVSPost2010Prop41ColorRGB
 90
        0
102
RTVSPost2010PropOp41
 70
     0
102
RTVSPost2010Prop42
 90
       50
102
RTVSPost2010PropOp42
 70
     0
102
RTVSPost2010Prop43
 90
        3
102
RTVSPost2010PropOp43
 70
     0
102
RTVSPost2010Prop44ColorIndex
 90
        5
102
RTVSPost2010Prop44ColorRGB
 90
      255
102
RTVSPost2010PropOp44
 70
     0
102
RTVSPost2010Prop45
280
     0
102
RTVSPost2010PropOp45
 70
     0
102
RTVSPost2010Prop46
 90
       50
102
RTVSPost2010PropOp46
 70
     0
102
RTVSPost2010Prop47
 90
       50
102
RTVSPost2010PropOp47
 70
     0
102
RTVSPost2010Prop48
 90
       50
102
RTVSPost2010PropOp48
 70
     0
102
RTVSPost2010Prop49
280
     0
102
RTVSPost2010PropOp49
 70
     0
102
RTVSPost2010Prop50
 90
       50
102
RTVSPost2010PropOp50
 70
     0
102
RTVSPost2010Prop51ColorIndex
 90
      256
102
RTVSPost2010Prop51ColorRGB
 90
-16777216
102
RTVSPost2010PropOp51
 70
     0
102
RTVSPost2010Prop52
140
1.0
102
RTVSPost2010PropOp52
 70
     0
102
RTVSPost2010Prop53
 90
        2
102
RTVSPost2010PropOp53
 70
     0
102
RTVSPost2010Prop54
  1
strokes_ogs.tif
102
RTVSPost2010PropOp54
 70
     0
102
RTVSPost2010Prop55
280
     0
102
RTVSPost2010PropOp55
 70
     0
102
RTVSPost2010Prop56
140
1.0
102
RTVSPost2010PropOp56
 70
     0
102
RTVSPost2010Prop57
140
1.0
102
RTVSPost2010PropOp57
 70
     0
  0
XRECORD
  5
1990
102
{ACAD_REACTORS
330
198F
102
}
330
198F
100
AcDbXrecord
280
     1
102
RTVSPost2010Prop28
280
     0
102
RTVSPost2010PropOp28
 70
     1
102
RTVSPost2010Prop29
280
     1
102
RTVSPost2010PropOp29
 70
     1
102
RTVSPost2010Prop30
280
     1
102
RTVSPost2010PropOp30
 70
     1
102
RTVSPost2010Prop31
280
     0
102
RTVSPost2010PropOp31
 70
     1
102
RTVSPost2010Prop32
280
     0
102
RTVSPost2010PropOp32
 70
     1
102
RTVSPost2010Prop33
280
     0
102
RTVSPost2010PropOp33
 70
     1
102
RTVSPost2010Prop34
280
     0
102
RTVSPost2010PropOp34
 70
     1
102
RTVSPost2010Prop35
280
     0
102
RTVSPost2010PropOp35
 70
     1
102
RTVSPost2010Prop36
280
     0
102
RTVSPost2010PropOp36
 70
     1
102
RTVSPost2010Prop37
 90
       50
102
RTVSPost2010PropOp37
 70
     1
102
RTVSPost2010Prop38
140
0.0
102
RTVSPost2010PropOp38
 70
     1
102
RTVSPost2010Prop39
140
1.0
102
RTVSPost2010PropOp39
 70
     1
102
RTVSPost2010Prop40
 90
        0
102
RTVSPost2010PropOp40
 70
     1
102
RTVSPost2010Prop41ColorIndex
 90
       18
102
RTVSPost2010Prop41ColorRGB
 90
        0
102
RTVSPost2010PropOp41
 70
     1
102
RTVSPost2010Prop42
 90
       50
102
RTVSPost2010PropOp42
 70
     1
102
RTVSPost2010Prop43
 90
        3
102
RTVSPost2010PropOp43
 70
     1
102
RTVSPost2010Prop44ColorIndex
 90
        5
102
RTVSPost2010Prop44ColorRGB
 90
      255
102
RTVSPost2010PropOp44
 70
     1
102
RTVSPost2010Prop45
280
     0
102
RTVSPost2010PropOp45
 70
     1
102
RTVSPost2010Prop46
 90
       50
102
RTVSPost2010PropOp46
 70
     1
102
RTVSPost2010Prop47
 90
       50
102
RTVSPost2010PropOp47
 70
     1
102
RTVSPost2010Prop48
 90
       50
102
RTVSPost2010PropOp48
 70
     1
102
RTVSPost2010Prop49
280
     0
102
RTVSPost2010PropOp49
 70
     1
102
RTVSPost2010Prop50
 90
       50
102
RTVSPost2010PropOp50
 70
     1
102
RTVSPost2010Prop51ColorIndex
 90
      256
102
RTVSPost2010Prop51ColorRGB
 90
-16777216
102
RTVSPost2010PropOp51
 70
     0
102
RTVSPost2010Prop52
140
1.0
102
RTVSPost2010PropOp52
 70
     0
102
RTVSPost2010Prop53
 90
        2
102
RTVSPost2010PropOp53
 70
     1
102
RTVSPost2010Prop54
  1
strokes_ogs.tif
102
RTVSPost2010PropOp54
 70
     1
102
RTVSPost2010Prop55
280
     0
102
RTVSPost2010PropOp55
 70
     1
102
RTVSPost2010Prop56
140
1.0
102
RTVSPost2010PropOp56
 70
     1
102
RTVSPost2010Prop57
140
1.0
102
RTVSPost2010PropOp57
 70
     1
  0
XRECORD
  5
19A2
102
{ACAD_REACTORS
330
19A1
102
}
330
19A1
100
AcDbXrecord
280
     1
102
RTVSPost2010Prop28
280
     0
102
RTVSPost2010PropOp28
 70
     0
102
RTVSPost2010Prop29
280
     1
102
RTVSPost2010PropOp29
 70
     0
102
RTVSPost2010Prop30
280
     1
102
RTVSPost2010PropOp30
 70
     0
102
RTVSPost2010Prop31
280
     0
102
RTVSPost2010PropOp31
 70
     0
102
RTVSPost2010Prop32
280
     0
102
RTVSPost2010PropOp32
 70
     0
102
RTVSPost2010Prop33
280
     0
102
RTVSPost2010PropOp33
 70
     0
102
RTVSPost2010Prop34
280
     0
102
RTVSPost2010PropOp34
 70
     0
102
RTVSPost2010Prop35
280
     0
102
RTVSPost2010PropOp35
 70
     0
102
RTVSPost2010Prop36
280
     0
102
RTVSPost2010PropOp36
 70
     0
102
RTVSPost2010Prop37
 90
       50
102
RTVSPost2010PropOp37
 70
     0
102
RTVSPost2010Prop38
140
0.0
102
RTVSPost2010PropOp38
 70
     0
102
RTVSPost2010Prop39
140
1.0
102
RTVSPost2010PropOp39
 70
     0
102
RTVSPost2010Prop40
 90
        0
102
RTVSPost2010PropOp40
 70
     0
102
RTVSPost2010Prop41ColorIndex
 90
       18
102
RTVSPost2010Prop41ColorRGB
 90
        0
102
RTVSPost2010PropOp41
 70
     0
102
RTVSPost2010Prop42
 90
       50
102
RTVSPost2010PropOp42
 70
     0
102
RTVSPost2010Prop43
 90
        3
102
RTVSPost2010PropOp43
 70
     0
102
RTVSPost2010Prop44ColorIndex
 90
        5
102
RTVSPost2010Prop44ColorRGB
 90
      255
102
RTVSPost2010PropOp44
 70
     0
102
RTVSPost2010Prop45
280
     0
102
RTVSPost2010PropOp45
 70
     0
102
RTVSPost2010Prop46
 90
       50
102
RTVSPost2010PropOp46
 70
     0
102
RTVSPost2010Prop47
 90
       50
102
RTVSPost2010PropOp47
 70
     0
102
RTVSPost2010Prop48
 90
       50
102
RTVSPost2010PropOp48
 70
     0
102
RTVSPost2010Prop49
280
     0
102
RTVSPost2010PropOp49
 70
     0
102
RTVSPost2010Prop50
 90
       50
102
RTVSPost2010PropOp50
 70
     0
102
RTVSPost2010Prop51ColorIndex
 90
      256
102
RTVSPost2010Prop51ColorRGB
 90
-16777216
102
RTVSPost2010PropOp51
 70
     0
102
RTVSPost2010Prop52
140
1.0
102
RTVSPost2010PropOp52
 70
     0
102
RTVSPost2010Prop53
 90
        2
102
RTVSPost2010PropOp53
 70
     0
102
RTVSPost2010Prop54
  1
strokes_ogs.tif
102
RTVSPost2010PropOp54
 70
     0
102
RTVSPost2010Prop55
280
     0
102
RTVSPost2010PropOp55
 70
     0
102
RTVSPost2010Prop56
140
1.0
102
RTVSPost2010PropOp56
 70
     0
102
RTVSPost2010Prop57
140
1.0
102
RTVSPost2010PropOp57
 70
     0
  0
XRECORD
  5
1988
102
{ACAD_REACTORS
330
1987
102
}
330
1987
100
AcDbXrecord
280
     1
102
RTVSPost2010Prop28
280
     0
102
RTVSPost2010PropOp28
 70
     1
102
RTVSPost2010Prop29
280
     1
102
RTVSPost2010PropOp29
 70
     1
102
RTVSPost2010Prop30
280
     1
102
RTVSPost2010PropOp30
 70
     1
102
RTVSPost2010Prop31
280
     0
102
RTVSPost2010PropOp31
 70
     1
102
RTVSPost2010Prop32
280
     0
102
RTVSPost2010PropOp32
 70
     1
102
RTVSPost2010Prop33
280
     0
102
RTVSPost2010PropOp33
 70
     1
102
RTVSPost2010Prop34
280
     0
102
RTVSPost2010PropOp34
 70
     1
102
RTVSPost2010Prop35
280
     0
102
RTVSPost2010PropOp35
 70
     1
102
RTVSPost2010Prop36
280
     0
102
RTVSPost2010PropOp36
 70
     1
102
RTVSPost2010Prop37
 90
       50
102
RTVSPost2010PropOp37
 70
     1
102
RTVSPost2010Prop38
140
0.0
102
RTVSPost2010PropOp38
 70
     1
102
RTVSPost2010Prop39
140
1.0
102
RTVSPost2010PropOp39
 70
     1
102
RTVSPost2010Prop40
 90
        0
102
RTVSPost2010PropOp40
 70
     1
102
RTVSPost2010Prop41ColorIndex
 90
       18
102
RTVSPost2010Prop41ColorRGB
 90
        0
102
RTVSPost2010PropOp41
 70
     1
102
RTVSPost2010Prop42
 90
       50
102
RTVSPost2010PropOp42
 70
     1
102
RTVSPost2010Prop43
 90
        3
102
RTVSPost2010PropOp43
 70
     1
102
RTVSPost2010Prop44ColorIndex
 90
        5
102
RTVSPost2010Prop44ColorRGB
 90
      255
102
RTVSPost2010PropOp44
 70
     1
102
RTVSPost2010Prop45
280
     0
102
RTVSPost2010PropOp45
 70
     1
102
RTVSPost2010Prop46
 90
       50
102
RTVSPost2010PropOp46
 70
     1
102
RTVSPost2010Prop47
 90
       50
102
RTVSPost2010PropOp47
 70
     1
102
RTVSPost2010Prop48
 90
       50
102
RTVSPost2010PropOp48
 70
     1
102
RTVSPost2010Prop49
280
     0
102
RTVSPost2010PropOp49
 70
     1
102
RTVSPost2010Prop50
 90
       50
102
RTVSPost2010PropOp50
 70
     1
102
RTVSPost2010Prop51ColorIndex
 90
      256
102
RTVSPost2010Prop51ColorRGB
 90
-16777216
102
RTVSPost2010PropOp51
 70
     0
102
RTVSPost2010Prop52
140
1.0
102
RTVSPost2010PropOp52
 70
     0
102
RTVSPost2010Prop53
 90
        2
102
RTVSPost2010PropOp53
 70
     1
102
RTVSPost2010Prop54
  1
strokes_ogs.tif
102
RTVSPost2010PropOp54
 70
     1
102
RTVSPost2010Prop55
280
     0
102
RTVSPost2010PropOp55
 70
     1
102
RTVSPost2010Prop56
140
1.0
102
RTVSPost2010PropOp56
 70
     1
102
RTVSPost2010Prop57
140
1.0
102
RTVSPost2010PropOp57
 70
     1
  0
XRECORD
  5
199E
102
{ACAD_REACTORS
330
199D
102
}
330
199D
100
AcDbXrecord
280
     1
102
RTVSPost2010Prop28
280
     0
102
RTVSPost2010PropOp28
 70
     1
102
RTVSPost2010Prop29
280
     1
102
RTVSPost2010PropOp29
 70
     1
102
RTVSPost2010Prop30
280
     1
102
RTVSPost2010PropOp30
 70
     1
102
RTVSPost2010Prop31
280
     0
102
RTVSPost2010PropOp31
 70
     1
102
RTVSPost2010Prop32
280
     0
102
RTVSPost2010PropOp32
 70
     1
102
RTVSPost2010Prop33
280
     0
102
RTVSPost2010PropOp33
 70
     1
102
RTVSPost2010Prop34
280
     0
102
RTVSPost2010PropOp34
 70
     1
102
RTVSPost2010Prop35
280
     0
102
RTVSPost2010PropOp35
 70
     1
102
RTVSPost2010Prop36
280
     0
102
RTVSPost2010PropOp36
 70
     1
102
RTVSPost2010Prop37
 90
       50
102
RTVSPost2010PropOp37
 70
     1
102
RTVSPost2010Prop38
140
0.0
102
RTVSPost2010PropOp38
 70
     1
102
RTVSPost2010Prop39
140
1.0
102
RTVSPost2010PropOp39
 70
     1
102
RTVSPost2010Prop40
 90
        0
102
RTVSPost2010PropOp40
 70
     1
102
RTVSPost2010Prop41ColorIndex
 90
       18
102
RTVSPost2010Prop41ColorRGB
 90
        0
102
RTVSPost2010PropOp41
 70
     1
102
RTVSPost2010Prop42
 90
       50
102
RTVSPost2010PropOp42
 70
     1
102
RTVSPost2010Prop43
 90
        3
102
RTVSPost2010PropOp43
 70
     1
102
RTVSPost2010Prop44ColorIndex
 90
        5
102
RTVSPost2010Prop44ColorRGB
 90
      255
102
RTVSPost2010PropOp44
 70
     1
102
RTVSPost2010Prop45
280
     0
102
RTVSPost2010PropOp45
 70
     1
102
RTVSPost2010Prop46
 90
       50
102
RTVSPost2010PropOp46
 70
     1
102
RTVSPost2010Prop47
 90
       50
102
RTVSPost2010PropOp47
 70
     1
102
RTVSPost2010Prop48
 90
       50
102
RTVSPost2010PropOp48
 70
     1
102
RTVSPost2010Prop49
280
     0
102
RTVSPost2010PropOp49
 70
     1
102
RTVSPost2010Prop50
 90
       50
102
RTVSPost2010PropOp50
 70
     1
102
RTVSPost2010Prop51ColorIndex
 90
      256
102
RTVSPost2010Prop51ColorRGB
 90
-16777216
102
RTVSPost2010PropOp51
 70
     0
102
RTVSPost2010Prop52
140
1.0
102
RTVSPost2010PropOp52
 70
     0
102
RTVSPost2010Prop53
 90
        2
102
RTVSPost2010PropOp53
 70
     1
102
RTVSPost2010Prop54
  1
strokes_ogs.tif
102
RTVSPost2010PropOp54
 70
     1
102
RTVSPost2010Prop55
280
     0
102
RTVSPost2010PropOp55
 70
     1
102
RTVSPost2010Prop56
140
1.0
102
RTVSPost2010PropOp56
 70
     1
102
RTVSPost2010Prop57
140
1.0
102
RTVSPost2010PropOp57
 70
     1
  0
XRECORD
  5
199C
102
{ACAD_REACTORS
330
199B
102
}
330
199B
100
AcDbXrecord
280
     1
102
RTVSPost2010Prop28
280
     0
102
RTVSPost2010PropOp28
 70
     1
102
RTVSPost2010Prop29
280
     1
102
RTVSPost2010PropOp29
 70
     1
102
RTVSPost2010Prop30
280
     1
102
RTVSPost2010PropOp30
 70
     1
102
RTVSPost2010Prop31
280
     0
102
RTVSPost2010PropOp31
 70
     1
102
RTVSPost2010Prop32
280
     0
102
RTVSPost2010PropOp32
 70
     1
102
RTVSPost2010Prop33
280
     0
102
RTVSPost2010PropOp33
 70
     1
102
RTVSPost2010Prop34
280
     0
102
RTVSPost2010PropOp34
 70
     1
102
RTVSPost2010Prop35
280
     0
102
RTVSPost2010PropOp35
 70
     1
102
RTVSPost2010Prop36
280
     0
102
RTVSPost2010PropOp36
 70
     1
102
RTVSPost2010Prop37
 90
       50
102
RTVSPost2010PropOp37
 70
     1
102
RTVSPost2010Prop38
140
0.0
102
RTVSPost2010PropOp38
 70
     1
102
RTVSPost2010Prop39
140
1.0
102
RTVSPost2010PropOp39
 70
     1
102
RTVSPost2010Prop40
 90
        0
102
RTVSPost2010PropOp40
 70
     1
102
RTVSPost2010Prop41ColorIndex
 90
       18
102
RTVSPost2010Prop41ColorRGB
 90
        0
102
RTVSPost2010PropOp41
 70
     1
102
RTVSPost2010Prop42
 90
       50
102
RTVSPost2010PropOp42
 70
     1
102
RTVSPost2010Prop43
 90
        3
102
RTVSPost2010PropOp43
 70
     1
102
RTVSPost2010Prop44ColorIndex
 90
        5
102
RTVSPost2010Prop44ColorRGB
 90
      255
102
RTVSPost2010PropOp44
 70
     1
102
RTVSPost2010Prop45
280
     0
102
RTVSPost2010PropOp45
 70
     1
102
RTVSPost2010Prop46
 90
       50
102
RTVSPost2010PropOp46
 70
     1
102
RTVSPost2010Prop47
 90
       50
102
RTVSPost2010PropOp47
 70
     1
102
RTVSPost2010Prop48
 90
       50
102
RTVSPost2010PropOp48
 70
     1
102
RTVSPost2010Prop49
280
     0
102
RTVSPost2010PropOp49
 70
     1
102
RTVSPost2010Prop50
 90
       50
102
RTVSPost2010PropOp50
 70
     1
102
RTVSPost2010Prop51ColorIndex
 90
      256
102
RTVSPost2010Prop51ColorRGB
 90
-16777216
102
RTVSPost2010PropOp51
 70
     0
102
RTVSPost2010Prop52
140
1.0
102
RTVSPost2010PropOp52
 70
     0
102
RTVSPost2010Prop53
 90
        2
102
RTVSPost2010PropOp53
 70
     1
102
RTVSPost2010Prop54
  1
strokes_ogs.tif
102
RTVSPost2010PropOp54
 70
     1
102
RTVSPost2010Prop55
280
     0
102
RTVSPost2010PropOp55
 70
     1
102
RTVSPost2010Prop56
140
1.0
102
RTVSPost2010PropOp56
 70
     1
102
RTVSPost2010Prop57
140
1.0
102
RTVSPost2010PropOp57
 70
     1
  0
XRECORD
  5
1996
102
{ACAD_REACTORS
330
1995
102
}
330
1995
100
AcDbXrecord
280
     1
102
RTVSPost2010Prop28
280
     0
102
RTVSPost2010PropOp28
 70
     1
102
RTVSPost2010Prop29
280
     1
102
RTVSPost2010PropOp29
 70
     1
102
RTVSPost2010Prop30
280
     1
102
RTVSPost2010PropOp30
 70
     1
102
RTVSPost2010Prop31
280
     0
102
RTVSPost2010PropOp31
 70
     1
102
RTVSPost2010Prop32
280
     0
102
RTVSPost2010PropOp32
 70
     1
102
RTVSPost2010Prop33
280
     0
102
RTVSPost2010PropOp33
 70
     1
102
RTVSPost2010Prop34
280
     0
102
RTVSPost2010PropOp34
 70
     1
102
RTVSPost2010Prop35
280
     0
102
RTVSPost2010PropOp35
 70
     1
102
RTVSPost2010Prop36
280
     0
102
RTVSPost2010PropOp36
 70
     1
102
RTVSPost2010Prop37
 90
       50
102
RTVSPost2010PropOp37
 70
     1
102
RTVSPost2010Prop38
140
0.0
102
RTVSPost2010PropOp38
 70
     1
102
RTVSPost2010Prop39
140
1.0
102
RTVSPost2010PropOp39
 70
     1
102
RTVSPost2010Prop40
 90
        0
102
RTVSPost2010PropOp40
 70
     1
102
RTVSPost2010Prop41ColorIndex
 90
       18
102
RTVSPost2010Prop41ColorRGB
 90
        0
102
RTVSPost2010PropOp41
 70
     1
102
RTVSPost2010Prop42
 90
       50
102
RTVSPost2010PropOp42
 70
     1
102
RTVSPost2010Prop43
 90
        3
102
RTVSPost2010PropOp43
 70
     1
102
RTVSPost2010Prop44ColorIndex
 90
        5
102
RTVSPost2010Prop44ColorRGB
 90
      255
102
RTVSPost2010PropOp44
 70
     1
102
RTVSPost2010Prop45
280
     0
102
RTVSPost2010PropOp45
 70
     1
102
RTVSPost2010Prop46
 90
       50
102
RTVSPost2010PropOp46
 70
     1
102
RTVSPost2010Prop47
 90
       50
102
RTVSPost2010PropOp47
 70
     1
102
RTVSPost2010Prop48
 90
       50
102
RTVSPost2010PropOp48
 70
     1
102
RTVSPost2010Prop49
280
     0
102
RTVSPost2010PropOp49
 70
     1
102
RTVSPost2010Prop50
 90
       50
102
RTVSPost2010PropOp50
 70
     1
102
RTVSPost2010Prop51ColorIndex
 90
      256
102
RTVSPost2010Prop51ColorRGB
 90
-16777216
102
RTVSPost2010PropOp51
 70
     0
102
RTVSPost2010Prop52
140
1.0
102
RTVSPost2010PropOp52
 70
     0
102
RTVSPost2010Prop53
 90
        2
102
RTVSPost2010PropOp53
 70
     1
102
RTVSPost2010Prop54
  1
strokes_ogs.tif
102
RTVSPost2010PropOp54
 70
     1
102
RTVSPost2010Prop55
280
     0
102
RTVSPost2010PropOp55
 70
     1
102
RTVSPost2010Prop56
140
1.0
102
RTVSPost2010PropOp56
 70
     1
102
RTVSPost2010Prop57
140
1.0
102
RTVSPost2010PropOp57
 70
     1
  0
XRECORD
  5
1998
102
{ACAD_REACTORS
330
1997
102
}
330
1997
100
AcDbXrecord
280
     1
102
RTVSPost2010Prop28
280
     0
102
RTVSPost2010PropOp28
 70
     1
102
RTVSPost2010Prop29
280
     1
102
RTVSPost2010PropOp29
 70
     1
102
RTVSPost2010Prop30
280
     1
102
RTVSPost2010PropOp30
 70
     1
102
RTVSPost2010Prop31
280
     0
102
RTVSPost2010PropOp31
 70
     1
102
RTVSPost2010Prop32
280
     0
102
RTVSPost2010PropOp32
 70
     1
102
RTVSPost2010Prop33
280
     0
102
RTVSPost2010PropOp33
 70
     1
102
RTVSPost2010Prop34
280
     0
102
RTVSPost2010PropOp34
 70
     1
102
RTVSPost2010Prop35
280
     0
102
RTVSPost2010PropOp35
 70
     1
102
RTVSPost2010Prop36
280
     0
102
RTVSPost2010PropOp36
 70
     1
102
RTVSPost2010Prop37
 90
       50
102
RTVSPost2010PropOp37
 70
     1
102
RTVSPost2010Prop38
140
0.0
102
RTVSPost2010PropOp38
 70
     1
102
RTVSPost2010Prop39
140
1.0
102
RTVSPost2010PropOp39
 70
     1
102
RTVSPost2010Prop40
 90
        0
102
RTVSPost2010PropOp40
 70
     1
102
RTVSPost2010Prop41ColorIndex
 90
       18
102
RTVSPost2010Prop41ColorRGB
 90
        0
102
RTVSPost2010PropOp41
 70
     1
102
RTVSPost2010Prop42
 90
       50
102
RTVSPost2010PropOp42
 70
     1
102
RTVSPost2010Prop43
 90
        3
102
RTVSPost2010PropOp43
 70
     1
102
RTVSPost2010Prop44ColorIndex
 90
        5
102
RTVSPost2010Prop44ColorRGB
 90
      255
102
RTVSPost2010PropOp44
 70
     1
102
RTVSPost2010Prop45
280
     0
102
RTVSPost2010PropOp45
 70
     1
102
RTVSPost2010Prop46
 90
       50
102
RTVSPost2010PropOp46
 70
     1
102
RTVSPost2010Prop47
 90
       50
102
RTVSPost2010PropOp47
 70
     1
102
RTVSPost2010Prop48
 90
       50
102
RTVSPost2010PropOp48
 70
     1
102
RTVSPost2010Prop49
280
     0
102
RTVSPost2010PropOp49
 70
     1
102
RTVSPost2010Prop50
 90
       50
102
RTVSPost2010PropOp50
 70
     1
102
RTVSPost2010Prop51ColorIndex
 90
      256
102
RTVSPost2010Prop51ColorRGB
 90
-16777216
102
RTVSPost2010PropOp51
 70
     0
102
RTVSPost2010Prop52
140
1.0
102
RTVSPost2010PropOp52
 70
     0
102
RTVSPost2010Prop53
 90
        2
102
RTVSPost2010PropOp53
 70
     1
102
RTVSPost2010Prop54
  1
strokes_ogs.tif
102
RTVSPost2010PropOp54
 70
     1
102
RTVSPost2010Prop55
280
     0
102
RTVSPost2010PropOp55
 70
     1
102
RTVSPost2010Prop56
140
1.0
102
RTVSPost2010PropOp56
 70
     1
102
RTVSPost2010Prop57
140
1.0
102
RTVSPost2010PropOp57
 70
     1
  0
XRECORD
  5
198E
102
{ACAD_REACTORS
330
198D
102
}
330
198D
100
AcDbXrecord
280
     1
102
RTVSPost2010Prop28
280
     0
102
RTVSPost2010PropOp28
 70
     1
102
RTVSPost2010Prop29
280
     1
102
RTVSPost2010PropOp29
 70
     1
102
RTVSPost2010Prop30
280
     1
102
RTVSPost2010PropOp30
 70
     1
102
RTVSPost2010Prop31
280
     0
102
RTVSPost2010PropOp31
 70
     1
102
RTVSPost2010Prop32
280
     0
102
RTVSPost2010PropOp32
 70
     1
102
RTVSPost2010Prop33
280
     0
102
RTVSPost2010PropOp33
 70
     1
102
RTVSPost2010Prop34
280
     0
102
RTVSPost2010PropOp34
 70
     1
102
RTVSPost2010Prop35
280
     0
102
RTVSPost2010PropOp35
 70
     1
102
RTVSPost2010Prop36
280
     0
102
RTVSPost2010PropOp36
 70
     1
102
RTVSPost2010Prop37
 90
       50
102
RTVSPost2010PropOp37
 70
     1
102
RTVSPost2010Prop38
140
0.0
102
RTVSPost2010PropOp38
 70
     1
102
RTVSPost2010Prop39
140
1.0
102
RTVSPost2010PropOp39
 70
     1
102
RTVSPost2010Prop40
 90
        0
102
RTVSPost2010PropOp40
 70
     1
102
RTVSPost2010Prop41ColorIndex
 90
       18
102
RTVSPost2010Prop41ColorRGB
 90
        0
102
RTVSPost2010PropOp41
 70
     1
102
RTVSPost2010Prop42
 90
       50
102
RTVSPost2010PropOp42
 70
     1
102
RTVSPost2010Prop43
 90
        3
102
RTVSPost2010PropOp43
 70
     1
102
RTVSPost2010Prop44ColorIndex
 90
        5
102
RTVSPost2010Prop44ColorRGB
 90
      255
102
RTVSPost2010PropOp44
 70
     1
102
RTVSPost2010Prop45
280
     0
102
RTVSPost2010PropOp45
 70
     1
102
RTVSPost2010Prop46
 90
       50
102
RTVSPost2010PropOp46
 70
     1
102
RTVSPost2010Prop47
 90
       50
102
RTVSPost2010PropOp47
 70
     1
102
RTVSPost2010Prop48
 90
       50
102
RTVSPost2010PropOp48
 70
     1
102
RTVSPost2010Prop49
280
     0
102
RTVSPost2010PropOp49
 70
     1
102
RTVSPost2010Prop50
 90
       50
102
RTVSPost2010PropOp50
 70
     1
102
RTVSPost2010Prop51ColorIndex
 90
      256
102
RTVSPost2010Prop51ColorRGB
 90
-16777216
102
RTVSPost2010PropOp51
 70
     0
102
RTVSPost2010Prop52
140
1.0
102
RTVSPost2010PropOp52
 70
     0
102
RTVSPost2010Prop53
 90
        2
102
RTVSPost2010PropOp53
 70
     1
102
RTVSPost2010Prop54
  1
strokes_ogs.tif
102
RTVSPost2010PropOp54
 70
     1
102
RTVSPost2010Prop55
280
     0
102
RTVSPost2010PropOp55
 70
     1
102
RTVSPost2010Prop56
140
1.0
102
RTVSPost2010PropOp56
 70
     1
102
RTVSPost2010Prop57
140
1.0
102
RTVSPost2010PropOp57
 70
     1
  0
XRECORD
  5
1982
102
{ACAD_REACTORS
330
1981
102
}
330
1981
100
AcDbXrecord
280
     1
102
RTVSPost2010Prop28
280
     0
102
RTVSPost2010PropOp28
 70
     1
102
RTVSPost2010Prop29
280
     1
102
RTVSPost2010PropOp29
 70
     1
102
RTVSPost2010Prop30
280
     1
102
RTVSPost2010PropOp30
 70
     1
102
RTVSPost2010Prop31
280
     0
102
RTVSPost2010PropOp31
 70
     1
102
RTVSPost2010Prop32
280
     0
102
RTVSPost2010PropOp32
 70
     1
102
RTVSPost2010Prop33
280
     0
102
RTVSPost2010PropOp33
 70
     1
102
RTVSPost2010Prop34
280
     0
102
RTVSPost2010PropOp34
 70
     1
102
RTVSPost2010Prop35
280
     0
102
RTVSPost2010PropOp35
 70
     1
102
RTVSPost2010Prop36
280
     0
102
RTVSPost2010PropOp36
 70
     1
102
RTVSPost2010Prop37
 90
       50
102
RTVSPost2010PropOp37
 70
     1
102
RTVSPost2010Prop38
140
0.0
102
RTVSPost2010PropOp38
 70
     1
102
RTVSPost2010Prop39
140
1.0
102
RTVSPost2010PropOp39
 70
     1
102
RTVSPost2010Prop40
 90
        0
102
RTVSPost2010PropOp40
 70
     1
102
RTVSPost2010Prop41ColorIndex
 90
       18
102
RTVSPost2010Prop41ColorRGB
 90
        0
102
RTVSPost2010PropOp41
 70
     1
102
RTVSPost2010Prop42
 90
       50
102
RTVSPost2010PropOp42
 70
     1
102
RTVSPost2010Prop43
 90
        3
102
RTVSPost2010PropOp43
 70
     1
102
RTVSPost2010Prop44ColorIndex
 90
        5
102
RTVSPost2010Prop44ColorRGB
 90
      255
102
RTVSPost2010PropOp44
 70
     1
102
RTVSPost2010Prop45
280
     0
102
RTVSPost2010PropOp45
 70
     1
102
RTVSPost2010Prop46
 90
       50
102
RTVSPost2010PropOp46
 70
     1
102
RTVSPost2010Prop47
 90
       50
102
RTVSPost2010PropOp47
 70
     1
102
RTVSPost2010Prop48
 90
       50
102
RTVSPost2010PropOp48
 70
     1
102
RTVSPost2010Prop49
280
     0
102
RTVSPost2010PropOp49
 70
     1
102
RTVSPost2010Prop50
 90
       50
102
RTVSPost2010PropOp50
 70
     1
102
RTVSPost2010Prop51ColorIndex
 90
      256
102
RTVSPost2010Prop51ColorRGB
 90
-16777216
102
RTVSPost2010PropOp51
 70
     0
102
RTVSPost2010Prop52
140
1.0
102
RTVSPost2010PropOp52
 70
     0
102
RTVSPost2010Prop53
 90
        2
102
RTVSPost2010PropOp53
 70
     1
102
RTVSPost2010Prop54
  1
strokes_ogs.tif
102
RTVSPost2010PropOp54
 70
     1
102
RTVSPost2010Prop55
280
     0
102
RTVSPost2010PropOp55
 70
     1
102
RTVSPost2010Prop56
140
1.0
102
RTVSPost2010PropOp56
 70
     1
102
RTVSPost2010Prop57
140
1.0
102
RTVSPost2010PropOp57
 70
     1
  0
XRECORD
  5
199A
102
{ACAD_REACTORS
330
1999
102
}
330
1999
100
AcDbXrecord
280
     1
102
RTVSPost2010Prop28
280
     0
102
RTVSPost2010PropOp28
 70
     1
102
RTVSPost2010Prop29
280
     1
102
RTVSPost2010PropOp29
 70
     1
102
RTVSPost2010Prop30
280
     1
102
RTVSPost2010PropOp30
 70
     1
102
RTVSPost2010Prop31
280
     0
102
RTVSPost2010PropOp31
 70
     1
102
RTVSPost2010Prop32
280
     0
102
RTVSPost2010PropOp32
 70
     1
102
RTVSPost2010Prop33
280
     0
102
RTVSPost2010PropOp33
 70
     1
102
RTVSPost2010Prop34
280
     0
102
RTVSPost2010PropOp34
 70
     1
102
RTVSPost2010Prop35
280
     0
102
RTVSPost2010PropOp35
 70
     1
102
RTVSPost2010Prop36
280
     0
102
RTVSPost2010PropOp36
 70
     1
102
RTVSPost2010Prop37
 90
       50
102
RTVSPost2010PropOp37
 70
     1
102
RTVSPost2010Prop38
140
0.0
102
RTVSPost2010PropOp38
 70
     1
102
RTVSPost2010Prop39
140
1.0
102
RTVSPost2010PropOp39
 70
     1
102
RTVSPost2010Prop40
 90
        0
102
RTVSPost2010PropOp40
 70
     1
102
RTVSPost2010Prop41ColorIndex
 90
       18
102
RTVSPost2010Prop41ColorRGB
 90
        0
102
RTVSPost2010PropOp41
 70
     1
102
RTVSPost2010Prop42
 90
       50
102
RTVSPost2010PropOp42
 70
     1
102
RTVSPost2010Prop43
 90
        3
102
RTVSPost2010PropOp43
 70
     1
102
RTVSPost2010Prop44ColorIndex
 90
        5
102
RTVSPost2010Prop44ColorRGB
 90
      255
102
RTVSPost2010PropOp44
 70
     1
102
RTVSPost2010Prop45
280
     0
102
RTVSPost2010PropOp45
 70
     1
102
RTVSPost2010Prop46
 90
       50
102
RTVSPost2010PropOp46
 70
     1
102
RTVSPost2010Prop47
 90
       50
102
RTVSPost2010PropOp47
 70
     1
102
RTVSPost2010Prop48
 90
       50
102
RTVSPost2010PropOp48
 70
     1
102
RTVSPost2010Prop49
280
     0
102
RTVSPost2010PropOp49
 70
     1
102
RTVSPost2010Prop50
 90
       50
102
RTVSPost2010PropOp50
 70
     1
102
RTVSPost2010Prop51ColorIndex
 90
      256
102
RTVSPost2010Prop51ColorRGB
 90
-16777216
102
RTVSPost2010PropOp51
 70
     0
102
RTVSPost2010Prop52
140
1.0
102
RTVSPost2010PropOp52
 70
     0
102
RTVSPost2010Prop53
 90
        2
102
RTVSPost2010PropOp53
 70
     1
102
RTVSPost2010Prop54
  1
strokes_ogs.tif
102
RTVSPost2010PropOp54
 70
     1
102
RTVSPost2010Prop55
280
     0
102
RTVSPost2010PropOp55
 70
     1
102
RTVSPost2010Prop56
140
1.0
102
RTVSPost2010PropOp56
 70
     1
102
RTVSPost2010Prop57
140
1.0
102
RTVSPost2010PropOp57
 70
     1
  0
ENDSEC
  0
EOF
