  0
SECTION
  2
HEADER
  9
$ACADVER
  1
AC1024
  9
$ACADMAINTVER
 70
   182
  9
$DWGCODEPAGE
  3
ANSI_1252
  9
$LASTSAVEDBY
  1
gf659
  9
$INSBASE
 10
0.0
 20
0.0
 30
0.0
  9
$EXTMIN
 10
329243.5054913009
 20
380660.6379830994
 30
0.0
  9
$EXTMAX
 10
413211.7265604478
 20
439648.4102388601
 30
0.0
  9
$LIMMIN
 10
0.0
 20
0.0
  9
$LIMMAX
 10
12.0
 20
9.0
  9
$ORTHOMODE
 70
     1
  9
$REGENMODE
 70
     1
  9
$FILLMODE
 70
     1
  9
$QTEXTMODE
 70
     0
  9
$MIRRTEXT
 70
     1
  9
$LTSCALE
 40
0.000394
  9
$ATTMODE
 70
     1
  9
$TEXTSIZE
 40
0.1512541503997005
  9
$TRACEWID
 40
0.05
  9
$TEXTSTYLE
  7
SN3
  9
$CLAYER
  8
0
  9
$CELTYPE
  6
CONTINUOUS
  9
$CECOLOR
 62
   256
  9
$CELTSCALE
 40
1.0
  9
$DISPSILH
 70
     0
  9
$DIMSCALE
 40
1.0
  9
$DIMASZ
 40
0.18
  9
$DIMEXO
 40
0.0625
  9
$DIMDLI
 40
0.38
  9
$DIMRND
 40
0.0
  9
$DIMDLE
 40
0.0
  9
$DIMEXE
 40
0.18
  9
$DIMTP
 40
0.0
  9
$DIMTM
 40
0.0
  9
$DIMTXT
 40
0.18
  9
$DIMCEN
 40
0.09
  9
$DIMTSZ
 40
0.0
  9
$DIMTOL
 70
     0
  9
$DIMLIM
 70
     0
  9
$DIMTIH
 70
     1
  9
$DIMTOH
 70
     1
  9
$DIMSE1
 70
     0
  9
$DIMSE2
 70
     0
  9
$DIMTAD
 70
     0
  9
$DIMZIN
 70
     0
  9
$DIMBLK
  1

  9
$DIMASO
 70
     1
  9
$DIMSHO
 70
     1
  9
$DIMPOST
  1

  9
$DIMAPOST
  1

  9
$DIMALT
 70
     0
  9
$DIMALTD
 70
     2
  9
$DIMALTF
 40
25.4
  9
$DIMLFAC
 40
1.0
  9
$DIMTOFL
 70
     0
  9
$DIMTVP
 40
0.0
  9
$DIMTIX
 70
     0
  9
$DIMSOXD
 70
     0
  9
$DIMSAH
 70
     0
  9
$DIMBLK1
  1

  9
$DIMBLK2
  1

  9
$DIMSTYLE
  2
STANDARD
  9
$DIMCLRD
 70
     0
  9
$DIMCLRE
 70
     0
  9
$DIMCLRT
 70
     0
  9
$DIMTFAC
 40
1.0
  9
$DIMGAP
 40
0.09
  9
$DIMJUST
 70
     0
  9
$DIMSD1
 70
     0
  9
$DIMSD2
 70
     0
  9
$DIMTOLJ
 70
     1
  9
$DIMTZIN
 70
     0
  9
$DIMALTZ
 70
     0
  9
$DIMALTTZ
 70
     0
  9
$DIMUPT
 70
     0
  9
$DIMDEC
 70
     4
  9
$DIMTDEC
 70
     4
  9
$DIMALTU
 70
     2
  9
$DIMALTTD
 70
     2
  9
$DIMTXSTY
  7
STANDARD
  9
$DIMAUNIT
 70
     0
  9
$DIMADEC
 70
     0
  9
$DIMALTRND
 40
0.0
  9
$DIMAZIN
 70
     0
  9
$DIMDSEP
 70
    46
  9
$DIMATFIT
 70
     3
  9
$DIMFRAC
 70
     0
  9
$DIMLDRBLK
  1

  9
$DIMLUNIT
 70
     2
  9
$DIMLWD
 70
    -2
  9
$DIMLWE
 70
    -2
  9
$DIMTMOVE
 70
     0
  9
$DIMFXL
 40
1.0
  9
$DIMFXLON
 70
     0
  9
$DIMJOGANG
 40
0.7853981633974483
  9
$DIMTFILL
 70
     0
  9
$DIMTFILLCLR
 70
     0
  9
$DIMARCSYM
 70
     0
  9
$DIMLTYPE
  6

  9
$DIMLTEX1
  6

  9
$DIMLTEX2
  6

  9
$DIMTXTDIRECTION
 70
     0
  9
$LUNITS
 70
     2
  9
$LUPREC
 70
     4
  9
$SKETCHINC
 40
0.1
  9
$FILLETRAD
 40
0.0
  9
$AUNITS
 70
     0
  9
$AUPREC
 70
     0
  9
$MENU
  1
.
  9
$ELEVATION
 40
0.0
  9
$PELEVATION
 40
0.0
  9
$THICKNESS
 40
0.0
  9
$LIMCHECK
 70
     0
  9
$CHAMFERA
 40
0.0
  9
$CHAMFERB
 40
0.0
  9
$CHAMFERC
 40
0.0
  9
$CHAMFERD
 40
0.0
  9
$SKPOLY
 70
     0
  9
$TDCREATE
 40
2451744.475329282
  9
$TDUCREATE
 40
2451744.433662616
  9
$TDUPDATE
 40
2457225.502228878
  9
$TDUUPDATE
 40
2457225.460562211
  9
$TDINDWG
 40
0.1193135764
  9
$TDUSRTIMER
 40
0.1193135648
  9
$USRTIMER
 70
     1
  9
$ANGBASE
 50
0.0
  9
$ANGDIR
 70
     0
  9
$PDMODE
 70
    35
  9
$PDSIZE
 40
0.000315
  9
$PLINEWID
 40
0.0
  9
$SPLFRAME
 70
     0
  9
$SPLINETYPE
 70
     6
  9
$SPLINESEGS
 70
     8
  9
$HANDSEED
  5
E85
  9
$SURFTAB1
 70
     6
  9
$SURFTAB2
 70
     6
  9
$SURFTYPE
 70
     6
  9
$SURFU
 70
     6
  9
$SURFV
 70
     6
  9
$UCSBASE
  2

  9
$UCSNAME
  2

  9
$UCSORG
 10
0.0
 20
0.0
 30
0.0
  9
$UCSXDIR
 10
1.0
 20
0.0
 30
0.0
  9
$UCSYDIR
 10
0.0
 20
1.0
 30
0.0
  9
$UCSORTHOREF
  2

  9
$UCSORTHOVIEW
 70
     0
  9
$UCSORGTOP
 10
0.0
 20
0.0
 30
0.0
  9
$UCSORGBOTTOM
 10
0.0
 20
0.0
 30
0.0
  9
$UCSORGLEFT
 10
0.0
 20
0.0
 30
0.0
  9
$UCSORGRIGHT
 10
0.0
 20
0.0
 30
0.0
  9
$UCSORGFRONT
 10
0.0
 20
0.0
 30
0.0
  9
$UCSORGBACK
 10
0.0
 20
0.0
 30
0.0
  9
$PUCSBASE
  2

  9
$PUCSNAME
  2

  9
$PUCSORG
 10
0.0
 20
0.0
 30
0.0
  9
$PUCSXDIR
 10
1.0
 20
0.0
 30
0.0
  9
$PUCSYDIR
 10
0.0
 20
1.0
 30
0.0
  9
$PUCSORTHOREF
  2

  9
$PUCSORTHOVIEW
 70
     0
  9
$PUCSORGTOP
 10
0.0
 20
0.0
 30
0.0
  9
$PUCSORGBOTTOM
 10
0.0
 20
0.0
 30
0.0
  9
$PUCSORGLEFT
 10
0.0
 20
0.0
 30
0.0
  9
$PUCSORGRIGHT
 10
0.0
 20
0.0
 30
0.0
  9
$PUCSORGFRONT
 10
0.0
 20
0.0
 30
0.0
  9
$PUCSORGBACK
 10
0.0
 20
0.0
 30
0.0
  9
$USERI1
 70
     0
  9
$USERI2
 70
     0
  9
$USERI3
 70
     0
  9
$USERI4
 70
     0
  9
$USERI5
 70
     0
  9
$USERR1
 40
0.0
  9
$USERR2
 40
0.0
  9
$USERR3
 40
0.0
  9
$USERR4
 40
0.0
  9
$USERR5
 40
0.0
  9
$WORLDVIEW
 70
     1
  9
$SHADEDGE
 70
     3
  9
$SHADEDIF
 70
    70
  9
$TILEMODE
 70
     0
  9
$MAXACTVP
 70
    64
  9
$PINSBASE
 10
0.0
 20
0.0
 30
0.0
  9
$PLIMCHECK
 70
     0
  9
$PEXTMIN
 10
0.4701710019177617
 20
0.233130967563421
 30
0.0
  9
$PEXTMAX
 10
7.245147771967355
 20
5.151796520346939
 30
0.0
  9
$PLIMMIN
 10
0.3121258402613432
 20
-0.2522569605286068
  9
$PLIMMAX
 10
7.933755813229242
 20
5.637184344379513
  9
$UNITMODE
 70
     0
  9
$VISRETAIN
 70
     1
  9
$PLINEGEN
 70
     0
  9
$PSLTSCALE
 70
     1
  9
$TREEDEPTH
 70
  3020
  9
$CMLSTYLE
  2
STANDARD
  9
$CMLJUST
 70
     0
  9
$CMLSCALE
 40
1.0
  9
$PROXYGRAPHICS
 70
     1
  9
$MEASUREMENT
 70
     0
  9
$CELWEIGHT
370
    -1
  9
$ENDCAPS
280
     0
  9
$JOINSTYLE
280
     0
  9
$LWDISPLAY
290
     0
  9
$INSUNITS
 70
     0
  9
$HYPERLINKBASE
  1

  9
$STYLESHEET
  1

  9
$XEDIT
290
     1
  9
$CEPSNTYPE
380
     0
  9
$PSTYLEMODE
290
     1
  9
$FINGERPRINTGUID
  2
{8CB6D442-5C9D-11D4-856B-000102170C25}
  9
$VERSIONGUID
  2
{54646D36-2A49-4808-99F2-307F2414F7FA}
  9
$EXTNAMES
290
     1
  9
$PSVPSCALE
 40
0.0
  9
$OLESTARTUP
290
     0
  9
$SORTENTS
280
    96
  9
$INDEXCTL
280
     0
  9
$HIDETEXT
280
     0
  9
$XCLIPFRAME
280
     2
  9
$HALOGAP
280
     0
  9
$OBSCOLOR
 70
   257
  9
$OBSLTYPE
280
     0
  9
$INTERSECTIONDISPLAY
280
     0
  9
$INTERSECTIONCOLOR
 70
   257
  9
$DIMASSOC
280
     1
  9
$PROJECTNAME
  1

  9
$CAMERADISPLAY
290
     0
  9
$LENSLENGTH
 40
50.0
  9
$CAMERAHEIGHT
 40
0.0
  9
$STEPSPERSEC
 40
2.0
  9
$STEPSIZE
 40
6.0
  9
$3DDWFPREC
 40
2.0
  9
$PSOLWIDTH
 40
0.25
  9
$PSOLHEIGHT
 40
4.0
  9
$LOFTANG1
 40
1.570796326794896
  9
$LOFTANG2
 40
1.570796326794896
  9
$LOFTMAG1
 40
0.0
  9
$LOFTMAG2
 40
0.0
  9
$LOFTPARAM
 70
     7
  9
$LOFTNORMALS
280
     1
  9
$LATITUDE
 40
37.795
  9
$LONGITUDE
 40
-122.394
  9
$NORTHDIRECTION
 40
0.0
  9
$TIMEZONE
 70
 -8000
  9
$LIGHTGLYPHDISPLAY
280
     1
  9
$TILEMODELIGHTSYNCH
280
     1
  9
$CMATERIAL
347
DAA
  9
$SOLIDHIST
280
     0
  9
$SHOWHIST
280
     1
  9
$DWFFRAME
280
     2
  9
$DGNFRAME
280
     0
  9
$REALWORLDSCALE
290
     1
  9
$INTERFERECOLOR
 62
     1
  9
$INTERFEREOBJVS
345
DCC
  9
$INTERFEREVPVS
346
DC9
  9
$CSHADOW
280
     0
  9
$SHADOWPLANELOCATION
 40
0.0
  0
ENDSEC
  0
SECTION
  2
CLASSES
  0
CLASS
  1
ACDBDICTIONARYWDFLT
  2
AcDbDictionaryWithDefault
  3
ObjectDBX Classes
 90
        0
 91
        1
280
     0
281
     0
  0
CLASS
  1
DICTIONARYVAR
  2
AcDbDictionaryVar
  3
ObjectDBX Classes
 90
        0
 91
       19
280
     0
281
     0
  0
CLASS
  1
MATERIAL
  2
AcDbMaterial
  3
ObjectDBX Classes
 90
     1153
 91
        3
280
     0
281
     0
  0
CLASS
  1
VISUALSTYLE
  2
AcDbVisualStyle
  3
ObjectDBX Classes
 90
     4095
 91
       24
280
     0
281
     0
  0
CLASS
  1
TABLESTYLE
  2
AcDbTableStyle
  3
ObjectDBX Classes
 90
     4095
 91
        1
280
     0
281
     0
  0
CLASS
  1
SCALE
  2
AcDbScale
  3
ObjectDBX Classes
 90
     1153
 91
       17
280
     0
281
     0
  0
CLASS
  1
MLEADERSTYLE
  2
AcDbMLeaderStyle
  3
ACDB_MLEADERSTYLE_CLASS
 90
     4095
 91
        1
280
     0
281
     0
  0
CLASS
  1
ACDBSECTIONVIEWSTYLE
  2
AcDbSectionViewStyle
  3
ObjectDBX Classes
 90
     1025
 91
        1
280
     0
281
     0
  0
CLASS
  1
ACDBDETAILVIEWSTYLE
  2
AcDbDetailViewStyle
  3
ObjectDBX Classes
 90
     1025
 91
        1
280
     0
281
     0
  0
CLASS
  1
CELLSTYLEMAP
  2
AcDbCellStyleMap
  3
ObjectDBX Classes
 90
     1152
 91
        1
280
     0
281
     0
  0
ENDSEC
  0
SECTION
  2
TABLES
  0
TABLE
  2
VPORT
  5
8
330
0
100
AcDbSymbolTable
 70
     1
  0
VPORT
  5
D77
330
8
100
AcDbSymbolTableRecord
100
AcDbViewportTableRecord
  2
*ACTIVE
 70
     0
 10
0.0
 20
0.0
 11
1.0
 21
1.0
 12
371227.6160258743
 22
410154.5241109797
 13
0.0
 23
0.0
 14
1.0
 24
1.0
 15
0.0
 25
0.0
 16
0.0
 26
0.0
 36
1.0
 17
0.0
 27
0.0
 37
0.0
 40
74500.12758945581
 41
1.738301559792026
 42
50.0
 43
0.0
 44
0.0
 50
0.0
 51
0.0
 71
     0
 72
   100
 73
     1
 74
     1
 75
     0
 76
     0
 77
     0
 78
     0
281
     0
 65
     1
110
0.0
120
0.0
130
0.0
111
1.0
121
0.0
131
0.0
112
0.0
122
1.0
132
0.0
 79
     0
146
0.0
348
DC8
 60
     3
 61
     5
292
     1
282
     1
141
0.0
142
0.0
 63
   250
421
  3355443
  0
ENDTAB
  0
TABLE
  2
LTYPE
  5
5
330
0
100
AcDbSymbolTable
 70
    10
  0
LTYPE
  5
13
330
5
100
AcDbSymbolTableRecord
100
AcDbLinetypeTableRecord
  2
BYBLOCK
 70
     0
  3

 72
    65
 73
     0
 40
0.0
  0
LTYPE
  5
14
330
5
100
AcDbSymbolTableRecord
100
AcDbLinetypeTableRecord
  2
BYLAYER
 70
     0
  3

 72
    65
 73
     0
 40
0.0
  0
LTYPE
  5
15
330
5
100
AcDbSymbolTableRecord
100
AcDbLinetypeTableRecord
  2
CONTINUOUS
 70
     0
  3
Solid line
 72
    65
 73
     0
 40
0.0
  0
LTYPE
  5
22
330
5
100
AcDbSymbolTableRecord
100
AcDbLinetypeTableRecord
  2
DASHED
 70
     0
  3
__ __ __ __ __ __ __ __ __ __ __ __ __ __ __
 72
    65
 73
     2
 40
0.000003
 49
0.000002
 74
     0
 49
-0.000001
 74
     0
  0
LTYPE
  5
23
330
5
100
AcDbSymbolTableRecord
100
AcDbLinetypeTableRecord
  2
HIDDEN
 70
     0
  3
 _ _ _ _ _ _ _ _ _ _ _ _ _ _ _ _ _ _ _ _ _ _
 72
    65
 73
     2
 40
0.000001
 49
0.000001
 74
     0
 49
0.0
 74
     0
  0
LTYPE
  5
24
330
5
100
AcDbSymbolTableRecord
100
AcDbLinetypeTableRecord
  2
CENTER
 70
     0
  3
____ _ ____ _ ____ _ ____ _ ____ _ ____ _ ____
 72
    65
 73
     4
 40
0.000008
 49
0.000005
 74
     0
 49
-0.000001
 74
     0
 49
0.000001
 74
     0
 49
-0.000001
 74
     0
  0
LTYPE
  5
25
330
5
100
AcDbSymbolTableRecord
100
AcDbLinetypeTableRecord
  2
PHANTOM
 70
     0
  3
_____ _ _ _____ _ _ _____ _ _ _____ _ _ ____
 72
    65
 73
     6
 40
0.00001
 49
0.000005
 74
     0
 49
-0.000001
 74
     0
 49
0.000001
 74
     0
 49
-0.000001
 74
     0
 49
0.000001
 74
     0
 49
-0.000001
 74
     0
  0
LTYPE
  5
26
330
5
100
AcDbSymbolTableRecord
100
AcDbLinetypeTableRecord
  2
DOT
 70
     0
  3
...............................................
 72
    65
 73
     2
 40
0.000001
 49
0.0
 74
     0
 49
-0.000001
 74
     0
  0
LTYPE
  5
27
330
5
100
AcDbSymbolTableRecord
100
AcDbLinetypeTableRecord
  2
DASHDOT
 70
     0
  3
__ . __ . __ . __ . __ . __ . __ . __ . __ . __
 72
    65
 73
     4
 40
0.000004
 49
0.000002
 74
     0
 49
-0.000001
 74
     0
 49
0.0
 74
     0
 49
-0.000001
 74
     0
  0
LTYPE
  5
28
330
5
100
AcDbSymbolTableRecord
100
AcDbLinetypeTableRecord
  2
BORDER
 70
     0
  3
__ __ . __ __ . __ __ . __ __ . __ __ . __ __
 72
    65
 73
     6
 40
0.000007
 49
0.000002
 74
     0
 49
-0.000001
 74
     0
 49
0.000002
 74
     0
 49
-0.000001
 74
     0
 49
0.0
 74
     0
 49
-0.000001
 74
     0
  0
LTYPE
  5
29
330
5
100
AcDbSymbolTableRecord
100
AcDbLinetypeTableRecord
  2
DIVIDE
 70
     0
  3
__ . . __ . . __ . . __ . . __ . . __ . . __
 72
    65
 73
     6
 40
0.000005
 49
0.000002
 74
     0
 49
-0.000001
 74
     0
 49
0.0
 74
     0
 49
-0.000001
 74
     0
 49
0.0
 74
     0
 49
-0.000001
 74
     0
  0
LTYPE
  5
2A
330
5
100
AcDbSymbolTableRecord
100
AcDbLinetypeTableRecord
  2
DOTDOT
 70
     0
  3
 . .  . .  . .  . .  . .  . . 
 72
    65
 73
     5
 40
0.000002
 49
-0.000001
 74
     0
 49
0.0
 74
     0
 49
-0.000001
 74
     0
 49
0.0
 74
     0
 49
-0.000001
 74
     0
  0
ENDTAB
  0
TABLE
  2
LAYER
  5
2
330
0
100
AcDbSymbolTable
 70
     5
  0
LAYER
  5
10
102
{ACAD_XDICTIONARY
360
DFE
102
}
330
2
100
AcDbSymbolTableRecord
100
AcDbLayerTableRecord
  2
0
 70
     0
 62
     7
  6
CONTINUOUS
370
    -3
390
F
347
DBA
  0
LAYER
  5
31
102
{ACAD_XDICTIONARY
360
E00
102
}
330
2
100
AcDbSymbolTableRecord
100
AcDbLayerTableRecord
  2
FOREGROUND
 70
     0
 62
     7
  6
CONTINUOUS
370
    -3
390
F
347
DBA
  0
LAYER
  5
32
102
{ACAD_XDICTIONARY
360
E02
102
}
330
2
100
AcDbSymbolTableRecord
100
AcDbLayerTableRecord
  2
BACKGROUND
 70
     1
 62
     7
  6
CONTINUOUS
370
    -3
390
F
347
DBA
  0
LAYER
  5
33
102
{ACAD_XDICTIONARY
360
E04
102
}
330
2
100
AcDbSymbolTableRecord
100
AcDbLayerTableRecord
  2
LAYER_1
 70
     0
 62
     7
  6
CONTINUOUS
370
    -3
390
F
347
DBA
  0
LAYER
  5
D3F
102
{ACAD_XDICTIONARY
360
E06
102
}
330
2
100
AcDbSymbolTableRecord
100
AcDbLayerTableRecord
  2
GRD
 70
     1
 62
    21
  6
CONTINUOUS
370
    -3
390
F
347
DBA
  0
ENDTAB
  0
TABLE
  2
STYLE
  5
3
330
0
100
AcDbSymbolTable
 70
     8
  0
STYLE
  5
11
330
3
100
AcDbSymbolTableRecord
100
AcDbTextStyleTableRecord
  2
STANDARD
 70
     0
 40
0.0
 41
1.0
 50
0.0
 71
     0
 42
0.2
  3
txt
  4

  0
STYLE
  5
2B
330
3
100
AcDbSymbolTableRecord
100
AcDbTextStyleTableRecord
  2
SN0
 70
     0
 40
0.0
 41
1.0
 50
0.0
 71
     0
 42
0.1512541503997005
  3
TIMESI.TTF
  4

1001
ACAD
1000
Times New Roman
1071
 16777234
  0
STYLE
  5
2C
330
3
100
AcDbSymbolTableRecord
100
AcDbTextStyleTableRecord
  2
SV0
 70
     4
 40
0.0
 41
0.000004
 50
0.0
 71
     0
 42
0.0
  3
ROMAND
  4

  0
STYLE
  5
2D
330
3
100
AcDbSymbolTableRecord
100
AcDbTextStyleTableRecord
  2
SN1
 70
     0
 40
0.0
 41
1.0
 50
0.0
 71
     0
 42
0.0
  3
ARIAL.TTF
  4

1001
ACAD
1000
Arial
1071
       34
  0
STYLE
  5
2E
330
3
100
AcDbSymbolTableRecord
100
AcDbTextStyleTableRecord
  2
SV1
 70
     4
 40
0.0
 41
0.000004
 50
0.0
 71
     0
 42
0.0
  3
ROMANS
  4

  0
STYLE
  5
2F
330
3
100
AcDbSymbolTableRecord
100
AcDbTextStyleTableRecord
  2
SN2
 70
     0
 40
0.0
 41
1.0
 50
0.0
 71
     0
 42
0.0
  3
ARIAL.TTF
  4

1001
ACAD
1000
Arial
1071
       34
  0
STYLE
  5
30
330
3
100
AcDbSymbolTableRecord
100
AcDbTextStyleTableRecord
  2
SV2
 70
     4
 40
0.0
 41
0.000004
 50
0.0
 71
     0
 42
0.0
  3
ROMAND
  4

  0
STYLE
  5
D3B
330
3
100
AcDbSymbolTableRecord
100
AcDbTextStyleTableRecord
  2
SN3
 70
     0
 40
0.15
 41
1.01
 50
0.0
 71
     0
 42
0.1512541503997005
  3
TIMESBD.TTF
  4

1001
ACAD
1000
Times New Roman
1071
 33554450
  0
ENDTAB
  0
TABLE
  2
VIEW
  5
6
330
0
100
AcDbSymbolTable
 70
     0
  0
ENDTAB
  0
TABLE
  2
UCS
  5
7
330
0
100
AcDbSymbolTable
 70
     0
  0
ENDTAB
  0
TABLE
  2
APPID
  5
9
330
0
100
AcDbSymbolTable
 70
     2
  0
APPID
  5
12
330
9
100
AcDbSymbolTableRecord
100
AcDbRegAppTableRecord
  2
ACAD
 70
     0
  0
APPID
  5
DFD
330
9
100
AcDbSymbolTableRecord
100
AcDbRegAppTableRecord
  2
ACAD_PSEXT
 70
     0
  0
ENDTAB
  0
TABLE
  2
DIMSTYLE
  5
A
330
0
100
AcDbSymbolTable
 70
     1
100
AcDbDimStyleTable
 71
     0
  0
DIMSTYLE
105
D21
330
A
100
AcDbSymbolTableRecord
100
AcDbDimStyleTableRecord
  2
STANDARD
 70
     0
340
11
  0
ENDTAB
  0
TABLE
  2
BLOCK_RECORD
  5
1
330
0
100
AcDbSymbolTable
 70
     0
  0
BLOCK_RECORD
  5
1E
102
{ACAD_XDICTIONARY
360
D9F
102
}
330
1
100
AcDbSymbolTableRecord
100
AcDbBlockTableRecord
  2
*MODEL_SPACE
340
DF6
 70
     0
280
     1
281
     0
  0
BLOCK_RECORD
  5
1A
102
{ACAD_XDICTIONARY
360
D9D
102
}
330
1
100
AcDbSymbolTableRecord
100
AcDbBlockTableRecord
  2
*PAPER_SPACE
340
DF7
 70
     0
280
     1
281
     0
  0
ENDTAB
  0
ENDSEC
  0
SECTION
  2
BLOCKS
  0
BLOCK
  5
1F
330
1E
100
AcDbEntity
  8
0
100
AcDbBlockBegin
  2
*MODEL_SPACE
 70
     0
 10
0.0
 20
0.0
 30
0.0
  3
*MODEL_SPACE
  1

  0
ENDBLK
  5
20
330
1E
100
AcDbEntity
  8
0
100
AcDbBlockEnd
  0
BLOCK
  5
1B
330
1A
100
AcDbEntity
 67
     1
  8
0
100
AcDbBlockBegin
  2
*PAPER_SPACE
 70
     0
 10
0.0
 20
0.0
 30
0.0
  3
*PAPER_SPACE
  1

  0
ENDBLK
  5
1C
330
1A
100
AcDbEntity
 67
     1
  8
0
100
AcDbBlockEnd
  0
ENDSEC
  0
SECTION
  2
ENTITIES
  0
TEXT
  5
38
330
1E
100
AcDbEntity
  8
LAYER_1
 62
     7
100
AcDbText
 10
329501.1965455395
 20
381141.7359184568
 30
0.0
 40
1506.281797608747
  1
Fig. 1.  Site Location
  7
SN0
100
AcDbText
  0
LWPOLYLINE
  5
39
330
1E
100
AcDbEntity
  8
LAYER_1
  6
Continuous
 62
     7
100
AcDbPolyline
 90
        4
 70
     1
 43
241.0050876173995
 10
329364.0080351096
 20
439527.9076950514
 10
413091.224016639
 20
439527.9076950514
 10
413091.224016639
 20
383780.0568579203
 10
329364.0080351096
 20
383780.0568579203
  0
LWPOLYLINE
  5
3F
330
1E
100
AcDbEntity
  8
LAYER_1
  6
Continuous
 62
     7
100
AcDbPolyline
 90
      165
 70
     0
 43
48.20101752347991
 10
330871.1454007795
 20
427537.9045860858
 10
330844.0564289313
 20
427483.6784413719
 10
330830.4878424983
 20
427402.3633248098
 10
330830.4878424983
 20
427348.137180096
 10
330857.5768143466
 20
427307.4796218147
 10
330844.0564289313
 20
427280.3424489491
 10
330776.2616977845
 20
427266.7738625162
 10
330735.6041395034
 20
427280.3424489491
 10
330681.3779947896
 20
427280.3424489491
 10
330667.8094083566
 20
427226.1163042353
 10
330640.7204365085
 20
427212.5477178025
 10
330559.3571189287
 20
427226.1163042353
 10
330478.0420023668
 20
427199.027332387
 10
330437.3362430681
 20
427144.8011876731
 10
330478.0420023668
 20
427077.0064565263
 10
330532.2681470806
 20
427009.2117253795
 10
330491.562387782
 20
426982.1227535313
 10
330505.1309742149
 20
426927.8966088174
 10
330694.8983802048
 20
426873.6704641034
 10
330789.8302842173
 20
426860.1018776706
 10
330871.1454007795
 20
426833.0129058224
 10
330898.2343726277
 20
426670.3344716807
 10
331020.2552484883
 20
426683.9030581135
 10
331128.7075379162
 20
426738.1292028274
 10
331128.7075379162
 20
426751.6495882428
 10
331210.0226544782
 20
426589.0193551185
 10
331399.8382614857
 20
426534.7932104047
 10
331426.927233334
 20
426521.2246239718
 10
331589.6056674756
 20
426521.2246239718
 10
331738.7155151847
 20
426507.656037539
 10
331833.5992181795
 20
426548.3135958199
 10
331914.9625357591
 20
426507.656037539
 10
331901.3939493263
 20
426453.429892825
 10
331982.7090658885
 20
426399.2037481111
 10
331942.0515076073
 20
426344.9776033972
 10
331901.3939493263
 20
426331.4572179818
 10
331847.1678046123
 20
426385.6833626958
 10
331765.8044870327
 20
426385.6833626958
 10
331752.2841016174
 20
426358.54618983
 10
331711.6265433364
 20
426304.3200451161
 10
331657.4003986224
 20
426317.8886315489
 10
331562.4684946099
 20
426358.54618983
 10
331413.3586469012
 20
426209.4363421211
 10
331359.1325021872
 20
426100.9840526933
 10
331277.817385625
 20
425992.5317632655
 10
331237.159827344
 20
425938.3056185515
 10
331372.70108862
 20
425938.3056185515
 10
331345.6121167718
 20
425884.0794738378
 10
331210.0226544782
 20
425721.4492407134
 10
331196.502269063
 20
425707.8806542806
 10
331169.3650961972
 20
425653.6545095666
 10
331115.1389514833
 20
425585.8597784199
 10
331074.4813932021
 20
425599.4283648528
 10
330993.1662766402
 20
425558.7708065717
 10
330884.7139872123
 20
425436.749930711
 10
330762.6931113516
 20
425368.9551995642
 10
330627.1518500756
 20
425287.6400830021
 10
330586.4942917946
 20
425287.6400830021
 10
330654.2408219238
 20
425233.4139382882
 10
330789.8302842173
 20
425260.5511111538
 10
330993.1662766402
 20
425301.208669435
 10
331060.9128067694
 20
425355.434814149
 10
331182.9336826302
 20
425355.434814149
 10
331291.3859720579
 20
425301.208669435
 10
331359.1325021872
 20
425260.5511111538
 10
331210.0226544782
 20
425233.4139382882
 10
331006.6866620554
 20
425233.4139382882
 10
330871.1454007795
 20
425152.0988217261
 10
330789.8302842173
 20
425016.5093594326
 10
330667.8094083566
 20
424962.2832147187
 10
330505.1309742149
 20
424908.0932207679
 10
330572.9257053616
 20
424799.64093134
 10
330545.788532496
 20
424650.5310836311
 10
330478.0420023668
 20
424542.0787942033
 10
330437.3362430681
 20
424623.3939107654
 10
330410.2472712199
 20
424704.7210775821
 10
330328.9321546579
 20
424650.5310836311
 10
330261.137423511
 20
424596.3049389173
 10
330247.5688370782
 20
424609.8373745868
 10
330193.3426923643
 20
424677.6200554793
 10
330071.3700175212
 20
424609.8373745868
 10
329962.9177280932
 20
424555.6112298729
 10
329868.0340250983
 20
424528.5102077704
 10
329813.8078803845
 20
424474.2840630566
 10
329854.4654386655
 20
424352.2631871957
 10
329949.3491416603
 20
424338.7428017804
 10
330125.5961622351
 20
424352.2631871957
 10
330206.911278797
 20
424338.7428017804
 10
330518.6995606477
 20
424298.0370424819
 10
330600.0146772099
 20
424257.379484201
 10
330532.2681470806
 20
424189.6329540717
 10
330315.3635682249
 20
424067.6120782111
 10
330179.8223069489
 20
424013.385933497
 10
330098.4589893693
 20
423972.728375216
 10
330057.8014310882
 20
423810.0499410743
 10
330030.6642582226
 20
423810.0499410743
 10
329949.3491416603
 20
423782.960969226
 10
329881.5544105136
 20
423742.2552099274
 10
329840.8968522327
 20
423538.9192175047
 10
329935.7805552275
 20
423525.3988320893
 10
329976.4863145262
 20
423606.7139486515
 10
330112.0275758022
 20
423660.9400933654
 10
330125.5961622351
 20
423552.4878039375
 10
330152.6851340832
 20
423484.6930727907
 10
330288.2263953593
 20
423444.0355145097
 10
330518.6995606477
 20
423566.0563903704
 10
330681.3779947896
 20
423606.7139486515
 10
330816.9192560654
 20
423633.8029204996
 10
330640.7204365085
 20
423538.9192175047
 10
330518.6995606477
 20
423444.0355145097
 10
330261.137423511
 20
423308.4942532336
 10
330139.1165476503
 20
423227.130935654
 10
330084.8904029365
 20
423118.7268472438
 10
330342.4525400731
 20
423132.2472326591
 10
330491.562387782
 20
423200.0419638057
 10
330654.2408219238
 20
423227.130935654
 10
330816.9192560654
 20
423240.6995220869
 10
330938.9401319263
 20
423240.6995220869
 10
331006.6866620554
 20
423227.130935654
 10
330871.1454007795
 20
423145.8158190918
 10
330667.8094083566
 20
423064.5007025297
 10
330559.3571189287
 20
422996.7059713829
 10
330505.1309742149
 20
422956.0484131019
 10
330694.8983802048
 20
422983.1373849502
 10
330871.1454007795
 20
423023.7949432313
 10
330708.4669666377
 20
422928.9112402361
 10
330586.4942917946
 20
422888.2536819552
 10
330450.9048295009
 20
422766.2328060945
 10
330572.9257053616
 20
422739.1438342463
 10
330735.6041395034
 20
422820.4589508084
 10
330844.0564289313
 20
422861.1647101071
 10
330966.0291037744
 20
422901.8222683881
 10
331169.3650961972
 20
422820.4589508084
 10
331291.3859720579
 20
422739.1438342463
 10
331508.2905509135
 20
422793.3699789602
 10
331576.0370810428
 20
422806.938565393
 10
331752.2841016174
 20
422888.2536819552
 10
331779.3730734656
 20
422928.9112402361
 10
331901.3939493263
 20
422901.8222683881
 10
331996.2776523213
 20
422901.8222683881
 10
332077.5927688834
 20
422996.7059713829
 10
332267.4083758908
 20
423010.2745578159
 10
332375.8606653188
 20
423118.7268472438
 10
332538.4908984429
 20
423254.2681085198
 10
332755.3954772986
 20
423308.4942532336
 10
332985.8686425871
 20
423349.1518115148
 10
333121.4099038631
 20
423498.2616592236
 10
333175.636048577
 20
423606.7139486515
 10
333419.6295992809
 20
423660.9400933654
 10
333473.8557439948
 20
423742.2552099274
 10
333514.5133022758
 20
423850.7074993553
 10
333446.7667721465
 20
423945.5912023504
 10
333636.5341781365
 20
423999.8173470642
 10
333799.2126122783
 20
424067.6120782111
 10
333975.4114318354
 20
424026.9545199299
 10
334111.000894129
 20
424067.6120782111
 10
334138.0898659771
 20
424013.385933497
 10
334341.4258584
 20
423959.1597887831
 10
334449.8781478277
 20
424040.4749053452
 10
334598.9879955367
 20
424054.0434917781
 10
334748.0978432455
 20
424067.6120782111
 10
334870.1187191061
 20
424081.1806646438
 10
335005.6599803822
 20
424054.0434917781
 10
335032.7610024848
 20
424013.385933497
 10
335100.5557336315
 20
424081.1806646438
  0
LWPOLYLINE
  5
E6
330
1E
100
AcDbEntity
  8
LAYER_1
  6
Continuous
 62
     7
100
AcDbPolyline
 90
       24
 70
     1
 43
48.20101752347991
 10
338089.2477749206
 20
426381.0801655223
 10
337953.7065136446
 20
426381.0801655223
 10
337885.9117824978
 20
426408.1691373704
 10
337831.6856377839
 20
426475.9638685172
 10
337818.117051351
 20
426530.1900132312
 10
337763.8909066371
 20
426570.8475715121
 10
337601.2606735129
 20
426570.8475715121
 10
337479.2397976521
 20
426570.8475715121
 10
337438.5822393711
 20
426503.101041383
 10
337438.5822393711
 20
426435.3063102361
 10
337370.7875082244
 20
426381.0801655223
 10
337357.2189217915
 20
426313.2854343754
 10
337425.0136529382
 20
426245.5389042464
 10
337452.1026247864
 20
426218.4017313805
 10
337492.808384085
 20
426164.1755866666
 10
337601.2606735129
 20
426055.7232972388
 10
337655.4386172092
 20
426055.7232972388
 10
337709.6647619231
 20
426069.2918836715
 10
337791.0280795028
 20
426123.5180283857
 10
337831.6856377839
 20
426150.6552012511
 10
337913.0007543461
 20
426218.4017313805
 10
337994.3640719256
 20
426245.5389042464
 10
338035.0216302066
 20
426259.0592896616
 10
338116.3367467688
 20
426353.991193674
  0
LWPOLYLINE
  5
100
330
1E
100
AcDbEntity
  8
LAYER_1
  6
Continuous
 62
     7
100
AcDbPolyline
 90
      128
 70
     0
 43
48.20101752347991
 10
339920.8864408127
 20
422741.9033424996
 10
339866.6602960988
 20
422647.0196395046
 10
339826.0027378178
 20
422579.2249083578
 10
339744.6394202383
 20
422497.9097917957
 10
339663.324303676
 20
422403.0260888008
 10
339527.7830424001
 20
422281.00521294
 10
339487.0772831014
 20
422226.7790682261
 10
339419.3307529722
 20
422213.2104817933
 10
339378.6731946912
 20
422186.121509945
 10
339310.8784635444
 20
422118.3267787983
 10
339351.5360218254
 20
422077.6692205173
 10
339337.9674353925
 20
421928.5593728082
 10
339256.6523188305
 20
421847.2442562463
 10
338863.5489204177
 20
421806.5384969476
 10
338809.3227757038
 20
421820.1070833806
 10
338511.103080286
 20
421901.4221999425
 10
338429.7397627064
 20
421901.4221999425
 10
338239.9723567164
 20
421901.4221999425
 10
337968.8416331469
 20
421874.3332280944
 10
337901.0951030177
 20
421887.9018145273
 10
337792.6428135899
 20
421847.2442562463
 10
337751.9370542912
 20
421698.0862075199
 10
337765.505640724
 20
421657.4286492387
 10
337765.505640724
 20
421562.5449462439
 10
337711.2794960101
 20
421535.4559743956
 10
337670.6219377292
 20
421494.7502150971
 10
337643.5329658809
 20
421467.6612432488
 10
337535.0806764531
 20
421454.092656816
 10
337467.2859453063
 20
421481.2298296815
 10
337413.0598005924
 20
421508.3188015299
 10
337358.8336558785
 20
421508.3188015299
 10
337358.8336558785
 20
421440.5240703832
 10
337331.7446840303
 20
421372.7775402539
 10
337277.5185393164
 20
421223.6676925449
 10
337263.9499528836
 20
421047.4206719704
 10
337182.6348363214
 20
420871.2218524133
 10
336979.2988438986
 20
420776.2899484008
 10
336830.1889961898
 20
420694.9748318387
 10
336803.051823324
 20
420694.9748318387
 10
336748.8256786101
 20
420627.1801006919
 10
336667.510562048
 20
420627.1801006919
 10
336640.3733891822
 20
420640.7486871247
 10
336613.2844173342
 20
420572.9539559778
 10
336586.1472444683
 20
420478.070252983
 10
336586.1472444683
 20
420410.3237228538
 10
336545.4896861873
 20
420356.0975781399
 10
336518.400714339
 20
420356.0975781399
 10
336477.6949550406
 20
420288.3028469932
 10
336450.6059831923
 20
420288.3028469932
 10
336396.3798384784
 20
420179.8505575653
 10
336342.1536937645
 20
420112.0919771816
 10
336274.3589626177
 20
420057.8658324677
 10
336179.4752596227
 20
420003.6396877538
 10
336098.1601430606
 20
419895.187398326
 10
336030.3654119138
 20
419922.2884204285
 10
335976.1392672
 20
419949.4135430398
 10
335881.255564205
 20
419908.7198339957
 10
335813.4608330582
 20
419854.5298400449
 10
335745.7143029289
 20
419813.8361310006
 10
335664.3509853493
 20
419746.0775506171
 10
335650.8305999339
 20
419664.7142330374
 10
335610.1248406353
 20
419542.7415581942
 10
335677.9195717822
 20
419569.8305300425
 10
335799.9404476429
 20
419569.8305300425
 10
335976.1392672
 20
419705.3838415729
 10
336193.0438460556
 20
419637.6252611893
 10
336301.4961354835
 20
419407.1520959007
 10
336369.2908666302
 20
419325.8369793386
 10
336423.4688103266
 20
419407.1520959007
 10
336531.9210997545
 20
419447.8578551993
 10
336572.6268590531
 20
419610.4880883235
 10
336559.0582726202
 20
419651.1938476223
 10
336572.6268590531
 20
419718.9403777513
 10
336681.0309474633
 20
419773.1665224653
 10
336857.2779680379
 20
419881.6188118931
 10
336897.9355263189
 20
419908.7198339957
 10
336965.7302574657
 20
420030.7407098564
 10
336965.7302574657
 20
420084.9668545703
 10
337006.3878157468
 20
420166.2819711325
 10
337114.8401051747
 20
420193.4191439981
 10
337128.4086916075
 20
420112.0919771816
 10
337250.3813664506
 20
420098.5233907488
 10
337535.0806764531
 20
420206.9756801765
 10
337684.190524162
 20
420193.4191439981
 10
337819.731785438
 20
420152.7495354627
 10
337846.8689583037
 20
420179.8505575653
 10
337955.2730467139
 20
420071.3982681373
 10
338063.7253361419
 20
420112.0919771816
 10
338172.1776255697
 20
420084.9668545703
 10
338199.3147984355
 20
420017.1721234235
 10
338212.8351838507
 20
419949.4135430398
 10
338307.7670878632
 20
419868.0622757146
 10
338456.8769355722
 20
419922.2884204285
 10
338511.103080286
 20
420044.2972460348
 10
338511.103080286
 20
420112.0919771816
 10
338619.5071686965
 20
420247.6452887121
 10
338660.212927995
 20
420328.960405274
 10
338673.7333134103
 20
420396.7551364209
 10
338700.870486276
 20
420464.5498675676
 10
338727.9594581243
 20
420559.4335705628
 10
338782.1856028381
 20
420708.5434182714
 10
338768.6652174227
 20
420776.2899484008
 10
338795.7541892709
 20
420722.1120047043
 10
338877.0693058331
 20
420708.5434182714
 10
338958.4326234127
 20
420749.2009765526
 10
339026.2273545594
 20
420844.0846795475
 10
339080.4052982558
 20
420844.0846795475
 10
339188.8575876838
 20
420871.2218524133
 10
339256.6523188305
 20
420884.7422378286
 10
339337.9674353925
 20
420884.7422378286
 10
339432.8993394051
 20
420898.3108242615
 10
339527.7830424001
 20
420966.1055554082
 10
339609.0981589621
 20
420966.1055554082
 10
339703.9818619572
 20
420898.3108242615
 10
339839.5713242507
 20
420857.6532659804
 10
339907.3178543799
 20
420762.7695629855
 10
340002.201557375
 20
420681.406245406
 10
340110.6538468027
 20
420627.1801006919
 10
340273.3322809444
 20
420735.6323901198
 10
340530.8944180813
 20
420708.5434182714
 10
340639.346707509
 20
420681.406245406
 10
340761.3675833697
 20
420681.406245406
 10
340774.8879687851
 20
420789.8585348337
 10
340666.4356793572
 20
420871.2218524133
 10
340747.7989969368
 20
420898.3108242615
 10
340802.0251416508
 20
420871.2218524133
 10
340842.6826999318
 20
420884.7422378286
 10
341059.5872787875
 20
420911.8794106943
  0
LWPOLYLINE
  5
182
330
1E
100
AcDbEntity
  8
LAYER_1
  6
Continuous
 62
     7
100
AcDbPolyline
 90
       76
 70
     0
 43
48.20101752347991
 10
345358.9734388293
 20
424107.2815156328
 10
345331.8844669811
 20
424269.9599497746
 10
345386.0624106776
 20
424432.6383839164
 10
345467.4257282572
 20
424771.5156376151
 10
345467.4257282572
 20
424907.0568988911
 10
345426.7681699761
 20
425001.9406018861
 10
345440.2885553915
 20
425205.2765943089
 10
345426.7681699761
 20
425422.1811731645
 10
345304.7472941153
 20
425503.5444907441
 10
345142.0688599736
 20
425679.7433103011
 10
345074.3223298444
 20
425733.9694550152
 10
344857.4177509887
 20
425842.4217444431
 10
344735.3968751281
 20
425869.5107162911
 10
344626.9445857002
 20
425869.5107162911
 10
344464.3143525761
 20
425896.6478891569
 10
344464.3143525761
 20
425855.9903308759
 10
344396.5196214293
 20
425855.9903308759
 10
344274.4987455685
 20
425883.079302724
 10
344111.8203114267
 20
425883.079302724
 10
343962.7104637179
 20
425855.9903308759
 10
343881.3953471559
 20
425788.195599729
 10
343881.3953471559
 20
425761.1066278808
 10
343759.374471295
 20
425544.2020490252
 10
343705.1483265811
 20
425489.9759043113
 10
343691.6279411659
 20
425544.2020490252
 10
343610.2646235863
 20
425544.2020490252
 10
343542.5180934569
 20
425571.2910208734
 10
343528.9495070241
 20
425611.996780172
 10
343312.0449281685
 20
425706.880483167
 10
343230.717761352
 20
425693.311896734
 10
343298.4763417356
 20
425774.6270132962
 10
343325.6135146014
 20
425774.6270132962
 10
343393.3600447306
 20
425842.4217444431
 10
343420.4972175963
 20
425923.736861005
 10
343515.3809205913
 20
425964.4426203037
 10
343556.0384788724
 20
426032.1891504329
 10
343664.4907683002
 20
426086.4152951469
 10
343664.4907683002
 20
426194.8675845746
 10
343691.6279411659
 20
426262.6623157215
 10
343650.9221818673
 20
426438.8611352785
 10
343461.1547758773
 20
426682.902887
 10
343434.0658040291
 20
426764.2180035621
 10
343379.8396593152
 20
426818.4441482759
 10
343244.2501970216
 20
426899.7592648381
 10
343217.1612251735
 20
426940.4650241367
 10
343108.7089357456
 20
426994.642967833
 10
343095.1403493128
 20
427035.3487271315
 10
342959.5870377824
 20
427116.6638436937
 10
342932.4980659341
 20
427157.3214019748
 10
342891.8043568899
 20
427170.8899884077
 10
342864.7033347874
 20
427252.2051049697
 10
343000.2566463179
 20
427170.8899884077
 10
343081.607913643
 20
427103.0952572608
 10
343122.2654719241
 20
427062.4376989797
 10
343217.1612251735
 20
427089.5748718454
 10
343339.1700507797
 20
427062.4376989797
 10
343393.3600447306
 20
427008.2115542659
 10
343393.3600447306
 20
427062.4376989797
 10
343352.7024864496
 20
427116.6638436937
 10
343312.0449281685
 20
427170.8899884077
 10
343244.2501970216
 20
427225.1161331214
 10
343135.834058357
 20
427442.0207119772
 10
343013.8131824963
 20
427631.7881179672
 10
342959.5870377824
 20
427740.240407395
 10
342932.4980659341
 20
427794.4665521089
 10
342946.0305016039
 20
427889.3502551039
 10
342973.1556242153
 20
427943.5763998177
 10
343081.607913643
 20
427984.2339580989
 10
343108.7089357456
 20
428065.5490746609
 10
342932.4980659341
 20
428133.3438058077
 10
342864.7033347874
 20
428160.4809786734
 10
342851.1347483545
 20
428214.7071233874
 10
342851.1347483545
 20
428296.0222399494
 10
342837.5782121761
 20
428323.1112117976
 10
342756.2510453596
 20
428350.2483846635
 10
342572.9425757179
 20
428478.342588732
  0
LWPOLYLINE
  5
1D0
330
1E
100
AcDbEntity
  8
LAYER_1
  6
Continuous
 62
     7
100
AcDbPolyline
 90
      151
 70
     0
 43
48.20101752347991
 10
339679.8813531955
 20
432888.217531192
 10
339734.1074979093
 20
432874.6489447592
 10
339815.4226144713
 20
432915.3065030403
 10
339883.2173456182
 20
432969.5326477541
 10
339951.0120767649
 20
433050.8959653339
 10
340100.1219244739
 20
433172.868640177
 10
340045.8957797598
 20
433267.8005441894
 10
340140.7794827549
 20
433457.5679501794
 10
340113.6905109067
 20
433579.5406250226
 10
340303.4579168966
 20
433674.472529035
 10
340452.5677646056
 20
433864.239935025
 10
340479.6567364537
 20
434054.0073410148
 10
340479.6567364537
 20
434121.8020721617
 10
340574.5404394487
 20
434406.4531811467
 10
340561.0200540333
 20
434555.5630288554
 10
340642.3351705955
 20
434799.6047805769
 10
340872.808335884
 20
435138.4820342757
 10
340886.3287212994
 20
435260.5029101364
 10
340845.6711630182
 20
435423.1331432607
 10
340777.8764318715
 20
435558.7226055543
 10
340601.6776123144
 20
435694.2638668302
 10
340506.7939093195
 20
435694.2638668302
 10
340357.6840616105
 20
435653.6063085491
 10
340262.8003586156
 20
435694.2638668302
 10
340167.8684546031
 20
435653.6063085491
 10
340113.6905109067
 20
435612.9487502681
 10
339964.5324621803
 20
435612.9487502681
 10
339815.4226144713
 20
435653.6063085491
 10
339639.2237949144
 20
435680.6952803974
 10
339584.9976502005
 20
435667.174894982
 10
339476.5453607727
 20
435626.4691356834
 10
339395.2302442105
 20
435626.4691356834
 10
339286.7779547826
 20
435653.6063085491
 10
339164.7570789219
 20
435721.4010396959
 10
339069.8733759271
 20
435721.4010396959
 10
338852.9687970713
 20
435653.6063085491
 10
338798.7426523574
 20
435612.9487502681
 10
338500.5229569396
 20
435504.4964608403
 10
338419.2078403776
 20
435490.9278744075
 10
338283.618378084
 20
435423.1331432607
 10
338242.9608198029
 20
435314.6808538328
 10
338134.5085303752
 20
435260.5029101364
 10
337958.3097108179
 20
435301.1604684176
 10
338120.9881449598
 20
435328.2494402657
 10
338459.8653986585
 20
435816.284742691
 10
338568.3176880865
 20
435924.7370321186
 10
338608.9752463675
 20
436006.052148681
 10
338541.1805152207
 20
436006.052148681
 10
338446.2968122257
 20
435951.8260039669
 10
338324.3241373826
 20
435951.8260039669
 10
338270.0979926686
 20
435992.483562248
 10
338270.0979926686
 20
436060.2782933947
 10
338364.9816956638
 20
436100.9358516758
 10
338378.5020810789
 20
436236.4771129519
 10
338703.8589493624
 20
436494.0392500886
 10
338866.5373835042
 20
436561.8339812353
 10
338974.989672932
 20
436643.1490977976
 10
339042.7362030612
 20
436765.1699736581
 10
339124.0995206409
 20
436846.4850902202
 10
339368.0930713448
 20
436968.5059660809
 10
339462.9767743397
 20
437212.4995167847
 10
339408.7506296258
 20
437280.2942479316
 10
339422.3192160586
 20
437320.9518062126
 10
339490.1139472056
 20
437415.8355092076
 10
339476.5453607727
 20
437537.8563850683
 10
339381.6616577777
 20
437537.8563850683
 10
339300.2983401979
 20
437578.5139433493
 10
339218.9832236359
 20
437537.8563850683
 10
339096.9623477752
 20
437605.651116215
 10
339042.7362030612
 20
437578.5139433493
 10
339042.7362030612
 20
437510.7192122025
 10
338974.989672932
 20
437470.0616539215
 10
338947.8525000662
 20
437497.1988267872
 10
338663.2013910814
 20
437429.4040956405
 10
338473.4339850914
 20
437415.8355092076
 10
338392.0706675118
 20
437442.9726820733
 10
338161.6457032408
 20
437334.5203926453
 10
338012.5358555319
 20
437334.5203926453
 10
337931.1725379523
 20
437375.1779509265
 10
337836.2888349573
 20
437388.7465373594
 10
337646.5214289673
 20
437388.7465373594
 10
337551.6377259724
 20
437415.8355092076
 10
337483.8429948257
 20
437429.4040956405
 10
337294.0755888357
 20
437524.2877986353
 10
337280.5070024028
 20
437456.541268506
 10
337239.8494441218
 20
437361.6093644937
 10
337158.4861265422
 20
437320.9518062126
 10
337199.1918858407
 20
437212.4995167847
 10
337131.3971546939
 20
437117.6158137898
 10
337063.6024235472
 20
437117.6158137898
 10
337077.1710099801
 20
437049.8210826431
 10
337158.4861265422
 20
436927.8484077997
 10
337117.8285682611
 20
436860.0536766531
 10
336995.855893418
 20
436832.9647048049
 10
336900.9239894054
 20
436819.396118372
 10
336860.2664311243
 20
436860.0536766531
 10
336792.5199009952
 20
436832.9647048049
 10
336873.8350175572
 20
436751.6013872253
 10
336928.0611622711
 20
436656.7176842303
 10
336887.4036039901
 20
436507.6078365214
 10
336833.1774592761
 20
436494.0392500886
 10
336792.5199009952
 20
436561.8339812353
 10
336765.3827281294
 20
436494.0392500886
 10
336860.2664311243
 20
436399.1555470936
 10
336887.4036039901
 20
436331.4090169644
 10
336941.629748704
 20
436250.0456993847
 10
336941.629748704
 20
436182.2509682379
 10
336806.0402864105
 20
436182.2509682379
 10
336643.3618522687
 20
436141.5934099569
 10
336602.7042939876
 20
436222.9567275365
 10
336507.8205909927
 20
436155.1619963896
 10
336507.8205909927
 20
436087.367265243
 10
336575.6153221394
 20
436019.6207351137
 10
336467.1630327118
 20
436019.6207351137
 10
336399.368301565
 20
436114.5044381086
 10
336345.1421568509
 20
436087.367265243
 10
336358.7107432838
 20
436006.052148681
 10
336358.7107432838
 20
435884.03127282
 10
336453.5944462789
 20
435829.8051281063
 10
336440.025859846
 20
435789.147569825
 10
336358.7107432838
 20
435762.058597977
 10
336358.7107432838
 20
435626.4691356834
 10
336399.368301565
 20
435545.1540191213
 10
336372.2793297167
 20
435477.3592879745
 10
336263.8270402888
 20
435382.4755849795
 10
336290.916012137
 20
435301.1604684176
 10
336263.8270402888
 20
435246.9343237036
 10
336318.0531850027
 20
435179.1395925568
 10
336345.1421568509
 20
435057.1669177136
 10
336440.025859846
 20
435016.461158415
 10
336575.6153221394
 20
435016.461158415
 10
336507.8205909927
 20
434962.2350137011
 10
336399.368301565
 20
434853.8309252908
 10
336467.1630327118
 20
434758.8990212783
 10
336494.2520045598
 20
434650.4467318506
 10
336480.7316191445
 20
434542.0426434403
 10
336453.5944462789
 20
434514.9054705744
 10
336412.9368879977
 20
434406.4531811467
 10
336358.7107432838
 20
434365.7956228656
 10
336331.6217714356
 20
434270.9119198707
 10
336277.3956267218
 20
434148.8910440101
 10
336236.6898674231
 20
434067.5759274478
 10
336168.9433372939
 20
433918.4660797389
 10
336304.4845985699
 20
433891.3289068734
 10
336304.4845985699
 20
433837.1027621593
 10
336209.6008955749
 20
433715.1300873162
 10
336168.9433372939
 20
433633.7667697365
 10
336101.1486061471
 20
433606.6777978883
 10
336046.9224614331
 20
433674.472529035
 10
335911.3812001572
 20
433633.7667697365
 10
335789.3603242965
 20
433606.6777978883
  0
LWPOLYLINE
  5
269
330
1E
100
AcDbEntity
  8
LAYER_1
  6
Continuous
 62
     7
100
AcDbPolyline
 90
       31
 70
     0
 43
48.20101752347991
 10
335799.6994425552
 20
433635.333302806
 10
335826.7884144034
 20
433459.0862822314
 10
336043.6929932591
 20
433431.9973103831
 10
336016.6040214109
 20
433377.7711656693
 10
335935.2407038314
 20
433404.908338535
 10
335853.9255872692
 20
433391.3397521022
 10
335799.6994425552
 20
433282.8874626743
 10
335650.5895948465
 20
433242.2299043932
 10
335637.0210084135
 20
433174.4351732464
 10
335867.494173702
 20
433025.3253255376
 10
335826.7884144034
 20
432849.0783049629
 10
335677.6785666945
 20
432767.763188401
 10
335555.7058918513
 20
432767.763188401
 10
335555.7058918513
 20
432672.8794854059
 10
335894.5831455502
 20
432632.221927125
 10
336274.1661585476
 20
432686.4480718387
 10
336274.1661585476
 20
432510.2010512643
 10
336233.5086002666
 20
432442.4063201174
 10
336355.4812751098
 20
432374.6597899882
 10
336436.8445926895
 20
432374.6597899882
 10
336450.3649781048
 20
432347.5226171225
 10
336531.7282956843
 20
432320.4336452742
 10
336355.4812751098
 20
431967.9878051426
 10
336314.8237168287
 20
431940.8506322768
 10
336274.1661585476
 20
431859.5355157147
 10
336341.912688677
 20
431859.5355157147
 10
336409.7074198237
 20
431886.6244875628
 10
336341.912688677
 20
431669.7199087072
 10
336409.7074198237
 20
431588.4047921451
 10
336355.4812751098
 20
431439.2949444363
 10
336247.0289856819
 20
431263.0479238616
  0
LWPOLYLINE
  5
28A
330
1E
100
AcDbEntity
  8
LAYER_1
  6
Continuous
 62
     7
100
AcDbPolyline
 90
        4
 70
     0
 43
48.20101752347991
 10
336247.0289856819
 20
431263.0479238616
 10
336225.4590303402
 20
431145.0759334729
 10
336191.8147201087
 20
431033.1170200202
 10
336152.1452826869
 20
430924.1706701628
  0
LWPOLYLINE
  5
290
330
1E
100
AcDbEntity
  8
LAYER_1
  6
Continuous
 62
     7
100
AcDbPolyline
 90
       21
 70
     0
 43
48.20101752347991
 10
336152.1452826869
 20
430924.1706701628
 10
336138.5766962541
 20
430734.3912139184
 10
336423.2760062565
 20
430788.6173586324
 10
336491.0225363857
 20
430991.9533510552
 10
336436.8445926895
 20
431100.4056404832
 10
336707.9271152415
 20
431642.6309368591
 10
336694.3585288086
 20
431723.9460534212
 10
336626.6119986793
 20
431818.8779574337
 10
336585.9544403982
 20
431967.9878051426
 10
336613.0434122465
 20
432049.3029217046
 10
336707.9271152415
 20
432103.5290664186
 10
336789.290432821
 20
432035.7343352718
 10
336735.0642881071
 20
431859.5355157147
 10
336735.0642881071
 20
431778.172198135
 10
336829.9479911021
 20
431723.9460534212
 10
336897.6945212313
 20
431723.9460534212
 10
336951.9206659454
 20
431696.857081573
 10
336992.626425244
 20
431615.5419650108
 10
337168.8252448009
 20
431574.8362057123
 10
337277.2775342287
 20
431479.9525027172
 10
337304.4147070945
 20
431371.5002132895
  0
LWPOLYLINE
  5
2A7
330
1E
100
AcDbEntity
  8
LAYER_1
  6
Continuous
 62
     7
100
AcDbPolyline
 90
        4
 70
     0
 43
48.20101752347991
 10
337304.4147070945
 20
431371.5002132895
 10
337454.0065649786
 20
431288.6788149298
 10
337543.3592012127
 20
431169.6946031729
 10
337521.2710849326
 20
431005.5219374881
  0
LWPOLYLINE
  5
2AD
330
1E
100
AcDbEntity
  8
LAYER_1
  6
Continuous
 62
     7
100
AcDbPolyline
 90
       16
 70
     0
 43
48.20101752347991
 10
337521.2710849326
 20
431005.5219374881
 10
337331.5036789426
 20
430856.375939016
 10
337223.0513895149
 20
430666.5964827717
 10
337141.7362729527
 20
430395.4657592021
 10
337006.1468106592
 20
430205.6983532122
 10
336992.626425244
 20
430124.3832366501
 10
337019.715397092
 20
430015.9309472223
 10
337046.8525699578
 20
429907.4786577945
 10
336992.626425244
 20
429799.0263683665
 10
336951.9206659454
 20
429880.3896859463
 10
336897.6945212313
 20
430070.1570919361
 10
336870.6055493832
 20
430043.0199190705
 10
336857.0369629504
 20
429948.1362160754
 10
336884.174135816
 20
429704.1426653716
 10
336938.4002805299
 20
429582.1217895109
 10
337006.1468106592
 20
429527.8956447972
  0
LWPOLYLINE
  5
2BF
330
1E
100
AcDbEntity
  8
LAYER_1
  6
Continuous
 62
     7
100
AcDbPolyline
 90
       73
 70
     0
 43
48.20101752347991
 10
337004.7248806424
 20
429526.1965589292
 10
337018.2934670751
 20
429417.7442695015
 10
337086.0399972043
 20
429214.4082770787
 10
337167.403314784
 20
429133.0931605164
 10
337208.0608730651
 20
429133.0931605164
 10
337140.2661419183
 20
429444.8814423672
 10
337099.6085836372
 20
429526.1965589292
 10
337099.6085836372
 20
429607.5116754915
 10
337180.9719012168
 20
429688.8749930711
 10
337262.287017779
 20
429715.9639649192
 10
337330.0817489258
 20
429661.7378202054
 10
337438.5340383536
 20
429539.7651453622
 10
337492.71198205
 20
429499.1075870811
 10
337560.5067131967
 20
429471.9704142154
 10
337655.3904161917
 20
429322.8605665066
 10
337696.0479744727
 20
429282.2030082255
 10
337736.7537337713
 20
429241.5454499444
 10
337831.6374367663
 20
429200.8396906459
 10
337831.6374367663
 20
429322.8605665066
 10
337818.0688503334
 20
429417.7442695015
 10
337872.2949950474
 20
429566.8541172104
 10
337953.6101116094
 20
429607.5116754915
 10
338021.4048427563
 20
429512.6279724965
 10
338089.199573903
 20
429444.8814423672
 10
338170.5146904651
 20
429417.7442695015
 10
338333.1931246068
 20
429417.7442695015
 10
338482.3029723158
 20
429539.7651453622
 10
338522.9605305968
 20
429607.5116754915
 10
338563.6180888779
 20
429648.2174347899
 10
338712.7761376042
 20
429688.8749930711
 10
338780.5226677336
 20
429756.6215232004
 10
338807.6598405993
 20
429878.642399061
 10
338970.3382747411
 20
429892.2109854939
 10
339038.0848048703
 20
429905.7795719267
 10
339132.9685078652
 20
429892.2109854939
 10
338983.8586601563
 20
429648.2174347899
 10
338929.6325154424
 20
429444.8814423672
 10
338780.5226677336
 20
429255.0658353597
 10
338780.5226677336
 20
429133.0931605164
 10
338766.9540813007
 20
429024.6408710888
 10
338726.2965230195
 20
428902.6199952281
 10
338672.0703783057
 20
428861.962436947
 10
338766.9540813007
 20
428753.5101475191
 10
338794.0912541664
 20
428672.1950309571
 10
338929.6325154424
 20
428509.5165968153
 10
338956.7696883081
 20
428414.6328938203
 10
339038.0848048703
 20
428306.1806043924
 10
339051.6533913031
 20
428143.5021702508
 10
339092.3109495843
 20
428116.4131984025
 10
339132.9685078652
 20
428157.0707566836
 10
339160.105680731
 20
428062.1870536887
 10
339119.4481224498
 20
428007.9609089748
 10
339132.9685078652
 20
427885.9400331141
 10
339241.420797293
 20
427845.282474833
 10
339377.0102595867
 20
428062.1870536887
 10
339404.0992314348
 20
428129.933583818
 10
339485.414347997
 20
428116.4131984025
 10
339648.0927821388
 20
428170.6393431164
 10
339688.7503404197
 20
428116.4131984025
 10
339702.3189268525
 20
428089.2760255368
 10
339675.2299550044
 20
428007.9609089748
 10
339621.0038102906
 20
427899.5086195469
 10
339566.7776655765
 20
427831.7138884001
 10
339580.3462520094
 20
427763.967358271
 10
339607.4352238577
 20
427696.1726271241
 10
339607.4352238577
 20
427641.9464824102
 10
339431.188203283
 20
427547.0627794152
 10
339390.5306450019
 20
427560.5831648305
 10
339377.0102595867
 20
427547.0627794152
 10
339349.8730867209
 20
427411.4733171217
 10
339377.0102595867
 20
427208.1373246989
 10
339458.3253761487
 20
427153.911179985
 10
339566.7776655765
 20
427167.4797664179
  0
LWPOLYLINE
  5
30A
330
1E
100
AcDbEntity
  8
LAYER_1
  6
Continuous
 62
     7
100
AcDbPolyline
 90
      210
 70
     0
 43
48.20101752347991
 10
335124.8851972266
 20
424115.6323419186
 10
335111.3166107938
 20
424224.0846313466
 10
335070.6590525126
 20
424251.1736031947
 10
335057.0904660798
 20
424346.0573061898
 10
335070.6590525126
 20
424468.0781820505
 10
335165.5427555077
 20
424644.325202625
 10
335301.1322178011
 20
424847.6611950478
 10
335328.2211896493
 20
424888.3187533289
 10
335314.6526032165
 20
424996.7710427568
 10
335273.9950449354
 20
425172.9698623138
 10
335355.3101614976
 20
425308.5593246072
 10
335436.6734790772
 20
425417.011614035
 10
335463.7624509253
 20
425525.4157024455
 10
335558.6943549379
 20
425688.0941365873
 10
335612.8722986343
 20
425755.888867734
 10
335572.2147403532
 20
425864.3411571617
 10
335558.6943549379
 20
425972.7934465897
 10
335545.125768505
 20
426121.9032942984
 10
335504.4682102239
 20
426298.1021138556
 10
335558.6943549379
 20
426352.3282585695
 10
335585.783326786
 20
426447.2119615645
 10
335572.2147403532
 20
426542.0956645594
 10
335558.6943549379
 20
426596.3218092735
 10
335517.9885956393
 20
426691.2537132859
 10
335517.9885956393
 20
426772.5688298479
 10
335545.125768505
 20
426867.452532843
 10
335558.6943549379
 20
426935.2472639897
 10
335504.4682102239
 20
427002.993794119
 10
335423.1048926443
 20
427097.9256981315
 10
335382.4473343633
 20
427260.5559312557
 10
335382.4473343633
 20
427341.9192488353
 10
335409.5363062115
 20
427409.6657789645
 10
335423.1048926443
 20
427463.8919236784
 10
335396.0159207961
 20
427518.1180683925
 10
335301.1322178011
 20
427558.823827691
 10
335273.9950449354
 20
427599.481385972
 10
335273.9950449354
 20
427667.2279161013
 10
335287.5636313683
 20
427694.365088967
 10
335355.3101614976
 20
427762.1598201139
 10
335463.7624509253
 20
427789.248791962
 10
335585.783326786
 20
427775.6802055292
 10
335640.0094715
 20
427843.4749366759
 10
335531.5571820721
 20
427829.9063502429
 10
335585.783326786
 20
427857.0435231086
 10
335734.8931744951
 20
427897.7010813898
 10
335816.208291057
 20
427938.358639671
 10
335884.0030222038
 20
428006.1533708177
 10
335911.1401950695
 20
428101.0370738125
 10
335938.2291669177
 20
428223.0579496732
 10
336046.6814563455
 20
428277.2358933697
 10
336141.5651593405
 20
428290.8044798026
 10
336317.8121799152
 20
428358.5992109493
 10
336344.9011517633
 20
428399.2567692304
 10
336331.3325653304
 20
428358.5992109493
 10
336385.5587100444
 20
428480.62008681
 10
336453.3534411911
 20
428724.6136375139
 10
336453.3534411911
 20
428765.2711957949
 10
336426.2644693429
 20
428995.6961600659
 10
336372.038324629
 20
429158.3745942078
 10
336331.3325653304
 20
429253.2582972025
 10
336263.5860352013
 20
429280.3954700683
 10
336155.1337457734
 20
429266.8268836353
 10
336114.4761874923
 20
429253.2582972025
 10
336019.5442834799
 20
429199.0321524886
 10
335938.2291669177
 20
429185.5117670734
 10
335951.7977533506
 20
429266.8268836353
 10
335978.8867251987
 20
429321.0530283494
 10
336073.7704281937
 20
429402.3681449115
 10
336100.9076010594
 20
429456.5942896254
 10
336114.4761874923
 20
429524.3890207721
 10
336100.9076010594
 20
429659.9302820482
 10
336060.2500427784
 20
429754.8621860608
 10
335965.3663397835
 20
429917.4924191849
 10
335884.0030222038
 20
430025.9447086128
 10
335856.9140503556
 20
430066.6022668938
 10
335870.434435771
 20
430147.9655844735
 10
335816.208291057
 20
430175.0545563217
 10
335789.1193192088
 20
430229.2807010354
 10
335802.6879056418
 20
430269.9382593165
 10
335816.208291057
 20
430351.3015768962
 10
335789.1193192088
 20
430446.1852798913
 10
335721.324588062
 20
430500.4114246052
 10
335612.8722986343
 20
430527.5003964534
 10
335545.125768505
 20
430554.637569319
 10
335436.6734790772
 20
430622.4323004657
 10
335314.6526032165
 20
430635.9526858812
 10
335206.2003137886
 20
430595.2951276
 10
335097.7962253783
 20
430554.637569319
 10
334989.3439359505
 20
430500.4114246052
 10
334894.4602329556
 20
430500.4114246052
 10
334758.8707706619
 20
430527.5003964534
 10
334677.5556541
 20
430595.2951276
 10
334718.2132123809
 20
430649.5212723141
 10
334636.8980958188
 20
430690.1788305951
 10
334555.5347782392
 20
430730.836388876
 10
334487.7400470924
 20
430757.9735617419
 10
334433.5621033962
 20
430785.0625335901
 10
334419.9935169632
 20
430866.4258511696
 10
334257.3150828214
 20
430907.0834094508
 10
334189.5203516746
 20
430934.172381299
 10
334216.6575245403
 20
430812.1997064558
 10
334216.6575245403
 20
430785.0625335901
 10
334121.7738215455
 20
430757.9735617419
 10
334067.5476768315
 20
430744.4049753089
 10
334040.4105039658
 20
430649.5212723141
 10
334013.3215321176
 20
430554.637569319
 10
334053.9790903986
 20
430541.0689828861
 10
333999.7529456847
 20
430500.4114246052
 10
333959.0953874036
 20
430513.9800110381
 10
333945.5268009707
 20
430595.2951276
 10
333945.5268009707
 20
430663.0898587468
 10
333931.9582145379
 20
430717.3160034608
 10
333823.50592511
 20
430757.9735617419
 10
333755.7593949809
 20
430744.4049753089
 10
333687.964663834
 20
430676.6102441623
 10
333647.307105553
 20
430581.7265411672
 10
333565.991988991
 20
430541.0689828861
 10
333511.765844277
 20
430608.8637140328
 10
333430.4025266973
 20
430622.4323004657
 10
333389.7449684163
 20
430581.7265411672
 10
333254.2037071402
 20
430541.0689828861
 10
333186.4089759935
 20
430527.5003964534
 10
333105.0938594315
 20
430513.9800110381
 10
333023.7305418517
 20
430419.0963080429
 10
332969.5043971379
 20
430297.0754321822
 10
332874.6206941429
 20
430229.2807010354
 10
332874.6206941429
 20
430188.6231427546
 10
332888.1892805757
 20
430161.5341709063
 10
332861.05210771
 20
430066.6022668938
 10
332874.6206941429
 20
430012.4243231976
 10
332915.2782524239
 20
429985.2871503317
 10
332915.2782524239
 20
429958.1981784835
 10
332942.4154252896
 20
429917.4924191849
 10
332874.6206941429
 20
429876.8348609039
 10
332793.3055775808
 20
429876.8348609039
 10
332725.5108464341
 20
429836.1773026228
 10
332766.168404715
 20
429781.9511579088
 10
332725.5108464341
 20
429700.6360413468
 10
332603.4899705733
 20
429687.067454914
 10
332508.6062675783
 20
429632.8413102
 10
332386.6335927351
 20
429537.9576072051
 10
332440.8597374491
 20
429483.7314624912
 10
332603.4899705733
 20
429443.0739042101
 10
332698.4218745858
 20
429388.8477594962
 10
332861.05210771
 20
429375.2791730633
 10
332969.5043971379
 20
429334.6216147822
 10
333091.5252729985
 20
429361.7105866305
 10
333145.7514177124
 20
429375.2791730633
 10
333118.6142448468
 20
429226.1693253546
 10
333050.8677147176
 20
429063.4908912127
 10
333064.3881001329
 20
429009.2647464986
 10
332915.2782524239
 20
428941.470015352
 10
332806.8259629962
 20
428941.470015352
 10
332671.2847017201
 20
428860.1548987899
 10
332617.0585570063
 20
428805.928754076
 10
332522.1748540112
 20
428751.7026093619
 10
332562.8324122922
 20
428656.8189063671
 10
332617.0585570063
 20
428670.3874928
 10
332644.1957298718
 20
428656.8189063671
 10
332617.0585570063
 20
428575.503789805
 10
332603.4899705733
 20
428480.62008681
 10
332522.1748540112
 20
428507.7090586582
 10
332440.8597374491
 20
428575.503789805
 10
332223.9551585935
 20
428534.7980305064
 10
332156.1604274466
 20
428589.0241752204
 10
332074.8453108845
 20
428683.9560792328
 10
331993.4819933049
 20
428656.8189063671
 10
331966.3930214568
 20
428494.1404722252
 10
331857.9407320289
 20
428453.4829139443
 10
331830.8517601806
 20
428548.3666169393
 10
331803.714587315
 20
428670.3874928
 10
331708.8308843199
 20
428711.0450510811
 10
331613.9471813249
 20
428683.9560792328
 10
331532.5838637454
 20
428711.0450510811
 10
331397.0426024694
 20
428765.2711957949
 10
331302.1588994744
 20
428805.928754076
 10
331180.1380236138
 20
428819.4973405088
 10
331058.1653487705
 20
428819.4973405088
 10
331058.1653487705
 20
428724.6136375139
 10
331031.0281759048
 20
428629.7299345189
 10
330963.2816457755
 20
428629.7299345189
 10
330909.0555010616
 20
428670.3874928
 10
330854.8293563478
 20
428738.134022929
 10
330732.808480487
 20
428616.1613480861
 10
330732.808480487
 20
428467.0515003772
 10
330637.9247774922
 20
428290.8044798026
 10
330692.150922206
 20
428263.7155079544
 10
330719.2398940542
 20
428317.9416526682
 10
330759.8974523352
 20
428399.2567692304
 10
330827.6921834821
 20
428494.1404722252
 10
330868.3497417631
 20
428521.2776450911
 10
330868.3497417631
 20
428304.3730662354
 10
330868.3497417631
 20
428209.4893632403
 10
330909.0555010616
 20
428168.8318049594
 10
330909.0555010616
 20
428087.4684873796
 10
330976.8020311909
 20
428046.8109290987
 10
330936.1444729098
 20
427979.0161979518
 10
330922.5758864771
 20
427843.4749366759
 10
330922.5758864771
 20
427816.3859648277
 10
330868.3497417631
 20
427762.1598201139
 10
330949.7130593427
 20
427748.591233681
 10
331003.9392040566
 20
427762.1598201139
 10
331098.8229070515
 20
427789.248791962
 10
331275.0217266087
 20
427735.022647248
 10
331275.0217266087
 20
427667.2279161013
 10
331275.0217266087
 20
427558.823827691
 10
331112.3914934845
 20
427572.3442131063
 10
331017.4595894719
 20
427585.912799539
 10
330949.7130593427
 20
427572.3442131063
 10
330895.4869146288
 20
427572.3442131063
  0
LWPOLYLINE
  5
3DE
330
1E
100
AcDbEntity
  8
LAYER_1
  6
Continuous
 62
     7
100
AcDbPolyline
 90
       24
 70
     0
 43
48.20101752347991
 10
338089.2477749206
 20
426381.0801655223
 10
337953.7065136446
 20
426381.0801655223
 10
337885.9117824978
 20
426408.1691373704
 10
337831.6856377839
 20
426475.9638685172
 10
337818.117051351
 20
426530.1900132312
 10
337763.8909066371
 20
426570.8475715121
 10
337601.2606735129
 20
426570.8475715121
 10
337479.2397976521
 20
426570.8475715121
 10
337438.5822393711
 20
426503.101041383
 10
337438.5822393711
 20
426435.3063102361
 10
337370.7875082244
 20
426381.0801655223
 10
337357.2189217915
 20
426313.2854343754
 10
337425.0136529382
 20
426245.5389042464
 10
337452.1026247864
 20
426218.4017313805
 10
337492.808384085
 20
426164.1755866666
 10
337601.2606735129
 20
426055.7232972388
 10
337655.4386172092
 20
426055.7232972388
 10
337709.6647619231
 20
426069.2918836715
 10
337791.0280795028
 20
426123.5180283857
 10
337831.6856377839
 20
426150.6552012511
 10
337913.0007543461
 20
426218.4017313805
 10
337994.3640719256
 20
426245.5389042464
 10
338035.0216302066
 20
426259.0592896616
 10
338116.3367467688
 20
426353.991193674
  0
LWPOLYLINE
  5
442
330
1E
100
AcDbEntity
  8
LAYER_1
  6
Continuous
 62
     7
100
AcDbPolyline
 90
       19
 70
     1
 43
48.20101752347991
 10
341265.8153322617
 20
420828.756755975
 10
341387.8362081224
 20
420828.756755975
 10
341482.7199111173
 20
420774.5306112611
 10
341577.6036141124
 20
420720.3044665472
 10
341658.9187306744
 20
420652.5097354005
 10
341740.282048254
 20
420679.6469082664
 10
341767.3710201022
 20
420706.7358801143
 10
341821.5971648162
 20
420788.0991976939
 10
341862.2547230973
 20
420855.8457278233
 10
341875.8233095302
 20
420910.0718725372
 10
341821.5971648162
 20
420910.0718725372
 10
341740.282048254
 20
420950.7776318358
 10
341699.624489973
 20
420991.4351901169
 10
341658.9187306744
 20
420991.4351901169
 10
341618.2611723933
 20
420977.8666036839
 10
341550.4664412467
 20
420937.2090454031
 10
341469.1513246845
 20
420923.6404589701
 10
341428.4937664034
 20
420910.0718725372
 10
341306.4728905427
 20
420882.982900689
  0
LWPOLYLINE
  5
457
330
1E
100
AcDbEntity
  8
LAYER_1
  6
Continuous
 62
     7
100
AcDbPolyline
 90
       81
 70
     0
 43
48.20101752347991
 10
341085.0615165486
 20
420913.1085366411
 10
341166.3766331107
 20
420940.1975084893
 10
341288.3975089715
 20
420940.1975084893
 10
341369.7126255335
 20
420994.4236532033
 10
341505.3020878271
 20
421048.6497979172
 10
341573.0486179564
 20
421089.3555572158
 10
341573.0486179564
 20
421157.1020873451
 10
341545.9596461082
 20
421224.8968184918
 10
341586.6172043893
 20
421224.8968184918
 10
341749.2956385309
 20
421143.5335009122
 10
341884.8489500614
 20
421075.7869707829
 10
341979.7326530563
 20
421116.444529064
 10
342088.1849424841
 20
421130.013115497
 10
342169.5362098095
 20
421048.6497979172
 10
342196.6372319121
 20
421021.5608260689
 10
342291.5209349069
 20
420967.3346813551
 10
342345.7470796209
 20
421007.9922396362
 10
342413.5418107677
 20
421035.1294125017
 10
342616.8778031904
 20
421075.7869707829
 10
342806.6452091803
 20
421116.444529064
 10
342996.4608161879
 20
421143.5335009122
 10
343132.0020774639
 20
421143.5335009122
 10
343254.0229533246
 20
421130.013115497
 10
343335.3380698866
 20
421116.444529064
 10
343403.1328010334
 20
421102.8759426311
 10
343525.1054758766
 20
421075.7869707829
 10
343579.3316205906
 20
421062.2183843501
 10
343633.5577653045
 20
421048.6497979172
 10
343687.7839100183
 20
421021.5608260689
 10
343864.0309305931
 20
421143.5335009122
 10
343972.4350190033
 20
421211.3282320589
 10
344094.455894864
 20
421265.5543767729
 10
344148.6820395779
 20
421279.1229632056
 10
344257.1343290057
 20
421360.4380797678
 10
344392.6755902817
 20
421441.8013973475
 10
344528.2650525752
 20
421441.8013973475
 10
344596.0115827047
 20
421441.8013973475
 10
344596.0115827047
 20
421496.0275420614
 10
344609.5801691374
 20
421604.4316304717
 10
344745.1214304134
 20
421712.8839198995
 10
344921.3684509881
 20
421807.7676228945
 10
345029.8207404158
 20
421861.9937676084
 10
345138.2730298437
 20
422011.1036153173
 10
345111.135856978
 20
422078.8983464641
 10
345097.5672705452
 20
422200.9192223247
 10
345151.793415259
 20
422255.1453670386
 10
345165.3620016919
 20
422350.0290700337
 10
345111.135856978
 20
422363.5976564664
 10
344907.7998645551
 20
422363.5976564664
 10
344582.4911972891
 20
422282.2343388869
 10
344514.6964661424
 20
422282.2343388869
 10
344460.4703214285
 20
422363.5976564664
 10
344338.4494455678
 20
422444.9127730286
 10
344216.4767707247
 20
422472.0017448769
 10
344189.3395978589
 20
422499.1389177424
 10
344040.2297501501
 20
422526.2278895907
 10
343945.346047155
 20
422485.5703313097
 10
343891.1199024413
 20
422485.5703313097
 10
343986.0036054361
 20
422539.7964760236
 10
344067.3669230157
 20
422566.9336488893
 10
344135.113453145
 20
422594.0226207375
 10
344270.7029154385
 20
422580.4540343046
 10
344365.5866184336
 20
422661.8173518843
 10
344446.9017349956
 20
422851.5847578742
 10
344446.9017349956
 20
422919.379489021
 10
344474.0389078613
 20
423014.263192016
 10
344446.9017349956
 20
423122.7154814439
 10
344419.8127631476
 20
423176.9416261577
 10
344419.8127631476
 20
423244.6881562871
 10
344514.6964661424
 20
423285.3939155854
 10
344663.8063138513
 20
423204.0305980059
 10
344731.6010449981
 20
423244.6881562871
 10
344785.827189712
 20
423312.4828874337
 10
344853.5737198413
 20
423461.5927351426
 10
344880.710892707
 20
423570.0450245705
 10
344894.2312781223
 20
423610.7025828514
 10
344975.5945957019
 20
423624.2711692844
 10
345070.4782986969
 20
423773.3810169933
 10
345151.793415259
 20
423814.0385752743
 10
345246.677118254
 20
423922.490864702
 10
345314.4718494008
 20
424085.1692988439
  0
LWPOLYLINE
  5
4AA
330
1E
100
AcDbEntity
  8
LAYER_1
  6
Continuous
 62
     7
100
AcDbPolyline
 90
       19
 70
     1
 43
48.20101752347991
 10
341265.8153322617
 20
420828.756755975
 10
341387.8362081224
 20
420828.756755975
 10
341482.7199111173
 20
420774.5306112611
 10
341577.6036141124
 20
420720.3044665472
 10
341658.9187306744
 20
420652.5097354005
 10
341740.282048254
 20
420679.6469082664
 10
341767.3710201022
 20
420706.7358801143
 10
341821.5971648162
 20
420788.0991976939
 10
341862.2547230973
 20
420855.8457278233
 10
341875.8233095302
 20
420910.0718725372
 10
341821.5971648162
 20
420910.0718725372
 10
341740.282048254
 20
420950.7776318358
 10
341699.624489973
 20
420991.4351901169
 10
341658.9187306744
 20
420991.4351901169
 10
341618.2611723933
 20
420977.8666036839
 10
341550.4664412467
 20
420937.2090454031
 10
341469.1513246845
 20
420923.6404589701
 10
341428.4937664034
 20
420910.0718725372
 10
341306.4728905427
 20
420882.982900689
  0
LWPOLYLINE
  5
4BF
330
1E
100
AcDbEntity
  8
LAYER_1
  6
Continuous
 62
     7
100
AcDbPolyline
 90
      123
 70
     0
 43
48.20101752347991
 10
339547.3285550059
 20
427152.296445898
 10
339438.876265578
 20
427030.2755700373
 10
339303.335004302
 20
426867.6453369129
 10
339330.4239761501
 20
426759.1930474853
 10
339384.650120864
 20
426745.6244610523
 10
339493.102410292
 20
426515.1512957639
 10
339615.1232861527
 20
426406.7472073535
 10
339696.4384027147
 20
426420.2675927688
 10
339696.4384027147
 20
426352.5210626396
 10
339615.1232861527
 20
426338.9524762067
 10
339533.759968573
 20
426352.5210626396
 10
339466.0134384437
 20
426433.8361792017
 10
339411.7872937298
 20
426515.1512957639
 10
339357.561149016
 20
426555.8570550624
 10
339357.561149016
 20
426582.9460269106
 10
339235.5402731553
 20
426569.3774404779
 10
339221.9716867224
 20
426542.2884686296
 10
339208.451301307
 20
426501.6309103485
 10
339249.108859588
 20
426474.4937374827
 10
339343.992562583
 20
426352.5210626396
 10
339411.7872937298
 20
426189.8426284978
 10
339316.9035907348
 20
426216.931600346
 10
339072.8618390134
 20
426379.6100344878
 10
339032.2042807324
 20
426433.8361792017
 10
338937.3205777374
 20
426433.8361792017
 10
338679.7584406007
 20
426311.815303341
 10
338517.080006459
 20
426379.6100344878
 10
338449.3334763297
 20
426379.6100344878
 10
338367.97015875
 20
426352.5210626396
 10
338245.9492828895
 20
426257.6373596447
 10
337974.8667603374
 20
426203.4112149307
 10
337907.0720291906
 20
426135.616483784
 10
337893.5034427577
 20
426094.9589255029
 10
337717.3046232006
 20
426000.075222508
 10
337717.3046232006
 20
425891.62293308
 10
337690.1674503349
 20
425769.6020572193
 10
337595.2837473399
 20
425715.3759125055
 10
337391.9477549172
 20
425661.1497677916
 10
337310.632638355
 20
425606.9236230778
 10
337188.6117624943
 20
425362.9300723738
 10
337337.7216102033
 20
425390.0672452394
 10
337364.858783069
 20
425417.1562170877
 10
337432.6053131982
 20
425403.5876306549
 10
337500.4000443449
 20
425362.9300723738
 10
337554.6261890589
 20
425390.0672452394
 10
337554.6261890589
 20
425444.2451889359
 10
337676.6470649196
 20
425539.1770929485
 10
337744.3935950488
 20
425579.8346512295
 10
337879.9830573424
 20
425593.4032376623
 10
337947.7295874716
 20
425620.4922095104
 10
338029.0929050512
 20
425620.4922095104
 10
337988.4353467703
 20
425512.0399200827
 10
338001.9557321855
 20
425457.8137753688
 10
337974.8667603374
 20
425390.0672452394
 10
338083.3190497652
 20
425200.2516382321
 10
338056.1818768994
 20
425118.9365216698
 10
338015.5243186184
 20
425037.5732040903
 10
338001.9557321855
 20
424902.0319428143
 10
338042.6132904666
 20
424874.942970966
 10
338056.1818768994
 20
424834.2372116675
 10
338096.8394351805
 20
424807.1482398192
 10
338069.7504633323
 20
424712.2645368244
 10
338096.8394351805
 20
424671.5949282889
 10
338001.9557321855
 20
424373.339082108
 10
337907.0720291906
 20
424197.1282122964
 10
337812.1883261956
 20
424102.2445093014
 10
337676.6470649196
 20
424088.6759228686
 10
337622.4209202057
 20
424075.107336436
 10
337419.0849277829
 20
423858.2509585977
 10
337378.3791684843
 20
423831.113785732
 10
337283.4954654893
 20
423831.113785732
 10
337147.9542042133
 20
423817.545199299
 10
337093.7280594993
 20
423790.456227451
 10
336985.2757700715
 20
423627.7777933092
 10
336849.7345087956
 20
423559.9830621624
 10
336822.5973359297
 20
423573.5516485953
 10
336754.8508058006
 20
423614.2092068763
 10
336646.3985163728
 20
423492.2365320332
 10
336551.5148133777
 20
423451.5307727346
 10
336497.2886686638
 20
423397.3528290382
 10
336402.404965669
 20
423356.6470697396
 10
336361.6992063704
 20
423288.9005396105
 10
336415.9253510842
 20
423261.7633667447
 10
336565.035198793
 20
423261.7633667447
 10
336659.9671028056
 20
423221.1058084636
 10
336646.3985163728
 20
423071.9959607546
 10
336592.1723716589
 20
423031.3384024737
 10
336510.8090540792
 20
422990.6808441927
 10
336524.377640512
 20
422909.317526613
 10
336551.5148133777
 20
422868.6599683318
 10
336646.3985163728
 20
422922.8861130458
 10
336700.6246610866
 20
422922.8861130458
 10
336754.8508058006
 20
422868.6599683318
 10
336700.6246610866
 20
422868.6599683318
 10
336659.9671028056
 20
422841.5227954662
 10
336727.7136329347
 20
422760.207678904
 10
336795.5083640816
 20
422692.4129477573
 10
336836.1659223626
 20
422651.7553894763
 10
336985.2757700715
 20
422719.5501206231
 10
337093.7280594993
 20
422746.6390924711
 10
337188.6117624943
 20
422814.4338236178
 10
337215.74893536
 20
422949.975084894
 10
337500.4000443449
 20
423004.2012296079
 10
337635.941305621
 20
423004.2012296079
 10
337744.3935950488
 20
422800.865237185
 10
337703.7360367679
 20
422611.0978311952
 10
337866.4144709095
 20
422502.6455417672
 10
338164.6341663273
 20
422665.323975909
 10
338232.4288974742
 20
422651.7553894763
 10
338313.7440140361
 20
422638.1868030435
 10
338422.196303464
 20
422516.2141282003
 10
338489.9910346109
 20
422489.0769553345
 10
338639.1008823196
 20
422285.7409629117
 10
338842.4368747424
 20
422231.5148181978
 10
338991.5467224513
 20
422190.8572599168
 10
339059.3414535981
 20
422217.9944327826
 10
339167.7455420084
 20
422231.5148181978
 10
339235.5402731553
 20
422380.6246659068
 10
339357.561149016
 20
422461.9879834864
 10
339601.5546997197
 20
422475.5565699193
 10
339723.5755755804
 20
422556.8716864811
 10
339818.4592785754
 20
422638.1868030435
 10
339913.3429815703
 20
422733.118707056
  0
LWPOLYLINE
  5
53C
330
1E
100
AcDbEntity
  8
LAYER_1
  6
Continuous
 62
     7
100
AcDbPolyline
 90
       60
 70
     0
 43
48.20101752347991
 10
342535.7916414615
 20
428501.9249365554
 10
342508.7026696133
 20
428610.3772259831
 10
342413.7707656009
 20
428718.8295154111
 10
342413.7707656009
 20
428800.1446319731
 10
342291.7980907577
 20
428881.5079495527
 10
342224.0033596109
 20
428881.5079495527
 10
342156.2086284641
 20
428922.1655078338
 10
341966.4412224742
 20
429044.138182677
 10
341749.5366436186
 20
429125.5015002565
 10
341600.4267959096
 20
429274.6113479656
 10
341573.3378240616
 20
429396.5840228087
 10
341532.6802657804
 20
429450.8101675226
 10
341451.3169482008
 20
429654.1461599454
 10
341451.3169482008
 20
429721.9408910922
 10
341424.2279763526
 20
429789.735622239
 10
341397.0908034869
 20
429925.276883515
 10
341261.5495422109
 20
430237.0651653656
 10
341247.980955778
 20
430291.2913100795
 10
341220.8919839297
 20
430318.3802819279
 10
341247.980955778
 20
430386.1750130745
 10
341166.6658392158
 20
430630.1685637785
 10
341193.7548110641
 20
430697.9632949253
 10
341112.439694502
 20
430792.8469979201
 10
341071.7821362211
 20
430833.5045562012
 10
341139.5286663502
 20
430941.9568456291
 10
341126.0082809349
 20
430996.1829903429
 10
341139.5286663502
 20
431063.9777214896
 10
341017.5559915071
 20
431226.6561556314
 10
340990.4188186413
 20
431253.7451274796
 10
340976.8984332259
 20
431267.3137139125
 10
340936.1926739274
 20
431280.8823003453
 10
340922.672288512
 20
431267.3137139125
 10
340909.1037020791
 20
431294.4026857606
 10
340841.3089709323
 20
431348.6288304747
 10
340732.8566815047
 20
431429.9921480542
 10
340665.1101513753
 20
431497.7386781834
 10
340624.4043920767
 20
431592.6223811785
 10
340543.0892755147
 20
431741.780429905
 10
340529.5206890817
 20
431809.526960034
 10
340407.5480142386
 20
431850.1845183152
 10
340217.7324072312
 20
431890.8902776136
 10
340041.533587674
 20
431985.7739806088
 10
339892.4237399652
 20
432012.8629524568
 10
339729.7453058234
 20
431985.7739806088
 10
339499.2721405349
 20
431904.4106630291
 10
339282.4157626967
 20
431863.7531047481
 10
339065.5111838411
 20
431877.3216911809
 10
338848.6066049854
 20
431917.979249462
 10
339119.7373285551
 20
431958.636807743
 10
339160.3948868362
 20
431972.205394176
 10
339323.0733209778
 20
432067.0890971707
 10
339458.6145822538
 20
432161.9728001659
 10
339621.2930163957
 20
432324.6512343074
 10
339661.9505746766
 20
432365.3087925886
 10
339824.6290088184
 20
432460.1924955834
 10
339946.6498846791
 20
432527.9872267303
 10
339892.4237399652
 20
432609.35054431
 10
339634.8616028284
 20
432744.891805586
 10
339689.0877475424
 20
432812.6865367329
 10
339689.0877475424
 20
432894.0016532949
  0
LWPOLYLINE
  5
57A
330
1E
100
AcDbEntity
  8
LAYER_1
  6
Continuous
 62
     7
100
AcDbPolyline
 90
        3
 70
     0
 43
144.6030525704397
 10
329581.7681820263
 20
417945.9020989133
 10
346391.6440885066
 20
417945.9020989133
 10
346391.6440885066
 20
439518.2313407835
  0
LWPOLYLINE
  5
57F
330
1E
100
AcDbEntity
  8
LAYER_1
  6
Continuous
100
AcDbPolyline
 90
        2
 70
     0
 43
48.20101752347991
 10
336233.5086002666
 20
428212.7188314145
 10
336390.1619072179
 20
428212.7188314145
  0
LWPOLYLINE
  5
583
330
1E
100
AcDbEntity
  8
LAYER_1
  6
Continuous
100
AcDbPolyline
 90
        4
 70
     0
 43
48.20101752347991
 10
336390.1619072179
 20
428212.7188314145
 10
336267.8759257608
 20
428170.7598456605
 10
336335.7188579251
 20
428150.2382624498
 10
336486.5639422649
 20
428164.517813891
  0
LWPOLYLINE
  5
589
330
1E
100
AcDbEntity
  8
LAYER_1
  6
Continuous
100
AcDbPolyline
 90
        4
 70
     0
 43
48.20101752347991
 10
336486.5639422649
 20
428164.517813891
 10
336225.928990261
 20
428112.2920114043
 10
336088.459688284
 20
428060.078259172
 10
336317.8603809327
 20
428128.3670507484
  0
LWPOLYLINE
  5
58F
330
1E
100
AcDbEntity
  8
LAYER_1
  6
Continuous
100
AcDbPolyline
 90
        4
 70
     0
 43
48.20101752347991
 10
336317.8603809327
 20
428128.3670507484
 10
336180.8489886222
 20
428147.5510557227
 10
336225.928990261
 20
428177.4597870961
 10
336378.111652837
 20
428212.7188314145
  0
LWPOLYLINE
  5
595
330
1E
100
AcDbEntity
  8
LAYER_1
  6
Continuous
100
AcDbPolyline
 90
        2
 70
     0
 43
48.20101752347991
 10
336378.111652837
 20
428212.7188314145
 10
336209.4080915048
 20
428212.7188314145
  0
LWPOLYLINE
  5
599
330
1E
100
AcDbEntity
  8
LAYER_1
  6
Continuous
100
AcDbPolyline
 90
        4
 70
     0
 43
48.20101752347991
 10
336209.4080915048
 20
428212.7188314145
 10
336248.6798705321
 20
428222.539788735
 10
336290.6388562863
 20
428243.0613719454
 10
336329.9106353136
 20
428260.919848938
  0
LWPOLYLINE
  5
59F
330
1E
100
AcDbEntity
  8
LAYER_1
  6
Continuous
100
AcDbPolyline
 90
        2
 70
     0
 43
48.20101752347991
 10
336329.9106353136
 20
428260.919848938
 10
336197.357837124
 20
428260.919848938
  0
LWPOLYLINE
  5
5A3
330
1E
100
AcDbEntity
  8
LAYER_1
  6
Continuous
100
AcDbPolyline
 90
        4
 70
     0
 43
48.20101752347991
 10
336197.357837124
 20
428260.919848938
 10
336283.4930554384
 20
428273.4159627309
 10
336348.2149717182
 20
428296.6247526686
 10
336426.3126703605
 20
428309.1208664615
  0
LWPOLYLINE
  5
5A9
330
1E
100
AcDbEntity
  8
LAYER_1
  6
Continuous
100
AcDbPolyline
 90
        4
 70
     0
 43
48.20101752347991
 10
336426.3126703605
 20
428309.1208664615
 10
336328.5730570773
 20
428322.9545584907
 10
336270.9969416456
 20
428323.4004179027
 10
336317.8603809327
 20
428321.1711208422
  0
LWPOLYLINE
  5
5AF
330
1E
100
AcDbEntity
  8
LAYER_1
  6
Continuous
100
AcDbPolyline
 90
        4
 70
     0
 43
48.20101752347991
 10
336317.8603809327
 20
428321.1711208422
 10
336332.585791786
 20
428327.4131526115
 10
336347.3232528939
 20
428339.0175475804
 10
336354.0111440754
 20
428345.271629604
  0
LWPOLYLINE
  5
5B5
330
1E
100
AcDbEntity
  8
LAYER_1
  6
Continuous
100
AcDbPolyline
 90
        2
 70
     0
 43
48.20101752347991
 10
336354.0111440754
 20
428345.271629604
 10
336329.9106353136
 20
428345.271629604
  0
TEXT
  5
612
330
1E
100
AcDbEntity
  8
LAYER_1
 62
    37
100
AcDbText
 10
363331.6401888228
 20
416799.7152658756
 30
0.0
 40
1205.025438086997
  1
BRADFORD
  7
SN1
100
AcDbText
  0
TEXT
  5
613
330
1E
100
AcDbEntity
  8
LAYER_1
 62
    37
100
AcDbText
 10
385730.5392201169
 20
417746.4094863337
 30
0.0
 40
1205.025438086997
  1
LEEDS
  7
SN1
100
AcDbText
  0
TEXT
  5
614
330
1E
100
AcDbEntity
  8
LAYER_1
 62
    37
100
AcDbText
 10
387362.4502792237
 20
400635.0894261177
 30
0.0
 40
1205.025438086997
  1
WAKEFIELD
  7
SN1
100
AcDbText
  0
TEXT
  5
615
330
1E
100
AcDbEntity
  8
LAYER_1
 62
    37
100
AcDbText
 10
365228.8950605939
 20
396964.2899000623
 30
0.0
 40
1205.025438086997
  1
HUDDERSFIELD
  7
SN1
100
AcDbText
  0
TEXT
  5
616
330
1E
100
AcDbEntity
  8
LAYER_1
 62
    37
100
AcDbText
 10
357166.2758424839
 20
407267.7275760331
 30
0.0
 40
1205.025438086997
  1
HALIFAX
  7
SN1
100
AcDbText
  0
LWPOLYLINE
  5
617
330
1E
100
AcDbEntity
  8
LAYER_1
  6
Continuous
100
AcDbPolyline
 90
        3
 70
     0
 43
48.20101752347991
 10
366254.7290982314
 20
410993.7608892122
 10
366616.2367296573
 20
410969.6603804506
 10
366339.0808788973
 20
410825.0573278803
  0
LWPOLYLINE
  5
61C
330
1E
100
AcDbEntity
  8
LAYER_1
  6
Continuous
100
AcDbPolyline
 90
        4
 70
     0
 43
48.20101752347991
 10
366339.0808788973
 20
410825.0573278803
 10
366459.5834227061
 20
410838.8910199093
 10
366580.0859665147
 20
410871.4628575009
 10
366700.5885103235
 20
410909.4091085462
  0
LWPOLYLINE
  5
622
330
1E
100
AcDbEntity
  8
LAYER_1
  6
Continuous
100
AcDbPolyline
 90
        4
 70
     0
 43
48.20101752347991
 10
366700.5885103235
 20
410909.4091085462
 10
366278.829606993
 20
410849.1578366419
 10
366531.8849489914
 20
410897.3588541654
 10
366254.7290982314
 20
410909.4091085462
  0
LWPOLYLINE
  5
628
330
1E
100
AcDbEntity
  8
LAYER_1
  6
Continuous
100
AcDbPolyline
 90
        4
 70
     0
 43
48.20101752347991
 10
366254.7290982314
 20
410909.4091085462
 10
366350.239414454
 20
410916.9887185518
 10
366440.3873674773
 20
410937.968211429
 10
366519.8346946104
 20
410969.6603804506
  0
LWPOLYLINE
  5
62E
330
1E
100
AcDbEntity
  8
LAYER_1
  6
Continuous
100
AcDbPolyline
 90
        4
 70
     0
 43
48.20101752347991
 10
366519.8346946104
 20
410969.6603804506
 10
366443.06252395
 20
410974.5648339837
 10
366347.5642579815
 20
410968.756611372
 10
366254.7290982314
 20
410957.6101260698
  0
LWPOLYLINE
  5
634
330
1E
100
AcDbEntity
  8
LAYER_1
  6
Continuous
100
AcDbPolyline
 90
        2
 70
     0
 43
48.20101752347991
 10
366254.7290982314
 20
410957.6101260698
 10
366568.035712134
 20
410993.7608892122
  0
LWPOLYLINE
  5
638
330
1E
100
AcDbEntity
  8
LAYER_1
  6
Continuous
100
AcDbPolyline
 90
        4
 70
     0
 43
48.20101752347991
 10
366568.035712134
 20
410993.7608892122
 10
366418.5161557761
 20
410984.385791304
 10
366279.7213258172
 20
410950.910184634
 10
366146.2768088035
 20
410885.3085997846
  0
LWPOLYLINE
  5
63E
330
1E
100
AcDbEntity
  8
LAYER_1
  6
Continuous
100
AcDbPolyline
 90
        4
 70
     0
 43
48.20101752347991
 10
366146.2768088035
 20
410885.3085997846
 10
366343.5394730182
 20
410849.603696054
 10
366350.6852738662
 20
410856.7374466475
 10
366122.1763000418
 20
410788.9065647376
  0
LWPOLYLINE
  5
644
330
1E
100
AcDbEntity
  8
LAYER_1
  6
Continuous
100
AcDbPolyline
 90
        2
 70
     0
 43
48.20101752347991
 10
366122.1763000418
 20
410788.9065647376
 10
366483.6839314678
 20
410849.1578366419
  0
LWPOLYLINE
  5
648
330
1E
100
AcDbEntity
  8
LAYER_1
  6
Continuous
100
AcDbPolyline
 90
        4
 70
     0
 43
48.20101752347991
 10
366483.6839314678
 20
410849.1578366419
 10
366282.3964822897
 20
410867.00426338
 10
366375.6775014521
 20
410871.4628575009
 10
366616.2367296573
 20
410897.3588541654
  0
LWPOLYLINE
  5
64E
330
1E
100
AcDbEntity
  8
LAYER_1
  6
Continuous
100
AcDbPolyline
 90
        4
 70
     0
 43
48.20101752347991
 10
366616.2367296573
 20
410897.3588541654
 10
366495.7341858487
 20
410901.8174482863
 10
366375.2316420399
 20
410892.8882097901
 10
366254.7290982314
 20
410873.2583454036
  0
LWPOLYLINE
  5
654
330
1E
100
AcDbEntity
  8
LAYER_1
  6
Continuous
100
AcDbPolyline
 90
        2
 70
     0
 43
48.20101752347991
 10
366254.7290982314
 20
410873.2583454036
 10
366700.5885103235
 20
410921.4593629271
  0
LWPOLYLINE
  5
658
330
1E
100
AcDbEntity
  8
LAYER_1
  6
Continuous
100
AcDbPolyline
 90
        4
 70
     0
 43
48.20101752347991
 10
366700.5885103235
 20
410921.4593629271
 10
366545.2727816085
 20
410935.7389143685
 10
366365.8565441316
 20
410915.2052809035
 10
366194.4778263269
 20
410873.2583454036
  0
LWPOLYLINE
  5
65E
330
1E
100
AcDbEntity
  8
LAYER_1
  6
Continuous
100
AcDbPolyline
 90
        4
 70
     0
 43
48.20101752347991
 10
366194.4778263269
 20
410873.2583454036
 10
366331.4892186374
 20
410842.0120357941
 10
366495.2883264366
 20
410864.3291069074
 10
366640.337238419
 20
410897.3588541654
  0
LWPOLYLINE
  5
664
330
1E
100
AcDbEntity
  8
LAYER_1
  6
Continuous
100
AcDbPolyline
 90
        4
 70
     0
 43
48.20101752347991
 10
366640.337238419
 20
410897.3588541654
 10
366459.137563294
 20
410896.9129947532
 10
366275.2627316963
 20
410869.6794198524
 10
366086.0255368991
 20
410813.0070734993
  0
LWPOLYLINE
  5
66A
330
1E
100
AcDbEntity
  8
LAYER_1
  6
Continuous
100
AcDbPolyline
 90
        4
 70
     0
 43
48.20101752347991
 10
366086.0255368991
 20
410813.0070734993
 10
366260.0794111764
 20
410838.8910199093
 10
366426.1078160361
 20
410883.5131118818
 10
366592.1362208957
 20
410933.5096173079
  0
LWPOLYLINE
  5
670
330
1E
100
AcDbEntity
  8
LAYER_1
  6
Continuous
100
AcDbPolyline
 90
        4
 70
     0
 43
48.20101752347991
 10
366592.1362208957
 20
410933.5096173079
 10
366453.7752000946
 20
410928.1472541085
 10
366312.7510730751
 20
410906.7219018193
 10
366182.427571946
 20
410861.2080910228
  0
LWPOLYLINE
  5
676
330
1E
100
AcDbEntity
  8
LAYER_1
  6
Continuous
100
AcDbPolyline
 90
        4
 70
     0
 43
48.20101752347991
 10
366182.427571946
 20
410861.2080910228
 10
366325.247186868
 20
410859.8584625322
 10
366489.480103825
 20
410874.59592364
 10
366640.337238419
 20
410897.3588541654
  0
LWPOLYLINE
  5
67C
330
1E
100
AcDbEntity
  8
LAYER_1
  6
Continuous
100
AcDbPolyline
 90
        4
 70
     0
 43
48.20101752347991
 10
366640.337238419
 20
410897.3588541654
 10
366510.9054561142
 20
410877.7169395246
 10
366384.1608805363
 20
410852.7247119385
 10
366254.7290982314
 20
410800.9568191184
  0
LWPOLYLINE
  5
682
330
1E
100
AcDbEntity
  8
LAYER_1
  6
Continuous
100
AcDbPolyline
 90
        2
 70
     0
 43
48.20101752347991
 10
366254.7290982314
 20
410800.9568191184
 10
366676.4880015617
 20
410909.4091085462
  0
LWPOLYLINE
  5
686
330
1E
100
AcDbEntity
  8
LAYER_1
  6
Continuous
100
AcDbPolyline
 90
        4
 70
     0
 43
48.20101752347991
 10
366676.4880015617
 20
410909.4091085462
 10
366502.42207703
 20
410910.3008273705
 10
366328.3682027529
 20
410892.4423503779
 10
366170.3773175652
 20
410861.2080910228
  0
LWPOLYLINE
  5
68C
330
1E
100
AcDbEntity
  8
LAYER_1
  6
Continuous
100
AcDbPolyline
 90
        2
 70
     0
 43
48.20101752347991
 10
366170.3773175652
 20
410861.2080910228
 10
366736.739273466
 20
410969.6603804506
  0
LWPOLYLINE
  5
690
330
1E
100
AcDbEntity
  8
LAYER_1
  6
Continuous
100
AcDbPolyline
 90
        4
 70
     0
 43
48.20101752347991
 10
366736.739273466
 20
410969.6603804506
 10
366591.6903614835
 20
410973.2272557474
 10
366435.9287733564
 20
410958.0559854818
 10
366290.8798613739
 20
410921.4593629271
  0
LWPOLYLINE
  5
696
330
1E
100
AcDbEntity
  8
LAYER_1
  6
Continuous
100
AcDbPolyline
 90
        4
 70
     0
 43
48.20101752347991
 10
366290.8798613739
 20
410921.4593629271
 10
366385.0525993604
 20
410914.7594214914
 10
366489.925963237
 20
410932.1599888175
 10
366592.1362208957
 20
410957.6101260698
  0
LWPOLYLINE
  5
69C
330
1E
100
AcDbEntity
  8
LAYER_1
  6
Continuous
100
AcDbPolyline
 90
        2
 70
     0
 43
48.20101752347991
 10
366592.1362208957
 20
410957.6101260698
 10
366194.4778263269
 20
410909.4091085462
  0
LWPOLYLINE
  5
6A0
330
1E
100
AcDbEntity
  8
LAYER_1
  6
Continuous
100
AcDbPolyline
 90
        4
 70
     0
 43
48.20101752347991
 10
366194.4778263269
 20
410909.4091085462
 10
366466.2713138875
 20
410921.9052223394
 10
366489.034244413
 20
410945.1140122768
 10
366230.6285894695
 20
410957.6101260698
  0
LWPOLYLINE
  5
6A6
330
1E
100
AcDbEntity
  8
LAYER_1
  6
Continuous
100
AcDbPolyline
 90
        4
 70
     0
 43
48.20101752347991
 10
366230.6285894695
 20
410957.6101260698
 10
366344.4311918425
 20
410939.7516490773
 10
366498.4093423212
 20
410959.3935637181
 10
366628.2869840383
 20
410981.7106348315
  0
LWPOLYLINE
  5
6AC
330
1E
100
AcDbEntity
  8
LAYER_1
  6
Continuous
100
AcDbPolyline
 90
        2
 70
     0
 43
48.20101752347991
 10
366628.2869840383
 20
410981.7106348315
 10
366230.6285894695
 20
410969.6603804506
  0
LWPOLYLINE
  5
6B0
330
1E
100
AcDbEntity
  8
LAYER_1
  6
Continuous
100
AcDbPolyline
 90
        4
 70
     0
 43
48.20101752347991
 10
366230.6285894695
 20
410969.6603804506
 10
366351.1311332782
 20
410970.9979586869
 10
366471.6336770869
 20
410980.3610063408
 10
366592.1362208957
 20
411005.8111435932
  0
LWPOLYLINE
  5
6B6
330
1E
100
AcDbEntity
  8
LAYER_1
  6
Continuous
100
AcDbPolyline
 90
        3
 70
     0
 43
48.20101752347991
 10
366592.1362208957
 20
411005.8111435932
 10
366278.829606993
 20
410993.7608892122
 10
366628.2869840383
 20
411029.911652355
  0
LWPOLYLINE
  5
6BB
330
1E
100
AcDbEntity
  8
LAYER_1
  6
Continuous
100
AcDbPolyline
 90
        4
 70
     0
 43
48.20101752347991
 10
366628.2869840383
 20
411029.911652355
 10
366504.2175649329
 20
411031.2492305912
 10
366374.7857826279
 20
411016.5117694834
 10
366242.6788438504
 20
410993.7608892122
  0
LWPOLYLINE
  5
6C1
330
1E
100
AcDbEntity
  8
LAYER_1
  6
Continuous
100
AcDbPolyline
 90
        4
 70
     0
 43
48.20101752347991
 10
366242.6788438504
 20
410993.7608892122
 10
366387.7277558329
 20
410995.0984674486
 10
366543.4893439601
 20
411004.4615151026
 10
366688.5382559426
 20
411029.911652355
  0
LWPOLYLINE
  5
6C7
330
1E
100
AcDbEntity
  8
LAYER_1
  6
Continuous
100
AcDbPolyline
 90
        4
 70
     0
 43
48.20101752347991
 10
366688.5382559426
 20
411029.911652355
 10
366565.3605556614
 20
411011.6073159503
 10
366402.0073072744
 20
410995.9901862729
 10
366254.7290982314
 20
410969.6603804506
  0
LWPOLYLINE
  5
6CD
330
1E
100
AcDbEntity
  8
LAYER_1
  6
Continuous
100
AcDbPolyline
 90
        4
 70
     0
 43
48.20101752347991
 10
366254.7290982314
 20
410969.6603804506
 10
366546.1645004326
 20
411005.3652841812
 10
366513.5806125867
 20
411046.4205008567
 10
366242.6788438504
 20
410993.7608892122
  0
LWPOLYLINE
  5
6D3
330
1E
100
AcDbEntity
  8
LAYER_1
  6
Continuous
100
AcDbPolyline
 90
        4
 70
     0
 43
48.20101752347991
 10
366242.6788438504
 20
410993.7608892122
 10
366341.75603537
 20
410997.7736239211
 10
366432.8077574718
 20
411009.8238783019
 10
366531.8849489914
 20
411029.911652355
  0
LWPOLYLINE
  5
6D9
330
1E
100
AcDbEntity
  8
LAYER_1
  6
Continuous
100
AcDbPolyline
 90
        3
 70
     0
 43
48.20101752347991
 10
366531.8849489914
 20
411029.911652355
 10
366134.2265544226
 20
411017.8613979741
 10
366519.8346946104
 20
411066.0624154975
  0
LWPOLYLINE
  5
6DE
330
1E
100
AcDbEntity
  8
LAYER_1
  6
Continuous
100
AcDbPolyline
 90
        4
 70
     0
 43
48.20101752347991
 10
366519.8346946104
 20
411066.0624154975
 10
366408.2613892979
 20
411073.1961660911
 10
366294.0008772586
 20
411066.9541343217
 10
366182.427571946
 20
411041.9619067358
  0
LWPOLYLINE
  5
6E4
330
1E
100
AcDbEntity
  8
LAYER_1
  6
Continuous
100
AcDbPolyline
 90
        4
 70
     0
 43
48.20101752347991
 10
366182.427571946
 20
411041.9619067358
 10
366313.1969324872
 20
411044.1912037963
 10
366465.3795950633
 20
411067.8458531459
 10
366604.1864752765
 20
411102.2131786401
  0
LWPOLYLINE
  5
6EA
330
1E
100
AcDbEntity
  8
LAYER_1
  6
Continuous
100
AcDbPolyline
 90
        2
 70
     0
 43
48.20101752347991
 10
366604.1864752765
 20
411102.2131786401
 10
366266.7793526122
 20
411090.1629242593
  0
LWPOLYLINE
  5
6EE
330
1E
100
AcDbEntity
  8
LAYER_1
  6
Continuous
100
AcDbPolyline
 90
        4
 70
     0
 43
48.20101752347991
 10
366266.7793526122
 20
411090.1629242593
 10
366383.7150211241
 20
411094.1756589681
 10
366495.2883264366
 20
411106.2259133489
 10
366604.1864752765
 20
411126.3136874018
  0
LWPOLYLINE
  5
6F4
330
1E
100
AcDbEntity
  8
LAYER_1
  6
Continuous
100
AcDbPolyline
 90
        4
 70
     0
 43
48.20101752347991
 10
366604.1864752765
 20
411126.3136874018
 10
366475.2005523836
 20
411124.9640589114
 10
366351.5769926904
 20
411115.6010112572
 10
366230.6285894695
 20
411090.1629242593
  0
LWPOLYLINE
  5
6FA
330
1E
100
AcDbEntity
  8
LAYER_1
  6
Continuous
100
AcDbPolyline
 90
        2
 70
     0
 43
48.20101752347991
 10
366230.6285894695
 20
411090.1629242593
 10
366628.2869840383
 20
411126.3136874018
  0
LWPOLYLINE
  5
6FE
330
1E
100
AcDbEntity
  8
LAYER_1
  6
Continuous
100
AcDbPolyline
 90
        4
 70
     0
 43
48.20101752347991
 10
366628.2869840383
 20
411126.3136874018
 10
366505.5551431691
 20
411121.3971836146
 10
366385.4984587725
 20
411103.1048974644
 10
366278.829606993
 20
411066.0624154975
  0
LWPOLYLINE
  5
704
330
1E
100
AcDbEntity
  8
LAYER_1
  6
Continuous
100
AcDbPolyline
 90
        2
 70
     0
 43
48.20101752347991
 10
366278.829606993
 20
411066.0624154975
 10
366507.7844402296
 20
411078.1126698785
  0
LWPOLYLINE
  5
708
330
1E
100
AcDbEntity
  8
LAYER_1
  6
Continuous
100
AcDbPolyline
 90
        4
 70
     0
 43
48.20101752347991
 10
366507.7844402296
 20
411078.1126698785
 10
366322.5599801412
 20
411079.4502481147
 10
366423.8785189755
 20
411088.8132957687
 10
366640.337238419
 20
411114.2634330211
  0
LWPOLYLINE
  5
70E
330
1E
100
AcDbEntity
  8
LAYER_1
  6
Continuous
100
AcDbPolyline
 90
        4
 70
     0
 43
48.20101752347991
 10
366640.337238419
 20
411114.2634330211
 10
366525.6308669676
 20
411107.1176321732
 10
366389.5111934813
 20
411073.1961660911
 10
366290.8798613739
 20
410993.7608892122
  0
LWPOLYLINE
  5
714
330
1E
100
AcDbEntity
  8
LAYER_1
  6
Continuous
100
AcDbPolyline
 90
        4
 70
     0
 43
48.20101752347991
 10
366290.8798613739
 20
410993.7608892122
 10
366416.7327181277
 20
411013.3907535987
 10
366534.5601054639
 20
411054.4580205288
 10
366652.3874928
 20
411090.1629242593
  0
LWPOLYLINE
  5
71A
330
1E
100
AcDbEntity
  8
LAYER_1
  6
Continuous
100
AcDbPolyline
 90
        4
 70
     0
 43
48.20101752347991
 10
366652.3874928
 20
411090.1629242593
 10
366591.2445020715
 20
411076.3171819757
 10
366516.7136787258
 20
411075.8713225636
 10
366447.5331683253
 20
411078.1126698785
  0
LWPOLYLINE
  5
720
330
1E
100
AcDbEntity
  8
LAYER_1
  6
Continuous
100
AcDbPolyline
 90
        4
 70
     0
 43
48.20101752347991
 10
366447.5331683253
 20
411078.1126698785
 10
366462.2585791786
 20
411084.3547016478
 10
366476.9839900321
 20
411095.9590966166
 10
366483.6839314678
 20
411102.2131786401
  0
LWPOLYLINE
  5
726
330
1E
100
AcDbEntity
  8
LAYER_1
  6
Continuous
100
AcDbPolyline
 90
        4
 70
     0
 43
48.20101752347991
 10
366483.6839314678
 20
411102.2131786401
 10
366453.7752000946
 20
411095.9590966166
 10
366421.203362503
 20
411084.3547016478
 10
366399.3321508018
 20
411078.1126698785
  0
LWPOLYLINE
  5
72C
330
1E
100
AcDbEntity
  8
LAYER_1
  6
Continuous
100
AcDbPolyline
 90
        4
 70
     0
 43
48.20101752347991
 10
366399.3321508018
 20
411078.1126698785
 10
366424.7702377997
 20
411119.6137459661
 10
366466.2713138875
 20
411161.1148220538
 10
366507.7844402296
 20
411186.5649593061
  0
LWPOLYLINE
  5
732
330
1E
100
AcDbEntity
  8
LAYER_1
  6
Continuous
100
AcDbPolyline
 90
        4
 70
     0
 43
48.20101752347991
 10
366507.7844402296
 20
411186.5649593061
 10
366489.480103825
 20
411174.0688455133
 10
366465.8254544753
 20
411150.8600555757
 10
366447.5331683253
 20
411138.3639417828
  0
LWPOLYLINE
  5
738
330
1E
100
AcDbEntity
  8
LAYER_1
  6
Continuous
100
AcDbPolyline
 90
        4
 70
     0
 43
48.20101752347991
 10
366447.5331683253
 20
411138.3639417828
 10
366471.6336770869
 20
411148.1728488487
 10
366495.7341858487
 20
411168.7064823138
 10
366519.8346946104
 20
411186.5649593061
  0
LWPOLYLINE
  5
73E
330
1E
100
AcDbEntity
  8
LAYER_1
  6
Continuous
100
AcDbPolyline
 90
        4
 70
     0
 43
48.20101752347991
 10
366519.8346946104
 20
411186.5649593061
 10
366505.1092837571
 20
411168.2606229017
 10
366490.3718226492
 20
411144.6059735521
 10
366483.6839314678
 20
411126.3136874018
  0
LWPOLYLINE
  5
744
330
1E
100
AcDbEntity
  8
LAYER_1
  6
Continuous
100
AcDbPolyline
 90
        4
 70
     0
 43
48.20101752347991
 10
366483.6839314678
 20
411126.3136874018
 10
366502.42207703
 20
411138.8098011949
 10
366529.2097925187
 20
411153.9810714604
 10
366555.985457753
 20
411174.5147049254
  0
LWPOLYLINE
  5
74A
330
1E
100
AcDbEntity
  8
LAYER_1
  6
Continuous
100
AcDbPolyline
 90
        4
 70
     0
 43
48.20101752347991
 10
366555.985457753
 20
411174.5147049254
 10
366462.2585791786
 20
411020.5365544468
 10
366336.4057224248
 20
410882.6213930576
 10
366194.4778263269
 20
410776.8563103567
  0
LWPOLYLINE
  5
750
330
1E
100
AcDbEntity
  8
LAYER_1
  6
Continuous
100
AcDbPolyline
 90
        4
 70
     0
 43
48.20101752347991
 10
366194.4778263269
 20
410776.8563103567
 10
366251.1622229346
 20
410787.5569362469
 10
366302.4842563426
 20
410814.3446517356
 10
366351.1311332782
 20
410849.1578366419
  0
LWPOLYLINE
  5
756
330
1E
100
AcDbEntity
  8
LAYER_1
  6
Continuous
100
AcDbPolyline
 90
        4
 70
     0
 43
48.20101752347991
 10
366351.1311332782
 20
410849.1578366419
 10
366292.6632990223
 20
410872.354576325
 10
366212.7701124771
 20
410890.2130533175
 10
366146.2768088035
 20
410897.3588541654
  0
LWPOLYLINE
  5
75C
330
1E
100
AcDbEntity
  8
LAYER_1
  6
Continuous
100
AcDbPolyline
 90
        4
 70
     0
 43
48.20101752347991
 10
366146.2768088035
 20
410897.3588541654
 10
366213.2159718892
 20
410941.0892273134
 10
366304.267693991
 20
410958.0559854818
 10
366363.1813876591
 20
410993.7608892122
  0
LWPOLYLINE
  5
762
330
1E
100
AcDbEntity
  8
LAYER_1
  6
Continuous
100
AcDbPolyline
 90
        4
 70
     0
 43
48.20101752347991
 10
366363.1813876591
 20
410993.7608892122
 10
366329.705780989
 20
411000.4487803936
 10
366288.2047049013
 20
411015.1741912472
 10
366254.7290982314
 20
411029.911652355
  0
LWPOLYLINE
  5
768
330
1E
100
AcDbEntity
  8
LAYER_1
  6
Continuous
100
AcDbPolyline
 90
        2
 70
     0
 43
48.20101752347991
 10
366254.7290982314
 20
411029.911652355
 10
366363.1813876591
 20
411041.9619067358
  0
LWPOLYLINE
  5
76C
330
1E
100
AcDbEntity
  8
LAYER_1
  6
Continuous
100
AcDbPolyline
 90
        4
 70
     0
 43
48.20101752347991
 10
366363.1813876591
 20
411041.9619067358
 10
366335.0681441885
 20
411065.1586464189
 10
366290.8798613739
 20
411083.0171234115
 10
366254.7290982314
 20
411090.1629242593
  0
LWPOLYLINE
  5
772
330
1E
100
AcDbEntity
  8
LAYER_1
  6
Continuous
100
AcDbPolyline
 90
        4
 70
     0
 43
48.20101752347991
 10
366254.7290982314
 20
411090.1629242593
 10
366269.4545090847
 20
411089.7170648471
 10
366284.1799199382
 20
411086.5839987082
 10
366290.8798613739
 20
411078.1126698785
  0
LWPOLYLINE
  5
778
330
1E
100
AcDbEntity
  8
LAYER_1
  6
Continuous
100
AcDbPolyline
 90
        4
 70
     0
 43
48.20101752347991
 10
366290.8798613739
 20
411078.1126698785
 10
366279.2754664052
 20
411090.1629242593
 10
366270.3462279089
 20
411102.2131786401
 10
366266.7793526122
 20
411114.2634330211
  0
LWPOLYLINE
  5
77E
330
1E
100
AcDbEntity
  8
LAYER_1
  6
Continuous
100
AcDbPolyline
 90
        4
 70
     0
 43
48.20101752347991
 10
366266.7793526122
 20
411114.2634330211
 10
366323.0178898078
 20
411070.9668690306
 10
366403.3448855106
 20
411041.0581376572
 10
366483.6839314678
 20
411029.911652355
  0
LWPOLYLINE
  5
784
330
1E
100
AcDbEntity
  8
LAYER_1
  6
Continuous
 62
     7
100
AcDbPolyline
 90
      478
 70
     0
 43
96.40203504695982
 10
368811.985881922
 20
386197.6511933367
 10
368648.3193269211
 20
386361.3297985921
 10
368124.4586182216
 20
386361.3297985921
 10
367797.0652569476
 20
386705.0874053152
 10
367617.022406243
 20
386705.0874053152
 10
367453.2955999701
 20
386541.4208503141
 10
366945.8593879917
 20
386541.4208503141
 10
366765.7683362696
 20
386705.0874053152
 10
366602.1017812686
 20
386705.0874053152
 10
366094.6535190358
 20
387212.5838685654
 10
366094.6535190358
 20
387392.62671927
 10
365407.1262553353
 20
388063.7776872669
 10
365407.1262553353
 20
388227.50449354
 10
365079.7328940615
 20
388571.2741505173
 10
364735.9632370839
 20
388571.2741505173
 10
364555.8842356162
 20
388407.5473442443
 10
364392.2056303608
 20
388407.5473442443
 10
363704.6783666603
 20
387720.020080544
 10
363540.9515603875
 20
387720.020080544
 10
363377.2729551321
 20
387900.1111322661
 10
362689.7456914316
 20
387900.1111322661
 10
362526.0791364307
 20
388063.7776872669
 10
362526.0791364307
 20
388227.50449354
 10
362345.9880847086
 20
388407.5473442443
 10
362345.9880847086
 20
388734.9407055182
 10
362182.3094794532
 20
388915.0317572405
 10
362182.3094794532
 20
389078.7103624957
 10
362018.5826731804
 20
389258.8014142178
 10
361838.5518727301
 20
389258.8014142178
 10
361674.8250664573
 20
389422.4679692189
 10
361494.7822157525
 20
389422.4679692189
 10
361331.0554094797
 20
389586.1465744743
 10
361167.3888544787
 20
389586.1465744743
 10
360987.2978027568
 20
389766.2376261964
 10
360987.2978027568
 20
389929.9162314516
 10
360659.9044414828
 20
390273.6738381747
 10
360659.9044414828
 20
390437.4006444476
 10
360479.8615907782
 20
390601.0671994486
 10
360479.8615907782
 20
390781.1582511707
 10
360316.1347845053
 20
390944.8368564261
 10
360316.1347845053
 20
391288.6065134035
 10
359464.9289155494
 20
392139.8485331226
 10
359301.250310294
 20
392139.8485331226
 10
357762.4810268746
 20
393662.2174203297
 10
357762.4810268746
 20
393825.8960255851
 10
357598.802421619
 20
394005.9750270528
 10
357598.802421619
 20
394169.6536323082
 10
357418.711369897
 20
394349.7446840304
 10
357418.711369897
 20
394513.4232892856
 10
357255.0327646416
 20
394677.1380453041
 10
357255.0327646416
 20
394857.1808960087
 10
357418.711369897
 20
395020.9077022816
 10
357418.711369897
 20
395184.5863075369
 10
356911.2751579186
 20
395184.5863075369
 10
356567.5055009411
 20
395528.3439142601
 10
356403.7907449226
 20
395528.3439142601
 10
355896.3424826898
 20
396035.8283272561
 10
355896.3424826898
 20
396379.5979842334
 10
355716.2634812221
 20
396379.5979842334
 10
355552.5848759668
 20
396543.2765894889
 10
355552.5848759668
 20
396723.307389939
 10
355388.9062707114
 20
396887.0341962119
 10
355388.9062707114
 20
397050.7128014672
 10
355045.1486639883
 20
397394.4704081904
 10
355045.1486639883
 20
397574.5614599124
 10
354881.4218577155
 20
397738.2400651677
 10
354881.4218577155
 20
397901.9548211862
 10
354537.652200738
 20
398245.7244781639
 10
354537.652200738
 20
398409.4030834191
 10
354357.6214002877
 20
398589.4941351413
 10
354357.6214002877
 20
398753.1606901422
 10
354193.8945940149
 20
398933.2517418643
 10
354193.8945940149
 20
400111.850972094
 10
354357.6214002877
 20
400275.5295773494
 10
354357.6214002877
 20
400619.2871840724
 10
354537.652200738
 20
400619.2871840724
 10
354537.652200738
 20
400799.3782357945
 10
354357.6214002877
 20
400963.0568410499
 10
354193.8945940149
 20
400963.0568410499
 10
354030.2159887595
 20
401126.7836473228
 10
353850.1249370374
 20
401126.7836473228
 10
353686.4583820364
 20
401306.8264980272
 10
353506.3673303143
 20
401306.8264980272
 10
353342.688725059
 20
401470.5412540457
 10
353342.688725059
 20
401634.2198593013
 10
353178.9619187861
 20
401814.3109110233
 10
353178.9619187861
 20
402321.7471230018
 10
352998.931118336
 20
402485.4739292747
 10
352998.931118336
 20
402992.910141253
 10
352835.204312063
 20
403173.0011929751
 10
352491.4346550856
 20
403173.0011929751
 10
352327.7681000847
 20
402992.910141253
 10
352147.6770483625
 20
402992.910141253
 10
351983.9984431071
 20
402829.2315359977
 10
351820.3198378518
 20
402829.2315359977
 10
351820.3198378518
 20
402665.5167799792
 10
351640.2408363842
 20
402485.4739292747
 10
351640.2408363842
 20
402141.7042722972
 10
351476.5622311287
 20
401977.9774660243
 10
349430.3446854763
 20
401977.9774660243
 10
349266.6178792035
 20
401814.3109110233
 10
349086.5750284989
 20
401814.3109110233
 10
348922.8602724804
 20
401977.9774660243
 10
348922.8602724804
 20
402141.7042722972
 10
348579.090615503
 20
402485.4739292747
 10
348579.090615503
 20
402665.5167799792
 10
348251.7454552466
 20
402992.910141253
 10
348251.7454552466
 20
403173.0011929751
 10
347907.9757982691
 20
403173.0011929751
 10
347727.884746547
 20
402992.910141253
 10
347056.7217282957
 20
402992.910141253
 10
347056.7217282957
 20
403173.0011929751
 10
346876.6788775913
 20
403336.6677479761
 10
346876.6788775913
 20
403844.116010209
 10
346712.9641215726
 20
404024.2070619311
 10
346712.9641215726
 20
404187.8736169321
 10
346876.6788775913
 20
404187.8736169321
 10
347056.7217282957
 20
404351.6004232049
 10
347056.7217282957
 20
404531.6432739094
 10
346712.9641215726
 20
404531.6432739094
 10
346549.2855163172
 20
404695.3580299279
 10
346369.1944645952
 20
404695.3580299279
 10
346205.5279095942
 20
404859.0366351834
 10
346041.8011033213
 20
404859.0366351834
 10
346041.8011033213
 20
405039.1276869055
 10
345861.7582526168
 20
405202.8062921608
 10
345861.7582526168
 20
405710.2907051568
 10
346041.8011033213
 20
405890.3335558613
 10
346041.8011033213
 20
406217.7269171352
 10
345861.7582526168
 20
406397.8179688573
 10
345861.7582526168
 20
406725.1631291137
 10
345698.0314463439
 20
406905.2541808356
 10
345698.0314463439
 20
407068.9327860911
 10
345518.0006458936
 20
407249.0238378132
 10
345518.0006458936
 20
407412.690392814
 10
345190.5952343654
 20
407756.4600497916
 10
345190.5952343654
 20
407920.1868560645
 10
345698.0314463439
 20
408427.6230680429
 10
345861.7582526168
 20
408427.6230680429
 10
346369.1944645952
 20
408935.1074810389
 10
346549.2855163172
 20
408935.1074810389
 10
347400.4913852733
 20
409786.3133499948
 10
347400.4913852733
 20
410130.0709567179
 10
347564.2181915461
 20
410293.7495619733
 10
347564.2181915461
 20
410457.476368246
 10
347727.884746547
 20
410637.5192189507
 10
347727.884746547
 20
410801.2339749691
 10
348071.6544035244
 20
411145.0036319467
 10
348251.7454552466
 20
411145.0036319467
 10
348415.4120102477
 20
411308.6701869476
 10
348415.4120102477
 20
412339.9671076255
 10
348251.7454552466
 20
412503.6939138985
 10
348251.7454552466
 20
414369.8204078289
 10
348415.4120102477
 20
414533.4990130842
 10
348415.4120102477
 20
414713.5780145519
 10
348579.090615503
 20
414877.2566198072
 10
348579.090615503
 20
415221.0262767847
 10
348759.1816672251
 20
415384.7410328032
 10
348759.1816672251
 20
416743.4313147551
 10
348922.8602724804
 20
416907.1099200103
 10
348922.8602724804
 20
417087.152770715
 10
349086.5750284989
 20
417087.152770715
 10
349266.6178792035
 20
417250.8795769878
 10
349430.3446854763
 20
417250.8795769878
 10
349610.3875361809
 20
417430.9103774382
 10
349774.1022921994
 20
417430.9103774382
 10
350117.8719491768
 20
417758.3157889663
 10
350281.5505544322
 20
417758.3157889663
 10
350625.3081611554
 20
418102.0733956894
 10
350789.0349674282
 20
418102.0733956894
 10
350969.0778181329
 20
418265.8002019621
 10
351132.7925741513
 20
418265.8002019621
 10
351296.4711794066
 20
418445.8430526668
 10
351476.5622311287
 20
418445.8430526668
 10
351640.2408363842
 20
418609.5578086852
 10
351820.3198378518
 20
418609.5578086852
 10
351983.9984431071
 20
418773.2364139407
 10
352147.6770483625
 20
418773.2364139407
 10
352327.7681000847
 20
418953.3274656628
 10
352491.4346550856
 20
418953.3274656628
 10
352671.5257068078
 20
419117.0060709182
 10
352998.931118336
 20
419117.0060709182
 10
353178.9619187861
 20
419297.0971226403
 10
353506.3673303143
 20
419297.0971226403
 10
353686.4583820364
 20
419460.7636776412
 10
353850.1249370374
 20
419460.7636776412
 10
354030.2159887595
 20
419624.490483914
 10
354030.2159887595
 20
421326.8901715714
 10
354193.8945940149
 20
421326.8901715714
 10
354357.6214002877
 20
421490.6169778443
 10
354537.652200738
 20
421490.6169778443
 10
354701.3790070109
 20
421670.6598285489
 10
354881.4218577155
 20
421670.6598285489
 10
355045.1486639883
 20
421834.3866348218
 10
355045.1486639883
 20
421998.0531898229
 10
355552.5848759668
 20
422521.9138985224
 10
355552.5848759668
 20
422685.5804535234
 10
355716.2634812221
 20
422849.3072597962
 10
355716.2634812221
 20
423029.3501105008
 10
355896.3424826898
 20
423193.0769167737
 10
355896.3424826898
 20
423356.7434717747
 10
356060.0210879452
 20
423536.8345234968
 10
356060.0210879452
 20
423700.5131287521
 10
356403.7907449226
 20
424044.2707354752
 10
356567.5055009411
 20
424044.2707354752
 10
356747.5483516457
 20
424207.9493407304
 10
356911.2751579186
 20
424207.9493407304
 10
357091.3180086233
 20
424388.0403924527
 10
357255.0327646416
 20
424388.0403924527
 10
357255.0327646416
 20
424207.9493407304
 10
357418.711369897
 20
424044.2707354752
 10
358106.2386335975
 20
424044.2707354752
 10
358777.401651849
 20
424715.4337537264
 10
358777.401651849
 20
425746.7306744046
 10
358613.7230465936
 20
425910.4092796597
 10
358613.7230465936
 20
426254.1668863829
 10
358450.008290575
 20
426417.8936926557
 10
358450.008290575
 20
427089.0085098897
 10
359121.1713088263
 20
427776.53577359
 10
359301.250310294
 20
427776.53577359
 10
359464.9289155494
 20
427940.2505296086
 10
359301.250310294
 20
428120.2933803132
 10
359301.250310294
 20
428447.6987918416
 10
359972.3651275278
 20
428447.6987918416
 10
360136.0919338008
 20
428627.7898435636
 10
360823.6191975012
 20
428627.7898435636
 10
360823.6191975012
 20
428791.4563985647
 10
360659.9044414828
 20
428971.5474502868
 10
360659.9044414828
 20
429298.9408115604
 10
360479.8615907782
 20
429478.983662265
 10
360479.8615907782
 20
429642.710468538
 10
360316.1347845053
 20
429806.3890737933
 10
360136.0919338008
 20
429806.3890737933
 10
359808.6985725269
 20
430150.1466805164
 10
359808.6985725269
 20
430313.8734867893
 10
359628.6075208047
 20
430493.9163374938
 10
359628.6075208047
 20
431345.1222064498
 10
359464.9289155494
 20
431508.8369624683
 10
359464.9289155494
 20
431672.5155677236
 10
359121.1713088263
 20
432016.2731744467
 10
359121.1713088263
 20
432196.3642261688
 10
359628.6075208047
 20
432196.3642261688
 10
359808.6985725269
 20
432360.0428314242
 10
359808.6985725269
 20
432703.8124884015
 10
359628.6075208047
 20
432867.5272444201
 10
359628.6075208047
 20
433211.2969013976
 10
359808.6985725269
 20
433374.9634563985
 10
359972.3651275278
 20
433374.9634563985
 10
360136.0919338008
 20
433538.6902626715
 10
360479.8615907782
 20
433538.6902626715
 10
360823.6191975012
 20
433211.2969013976
 10
361494.7822157525
 20
433211.2969013976
 10
361674.8250664573
 20
433374.9634563985
 10
362018.5826731804
 20
433374.9634563985
 10
362182.3094794532
 20
433538.6902626715
 10
362345.9880847086
 20
433538.6902626715
 10
362689.7456914316
 20
433882.4599196489
 10
363197.1939536644
 20
433882.4599196489
 10
363377.2729551321
 20
433718.733113376
 10
363704.6783666603
 20
433718.733113376
 10
364228.478824088
 20
434226.1693253544
 10
364228.478824088
 20
434389.8961316273
 10
364735.9632370839
 20
434897.3323436058
 10
364899.6418423394
 20
434897.3323436058
 10
365079.7328940615
 20
434733.6537383504
 10
365079.7328940615
 20
434226.1693253544
 10
365243.4114993168
 20
434062.5027703534
 10
365243.4114993168
 20
433374.9634563985
 10
365407.1262553353
 20
433211.2969013976
 10
365407.1262553353
 20
433031.2058496755
 10
365587.1691060399
 20
432867.5272444201
 10
365587.1691060399
 20
432703.8124884015
 10
365750.8959123128
 20
432523.769637697
 10
365750.8959123128
 20
432360.0428314242
 10
365914.5624673137
 20
432196.3642261688
 10
365750.8959123128
 20
432016.2731744467
 10
365750.8959123128
 20
431852.6066194457
 10
365587.1691060399
 20
431672.5155677236
 10
365587.1691060399
 20
431508.8369624683
 10
365407.1262553353
 20
431345.1222064498
 10
365587.1691060399
 20
431165.0793557451
 10
365750.8959123128
 20
431165.0793557451
 10
365914.5624673137
 20
431001.3525494722
 10
366094.6535190358
 20
431001.3525494722
 10
366258.3321242912
 20
430837.6739442169
 10
366438.3749749957
 20
430837.6739442169
 10
366602.1017812686
 20
430657.5828924947
 10
366945.8593879917
 20
430657.5828924947
 10
367109.5379932471
 20
430493.9163374938
 10
367289.6290449692
 20
430493.9163374938
 10
367453.2955999701
 20
430313.8734867893
 10
367797.0652569476
 20
430313.8734867893
 10
367797.0652569476
 20
431001.3525494722
 10
367289.6290449692
 20
431508.8369624683
 10
367109.5379932471
 20
431508.8369624683
 10
366945.8593879917
 20
431672.5155677236
 10
366945.8593879917
 20
431852.6066194457
 10
367289.6290449692
 20
431852.6066194457
 10
367453.2955999701
 20
431672.5155677236
 10
369319.4823451723
 20
431672.5155677236
 10
369499.5131456226
 20
431508.8369624683
 10
369663.2399518954
 20
431508.8369624683
 10
369826.9185571508
 20
431345.1222064498
 10
369826.9185571508
 20
431165.0793557451
 10
370006.9614078554
 20
431001.3525494722
 10
370514.4458208514
 20
431001.3525494722
 10
370678.1244261066
 20
430837.6739442169
 10
371185.6088391026
 20
430837.6739442169
 10
371185.6088391026
 20
430493.9163374938
 10
371365.6516898073
 20
430313.8734867893
 10
371365.6516898073
 20
429806.3890737933
 10
371529.3664458256
 20
429642.710468538
 10
371709.4092965303
 20
429642.710468538
 10
371873.1361028033
 20
429806.3890737933
 10
371873.1361028033
 20
429986.4801255155
 10
372036.8147080585
 20
430150.1466805164
 10
372216.8937095262
 20
430150.1466805164
 10
372380.5723147815
 20
429986.4801255155
 10
372544.2991210546
 20
430150.1466805164
 10
373068.0995784821
 20
430150.1466805164
 10
373395.5049900103
 20
429806.3890737933
 10
373575.5357904605
 20
429986.4801255155
 10
374083.032253711
 20
429986.4801255155
 10
374083.032253711
 20
429642.710468538
 10
374246.6988087118
 20
429478.983662265
 10
374246.6988087118
 20
429298.9408115604
 10
374426.789860434
 20
429135.226055542
 10
374590.4684656894
 20
429135.226055542
 10
375097.9528786853
 20
428627.7898435636
 10
375277.99572939
 20
428627.7898435636
 10
375441.7225356628
 20
428791.4563985647
 10
375605.3890906637
 20
428791.4563985647
 10
375605.3890906637
 20
429478.983662265
 10
376800.3646165972
 20
429478.983662265
 10
376964.0793726156
 20
429298.9408115604
 10
377307.849029593
 20
429298.9408115604
 10
377307.849029593
 20
429135.226055542
 10
377487.8918802976
 20
428971.5474502868
 10
377487.8918802976
 20
428791.4563985647
 10
377651.6066363161
 20
428627.7898435636
 10
378666.5393115447
 20
428627.7898435636
 10
378846.5821622494
 20
428791.4563985647
 10
379010.2969182679
 20
428791.4563985647
 10
379173.9755235234
 20
428971.5474502868
 10
379861.5027872239
 20
428971.5474502868
 10
380025.2295934967
 20
428791.4563985647
 10
380025.2295934967
 20
428627.7898435636
 10
380205.2724442014
 20
428447.6987918416
 10
380876.4354624528
 20
428447.6987918416
 10
381056.4662629029
 20
428284.0201865862
 10
381563.9627261532
 20
428284.0201865862
 10
381727.6292811541
 20
428120.2933803132
 10
381907.7203328764
 20
428120.2933803132
 10
382071.3989381316
 20
427940.2505296086
 10
382415.1565448547
 20
427940.2505296086
 10
382922.653008105
 20
428447.6987918416
 10
383266.4106148281
 20
428447.6987918416
 10
383937.5254320619
 20
427776.53577359
 10
384281.2950890394
 20
427776.53577359
 10
384445.0098450579
 20
427940.2505296086
 10
384445.0098450579
 20
428120.2933803132
 10
384625.0526957625
 20
428284.0201865862
 10
384625.0526957625
 20
428447.6987918416
 10
384788.7795020353
 20
428627.7898435636
 10
385639.9853709911
 20
428627.7898435636
 10
385983.7429777142
 20
428284.0201865862
 10
385983.7429777142
 20
428120.2933803132
 10
386491.2273907103
 20
428120.2933803132
 10
386654.9059959655
 20
428284.0201865862
 10
386654.9059959655
 20
428447.6987918416
 10
386834.9970476877
 20
428627.7898435636
 10
385983.7429777142
 20
429478.983662265
 10
385983.7429777142
 20
429642.710468538
 10
385803.7001270098
 20
429806.3890737933
 10
385803.7001270098
 20
430150.1466805164
 10
385639.9853709911
 20
430313.8734867893
 10
385639.9853709911
 20
430493.9163374938
 10
385803.7001270098
 20
430657.5828924947
 10
385803.7001270098
 20
430837.6739442169
 10
385983.7429777142
 20
431001.3525494722
 10
385983.7429777142
 20
431165.0793557451
 10
386147.4697839872
 20
431345.1222064498
 10
386147.4697839872
 20
431508.8369624683
 10
386327.5126346918
 20
431672.5155677236
 10
386491.2273907103
 20
431508.8369624683
 10
386654.9059959655
 20
431508.8369624683
 10
387342.4332596661
 20
430837.6739442169
 10
387342.4332596661
 20
430657.5828924947
 10
387686.2029166436
 20
430313.8734867893
 10
387686.2029166436
 20
429642.710468538
 10
387506.1118649215
 20
429478.983662265
 10
387506.1118649215
 20
429298.9408115604
 10
387686.2029166436
 20
429298.9408115604
 10
387849.8694716446
 20
429135.226055542
 10
388013.5962779175
 20
429135.226055542
 10
388193.639128622
 20
429298.9408115604
 10
388357.3659348949
 20
429298.9408115604
 10
388537.4087855995
 20
429478.983662265
 10
388701.123541618
 20
429478.983662265
 10
388701.123541618
 20
429298.9408115604
 10
388864.8021468733
 20
429135.226055542
 10
389044.8931985954
 20
429298.9408115604
 10
389208.5597535965
 20
429298.9408115604
 10
389372.2865598693
 20
429478.983662265
 10
389552.3294105739
 20
429478.983662265
 10
389716.0562168468
 20
429642.710468538
 10
389896.0870172969
 20
429478.983662265
 10
390059.8138235698
 20
429478.983662265
 10
390059.8138235698
 20
429298.9408115604
 10
389896.0870172969
 20
429135.226055542
 10
389716.0562168468
 20
429135.226055542
 10
389552.3294105739
 20
428971.5474502868
 10
389044.8931985954
 20
428971.5474502868
 10
388864.8021468733
 20
428791.4563985647
 10
388701.123541618
 20
428791.4563985647
 10
388701.123541618
 20
428627.7898435636
 10
388864.8021468733
 20
428447.6987918416
 10
388864.8021468733
 20
428284.0201865862
 10
389372.2865598693
 20
428284.0201865862
 10
389552.3294105739
 20
428447.6987918416
 10
389896.0870172969
 20
428447.6987918416
 10
390059.8138235698
 20
428627.7898435636
 10
390403.5834805473
 20
428627.7898435636
 10
390747.3410872703
 20
428284.0201865862
 10
390911.0196925258
 20
428284.0201865862
 10
391074.6982977811
 20
428447.6987918416
 10
391254.7772992489
 20
428447.6987918416
 10
391418.4559045041
 20
428627.7898435636
 10
391582.1827107771
 20
428627.7898435636
 10
391762.2255614816
 20
428791.4563985647
 10
391925.9403175001
 20
428791.4563985647
 10
392269.7099744775
 20
428447.6987918416
 10
393120.9158434334
 20
428447.6987918416
 10
393284.630599452
 20
428627.7898435636
 10
393464.6734501565
 20
428627.7898435636
 10
393792.0788616848
 20
428971.5474502868
 10
393972.1578631525
 20
428971.5474502868
 10
393972.1578631525
 20
429642.710468538
 10
394135.8364684079
 20
429806.3890737933
 10
394135.8364684079
 20
430657.5828924947
 10
395330.7999440868
 20
430657.5828924947
 10
395330.7999440868
 20
431345.1222064498
 10
395494.5267503597
 20
431345.1222064498
 10
395674.5696010644
 20
431508.8369624683
 10
395838.2964073372
 20
431508.8369624683
 10
395838.2964073372
 20
431672.5155677236
 10
396001.9629623381
 20
431852.6066194457
 10
396001.9629623381
 20
432016.2731744467
 10
396182.0540140602
 20
432196.3642261688
 10
396182.0540140602
 20
432360.0428314242
 10
396689.4902260387
 20
432360.0428314242
 10
396853.2170323115
 20
432196.3642261688
 10
397360.65324429
 20
432196.3642261688
 10
397540.7442960121
 20
432360.0428314242
 10
397704.4229012675
 20
432360.0428314242
 10
397884.5139529896
 20
432523.769637697
 10
398211.8591132459
 20
432523.769637697
 10
398391.950164968
 20
432360.0428314242
 10
398899.3863769464
 20
432360.0428314242
 10
399243.1560339239
 20
432703.8124884015
 10
399570.5493951979
 20
432703.8124884015
 10
399570.5493951979
 20
432360.0428314242
 10
399406.8707899423
 20
432196.3642261688
 10
399406.8707899423
 20
432016.2731744467
 10
399570.5493951979
 20
432016.2731744467
 10
399750.6404469198
 20
431852.6066194457
 10
400258.0766588983
 20
431852.6066194457
 10
400421.803465171
 20
431672.5155677236
 10
400945.6039225988
 20
431672.5155677236
 10
401109.3307288716
 20
431508.8369624683
 10
401273.0093341271
 20
431508.8369624683
 10
401453.0883355948
 20
431345.1222064498
 10
401453.0883355948
 20
431165.0793557451
 10
401616.7669408502
 20
431001.3525494722
 10
401616.7669408502
 20
430837.6739442169
 10
401780.4455461054
 20
430657.5828924947
 10
402304.2942045506
 20
430657.5828924947
 10
402467.9728098059
 20
430837.6739442169
  0
LWPOLYLINE
  5
964
330
1E
100
AcDbEntity
  8
LAYER_1
  6
Continuous
 62
     7
100
AcDbPolyline
 90
      301
 70
     0
 43
96.40203504695982
 10
368803.8760607236
 20
386207.5685526921
 10
369155.7555388995
 20
386361.3297985921
 10
369319.4823451723
 20
386541.4208503141
 10
369319.4823451723
 20
386705.0874053152
 10
369499.5131456226
 20
386868.814211588
 10
370678.1244261066
 20
386868.814211588
 10
370858.2034275743
 20
387048.8570622926
 10
372216.8937095262
 20
387048.8570622926
 10
372380.5723147815
 20
387212.5838685654
 10
372544.2991210546
 20
387212.5838685654
 10
372724.341971759
 20
387392.62671927
 10
372888.0567277776
 20
387392.62671927
 10
373068.0995784821
 20
387556.3414752885
 10
373231.826384755
 20
387556.3414752885
 10
373575.5357904605
 20
387900.1111322661
 10
373739.2625967335
 20
387900.1111322661
 10
374083.032253711
 20
388227.50449354
 10
374246.6988087118
 20
388227.50449354
 10
374426.789860434
 20
388407.5473442443
 10
374590.4684656894
 20
388407.5473442443
 10
374754.1832217078
 20
388571.2741505173
 10
374934.2260724125
 20
388571.2741505173
 10
374934.2260724125
 20
388734.9407055182
 10
375097.9528786853
 20
388915.0317572405
 10
375097.9528786853
 20
389078.7103624957
 10
375277.99572939
 20
389258.8014142178
 10
375277.99572939
 20
389586.1465744743
 10
375441.7225356628
 20
389766.2376261964
 10
376129.2497993633
 20
389766.2376261964
 10
376129.2497993633
 20
389586.1465744743
 10
376292.9163543642
 20
389422.4679692189
 10
376292.9163543642
 20
389078.7103624957
 10
376456.6431606372
 20
388915.0317572405
 10
376636.6860113417
 20
388915.0317572405
 10
376800.3646165972
 20
388734.9407055182
 10
376964.0793726156
 20
388734.9407055182
 10
377144.1222233201
 20
388915.0317572405
 10
377487.8918802976
 20
388915.0317572405
 10
377815.2852415715
 20
389258.8014142178
 10
377995.3762932935
 20
389258.8014142178
 10
378159.0548985489
 20
389078.7103624957
 10
378666.5393115447
 20
389078.7103624957
 10
378846.5821622494
 20
388915.0317572405
 10
379010.2969182679
 20
388915.0317572405
 10
379173.9755235234
 20
389078.7103624957
 10
379354.0665752455
 20
389078.7103624957
 10
379354.0665752455
 20
389258.8014142178
 10
379517.7451805008
 20
389422.4679692189
 10
379517.7451805008
 20
389766.2376261964
 10
379697.8241819686
 20
389929.9162314516
 10
379697.8241819686
 20
390093.6309874701
 10
379861.5027872239
 20
390093.6309874701
 10
380025.2295934967
 20
390273.6738381747
 10
380368.9389992022
 20
390273.6738381747
 10
380532.6658054751
 20
390437.4006444476
 10
381727.6292811541
 20
390437.4006444476
 10
381907.7203328764
 20
390273.6738381747
 10
382071.3989381316
 20
390273.6738381747
 10
382235.1257444046
 20
390437.4006444476
 10
382235.1257444046
 20
390601.0671994486
 10
382415.1565448547
 20
390781.1582511707
 10
382415.1565448547
 20
390944.8368564261
 10
382578.8833511276
 20
391124.9279081482
 10
382578.8833511276
 20
391288.6065134035
 10
382922.653008105
 20
391632.3641201266
 10
383430.0892200835
 20
391632.3641201266
 10
383593.8039761019
 20
391796.0909263995
 10
383593.8039761019
 20
391959.7574814005
 10
383773.8468268065
 20
392139.8485331226
 10
383773.8468268065
 20
392647.2847451009
 10
383430.0892200835
 20
392991.0544020785
 10
383430.0892200835
 20
393318.4477633523
 10
383593.8039761019
 20
393498.4906140569
 10
383773.8468268065
 20
393498.4906140569
 10
383773.8468268065
 20
393662.2174203297
 10
383937.5254320619
 20
393825.8960255851
 10
383937.5254320619
 20
394349.7446840304
 10
384117.616483784
 20
394513.4232892856
 10
384117.616483784
 20
395020.9077022816
 10
383773.8468268065
 20
395364.6653090046
 10
383773.8468268065
 20
395528.3439142601
 10
383593.8039761019
 20
395708.4349659822
 10
383773.8468268065
 20
395872.1135712375
 10
383773.8468268065
 20
396035.8283272561
 10
383593.8039761019
 20
396215.8711779607
 10
383430.0892200835
 20
396215.8711779607
 10
383086.319563106
 20
396543.2765894889
 10
382922.653008105
 20
396543.2765894889
 10
382578.8833511276
 20
396887.0341962119
 10
382578.8833511276
 20
397050.7128014672
 10
382415.1565448547
 20
397230.8038531894
 10
382415.1565448547
 20
397394.4704081904
 10
382578.8833511276
 20
397574.5614599124
 10
382578.8833511276
 20
397738.2400651677
 10
382235.1257444046
 20
398081.9976718908
 10
382415.1565448547
 20
398245.7244781639
 10
381907.7203328764
 20
398753.1606901422
 10
381727.6292811541
 20
398753.1606901422
 10
381727.6292811541
 20
398933.2517418643
 10
381563.9627261532
 20
399096.9303471196
 10
381563.9627261532
 20
399260.6451031381
 10
381727.6292811541
 20
399440.6879538427
 10
381907.7203328764
 20
399440.6879538427
 10
381907.7203328764
 20
400455.6206290715
 10
382071.3989381316
 20
400619.2871840724
 10
382235.1257444046
 20
400619.2871840724
 10
382415.1565448547
 20
400799.3782357945
 10
382578.8833511276
 20
400799.3782357945
 10
382742.5619563829
 20
400963.0568410499
 10
384117.616483784
 20
400963.0568410499
 10
384117.616483784
 20
401126.7836473228
 10
383937.5254320619
 20
401306.8264980272
 10
383937.5254320619
 20
401470.5412540457
 10
383773.8468268065
 20
401634.2198593013
 10
383773.8468268065
 20
401814.3109110233
 10
383086.319563106
 20
402485.4739292747
 10
382742.5619563829
 20
402485.4739292747
 10
382578.8833511276
 20
402665.5167799792
 10
382235.1257444046
 20
402665.5167799792
 10
382235.1257444046
 20
402992.910141253
 10
382415.1565448547
 20
403173.0011929751
 10
382415.1565448547
 20
403336.6677479761
 10
382578.8833511276
 20
403500.3463532315
 10
382578.8833511276
 20
403680.4374049537
 10
382742.5619563829
 20
403844.116010209
 10
382742.5619563829
 20
404024.2070619311
 10
383266.4106148281
 20
404024.2070619311
 10
383266.4106148281
 20
404859.0366351834
 10
383086.319563106
 20
405039.1276869055
 10
382922.653008105
 20
405039.1276869055
 10
382922.653008105
 20
405546.5638988838
 10
383086.319563106
 20
405546.5638988838
 10
383266.4106148281
 20
405710.2907051568
 10
383593.8039761019
 20
405710.2907051568
 10
383773.8468268065
 20
405890.3335558613
 10
383937.5254320619
 20
405890.3335558613
 10
384117.616483784
 20
406054.0483118797
 10
384281.2950890394
 20
406054.0483118797
 10
384445.0098450579
 20
406217.7269171352
 10
384625.0526957625
 20
406217.7269171352
 10
384788.7795020353
 20
406397.8179688573
 10
384788.7795020353
 20
406561.4965741128
 10
384952.4581072907
 20
406561.4965741128
 10
384952.4581072907
 20
406905.2541808356
 10
384788.7795020353
 20
407068.9327860911
 10
384788.7795020353
 20
407249.0238378132
 10
384445.0098450579
 20
407576.4171990871
 10
383937.5254320619
 20
407576.4171990871
 10
383773.8468268065
 20
407756.4600497916
 10
382071.3989381316
 20
407756.4600497916
 10
381907.7203328764
 20
407576.4171990871
 10
381563.9627261532
 20
407576.4171990871
 10
381563.9627261532
 20
407920.1868560645
 10
381383.8716744312
 20
408083.8534110657
 10
381383.8716744312
 20
408263.9444627876
 10
381056.4662629029
 20
408591.3378240614
 10
381056.4662629029
 20
408771.380674766
 10
380876.4354624528
 20
408935.1074810389
 10
380876.4354624528
 20
409278.8771380163
 10
380712.7086561797
 20
409442.5436930174
 10
380712.7086561797
 20
409949.9799049957
 10
380368.9389992022
 20
410293.7495619733
 10
380205.2724442014
 20
410293.7495619733
 10
380025.2295934967
 20
410457.476368246
 10
379861.5027872239
 20
410457.476368246
 10
379697.8241819686
 20
410637.5192189507
 10
379517.7451805008
 20
410637.5192189507
 10
379354.0665752455
 20
410801.2339749691
 10
379173.9755235234
 20
410801.2339749691
 10
378846.5821622494
 20
411145.0036319467
 10
378666.5393115447
 20
411145.0036319467
 10
377815.2852415715
 20
411996.2095009024
 10
377651.6066363161
 20
411996.2095009024
 10
377487.8918802976
 20
411816.166650198
 10
377307.849029593
 20
411816.166650198
 10
377144.1222233201
 20
411996.2095009024
 10
376964.0793726156
 20
411996.2095009024
 10
376129.2497993633
 20
412847.4515206216
 10
375785.4801423858
 20
412847.4515206216
 10
375605.3890906637
 20
412667.3604688995
 10
375441.7225356628
 20
412667.3604688995
 10
375277.99572939
 20
412503.6939138985
 10
375097.9528786853
 20
412503.6939138985
 10
374934.2260724125
 20
412339.9671076255
 10
374934.2260724125
 20
412159.9242569209
 10
374754.1832217078
 20
411996.2095009024
 10
374754.1832217078
 20
411816.166650198
 10
374590.4684656894
 20
411652.4398439251
 10
374590.4684656894
 20
411488.7612386698
 10
374426.789860434
 20
411308.6701869476
 10
374426.789860434
 20
411145.0036319467
 10
374246.6988087118
 20
410981.2768256738
 10
374246.6988087118
 20
410801.2339749691
 10
374083.032253711
 20
410801.2339749691
 10
373919.305447438
 20
410981.2768256738
 10
373739.2625967335
 20
410981.2768256738
 10
373395.5049900103
 20
410637.5192189507
 10
373395.5049900103
 20
409622.6347447394
 10
372724.341971759
 20
409622.6347447394
 10
372544.2991210546
 20
409442.5436930174
 10
372216.8937095262
 20
409442.5436930174
 10
371873.1361028033
 20
409115.1503317435
 10
371873.1361028033
 20
408935.1074810389
 10
371709.4092965303
 20
408771.380674766
 10
371709.4092965303
 20
408591.3378240614
 10
372036.8147080585
 20
408591.3378240614
 10
372216.8937095262
 20
408427.6230680429
 10
372544.2991210546
 20
408427.6230680429
 10
372724.341971759
 20
408263.9444627876
 10
372888.0567277776
 20
408263.9444627876
 10
373575.5357904605
 20
407576.4171990871
 10
373919.305447438
 20
407576.4171990871
 10
373919.305447438
 20
404695.3580299279
 10
374426.789860434
 20
404187.8736169321
 10
374426.789860434
 20
404024.2070619311
 10
374590.4684656894
 20
404024.2070619311
 10
374754.1832217078
 20
403844.116010209
 10
374426.789860434
 20
403500.3463532315
 10
374083.032253711
 20
403500.3463532315
 10
373739.2625967335
 20
403844.116010209
 10
373739.2625967335
 20
404187.8736169321
 10
373575.5357904605
 20
404351.6004232049
 10
373575.5357904605
 20
404859.0366351834
 10
373395.5049900103
 20
405039.1276869055
 10
372724.341971759
 20
405039.1276869055
 10
372544.2991210546
 20
404859.0366351834
 10
372544.2991210546
 20
404695.3580299279
 10
372216.8937095262
 20
404351.6004232049
 10
372036.8147080585
 20
404351.6004232049
 10
371873.1361028033
 20
404187.8736169321
 10
371529.3664458256
 20
404187.8736169321
 10
371365.6516898073
 20
404024.2070619311
 10
371185.6088391026
 20
404024.2070619311
 10
371021.8820328297
 20
403844.116010209
 10
370858.2034275743
 20
403844.116010209
 10
370334.3547691292
 20
403336.6677479761
 10
370170.6761638738
 20
403336.6677479761
 10
369826.9185571508
 20
402992.910141253
 10
369663.2399518954
 20
403173.0011929751
 10
369499.5131456226
 20
403173.0011929751
 10
369319.4823451723
 20
402992.910141253
 10
369155.7555388995
 20
402992.910141253
 10
368975.712688195
 20
402829.2315359977
 10
368811.985881922
 20
402829.2315359977
 10
368648.3193269211
 20
402665.5167799792
 10
367960.7920632204
 20
402665.5167799792
 10
367797.0652569476
 20
402485.4739292747
 10
367453.2955999701
 20
402485.4739292747
 10
367289.6290449692
 20
402665.5167799792
 10
366602.1017812686
 20
402665.5167799792
 10
366602.1017812686
 20
402485.4739292747
 10
366765.7683362696
 20
402321.7471230018
 10
366765.7683362696
 20
402141.7042722972
 10
366438.3749749957
 20
401814.3109110233
 10
366258.3321242912
 20
401814.3109110233
 10
365914.5624673137
 20
401470.5412540457
 10
365750.8959123128
 20
401470.5412540457
 10
365587.1691060399
 20
401306.8264980272
 10
365407.1262553353
 20
401306.8264980272
 10
365079.7328940615
 20
400963.0568410499
 10
364899.6418423394
 20
400963.0568410499
 10
364555.8842356162
 20
400619.2871840724
 10
364392.2056303608
 20
400619.2871840724
 10
363884.721217365
 20
400111.850972094
 10
363884.721217365
 20
399768.093365371
 10
363704.6783666603
 20
399768.093365371
 10
363540.9515603875
 20
399604.4147601156
 10
363377.2729551321
 20
399604.4147601156
 10
363377.2729551321
 20
400111.850972094
 10
363197.1939536644
 20
400111.850972094
 10
363033.5153484089
 20
400275.5295773494
 10
362869.7885421361
 20
400275.5295773494
 10
362689.7456914316
 20
400455.6206290715
 10
362526.0791364307
 20
400455.6206290715
 10
362018.5826731804
 20
399948.1362160755
 10
361494.7822157525
 20
399948.1362160755
 10
361331.0554094797
 20
399768.093365371
 10
361331.0554094797
 20
399604.4147601156
 10
360987.2978027568
 20
399260.6451031381
 10
360987.2978027568
 20
399096.9303471196
 10
360823.6191975012
 20
398933.2517418643
 10
360659.9044414828
 20
398933.2517418643
 10
360479.8615907782
 20
398753.1606901422
 10
360316.1347845053
 20
398753.1606901422
 10
359972.3651275278
 20
398409.4030834191
 10
359808.6985725269
 20
398409.4030834191
 10
359628.6075208047
 20
398245.7244781639
 10
359464.9289155494
 20
398245.7244781639
 10
359301.250310294
 20
398081.9976718908
 10
359301.250310294
 20
397901.9548211862
 10
359121.1713088263
 20
397738.2400651677
 10
358957.4927035711
 20
397738.2400651677
 10
358777.401651849
 20
397574.5614599124
 10
358613.7230465936
 20
397574.5614599124
 10
358450.008290575
 20
397394.4704081904
 10
356911.2751579186
 20
397394.4704081904
 10
356747.5483516457
 20
397230.8038531894
 10
356747.5483516457
 20
397050.7128014672
 10
356567.5055009411
 20
396887.0341962119
 10
356567.5055009411
 20
396379.5979842334
 10
355926.3837668614
 20
396360.3778284961
  0
LWPOLYLINE
  5
A93
330
1E
100
AcDbEntity
  8
LAYER_1
  6
Continuous
 62
     7
100
AcDbPolyline
 90
       83
 70
     0
 43
96.40203504695982
 10
401960.5365978275
 20
391796.0909263995
 10
401780.4455461054
 20
391959.7574814005
 10
401453.0883355948
 20
391959.7574814005
 10
401273.0093341271
 20
392139.8485331226
 10
400601.8463158758
 20
392139.8485331226
 10
400421.803465171
 20
392303.5271383779
 10
399750.6404469198
 20
392303.5271383779
 10
399570.5493951979
 20
392139.8485331226
 10
399406.8707899423
 20
392139.8485331226
 10
399243.1560339239
 20
392303.5271383779
 10
399063.1131832194
 20
392303.5271383779
 10
399063.1131832194
 20
392483.6181901
 10
398899.3863769464
 20
392647.2847451009
 10
398899.3863769464
 20
392991.0544020785
 10
399063.1131832194
 20
393154.7330073339
 10
399063.1131832194
 20
393498.4906140569
 10
398735.7077716911
 20
393825.8960255851
 10
398735.7077716911
 20
394005.9750270528
 10
398211.8591132459
 20
394513.4232892856
 10
398211.8591132459
 20
394677.1380453041
 10
397884.5139529896
 20
395020.9077022816
 10
397704.4229012675
 20
395020.9077022816
 10
397540.7442960121
 20
394857.1808960087
 10
397360.65324429
 20
394857.1808960087
 10
397196.9866892889
 20
394677.1380453041
 10
397033.2598830161
 20
394677.1380453041
 10
396853.2170323115
 20
394513.4232892856
 10
396689.4902260387
 20
394513.4232892856
 10
396525.8236710378
 20
394349.7446840304
 10
396345.7326193156
 20
394349.7446840304
 10
396182.0540140602
 20
394513.4232892856
 10
395494.5267503597
 20
394513.4232892856
 10
395330.7999440868
 20
394349.7446840304
 10
394479.6061253854
 20
394349.7446840304
 10
394315.9275201299
 20
394169.6536323082
 10
393792.0788616848
 20
394169.6536323082
 10
393628.4002564294
 20
394349.7446840304
 10
393628.4002564294
 20
394513.4232892856
 10
393284.630599452
 20
394857.1808960087
 10
393284.630599452
 20
395020.9077022816
 10
393120.9158434334
 20
395184.5863075369
 10
393120.9158434334
 20
395364.6653090046
 10
392957.237238178
 20
395528.3439142601
 10
392777.1461864561
 20
395364.6653090046
 10
392613.4675812007
 20
395364.6653090046
 10
392433.3885797329
 20
395184.5863075369
 10
392269.7099744775
 20
395184.5863075369
 10
391925.9403175001
 20
394857.1808960087
 10
391762.2255614816
 20
394857.1808960087
 10
391254.7772992489
 20
394349.7446840304
 10
391254.7772992489
 20
394169.6536323082
 10
390747.3410872703
 20
393662.2174203297
 10
390747.3410872703
 20
393498.4906140569
 10
390403.5834805473
 20
393154.7330073339
 10
390223.4924288253
 20
393154.7330073339
 10
390059.8138235698
 20
392991.0544020785
 10
389896.0870172969
 20
392991.0544020785
 10
389896.0870172969
 20
393154.7330073339
 10
389716.0562168468
 20
393318.4477633523
 10
389716.0562168468
 20
393498.4906140569
 10
389552.3294105739
 20
393662.2174203297
 10
389552.3294105739
 20
393825.8960255851
 10
389372.2865598693
 20
394005.9750270528
 10
389372.2865598693
 20
394169.6536323082
 10
389044.8931985954
 20
394169.6536323082
 10
388864.8021468733
 20
394005.9750270528
 10
388357.3659348949
 20
394005.9750270528
 10
388193.639128622
 20
393825.8960255851
 10
388013.5962779175
 20
393825.8960255851
 10
388013.5962779175
 20
392991.0544020785
 10
387849.8694716446
 20
392811.0115513739
 10
387849.8694716446
 20
392483.6181901
 10
387686.2029166436
 20
392483.6181901
 10
387342.4332596661
 20
392811.0115513739
 10
387342.4332596661
 20
392991.0544020785
 10
387162.3904089616
 20
393154.7330073339
 10
387162.3904089616
 20
393318.4477633523
 10
386834.9970476877
 20
393662.2174203297
 10
386834.9970476877
 20
393825.8960255851
 10
385476.3067657358
 20
395184.5863075369
 10
384788.7795020353
 20
395184.5863075369
 10
384625.0526957625
 20
395020.9077022816
 10
384109.4102605506
 20
395014.6415700036
  0
LWPOLYLINE
  5
AE8
330
1E
100
AcDbEntity
  8
LAYER_1
  6
Continuous
 62
     7
100
AcDbPolyline
 90
       77
 70
     0
 43
96.40203504695982
 10
401952.607530445
 20
391787.8365021485
 10
402975.4572228021
 20
391796.0909263995
 10
403155.5000735066
 20
391959.7574814005
 10
403319.2268797793
 20
391959.7574814005
 10
403482.8934347804
 20
392139.8485331226
 10
403662.9844865024
 20
392139.8485331226
 10
403990.3778477763
 20
392483.6181901
 10
404170.4206984809
 20
392483.6181901
 10
404514.1903554585
 20
392811.0115513739
 10
404514.1903554585
 20
392991.0544020785
 10
404677.9171617314
 20
393154.7330073339
 10
404677.9171617314
 20
393318.4477633523
 10
405185.3533737097
 20
393318.4477633523
 10
405365.3962244143
 20
393154.7330073339
 10
405872.8806374102
 20
393662.2174203297
 10
406036.5592426657
 20
393662.2174203297
 10
406036.5592426657
 20
393825.8960255851
 10
406200.2739986841
 20
394005.9750270528
 10
406200.2739986841
 20
394169.6536323082
 10
406380.3168493886
 20
394349.7446840304
 10
406380.3168493886
 20
395364.6653090046
 10
406544.0436556616
 20
395364.6653090046
 10
406724.0865063662
 20
395528.3439142601
 10
406887.8012623846
 20
395528.3439142601
 10
406887.8012623846
 20
397574.5614599124
 10
406724.0865063662
 20
397574.5614599124
 10
406544.0436556616
 20
397738.2400651677
 10
406380.3168493886
 20
397738.2400651677
 10
406200.2739986841
 20
397901.9548211862
 10
406036.5592426657
 20
397901.9548211862
 10
406036.5592426657
 20
398081.9976718908
 10
406200.2739986841
 20
398245.7244781639
 10
406200.2739986841
 20
398589.4941351413
 10
406036.5592426657
 20
398589.4941351413
 10
405872.8806374102
 20
398753.1606901422
 10
405529.1109804328
 20
398753.1606901422
 10
405529.1109804328
 20
398933.2517418643
 10
405692.7895856881
 20
399096.9303471196
 10
405692.7895856881
 20
399440.6879538427
 10
405529.1109804328
 20
399604.4147601156
 10
405529.1109804328
 20
399768.093365371
 10
405365.3962244143
 20
399948.1362160755
 10
405365.3962244143
 20
400111.850972094
 10
405185.3533737097
 20
400275.5295773494
 10
405185.3533737097
 20
400619.2871840724
 10
405529.1109804328
 20
400619.2871840724
 10
405692.7895856881
 20
400455.6206290715
 10
406036.5592426657
 20
400455.6206290715
 10
406036.5592426657
 20
401634.2198593013
 10
405872.8806374102
 20
401814.3109110233
 10
405872.8806374102
 20
402665.5167799792
 10
406036.5592426657
 20
402829.2315359977
 10
406036.5592426657
 20
403173.0011929751
 10
406200.2739986841
 20
403336.6677479761
 10
406200.2739986841
 20
403680.4374049537
 10
406544.0436556616
 20
404024.2070619311
 10
406544.0436556616
 20
404187.8736169321
 10
406724.0865063662
 20
404351.6004232049
 10
406544.0436556616
 20
404531.6432739094
 10
406544.0436556616
 20
404695.3580299279
 10
406380.3168493886
 20
404859.0366351834
 10
406380.3168493886
 20
405039.1276869055
 10
406200.2739986841
 20
405202.8062921608
 10
406200.2739986841
 20
405366.5210481793
 10
406036.5592426657
 20
405546.5638988838
 10
406036.5592426657
 20
405710.2907051568
 10
405872.8806374102
 20
405890.3335558613
 10
405872.8806374102
 20
406054.0483118797
 10
406200.2739986841
 20
406054.0483118797
 10
406380.3168493886
 20
405890.3335558613
 10
406544.0436556616
 20
405890.3335558613
 10
406724.0865063662
 20
406054.0483118797
 10
406887.8012623846
 20
406054.0483118797
 10
407051.47986764
 20
406217.7269171352
 10
407231.5709193621
 20
406217.7269171352
 10
407395.2495246174
 20
406397.8179688573
 10
407575.3285260852
 20
406397.8179688573
  0
LWPOLYLINE
  5
B37
330
1E
100
AcDbEntity
  8
LAYER_1
  6
Continuous
 62
     7
100
AcDbPolyline
 90
        5
 70
     0
 43
96.40203504695982
 10
385639.9853709911
 20
405710.2907051568
 10
385476.3067657358
 20
405890.3335558613
 10
385296.2157140137
 20
405890.3335558613
 10
385132.5371087583
 20
406054.0483118797
 10
384956.3864902189
 20
406575.1133615631
  0
LWPOLYLINE
  5
B3E
330
1E
100
AcDbEntity
  8
LAYER_1
  6
Continuous
 62
     7
100
AcDbPolyline
 90
      131
 70
     0
 43
96.40203504695982
 10
385627.5495084701
 20
405710.2907051568
 10
385983.7429777142
 20
405710.2907051568
 10
386834.9970476877
 20
406561.4965741128
 10
387506.1118649215
 20
406561.4965741128
 10
387686.2029166436
 20
406725.1631291137
 10
387686.2029166436
 20
406905.2541808356
 10
387849.8694716446
 20
407068.9327860911
 10
387849.8694716446
 20
407756.4600497916
 10
388013.5962779175
 20
407920.1868560645
 10
388013.5962779175
 20
408263.9444627876
 10
388193.639128622
 20
408427.6230680429
 10
388193.639128622
 20
408591.3378240614
 10
388357.3659348949
 20
408771.380674766
 10
388537.4087855995
 20
408771.380674766
 10
389044.8931985954
 20
408263.9444627876
 10
389044.8931985954
 20
408083.8534110657
 10
389208.5597535965
 20
407920.1868560645
 10
389208.5597535965
 20
407756.4600497916
 10
390403.5834805473
 20
407756.4600497916
 10
390567.2500355482
 20
407920.1868560645
 10
390567.2500355482
 20
408083.8534110657
 10
390747.3410872703
 20
408263.9444627876
 10
390911.0196925258
 20
408263.9444627876
 10
391074.6982977811
 20
408427.6230680429
 10
391762.2255614816
 20
408427.6230680429
 10
391925.9403175001
 20
408263.9444627876
 10
392105.9831682047
 20
408263.9444627876
 10
392433.3885797329
 20
407920.1868560645
 10
393284.630599452
 20
407920.1868560645
 10
393464.6734501565
 20
407756.4600497916
 10
394479.6061253854
 20
407756.4600497916
 10
394823.3637321085
 20
408083.8534110657
 10
396525.8236710378
 20
408083.8534110657
 10
396689.4902260387
 20
407920.1868560645
 10
396853.2170323115
 20
407920.1868560645
 10
397540.7442960121
 20
408591.3378240614
 10
397884.5139529896
 20
408591.3378240614
 10
398048.1805079906
 20
408771.380674766
 10
398735.7077716911
 20
408771.380674766
 10
398899.3863769464
 20
408935.1074810389
 10
399243.1560339239
 20
408935.1074810389
 10
399406.8707899423
 20
409115.1503317435
 10
399406.8707899423
 20
409278.8771380163
 10
399570.5493951979
 20
409278.8771380163
 10
399750.6404469198
 20
409442.5436930174
 10
400601.8463158758
 20
409442.5436930174
 10
400765.5610718941
 20
409622.6347447394
 10
401109.3307288716
 20
409622.6347447394
 10
401109.3307288716
 20
409786.3133499948
 10
401273.0093341271
 20
409949.9799049957
 10
401273.0093341271
 20
410457.476368246
 10
401453.0883355948
 20
410637.5192189507
 10
401453.0883355948
 20
410801.2339749691
 10
401616.7669408502
 20
410981.2768256738
 10
401616.7669408502
 20
411145.0036319467
 10
401780.4455461054
 20
411308.6701869476
 10
401780.4455461054
 20
412339.9671076255
 10
402467.9728098059
 20
412339.9671076255
 10
402975.4572228021
 20
412847.4515206216
 10
402975.4572228021
 20
413174.8569321498
 10
402811.7304165291
 20
413354.8997828543
 10
402811.7304165291
 20
413682.2931441282
 10
402467.9728098059
 20
413682.2931441282
 10
402304.2942045506
 20
413862.3359948328
 10
401780.4455461054
 20
413862.3359948328
 10
401780.4455461054
 20
414026.0507508513
 10
401960.5365978275
 20
414206.093601556
 10
401960.5365978275
 20
414533.4990130842
 10
401780.4455461054
 20
414713.5780145519
 10
401780.4455461054
 20
414877.2566198072
 10
401616.7669408502
 20
415040.9834260801
 10
401616.7669408502
 20
415384.7410328032
 10
401453.0883355948
 20
415564.7838835077
 10
401453.0883355948
 20
418102.0733956894
 10
401616.7669408502
 20
418265.8002019621
 10
401616.7669408502
 20
418445.8430526668
 10
401780.4455461054
 20
418445.8430526668
 10
401960.5365978275
 20
418609.5578086852
 10
402124.2031528284
 20
418609.5578086852
 10
402124.2031528284
 20
418953.3274656628
 10
400421.803465171
 20
420655.7392035747
 10
400601.8463158758
 20
420819.4539595932
 10
400945.6039225988
 20
420819.4539595932
 10
400945.6039225988
 20
421163.2236165704
 10
400421.803465171
 20
421163.2236165704
 10
400258.0766588983
 20
421326.8901715714
 10
400258.0766588983
 20
421490.6169778443
 10
399750.6404469198
 20
421998.0531898229
 10
399914.3190521753
 20
422178.144241545
 10
398899.3863769464
 20
423193.0769167737
 10
399243.1560339239
 20
423536.8345234968
 10
399406.8707899423
 20
423536.8345234968
 10
399570.5493951979
 20
423700.5131287521
 10
399914.3190521753
 20
423700.5131287521
 10
400094.3980536429
 20
423880.6041804742
 10
400765.5610718941
 20
423880.6041804742
 10
400945.6039225988
 20
424044.2707354752
 10
401273.0093341271
 20
424044.2707354752
 10
401616.7669408502
 20
424388.0403924527
 10
401453.0883355948
 20
424551.7189977081
 10
401453.0883355948
 20
424715.4337537264
 10
401273.0093341271
 20
424895.4766044311
 10
401273.0093341271
 20
425059.203410704
 10
401109.3307288716
 20
425222.8820159594
 10
401109.3307288716
 20
425402.9610174271
 10
401453.0883355948
 20
425746.7306744046
 10
401273.0093341271
 20
425910.4092796597
 10
401273.0093341271
 20
426074.1240356785
 10
401109.3307288716
 20
426254.1668863829
 10
401109.3307288716
 20
426417.8936926557
 10
401273.0093341271
 20
426581.5602476568
 10
401453.0883355948
 20
426581.5602476568
 10
401453.0883355948
 20
426761.6512993789
 10
401273.0093341271
 20
426925.3299046343
 10
401273.0093341271
 20
427432.7661166127
 10
401109.3307288716
 20
427612.8571683347
 10
401109.3307288716
 20
428120.2933803132
 10
400945.6039225988
 20
428284.0201865862
 10
400945.6039225988
 20
428447.6987918416
 10
401109.3307288716
 20
428447.6987918416
 10
401273.0093341271
 20
428627.7898435636
 10
401780.4455461054
 20
428627.7898435636
 10
401960.5365978275
 20
428791.4563985647
 10
401960.5365978275
 20
429298.9408115604
 10
402124.2031528284
 20
429478.983662265
 10
402124.2031528284
 20
429806.3890737933
 10
402304.2942045506
 20
429986.4801255155
 10
402304.2942045506
 20
430150.1466805164
 10
401960.5365978275
 20
430150.1466805164
 10
401960.5365978275
 20
430313.8734867893
 10
402124.2031528284
 20
430493.9163374938
  0
LWPOLYLINE
  5
BC3
330
1E
100
AcDbEntity
  8
LAYER_1
  6
Continuous
 62
     7
100
AcDbPolyline
 90
       24
 70
     0
 43
96.40203504695982
 10
406724.0865063662
 20
407068.9327860911
 10
406544.0436556616
 20
407249.0238378132
 10
406380.3168493886
 20
407249.0238378132
 10
406200.2739986841
 20
407412.690392814
 10
406036.5592426657
 20
407412.690392814
 10
405872.8806374102
 20
407576.4171990871
 10
405185.3533737097
 20
407576.4171990871
 10
405021.6747684544
 20
407412.690392814
 10
404514.1903554585
 20
407412.690392814
 10
404514.1903554585
 20
407920.1868560645
 10
404677.9171617314
 20
408083.8534110657
 10
404677.9171617314
 20
408771.380674766
 10
403990.3778477763
 20
409442.5436930174
 10
403990.3778477763
 20
409786.3133499948
 10
403482.8934347804
 20
410293.7495619733
 10
403155.5000735066
 20
410293.7495619733
 10
402975.4572228021
 20
410130.0709567179
 10
402811.7304165291
 20
410130.0709567179
 10
402631.6875658245
 20
409949.9799049957
 10
402467.9728098059
 20
409949.9799049957
 10
402304.2942045506
 20
409786.3133499948
 10
402124.2031528284
 20
409786.3133499948
 10
401960.5365978275
 20
409622.6347447394
 10
401097.7022333942
 20
409612.7655864015
  0
LWPOLYLINE
  5
BDD
330
1E
100
AcDbEntity
  8
LAYER_1
  6
Continuous
 62
     7
100
AcDbPolyline
 90
        5
 70
     0
 43
96.40203504695982
 10
406717.8685751056
 20
407053.363857431
 10
407051.47986764
 20
407068.9327860911
 10
407231.5709193621
 20
407249.0238378132
 10
407575.3285260852
 20
407249.0238378132
 10
408064.5568036941
 20
407296.3210862581
  0
LWPOLYLINE
  5
BE4
330
1E
100
AcDbEntity
  8
LAYER_1
  6
Continuous
 62
     7
100
AcDbPolyline
 90
       66
 70
     0
 43
96.40203504695982
 10
371692.5268901426
 20
408742.01420484
 10
371185.6088391026
 20
409115.1503317435
 10
371185.6088391026
 20
409622.6347447394
 10
371021.8820328297
 20
409786.3133499948
 10
371021.8820328297
 20
409949.9799049957
 10
370678.1244261066
 20
410293.7495619733
 10
370678.1244261066
 20
410457.476368246
 10
370514.4458208514
 20
410637.5192189507
 10
370334.3547691292
 20
410637.5192189507
 10
370334.3547691292
 20
410801.2339749691
 10
370514.4458208514
 20
410981.2768256738
 10
370514.4458208514
 20
411308.6701869476
 10
370334.3547691292
 20
411488.7612386698
 10
370170.6761638738
 20
411488.7612386698
 10
369155.7555388995
 20
412503.6939138985
 10
368811.985881922
 20
412503.6939138985
 10
368648.3193269211
 20
412339.9671076255
 10
368124.4586182216
 20
412339.9671076255
 10
367960.7920632204
 20
412159.9242569209
 10
367797.0652569476
 20
412159.9242569209
 10
366945.8593879917
 20
411308.6701869476
 10
366602.1017812686
 20
411308.6701869476
 10
366438.3749749957
 20
411145.0036319467
 10
366258.3321242912
 20
411308.6701869476
 10
366094.6535190358
 20
411308.6701869476
 10
365914.5624673137
 20
411488.7612386698
 10
365407.1262553353
 20
411488.7612386698
 10
365243.4114993168
 20
411652.4398439251
 10
365243.4114993168
 20
411816.166650198
 10
365079.7328940615
 20
411996.2095009024
 10
365079.7328940615
 20
412159.9242569209
 10
364899.6418423394
 20
412339.9671076255
 10
364899.6418423394
 20
414369.8204078289
 10
364392.2056303608
 20
414877.2566198072
 10
363884.721217365
 20
414877.2566198072
 10
363704.6783666603
 20
414713.5780145519
 10
362526.0791364307
 20
414713.5780145519
 10
362345.9880847086
 20
414877.2566198072
 10
362182.3094794532
 20
414877.2566198072
 10
361674.8250664573
 20
415384.7410328032
 10
361331.0554094797
 20
415384.7410328032
 10
361167.3888544787
 20
415221.0262767847
 10
360479.8615907782
 20
415221.0262767847
 10
360316.1347845053
 20
415384.7410328032
 10
359972.3651275278
 20
415384.7410328032
 10
359628.6075208047
 20
415040.9834260801
 10
359464.9289155494
 20
415040.9834260801
 10
359301.250310294
 20
415221.0262767847
 10
358957.4927035711
 20
415221.0262767847
 10
358777.401651849
 20
415384.7410328032
 10
358613.7230465936
 20
415384.7410328032
 10
358450.008290575
 20
415564.7838835077
 10
358269.9654398704
 20
415564.7838835077
 10
357255.0327646416
 20
416579.7165587366
 10
357091.3180086233
 20
416579.7165587366
 10
356567.5055009411
 20
417087.152770715
 10
356403.7907449226
 20
417087.152770715
 10
356060.0210879452
 20
417430.9103774382
 10
355388.9062707114
 20
417430.9103774382
 10
355208.8152189893
 20
417594.6371837109
 10
355045.1486639883
 20
417594.6371837109
 10
354537.652200738
 20
418102.0733956894
 10
354357.6214002877
 20
418102.0733956894
 10
353686.4583820364
 20
418773.2364139407
 10
353686.4583820364
 20
418953.3274656628
 10
353519.8395147121
 20
419320.5228171565
  0
LWPOLYLINE
  5
C28
330
1E
100
AcDbEntity
  8
LAYER_1
  6
Continuous
 62
     7
100
AcDbPolyline
 90
      100
 70
     0
 43
96.40203504695982
 10
377804.4159121199
 20
412006.1148100036
 10
378502.8125052721
 20
412667.3604688995
 10
378666.5393115447
 20
412667.3604688995
 10
379010.2969182679
 20
413011.1301258771
 10
379697.8241819686
 20
413011.1301258771
 10
379697.8241819686
 20
413174.8569321498
 10
379861.5027872239
 20
413354.8997828543
 10
379861.5027872239
 20
413518.5663378554
 10
380205.2724442014
 20
413862.3359948328
 10
380205.2724442014
 20
414206.093601556
 10
380025.2295934967
 20
414369.8204078289
 10
380025.2295934967
 20
414533.4990130842
 10
379517.7451805008
 20
414533.4990130842
 10
379354.0665752455
 20
414713.5780145519
 10
377651.6066363161
 20
414713.5780145519
 10
377487.8918802976
 20
414877.2566198072
 10
377144.1222233201
 20
414877.2566198072
 10
376964.0793726156
 20
414713.5780145519
 10
375949.1587476412
 20
414713.5780145519
 10
375949.1587476412
 20
415040.9834260801
 10
376129.2497993633
 20
415221.0262767847
 10
375785.4801423858
 20
415564.7838835077
 10
375785.4801423858
 20
415728.5106897806
 10
375949.1587476412
 20
415892.189295036
 10
375949.1587476412
 20
416072.2682965038
 10
376129.2497993633
 20
416235.946901759
 10
376129.2497993633
 20
416399.673708032
 10
376292.9163543642
 20
416579.7165587366
 10
376292.9163543642
 20
416907.1099200103
 10
375949.1587476412
 20
416907.1099200103
 10
375785.4801423858
 20
417087.152770715
 10
375605.3890906637
 20
417087.152770715
 10
375441.7225356628
 20
417250.8795769878
 10
375441.7225356628
 20
417430.9103774382
 10
375605.3890906637
 20
417430.9103774382
 10
375785.4801423858
 20
417594.6371837109
 10
375949.1587476412
 20
417594.6371837109
 10
375949.1587476412
 20
418102.0733956894
 10
376129.2497993633
 20
418265.8002019621
 10
376129.2497993633
 20
419117.0060709182
 10
376292.9163543642
 20
419297.0971226403
 10
376292.9163543642
 20
420983.1325648486
 10
376456.6431606372
 20
421163.2236165704
 10
376456.6431606372
 20
421326.8901715714
 10
376636.6860113417
 20
421490.6169778443
 10
376636.6860113417
 20
421834.3866348218
 10
376800.3646165972
 20
421998.0531898229
 10
376800.3646165972
 20
422685.5804535234
 10
376636.6860113417
 20
422849.3072597962
 10
376636.6860113417
 20
423193.0769167737
 10
376292.9163543642
 20
423193.0769167737
 10
375785.4801423858
 20
423700.5131287521
 10
375605.3890906637
 20
423700.5131287521
 10
375441.7225356628
 20
423880.6041804742
 10
374426.789860434
 20
423880.6041804742
 10
374246.6988087118
 20
423700.5131287521
 10
374083.032253711
 20
423700.5131287521
 10
373919.305447438
 20
423880.6041804742
 10
373395.5049900103
 20
423880.6041804742
 10
373231.826384755
 20
424044.2707354752
 10
372888.0567277776
 20
424044.2707354752
 10
372724.341971759
 20
423880.6041804742
 10
372544.2991210546
 20
423880.6041804742
 10
372380.5723147815
 20
423700.5131287521
 10
371365.6516898073
 20
424715.4337537264
 10
371185.6088391026
 20
424715.4337537264
 10
371021.8820328297
 20
424895.4766044311
 10
371021.8820328297
 20
425566.6396226824
 10
370858.2034275743
 20
425566.6396226824
 10
370678.1244261066
 20
425402.9610174271
 10
370514.4458208514
 20
425402.9610174271
 10
369663.2399518954
 20
426254.1668863829
 10
369663.2399518954
 20
426761.6512993789
 10
369826.9185571508
 20
426925.3299046343
 10
369826.9185571508
 20
427089.0085098897
 10
370170.6761638738
 20
427432.7661166127
 10
370858.2034275743
 20
427432.7661166127
 10
371185.6088391026
 20
427089.0085098897
 10
371185.6088391026
 20
426761.6512993789
 10
371365.6516898073
 20
426581.5602476568
 10
371873.1361028033
 20
426581.5602476568
 10
372036.8147080585
 20
426417.8936926557
 10
372216.8937095262
 20
426417.8936926557
 10
372544.2991210546
 20
426074.1240356785
 10
373739.2625967335
 20
426074.1240356785
 10
373919.305447438
 20
426254.1668863829
 10
374246.6988087118
 20
426254.1668863829
 10
374426.789860434
 20
426074.1240356785
 10
374590.4684656894
 20
426074.1240356785
 10
374754.1832217078
 20
425910.4092796597
 10
374934.2260724125
 20
425910.4092796597
 10
374934.2260724125
 20
426254.1668863829
 10
375277.99572939
 20
426581.5602476568
 10
375277.99572939
 20
426761.6512993789
 10
374934.2260724125
 20
426761.6512993789
 10
374754.1832217078
 20
426925.3299046343
 10
374246.6988087118
 20
426925.3299046343
 10
374246.6988087118
 20
428627.7898435636
 10
374426.789860434
 20
428791.4563985647
 10
374416.0651340351
 20
429149.9755669042
  0
LWPOLYLINE
  5
C8E
330
1E
100
AcDbEntity
  8
LAYER_1
  6
Continuous
 62
     7
100
AcDbPolyline
 90
       18
 70
     0
 43
130.9380641025331
 10
408058.8208826088
 20
407302.7197713344
 10
408290.7641789318
 20
407102.6132470858
 10
408334.9283612377
 20
407047.0133733723
 10
408445.3689426385
 20
407058.1598586747
 10
408533.757558522
 20
407180.421739623
 10
408600.0339576169
 20
407191.5682249253
 10
408732.5867558064
 20
407224.9233290515
 10
408909.3037363017
 20
407213.8129945122
 10
408909.3037363017
 20
407147.0666354968
 10
408843.0273372071
 20
407024.756553531
 10
408798.8631549012
 20
406935.8618269631
 10
408633.1480566555
 20
406824.6500292821
 10
408622.0979733882
 20
406713.4502818554
 10
408611.084040884
 20
406580.0419156047
 10
408622.0979733882
 20
406446.6335493542
 10
408655.2602734442
 20
406335.4338019276
 10
408743.5886380561
 20
406235.3805398031
 10
408831.9772539398
 20
406101.9239725349
  0
LWPOLYLINE
  5
CA2
330
1E
100
AcDbEntity
  8
LAYER_1
  6
Continuous
 62
     7
100
AcDbPolyline
 90
        4
 70
     0
 43
130.9380641025331
 10
408831.9772539398
 20
406101.9239725349
 10
408845.8832474954
 20
406088.7650947512
 10
408884.3356092247
 20
406055.8437997825
 10
408942.4178353405
 20
406013.0171957129
  0
LWPOLYLINE
  5
CA8
330
1E
100
AcDbEntity
  8
LAYER_1
  6
Continuous
 62
     7
100
AcDbPolyline
 90
        4
 70
     0
 43
130.9380641025331
 10
408942.4178353405
 20
406013.0171957129
 10
408994.7882408798
 20
405967.2864803376
 10
409022.6243284996
 20
405928.9787216608
 10
409030.8064512242
 20
405912.9157325711
  0
LWPOLYLINE
  5
CAE
330
1E
100
AcDbEntity
  8
LAYER_1
  6
Continuous
 62
     7
100
AcDbPolyline
 90
        4
 70
     0
 43
130.9380641025331
 10
409030.8064512242
 20
405912.9157325711
 10
409074.5850253899
 20
405902.1910061722
 10
409160.0936304764
 20
405871.7159128429
 10
409218.5855652412
 20
405823.9607547315
  0
LWPOLYLINE
  5
CB4
330
1E
100
AcDbEntity
  8
LAYER_1
  6
Continuous
 62
     7
100
AcDbPolyline
 90
        4
 70
     0
 43
130.9380641025331
 10
409218.5855652412
 20
405823.9607547315
 10
409248.4219950883
 20
405773.3255858231
 10
409280.7287270834
 20
405737.5001795488
 10
409295.8638465858
 20
405723.9074926072
  0
LWPOLYLINE
  5
CBA
330
1E
100
AcDbEntity
  8
LAYER_1
  6
Continuous
 62
     7
100
AcDbPolyline
 90
       11
 70
     0
 43
130.9380641025331
 10
409295.8638465858
 20
405723.9074926072
 10
409229.6356485086
 20
405712.797158068
 10
409108.1329335863
 20
405768.4090820357
 10
408964.5300521294
 20
405868.46234416
 10
408710.4745390175
 20
406035.2137642825
 10
408577.9217408279
 20
406190.8789503745
 10
408467.4811594273
 20
406391.033675641
 10
408368.0906612938
 20
406479.9886534805
 10
408058.8208826088
 20
406491.0869377652
 10
407848.9295518028
 20
406479.9886534805
 10
407528.6096898507
 20
406402.1319599257
  0
SOLID
  5
CDD
330
1E
100
AcDbEntity
  8
LAYER_1
 62
     7
100
AcDbTrace
 10
408925.1016197953
 20
431600.9732074643
 30
0.0
 11
406995.3618329883
 21
429357.6737514128
 31
0.0
 12
410815.3768235047
 22
429324.330697541
 32
0.0
 13
408962.2525540514
 23
435858.4124320064
 33
0.0
  0
TEXT
  5
CEA
330
1E
100
AcDbEntity
  8
LAYER_1
 62
    37
100
AcDbText
 10
332391.0439858386
 20
387075.9942351583
 30
0.0
 40
1084.522894278298
  1
0
  7
SN2
100
AcDbText
  0
TEXT
  5
CEB
330
1E
100
AcDbEntity
  8
LAYER_1
 62
    37
100
AcDbText
 10
341340.68356273
 20
387098.576411868
 30
0.0
 40
1084.522894278298
  1
10km
  7
SN2
100
AcDbText
  0
LWPOLYLINE
  5
CF4
330
1E
100
AcDbEntity
  8
LAYER_1
  6
Continuous
 62
     7
100
AcDbPolyline
 90
        4
 70
     1
 43
36.15076314260993
 10
332787.9432143813
 20
386270.904689718
 10
342794.3057486944
 20
386270.904689718
 10
342794.3057486944
 20
386863.5964514412
 10
332787.9432143813
 20
386863.5964514412
  0
SOLID
  5
CFA
330
1E
100
AcDbEntity
  8
LAYER_1
 62
     7
100
AcDbTrace
 10
340297.1074328379
 20
386270.904689718
 30
0.0
 11
342794.3057486944
 21
386270.904689718
 31
0.0
 12
340297.1074328379
 22
386863.5964514412
 32
0.0
 13
342794.3057486944
 23
386863.5964514412
 33
0.0
  0
SOLID
  5
D08
330
1E
100
AcDbEntity
  8
LAYER_1
 62
     7
100
AcDbTrace
 10
335285.1415302378
 20
386270.904689718
 30
0.0
 11
337782.3518963486
 21
386270.904689718
 31
0.0
 12
335285.1415302378
 22
386863.5964514412
 32
0.0
 13
337782.3518963486
 23
386863.5964514412
 33
0.0
  0
TEXT
  5
D1F
330
1E
100
AcDbEntity
  8
LAYER_1
 62
    12
100
AcDbText
 10
377207.2347733548
 20
417463.1265272272
 30
0.0
 40
1270.060660980553
  1
Adwalton
  7
SN1
100
AcDbText
  0
TEXT
  5
D20
330
1E
100
AcDbEntity
  8
LAYER_1
 62
    12
100
AcDbText
 10
377207.2347733548
 20
415656.8656970612
 30
0.0
 40
1270.060660980553
  1
Moor
  7
SN1
100
AcDbText
  0
LWPOLYLINE
  5
D2B
330
1E
100
AcDbEntity
  8
0
  6
Continuous
100
AcDbPolyline
 90
        2
 70
     1
 43
554.0464048946549
 10
365290.8413960744
 20
407981.1912688677
 42
1.0
 10
365844.8878009691
 20
407981.1912688677
 42
1.0
  0
LWPOLYLINE
  5
D2C
330
1E
100
AcDbEntity
  8
0
  6
Continuous
100
AcDbPolyline
 90
        2
 70
     1
 43
554.0388681245375
 10
372822.2541525031
 20
415765.6616240369
 42
1.0
 10
373376.2930206278
 20
415765.6616240369
 42
1.0
  0
LWPOLYLINE
  5
D2D
330
1E
100
AcDbEntity
  8
0
  6
Continuous
100
AcDbPolyline
 90
        2
 70
     1
 43
554.3117015200193
 10
386270.2016248564
 20
416271.7723080334
 42
1.0
 10
386824.5133263764
 20
416271.7723080334
 42
1.0
  0
LWPOLYLINE
  5
D32
330
1E
100
AcDbEntity
  8
0
  6
Continuous
100
AcDbPolyline
 90
        2
 70
     1
 43
554.0464048946553
 10
371002.6619726067
 20
399738.8232974799
 42
1.0
 10
371556.7083775014
 20
399738.8232974799
 42
1.0
  0
LWPOLYLINE
  5
D35
330
1E
100
AcDbEntity
  8
0
  6
Continuous
100
AcDbPolyline
 90
        2
 70
     1
 43
554.3117015200193
 10
389668.3733602616
 20
403450.3016467878
 42
1.0
 10
390222.6850617817
 20
403450.3016467878
 42
1.0
  0
LWPOLYLINE
  5
D38
330
1E
100
AcDbEntity
  8
LAYER_1
  6
Continuous
 62
     1
100
AcDbPolyline
 90
        2
 70
     1
 43
399.6948875590764
 10
377195.964503634
 20
413985.0268710603
 42
1.0
 10
377595.659391193
 20
413985.0268710603
 42
1.0
  0
TEXT
  5
D3A
330
1E
100
AcDbEntity
  8
0
  6
Continuous
100
AcDbText
 10
407816.5746187901
 20
436526.8641430221
 30
0.0
 40
1807.538157130496
  1
N
 41
1.05
  7
SN3
100
AcDbText
  0
LINE
  5
D40
330
1E
100
AcDbEntity
  8
GRD
  6
Continuous
100
AcDbLine
 10
329364.0080351096
 20
400000.0
 30
0.0
 11
413091.224016639
 21
400000.0
 31
0.0
  0
LINE
  5
D41
330
1E
100
AcDbEntity
  8
GRD
  6
Continuous
100
AcDbLine
 10
400000.0
 20
383780.0568579203
 30
0.0
 11
400000.0
 21
439527.9076950514
 31
0.0
  0
HATCH
  5
D50
330
1E
100
AcDbEntity
  8
0
  6
Continuous
100
AcDbHatch
 10
0.0
 20
0.0
 30
0.0
210
0.0
220
0.0
230
1.0
  2
SOLID
 70
     1
 71
     0
 91
        1
 92
        1
 93
       72
 72
     1
 10
340904.3077008355
 20
427504.5976829771
 11
340956.9793627345
 21
427483.9555972227
 72
     1
 10
340956.9793627345
 20
427483.9555972227
 11
341009.6389743789
 21
427509.815443124
 72
     1
 10
341009.6389743789
 20
427509.815443124
 11
341033.5948800879
 21
427446.8167132208
 72
     1
 10
341033.5948800879
 20
427446.8167132208
 11
341047.3562705909
 21
427440.5505809428
 72
     1
 10
341047.3562705909
 20
427440.5505809428
 11
341102.2451792958
 21
427453.974564323
 72
     1
 10
341102.2451792958
 20
427453.974564323
 11
341226.9171111202
 21
427396.1935945668
 72
     1
 10
341226.9171111202
 20
427396.1935945668
 11
341235.8825003797
 21
427411.6540709374
 72
     1
 10
341235.8825003797
 20
427411.6540709374
 11
341390.3065102704
 21
427362.9830934932
 72
     1
 10
341390.3065102704
 20
427362.9830934932
 11
341466.922027624
 21
427386.8907981848
 72
     1
 10
341466.922027624
 20
427386.8907981848
 11
341468.1150028076
 21
427427.0783965451
 72
     1
 10
341468.1150028076
 20
427427.0783965451
 11
341479.5024931977
 21
427430.1150606489
 72
     1
 10
341479.5024931977
 20
427430.1150606489
 11
341508.0133950628
 21
427391.0240354374
 72
     1
 10
341508.0133950628
 20
427391.0240354374
 11
341566.45712881
 21
427368.20085364
 72
     1
 10
341566.45712881
 20
427368.20085364
 11
341639.6624241738
 21
427372.3340908925
 72
     1
 10
341639.6624241738
 20
427372.3340908925
 11
341630.5042308444
 21
427401.2185506435
 72
     1
 10
341630.5042308444
 20
427401.2185506435
 11
341678.3798914995
 21
427434.4290517173
 72
     1
 10
341678.3798914995
 20
427434.4290517173
 11
341806.4740955681
 21
427418.823972294
 72
     1
 10
341806.4740955681
 20
427418.823972294
 11
341822.5973359299
 21
427366.2607626847
 72
     1
 10
341822.5973359299
 20
427366.2607626847
 11
341787.1093367781
 21
427352.7765280325
 72
     1
 10
341787.1093367781
 20
427352.7765280325
 11
341799.6898023518
 21
427276.3056137315
 72
     1
 10
341799.6898023518
 20
427276.3056137315
 11
341751.573136609
 21
427250.4939688476
 72
     1
 10
341751.573136609
 20
427250.4939688476
 11
341806.4740955681
 21
427164.7202581646
 72
     1
 10
341806.4740955681
 20
427164.7202581646
 11
341777.9029424311
 21
427089.3338667579
 72
     1
 10
341777.9029424311
 20
427089.3338667579
 11
341820.2234358167
 21
427052.194982756
 72
     1
 10
341820.2234358167
 20
427052.194982756
 11
341773.3599965295
 21
427021.1173767078
 72
     1
 10
341773.3599965295
 20
427021.1173767078
 11
341833.9848263197
 21
426955.0819827006
 72
     1
 10
341833.9848263197
 20
426955.0819827006
 11
341915.2035408468
 21
426926.1854726953
 72
     1
 10
341915.2035408468
 20
426926.1854726953
 11
341920.7587081164
 21
426917.9310484443
 72
     1
 10
341920.7587081164
 20
426917.9310484443
 11
341878.4864157482
 21
426898.1927317685
 72
     1
 10
341878.4864157482
 20
426898.1927317685
 11
341851.1564388124
 21
426795.006403505
 72
     1
 10
341851.1564388124
 20
426795.006403505
 11
341876.3053197054
 21
426741.1658669314
 72
     1
 10
341876.3053197054
 20
426741.1658669314
 11
341838.5880234932
 21
426680.3361828167
 72
     1
 10
341838.5880234932
 20
426680.3361828167
 11
341774.5409214588
 21
426656.4766791428
 72
     1
 10
341774.5409214588
 20
426656.4766791428
 11
341708.1199193115
 21
426677.1187648971
 72
     1
 10
341708.1199193115
 20
426677.1187648971
 11
341686.5379137154
 21
426727.8744363493
 72
     1
 10
341686.5379137154
 20
426727.8744363493
 11
341610.9587182386
 21
426712.2693569262
 72
     1
 10
341610.9587182386
 20
426712.2693569262
 11
341579.0375943837
 21
426742.2503898258
 72
     1
 10
341579.0375943837
 20
426742.2503898258
 11
341522.955710495
 21
426712.2693569262
 72
     1
 10
341522.955710495
 20
426712.2693569262
 11
341511.6164211227
 21
426724.6570184297
 72
     1
 10
341511.6164211227
 20
426724.6570184297
 11
341460.1377344077
 21
426709.2326928221
 72
     1
 10
341460.1377344077
 20
426709.2326928221
 11
341449.7504151313
 21
426730.9593014707
 72
     1
 10
341449.7504151313
 20
426730.9593014707
 11
341412.0331189193
 21
426733.9959655748
 72
     1
 10
341412.0331189193
 20
426733.9959655748
 11
341342.2018947821
 21
426659.7061473168
 72
     1
 10
341342.2018947821
 20
426659.7061473168
 11
341298.9294313003
 21
426654.4883871698
 72
     1
 10
341298.9294313003
 20
426654.4883871698
 11
341285.1800910518
 21
426630.6168332413
 72
     1
 10
341285.1800910518
 20
426630.6168332413
 11
341235.8825003797
 21
426631.71340639
 72
     1
 10
341235.8825003797
 20
426631.71340639
 11
341195.9841081245
 21
426660.6099163953
 72
     1
 10
341195.9841081245
 20
426660.6099163953
 11
341130.7560811609
 21
426609.9867977413
 72
     1
 10
341130.7560811609
 20
426609.9867977413
 11
341085.0615165486
 21
426618.2412219921
 72
     1
 10
341085.0615165486
 20
426618.2412219921
 11
341036.9569010602
 21
426580.0057648418
 72
     1
 10
341036.9569010602
 20
426580.0057648418
 11
340972.9580000433
 21
426632.7979292841
 72
     1
 10
340972.9580000433
 20
426632.7979292841
 11
340947.8211694049
 21
426619.3257448865
 72
     1
 10
340947.8211694049
 20
426619.3257448865
 11
340930.6375066579
 21
426626.4956462431
 72
     1
 10
340930.6375066579
 20
426626.4956462431
 11
340929.4565817285
 21
426647.3184858132
 72
     1
 10
340929.4565817285
 20
426647.3184858132
 11
340892.9322607001
 21
426668.8643406462
 72
     1
 10
340892.9322607001
 20
426668.8643406462
 11
340895.3423115763
 21
426694.7121362932
 72
     1
 10
340895.3423115763
 20
426694.7121362932
 11
340788.9867664106
 21
426785.6554061056
 72
     1
 10
340788.9867664106
 20
426785.6554061056
 11
340788.9867664106
 21
426823.9029135105
 72
     1
 10
340788.9867664106
 20
426823.9029135105
 11
340750.0764950149
 21
426841.4962849066
 72
     1
 10
340750.0764950149
 20
426841.4962849066
 11
340756.8607882312
 21
426948.8158504226
 72
     1
 10
340756.8607882312
 20
426948.8158504226
 11
340651.7343690126
 21
426913.7978111918
 72
     1
 10
340651.7343690126
 20
426913.7978111918
 11
340592.2904641518
 21
427015.9478175784
 72
     1
 10
340592.2904641518
 20
427015.9478175784
 11
340649.3604688995
 21
427074.7771594659
 72
     1
 10
340649.3604688995
 20
427074.7771594659
 11
340648.3602977859
 21
427169.8898172941
 72
     1
 10
340648.3602977859
 20
427169.8898172941
 11
340775.2253759077
 21
427238.1183575985
 72
     1
 10
340775.2253759077
 20
427238.1183575985
 11
340775.2253759077
 21
427286.5483299553
 72
     1
 10
340775.2253759077
 20
427286.5483299553
 11
340808.3394749463
 21
427335.1831566365
 72
     1
 10
340808.3394749463
 20
427335.1831566365
 11
340872.3865769806
 21
427333.0502616111
 72
     1
 10
340872.3865769806
 20
427333.0502616111
 11
340872.3865769806
 21
427444.671767941
 72
     1
 10
340872.3865769806
 20
427444.671767941
 11
340892.9322607001
 21
427447.7084320451
 72
     1
 10
340892.9322607001
 20
427447.7084320451
 11
340894.161386647
 21
427489.1733573695
 72
     1
 10
340894.161386647
 20
427489.1733573695
 11
340904.3077008355
 21
427504.5976829771
 97
        0
 75
     0
 76
     1
 98
        1
 10
0.0
 20
0.0
450
        0
451
        0
460
0.0
461
0.0
452
        0
462
0.0
453
        0
470

  0
VIEWPORT
  5
D7A
330
1A
100
AcDbEntity
 67
     1
  8
0
  6
Continuous
100
AcDbViewport
 10
3.909116301602004
 20
3.343356005550791
 30
0.0
 40
9.593754046884328
 41
6.416156399901989
 68
     1
 69
     1
 12
3.909116301602004
 22
3.343356005550791
 13
0.0
 23
0.0
 14
10.0
 24
10.0
 15
10.0
 25
10.0
 16
0.0
 26
0.0
 36
1.0
 17
0.0
 27
0.0
 37
0.0
 42
50.0
 43
0.0
 44
0.0
 45
6.416156399901989
 50
0.0
 51
0.0
 72
   100
 90
    32800
  1

281
     0
 71
     1
 74
     0
110
0.0
120
0.0
130
0.0
111
1.0
121
0.0
131
0.0
112
0.0
122
1.0
132
0.0
 79
     0
146
0.0
170
     0
 61
     5
348
DC8
292
     1
282
     1
141
0.0
142
0.0
 63
   250
421
  3355443
  0
VIEWPORT
  5
D7C
330
1A
100
AcDbEntity
 67
     1
  8
BACKGROUND
  6
Continuous
100
AcDbViewport
 10
3.857659386942558
 20
2.69246374395518
 30
0.0
 40
6.774976770049593
 41
4.918665552783518
 68
     2
 69
     2
 12
371318.1489589423
 22
409387.2632496995
 13
0.0
 23
0.0
 14
1.0
 24
1.0
 15
0.0
 25
0.0
 16
0.0
 26
0.0
 36
1.0
 17
0.0
 27
0.0
 37
0.0
 42
50.0
 43
0.0
 44
0.0
 45
61483.31940979399
 50
0.0
 51
0.0
 72
   100
 90
    32800
  1

281
     0
 71
     1
 74
     0
110
0.0
120
0.0
130
0.0
111
1.0
121
0.0
131
0.0
112
0.0
122
1.0
132
0.0
 79
     0
146
0.0
170
     0
 61
     5
348
DC8
292
     1
282
     1
141
0.0
142
0.0
 63
   250
421
  3355443
  0
ENDSEC
  0
SECTION
  2
OBJECTS
  0
DICTIONARY
  5
C
330
0
100
AcDbDictionary
281
     1
  3
ACAD_CIP_PREVIOUS_PRODUCT_INFO
350
DFC
  3
ACAD_COLOR
350
DDB
  3
ACAD_DETAILVIEWSTYLE
350
DF4
  3
ACAD_GROUP
350
D
  3
ACAD_LAYOUT
350
19
  3
ACAD_MATERIAL
350
DA9
  3
ACAD_MLEADERSTYLE
350
DF0
  3
ACAD_MLINESTYLE
350
16
  3
ACAD_PLOTSETTINGS
350
18
  3
ACAD_PLOTSTYLENAME
350
E
  3
ACAD_SCALELIST
350
DDE
  3
ACAD_SECTIONVIEWSTYLE
350
DF2
  3
ACAD_TABLESTYLE
350
DDC
  3
ACAD_VISUALSTYLE
350
DC2
  3
ACDB_RECOMPOSE_DATA
350
E50
  3
ACDBVARIABLEDICTIONARY
350
D4D
  0
DICTIONARY
  5
DFE
330
10
100
AcDbDictionary
280
     1
281
     1
  3
ADSK_XREC_LAYER_RECONCILED
360
DFF
  0
DICTIONARY
  5
E00
330
31
100
AcDbDictionary
280
     1
281
     1
  3
ADSK_XREC_LAYER_RECONCILED
360
E01
  0
DICTIONARY
  5
E02
330
32
100
AcDbDictionary
280
     1
281
     1
  3
ADSK_XREC_LAYER_RECONCILED
360
E03
  0
DICTIONARY
  5
E04
330
33
100
AcDbDictionary
280
     1
281
     1
  3
ADSK_XREC_LAYER_RECONCILED
360
E05
  0
DICTIONARY
  5
E06
330
D3F
100
AcDbDictionary
280
     1
281
     1
  3
ADSK_XREC_LAYER_RECONCILED
360
E07
  0
DICTIONARY
  5
D9F
330
1E
100
AcDbDictionary
280
     1
281
     1
  3
ACAD_LAYOUTSELFREF
360
DA0
  0
DICTIONARY
  5
D9D
330
1A
100
AcDbDictionary
280
     1
281
     1
  3
ACAD_LAYOUTSELFREF
360
D9E
  0
XRECORD
  5
DFC
102
{ACAD_REACTORS
330
C
102
}
330
C
100
AcDbXrecord
280
     1
300
ACD
300
2015
300
ACD_F_S
  0
DICTIONARY
  5
DDB
102
{ACAD_REACTORS
330
C
102
}
330
C
100
AcDbDictionary
281
     1
  0
DICTIONARY
  5
DF4
102
{ACAD_REACTORS
330
C
102
}
330
C
100
AcDbDictionary
281
     1
  3
Imperial24
350
DF5
  0
DICTIONARY
  5
D
102
{ACAD_REACTORS
330
C
102
}
330
C
100
AcDbDictionary
281
     1
  0
DICTIONARY
  5
19
102
{ACAD_REACTORS
330
C
102
}
330
C
100
AcDbDictionary
281
     1
  3
Layout1
350
DF7
  3
Model
350
DF6
  0
DICTIONARY
  5
DA9
102
{ACAD_REACTORS
330
C
102
}
330
C
100
AcDbDictionary
281
     1
  3
ByBlock
350
DB2
  3
ByLayer
350
DAA
  3
Global
350
DBA
  0
DICTIONARY
  5
DF0
102
{ACAD_REACTORS
330
C
102
}
330
C
100
AcDbDictionary
281
     1
  3
Standard
350
DF1
  0
DICTIONARY
  5
16
102
{ACAD_REACTORS
330
C
102
}
330
C
100
AcDbDictionary
281
     1
  3
STANDARD
350
17
  0
DICTIONARY
  5
18
102
{ACAD_REACTORS
330
C
102
}
330
C
100
AcDbDictionary
281
     1
  0
ACDBDICTIONARYWDFLT
  5
E
102
{ACAD_REACTORS
330
C
102
}
330
C
100
AcDbDictionary
281
     1
  3
Normal
350
F
100
AcDbDictionaryWithDefault
340
F
  0
DICTIONARY
  5
DDE
102
{ACAD_REACTORS
330
C
102
}
330
C
100
AcDbDictionary
281
     1
  3
A0
350
DDF
  3
A1
350
DE0
  3
A2
350
DE1
  3
A3
350
DE2
  3
A4
350
DE3
  3
A5
350
DE4
  3
A6
350
DE5
  3
A7
350
DE6
  3
A8
350
DE7
  3
A9
350
DE8
  3
B0
350
DE9
  3
B1
350
DEA
  3
B2
350
DEB
  3
B3
350
DEC
  3
B4
350
DED
  3
B5
350
DEE
  3
B6
350
DEF
  0
DICTIONARY
  5
DF2
102
{ACAD_REACTORS
330
C
102
}
330
C
100
AcDbDictionary
281
     1
  3
Imperial24
350
DF3
  0
DICTIONARY
  5
DDC
102
{ACAD_REACTORS
330
C
102
}
330
C
100
AcDbDictionary
281
     1
  3
Standard
350
DDD
  0
DICTIONARY
  5
DC2
102
{ACAD_REACTORS
330
C
102
}
330
C
100
AcDbDictionary
281
     1
  3
2dWireframe
350
DC8
  3
Basic
350
DC7
  3
Brighten
350
DCE
  3
ColorChange
350
DD2
  3
Conceptual
350
DCB
  3
Dim
350
DCD
  3
EdgeColorOff
350
DDA
  3
Facepattern
350
DD1
  3
Flat
350
DC3
  3
FlatWithEdges
350
DC4
  3
Gouraud
350
DC5
  3
GouraudWithEdges
350
DC6
  3
Hidden
350
DCA
  3
JitterOff
350
DD8
  3
Linepattern
350
DD0
  3
OverhangOff
350
DD9
  3
Realistic
350
DCC
  3
Shaded
350
DD7
  3
Shaded with edges
350
DD6
  3
Shades of Gray
350
DD3
  3
Sketchy
350
DD4
  3
Thicken
350
DCF
  3
Wireframe
350
DC9
  3
X-Ray
350
DD5
  0
XRECORD
  5
E50
102
{ACAD_REACTORS
330
C
102
}
330
C
100
AcDbXrecord
280
     1
 90
        1
330
DDD
  0
DICTIONARY
  5
D4D
102
{ACAD_REACTORS
330
C
102
}
330
C
100
AcDbDictionary
281
     1
  3
CANNOSCALE
350
E4A
  3
CMLEADERSTYLE
350
E46
  3
CTABLESTYLE
350
E45
  3
CVIEWDETAILSTYLE
350
E47
  3
CVIEWSECTIONSTYLE
350
E48
  3
LAYEREVAL
350
E4C
  3
LAYERNOTIFY
350
E4D
  3
LIGHTINGUNITS
350
E4B
  3
MSLTSCALE
350
E49
  3
SORTENTS
350
D4E
  0
XRECORD
  5
DFF
102
{ACAD_REACTORS
330
DFE
102
}
330
DFE
100
AcDbXrecord
280
     1
290
     1
  0
XRECORD
  5
E01
102
{ACAD_REACTORS
330
E00
102
}
330
E00
100
AcDbXrecord
280
     1
290
     1
  0
XRECORD
  5
E03
102
{ACAD_REACTORS
330
E02
102
}
330
E02
100
AcDbXrecord
280
     1
290
     1
  0
XRECORD
  5
E05
102
{ACAD_REACTORS
330
E04
102
}
330
E04
100
AcDbXrecord
280
     1
290
     1
  0
XRECORD
  5
E07
102
{ACAD_REACTORS
330
E06
102
}
330
E06
100
AcDbXrecord
280
     1
290
     1
  0
XRECORD
  5
DA0
102
{ACAD_REACTORS
330
D9F
102
}
330
D9F
100
AcDbXrecord
280
     1
340
1E
  0
XRECORD
  5
D9E
102
{ACAD_REACTORS
330
D9D
102
}
330
D9D
100
AcDbXrecord
280
     1
340
1A
  0
ACDBDETAILVIEWSTYLE
  5
DF5
102
{ACAD_XDICTIONARY
360
E83
102
}
102
{ACAD_REACTORS
330
DF4
102
}
330
DF4
100
AcDbModelDocViewStyle
 70
     0
  3
Imperial24
290
     0
100
AcDbDetailViewStyle
 70
     0
 71
     0
 90
        3
 71
     1
340
11
 62
   256
 40
0.24
340
0
 62
   256
 40
0.24
300

 40
0.36
280
     3
 71
     2
340
15
 90
       25
 62
   256
 71
     3
340
11
 62
   256
 40
0.24
 90
        1
 40
0.75
 90
        1
300
%<\AcVar ViewType \f "%tc1">% %<\AcVar ViewDetailId>%\PSCALE %<\AcVar ViewScale \f "%sn">%
 71
     4
340
15
 90
       25
 62
   256
340
15
 90
       25
 62
   256
280
     0
  0
LAYOUT
  5
DF7
102
{ACAD_REACTORS
330
19
102
}
330
19
100
AcDbPlotSettings
  1

  2
\\userFS\gf659\w2k\Applications\Autodesk\AutoCAD 2015\R20.0\enu\plotters\DWG To PDF.pc3
  4
ANSI_A_(11.00_x_8.50_Inches)
  6

 40
5.793749809265136
 41
17.79375076293945
 42
5.79376220703125
 43
17.79374694824219
 44
279.3999938964844
 45
215.8999938964844
 46
0.0
 47
0.0
 48
0.0
 49
0.0
140
0.0
141
0.0
142
1.0
143
0.6928754672239115
 70
   688
 72
     0
 73
     0
 74
     1
  7

 75
     0
147
1.443260798374951
 76
     0
 77
     2
 78
   300
148
-11.94234344871114
149
-5.921526576110893
100
AcDbLayout
  1
Layout1
 70
     1
 71
     1
 10
0.3121258402613432
 20
-0.2522569605286068
 11
7.933755813229242
 21
5.637184344379513
 12
0.0
 22
0.0
 32
0.0
 14
0.4701710019177617
 24
0.233130967563421
 34
0.0
 15
7.245147771967355
 25
5.151796520346939
 35
0.0
146
0.0
 13
0.0
 23
0.0
 33
0.0
 16
1.0
 26
0.0
 36
0.0
 17
0.0
 27
1.0
 37
0.0
 76
     0
330
1A
331
D7A
1001
ACAD_PSEXT
1000
\\userFS\gf659\w2k\Applications\Autodesk\AutoCAD 2015\R20.0\enu\plotters\DWG To PDF.pc3
1000
DWG To PDF
1000
File
1000

1070
     0
  0
LAYOUT
  5
DF6
102
{ACAD_REACTORS
330
19
102
}
330
19
100
AcDbPlotSettings
  1

  2
\\userFS\gf659\w2k\Applications\Autodesk\AutoCAD 2015\R20.0\enu\plotters\DWG To PDF.pc3
  4

  6

 40
0.0
 41
0.0
 42
0.0
 43
0.0
 44
0.0
 45
0.0
 46
0.0
 47
0.0
 48
0.0
 49
0.0
140
0.0
141
0.0
142
1.0
143
1.0
 70
  1712
 72
     0
 73
     0
 74
     0
  7

 75
     0
147
1.0
 76
     0
 77
     2
 78
   300
148
0.0
149
0.0
100
AcDbLayout
  1
Model
 70
     1
 71
     0
 10
0.0
 20
0.0
 11
12.0
 21
9.0
 12
0.0
 22
0.0
 32
0.0
 14
0.0
 24
0.0
 34
0.0
 15
0.0
 25
0.0
 35
0.0
146
0.0
 13
0.0
 23
0.0
 33
0.0
 16
1.0
 26
0.0
 36
0.0
 17
0.0
 27
1.0
 37
0.0
 76
     0
330
1E
  0
MATERIAL
  5
DB2
102
{ACAD_XDICTIONARY
360
DB3
102
}
102
{ACAD_REACTORS
330
DA9
102
}
330
DA9
100
AcDbMaterial
  1
ByBlock
 72
     0
 43
0.0208333333333333
 43
0.0
 43
0.0
 43
0.0
 43
0.0
 43
0.0208333333333333
 43
0.0
 43
0.0
 43
0.0
 43
0.0
 43
1.0
 43
0.0
 43
0.0
 43
0.0
 43
0.0
 43
1.0
 77
     0
 47
0.0208333333333333
 47
0.0
 47
0.0
 47
0.0
 47
0.0
 47
0.0208333333333333
 47
0.0
 47
0.0
 47
0.0
 47
0.0
 47
1.0
 47
0.0
 47
0.0
 47
0.0
 47
0.0
 47
1.0
171
     0
 49
0.0208333333333333
 49
0.0
 49
0.0
 49
0.0
 49
0.0
 49
0.0208333333333333
 49
0.0
 49
0.0
 49
0.0
 49
0.0
 49
1.0
 49
0.0
 49
0.0
 49
0.0
 49
0.0
 49
1.0
175
     0
142
0.0208333333333333
142
0.0
142
0.0
142
0.0
142
0.0
142
0.0208333333333333
142
0.0
142
0.0
142
0.0
142
0.0
142
1.0
142
0.0
142
0.0
142
0.0
142
0.0
142
1.0
179
     0
144
0.0208333333333333
144
0.0
144
0.0
144
0.0
144
0.0
144
0.0208333333333333
144
0.0
144
0.0
144
0.0
144
0.0
144
1.0
144
0.0
144
0.0
144
0.0
144
0.0
144
1.0
147
0.0208333333333333
147
0.0
147
0.0
147
0.0
147
0.0
147
0.0208333333333333
147
0.0
147
0.0
147
0.0
147
0.0
147
1.0
147
0.0
147
0.0
147
0.0
147
0.0
147
1.0
  0
MATERIAL
  5
DAA
102
{ACAD_XDICTIONARY
360
DAB
102
}
102
{ACAD_REACTORS
330
DA9
102
}
330
DA9
100
AcDbMaterial
  1
ByLayer
 72
     0
 43
0.0208333333333333
 43
0.0
 43
0.0
 43
0.0
 43
0.0
 43
0.0208333333333333
 43
0.0
 43
0.0
 43
0.0
 43
0.0
 43
1.0
 43
0.0
 43
0.0
 43
0.0
 43
0.0
 43
1.0
 77
     0
 47
0.0208333333333333
 47
0.0
 47
0.0
 47
0.0
 47
0.0
 47
0.0208333333333333
 47
0.0
 47
0.0
 47
0.0
 47
0.0
 47
1.0
 47
0.0
 47
0.0
 47
0.0
 47
0.0
 47
1.0
171
     0
 49
0.0208333333333333
 49
0.0
 49
0.0
 49
0.0
 49
0.0
 49
0.0208333333333333
 49
0.0
 49
0.0
 49
0.0
 49
0.0
 49
1.0
 49
0.0
 49
0.0
 49
0.0
 49
0.0
 49
1.0
175
     0
142
0.0208333333333333
142
0.0
142
0.0
142
0.0
142
0.0
142
0.0208333333333333
142
0.0
142
0.0
142
0.0
142
0.0
142
1.0
142
0.0
142
0.0
142
0.0
142
0.0
142
1.0
179
     0
144
0.0208333333333333
144
0.0
144
0.0
144
0.0
144
0.0
144
0.0208333333333333
144
0.0
144
0.0
144
0.0
144
0.0
144
1.0
144
0.0
144
0.0
144
0.0
144
0.0
144
1.0
147
0.0208333333333333
147
0.0
147
0.0
147
0.0
147
0.0
147
0.0208333333333333
147
0.0
147
0.0
147
0.0
147
0.0
147
1.0
147
0.0
147
0.0
147
0.0
147
0.0
147
1.0
  0
MATERIAL
  5
DBA
102
{ACAD_XDICTIONARY
360
DBB
102
}
102
{ACAD_REACTORS
330
DA9
102
}
330
DA9
100
AcDbMaterial
  1
Global
 72
     0
 43
0.0208333333333333
 43
0.0
 43
0.0
 43
0.0
 43
0.0
 43
0.0208333333333333
 43
0.0
 43
0.0
 43
0.0
 43
0.0
 43
1.0
 43
0.0
 43
0.0
 43
0.0
 43
0.0
 43
1.0
 77
     0
 47
0.0208333333333333
 47
0.0
 47
0.0
 47
0.0
 47
0.0
 47
0.0208333333333333
 47
0.0
 47
0.0
 47
0.0
 47
0.0
 47
1.0
 47
0.0
 47
0.0
 47
0.0
 47
0.0
 47
1.0
171
     0
 49
0.0208333333333333
 49
0.0
 49
0.0
 49
0.0
 49
0.0
 49
0.0208333333333333
 49
0.0
 49
0.0
 49
0.0
 49
0.0
 49
1.0
 49
0.0
 49
0.0
 49
0.0
 49
0.0
 49
1.0
175
     0
142
0.0208333333333333
142
0.0
142
0.0
142
0.0
142
0.0
142
0.0208333333333333
142
0.0
142
0.0
142
0.0
142
0.0
142
1.0
142
0.0
142
0.0
142
0.0
142
0.0
142
1.0
179
     0
144
0.0208333333333333
144
0.0
144
0.0
144
0.0
144
0.0
144
0.0208333333333333
144
0.0
144
0.0
144
0.0
144
0.0
144
1.0
144
0.0
144
0.0
144
0.0
144
0.0
144
1.0
147
0.0208333333333333
147
0.0
147
0.0
147
0.0
147
0.0
147
0.0208333333333333
147
0.0
147
0.0
147
0.0
147
0.0
147
1.0
147
0.0
147
0.0
147
0.0
147
0.0
147
1.0
  0
MLEADERSTYLE
  5
DF1
102
{ACAD_REACTORS
330
DF0
102
}
330
DF0
100
AcDbMLeaderStyle
179
     2
170
     2
171
     1
172
     0
 90
        2
 40
0.0
 41
0.0
173
     1
 91
-1056964608
340
13
 92
       -2
290
     1
 42
0.09
291
     1
 43
0.36
  3
Standard
 44
0.18
300

342
11
174
     1
178
     6
175
     1
176
     0
 93
-1056964608
 45
0.18
292
     0
297
     0
 46
0.18
 94
-1056964608
 47
1.0
 49
1.0
140
1.0
293
     1
141
0.0
294
     1
177
     0
142
1.0
295
     0
296
     0
143
0.125
271
     0
272
     9
273
     9
  0
MLINESTYLE
  5
17
102
{ACAD_REACTORS
330
16
102
}
330
16
100
AcDbMlineStyle
  2
STANDARD
 70
     0
  3

 62
   256
 51
90.0
 52
90.0
 71
     2
 49
0.5
 62
   256
  6
BYLAYER
 49
-0.5
 62
   256
  6
BYLAYER
  0
ACDBPLACEHOLDER
  5
F
102
{ACAD_REACTORS
330
E
102
}
330
E
  0
SCALE
  5
DDF
102
{ACAD_REACTORS
330
DDE
102
}
330
DDE
100
AcDbScale
 70
     0
300
1:1
140
1.0
141
1.0
290
     1
  0
SCALE
  5
DE0
102
{ACAD_REACTORS
330
DDE
102
}
330
DDE
100
AcDbScale
 70
     0
300
1/128" = 1'-0"
140
0.0078125
141
12.0
290
     0
  0
SCALE
  5
DE1
102
{ACAD_REACTORS
330
DDE
102
}
330
DDE
100
AcDbScale
 70
     0
300
1/64" = 1'-0"
140
0.015625
141
12.0
290
     0
  0
SCALE
  5
DE2
102
{ACAD_REACTORS
330
DDE
102
}
330
DDE
100
AcDbScale
 70
     0
300
1/32" = 1'-0"
140
0.03125
141
12.0
290
     0
  0
SCALE
  5
DE3
102
{ACAD_REACTORS
330
DDE
102
}
330
DDE
100
AcDbScale
 70
     0
300
1/16" = 1'-0"
140
0.0625
141
12.0
290
     0
  0
SCALE
  5
DE4
102
{ACAD_REACTORS
330
DDE
102
}
330
DDE
100
AcDbScale
 70
     0
300
3/32" = 1'-0"
140
0.09375
141
12.0
290
     0
  0
SCALE
  5
DE5
102
{ACAD_REACTORS
330
DDE
102
}
330
DDE
100
AcDbScale
 70
     0
300
1/8" = 1'-0"
140
0.125
141
12.0
290
     0
  0
SCALE
  5
DE6
102
{ACAD_REACTORS
330
DDE
102
}
330
DDE
100
AcDbScale
 70
     0
300
3/16" = 1'-0"
140
0.1875
141
12.0
290
     0
  0
SCALE
  5
DE7
102
{ACAD_REACTORS
330
DDE
102
}
330
DDE
100
AcDbScale
 70
     0
300
1/4" = 1'-0"
140
0.25
141
12.0
290
     0
  0
SCALE
  5
DE8
102
{ACAD_REACTORS
330
DDE
102
}
330
DDE
100
AcDbScale
 70
     0
300
3/8" = 1'-0"
140
0.375
141
12.0
290
     0
  0
SCALE
  5
DE9
102
{ACAD_REACTORS
330
DDE
102
}
330
DDE
100
AcDbScale
 70
     0
300
1/2" = 1'-0"
140
0.5
141
12.0
290
     0
  0
SCALE
  5
DEA
102
{ACAD_REACTORS
330
DDE
102
}
330
DDE
100
AcDbScale
 70
     0
300
3/4" = 1'-0"
140
0.75
141
12.0
290
     0
  0
SCALE
  5
DEB
102
{ACAD_REACTORS
330
DDE
102
}
330
DDE
100
AcDbScale
 70
     0
300
1" = 1'-0"
140
1.0
141
12.0
290
     0
  0
SCALE
  5
DEC
102
{ACAD_REACTORS
330
DDE
102
}
330
DDE
100
AcDbScale
 70
     0
300
1-1/2" = 1'-0"
140
1.5
141
12.0
290
     0
  0
SCALE
  5
DED
102
{ACAD_REACTORS
330
DDE
102
}
330
DDE
100
AcDbScale
 70
     0
300
3" = 1'-0"
140
3.0
141
12.0
290
     0
  0
SCALE
  5
DEE
102
{ACAD_REACTORS
330
DDE
102
}
330
DDE
100
AcDbScale
 70
     0
300
6" = 1'-0"
140
6.0
141
12.0
290
     0
  0
SCALE
  5
DEF
102
{ACAD_REACTORS
330
DDE
102
}
330
DDE
100
AcDbScale
 70
     0
300
1'-0" = 1'-0"
140
12.0
141
12.0
290
     0
  0
ACDBSECTIONVIEWSTYLE
  5
DF3
102
{ACAD_XDICTIONARY
360
E81
102
}
102
{ACAD_REACTORS
330
DF2
102
}
330
DF2
100
AcDbModelDocViewStyle
 70
     0
  3
Imperial24
290
     0
100
AcDbSectionViewStyle
 70
     0
 71
     0
 90
       78
 71
     1
340
11
 62
   256
 40
0.24
340
0
340
0
 62
   256
 40
0.24
300
I, O, Q, S, X, Z
 40
0.48
 90
        3
 40
0.18
 90
        1
 71
     2
340
15
 90
       25
 62
   256
340
15
 90
       50
 62
   256
 40
0.24
 40
0.0
 40
0.24
 71
     3
340
11
 62
   256
 40
0.24
 90
        1
 40
0.75
 90
        1
300
%<\AcVar ViewType \f "%tc1">% %<\AcVar ViewSectionStartId>%-%<\AcVar ViewSectionEndId>%\PSCALE %<\AcVar ViewScale \f "%sn">%
 71
     4
 62
   256
 62
   257
300
ANSI31
 40
1.0
 90
        0
290
     0
290
     0
 90
        6
 40
0.0
 40
1.570796326794896
 40
0.2617993877991494
 40
1.308996938995747
 40
-0.2617993877991494
 40
1.832595714594046
  0
TABLESTYLE
  5
DDD
102
{ACAD_XDICTIONARY
360
E4E
102
}
102
{ACAD_REACTORS
330
DDC
102
}
330
DDC
100
AcDbTableStyle
280
     0
  3
Standard
 70
     0
 71
     0
 40
0.06
 41
0.06
280
     0
281
     0
  7
STANDARD
140
0.18
170
     2
 62
     0
 63
     7
283
     0
 90
      512
 91
        0
  1

274
    -2
284
     1
 64
     0
275
    -2
285
     1
 65
     0
276
    -2
286
     1
 66
     0
277
    -2
287
     1
 67
     0
278
    -2
288
     1
 68
     0
279
    -2
289
     1
 69
     0
  7
STANDARD
140
0.25
170
     5
 62
     0
 63
     7
283
     0
 90
      512
 91
        0
  1

274
    -2
284
     1
 64
     0
275
    -2
285
     1
 65
     0
276
    -2
286
     1
 66
     0
277
    -2
287
     1
 67
     0
278
    -2
288
     1
 68
     0
279
    -2
289
     1
 69
     0
  7
STANDARD
140
0.18
170
     5
 62
     0
 63
     7
283
     0
 90
      512
 91
        0
  1

274
    -2
284
     1
 64
     0
275
    -2
285
     1
 65
     0
276
    -2
286
     1
 66
     0
277
    -2
287
     1
 67
     0
278
    -2
288
     1
 68
     0
279
    -2
289
     1
 69
     0
  0
VISUALSTYLE
  5
DC8
102
{ACAD_XDICTIONARY
360
E5B
102
}
102
{ACAD_REACTORS
330
DC2
102
}
330
DC2
100
AcDbVisualStyle
  2
2dWireframe
 70
     4
177
     2
291
     0
 71
     0
176
     1
 72
     2
176
     1
 73
     0
176
     1
 90
        0
176
     1
 40
0.6
176
     1
 41
30.0
176
     1
 63
     7
421
 16777215
176
     1
 74
     1
176
     1
 91
        4
176
     1
 64
     7
176
     1
 65
   257
176
     1
 75
     1
176
     1
175
     1
176
     1
 42
1.0
176
     1
 92
        0
176
     1
 66
   257
176
     1
 43
1.0
176
     1
 76
     1
176
     1
 77
     6
176
     1
 78
     2
176
     1
 67
     7
176
     1
 79
     5
176
     1
170
     0
176
     1
171
     0
176
     1
290
     0
176
     1
 93
        1
176
     1
 44
0.0
176
     1
173
     0
176
     1
1001
ACAD
1000
AcDbSavedByObjectVersion
1070
     0
  0
VISUALSTYLE
  5
DC7
102
{ACAD_XDICTIONARY
360
E59
102
}
102
{ACAD_REACTORS
330
DC2
102
}
330
DC2
100
AcDbVisualStyle
  2
Basic
 70
     7
177
     2
291
     1
 71
     1
176
     1
 72
     0
176
     1
 73
     1
176
     1
 90
        0
176
     1
 40
0.6
176
     1
 41
30.0
176
     1
 63
     7
421
 16777215
176
     1
 74
     0
176
     1
 91
        4
176
     1
 64
     7
176
     1
 65
   257
176
     1
 75
     1
176
     1
175
     1
176
     1
 42
1.0
176
     1
 92
        8
176
     1
 66
     7
176
     1
 43
1.0
176
     1
 76
     1
176
     1
 77
     6
176
     1
 78
     2
176
     1
 67
     7
176
     1
 79
     5
176
     1
170
     0
176
     1
171
     0
176
     1
290
     0
176
     1
 93
        1
176
     1
 44
0.0
176
     1
173
     0
176
     1
1001
ACAD
1000
AcDbSavedByObjectVersion
1070
     0
  0
VISUALSTYLE
  5
DCE
102
{ACAD_XDICTIONARY
360
E67
102
}
102
{ACAD_REACTORS
330
DC2
102
}
330
DC2
100
AcDbVisualStyle
  2
Brighten
 70
    12
177
     2
291
     1
 71
     2
176
     1
 72
     2
176
     1
 73
     0
176
     1
 90
        0
176
     1
 40
0.6
176
     1
 41
30.0
176
     1
 63
     7
421
 16777215
176
     1
 74
     1
176
     1
 91
        4
176
     1
 64
     7
176
     1
 65
   257
176
     1
 75
     1
176
     1
175
     1
176
     1
 42
1.0
176
     1
 92
        8
176
     1
 66
     7
176
     1
 43
1.0
176
     1
 76
     1
176
     1
 77
     6
176
     1
 78
     2
176
     1
 67
     7
176
     1
 79
     5
176
     1
170
     0
176
     1
171
     0
176
     1
290
     0
176
     1
 93
        1
176
     1
 44
50.0
176
     1
173
     0
176
     1
1001
ACAD
1000
AcDbSavedByObjectVersion
1070
     0
  0
VISUALSTYLE
  5
DD2
102
{ACAD_XDICTIONARY
360
E6F
102
}
102
{ACAD_REACTORS
330
DC2
102
}
330
DC2
100
AcDbVisualStyle
  2
ColorChange
 70
    16
177
     2
291
     1
 71
     2
176
     1
 72
     2
176
     1
 73
     3
176
     1
 90
        0
176
     1
 40
0.6
176
     1
 41
30.0
176
     1
 63
     8
421
  8421504
176
     1
 74
     1
176
     1
 91
        4
176
     1
 64
     7
176
     1
 65
   257
176
     1
 75
     1
176
     1
175
     1
176
     1
 42
1.0
176
     1
 92
        8
176
     1
 66
     8
424
  8421504
176
     1
 43
1.0
176
     1
 76
     1
176
     1
 77
     6
176
     1
 78
     2
176
     1
 67
     7
176
     1
 79
     5
176
     1
170
     0
176
     1
171
     0
176
     1
290
     0
176
     1
 93
        1
176
     1
 44
0.0
176
     1
173
     0
176
     1
1001
ACAD
1000
AcDbSavedByObjectVersion
1070
     0
  0
VISUALSTYLE
  5
DCB
102
{ACAD_XDICTIONARY
360
E61
102
}
102
{ACAD_REACTORS
330
DC2
102
}
330
DC2
100
AcDbVisualStyle
  2
Conceptual
 70
     9
177
     2
291
     0
 71
     3
176
     1
 72
     2
176
     1
 73
     0
176
     1
 90
        0
176
     1
 40
0.6
176
     1
 41
30.0
176
     1
 63
     7
421
 16777215
176
     1
 74
     2
176
     1
 91
        2
176
     1
 64
     7
176
     1
 65
   257
176
     1
 75
     1
176
     1
175
     1
176
     1
 42
179.0
176
     1
 92
        8
176
     1
 66
     7
176
     1
 43
1.0
176
     1
 76
     1
176
     1
 77
     6
176
     1
 78
     2
176
     1
 67
     7
176
     1
 79
     3
176
     1
170
     0
176
     1
171
     0
176
     1
290
     0
176
     1
 93
        1
176
     1
 44
0.0
176
     1
173
     0
176
     1
1001
ACAD
1000
AcDbSavedByObjectVersion
1070
     0
  0
VISUALSTYLE
  5
DCD
102
{ACAD_XDICTIONARY
360
E65
102
}
102
{ACAD_REACTORS
330
DC2
102
}
330
DC2
100
AcDbVisualStyle
  2
Dim
 70
    11
177
     2
291
     1
 71
     2
176
     1
 72
     2
176
     1
 73
     0
176
     1
 90
        0
176
     1
 40
0.6
176
     1
 41
30.0
176
     1
 63
     7
421
 16777215
176
     1
 74
     1
176
     1
 91
        4
176
     1
 64
     7
176
     1
 65
   257
176
     1
 75
     1
176
     1
175
     1
176
     1
 42
1.0
176
     1
 92
        8
176
     1
 66
     7
176
     1
 43
1.0
176
     1
 76
     1
176
     1
 77
     6
176
     1
 78
     2
176
     1
 67
     7
176
     1
 79
     5
176
     1
170
     0
176
     1
171
     0
176
     1
290
     0
176
     1
 93
        1
176
     1
 44
-50.0
176
     1
173
     0
176
     1
1001
ACAD
1000
AcDbSavedByObjectVersion
1070
     0
  0
VISUALSTYLE
  5
DDA
102
{ACAD_XDICTIONARY
360
E7F
102
}
102
{ACAD_REACTORS
330
DC2
102
}
330
DC2
100
AcDbVisualStyle
  2
EdgeColorOff
 70
    22
177
     2
291
     1
 71
     2
176
     0
 72
     2
176
     0
 73
     0
176
     0
 90
        0
176
     0
 40
0.6
176
     0
 41
30.0
176
     0
 63
     7
421
 16777215
176
     0
 74
     1
176
     0
 91
        4
176
     0
 64
     7
176
     0
 65
   257
176
     0
 75
     1
176
     0
175
     1
176
     0
 42
1.0
176
     0
 92
        8
176
     2
 66
     7
176
     0
 43
1.0
176
     0
 76
     1
176
     0
 77
     6
176
     0
 78
     2
176
     0
 67
     7
176
     0
 79
     5
176
     0
170
     0
176
     0
171
     0
176
     0
290
     0
176
     0
 93
        1
176
     0
 44
0.0
176
     0
173
     0
176
     0
1001
ACAD
1000
AcDbSavedByObjectVersion
1070
     0
  0
VISUALSTYLE
  5
DD1
102
{ACAD_XDICTIONARY
360
E6D
102
}
102
{ACAD_REACTORS
330
DC2
102
}
330
DC2
100
AcDbVisualStyle
  2
Facepattern
 70
    15
177
     2
291
     1
 71
     2
176
     1
 72
     2
176
     1
 73
     0
176
     1
 90
        0
176
     1
 40
0.6
176
     1
 41
30.0
176
     1
 63
     7
421
 16777215
176
     1
 74
     1
176
     1
 91
        4
176
     1
 64
     7
176
     1
 65
   257
176
     1
 75
     1
176
     1
175
     1
176
     1
 42
1.0
176
     1
 92
        8
176
     1
 66
     7
176
     1
 43
1.0
176
     1
 76
     1
176
     1
 77
     6
176
     1
 78
     2
176
     1
 67
     7
176
     1
 79
     5
176
     1
170
     0
176
     1
171
     0
176
     1
290
     0
176
     1
 93
        1
176
     1
 44
0.0
176
     1
173
     0
176
     1
1001
ACAD
1000
AcDbSavedByObjectVersion
1070
     0
  0
VISUALSTYLE
  5
DC3
102
{ACAD_XDICTIONARY
360
E51
102
}
102
{ACAD_REACTORS
330
DC2
102
}
330
DC2
100
AcDbVisualStyle
  2
Flat
 70
     0
177
     2
291
     1
 71
     2
176
     1
 72
     1
176
     1
 73
     1
176
     1
 90
        2
176
     1
 40
0.6
176
     1
 41
30.0
176
     1
 63
     7
421
 16777215
176
     1
 74
     0
176
     1
 91
        0
176
     1
 64
     7
176
     1
 65
   257
176
     1
 75
     1
176
     1
175
     1
176
     1
 42
1.0
176
     1
 92
        8
176
     1
 66
     7
176
     1
 43
1.0
176
     1
 76
     1
176
     1
 77
     6
176
     1
 78
     2
176
     1
 67
     7
176
     1
 79
     5
176
     1
170
     0
176
     1
171
     0
176
     1
290
     0
176
     1
 93
       13
176
     1
 44
0.0
176
     1
173
     0
176
     1
1001
ACAD
1000
AcDbSavedByObjectVersion
1070
     0
  0
VISUALSTYLE
  5
DC4
102
{ACAD_XDICTIONARY
360
E53
102
}
102
{ACAD_REACTORS
330
DC2
102
}
330
DC2
100
AcDbVisualStyle
  2
FlatWithEdges
 70
     1
177
     2
291
     1
 71
     2
176
     1
 72
     1
176
     1
 73
     1
176
     1
 90
        2
176
     1
 40
0.6
176
     1
 41
30.0
176
     1
 63
     7
421
 16777215
176
     1
 74
     1
176
     1
 91
        0
176
     1
 64
     7
176
     1
 65
   257
176
     1
 75
     1
176
     1
175
     1
176
     1
 42
1.0
176
     1
 92
        0
176
     1
 66
   257
176
     1
 43
1.0
176
     1
 76
     1
176
     1
 77
     6
176
     1
 78
     2
176
     1
 67
     7
176
     1
 79
     5
176
     1
170
     0
176
     1
171
     0
176
     1
290
     0
176
     1
 93
       13
176
     1
 44
0.0
176
     1
173
     0
176
     1
1001
ACAD
1000
AcDbSavedByObjectVersion
1070
     0
  0
VISUALSTYLE
  5
DC5
102
{ACAD_XDICTIONARY
360
E55
102
}
102
{ACAD_REACTORS
330
DC2
102
}
330
DC2
100
AcDbVisualStyle
  2
Gouraud
 70
     2
177
     2
291
     1
 71
     2
176
     1
 72
     2
176
     1
 73
     1
176
     1
 90
        2
176
     1
 40
0.6
176
     1
 41
30.0
176
     1
 63
     7
421
 16777215
176
     1
 74
     0
176
     1
 91
        0
176
     1
 64
     7
176
     1
 65
   257
176
     1
 75
     1
176
     1
175
     1
176
     1
 42
1.0
176
     1
 92
        0
176
     1
 66
     7
176
     1
 43
1.0
176
     1
 76
     1
176
     1
 77
     6
176
     1
 78
     2
176
     1
 67
     7
176
     1
 79
     5
176
     1
170
     0
176
     1
171
     0
176
     1
290
     0
176
     1
 93
       13
176
     1
 44
0.0
176
     1
173
     0
176
     1
1001
ACAD
1000
AcDbSavedByObjectVersion
1070
     0
  0
VISUALSTYLE
  5
DC6
102
{ACAD_XDICTIONARY
360
E57
102
}
102
{ACAD_REACTORS
330
DC2
102
}
330
DC2
100
AcDbVisualStyle
  2
GouraudWithEdges
 70
     3
177
     2
291
     1
 71
     2
176
     1
 72
     2
176
     1
 73
     1
176
     1
 90
        2
176
     1
 40
0.6
176
     1
 41
30.0
176
     1
 63
     7
421
 16777215
176
     1
 74
     1
176
     1
 91
        0
176
     1
 64
     7
176
     1
 65
   257
176
     1
 75
     1
176
     1
175
     1
176
     1
 42
1.0
176
     1
 92
        0
176
     1
 66
   257
176
     1
 43
1.0
176
     1
 76
     1
176
     1
 77
     6
176
     1
 78
     2
176
     1
 67
     7
176
     1
 79
     5
176
     1
170
     0
176
     1
171
     0
176
     1
290
     0
176
     1
 93
       13
176
     1
 44
0.0
176
     1
173
     0
176
     1
1001
ACAD
1000
AcDbSavedByObjectVersion
1070
     0
  0
VISUALSTYLE
  5
DCA
102
{ACAD_XDICTIONARY
360
E5F
102
}
102
{ACAD_REACTORS
330
DC2
102
}
330
DC2
100
AcDbVisualStyle
  2
Hidden
 70
     6
177
     2
291
     0
 71
     1
176
     1
 72
     2
176
     1
 73
     2
176
     1
 90
        0
176
     1
 40
0.6
176
     1
 41
30.0
176
     1
 63
     7
421
 16777215
176
     1
 74
     2
176
     1
 91
        2
176
     1
 64
     7
176
     1
 65
   257
176
     1
 75
     2
176
     1
175
     1
176
     1
 42
40.0
176
     1
 92
        0
176
     1
 66
   257
176
     1
 43
1.0
176
     1
 76
     1
176
     1
 77
     6
176
     1
 78
     2
176
     1
 67
     7
176
     1
 79
     3
176
     1
170
     0
176
     1
171
     0
176
     1
290
     0
176
     1
 93
        1
176
     1
 44
0.0
176
     1
173
     0
176
     1
1001
ACAD
1000
AcDbSavedByObjectVersion
1070
     0
  0
VISUALSTYLE
  5
DD8
102
{ACAD_XDICTIONARY
360
E7B
102
}
102
{ACAD_REACTORS
330
DC2
102
}
330
DC2
100
AcDbVisualStyle
  2
JitterOff
 70
    20
177
     2
291
     1
 71
     2
176
     0
 72
     2
176
     0
 73
     0
176
     0
 90
        0
176
     0
 40
0.6
176
     0
 41
30.0
176
     0
 63
     7
421
 16777215
176
     0
 74
     1
176
     0
 91
        4
176
     0
 64
     7
176
     0
 65
   257
176
     0
 75
     1
176
     0
175
     1
176
     0
 42
1.0
176
     0
 92
       10
176
     2
 66
     7
176
     0
 43
1.0
176
     0
 76
     1
176
     0
 77
     6
176
     0
 78
     2
176
     0
 67
     7
176
     0
 79
     5
176
     0
170
     0
176
     0
171
     0
176
     0
290
     0
176
     0
 93
        1
176
     0
 44
0.0
176
     0
173
     0
176
     0
1001
ACAD
1000
AcDbSavedByObjectVersion
1070
     0
  0
VISUALSTYLE
  5
DD0
102
{ACAD_XDICTIONARY
360
E6B
102
}
102
{ACAD_REACTORS
330
DC2
102
}
330
DC2
100
AcDbVisualStyle
  2
Linepattern
 70
    14
177
     2
291
     1
 71
     2
176
     1
 72
     2
176
     1
 73
     0
176
     1
 90
        0
176
     1
 40
0.6
176
     1
 41
30.0
176
     1
 63
     7
421
 16777215
176
     1
 74
     1
176
     1
 91
        4
176
     1
 64
     7
176
     1
 65
   257
176
     1
 75
     7
176
     1
175
     7
176
     1
 42
1.0
176
     1
 92
        8
176
     1
 66
     7
176
     1
 43
1.0
176
     1
 76
     1
176
     1
 77
     6
176
     1
 78
     2
176
     1
 67
     7
176
     1
 79
     5
176
     1
170
     0
176
     1
171
     0
176
     1
290
     0
176
     1
 93
        1
176
     1
 44
0.0
176
     1
173
     0
176
     1
1001
ACAD
1000
AcDbSavedByObjectVersion
1070
     0
  0
VISUALSTYLE
  5
DD9
102
{ACAD_XDICTIONARY
360
E7D
102
}
102
{ACAD_REACTORS
330
DC2
102
}
330
DC2
100
AcDbVisualStyle
  2
OverhangOff
 70
    21
177
     2
291
     1
 71
     2
176
     0
 72
     2
176
     0
 73
     0
176
     0
 90
        0
176
     0
 40
0.6
176
     0
 41
30.0
176
     0
 63
     7
421
 16777215
176
     0
 74
     1
176
     0
 91
        4
176
     0
 64
     7
176
     0
 65
   257
176
     0
 75
     1
176
     0
175
     1
176
     0
 42
1.0
176
     0
 92
        9
176
     2
 66
     7
176
     0
 43
1.0
176
     0
 76
     1
176
     0
 77
     6
176
     0
 78
     2
176
     0
 67
     7
176
     0
 79
     5
176
     0
170
     0
176
     0
171
     0
176
     0
290
     0
176
     0
 93
        1
176
     0
 44
0.0
176
     0
173
     0
176
     0
1001
ACAD
1000
AcDbSavedByObjectVersion
1070
     0
  0
VISUALSTYLE
  5
DCC
102
{ACAD_XDICTIONARY
360
E63
102
}
102
{ACAD_REACTORS
330
DC2
102
}
330
DC2
100
AcDbVisualStyle
  2
Realistic
 70
     8
177
     2
291
     0
 71
     2
176
     1
 72
     3
176
     1
 73
     0
176
     1
 90
        2
176
     1
 40
0.6
176
     1
 41
30.0
176
     1
 63
     7
421
 16777215
176
     1
 74
     0
176
     1
 91
        0
176
     1
 64
     7
176
     1
 65
   257
176
     1
 75
     1
176
     1
175
     1
176
     1
 42
1.0
176
     1
 92
        8
176
     1
 66
   257
176
     1
 43
1.0
176
     1
 76
     1
176
     1
 77
     6
176
     1
 78
     2
176
     1
 67
     7
176
     1
 79
     3
176
     1
170
     0
176
     1
171
     0
176
     1
290
     0
176
     1
 93
       13
176
     1
 44
0.0
176
     1
173
     0
176
     1
1001
ACAD
1000
AcDbSavedByObjectVersion
1070
     0
  0
VISUALSTYLE
  5
DD7
102
{ACAD_XDICTIONARY
360
E79
102
}
102
{ACAD_REACTORS
330
DC2
102
}
330
DC2
100
AcDbVisualStyle
  2
Shaded
 70
    27
177
     2
291
     0
 71
     2
176
     1
 72
     2
176
     1
 73
     1
176
     1
 90
        2
176
     1
 40
0.6
176
     1
 41
30.0
176
     1
 63
     7
421
 16777215
176
     1
 74
     0
176
     1
 91
        4
176
     1
 64
     7
176
     1
 65
   257
176
     1
 75
     1
176
     1
175
     1
176
     1
 42
1.0
176
     1
 92
        8
176
     1
 66
   257
176
     1
 43
1.0
176
     1
 76
     1
176
     1
 77
     6
176
     1
 78
     2
176
     1
 67
     8
425
  7895160
176
     1
 79
     3
176
     1
170
     0
176
     1
171
     0
176
     1
290
     0
176
     1
 93
        5
176
     1
 44
0.0
176
     1
173
     0
176
     1
1001
ACAD
1000
AcDbSavedByObjectVersion
1070
     0
  0
VISUALSTYLE
  5
DD6
102
{ACAD_XDICTIONARY
360
E77
102
}
102
{ACAD_REACTORS
330
DC2
102
}
330
DC2
100
AcDbVisualStyle
  2
Shaded with edges
 70
    26
177
     2
291
     0
 71
     2
176
     1
 72
     2
176
     1
 73
     1
176
     1
 90
        2
176
     1
 40
0.6
176
     1
 41
30.0
176
     1
 63
     7
421
 16777215
176
     1
 74
     1
176
     1
 91
       10
176
     1
 64
     7
176
     1
 65
   257
176
     1
 75
     2
176
     1
175
     1
176
     1
 42
1.0
176
     1
 92
        8
176
     1
 66
   257
176
     1
 43
1.0
176
     1
 76
     1
176
     1
 77
     6
176
     1
 78
     2
176
     1
 67
     7
176
     1
 79
     3
176
     1
170
     0
176
     1
171
     0
176
     1
290
     0
176
     1
 93
        5
176
     1
 44
0.0
176
     1
173
     0
176
     1
1001
ACAD
1000
AcDbSavedByObjectVersion
1070
     0
  0
VISUALSTYLE
  5
DD3
102
{ACAD_XDICTIONARY
360
E71
102
}
102
{ACAD_REACTORS
330
DC2
102
}
330
DC2
100
AcDbVisualStyle
  2
Shades of Gray
 70
    23
177
     2
291
     0
 71
     2
176
     1
 72
     2
176
     1
 73
     3
176
     1
 90
        0
176
     1
 40
0.6
176
     1
 41
30.0
176
     1
 63
     7
421
 16777215
176
     1
 74
     2
176
     1
 91
        2
176
     1
 64
     7
176
     1
 65
     7
176
     1
 75
     1
176
     1
175
     1
176
     1
 42
40.0
176
     1
 92
        8
176
     1
 66
     7
176
     1
 43
1.0
176
     1
 76
     1
176
     1
 77
     6
176
     1
 78
     2
176
     1
 67
     7
176
     1
 79
     3
176
     1
170
     0
176
     1
171
     0
176
     1
290
     0
176
     1
 93
        1
176
     1
 44
0.0
176
     1
173
     0
176
     1
1001
ACAD
1000
AcDbSavedByObjectVersion
1070
     0
  0
VISUALSTYLE
  5
DD4
102
{ACAD_XDICTIONARY
360
E73
102
}
102
{ACAD_REACTORS
330
DC2
102
}
330
DC2
100
AcDbVisualStyle
  2
Sketchy
 70
    24
177
     2
291
     0
 71
     1
176
     1
 72
     2
176
     1
 73
     2
176
     1
 90
        0
176
     1
 40
0.6
176
     1
 41
30.0
176
     1
 63
     7
421
 16777215
176
     1
 74
     2
176
     1
 91
        2
176
     1
 64
     7
176
     1
 65
     7
176
     1
 75
     1
176
     1
175
     1
176
     1
 42
40.0
176
     1
 92
       11
176
     1
 66
     7
176
     1
 43
1.0
176
     1
 76
     1
176
     1
 77
     6
176
     1
 78
     2
176
     1
 67
     7
176
     1
 79
     6
176
     1
170
     0
176
     1
171
     0
176
     1
290
     0
176
     1
 93
        1
176
     1
 44
0.0
176
     1
173
     0
176
     1
1001
ACAD
1000
AcDbSavedByObjectVersion
1070
     0
  0
VISUALSTYLE
  5
DCF
102
{ACAD_XDICTIONARY
360
E69
102
}
102
{ACAD_REACTORS
330
DC2
102
}
330
DC2
100
AcDbVisualStyle
  2
Thicken
 70
    13
177
     2
291
     1
 71
     2
176
     1
 72
     2
176
     1
 73
     0
176
     1
 90
        0
176
     1
 40
0.6
176
     1
 41
30.0
176
     1
 63
     7
421
 16777215
176
     1
 74
     1
176
     1
 91
        4
176
     1
 64
     7
176
     1
 65
   257
176
     1
 75
     1
176
     1
175
     1
176
     1
 42
1.0
176
     1
 92
       12
176
     1
 66
     7
176
     1
 43
1.0
176
     1
 76
     1
176
     1
 77
     6
176
     1
 78
     2
176
     1
 67
     7
176
     1
 79
     5
176
     1
170
     0
176
     1
171
     0
176
     1
290
     0
176
     1
 93
        1
176
     1
 44
0.0
176
     1
173
     0
176
     1
1001
ACAD
1000
AcDbSavedByObjectVersion
1070
     0
  0
VISUALSTYLE
  5
DC9
102
{ACAD_XDICTIONARY
360
E5D
102
}
102
{ACAD_REACTORS
330
DC2
102
}
330
DC2
100
AcDbVisualStyle
  2
Wireframe
 70
     5
177
     2
291
     0
 71
     0
176
     1
 72
     2
176
     1
 73
     0
176
     1
 90
        0
176
     1
 40
0.6
176
     1
 41
30.0
176
     1
 63
     7
421
 16777215
176
     1
 74
     1
176
     1
 91
        4
176
     1
 64
     7
176
     1
 65
   257
176
     1
 75
     1
176
     1
175
     1
176
     1
 42
1.0
176
     1
 92
        0
176
     1
 66
   257
176
     1
 43
1.0
176
     1
 76
     1
176
     1
 77
     6
176
     1
 78
     2
176
     1
 67
     7
176
     1
 79
     3
176
     1
170
     0
176
     1
171
     0
176
     1
290
     0
176
     1
 93
        1
176
     1
 44
0.0
176
     1
173
     0
176
     1
1001
ACAD
1000
AcDbSavedByObjectVersion
1070
     0
  0
VISUALSTYLE
  5
DD5
102
{ACAD_XDICTIONARY
360
E75
102
}
102
{ACAD_REACTORS
330
DC2
102
}
330
DC2
100
AcDbVisualStyle
  2
X-Ray
 70
    25
177
     2
291
     0
 71
     2
176
     1
 72
     2
176
     1
 73
     1
176
     1
 90
        1
176
     1
 40
0.5
176
     1
 41
30.0
176
     1
 63
     7
421
 16777215
176
     1
 74
     1
176
     1
 91
        0
176
     1
 64
     7
176
     1
 65
   257
176
     1
 75
     1
176
     1
175
     1
176
     1
 42
1.0
176
     1
 92
        8
176
     1
 66
     7
176
     1
 43
1.0
176
     1
 76
     1
176
     1
 77
     6
176
     1
 78
     2
176
     1
 67
     7
176
     1
 79
     3
176
     1
170
     0
176
     1
171
     0
176
     1
290
     0
176
     1
 93
       13
176
     1
 44
0.0
176
     1
173
     0
176
     1
1001
ACAD
1000
AcDbSavedByObjectVersion
1070
     0
  0
DICTIONARYVAR
  5
E4A
102
{ACAD_REACTORS
330
D4D
102
}
330
D4D
100
DictionaryVariables
280
     0
  1
1:1
  0
DICTIONARYVAR
  5
E46
102
{ACAD_REACTORS
330
D4D
102
}
330
D4D
100
DictionaryVariables
280
     0
  1
STANDARD
  0
DICTIONARYVAR
  5
E45
102
{ACAD_REACTORS
330
D4D
102
}
330
D4D
100
DictionaryVariables
280
     0
  1
STANDARD
  0
DICTIONARYVAR
  5
E47
102
{ACAD_REACTORS
330
D4D
102
}
330
D4D
100
DictionaryVariables
280
     0
  1
Imperial24
  0
DICTIONARYVAR
  5
E48
102
{ACAD_REACTORS
330
D4D
102
}
330
D4D
100
DictionaryVariables
280
     0
  1
Imperial24
  0
DICTIONARYVAR
  5
E4C
102
{ACAD_REACTORS
330
D4D
102
}
330
D4D
100
DictionaryVariables
280
     0
  1
1
  0
DICTIONARYVAR
  5
E4D
102
{ACAD_REACTORS
330
D4D
102
}
330
D4D
100
DictionaryVariables
280
     0
  1
15
  0
DICTIONARYVAR
  5
E4B
102
{ACAD_REACTORS
330
D4D
102
}
330
D4D
100
DictionaryVariables
280
     0
  1
0
  0
DICTIONARYVAR
  5
E49
102
{ACAD_REACTORS
330
D4D
102
}
330
D4D
100
DictionaryVariables
280
     0
  1
0
  0
DICTIONARYVAR
  5
D4E
102
{ACAD_REACTORS
330
D4D
102
}
330
D4D
100
DictionaryVariables
280
     0
  1
96
  0
DICTIONARY
  5
E83
330
DF5
100
AcDbDictionary
280
     1
281
     1
  3
ACAD_XREC_ROUNDTRIP
360
E84
  0
DICTIONARY
  5
DB3
330
DB2
100
AcDbDictionary
280
     1
281
     1
  3
BUMPTILE
360
DB5
  3
DIFFUSETILE
360
DB4
  3
OPACITYTILE
360
DB8
  3
REFLECTIONTILE
360
DB7
  3
REFRACTIONTILE
360
DB9
  3
SPECULARTILE
360
DB6
  0
DICTIONARY
  5
DAB
330
DAA
100
AcDbDictionary
280
     1
281
     1
  3
BUMPTILE
360
DAD
  3
DIFFUSETILE
360
DAC
  3
OPACITYTILE
360
DB0
  3
REFLECTIONTILE
360
DAF
  3
REFRACTIONTILE
360
DB1
  3
SPECULARTILE
360
DAE
  0
DICTIONARY
  5
DBB
330
DBA
100
AcDbDictionary
280
     1
281
     1
  3
BUMPTILE
360
DBD
  3
DIFFUSETILE
360
DBC
  3
OPACITYTILE
360
DC0
  3
REFLECTIONTILE
360
DBF
  3
REFRACTIONTILE
360
DC1
  3
SPECULARTILE
360
DBE
  0
DICTIONARY
  5
E81
330
DF3
100
AcDbDictionary
280
     1
281
     1
  3
ACAD_XREC_ROUNDTRIP
360
E82
  0
DICTIONARY
  5
E4E
330
DDD
100
AcDbDictionary
280
     1
281
     1
  3
ACAD_ROUNDTRIP_2008_TABLESTYLE_CELLSTYLEMAP
360
E4F
  0
DICTIONARY
  5
E5B
330
DC8
100
AcDbDictionary
280
     1
281
     1
  3
ACAD_XREC_ROUNDTRIP
360
E5C
  0
DICTIONARY
  5
E59
330
DC7
100
AcDbDictionary
280
     1
281
     1
  3
ACAD_XREC_ROUNDTRIP
360
E5A
  0
DICTIONARY
  5
E67
330
DCE
100
AcDbDictionary
280
     1
281
     1
  3
ACAD_XREC_ROUNDTRIP
360
E68
  0
DICTIONARY
  5
E6F
330
DD2
100
AcDbDictionary
280
     1
281
     1
  3
ACAD_XREC_ROUNDTRIP
360
E70
  0
DICTIONARY
  5
E61
330
DCB
100
AcDbDictionary
280
     1
281
     1
  3
ACAD_XREC_ROUNDTRIP
360
E62
  0
DICTIONARY
  5
E65
330
DCD
100
AcDbDictionary
280
     1
281
     1
  3
ACAD_XREC_ROUNDTRIP
360
E66
  0
DICTIONARY
  5
E7F
330
DDA
100
AcDbDictionary
280
     1
281
     1
  3
ACAD_XREC_ROUNDTRIP
360
E80
  0
DICTIONARY
  5
E6D
330
DD1
100
AcDbDictionary
280
     1
281
     1
  3
ACAD_XREC_ROUNDTRIP
360
E6E
  0
DICTIONARY
  5
E51
330
DC3
100
AcDbDictionary
280
     1
281
     1
  3
ACAD_XREC_ROUNDTRIP
360
E52
  0
DICTIONARY
  5
E53
330
DC4
100
AcDbDictionary
280
     1
281
     1
  3
ACAD_XREC_ROUNDTRIP
360
E54
  0
DICTIONARY
  5
E55
330
DC5
100
AcDbDictionary
280
     1
281
     1
  3
ACAD_XREC_ROUNDTRIP
360
E56
  0
DICTIONARY
  5
E57
330
DC6
100
AcDbDictionary
280
     1
281
     1
  3
ACAD_XREC_ROUNDTRIP
360
E58
  0
DICTIONARY
  5
E5F
330
DCA
100
AcDbDictionary
280
     1
281
     1
  3
ACAD_XREC_ROUNDTRIP
360
E60
  0
DICTIONARY
  5
E7B
330
DD8
100
AcDbDictionary
280
     1
281
     1
  3
ACAD_XREC_ROUNDTRIP
360
E7C
  0
DICTIONARY
  5
E6B
330
DD0
100
AcDbDictionary
280
     1
281
     1
  3
ACAD_XREC_ROUNDTRIP
360
E6C
  0
DICTIONARY
  5
E7D
330
DD9
100
AcDbDictionary
280
     1
281
     1
  3
ACAD_XREC_ROUNDTRIP
360
E7E
  0
DICTIONARY
  5
E63
330
DCC
100
AcDbDictionary
280
     1
281
     1
  3
ACAD_XREC_ROUNDTRIP
360
E64
  0
DICTIONARY
  5
E79
330
DD7
100
AcDbDictionary
280
     1
281
     1
  3
ACAD_XREC_ROUNDTRIP
360
E7A
  0
DICTIONARY
  5
E77
330
DD6
100
AcDbDictionary
280
     1
281
     1
  3
ACAD_XREC_ROUNDTRIP
360
E78
  0
DICTIONARY
  5
E71
330
DD3
100
AcDbDictionary
280
     1
281
     1
  3
ACAD_XREC_ROUNDTRIP
360
E72
  0
DICTIONARY
  5
E73
330
DD4
100
AcDbDictionary
280
     1
281
     1
  3
ACAD_XREC_ROUNDTRIP
360
E74
  0
DICTIONARY
  5
E69
330
DCF
100
AcDbDictionary
280
     1
281
     1
  3
ACAD_XREC_ROUNDTRIP
360
E6A
  0
DICTIONARY
  5
E5D
330
DC9
100
AcDbDictionary
280
     1
281
     1
  3
ACAD_XREC_ROUNDTRIP
360
E5E
  0
DICTIONARY
  5
E75
330
DD5
100
AcDbDictionary
280
     1
281
     1
  3
ACAD_XREC_ROUNDTRIP
360
E76
  0
XRECORD
  5
E84
102
{ACAD_REACTORS
330
E83
102
}
330
E83
100
AcDbXrecord
280
     1
102
DISPLAYNAME
  1
Imperial24
102
FLAGS
 90
        0
  0
XRECORD
  5
DB5
102
{ACAD_REACTORS
330
DB3
102
}
330
DB3
100
AcDbXrecord
280
     1
270
     1
271
     1
  0
XRECORD
  5
DB4
102
{ACAD_REACTORS
330
DB3
102
}
330
DB3
100
AcDbXrecord
280
     1
270
     1
271
     1
  0
XRECORD
  5
DB8
102
{ACAD_REACTORS
330
DB3
102
}
330
DB3
100
AcDbXrecord
280
     1
270
     1
271
     1
  0
XRECORD
  5
DB7
102
{ACAD_REACTORS
330
DB3
102
}
330
DB3
100
AcDbXrecord
280
     1
270
     1
271
     1
  0
XRECORD
  5
DB9
102
{ACAD_REACTORS
330
DB3
102
}
330
DB3
100
AcDbXrecord
280
     1
270
     1
271
     1
  0
XRECORD
  5
DB6
102
{ACAD_REACTORS
330
DB3
102
}
330
DB3
100
AcDbXrecord
280
     1
270
     1
271
     1
  0
XRECORD
  5
DAD
102
{ACAD_REACTORS
330
DAB
102
}
330
DAB
100
AcDbXrecord
280
     1
270
     1
271
     1
  0
XRECORD
  5
DAC
102
{ACAD_REACTORS
330
DAB
102
}
330
DAB
100
AcDbXrecord
280
     1
270
     1
271
     1
  0
XRECORD
  5
DB0
102
{ACAD_REACTORS
330
DAB
102
}
330
DAB
100
AcDbXrecord
280
     1
270
     1
271
     1
  0
XRECORD
  5
DAF
102
{ACAD_REACTORS
330
DAB
102
}
330
DAB
100
AcDbXrecord
280
     1
270
     1
271
     1
  0
XRECORD
  5
DB1
102
{ACAD_REACTORS
330
DAB
102
}
330
DAB
100
AcDbXrecord
280
     1
270
     1
271
     1
  0
XRECORD
  5
DAE
102
{ACAD_REACTORS
330
DAB
102
}
330
DAB
100
AcDbXrecord
280
     1
270
     1
271
     1
  0
XRECORD
  5
DBD
102
{ACAD_REACTORS
330
DBB
102
}
330
DBB
100
AcDbXrecord
280
     1
270
     1
271
     1
  0
XRECORD
  5
DBC
102
{ACAD_REACTORS
330
DBB
102
}
330
DBB
100
AcDbXrecord
280
     1
270
     1
271
     1
  0
XRECORD
  5
DC0
102
{ACAD_REACTORS
330
DBB
102
}
330
DBB
100
AcDbXrecord
280
     1
270
     1
271
     1
  0
XRECORD
  5
DBF
102
{ACAD_REACTORS
330
DBB
102
}
330
DBB
100
AcDbXrecord
280
     1
270
     1
271
     1
  0
XRECORD
  5
DC1
102
{ACAD_REACTORS
330
DBB
102
}
330
DBB
100
AcDbXrecord
280
     1
270
     1
271
     1
  0
XRECORD
  5
DBE
102
{ACAD_REACTORS
330
DBB
102
}
330
DBB
100
AcDbXrecord
280
     1
270
     1
271
     1
  0
XRECORD
  5
E82
102
{ACAD_REACTORS
330
E81
102
}
330
E81
100
AcDbXrecord
280
     1
102
DISPLAYNAME
  1
Imperial24
102
FLAGS
 90
        0
  0
CELLSTYLEMAP
  5
E4F
102
{ACAD_REACTORS
330
E4E
102
}
330
E4E
100
AcDbCellStyleMap
 90
        3
300
CELLSTYLE
  1
TABLEFORMAT_BEGIN
 90
        5
170
     1
 91
        0
 92
    32768
 62
   257
 93
        1
300
CONTENTFORMAT
  1
CONTENTFORMAT_BEGIN
 90
        0
 91
        0
 92
      512
 93
        0
300

 40
0.0
140
1.0
 94
        5
 62
     0
340
11
144
0.25
309
CONTENTFORMAT_END
171
     0
 94
        0
309
TABLEFORMAT_END
  1
CELLSTYLE_BEGIN
 90
        1
 91
        1
300
_TITLE
309
CELLSTYLE_END
300
CELLSTYLE
  1
TABLEFORMAT_BEGIN
 90
        5
170
     1
 91
        0
 92
        0
 62
   257
 93
        1
300
CONTENTFORMAT
  1
CONTENTFORMAT_BEGIN
 90
        0
 91
        0
 92
      512
 93
        0
300

 40
0.0
140
1.0
 94
        5
 62
     0
340
11
144
0.18
309
CONTENTFORMAT_END
171
     0
 94
        0
309
TABLEFORMAT_END
  1
CELLSTYLE_BEGIN
 90
        2
 91
        1
300
_HEADER
309
CELLSTYLE_END
300
CELLSTYLE
  1
TABLEFORMAT_BEGIN
 90
        5
170
     1
 91
        0
 92
        0
 62
   257
 93
        1
300
CONTENTFORMAT
  1
CONTENTFORMAT_BEGIN
 90
        0
 91
        0
 92
      512
 93
        0
300

 40
0.0
140
1.0
 94
        2
 62
     0
340
11
144
0.18
309
CONTENTFORMAT_END
171
     0
 94
        0
309
TABLEFORMAT_END
  1
CELLSTYLE_BEGIN
 90
        3
 91
        2
300
_DATA
309
CELLSTYLE_END
  0
XRECORD
  5
E5C
102
{ACAD_REACTORS
330
E5B
102
}
330
E5B
100
AcDbXrecord
280
     1
102
RTVSPost2010Prop28
280
     1
102
RTVSPost2010PropOp28
 70
     1
102
RTVSPost2010Prop29
280
     1
102
RTVSPost2010PropOp29
 70
     1
102
RTVSPost2010Prop30
280
     0
102
RTVSPost2010PropOp30
 70
     1
102
RTVSPost2010Prop31
280
     0
102
RTVSPost2010PropOp31
 70
     1
102
RTVSPost2010Prop32
280
     0
102
RTVSPost2010PropOp32
 70
     1
102
RTVSPost2010Prop33
280
     0
102
RTVSPost2010PropOp33
 70
     1
102
RTVSPost2010Prop34
280
     0
102
RTVSPost2010PropOp34
 70
     1
102
RTVSPost2010Prop35
280
     0
102
RTVSPost2010PropOp35
 70
     1
102
RTVSPost2010Prop36
280
     0
102
RTVSPost2010PropOp36
 70
     1
102
RTVSPost2010Prop37
 90
       50
102
RTVSPost2010PropOp37
 70
     1
102
RTVSPost2010Prop38
140
0.0
102
RTVSPost2010PropOp38
 70
     1
102
RTVSPost2010Prop39
140
1.0
102
RTVSPost2010PropOp39
 70
     1
102
RTVSPost2010Prop40
 90
        0
102
RTVSPost2010PropOp40
 70
     1
102
RTVSPost2010Prop41ColorIndex
 90
       18
102
RTVSPost2010Prop41ColorRGB
 90
        0
102
RTVSPost2010PropOp41
 70
     1
102
RTVSPost2010Prop42
 90
       50
102
RTVSPost2010PropOp42
 70
     1
102
RTVSPost2010Prop43
 90
        3
102
RTVSPost2010PropOp43
 70
     1
102
RTVSPost2010Prop44ColorIndex
 90
        5
102
RTVSPost2010Prop44ColorRGB
 90
      255
102
RTVSPost2010PropOp44
 70
     1
102
RTVSPost2010Prop45
280
     0
102
RTVSPost2010PropOp45
 70
     1
102
RTVSPost2010Prop46
 90
       50
102
RTVSPost2010PropOp46
 70
     1
102
RTVSPost2010Prop47
 90
       50
102
RTVSPost2010PropOp47
 70
     1
102
RTVSPost2010Prop48
 90
       50
102
RTVSPost2010PropOp48
 70
     1
102
RTVSPost2010Prop49
280
     0
102
RTVSPost2010PropOp49
 70
     1
102
RTVSPost2010Prop50
 90
       50
102
RTVSPost2010PropOp50
 70
     1
102
RTVSPost2010Prop51ColorIndex
 90
      256
102
RTVSPost2010Prop51ColorRGB
 90
-16777216
102
RTVSPost2010PropOp51
 70
     0
102
RTVSPost2010Prop52
140
1.0
102
RTVSPost2010PropOp52
 70
     0
102
RTVSPost2010Prop53
 90
        2
102
RTVSPost2010PropOp53
 70
     1
102
RTVSPost2010Prop54
  1
strokes_ogs.tif
102
RTVSPost2010PropOp54
 70
     1
102
RTVSPost2010Prop55
280
     0
102
RTVSPost2010PropOp55
 70
     1
102
RTVSPost2010Prop56
140
1.0
102
RTVSPost2010PropOp56
 70
     1
102
RTVSPost2010Prop57
140
1.0
102
RTVSPost2010PropOp57
 70
     1
  0
XRECORD
  5
E5A
102
{ACAD_REACTORS
330
E59
102
}
330
E59
100
AcDbXrecord
280
     1
102
RTVSPost2010Prop28
280
     0
102
RTVSPost2010PropOp28
 70
     1
102
RTVSPost2010Prop29
280
     1
102
RTVSPost2010PropOp29
 70
     1
102
RTVSPost2010Prop30
280
     1
102
RTVSPost2010PropOp30
 70
     1
102
RTVSPost2010Prop31
280
     0
102
RTVSPost2010PropOp31
 70
     1
102
RTVSPost2010Prop32
280
     0
102
RTVSPost2010PropOp32
 70
     1
102
RTVSPost2010Prop33
280
     0
102
RTVSPost2010PropOp33
 70
     1
102
RTVSPost2010Prop34
280
     0
102
RTVSPost2010PropOp34
 70
     1
102
RTVSPost2010Prop35
280
     0
102
RTVSPost2010PropOp35
 70
     1
102
RTVSPost2010Prop36
280
     0
102
RTVSPost2010PropOp36
 70
     1
102
RTVSPost2010Prop37
 90
       50
102
RTVSPost2010PropOp37
 70
     1
102
RTVSPost2010Prop38
140
0.0
102
RTVSPost2010PropOp38
 70
     1
102
RTVSPost2010Prop39
140
1.0
102
RTVSPost2010PropOp39
 70
     1
102
RTVSPost2010Prop40
 90
        0
102
RTVSPost2010PropOp40
 70
     1
102
RTVSPost2010Prop41ColorIndex
 90
       18
102
RTVSPost2010Prop41ColorRGB
 90
        0
102
RTVSPost2010PropOp41
 70
     1
102
RTVSPost2010Prop42
 90
       50
102
RTVSPost2010PropOp42
 70
     1
102
RTVSPost2010Prop43
 90
        3
102
RTVSPost2010PropOp43
 70
     1
102
RTVSPost2010Prop44ColorIndex
 90
        5
102
RTVSPost2010Prop44ColorRGB
 90
      255
102
RTVSPost2010PropOp44
 70
     1
102
RTVSPost2010Prop45
280
     0
102
RTVSPost2010PropOp45
 70
     1
102
RTVSPost2010Prop46
 90
       50
102
RTVSPost2010PropOp46
 70
     1
102
RTVSPost2010Prop47
 90
       50
102
RTVSPost2010PropOp47
 70
     1
102
RTVSPost2010Prop48
 90
       50
102
RTVSPost2010PropOp48
 70
     1
102
RTVSPost2010Prop49
280
     0
102
RTVSPost2010PropOp49
 70
     1
102
RTVSPost2010Prop50
 90
       50
102
RTVSPost2010PropOp50
 70
     1
102
RTVSPost2010Prop51ColorIndex
 90
      256
102
RTVSPost2010Prop51ColorRGB
 90
-16777216
102
RTVSPost2010PropOp51
 70
     0
102
RTVSPost2010Prop52
140
1.0
102
RTVSPost2010PropOp52
 70
     0
102
RTVSPost2010Prop53
 90
        2
102
RTVSPost2010PropOp53
 70
     1
102
RTVSPost2010Prop54
  1
strokes_ogs.tif
102
RTVSPost2010PropOp54
 70
     1
102
RTVSPost2010Prop55
280
     0
102
RTVSPost2010PropOp55
 70
     1
102
RTVSPost2010Prop56
140
1.0
102
RTVSPost2010PropOp56
 70
     1
102
RTVSPost2010Prop57
140
1.0
102
RTVSPost2010PropOp57
 70
     1
  0
XRECORD
  5
E68
102
{ACAD_REACTORS
330
E67
102
}
330
E67
100
AcDbXrecord
280
     1
102
RTVSPost2010Prop28
280
     0
102
RTVSPost2010PropOp28
 70
     1
102
RTVSPost2010Prop29
280
     1
102
RTVSPost2010PropOp29
 70
     1
102
RTVSPost2010Prop30
280
     1
102
RTVSPost2010PropOp30
 70
     1
102
RTVSPost2010Prop31
280
     0
102
RTVSPost2010PropOp31
 70
     1
102
RTVSPost2010Prop32
280
     0
102
RTVSPost2010PropOp32
 70
     1
102
RTVSPost2010Prop33
280
     0
102
RTVSPost2010PropOp33
 70
     1
102
RTVSPost2010Prop34
280
     0
102
RTVSPost2010PropOp34
 70
     1
102
RTVSPost2010Prop35
280
     0
102
RTVSPost2010PropOp35
 70
     1
102
RTVSPost2010Prop36
280
     0
102
RTVSPost2010PropOp36
 70
     1
102
RTVSPost2010Prop37
 90
       50
102
RTVSPost2010PropOp37
 70
     1
102
RTVSPost2010Prop38
140
0.0
102
RTVSPost2010PropOp38
 70
     1
102
RTVSPost2010Prop39
140
1.0
102
RTVSPost2010PropOp39
 70
     1
102
RTVSPost2010Prop40
 90
        0
102
RTVSPost2010PropOp40
 70
     1
102
RTVSPost2010Prop41ColorIndex
 90
       18
102
RTVSPost2010Prop41ColorRGB
 90
        0
102
RTVSPost2010PropOp41
 70
     1
102
RTVSPost2010Prop42
 90
       50
102
RTVSPost2010PropOp42
 70
     1
102
RTVSPost2010Prop43
 90
        3
102
RTVSPost2010PropOp43
 70
     1
102
RTVSPost2010Prop44ColorIndex
 90
        5
102
RTVSPost2010Prop44ColorRGB
 90
      255
102
RTVSPost2010PropOp44
 70
     1
102
RTVSPost2010Prop45
280
     0
102
RTVSPost2010PropOp45
 70
     1
102
RTVSPost2010Prop46
 90
       50
102
RTVSPost2010PropOp46
 70
     1
102
RTVSPost2010Prop47
 90
       50
102
RTVSPost2010PropOp47
 70
     1
102
RTVSPost2010Prop48
 90
       50
102
RTVSPost2010PropOp48
 70
     1
102
RTVSPost2010Prop49
280
     0
102
RTVSPost2010PropOp49
 70
     1
102
RTVSPost2010Prop50
 90
       50
102
RTVSPost2010PropOp50
 70
     1
102
RTVSPost2010Prop51ColorIndex
 90
      256
102
RTVSPost2010Prop51ColorRGB
 90
-16777216
102
RTVSPost2010PropOp51
 70
     0
102
RTVSPost2010Prop52
140
1.0
102
RTVSPost2010PropOp52
 70
     0
102
RTVSPost2010Prop53
 90
        2
102
RTVSPost2010PropOp53
 70
     1
102
RTVSPost2010Prop54
  1
strokes_ogs.tif
102
RTVSPost2010PropOp54
 70
     1
102
RTVSPost2010Prop55
280
     0
102
RTVSPost2010PropOp55
 70
     1
102
RTVSPost2010Prop56
140
1.0
102
RTVSPost2010PropOp56
 70
     1
102
RTVSPost2010Prop57
140
1.0
102
RTVSPost2010PropOp57
 70
     1
  0
XRECORD
  5
E70
102
{ACAD_REACTORS
330
E6F
102
}
330
E6F
100
AcDbXrecord
280
     1
102
RTVSPost2010Prop28
280
     0
102
RTVSPost2010PropOp28
 70
     1
102
RTVSPost2010Prop29
280
     1
102
RTVSPost2010PropOp29
 70
     1
102
RTVSPost2010Prop30
280
     1
102
RTVSPost2010PropOp30
 70
     1
102
RTVSPost2010Prop31
280
     0
102
RTVSPost2010PropOp31
 70
     1
102
RTVSPost2010Prop32
280
     0
102
RTVSPost2010PropOp32
 70
     1
102
RTVSPost2010Prop33
280
     0
102
RTVSPost2010PropOp33
 70
     1
102
RTVSPost2010Prop34
280
     0
102
RTVSPost2010PropOp34
 70
     1
102
RTVSPost2010Prop35
280
     0
102
RTVSPost2010PropOp35
 70
     1
102
RTVSPost2010Prop36
280
     0
102
RTVSPost2010PropOp36
 70
     1
102
RTVSPost2010Prop37
 90
       50
102
RTVSPost2010PropOp37
 70
     1
102
RTVSPost2010Prop38
140
0.0
102
RTVSPost2010PropOp38
 70
     1
102
RTVSPost2010Prop39
140
1.0
102
RTVSPost2010PropOp39
 70
     1
102
RTVSPost2010Prop40
 90
        0
102
RTVSPost2010PropOp40
 70
     1
102
RTVSPost2010Prop41ColorIndex
 90
       18
102
RTVSPost2010Prop41ColorRGB
 90
        0
102
RTVSPost2010PropOp41
 70
     1
102
RTVSPost2010Prop42
 90
       50
102
RTVSPost2010PropOp42
 70
     1
102
RTVSPost2010Prop43
 90
        3
102
RTVSPost2010PropOp43
 70
     1
102
RTVSPost2010Prop44ColorIndex
 90
        5
102
RTVSPost2010Prop44ColorRGB
 90
      255
102
RTVSPost2010PropOp44
 70
     1
102
RTVSPost2010Prop45
280
     0
102
RTVSPost2010PropOp45
 70
     1
102
RTVSPost2010Prop46
 90
       50
102
RTVSPost2010PropOp46
 70
     1
102
RTVSPost2010Prop47
 90
       50
102
RTVSPost2010PropOp47
 70
     1
102
RTVSPost2010Prop48
 90
       50
102
RTVSPost2010PropOp48
 70
     1
102
RTVSPost2010Prop49
280
     0
102
RTVSPost2010PropOp49
 70
     1
102
RTVSPost2010Prop50
 90
       50
102
RTVSPost2010PropOp50
 70
     1
102
RTVSPost2010Prop51ColorIndex
 90
      256
102
RTVSPost2010Prop51ColorRGB
 90
-16777216
102
RTVSPost2010PropOp51
 70
     0
102
RTVSPost2010Prop52
140
1.0
102
RTVSPost2010PropOp52
 70
     0
102
RTVSPost2010Prop53
 90
        2
102
RTVSPost2010PropOp53
 70
     1
102
RTVSPost2010Prop54
  1
strokes_ogs.tif
102
RTVSPost2010PropOp54
 70
     1
102
RTVSPost2010Prop55
280
     0
102
RTVSPost2010PropOp55
 70
     1
102
RTVSPost2010Prop56
140
1.0
102
RTVSPost2010PropOp56
 70
     1
102
RTVSPost2010Prop57
140
1.0
102
RTVSPost2010PropOp57
 70
     1
  0
XRECORD
  5
E62
102
{ACAD_REACTORS
330
E61
102
}
330
E61
100
AcDbXrecord
280
     1
102
RTVSPost2010Prop28
280
     0
102
RTVSPost2010PropOp28
 70
     1
102
RTVSPost2010Prop29
280
     1
102
RTVSPost2010PropOp29
 70
     1
102
RTVSPost2010Prop30
280
     1
102
RTVSPost2010PropOp30
 70
     1
102
RTVSPost2010Prop31
280
     0
102
RTVSPost2010PropOp31
 70
     1
102
RTVSPost2010Prop32
280
     0
102
RTVSPost2010PropOp32
 70
     1
102
RTVSPost2010Prop33
280
     0
102
RTVSPost2010PropOp33
 70
     1
102
RTVSPost2010Prop34
280
     0
102
RTVSPost2010PropOp34
 70
     1
102
RTVSPost2010Prop35
280
     0
102
RTVSPost2010PropOp35
 70
     1
102
RTVSPost2010Prop36
280
     0
102
RTVSPost2010PropOp36
 70
     1
102
RTVSPost2010Prop37
 90
       50
102
RTVSPost2010PropOp37
 70
     1
102
RTVSPost2010Prop38
140
0.0
102
RTVSPost2010PropOp38
 70
     1
102
RTVSPost2010Prop39
140
1.0
102
RTVSPost2010PropOp39
 70
     1
102
RTVSPost2010Prop40
 90
        0
102
RTVSPost2010PropOp40
 70
     1
102
RTVSPost2010Prop41ColorIndex
 90
       18
102
RTVSPost2010Prop41ColorRGB
 90
        0
102
RTVSPost2010PropOp41
 70
     1
102
RTVSPost2010Prop42
 90
       50
102
RTVSPost2010PropOp42
 70
     1
102
RTVSPost2010Prop43
 90
        3
102
RTVSPost2010PropOp43
 70
     1
102
RTVSPost2010Prop44ColorIndex
 90
        5
102
RTVSPost2010Prop44ColorRGB
 90
      255
102
RTVSPost2010PropOp44
 70
     1
102
RTVSPost2010Prop45
280
     0
102
RTVSPost2010PropOp45
 70
     1
102
RTVSPost2010Prop46
 90
       50
102
RTVSPost2010PropOp46
 70
     1
102
RTVSPost2010Prop47
 90
       50
102
RTVSPost2010PropOp47
 70
     1
102
RTVSPost2010Prop48
 90
       50
102
RTVSPost2010PropOp48
 70
     1
102
RTVSPost2010Prop49
280
     0
102
RTVSPost2010PropOp49
 70
     1
102
RTVSPost2010Prop50
 90
       50
102
RTVSPost2010PropOp50
 70
     1
102
RTVSPost2010Prop51ColorIndex
 90
      256
102
RTVSPost2010Prop51ColorRGB
 90
-16777216
102
RTVSPost2010PropOp51
 70
     0
102
RTVSPost2010Prop52
140
1.0
102
RTVSPost2010PropOp52
 70
     0
102
RTVSPost2010Prop53
 90
        2
102
RTVSPost2010PropOp53
 70
     1
102
RTVSPost2010Prop54
  1
strokes_ogs.tif
102
RTVSPost2010PropOp54
 70
     1
102
RTVSPost2010Prop55
280
     0
102
RTVSPost2010PropOp55
 70
     1
102
RTVSPost2010Prop56
140
1.0
102
RTVSPost2010PropOp56
 70
     1
102
RTVSPost2010Prop57
140
1.0
102
RTVSPost2010PropOp57
 70
     1
  0
XRECORD
  5
E66
102
{ACAD_REACTORS
330
E65
102
}
330
E65
100
AcDbXrecord
280
     1
102
RTVSPost2010Prop28
280
     0
102
RTVSPost2010PropOp28
 70
     1
102
RTVSPost2010Prop29
280
     1
102
RTVSPost2010PropOp29
 70
     1
102
RTVSPost2010Prop30
280
     1
102
RTVSPost2010PropOp30
 70
     1
102
RTVSPost2010Prop31
280
     0
102
RTVSPost2010PropOp31
 70
     1
102
RTVSPost2010Prop32
280
     0
102
RTVSPost2010PropOp32
 70
     1
102
RTVSPost2010Prop33
280
     0
102
RTVSPost2010PropOp33
 70
     1
102
RTVSPost2010Prop34
280
     0
102
RTVSPost2010PropOp34
 70
     1
102
RTVSPost2010Prop35
280
     0
102
RTVSPost2010PropOp35
 70
     1
102
RTVSPost2010Prop36
280
     0
102
RTVSPost2010PropOp36
 70
     1
102
RTVSPost2010Prop37
 90
       50
102
RTVSPost2010PropOp37
 70
     1
102
RTVSPost2010Prop38
140
0.0
102
RTVSPost2010PropOp38
 70
     1
102
RTVSPost2010Prop39
140
1.0
102
RTVSPost2010PropOp39
 70
     1
102
RTVSPost2010Prop40
 90
        0
102
RTVSPost2010PropOp40
 70
     1
102
RTVSPost2010Prop41ColorIndex
 90
       18
102
RTVSPost2010Prop41ColorRGB
 90
        0
102
RTVSPost2010PropOp41
 70
     1
102
RTVSPost2010Prop42
 90
       50
102
RTVSPost2010PropOp42
 70
     1
102
RTVSPost2010Prop43
 90
        3
102
RTVSPost2010PropOp43
 70
     1
102
RTVSPost2010Prop44ColorIndex
 90
        5
102
RTVSPost2010Prop44ColorRGB
 90
      255
102
RTVSPost2010PropOp44
 70
     1
102
RTVSPost2010Prop45
280
     0
102
RTVSPost2010PropOp45
 70
     1
102
RTVSPost2010Prop46
 90
       50
102
RTVSPost2010PropOp46
 70
     1
102
RTVSPost2010Prop47
 90
       50
102
RTVSPost2010PropOp47
 70
     1
102
RTVSPost2010Prop48
 90
       50
102
RTVSPost2010PropOp48
 70
     1
102
RTVSPost2010Prop49
280
     0
102
RTVSPost2010PropOp49
 70
     1
102
RTVSPost2010Prop50
 90
       50
102
RTVSPost2010PropOp50
 70
     1
102
RTVSPost2010Prop51ColorIndex
 90
      256
102
RTVSPost2010Prop51ColorRGB
 90
-16777216
102
RTVSPost2010PropOp51
 70
     0
102
RTVSPost2010Prop52
140
1.0
102
RTVSPost2010PropOp52
 70
     0
102
RTVSPost2010Prop53
 90
        2
102
RTVSPost2010PropOp53
 70
     1
102
RTVSPost2010Prop54
  1
strokes_ogs.tif
102
RTVSPost2010PropOp54
 70
     1
102
RTVSPost2010Prop55
280
     0
102
RTVSPost2010PropOp55
 70
     1
102
RTVSPost2010Prop56
140
1.0
102
RTVSPost2010PropOp56
 70
     1
102
RTVSPost2010Prop57
140
1.0
102
RTVSPost2010PropOp57
 70
     1
  0
XRECORD
  5
E80
102
{ACAD_REACTORS
330
E7F
102
}
330
E7F
100
AcDbXrecord
280
     1
102
RTVSPost2010Prop28
280
     0
102
RTVSPost2010PropOp28
 70
     1
102
RTVSPost2010Prop29
280
     1
102
RTVSPost2010PropOp29
 70
     1
102
RTVSPost2010Prop30
280
     1
102
RTVSPost2010PropOp30
 70
     1
102
RTVSPost2010Prop31
280
     0
102
RTVSPost2010PropOp31
 70
     1
102
RTVSPost2010Prop32
280
     0
102
RTVSPost2010PropOp32
 70
     1
102
RTVSPost2010Prop33
280
     0
102
RTVSPost2010PropOp33
 70
     1
102
RTVSPost2010Prop34
280
     0
102
RTVSPost2010PropOp34
 70
     1
102
RTVSPost2010Prop35
280
     0
102
RTVSPost2010PropOp35
 70
     1
102
RTVSPost2010Prop36
280
     0
102
RTVSPost2010PropOp36
 70
     1
102
RTVSPost2010Prop37
 90
       50
102
RTVSPost2010PropOp37
 70
     0
102
RTVSPost2010Prop38
140
0.0
102
RTVSPost2010PropOp38
 70
     0
102
RTVSPost2010Prop39
140
1.0
102
RTVSPost2010PropOp39
 70
     0
102
RTVSPost2010Prop40
 90
        0
102
RTVSPost2010PropOp40
 70
     0
102
RTVSPost2010Prop41ColorIndex
 90
       18
102
RTVSPost2010Prop41ColorRGB
 90
        0
102
RTVSPost2010PropOp41
 70
     0
102
RTVSPost2010Prop42
 90
       50
102
RTVSPost2010PropOp42
 70
     0
102
RTVSPost2010Prop43
 90
        3
102
RTVSPost2010PropOp43
 70
     0
102
RTVSPost2010Prop44ColorIndex
 90
        5
102
RTVSPost2010Prop44ColorRGB
 90
      255
102
RTVSPost2010PropOp44
 70
     0
102
RTVSPost2010Prop45
280
     0
102
RTVSPost2010PropOp45
 70
     1
102
RTVSPost2010Prop46
 90
       50
102
RTVSPost2010PropOp46
 70
     0
102
RTVSPost2010Prop47
 90
       50
102
RTVSPost2010PropOp47
 70
     0
102
RTVSPost2010Prop48
 90
       50
102
RTVSPost2010PropOp48
 70
     0
102
RTVSPost2010Prop49
280
     0
102
RTVSPost2010PropOp49
 70
     1
102
RTVSPost2010Prop50
 90
       50
102
RTVSPost2010PropOp50
 70
     0
102
RTVSPost2010Prop51ColorIndex
 90
      256
102
RTVSPost2010Prop51ColorRGB
 90
-16777216
102
RTVSPost2010PropOp51
 70
     0
102
RTVSPost2010Prop52
140
1.0
102
RTVSPost2010PropOp52
 70
     0
102
RTVSPost2010Prop53
 90
        2
102
RTVSPost2010PropOp53
 70
     0
102
RTVSPost2010Prop54
  1
strokes_ogs.tif
102
RTVSPost2010PropOp54
 70
     0
102
RTVSPost2010Prop55
280
     0
102
RTVSPost2010PropOp55
 70
     1
102
RTVSPost2010Prop56
140
1.0
102
RTVSPost2010PropOp56
 70
     0
102
RTVSPost2010Prop57
140
1.0
102
RTVSPost2010PropOp57
 70
     0
  0
XRECORD
  5
E6E
102
{ACAD_REACTORS
330
E6D
102
}
330
E6D
100
AcDbXrecord
280
     1
102
RTVSPost2010Prop28
280
     0
102
RTVSPost2010PropOp28
 70
     1
102
RTVSPost2010Prop29
280
     1
102
RTVSPost2010PropOp29
 70
     1
102
RTVSPost2010Prop30
280
     1
102
RTVSPost2010PropOp30
 70
     1
102
RTVSPost2010Prop31
280
     0
102
RTVSPost2010PropOp31
 70
     1
102
RTVSPost2010Prop32
280
     0
102
RTVSPost2010PropOp32
 70
     1
102
RTVSPost2010Prop33
280
     0
102
RTVSPost2010PropOp33
 70
     1
102
RTVSPost2010Prop34
280
     0
102
RTVSPost2010PropOp34
 70
     1
102
RTVSPost2010Prop35
280
     0
102
RTVSPost2010PropOp35
 70
     1
102
RTVSPost2010Prop36
280
     0
102
RTVSPost2010PropOp36
 70
     1
102
RTVSPost2010Prop37
 90
       50
102
RTVSPost2010PropOp37
 70
     1
102
RTVSPost2010Prop38
140
0.0
102
RTVSPost2010PropOp38
 70
     1
102
RTVSPost2010Prop39
140
1.0
102
RTVSPost2010PropOp39
 70
     1
102
RTVSPost2010Prop40
 90
        0
102
RTVSPost2010PropOp40
 70
     1
102
RTVSPost2010Prop41ColorIndex
 90
       18
102
RTVSPost2010Prop41ColorRGB
 90
        0
102
RTVSPost2010PropOp41
 70
     1
102
RTVSPost2010Prop42
 90
       50
102
RTVSPost2010PropOp42
 70
     1
102
RTVSPost2010Prop43
 90
        3
102
RTVSPost2010PropOp43
 70
     1
102
RTVSPost2010Prop44ColorIndex
 90
        5
102
RTVSPost2010Prop44ColorRGB
 90
      255
102
RTVSPost2010PropOp44
 70
     1
102
RTVSPost2010Prop45
280
     0
102
RTVSPost2010PropOp45
 70
     1
102
RTVSPost2010Prop46
 90
       50
102
RTVSPost2010PropOp46
 70
     1
102
RTVSPost2010Prop47
 90
       50
102
RTVSPost2010PropOp47
 70
     1
102
RTVSPost2010Prop48
 90
       50
102
RTVSPost2010PropOp48
 70
     1
102
RTVSPost2010Prop49
280
     0
102
RTVSPost2010PropOp49
 70
     1
102
RTVSPost2010Prop50
 90
       50
102
RTVSPost2010PropOp50
 70
     1
102
RTVSPost2010Prop51ColorIndex
 90
      256
102
RTVSPost2010Prop51ColorRGB
 90
-16777216
102
RTVSPost2010PropOp51
 70
     0
102
RTVSPost2010Prop52
140
1.0
102
RTVSPost2010PropOp52
 70
     0
102
RTVSPost2010Prop53
 90
        2
102
RTVSPost2010PropOp53
 70
     1
102
RTVSPost2010Prop54
  1
strokes_ogs.tif
102
RTVSPost2010PropOp54
 70
     1
102
RTVSPost2010Prop55
280
     0
102
RTVSPost2010PropOp55
 70
     1
102
RTVSPost2010Prop56
140
1.0
102
RTVSPost2010PropOp56
 70
     1
102
RTVSPost2010Prop57
140
1.0
102
RTVSPost2010PropOp57
 70
     1
  0
XRECORD
  5
E52
102
{ACAD_REACTORS
330
E51
102
}
330
E51
100
AcDbXrecord
280
     1
102
RTVSPost2010Prop28
280
     0
102
RTVSPost2010PropOp28
 70
     1
102
RTVSPost2010Prop29
280
     1
102
RTVSPost2010PropOp29
 70
     1
102
RTVSPost2010Prop30
280
     1
102
RTVSPost2010PropOp30
 70
     1
102
RTVSPost2010Prop31
280
     0
102
RTVSPost2010PropOp31
 70
     1
102
RTVSPost2010Prop32
280
     0
102
RTVSPost2010PropOp32
 70
     1
102
RTVSPost2010Prop33
280
     0
102
RTVSPost2010PropOp33
 70
     1
102
RTVSPost2010Prop34
280
     0
102
RTVSPost2010PropOp34
 70
     1
102
RTVSPost2010Prop35
280
     0
102
RTVSPost2010PropOp35
 70
     1
102
RTVSPost2010Prop36
280
     0
102
RTVSPost2010PropOp36
 70
     1
102
RTVSPost2010Prop37
 90
       50
102
RTVSPost2010PropOp37
 70
     1
102
RTVSPost2010Prop38
140
0.0
102
RTVSPost2010PropOp38
 70
     1
102
RTVSPost2010Prop39
140
1.0
102
RTVSPost2010PropOp39
 70
     1
102
RTVSPost2010Prop40
 90
        0
102
RTVSPost2010PropOp40
 70
     1
102
RTVSPost2010Prop41ColorIndex
 90
       18
102
RTVSPost2010Prop41ColorRGB
 90
        0
102
RTVSPost2010PropOp41
 70
     1
102
RTVSPost2010Prop42
 90
       50
102
RTVSPost2010PropOp42
 70
     1
102
RTVSPost2010Prop43
 90
        3
102
RTVSPost2010PropOp43
 70
     1
102
RTVSPost2010Prop44ColorIndex
 90
        5
102
RTVSPost2010Prop44ColorRGB
 90
      255
102
RTVSPost2010PropOp44
 70
     1
102
RTVSPost2010Prop45
280
     0
102
RTVSPost2010PropOp45
 70
     1
102
RTVSPost2010Prop46
 90
       50
102
RTVSPost2010PropOp46
 70
     1
102
RTVSPost2010Prop47
 90
       50
102
RTVSPost2010PropOp47
 70
     1
102
RTVSPost2010Prop48
 90
       50
102
RTVSPost2010PropOp48
 70
     1
102
RTVSPost2010Prop49
280
     0
102
RTVSPost2010PropOp49
 70
     1
102
RTVSPost2010Prop50
 90
       50
102
RTVSPost2010PropOp50
 70
     1
102
RTVSPost2010Prop51ColorIndex
 90
      256
102
RTVSPost2010Prop51ColorRGB
 90
-16777216
102
RTVSPost2010PropOp51
 70
     0
102
RTVSPost2010Prop52
140
1.0
102
RTVSPost2010PropOp52
 70
     0
102
RTVSPost2010Prop53
 90
        2
102
RTVSPost2010PropOp53
 70
     1
102
RTVSPost2010Prop54
  1
strokes_ogs.tif
102
RTVSPost2010PropOp54
 70
     1
102
RTVSPost2010Prop55
280
     0
102
RTVSPost2010PropOp55
 70
     1
102
RTVSPost2010Prop56
140
1.0
102
RTVSPost2010PropOp56
 70
     1
102
RTVSPost2010Prop57
140
1.0
102
RTVSPost2010PropOp57
 70
     1
  0
XRECORD
  5
E54
102
{ACAD_REACTORS
330
E53
102
}
330
E53
100
AcDbXrecord
280
     1
102
RTVSPost2010Prop28
280
     0
102
RTVSPost2010PropOp28
 70
     1
102
RTVSPost2010Prop29
280
     1
102
RTVSPost2010PropOp29
 70
     1
102
RTVSPost2010Prop30
280
     1
102
RTVSPost2010PropOp30
 70
     1
102
RTVSPost2010Prop31
280
     0
102
RTVSPost2010PropOp31
 70
     1
102
RTVSPost2010Prop32
280
     0
102
RTVSPost2010PropOp32
 70
     1
102
RTVSPost2010Prop33
280
     0
102
RTVSPost2010PropOp33
 70
     1
102
RTVSPost2010Prop34
280
     0
102
RTVSPost2010PropOp34
 70
     1
102
RTVSPost2010Prop35
280
     0
102
RTVSPost2010PropOp35
 70
     1
102
RTVSPost2010Prop36
280
     0
102
RTVSPost2010PropOp36
 70
     1
102
RTVSPost2010Prop37
 90
       50
102
RTVSPost2010PropOp37
 70
     1
102
RTVSPost2010Prop38
140
0.0
102
RTVSPost2010PropOp38
 70
     1
102
RTVSPost2010Prop39
140
1.0
102
RTVSPost2010PropOp39
 70
     1
102
RTVSPost2010Prop40
 90
        0
102
RTVSPost2010PropOp40
 70
     1
102
RTVSPost2010Prop41ColorIndex
 90
       18
102
RTVSPost2010Prop41ColorRGB
 90
        0
102
RTVSPost2010PropOp41
 70
     1
102
RTVSPost2010Prop42
 90
       50
102
RTVSPost2010PropOp42
 70
     1
102
RTVSPost2010Prop43
 90
        3
102
RTVSPost2010PropOp43
 70
     1
102
RTVSPost2010Prop44ColorIndex
 90
        5
102
RTVSPost2010Prop44ColorRGB
 90
      255
102
RTVSPost2010PropOp44
 70
     1
102
RTVSPost2010Prop45
280
     0
102
RTVSPost2010PropOp45
 70
     1
102
RTVSPost2010Prop46
 90
       50
102
RTVSPost2010PropOp46
 70
     1
102
RTVSPost2010Prop47
 90
       50
102
RTVSPost2010PropOp47
 70
     1
102
RTVSPost2010Prop48
 90
       50
102
RTVSPost2010PropOp48
 70
     1
102
RTVSPost2010Prop49
280
     0
102
RTVSPost2010PropOp49
 70
     1
102
RTVSPost2010Prop50
 90
       50
102
RTVSPost2010PropOp50
 70
     1
102
RTVSPost2010Prop51ColorIndex
 90
      256
102
RTVSPost2010Prop51ColorRGB
 90
-16777216
102
RTVSPost2010PropOp51
 70
     0
102
RTVSPost2010Prop52
140
1.0
102
RTVSPost2010PropOp52
 70
     0
102
RTVSPost2010Prop53
 90
        2
102
RTVSPost2010PropOp53
 70
     1
102
RTVSPost2010Prop54
  1
strokes_ogs.tif
102
RTVSPost2010PropOp54
 70
     1
102
RTVSPost2010Prop55
280
     0
102
RTVSPost2010PropOp55
 70
     1
102
RTVSPost2010Prop56
140
1.0
102
RTVSPost2010PropOp56
 70
     1
102
RTVSPost2010Prop57
140
1.0
102
RTVSPost2010PropOp57
 70
     1
  0
XRECORD
  5
E56
102
{ACAD_REACTORS
330
E55
102
}
330
E55
100
AcDbXrecord
280
     1
102
RTVSPost2010Prop28
280
     0
102
RTVSPost2010PropOp28
 70
     1
102
RTVSPost2010Prop29
280
     1
102
RTVSPost2010PropOp29
 70
     1
102
RTVSPost2010Prop30
280
     1
102
RTVSPost2010PropOp30
 70
     1
102
RTVSPost2010Prop31
280
     0
102
RTVSPost2010PropOp31
 70
     1
102
RTVSPost2010Prop32
280
     0
102
RTVSPost2010PropOp32
 70
     1
102
RTVSPost2010Prop33
280
     0
102
RTVSPost2010PropOp33
 70
     1
102
RTVSPost2010Prop34
280
     0
102
RTVSPost2010PropOp34
 70
     1
102
RTVSPost2010Prop35
280
     0
102
RTVSPost2010PropOp35
 70
     1
102
RTVSPost2010Prop36
280
     0
102
RTVSPost2010PropOp36
 70
     1
102
RTVSPost2010Prop37
 90
       50
102
RTVSPost2010PropOp37
 70
     1
102
RTVSPost2010Prop38
140
0.0
102
RTVSPost2010PropOp38
 70
     1
102
RTVSPost2010Prop39
140
1.0
102
RTVSPost2010PropOp39
 70
     1
102
RTVSPost2010Prop40
 90
        0
102
RTVSPost2010PropOp40
 70
     1
102
RTVSPost2010Prop41ColorIndex
 90
       18
102
RTVSPost2010Prop41ColorRGB
 90
        0
102
RTVSPost2010PropOp41
 70
     1
102
RTVSPost2010Prop42
 90
       50
102
RTVSPost2010PropOp42
 70
     1
102
RTVSPost2010Prop43
 90
        3
102
RTVSPost2010PropOp43
 70
     1
102
RTVSPost2010Prop44ColorIndex
 90
        5
102
RTVSPost2010Prop44ColorRGB
 90
      255
102
RTVSPost2010PropOp44
 70
     1
102
RTVSPost2010Prop45
280
     0
102
RTVSPost2010PropOp45
 70
     1
102
RTVSPost2010Prop46
 90
       50
102
RTVSPost2010PropOp46
 70
     1
102
RTVSPost2010Prop47
 90
       50
102
RTVSPost2010PropOp47
 70
     1
102
RTVSPost2010Prop48
 90
       50
102
RTVSPost2010PropOp48
 70
     1
102
RTVSPost2010Prop49
280
     0
102
RTVSPost2010PropOp49
 70
     1
102
RTVSPost2010Prop50
 90
       50
102
RTVSPost2010PropOp50
 70
     1
102
RTVSPost2010Prop51ColorIndex
 90
      256
102
RTVSPost2010Prop51ColorRGB
 90
-16777216
102
RTVSPost2010PropOp51
 70
     0
102
RTVSPost2010Prop52
140
1.0
102
RTVSPost2010PropOp52
 70
     0
102
RTVSPost2010Prop53
 90
        2
102
RTVSPost2010PropOp53
 70
     1
102
RTVSPost2010Prop54
  1
strokes_ogs.tif
102
RTVSPost2010PropOp54
 70
     1
102
RTVSPost2010Prop55
280
     0
102
RTVSPost2010PropOp55
 70
     1
102
RTVSPost2010Prop56
140
1.0
102
RTVSPost2010PropOp56
 70
     1
102
RTVSPost2010Prop57
140
1.0
102
RTVSPost2010PropOp57
 70
     1
  0
XRECORD
  5
E58
102
{ACAD_REACTORS
330
E57
102
}
330
E57
100
AcDbXrecord
280
     1
102
RTVSPost2010Prop28
280
     0
102
RTVSPost2010PropOp28
 70
     1
102
RTVSPost2010Prop29
280
     1
102
RTVSPost2010PropOp29
 70
     1
102
RTVSPost2010Prop30
280
     1
102
RTVSPost2010PropOp30
 70
     1
102
RTVSPost2010Prop31
280
     0
102
RTVSPost2010PropOp31
 70
     1
102
RTVSPost2010Prop32
280
     0
102
RTVSPost2010PropOp32
 70
     1
102
RTVSPost2010Prop33
280
     0
102
RTVSPost2010PropOp33
 70
     1
102
RTVSPost2010Prop34
280
     0
102
RTVSPost2010PropOp34
 70
     1
102
RTVSPost2010Prop35
280
     0
102
RTVSPost2010PropOp35
 70
     1
102
RTVSPost2010Prop36
280
     0
102
RTVSPost2010PropOp36
 70
     1
102
RTVSPost2010Prop37
 90
       50
102
RTVSPost2010PropOp37
 70
     1
102
RTVSPost2010Prop38
140
0.0
102
RTVSPost2010PropOp38
 70
     1
102
RTVSPost2010Prop39
140
1.0
102
RTVSPost2010PropOp39
 70
     1
102
RTVSPost2010Prop40
 90
        0
102
RTVSPost2010PropOp40
 70
     1
102
RTVSPost2010Prop41ColorIndex
 90
       18
102
RTVSPost2010Prop41ColorRGB
 90
        0
102
RTVSPost2010PropOp41
 70
     1
102
RTVSPost2010Prop42
 90
       50
102
RTVSPost2010PropOp42
 70
     1
102
RTVSPost2010Prop43
 90
        3
102
RTVSPost2010PropOp43
 70
     1
102
RTVSPost2010Prop44ColorIndex
 90
        5
102
RTVSPost2010Prop44ColorRGB
 90
      255
102
RTVSPost2010PropOp44
 70
     1
102
RTVSPost2010Prop45
280
     0
102
RTVSPost2010PropOp45
 70
     1
102
RTVSPost2010Prop46
 90
       50
102
RTVSPost2010PropOp46
 70
     1
102
RTVSPost2010Prop47
 90
       50
102
RTVSPost2010PropOp47
 70
     1
102
RTVSPost2010Prop48
 90
       50
102
RTVSPost2010PropOp48
 70
     1
102
RTVSPost2010Prop49
280
     0
102
RTVSPost2010PropOp49
 70
     1
102
RTVSPost2010Prop50
 90
       50
102
RTVSPost2010PropOp50
 70
     1
102
RTVSPost2010Prop51ColorIndex
 90
      256
102
RTVSPost2010Prop51ColorRGB
 90
-16777216
102
RTVSPost2010PropOp51
 70
     0
102
RTVSPost2010Prop52
140
1.0
102
RTVSPost2010PropOp52
 70
     0
102
RTVSPost2010Prop53
 90
        2
102
RTVSPost2010PropOp53
 70
     1
102
RTVSPost2010Prop54
  1
strokes_ogs.tif
102
RTVSPost2010PropOp54
 70
     1
102
RTVSPost2010Prop55
280
     0
102
RTVSPost2010PropOp55
 70
     1
102
RTVSPost2010Prop56
140
1.0
102
RTVSPost2010PropOp56
 70
     1
102
RTVSPost2010Prop57
140
1.0
102
RTVSPost2010PropOp57
 70
     1
  0
XRECORD
  5
E60
102
{ACAD_REACTORS
330
E5F
102
}
330
E5F
100
AcDbXrecord
280
     1
102
RTVSPost2010Prop28
280
     0
102
RTVSPost2010PropOp28
 70
     1
102
RTVSPost2010Prop29
280
     1
102
RTVSPost2010PropOp29
 70
     1
102
RTVSPost2010Prop30
280
     1
102
RTVSPost2010PropOp30
 70
     1
102
RTVSPost2010Prop31
280
     0
102
RTVSPost2010PropOp31
 70
     1
102
RTVSPost2010Prop32
280
     0
102
RTVSPost2010PropOp32
 70
     1
102
RTVSPost2010Prop33
280
     0
102
RTVSPost2010PropOp33
 70
     1
102
RTVSPost2010Prop34
280
     0
102
RTVSPost2010PropOp34
 70
     1
102
RTVSPost2010Prop35
280
     0
102
RTVSPost2010PropOp35
 70
     1
102
RTVSPost2010Prop36
280
     0
102
RTVSPost2010PropOp36
 70
     1
102
RTVSPost2010Prop37
 90
       50
102
RTVSPost2010PropOp37
 70
     1
102
RTVSPost2010Prop38
140
0.0
102
RTVSPost2010PropOp38
 70
     1
102
RTVSPost2010Prop39
140
1.0
102
RTVSPost2010PropOp39
 70
     1
102
RTVSPost2010Prop40
 90
        0
102
RTVSPost2010PropOp40
 70
     1
102
RTVSPost2010Prop41ColorIndex
 90
       18
102
RTVSPost2010Prop41ColorRGB
 90
        0
102
RTVSPost2010PropOp41
 70
     1
102
RTVSPost2010Prop42
 90
       50
102
RTVSPost2010PropOp42
 70
     1
102
RTVSPost2010Prop43
 90
        3
102
RTVSPost2010PropOp43
 70
     1
102
RTVSPost2010Prop44ColorIndex
 90
        5
102
RTVSPost2010Prop44ColorRGB
 90
      255
102
RTVSPost2010PropOp44
 70
     1
102
RTVSPost2010Prop45
280
     0
102
RTVSPost2010PropOp45
 70
     1
102
RTVSPost2010Prop46
 90
       50
102
RTVSPost2010PropOp46
 70
     1
102
RTVSPost2010Prop47
 90
       50
102
RTVSPost2010PropOp47
 70
     1
102
RTVSPost2010Prop48
 90
       50
102
RTVSPost2010PropOp48
 70
     1
102
RTVSPost2010Prop49
280
     0
102
RTVSPost2010PropOp49
 70
     1
102
RTVSPost2010Prop50
 90
       50
102
RTVSPost2010PropOp50
 70
     1
102
RTVSPost2010Prop51ColorIndex
 90
      256
102
RTVSPost2010Prop51ColorRGB
 90
-16777216
102
RTVSPost2010PropOp51
 70
     0
102
RTVSPost2010Prop52
140
1.0
102
RTVSPost2010PropOp52
 70
     0
102
RTVSPost2010Prop53
 90
        2
102
RTVSPost2010PropOp53
 70
     1
102
RTVSPost2010Prop54
  1
strokes_ogs.tif
102
RTVSPost2010PropOp54
 70
     1
102
RTVSPost2010Prop55
280
     0
102
RTVSPost2010PropOp55
 70
     1
102
RTVSPost2010Prop56
140
1.0
102
RTVSPost2010PropOp56
 70
     1
102
RTVSPost2010Prop57
140
1.0
102
RTVSPost2010PropOp57
 70
     1
  0
XRECORD
  5
E7C
102
{ACAD_REACTORS
330
E7B
102
}
330
E7B
100
AcDbXrecord
280
     1
102
RTVSPost2010Prop28
280
     0
102
RTVSPost2010PropOp28
 70
     1
102
RTVSPost2010Prop29
280
     1
102
RTVSPost2010PropOp29
 70
     1
102
RTVSPost2010Prop30
280
     1
102
RTVSPost2010PropOp30
 70
     1
102
RTVSPost2010Prop31
280
     0
102
RTVSPost2010PropOp31
 70
     1
102
RTVSPost2010Prop32
280
     0
102
RTVSPost2010PropOp32
 70
     1
102
RTVSPost2010Prop33
280
     0
102
RTVSPost2010PropOp33
 70
     1
102
RTVSPost2010Prop34
280
     0
102
RTVSPost2010PropOp34
 70
     1
102
RTVSPost2010Prop35
280
     0
102
RTVSPost2010PropOp35
 70
     1
102
RTVSPost2010Prop36
280
     0
102
RTVSPost2010PropOp36
 70
     1
102
RTVSPost2010Prop37
 90
       50
102
RTVSPost2010PropOp37
 70
     0
102
RTVSPost2010Prop38
140
0.0
102
RTVSPost2010PropOp38
 70
     0
102
RTVSPost2010Prop39
140
1.0
102
RTVSPost2010PropOp39
 70
     0
102
RTVSPost2010Prop40
 90
        0
102
RTVSPost2010PropOp40
 70
     0
102
RTVSPost2010Prop41ColorIndex
 90
       18
102
RTVSPost2010Prop41ColorRGB
 90
        0
102
RTVSPost2010PropOp41
 70
     0
102
RTVSPost2010Prop42
 90
       50
102
RTVSPost2010PropOp42
 70
     0
102
RTVSPost2010Prop43
 90
        3
102
RTVSPost2010PropOp43
 70
     0
102
RTVSPost2010Prop44ColorIndex
 90
        5
102
RTVSPost2010Prop44ColorRGB
 90
      255
102
RTVSPost2010PropOp44
 70
     0
102
RTVSPost2010Prop45
280
     0
102
RTVSPost2010PropOp45
 70
     1
102
RTVSPost2010Prop46
 90
       50
102
RTVSPost2010PropOp46
 70
     0
102
RTVSPost2010Prop47
 90
       50
102
RTVSPost2010PropOp47
 70
     0
102
RTVSPost2010Prop48
 90
       50
102
RTVSPost2010PropOp48
 70
     0
102
RTVSPost2010Prop49
280
     0
102
RTVSPost2010PropOp49
 70
     1
102
RTVSPost2010Prop50
 90
       50
102
RTVSPost2010PropOp50
 70
     0
102
RTVSPost2010Prop51ColorIndex
 90
      256
102
RTVSPost2010Prop51ColorRGB
 90
-16777216
102
RTVSPost2010PropOp51
 70
     0
102
RTVSPost2010Prop52
140
1.0
102
RTVSPost2010PropOp52
 70
     0
102
RTVSPost2010Prop53
 90
        2
102
RTVSPost2010PropOp53
 70
     0
102
RTVSPost2010Prop54
  1
strokes_ogs.tif
102
RTVSPost2010PropOp54
 70
     0
102
RTVSPost2010Prop55
280
     0
102
RTVSPost2010PropOp55
 70
     1
102
RTVSPost2010Prop56
140
1.0
102
RTVSPost2010PropOp56
 70
     0
102
RTVSPost2010Prop57
140
1.0
102
RTVSPost2010PropOp57
 70
     0
  0
XRECORD
  5
E6C
102
{ACAD_REACTORS
330
E6B
102
}
330
E6B
100
AcDbXrecord
280
     1
102
RTVSPost2010Prop28
280
     0
102
RTVSPost2010PropOp28
 70
     1
102
RTVSPost2010Prop29
280
     1
102
RTVSPost2010PropOp29
 70
     1
102
RTVSPost2010Prop30
280
     1
102
RTVSPost2010PropOp30
 70
     1
102
RTVSPost2010Prop31
280
     0
102
RTVSPost2010PropOp31
 70
     1
102
RTVSPost2010Prop32
280
     0
102
RTVSPost2010PropOp32
 70
     1
102
RTVSPost2010Prop33
280
     0
102
RTVSPost2010PropOp33
 70
     1
102
RTVSPost2010Prop34
280
     0
102
RTVSPost2010PropOp34
 70
     1
102
RTVSPost2010Prop35
280
     0
102
RTVSPost2010PropOp35
 70
     1
102
RTVSPost2010Prop36
280
     0
102
RTVSPost2010PropOp36
 70
     1
102
RTVSPost2010Prop37
 90
       50
102
RTVSPost2010PropOp37
 70
     1
102
RTVSPost2010Prop38
140
0.0
102
RTVSPost2010PropOp38
 70
     1
102
RTVSPost2010Prop39
140
1.0
102
RTVSPost2010PropOp39
 70
     1
102
RTVSPost2010Prop40
 90
        0
102
RTVSPost2010PropOp40
 70
     1
102
RTVSPost2010Prop41ColorIndex
 90
       18
102
RTVSPost2010Prop41ColorRGB
 90
        0
102
RTVSPost2010PropOp41
 70
     1
102
RTVSPost2010Prop42
 90
       50
102
RTVSPost2010PropOp42
 70
     1
102
RTVSPost2010Prop43
 90
        3
102
RTVSPost2010PropOp43
 70
     1
102
RTVSPost2010Prop44ColorIndex
 90
        5
102
RTVSPost2010Prop44ColorRGB
 90
      255
102
RTVSPost2010PropOp44
 70
     1
102
RTVSPost2010Prop45
280
     0
102
RTVSPost2010PropOp45
 70
     1
102
RTVSPost2010Prop46
 90
       50
102
RTVSPost2010PropOp46
 70
     1
102
RTVSPost2010Prop47
 90
       50
102
RTVSPost2010PropOp47
 70
     1
102
RTVSPost2010Prop48
 90
       50
102
RTVSPost2010PropOp48
 70
     1
102
RTVSPost2010Prop49
280
     0
102
RTVSPost2010PropOp49
 70
     1
102
RTVSPost2010Prop50
 90
       50
102
RTVSPost2010PropOp50
 70
     1
102
RTVSPost2010Prop51ColorIndex
 90
      256
102
RTVSPost2010Prop51ColorRGB
 90
-16777216
102
RTVSPost2010PropOp51
 70
     0
102
RTVSPost2010Prop52
140
1.0
102
RTVSPost2010PropOp52
 70
     0
102
RTVSPost2010Prop53
 90
        2
102
RTVSPost2010PropOp53
 70
     1
102
RTVSPost2010Prop54
  1
strokes_ogs.tif
102
RTVSPost2010PropOp54
 70
     1
102
RTVSPost2010Prop55
280
     0
102
RTVSPost2010PropOp55
 70
     1
102
RTVSPost2010Prop56
140
1.0
102
RTVSPost2010PropOp56
 70
     1
102
RTVSPost2010Prop57
140
1.0
102
RTVSPost2010PropOp57
 70
     1
  0
XRECORD
  5
E7E
102
{ACAD_REACTORS
330
E7D
102
}
330
E7D
100
AcDbXrecord
280
     1
102
RTVSPost2010Prop28
280
     0
102
RTVSPost2010PropOp28
 70
     1
102
RTVSPost2010Prop29
280
     1
102
RTVSPost2010PropOp29
 70
     1
102
RTVSPost2010Prop30
280
     1
102
RTVSPost2010PropOp30
 70
     1
102
RTVSPost2010Prop31
280
     0
102
RTVSPost2010PropOp31
 70
     1
102
RTVSPost2010Prop32
280
     0
102
RTVSPost2010PropOp32
 70
     1
102
RTVSPost2010Prop33
280
     0
102
RTVSPost2010PropOp33
 70
     1
102
RTVSPost2010Prop34
280
     0
102
RTVSPost2010PropOp34
 70
     1
102
RTVSPost2010Prop35
280
     0
102
RTVSPost2010PropOp35
 70
     1
102
RTVSPost2010Prop36
280
     0
102
RTVSPost2010PropOp36
 70
     1
102
RTVSPost2010Prop37
 90
       50
102
RTVSPost2010PropOp37
 70
     0
102
RTVSPost2010Prop38
140
0.0
102
RTVSPost2010PropOp38
 70
     0
102
RTVSPost2010Prop39
140
1.0
102
RTVSPost2010PropOp39
 70
     0
102
RTVSPost2010Prop40
 90
        0
102
RTVSPost2010PropOp40
 70
     0
102
RTVSPost2010Prop41ColorIndex
 90
       18
102
RTVSPost2010Prop41ColorRGB
 90
        0
102
RTVSPost2010PropOp41
 70
     0
102
RTVSPost2010Prop42
 90
       50
102
RTVSPost2010PropOp42
 70
     0
102
RTVSPost2010Prop43
 90
        3
102
RTVSPost2010PropOp43
 70
     0
102
RTVSPost2010Prop44ColorIndex
 90
        5
102
RTVSPost2010Prop44ColorRGB
 90
      255
102
RTVSPost2010PropOp44
 70
     0
102
RTVSPost2010Prop45
280
     0
102
RTVSPost2010PropOp45
 70
     1
102
RTVSPost2010Prop46
 90
       50
102
RTVSPost2010PropOp46
 70
     0
102
RTVSPost2010Prop47
 90
       50
102
RTVSPost2010PropOp47
 70
     0
102
RTVSPost2010Prop48
 90
       50
102
RTVSPost2010PropOp48
 70
     0
102
RTVSPost2010Prop49
280
     0
102
RTVSPost2010PropOp49
 70
     1
102
RTVSPost2010Prop50
 90
       50
102
RTVSPost2010PropOp50
 70
     0
102
RTVSPost2010Prop51ColorIndex
 90
      256
102
RTVSPost2010Prop51ColorRGB
 90
-16777216
102
RTVSPost2010PropOp51
 70
     0
102
RTVSPost2010Prop52
140
1.0
102
RTVSPost2010PropOp52
 70
     0
102
RTVSPost2010Prop53
 90
        2
102
RTVSPost2010PropOp53
 70
     0
102
RTVSPost2010Prop54
  1
strokes_ogs.tif
102
RTVSPost2010PropOp54
 70
     0
102
RTVSPost2010Prop55
280
     0
102
RTVSPost2010PropOp55
 70
     1
102
RTVSPost2010Prop56
140
1.0
102
RTVSPost2010PropOp56
 70
     0
102
RTVSPost2010Prop57
140
1.0
102
RTVSPost2010PropOp57
 70
     0
  0
XRECORD
  5
E64
102
{ACAD_REACTORS
330
E63
102
}
330
E63
100
AcDbXrecord
280
     1
102
RTVSPost2010Prop28
280
     0
102
RTVSPost2010PropOp28
 70
     1
102
RTVSPost2010Prop29
280
     1
102
RTVSPost2010PropOp29
 70
     1
102
RTVSPost2010Prop30
280
     1
102
RTVSPost2010PropOp30
 70
     1
102
RTVSPost2010Prop31
280
     0
102
RTVSPost2010PropOp31
 70
     1
102
RTVSPost2010Prop32
280
     0
102
RTVSPost2010PropOp32
 70
     1
102
RTVSPost2010Prop33
280
     0
102
RTVSPost2010PropOp33
 70
     1
102
RTVSPost2010Prop34
280
     0
102
RTVSPost2010PropOp34
 70
     1
102
RTVSPost2010Prop35
280
     0
102
RTVSPost2010PropOp35
 70
     1
102
RTVSPost2010Prop36
280
     0
102
RTVSPost2010PropOp36
 70
     1
102
RTVSPost2010Prop37
 90
       50
102
RTVSPost2010PropOp37
 70
     1
102
RTVSPost2010Prop38
140
0.0
102
RTVSPost2010PropOp38
 70
     1
102
RTVSPost2010Prop39
140
1.0
102
RTVSPost2010PropOp39
 70
     1
102
RTVSPost2010Prop40
 90
        0
102
RTVSPost2010PropOp40
 70
     1
102
RTVSPost2010Prop41ColorIndex
 90
       18
102
RTVSPost2010Prop41ColorRGB
 90
        0
102
RTVSPost2010PropOp41
 70
     1
102
RTVSPost2010Prop42
 90
       50
102
RTVSPost2010PropOp42
 70
     1
102
RTVSPost2010Prop43
 90
        3
102
RTVSPost2010PropOp43
 70
     1
102
RTVSPost2010Prop44ColorIndex
 90
        5
102
RTVSPost2010Prop44ColorRGB
 90
      255
102
RTVSPost2010PropOp44
 70
     1
102
RTVSPost2010Prop45
280
     0
102
RTVSPost2010PropOp45
 70
     1
102
RTVSPost2010Prop46
 90
       50
102
RTVSPost2010PropOp46
 70
     1
102
RTVSPost2010Prop47
 90
       50
102
RTVSPost2010PropOp47
 70
     1
102
RTVSPost2010Prop48
 90
       50
102
RTVSPost2010PropOp48
 70
     1
102
RTVSPost2010Prop49
280
     0
102
RTVSPost2010PropOp49
 70
     1
102
RTVSPost2010Prop50
 90
       50
102
RTVSPost2010PropOp50
 70
     1
102
RTVSPost2010Prop51ColorIndex
 90
      256
102
RTVSPost2010Prop51ColorRGB
 90
-16777216
102
RTVSPost2010PropOp51
 70
     0
102
RTVSPost2010Prop52
140
1.0
102
RTVSPost2010PropOp52
 70
     0
102
RTVSPost2010Prop53
 90
        2
102
RTVSPost2010PropOp53
 70
     1
102
RTVSPost2010Prop54
  1
strokes_ogs.tif
102
RTVSPost2010PropOp54
 70
     1
102
RTVSPost2010Prop55
280
     0
102
RTVSPost2010PropOp55
 70
     1
102
RTVSPost2010Prop56
140
1.0
102
RTVSPost2010PropOp56
 70
     1
102
RTVSPost2010Prop57
140
1.0
102
RTVSPost2010PropOp57
 70
     1
  0
XRECORD
  5
E7A
102
{ACAD_REACTORS
330
E79
102
}
330
E79
100
AcDbXrecord
280
     1
102
RTVSPost2010Prop28
280
     0
102
RTVSPost2010PropOp28
 70
     1
102
RTVSPost2010Prop29
280
     1
102
RTVSPost2010PropOp29
 70
     1
102
RTVSPost2010Prop30
280
     1
102
RTVSPost2010PropOp30
 70
     1
102
RTVSPost2010Prop31
280
     0
102
RTVSPost2010PropOp31
 70
     1
102
RTVSPost2010Prop32
280
     0
102
RTVSPost2010PropOp32
 70
     1
102
RTVSPost2010Prop33
280
     0
102
RTVSPost2010PropOp33
 70
     1
102
RTVSPost2010Prop34
280
     0
102
RTVSPost2010PropOp34
 70
     1
102
RTVSPost2010Prop35
280
     0
102
RTVSPost2010PropOp35
 70
     1
102
RTVSPost2010Prop36
280
     0
102
RTVSPost2010PropOp36
 70
     1
102
RTVSPost2010Prop37
 90
       50
102
RTVSPost2010PropOp37
 70
     1
102
RTVSPost2010Prop38
140
0.0
102
RTVSPost2010PropOp38
 70
     1
102
RTVSPost2010Prop39
140
1.0
102
RTVSPost2010PropOp39
 70
     1
102
RTVSPost2010Prop40
 90
        0
102
RTVSPost2010PropOp40
 70
     1
102
RTVSPost2010Prop41ColorIndex
 90
       18
102
RTVSPost2010Prop41ColorRGB
 90
        0
102
RTVSPost2010PropOp41
 70
     1
102
RTVSPost2010Prop42
 90
       50
102
RTVSPost2010PropOp42
 70
     1
102
RTVSPost2010Prop43
 90
        3
102
RTVSPost2010PropOp43
 70
     1
102
RTVSPost2010Prop44ColorIndex
 90
        5
102
RTVSPost2010Prop44ColorRGB
 90
      255
102
RTVSPost2010PropOp44
 70
     1
102
RTVSPost2010Prop45
280
     0
102
RTVSPost2010PropOp45
 70
     1
102
RTVSPost2010Prop46
 90
       50
102
RTVSPost2010PropOp46
 70
     1
102
RTVSPost2010Prop47
 90
       50
102
RTVSPost2010PropOp47
 70
     1
102
RTVSPost2010Prop48
 90
       50
102
RTVSPost2010PropOp48
 70
     1
102
RTVSPost2010Prop49
280
     0
102
RTVSPost2010PropOp49
 70
     1
102
RTVSPost2010Prop50
 90
       50
102
RTVSPost2010PropOp50
 70
     1
102
RTVSPost2010Prop51ColorIndex
 90
      256
102
RTVSPost2010Prop51ColorRGB
 90
-16777216
102
RTVSPost2010PropOp51
 70
     0
102
RTVSPost2010Prop52
140
1.0
102
RTVSPost2010PropOp52
 70
     0
102
RTVSPost2010Prop53
 90
        2
102
RTVSPost2010PropOp53
 70
     1
102
RTVSPost2010Prop54
  1
strokes_ogs.tif
102
RTVSPost2010PropOp54
 70
     1
102
RTVSPost2010Prop55
280
     0
102
RTVSPost2010PropOp55
 70
     1
102
RTVSPost2010Prop56
140
1.0
102
RTVSPost2010PropOp56
 70
     1
102
RTVSPost2010Prop57
140
1.0
102
RTVSPost2010PropOp57
 70
     1
  0
XRECORD
  5
E78
102
{ACAD_REACTORS
330
E77
102
}
330
E77
100
AcDbXrecord
280
     1
102
RTVSPost2010Prop28
280
     0
102
RTVSPost2010PropOp28
 70
     1
102
RTVSPost2010Prop29
280
     1
102
RTVSPost2010PropOp29
 70
     1
102
RTVSPost2010Prop30
280
     1
102
RTVSPost2010PropOp30
 70
     1
102
RTVSPost2010Prop31
280
     0
102
RTVSPost2010PropOp31
 70
     1
102
RTVSPost2010Prop32
280
     0
102
RTVSPost2010PropOp32
 70
     1
102
RTVSPost2010Prop33
280
     0
102
RTVSPost2010PropOp33
 70
     1
102
RTVSPost2010Prop34
280
     0
102
RTVSPost2010PropOp34
 70
     1
102
RTVSPost2010Prop35
280
     0
102
RTVSPost2010PropOp35
 70
     1
102
RTVSPost2010Prop36
280
     0
102
RTVSPost2010PropOp36
 70
     1
102
RTVSPost2010Prop37
 90
       50
102
RTVSPost2010PropOp37
 70
     1
102
RTVSPost2010Prop38
140
0.0
102
RTVSPost2010PropOp38
 70
     1
102
RTVSPost2010Prop39
140
1.0
102
RTVSPost2010PropOp39
 70
     1
102
RTVSPost2010Prop40
 90
        0
102
RTVSPost2010PropOp40
 70
     1
102
RTVSPost2010Prop41ColorIndex
 90
       18
102
RTVSPost2010Prop41ColorRGB
 90
        0
102
RTVSPost2010PropOp41
 70
     1
102
RTVSPost2010Prop42
 90
       50
102
RTVSPost2010PropOp42
 70
     1
102
RTVSPost2010Prop43
 90
        3
102
RTVSPost2010PropOp43
 70
     1
102
RTVSPost2010Prop44ColorIndex
 90
        5
102
RTVSPost2010Prop44ColorRGB
 90
      255
102
RTVSPost2010PropOp44
 70
     1
102
RTVSPost2010Prop45
280
     0
102
RTVSPost2010PropOp45
 70
     1
102
RTVSPost2010Prop46
 90
       50
102
RTVSPost2010PropOp46
 70
     1
102
RTVSPost2010Prop47
 90
       50
102
RTVSPost2010PropOp47
 70
     1
102
RTVSPost2010Prop48
 90
       50
102
RTVSPost2010PropOp48
 70
     1
102
RTVSPost2010Prop49
280
     0
102
RTVSPost2010PropOp49
 70
     1
102
RTVSPost2010Prop50
 90
       50
102
RTVSPost2010PropOp50
 70
     1
102
RTVSPost2010Prop51ColorIndex
 90
      256
102
RTVSPost2010Prop51ColorRGB
 90
-16777216
102
RTVSPost2010PropOp51
 70
     0
102
RTVSPost2010Prop52
140
1.0
102
RTVSPost2010PropOp52
 70
     0
102
RTVSPost2010Prop53
 90
        2
102
RTVSPost2010PropOp53
 70
     1
102
RTVSPost2010Prop54
  1
strokes_ogs.tif
102
RTVSPost2010PropOp54
 70
     1
102
RTVSPost2010Prop55
280
     0
102
RTVSPost2010PropOp55
 70
     1
102
RTVSPost2010Prop56
140
1.0
102
RTVSPost2010PropOp56
 70
     1
102
RTVSPost2010Prop57
140
1.0
102
RTVSPost2010PropOp57
 70
     1
  0
XRECORD
  5
E72
102
{ACAD_REACTORS
330
E71
102
}
330
E71
100
AcDbXrecord
280
     1
102
RTVSPost2010Prop28
280
     0
102
RTVSPost2010PropOp28
 70
     1
102
RTVSPost2010Prop29
280
     1
102
RTVSPost2010PropOp29
 70
     1
102
RTVSPost2010Prop30
280
     1
102
RTVSPost2010PropOp30
 70
     1
102
RTVSPost2010Prop31
280
     0
102
RTVSPost2010PropOp31
 70
     1
102
RTVSPost2010Prop32
280
     0
102
RTVSPost2010PropOp32
 70
     1
102
RTVSPost2010Prop33
280
     0
102
RTVSPost2010PropOp33
 70
     1
102
RTVSPost2010Prop34
280
     0
102
RTVSPost2010PropOp34
 70
     1
102
RTVSPost2010Prop35
280
     0
102
RTVSPost2010PropOp35
 70
     1
102
RTVSPost2010Prop36
280
     0
102
RTVSPost2010PropOp36
 70
     1
102
RTVSPost2010Prop37
 90
       50
102
RTVSPost2010PropOp37
 70
     1
102
RTVSPost2010Prop38
140
0.0
102
RTVSPost2010PropOp38
 70
     1
102
RTVSPost2010Prop39
140
1.0
102
RTVSPost2010PropOp39
 70
     1
102
RTVSPost2010Prop40
 90
        0
102
RTVSPost2010PropOp40
 70
     1
102
RTVSPost2010Prop41ColorIndex
 90
       18
102
RTVSPost2010Prop41ColorRGB
 90
        0
102
RTVSPost2010PropOp41
 70
     1
102
RTVSPost2010Prop42
 90
       50
102
RTVSPost2010PropOp42
 70
     1
102
RTVSPost2010Prop43
 90
        3
102
RTVSPost2010PropOp43
 70
     1
102
RTVSPost2010Prop44ColorIndex
 90
        5
102
RTVSPost2010Prop44ColorRGB
 90
      255
102
RTVSPost2010PropOp44
 70
     1
102
RTVSPost2010Prop45
280
     0
102
RTVSPost2010PropOp45
 70
     1
102
RTVSPost2010Prop46
 90
       50
102
RTVSPost2010PropOp46
 70
     1
102
RTVSPost2010Prop47
 90
       50
102
RTVSPost2010PropOp47
 70
     1
102
RTVSPost2010Prop48
 90
       50
102
RTVSPost2010PropOp48
 70
     1
102
RTVSPost2010Prop49
280
     0
102
RTVSPost2010PropOp49
 70
     1
102
RTVSPost2010Prop50
 90
       50
102
RTVSPost2010PropOp50
 70
     1
102
RTVSPost2010Prop51ColorIndex
 90
      256
102
RTVSPost2010Prop51ColorRGB
 90
-16777216
102
RTVSPost2010PropOp51
 70
     0
102
RTVSPost2010Prop52
140
1.0
102
RTVSPost2010PropOp52
 70
     0
102
RTVSPost2010Prop53
 90
        2
102
RTVSPost2010PropOp53
 70
     1
102
RTVSPost2010Prop54
  1
strokes_ogs.tif
102
RTVSPost2010PropOp54
 70
     1
102
RTVSPost2010Prop55
280
     0
102
RTVSPost2010PropOp55
 70
     1
102
RTVSPost2010Prop56
140
1.0
102
RTVSPost2010PropOp56
 70
     1
102
RTVSPost2010Prop57
140
1.0
102
RTVSPost2010PropOp57
 70
     1
  0
XRECORD
  5
E74
102
{ACAD_REACTORS
330
E73
102
}
330
E73
100
AcDbXrecord
280
     1
102
RTVSPost2010Prop28
280
     0
102
RTVSPost2010PropOp28
 70
     1
102
RTVSPost2010Prop29
280
     1
102
RTVSPost2010PropOp29
 70
     1
102
RTVSPost2010Prop30
280
     1
102
RTVSPost2010PropOp30
 70
     1
102
RTVSPost2010Prop31
280
     0
102
RTVSPost2010PropOp31
 70
     1
102
RTVSPost2010Prop32
280
     0
102
RTVSPost2010PropOp32
 70
     1
102
RTVSPost2010Prop33
280
     0
102
RTVSPost2010PropOp33
 70
     1
102
RTVSPost2010Prop34
280
     0
102
RTVSPost2010PropOp34
 70
     1
102
RTVSPost2010Prop35
280
     0
102
RTVSPost2010PropOp35
 70
     1
102
RTVSPost2010Prop36
280
     0
102
RTVSPost2010PropOp36
 70
     1
102
RTVSPost2010Prop37
 90
       50
102
RTVSPost2010PropOp37
 70
     1
102
RTVSPost2010Prop38
140
0.0
102
RTVSPost2010PropOp38
 70
     1
102
RTVSPost2010Prop39
140
1.0
102
RTVSPost2010PropOp39
 70
     1
102
RTVSPost2010Prop40
 90
        0
102
RTVSPost2010PropOp40
 70
     1
102
RTVSPost2010Prop41ColorIndex
 90
       18
102
RTVSPost2010Prop41ColorRGB
 90
        0
102
RTVSPost2010PropOp41
 70
     1
102
RTVSPost2010Prop42
 90
       50
102
RTVSPost2010PropOp42
 70
     1
102
RTVSPost2010Prop43
 90
        3
102
RTVSPost2010PropOp43
 70
     1
102
RTVSPost2010Prop44ColorIndex
 90
        5
102
RTVSPost2010Prop44ColorRGB
 90
      255
102
RTVSPost2010PropOp44
 70
     1
102
RTVSPost2010Prop45
280
     0
102
RTVSPost2010PropOp45
 70
     1
102
RTVSPost2010Prop46
 90
       50
102
RTVSPost2010PropOp46
 70
     1
102
RTVSPost2010Prop47
 90
       50
102
RTVSPost2010PropOp47
 70
     1
102
RTVSPost2010Prop48
 90
       50
102
RTVSPost2010PropOp48
 70
     1
102
RTVSPost2010Prop49
280
     0
102
RTVSPost2010PropOp49
 70
     1
102
RTVSPost2010Prop50
 90
       50
102
RTVSPost2010PropOp50
 70
     1
102
RTVSPost2010Prop51ColorIndex
 90
      256
102
RTVSPost2010Prop51ColorRGB
 90
-16777216
102
RTVSPost2010PropOp51
 70
     0
102
RTVSPost2010Prop52
140
1.0
102
RTVSPost2010PropOp52
 70
     0
102
RTVSPost2010Prop53
 90
        2
102
RTVSPost2010PropOp53
 70
     1
102
RTVSPost2010Prop54
  1
strokes_ogs.tif
102
RTVSPost2010PropOp54
 70
     1
102
RTVSPost2010Prop55
280
     0
102
RTVSPost2010PropOp55
 70
     1
102
RTVSPost2010Prop56
140
1.0
102
RTVSPost2010PropOp56
 70
     1
102
RTVSPost2010Prop57
140
1.0
102
RTVSPost2010PropOp57
 70
     1
  0
XRECORD
  5
E6A
102
{ACAD_REACTORS
330
E69
102
}
330
E69
100
AcDbXrecord
280
     1
102
RTVSPost2010Prop28
280
     0
102
RTVSPost2010PropOp28
 70
     1
102
RTVSPost2010Prop29
280
     1
102
RTVSPost2010PropOp29
 70
     1
102
RTVSPost2010Prop30
280
     1
102
RTVSPost2010PropOp30
 70
     1
102
RTVSPost2010Prop31
280
     0
102
RTVSPost2010PropOp31
 70
     1
102
RTVSPost2010Prop32
280
     0
102
RTVSPost2010PropOp32
 70
     1
102
RTVSPost2010Prop33
280
     0
102
RTVSPost2010PropOp33
 70
     1
102
RTVSPost2010Prop34
280
     0
102
RTVSPost2010PropOp34
 70
     1
102
RTVSPost2010Prop35
280
     0
102
RTVSPost2010PropOp35
 70
     1
102
RTVSPost2010Prop36
280
     0
102
RTVSPost2010PropOp36
 70
     1
102
RTVSPost2010Prop37
 90
       50
102
RTVSPost2010PropOp37
 70
     1
102
RTVSPost2010Prop38
140
0.0
102
RTVSPost2010PropOp38
 70
     1
102
RTVSPost2010Prop39
140
1.0
102
RTVSPost2010PropOp39
 70
     1
102
RTVSPost2010Prop40
 90
        0
102
RTVSPost2010PropOp40
 70
     1
102
RTVSPost2010Prop41ColorIndex
 90
       18
102
RTVSPost2010Prop41ColorRGB
 90
        0
102
RTVSPost2010PropOp41
 70
     1
102
RTVSPost2010Prop42
 90
       50
102
RTVSPost2010PropOp42
 70
     1
102
RTVSPost2010Prop43
 90
        3
102
RTVSPost2010PropOp43
 70
     1
102
RTVSPost2010Prop44ColorIndex
 90
        5
102
RTVSPost2010Prop44ColorRGB
 90
      255
102
RTVSPost2010PropOp44
 70
     1
102
RTVSPost2010Prop45
280
     0
102
RTVSPost2010PropOp45
 70
     1
102
RTVSPost2010Prop46
 90
       50
102
RTVSPost2010PropOp46
 70
     1
102
RTVSPost2010Prop47
 90
       50
102
RTVSPost2010PropOp47
 70
     1
102
RTVSPost2010Prop48
 90
       50
102
RTVSPost2010PropOp48
 70
     1
102
RTVSPost2010Prop49
280
     0
102
RTVSPost2010PropOp49
 70
     1
102
RTVSPost2010Prop50
 90
       50
102
RTVSPost2010PropOp50
 70
     1
102
RTVSPost2010Prop51ColorIndex
 90
      256
102
RTVSPost2010Prop51ColorRGB
 90
-16777216
102
RTVSPost2010PropOp51
 70
     0
102
RTVSPost2010Prop52
140
1.0
102
RTVSPost2010PropOp52
 70
     0
102
RTVSPost2010Prop53
 90
        2
102
RTVSPost2010PropOp53
 70
     1
102
RTVSPost2010Prop54
  1
strokes_ogs.tif
102
RTVSPost2010PropOp54
 70
     1
102
RTVSPost2010Prop55
280
     0
102
RTVSPost2010PropOp55
 70
     1
102
RTVSPost2010Prop56
140
1.0
102
RTVSPost2010PropOp56
 70
     1
102
RTVSPost2010Prop57
140
1.0
102
RTVSPost2010PropOp57
 70
     1
  0
XRECORD
  5
E5E
102
{ACAD_REACTORS
330
E5D
102
}
330
E5D
100
AcDbXrecord
280
     1
102
RTVSPost2010Prop28
280
     0
102
RTVSPost2010PropOp28
 70
     1
102
RTVSPost2010Prop29
280
     1
102
RTVSPost2010PropOp29
 70
     1
102
RTVSPost2010Prop30
280
     1
102
RTVSPost2010PropOp30
 70
     1
102
RTVSPost2010Prop31
280
     0
102
RTVSPost2010PropOp31
 70
     1
102
RTVSPost2010Prop32
280
     0
102
RTVSPost2010PropOp32
 70
     1
102
RTVSPost2010Prop33
280
     0
102
RTVSPost2010PropOp33
 70
     1
102
RTVSPost2010Prop34
280
     0
102
RTVSPost2010PropOp34
 70
     1
102
RTVSPost2010Prop35
280
     0
102
RTVSPost2010PropOp35
 70
     1
102
RTVSPost2010Prop36
280
     0
102
RTVSPost2010PropOp36
 70
     1
102
RTVSPost2010Prop37
 90
       50
102
RTVSPost2010PropOp37
 70
     1
102
RTVSPost2010Prop38
140
0.0
102
RTVSPost2010PropOp38
 70
     1
102
RTVSPost2010Prop39
140
1.0
102
RTVSPost2010PropOp39
 70
     1
102
RTVSPost2010Prop40
 90
        0
102
RTVSPost2010PropOp40
 70
     1
102
RTVSPost2010Prop41ColorIndex
 90
       18
102
RTVSPost2010Prop41ColorRGB
 90
        0
102
RTVSPost2010PropOp41
 70
     1
102
RTVSPost2010Prop42
 90
       50
102
RTVSPost2010PropOp42
 70
     1
102
RTVSPost2010Prop43
 90
        3
102
RTVSPost2010PropOp43
 70
     1
102
RTVSPost2010Prop44ColorIndex
 90
        5
102
RTVSPost2010Prop44ColorRGB
 90
      255
102
RTVSPost2010PropOp44
 70
     1
102
RTVSPost2010Prop45
280
     0
102
RTVSPost2010PropOp45
 70
     1
102
RTVSPost2010Prop46
 90
       50
102
RTVSPost2010PropOp46
 70
     1
102
RTVSPost2010Prop47
 90
       50
102
RTVSPost2010PropOp47
 70
     1
102
RTVSPost2010Prop48
 90
       50
102
RTVSPost2010PropOp48
 70
     1
102
RTVSPost2010Prop49
280
     0
102
RTVSPost2010PropOp49
 70
     1
102
RTVSPost2010Prop50
 90
       50
102
RTVSPost2010PropOp50
 70
     1
102
RTVSPost2010Prop51ColorIndex
 90
      256
102
RTVSPost2010Prop51ColorRGB
 90
-16777216
102
RTVSPost2010PropOp51
 70
     0
102
RTVSPost2010Prop52
140
1.0
102
RTVSPost2010PropOp52
 70
     0
102
RTVSPost2010Prop53
 90
        2
102
RTVSPost2010PropOp53
 70
     1
102
RTVSPost2010Prop54
  1
strokes_ogs.tif
102
RTVSPost2010PropOp54
 70
     1
102
RTVSPost2010Prop55
280
     0
102
RTVSPost2010PropOp55
 70
     1
102
RTVSPost2010Prop56
140
1.0
102
RTVSPost2010PropOp56
 70
     1
102
RTVSPost2010Prop57
140
1.0
102
RTVSPost2010PropOp57
 70
     1
  0
XRECORD
  5
E76
102
{ACAD_REACTORS
330
E75
102
}
330
E75
100
AcDbXrecord
280
     1
102
RTVSPost2010Prop28
280
     0
102
RTVSPost2010PropOp28
 70
     1
102
RTVSPost2010Prop29
280
     1
102
RTVSPost2010PropOp29
 70
     1
102
RTVSPost2010Prop30
280
     1
102
RTVSPost2010PropOp30
 70
     1
102
RTVSPost2010Prop31
280
     0
102
RTVSPost2010PropOp31
 70
     1
102
RTVSPost2010Prop32
280
     0
102
RTVSPost2010PropOp32
 70
     1
102
RTVSPost2010Prop33
280
     0
102
RTVSPost2010PropOp33
 70
     1
102
RTVSPost2010Prop34
280
     0
102
RTVSPost2010PropOp34
 70
     1
102
RTVSPost2010Prop35
280
     0
102
RTVSPost2010PropOp35
 70
     1
102
RTVSPost2010Prop36
280
     0
102
RTVSPost2010PropOp36
 70
     1
102
RTVSPost2010Prop37
 90
       50
102
RTVSPost2010PropOp37
 70
     1
102
RTVSPost2010Prop38
140
0.0
102
RTVSPost2010PropOp38
 70
     1
102
RTVSPost2010Prop39
140
1.0
102
RTVSPost2010PropOp39
 70
     1
102
RTVSPost2010Prop40
 90
        0
102
RTVSPost2010PropOp40
 70
     1
102
RTVSPost2010Prop41ColorIndex
 90
       18
102
RTVSPost2010Prop41ColorRGB
 90
        0
102
RTVSPost2010PropOp41
 70
     1
102
RTVSPost2010Prop42
 90
       50
102
RTVSPost2010PropOp42
 70
     1
102
RTVSPost2010Prop43
 90
        3
102
RTVSPost2010PropOp43
 70
     1
102
RTVSPost2010Prop44ColorIndex
 90
        5
102
RTVSPost2010Prop44ColorRGB
 90
      255
102
RTVSPost2010PropOp44
 70
     1
102
RTVSPost2010Prop45
280
     0
102
RTVSPost2010PropOp45
 70
     1
102
RTVSPost2010Prop46
 90
       50
102
RTVSPost2010PropOp46
 70
     1
102
RTVSPost2010Prop47
 90
       50
102
RTVSPost2010PropOp47
 70
     1
102
RTVSPost2010Prop48
 90
       50
102
RTVSPost2010PropOp48
 70
     1
102
RTVSPost2010Prop49
280
     0
102
RTVSPost2010PropOp49
 70
     1
102
RTVSPost2010Prop50
 90
       50
102
RTVSPost2010PropOp50
 70
     1
102
RTVSPost2010Prop51ColorIndex
 90
      256
102
RTVSPost2010Prop51ColorRGB
 90
-16777216
102
RTVSPost2010PropOp51
 70
     0
102
RTVSPost2010Prop52
140
1.0
102
RTVSPost2010PropOp52
 70
     0
102
RTVSPost2010Prop53
 90
        2
102
RTVSPost2010PropOp53
 70
     1
102
RTVSPost2010Prop54
  1
strokes_ogs.tif
102
RTVSPost2010PropOp54
 70
     1
102
RTVSPost2010Prop55
280
     0
102
RTVSPost2010PropOp55
 70
     1
102
RTVSPost2010Prop56
140
1.0
102
RTVSPost2010PropOp56
 70
     1
102
RTVSPost2010Prop57
140
1.0
102
RTVSPost2010PropOp57
 70
     1
  0
ENDSEC
  0
EOF
