  0
SECTION
  2
HEADER
  9
$ACADVER
  1
AC1024
  9
$ACADMAINTVER
 70
   182
  9
$DWGCODEPAGE
  3
ANSI_1252
  9
$LASTSAVEDBY
  1
gf659
  9
$INSBASE
 10
0.0
 20
0.0
 30
0.0
  9
$EXTMIN
 10
-3.473023604743906
 20
-4.833356776467124
 30
0.0
  9
$EXTMAX
 10
3.362777556998501
 20
4.992085308391678
 30
0.0
  9
$LIMMIN
 10
0.0
 20
0.0
  9
$LIMMAX
 10
420.0
 20
297.0
  9
$ORTHOMODE
 70
     1
  9
$REGENMODE
 70
     1
  9
$FILLMODE
 70
     1
  9
$QTEXTMODE
 70
     0
  9
$MIRRTEXT
 70
     1
  9
$LTSCALE
 40
1.0
  9
$ATTMODE
 70
     1
  9
$TEXTSIZE
 40
2.5
  9
$TRACEWID
 40
1.0
  9
$TEXTSTYLE
  7
STANDARD
  9
$CLAYER
  8
0
  9
$CELTYPE
  6
BYLAYER
  9
$CECOLOR
 62
   256
  9
$CELTSCALE
 40
1.0
  9
$DISPSILH
 70
     0
  9
$DIMSCALE
 40
1.0
  9
$DIMASZ
 40
2.5
  9
$DIMEXO
 40
0.625
  9
$DIMDLI
 40
3.75
  9
$DIMRND
 40
0.0
  9
$DIMDLE
 40
0.0
  9
$DIMEXE
 40
1.25
  9
$DIMTP
 40
0.0
  9
$DIMTM
 40
0.0
  9
$DIMTXT
 40
2.5
  9
$DIMCEN
 40
2.5
  9
$DIMTSZ
 40
0.0
  9
$DIMTOL
 70
     0
  9
$DIMLIM
 70
     0
  9
$DIMTIH
 70
     0
  9
$DIMTOH
 70
     0
  9
$DIMSE1
 70
     0
  9
$DIMSE2
 70
     0
  9
$DIMTAD
 70
     1
  9
$DIMZIN
 70
     8
  9
$DIMBLK
  1

  9
$DIMASO
 70
     1
  9
$DIMSHO
 70
     1
  9
$DIMPOST
  1

  9
$DIMAPOST
  1

  9
$DIMALT
 70
     0
  9
$DIMALTD
 70
     3
  9
$DIMALTF
 40
0.03937007874016
  9
$DIMLFAC
 40
1.0
  9
$DIMTOFL
 70
     1
  9
$DIMTVP
 40
0.0
  9
$DIMTIX
 70
     0
  9
$DIMSOXD
 70
     0
  9
$DIMSAH
 70
     0
  9
$DIMBLK1
  1

  9
$DIMBLK2
  1

  9
$DIMSTYLE
  2
ISO-25
  9
$DIMCLRD
 70
     0
  9
$DIMCLRE
 70
     0
  9
$DIMCLRT
 70
     0
  9
$DIMTFAC
 40
1.0
  9
$DIMGAP
 40
0.625
  9
$DIMJUST
 70
     0
  9
$DIMSD1
 70
     0
  9
$DIMSD2
 70
     0
  9
$DIMTOLJ
 70
     0
  9
$DIMTZIN
 70
     8
  9
$DIMALTZ
 70
     0
  9
$DIMALTTZ
 70
     0
  9
$DIMUPT
 70
     0
  9
$DIMDEC
 70
     2
  9
$DIMTDEC
 70
     2
  9
$DIMALTU
 70
     2
  9
$DIMALTTD
 70
     3
  9
$DIMTXSTY
  7
STANDARD
  9
$DIMAUNIT
 70
     0
  9
$DIMADEC
 70
     0
  9
$DIMALTRND
 40
0.0
  9
$DIMAZIN
 70
     0
  9
$DIMDSEP
 70
    44
  9
$DIMATFIT
 70
     3
  9
$DIMFRAC
 70
     0
  9
$DIMLDRBLK
  1

  9
$DIMLUNIT
 70
     2
  9
$DIMLWD
 70
    -2
  9
$DIMLWE
 70
    -2
  9
$DIMTMOVE
 70
     0
  9
$DIMFXL
 40
1.0
  9
$DIMFXLON
 70
     0
  9
$DIMJOGANG
 40
0.7853981633974483
  9
$DIMTFILL
 70
     0
  9
$DIMTFILLCLR
 70
     0
  9
$DIMARCSYM
 70
     0
  9
$DIMLTYPE
  6

  9
$DIMLTEX1
  6

  9
$DIMLTEX2
  6

  9
$DIMTXTDIRECTION
 70
     0
  9
$LUNITS
 70
     2
  9
$LUPREC
 70
     4
  9
$SKETCHINC
 40
1.0
  9
$FILLETRAD
 40
10.0
  9
$AUNITS
 70
     0
  9
$AUPREC
 70
     0
  9
$MENU
  1
.
  9
$ELEVATION
 40
0.0
  9
$PELEVATION
 40
0.0
  9
$THICKNESS
 40
0.0
  9
$LIMCHECK
 70
     0
  9
$CHAMFERA
 40
10.0
  9
$CHAMFERB
 40
10.0
  9
$CHAMFERC
 40
20.0
  9
$CHAMFERD
 40
0.0
  9
$SKPOLY
 70
     0
  9
$TDCREATE
 40
2451750.442121528
  9
$TDUCREATE
 40
2451750.400454861
  9
$TDUPDATE
 40
2457225.502648090
  9
$TDUUPDATE
 40
2457225.460981424
  9
$TDINDWG
 40
0.0091253125
  9
$TDUSRTIMER
 40
0.0091253009
  9
$USRTIMER
 70
     1
  9
$ANGBASE
 50
0.0
  9
$ANGDIR
 70
     0
  9
$PDMODE
 70
     0
  9
$PDSIZE
 40
0.0
  9
$PLINEWID
 40
0.0
  9
$SPLFRAME
 70
     0
  9
$SPLINETYPE
 70
     6
  9
$SPLINESEGS
 70
     8
  9
$HANDSEED
  5
5D4
  9
$SURFTAB1
 70
     6
  9
$SURFTAB2
 70
     6
  9
$SURFTYPE
 70
     6
  9
$SURFU
 70
     6
  9
$SURFV
 70
     6
  9
$UCSBASE
  2

  9
$UCSNAME
  2

  9
$UCSORG
 10
0.0
 20
0.0
 30
0.0
  9
$UCSXDIR
 10
1.0
 20
0.0
 30
0.0
  9
$UCSYDIR
 10
0.0
 20
1.0
 30
0.0
  9
$UCSORTHOREF
  2

  9
$UCSORTHOVIEW
 70
     0
  9
$UCSORGTOP
 10
0.0
 20
0.0
 30
0.0
  9
$UCSORGBOTTOM
 10
0.0
 20
0.0
 30
0.0
  9
$UCSORGLEFT
 10
0.0
 20
0.0
 30
0.0
  9
$UCSORGRIGHT
 10
0.0
 20
0.0
 30
0.0
  9
$UCSORGFRONT
 10
0.0
 20
0.0
 30
0.0
  9
$UCSORGBACK
 10
0.0
 20
0.0
 30
0.0
  9
$PUCSBASE
  2

  9
$PUCSNAME
  2

  9
$PUCSORG
 10
0.0
 20
0.0
 30
0.0
  9
$PUCSXDIR
 10
1.0
 20
0.0
 30
0.0
  9
$PUCSYDIR
 10
0.0
 20
1.0
 30
0.0
  9
$PUCSORTHOREF
  2

  9
$PUCSORTHOVIEW
 70
     0
  9
$PUCSORGTOP
 10
0.0
 20
0.0
 30
0.0
  9
$PUCSORGBOTTOM
 10
0.0
 20
0.0
 30
0.0
  9
$PUCSORGLEFT
 10
0.0
 20
0.0
 30
0.0
  9
$PUCSORGRIGHT
 10
0.0
 20
0.0
 30
0.0
  9
$PUCSORGFRONT
 10
0.0
 20
0.0
 30
0.0
  9
$PUCSORGBACK
 10
0.0
 20
0.0
 30
0.0
  9
$USERI1
 70
     0
  9
$USERI2
 70
     0
  9
$USERI3
 70
     0
  9
$USERI4
 70
     0
  9
$USERI5
 70
     0
  9
$USERR1
 40
0.0
  9
$USERR2
 40
0.0
  9
$USERR3
 40
0.0
  9
$USERR4
 40
0.0
  9
$USERR5
 40
0.0
  9
$WORLDVIEW
 70
     1
  9
$SHADEDGE
 70
     3
  9
$SHADEDIF
 70
    70
  9
$TILEMODE
 70
     1
  9
$MAXACTVP
 70
    64
  9
$PINSBASE
 10
0.0
 20
0.0
 30
0.0
  9
$PLIMCHECK
 70
     0
  9
$PEXTMIN
 10
1.000000000000000E+20
 20
1.000000000000000E+20
 30
1.000000000000000E+20
  9
$PEXTMAX
 10
-1.000000000000000E+20
 20
-1.000000000000000E+20
 30
-1.000000000000000E+20
  9
$PLIMMIN
 10
0.0
 20
0.0
  9
$PLIMMAX
 10
420.0
 20
297.0
  9
$UNITMODE
 70
     0
  9
$VISRETAIN
 70
     1
  9
$PLINEGEN
 70
     0
  9
$PSLTSCALE
 70
     1
  9
$TREEDEPTH
 70
  3020
  9
$CMLSTYLE
  2
STANDARD
  9
$CMLJUST
 70
     0
  9
$CMLSCALE
 40
20.0
  9
$PROXYGRAPHICS
 70
     1
  9
$MEASUREMENT
 70
     1
  9
$CELWEIGHT
370
    -1
  9
$ENDCAPS
280
     0
  9
$JOINSTYLE
280
     0
  9
$LWDISPLAY
290
     0
  9
$INSUNITS
 70
     4
  9
$HYPERLINKBASE
  1

  9
$STYLESHEET
  1

  9
$XEDIT
290
     1
  9
$CEPSNTYPE
380
     0
  9
$PSTYLEMODE
290
     1
  9
$FINGERPRINTGUID
  2
{C7B9CCF9-6144-11D4-856B-000102170C25}
  9
$VERSIONGUID
  2
{133BB3E9-1AE1-467C-B8E0-D20C32256CE3}
  9
$EXTNAMES
290
     1
  9
$PSVPSCALE
 40
0.0
  9
$OLESTARTUP
290
     0
  9
$SORTENTS
280
   127
  9
$INDEXCTL
280
     0
  9
$HIDETEXT
280
     0
  9
$XCLIPFRAME
280
     2
  9
$HALOGAP
280
     0
  9
$OBSCOLOR
 70
   257
  9
$OBSLTYPE
280
     0
  9
$INTERSECTIONDISPLAY
280
     0
  9
$INTERSECTIONCOLOR
 70
   257
  9
$DIMASSOC
280
     1
  9
$PROJECTNAME
  1

  9
$CAMERADISPLAY
290
     0
  9
$LENSLENGTH
 40
50.0
  9
$CAMERAHEIGHT
 40
0.0
  9
$STEPSPERSEC
 40
2.0
  9
$STEPSIZE
 40
6.0
  9
$3DDWFPREC
 40
2.0
  9
$PSOLWIDTH
 40
0.25
  9
$PSOLHEIGHT
 40
4.0
  9
$LOFTANG1
 40
1.570796326794896
  9
$LOFTANG2
 40
1.570796326794896
  9
$LOFTMAG1
 40
0.0
  9
$LOFTMAG2
 40
0.0
  9
$LOFTPARAM
 70
     7
  9
$LOFTNORMALS
280
     1
  9
$LATITUDE
 40
37.795
  9
$LONGITUDE
 40
-122.394
  9
$NORTHDIRECTION
 40
0.0
  9
$TIMEZONE
 70
 -8000
  9
$LIGHTGLYPHDISPLAY
280
     1
  9
$TILEMODELIGHTSYNCH
280
     1
  9
$CMATERIAL
347
4FB
  9
$SOLIDHIST
280
     0
  9
$SHOWHIST
280
     1
  9
$DWFFRAME
280
     2
  9
$DGNFRAME
280
     0
  9
$REALWORLDSCALE
290
     1
  9
$INTERFERECOLOR
 62
     1
  9
$INTERFEREOBJVS
345
51D
  9
$INTERFEREVPVS
346
51A
  9
$CSHADOW
280
     0
  9
$SHADOWPLANELOCATION
 40
0.0
  0
ENDSEC
  0
SECTION
  2
CLASSES
  0
CLASS
  1
ACDBDICTIONARYWDFLT
  2
AcDbDictionaryWithDefault
  3
ObjectDBX Classes
 90
        0
 91
        1
280
     0
281
     0
  0
CLASS
  1
IMAGE
  2
AcDbRasterImage
  3
ISM
 90
     2175
 91
       18
280
     0
281
     1
  0
CLASS
  1
IMAGEDEF_REACTOR
  2
AcDbRasterImageDefReactor
  3
ISM
 90
        1
 91
       18
280
     0
281
     0
  0
CLASS
  1
IMAGEDEF
  2
AcDbRasterImageDef
  3
ISM
 90
        0
 91
       18
280
     0
281
     0
  0
CLASS
  1
RASTERVARIABLES
  2
AcDbRasterVariables
  3
ISM
 90
        0
 91
        1
280
     0
281
     0
  0
CLASS
  1
DICTIONARYVAR
  2
AcDbDictionaryVar
  3
ObjectDBX Classes
 90
        0
 91
       19
280
     0
281
     0
  0
CLASS
  1
SORTENTSTABLE
  2
AcDbSortentsTable
  3
ObjectDBX Classes
 90
        0
 91
        1
280
     0
281
     0
  0
CLASS
  1
MATERIAL
  2
AcDbMaterial
  3
ObjectDBX Classes
 90
     1153
 91
        3
280
     0
281
     0
  0
CLASS
  1
VISUALSTYLE
  2
AcDbVisualStyle
  3
ObjectDBX Classes
 90
     4095
 91
       24
280
     0
281
     0
  0
CLASS
  1
TABLESTYLE
  2
AcDbTableStyle
  3
ObjectDBX Classes
 90
     4095
 91
        1
280
     0
281
     0
  0
CLASS
  1
SCALE
  2
AcDbScale
  3
ObjectDBX Classes
 90
     1153
 91
       17
280
     0
281
     0
  0
CLASS
  1
MLEADERSTYLE
  2
AcDbMLeaderStyle
  3
ACDB_MLEADERSTYLE_CLASS
 90
     4095
 91
        1
280
     0
281
     0
  0
CLASS
  1
ACDBSECTIONVIEWSTYLE
  2
AcDbSectionViewStyle
  3
ObjectDBX Classes
 90
     1025
 91
        1
280
     0
281
     0
  0
CLASS
  1
ACDBDETAILVIEWSTYLE
  2
AcDbDetailViewStyle
  3
ObjectDBX Classes
 90
     1025
 91
        1
280
     0
281
     0
  0
CLASS
  1
CELLSTYLEMAP
  2
AcDbCellStyleMap
  3
ObjectDBX Classes
 90
     1152
 91
        1
280
     0
281
     0
  0
ENDSEC
  0
SECTION
  2
TABLES
  0
TABLE
  2
VPORT
  5
8
330
0
100
AcDbSymbolTable
 70
     1
  0
VPORT
  5
4D0
330
8
100
AcDbSymbolTableRecord
100
AcDbViewportTableRecord
  2
*ACTIVE
 70
     0
 10
0.0
 20
0.0
 11
1.0
 21
1.0
 12
-0.0551230238727047
 22
1.232290074318155
 13
0.0
 23
0.0
 14
10.0
 24
10.0
 15
10.0
 25
10.0
 16
0.0
 26
0.0
 36
1.0
 17
0.0
 27
0.0
 37
0.0
 40
11.83165540809809
 41
1.495249406175771
 42
50.0
 43
0.0
 44
0.0
 50
0.0
 51
0.0
 71
     0
 72
   100
 73
     1
 74
     2
 75
     0
 76
     0
 77
     0
 78
     0
281
     0
 65
     1
110
0.0
120
0.0
130
0.0
111
1.0
121
0.0
131
0.0
112
0.0
122
1.0
132
0.0
 79
     0
146
0.0
348
519
 60
     3
 61
     5
292
     1
282
     1
141
0.0
142
0.0
 63
   250
421
  3355443
1001
ACAD_NAV_VCDISPLAY
1070
     3
  0
ENDTAB
  0
TABLE
  2
LTYPE
  5
5
330
0
100
AcDbSymbolTable
 70
    10
  0
LTYPE
  5
14
330
5
100
AcDbSymbolTableRecord
100
AcDbLinetypeTableRecord
  2
BYBLOCK
 70
     0
  3

 72
    65
 73
     0
 40
0.0
  0
LTYPE
  5
15
330
5
100
AcDbSymbolTableRecord
100
AcDbLinetypeTableRecord
  2
BYLAYER
 70
     0
  3

 72
    65
 73
     0
 40
0.0
  0
LTYPE
  5
16
330
5
100
AcDbSymbolTableRecord
100
AcDbLinetypeTableRecord
  2
CONTINUOUS
 70
     0
  3
Solid line
 72
    65
 73
     0
 40
0.0
  0
LTYPE
  5
69
330
5
100
AcDbSymbolTableRecord
100
AcDbLinetypeTableRecord
  2
DASHED
 70
     0
  3
__ __ __ __ __ __ __ __ __ __ __ __ __ __ __
 72
    65
 73
     2
 40
0.000003
 49
0.000002
 74
     0
 49
-0.000001
 74
     0
  0
LTYPE
  5
6A
330
5
100
AcDbSymbolTableRecord
100
AcDbLinetypeTableRecord
  2
HIDDEN
 70
     0
  3
 _ _ _ _ _ _ _ _ _ _ _ _ _ _ _ _ _ _ _ _ _ _
 72
    65
 73
     2
 40
0.000001
 49
0.000001
 74
     0
 49
0.0
 74
     0
  0
LTYPE
  5
6B
330
5
100
AcDbSymbolTableRecord
100
AcDbLinetypeTableRecord
  2
CENTER
 70
     0
  3
____ _ ____ _ ____ _ ____ _ ____ _ ____ _ ____
 72
    65
 73
     4
 40
0.000008
 49
0.000005
 74
     0
 49
-0.000001
 74
     0
 49
0.000001
 74
     0
 49
-0.000001
 74
     0
  0
LTYPE
  5
6C
330
5
100
AcDbSymbolTableRecord
100
AcDbLinetypeTableRecord
  2
PHANTOM
 70
     0
  3
_____ _ _ _____ _ _ _____ _ _ _____ _ _ ____
 72
    65
 73
     6
 40
0.00001
 49
0.000005
 74
     0
 49
-0.000001
 74
     0
 49
0.000001
 74
     0
 49
-0.000001
 74
     0
 49
0.000001
 74
     0
 49
-0.000001
 74
     0
  0
LTYPE
  5
6D
330
5
100
AcDbSymbolTableRecord
100
AcDbLinetypeTableRecord
  2
DOT
 70
     0
  3
...............................................
 72
    65
 73
     2
 40
0.000001
 49
0.0
 74
     0
 49
-0.000001
 74
     0
  0
LTYPE
  5
6E
330
5
100
AcDbSymbolTableRecord
100
AcDbLinetypeTableRecord
  2
DASHDOT
 70
     0
  3
__ . __ . __ . __ . __ . __ . __ . __ . __ . __
 72
    65
 73
     4
 40
0.000004
 49
0.000002
 74
     0
 49
-0.000001
 74
     0
 49
0.0
 74
     0
 49
-0.000001
 74
     0
  0
LTYPE
  5
6F
330
5
100
AcDbSymbolTableRecord
100
AcDbLinetypeTableRecord
  2
BORDER
 70
     0
  3
__ __ . __ __ . __ __ . __ __ . __ __ . __ __
 72
    65
 73
     6
 40
0.000007
 49
0.000002
 74
     0
 49
-0.000001
 74
     0
 49
0.000002
 74
     0
 49
-0.000001
 74
     0
 49
0.0
 74
     0
 49
-0.000001
 74
     0
  0
LTYPE
  5
70
330
5
100
AcDbSymbolTableRecord
100
AcDbLinetypeTableRecord
  2
DIVIDE
 70
     0
  3
__ . . __ . . __ . . __ . . __ . . __ . . __
 72
    65
 73
     6
 40
0.000005
 49
0.000002
 74
     0
 49
-0.000001
 74
     0
 49
0.0
 74
     0
 49
-0.000001
 74
     0
 49
0.0
 74
     0
 49
-0.000001
 74
     0
  0
LTYPE
  5
71
330
5
100
AcDbSymbolTableRecord
100
AcDbLinetypeTableRecord
  2
DOTDOT
 70
     0
  3
 . .  . .  . .  . .  . .  . . 
 72
    65
 73
     5
 40
0.000002
 49
-0.000001
 74
     0
 49
0.0
 74
     0
 49
-0.000001
 74
     0
 49
0.0
 74
     0
 49
-0.000001
 74
     0
  0
ENDTAB
  0
TABLE
  2
LAYER
  5
2
330
0
100
AcDbSymbolTable
 70
     4
  0
LAYER
  5
10
102
{ACAD_XDICTIONARY
360
54E
102
}
330
2
100
AcDbSymbolTableRecord
100
AcDbLayerTableRecord
  2
0
 70
     0
 62
     7
  6
CONTINUOUS
370
    -3
390
F
347
50B
  0
LAYER
  5
2B
102
{ACAD_XDICTIONARY
360
550
102
}
330
2
100
AcDbSymbolTableRecord
100
AcDbLayerTableRecord
  2
LAYER_1
 70
     0
 62
     7
  6
CONTINUOUS
370
    -3
390
F
347
50B
  0
LAYER
  5
72
102
{ACAD_XDICTIONARY
360
552
102
}
330
2
100
AcDbSymbolTableRecord
100
AcDbLayerTableRecord
  2
FOREGROUND
 70
     0
 62
     7
  6
CONTINUOUS
370
    -3
390
F
347
50B
  0
LAYER
  5
73
102
{ACAD_XDICTIONARY
360
554
102
}
330
2
100
AcDbSymbolTableRecord
100
AcDbLayerTableRecord
  2
BACKGROUND
 70
     1
 62
    -7
  6
CONTINUOUS
370
    -3
390
F
347
50B
  0
ENDTAB
  0
TABLE
  2
STYLE
  5
3
330
0
100
AcDbSymbolTable
 70
     7
  0
STYLE
  5
11
330
3
100
AcDbSymbolTableRecord
100
AcDbTextStyleTableRecord
  2
STANDARD
 70
     0
 40
0.0
 41
1.0
 50
0.0
 71
     0
 42
2.5
  3
txt
  4

  0
STYLE
  5
74
330
3
100
AcDbSymbolTableRecord
100
AcDbTextStyleTableRecord
  2
SN0
 70
     0
 40
0.0
 41
1.0
 50
0.0
 71
     0
 42
0.0
  3
ARIAL.TTF
  4

1001
ACAD
1000
Arial
1071
       34
  0
STYLE
  5
75
330
3
100
AcDbSymbolTableRecord
100
AcDbTextStyleTableRecord
  2
SV0
 70
     4
 40
0.0
 41
0.000004
 50
0.0
 71
     0
 42
0.0
  3
ROMANS
  4

  0
STYLE
  5
76
330
3
100
AcDbSymbolTableRecord
100
AcDbTextStyleTableRecord
  2
SN1
 70
     0
 40
0.0
 41
1.0
 50
0.0
 71
     0
 42
0.0
  3
ARIAL.TTF
  4

1001
ACAD
1000
Arial
1071
       34
  0
STYLE
  5
77
330
3
100
AcDbSymbolTableRecord
100
AcDbTextStyleTableRecord
  2
SV1
 70
     4
 40
0.0
 41
0.000004
 50
0.0
 71
     0
 42
0.0
  3
ROMANS
  4

  0
STYLE
  5
78
330
3
100
AcDbSymbolTableRecord
100
AcDbTextStyleTableRecord
  2
SN2
 70
     0
 40
0.0
 41
1.0
 50
0.0
 71
     0
 42
0.0
  3
ARIAL.TTF
  4

1001
ACAD
1000
Arial
1071
       34
  0
STYLE
  5
79
330
3
100
AcDbSymbolTableRecord
100
AcDbTextStyleTableRecord
  2
SV2
 70
     4
 40
0.0
 41
0.000004
 50
0.0
 71
     0
 42
0.0
  3
ROMAND
  4

  0
ENDTAB
  0
TABLE
  2
VIEW
  5
6
330
0
100
AcDbSymbolTable
 70
     0
  0
ENDTAB
  0
TABLE
  2
UCS
  5
7
330
0
100
AcDbSymbolTable
 70
     0
  0
ENDTAB
  0
TABLE
  2
APPID
  5
9
330
0
100
AcDbSymbolTable
 70
     2
  0
APPID
  5
12
330
9
100
AcDbSymbolTableRecord
100
AcDbRegAppTableRecord
  2
ACAD
 70
     0
  0
APPID
  5
556
330
9
100
AcDbSymbolTableRecord
100
AcDbRegAppTableRecord
  2
ACAD_NAV_VCDISPLAY
 70
     0
  0
ENDTAB
  0
TABLE
  2
DIMSTYLE
  5
A
330
0
100
AcDbSymbolTable
 70
     2
100
AcDbDimStyleTable
 71
     0
  0
DIMSTYLE
105
27
330
A
100
AcDbSymbolTableRecord
100
AcDbDimStyleTableRecord
  2
ISO-25
 70
     0
 41
2.5
 42
0.625
 43
3.75
 44
1.25
 73
     0
 74
     0
 77
     1
 78
     8
140
2.5
141
2.5
143
0.03937007874016
147
0.625
171
     3
172
     1
271
     2
272
     2
274
     3
283
     0
284
     8
340
11
  0
DIMSTYLE
105
2C
330
A
100
AcDbSymbolTableRecord
100
AcDbDimStyleTableRecord
  2
STANDARD
 70
     0
340
11
  0
ENDTAB
  0
TABLE
  2
BLOCK_RECORD
  5
1
330
0
100
AcDbSymbolTable
 70
     1
  0
BLOCK_RECORD
  5
1F
102
{ACAD_XDICTIONARY
360
4BE
102
}
330
1
100
AcDbSymbolTableRecord
100
AcDbBlockTableRecord
  2
*MODEL_SPACE
340
547
 70
     0
280
     1
281
     0
  0
BLOCK_RECORD
  5
1B
102
{ACAD_XDICTIONARY
360
4F2
102
}
330
1
100
AcDbSymbolTableRecord
100
AcDbBlockTableRecord
  2
*PAPER_SPACE
340
548
 70
     0
280
     1
281
     0
  0
BLOCK_RECORD
  5
2D
330
1
100
AcDbSymbolTableRecord
100
AcDbBlockTableRecord
  2
OLAY
340
0
102
{BLKREFS
331
67
102
}
 70
     0
280
     1
281
     0
  0
ENDTAB
  0
ENDSEC
  0
SECTION
  2
BLOCKS
  0
BLOCK
  5
20
330
1F
100
AcDbEntity
  8
0
100
AcDbBlockBegin
  2
*MODEL_SPACE
 70
     0
 10
0.0
 20
0.0
 30
0.0
  3
*MODEL_SPACE
  1

  0
ENDBLK
  5
21
330
1F
100
AcDbEntity
  8
0
100
AcDbBlockEnd
  0
BLOCK
  5
1C
330
1B
100
AcDbEntity
 67
     1
  8
0
100
AcDbBlockBegin
  2
*PAPER_SPACE
 70
     0
 10
0.0
 20
0.0
 30
0.0
  3
*PAPER_SPACE
  1

  0
ENDBLK
  5
1D
330
1B
100
AcDbEntity
 67
     1
  8
0
100
AcDbBlockEnd
  0
BLOCK
  5
52
330
2D
100
AcDbEntity
  8
0
100
AcDbBlockBegin
  2
OLAY
 70
     0
 10
0.0
 20
0.0
 30
0.0
  3
OLAY
  1

  0
IMAGE
  5
2E
330
2D
100
AcDbEntity
  8
0
  6
Continuous
160
               140
310
8C0000000100000084000000060000000500000013F241CF663504C04DF910548D3E0640000000000000000013089AF7F89F07C00C2DF6574ADD0C4000000000000000000C790E8DE72E03C0F26B843E13280F40000000000000000019C66CC9AA88FFBF33389F3A56890840000000000000000013F241CF663504C04DF910
310
548D3E06400000000000000000
100
AcDbRasterImage
 90
        0
 10
-2.526075
 20
2.780543
 30
0.0
 11
0.0035363630573248
 21
0.0018249426751592
 31
0.0
 12
-0.0018249426751592
 22
0.0035363630573248
 32
0.0
 13
157.0
 23
234.0
340
55
 70
     7
280
     0
281
    50
282
    50
283
     0
290
     0
360
2F
 71
     1
 91
        2
 14
-0.5
 24
-0.5
 14
156.4999999999999
 24
233.4999999999999
  0
IMAGE
  5
30
330
2D
100
AcDbEntity
  8
0
  6
Continuous
160
               140
310
8C000000010000008400000006000000050000001FED47EC0A7BFCBF1A831201884E1040000000000000000087E23A75F4D4FFBF6519954425EE11400000000000000000EE907D6F03F2F6BFAACBBF51A41313400000000000000000869B8AE61998F3BF5F353D0E0774114000000000000000001FED47EC0A7BFCBF1A8312
310
01884E10400000000000000000
100
AcDbRasterImage
 90
        0
 10
-1.780039713833339
 20
4.076690689806833
 30
0.0
 11
0.0035602925521901
 21
0.0018372915080326
 31
0.0
 12
-0.0018372915080326
 22
0.0035602925521901
 32
0.0
 13
156.0
 23
114.0
340
5F
 70
     7
280
     0
281
    50
282
    50
283
     0
290
     0
360
31
 71
     1
 91
        2
 14
-0.5
 24
-0.5
 14
155.4999999999999
 24
113.5
  0
IMAGE
  5
32
330
2D
100
AcDbEntity
  8
0
  6
Continuous
160
               140
310
8C00000001000000840000000600000005000000F49B95A3B6C3DABF65D086B2A6280C4000000000000000008CC9DC60342AF0BFC20A6FF59C7B12400000000000000000B01116A2846EDDBF14F76DCCC5AA1340000000000000000018F18E7B2CEDC03F09A98460F8860E400000000000000000F49B95A3B6C3DABF65D086
310
B2A6280C400000000000000000
100
AcDbRasterImage
 90
        0
 10
-0.4181954000000012
 20
3.519849199999998
 30
0.0
 11
0.0035284190305174
 21
0.0018977835197282
 31
0.0
 12
-0.0018977835197282
 22
0.0035284190305174
 32
0.0
 13
156.0
 23
312.0
340
60
 70
     7
280
     0
281
    50
282
    50
283
     0
290
     0
360
33
 71
     1
 91
        2
 14
-0.5
 24
-0.5
 14
155.4999999999999
 24
311.5
  0
IMAGE
  5
34
330
2D
100
AcDbEntity
  8
0
  6
Continuous
160
               140
310
8C00000001000000840000000600000005000000625A0A3E506AE23F2F4E575390E40740000000000000000040A022F84A8599BF647B8E81986C1040000000000000000075F08DD3D7D3E03FC0AB670C179B11400000000000000000ECAFAC342905F23FE7AE09698D410A400000000000000000625A0A3E506AE23F2F4E57
310
5390E407400000000000000000
100
AcDbRasterImage
 90
        0
 10
0.5754777156569839
 20
2.986603404142236
 30
0.0
 11
0.0035765083398897
 21
0.0019182116614141
 31
0.0
 12
-0.0019182116614141
 22
0.0035765083398897
 32
0.0
 13
154.0
 23
313.0
340
62
 70
     7
280
     0
281
    50
282
    50
283
     0
290
     0
360
35
 71
     1
 91
        2
 14
-0.5
 24
-0.5
 14
153.5
 24
312.5
  0
IMAGE
  5
36
330
2D
100
AcDbEntity
  8
0
  6
Continuous
160
               140
310
8C000000010000008400000006000000050000000EBF9B6ED92102C08A8C9C853DADF43F00000000000000003809299605AB05C0F8EB50606CE20040000000000000000016F0D1D7D14D01C014C85925DF3D03400000000000000000D84B89604B89FBBFC244AE0F2364F93F00000000000000000EBF9B6ED92102C08A8C9C
310
853DADF43F0000000000000000
100
AcDbRasterImage
 90
        0
 10
-2.266528
 20
1.292294999999997
 30
0.0
 11
0.0034968515972787
 21
0.0018887980738229
 31
0.0
 12
-0.0018887980738229
 22
0.0034968515972787
 32
0.0
 13
156.0
 23
234.0
340
63
 70
     7
280
     0
281
    50
282
    50
283
     0
290
     0
360
37
 71
     1
 91
        2
 14
-0.5
 24
-0.5
 14
155.4999999999999
 24
233.4999999999999
  0
IMAGE
  5
38
330
2D
100
AcDbEntity
  8
0
  6
Continuous
160
               140
310
8C00000001000000840000000600000005000000EACB6544D450F5BF1F19B6E1188AE13F0000000000000000E4B4595B2666FCBFB22914012AE2F53F000000000000000091AFFCE7B999F3BF2ABC7C33CBA2FA3F00000000000000002E8D11A2CF08E9BF0F3E87465B0BEB3F0000000000000000EACB6544D450F5BF1F19B6
310
E1188AE13F0000000000000000
100
AcDbRasterImage
 90
        0
 10
-1.332233683756153
 20
0.5481075676368938
 30
0.0
 11
0.003502599452791
 21
0.0018919027347209
 31
0.0
 12
-0.0018919027347209
 22
0.003502599452791
 32
0.0
 13
157.0
 23
234.0
340
64
 70
     7
280
     0
281
    50
282
    50
283
     0
290
     0
360
39
 71
     1
 91
        2
 14
-0.5
 24
-0.5
 14
156.4999999999999
 24
233.4999999999999
  0
IMAGE
  5
3A
330
2D
100
AcDbEntity
  8
0
  6
Continuous
160
               140
310
8C0000000100000084000000060000000500000019A071368EDCD7BFC58BC38CAEABF63F0000000000000000C6E3A74C0BB0E9BF5A5BD8273EF4014000000000000000008C5532E33A3AD0BF502BB481AC3C04400000000000000000CEA357FF9A92C63FB22B7B408B3CFB3F000000000000000019A071368EDCD7BFC58BC3
310
8CAEABF63F0000000000000000
100
AcDbRasterImage
 90
        0
 10
-0.3728366405180182
 20
1.416914510592264
 30
0.0
 11
0.0035661408055708
 21
0.001853030700316
 31
0.0
 12
-0.001853030700316
 22
0.0035661408055708
 32
0.0
 13
154.0
 23
232.0
340
65
 70
     7
280
     0
281
    50
282
    50
283
     0
290
     0
360
3B
 71
     1
 91
        2
 14
-0.5
 24
-0.5
 14
153.5
 24
231.4999999999999
  0
IMAGE
  5
3C
330
2D
100
AcDbEntity
  8
0
  6
Continuous
160
               140
310
8C00000001000000840000000600000005000000F827B858514304405FFDD8243F620A4000000000000000006F4449BBFBB9FF3F9AC5FFDB76160840000000000000000021D9A795D51AFB3F9C4548980E840C4000000000000000005172E745BEF30140617D21E1D6CF0E400000000000000000F827B858514304405FFDD8
310
243F620A400000000000000000
100
AcDbRasterImage
 90
        0
 10
2.532869999999999
 20
3.297972000000001
 30
0.0
 11
-0.0018516329434854
 21
0.0035481542866201
 31
0.0
 12
-0.0035481542866201
 22
-0.0018516329434854
 32
0.0
 13
156.0
 23
155.0
340
66
 70
     7
280
     0
281
    50
282
    50
283
     0
290
     0
360
3D
 71
     1
 91
        2
 14
-0.5
 24
-0.5
 14
155.4999999999999
 24
154.4999999999999
  0
IMAGE
  5
3E
330
2D
100
AcDbEntity
  8
0
  6
Continuous
160
               140
310
8C0000000100000084000000060000000500000065400714E7F109402F8519CA8AE4044000000000000000003E894EEAAB720340A8B3EF6DFD8101400000000000000000FFD1AA51442D0140BF762F24EBDD054000000000000000002689637B7FAC07404648598078400940000000000000000065400714E7F109402F8519
310
CA8AE404400000000000000000
100
AcDbRasterImage
 90
        0
 10
3.243116528006839
 20
2.611592844871345
 30
0.0
 11
-0.0018082101937082
 21
0.0034706177913208
 31
0.0
 12
-0.0034706177913208
 22
-0.0018082101937082
 32
0.0
 13
157.0
 23
234.0
340
56
 70
     7
280
     0
281
    50
282
    50
283
     0
290
     0
360
3F
 71
     1
 91
        2
 14
-0.5
 24
-0.5
 14
156.4999999999999
 24
233.4999999999999
  0
IMAGE
  5
40
330
2D
100
AcDbEntity
  8
0
  6
Continuous
160
               140
310
8C00000001000000840000000600000005000000D0B6D3D688E0E43F6088F19A5775C43F0000000000000000902062E449AAB0BF2D740DA1A8CFF73F00000000000000004FDFAF68DF6FEA3FACDD58DF7D83FF3F000000000000000018ED07BED8B2F83F163553630085E43F0000000000000000D0B6D3D688E0E43F6088F1
310
9A5775C43F0000000000000000
100
AcDbRasterImage
 90
        0
 10
0.6524090000000005
 20
0.1598309999999996
 30
0.0
 11
0.0056767817377251
 21
0.0030662709335655
 31
0.0
 12
-0.0030662709335655
 22
0.0056767817377251
 32
0.0
 13
157.0
 23
234.0
340
57
 70
     7
280
     0
281
    50
282
    50
283
     0
290
     0
360
41
 71
     1
 91
        2
 14
-0.5
 24
-0.5
 14
156.4999999999999
 24
233.4999999999999
  0
IMAGE
  5
42
330
2D
100
AcDbEntity
  8
0
  6
Continuous
160
               140
310
8C00000001000000840000000600000005000000DF99F36B48CCF73F09414A24C85EE33F000000000000000020F748D1D638E83FCAE3899DC71D00400000000000000000F789086E5383F93F2FDA5B76F1960340000000000000000023D4AB38989902404F0DC9C3B7A1F03F0000000000000000DF99F36B48CCF73F09414A
310
24C85EE33F0000000000000000
100
AcDbRasterImage
 90
        0
 10
1.487373754201705
 20
0.6053200444021353
 30
0.0
 11
0.0035949511428063
 21
0.0018633555707299
 31
0.0
 12
-0.0018633555707299
 22
0.0035949511428063
 32
0.0
 13
233.0
 23
392.0
340
58
 70
     7
280
     0
281
    50
282
    50
283
     0
290
     0
360
43
 71
     1
 91
        2
 14
-0.5
 24
-0.5
 14
232.5
 24
391.5
  0
IMAGE
  5
44
330
2D
100
AcDbEntity
  8
0
  6
Continuous
160
               140
310
8C000000010000008400000006000000050000007EA86FBD6533E7BF35A089D3DD85F4BF0000000000000000B46BB454267BF2BF740F2356F71FDDBF00000000000000004A9CE078D944E3BFEA5CC6ED8979C5BF000000000000000080B59D33CA07C6BFEA4F737722DAEFBF00000000000000007EA86FBD6533E7BF35A089
310
D3DD85F4BF0000000000000000
100
AcDbRasterImage
 90
        0
 10
-0.7250240993428319
 20
-1.282682253187897
 30
0.0
 11
0.0035217284839737
 21
0.0018299649051321
 31
0.0
 12
-0.0018299649051321
 22
0.0035217284839737
 32
0.0
 13
157.0
 23
235.0
340
59
 70
     7
280
     0
281
    50
282
    50
283
     0
290
     0
360
45
 71
     1
 91
        2
 14
-0.5
 24
-0.5
 14
156.4999999999999
 24
234.5
  0
IMAGE
  5
46
330
2D
100
AcDbEntity
  8
0
  6
Continuous
160
               140
310
8C00000001000000840000000600000005000000B9BA29D0ED95D13F0759692203B7F1BF00000000000000001A7292BC588CE3BFE0DE785E310AE13F0000000000000000E030CEF2DCA1C93FA2880298560FEF3F0000000000000000D76DAD70E35FF13F4C08490BE168E5BF0000000000000000B9BA29D0ED95D13F075969
310
2203B7F1BF0000000000000000
100
AcDbRasterImage
 90
        0
 10
0.2747759373514032
 20
-1.107180723590831
 30
0.0
 11
0.0034812632010715
 21
0.001880378118926
 31
0.0
 12
-0.001880378118926
 22
0.0034812632010715
 32
0.0
 13
233.0
 23
471.0
340
5A
 70
     7
280
     0
281
    50
282
    50
283
     0
290
     0
360
47
 71
     1
 91
        2
 14
-0.5
 24
-0.5
 14
232.5
 24
470.5
  0
IMAGE
  5
48
330
2D
100
AcDbEntity
  8
0
  6
Continuous
160
               140
310
8C00000001000000840000000600000005000000317DAF21386EF83F2C077AA86DC3E9BF0000000000000000007ADAD99912F23F60A417A46BC6B1BF000000000000000011B251F9BBD4FA3F302CD7745CF5CC3F0000000000000000A15A93202D9800409447C116494DE0BF0000000000000000317DAF21386EF83F2C077A
310
A86DC3E9BF0000000000000000
100
AcDbRasterImage
 90
        0
 10
1.526909
 20
-0.8051059999999999
 30
0.0
 11
0.003486597601246
 21
0.0018832594550348
 31
0.0
 12
-0.0018832594550348
 22
0.003486597601246
 32
0.0
 13
157.0
 23
211.0
340
5B
 70
     7
280
     0
281
    50
282
    50
283
     0
290
     0
360
49
 71
     1
 91
        2
 14
-0.5
 24
-0.5
 14
156.4999999999999
 24
210.4999999999999
  0
IMAGE
  5
4A
330
2D
100
AcDbEntity
  8
0
  6
Continuous
160
               140
310
8C00000001000000840000000600000005000000275AB91798350540D345D1031F83EDBF0000000000000000E495A88525BA0140685F7B5BDF7AB6BF00000000000000008A8F63B4702D0640C67D4A6856E7C93F0000000000000000CE537446E3A80940743A4F7EED39E4BF0000000000000000275AB91798350540D345D1
310
031F83EDBF0000000000000000
100
AcDbRasterImage
 90
        0
 10
2.651168999999998
 20
-0.9222559999999994
 30
0.0
 11
0.0035659983529863
 21
0.0018601586314824
 31
0.0
 12
-0.0018601586314824
 22
0.0035659983529863
 32
0.0
 13
156.0
 23
234.0
340
5C
 70
     7
280
     0
281
    50
282
    50
283
     0
290
     0
360
4B
 71
     1
 91
        2
 14
-0.5
 24
-0.5
 14
155.4999999999999
 24
233.4999999999999
  0
IMAGE
  5
4C
330
2D
100
AcDbEntity
  8
0
  6
Continuous
160
               140
310
8C00000001000000840000000600000005000000B0D903ADC010EB3F771EDC9DB5DB01C00000000000000000CD33B88C9EF5D93F82E794E9FC5BF6BF000000000000000072F20C5EC0D3EE3FC3062E1573A7F1BF00000000000000001E595AE2D874F63F2F5C5167E102FFBF0000000000000000B0D903ADC010EB3F771EDC
310
9DB5DB01C00000000000000000
100
AcDbRasterImage
 90
        0
 10
0.8457950000000007
 20
-2.232279999999998
 30
0.0
 11
0.0035524340725012
 21
0.0018731003639488
 31
0.0
 12
-0.0018731003639488
 22
0.0035524340725012
 32
0.0
 13
157.0
 23
235.0
340
5D
 70
     7
280
     0
281
    50
282
    50
283
     0
290
     0
360
4D
 71
     1
 91
        2
 14
-0.5
 24
-0.5
 14
156.4999999999999
 24
234.5
  0
IMAGE
  5
4E
330
2D
100
AcDbEntity
  8
0
  6
Continuous
160
               140
310
8C0000000100000084000000060000000500000066321CCF6740FD3FA5052FFA0A7200C00000000000000000A1E5FFD28E35F63F5A082E175CDAF3BF00000000000000004E8B733342F0FE3FD639B11E9B46EEBF00000000000000000AECC7978DFD0240DB9F886C072DFCBF000000000000000066321CCF6740FD3FA5052F
310
FA0A7200C00000000000000000
100
AcDbRasterImage
 90
        0
 10
1.828224
 20
-2.055684999999999
 30
0.0
 11
0.0034973155337397
 21
0.0018890486656108
 31
0.0
 12
-0.0018890486656108
 22
0.0034973155337397
 32
0.0
 13
156.0
 23
233.0
340
5E
 70
     7
280
     0
281
    50
282
    50
283
     0
290
     0
360
4F
 71
     1
 91
        2
 14
-0.5
 24
-0.5
 14
155.4999999999999
 24
232.5
  0
IMAGE
  5
50
330
2D
100
AcDbEntity
  8
0
  6
Continuous
160
               140
310
8C0000000100000084000000060000000500000018321EA5121EE1BF5A85CD00172403400000000000000000CB951B0E8F47EFBF0F7208E41CB2094000000000000000000263E9164B60DBBF2D6DDBE03B120C400000000000000000808C2C62B7558E3F7880A0FD35840540000000000000000018321EA5121EE1BF5A85CD
310
00172403400000000000000000
100
AcDbRasterImage
 90
        0
 10
-0.5349209999999998
 20
2.392622
 30
0.0
 11
0.0035014836206833
 21
0.0018913000264054
 31
0.0
 12
-0.0018913000264054
 22
0.0035014836206833
 32
0.0
 13
157.0
 23
234.0
340
61
 70
     7
280
     0
281
    50
282
    50
283
     0
290
     0
360
51
 71
     1
 91
        2
 14
-0.5
 24
-0.5
 14
156.4999999999999
 24
233.4999999999999
  0
ENDBLK
  5
53
330
2D
100
AcDbEntity
  8
0
100
AcDbBlockEnd
  0
ENDSEC
  0
SECTION
  2
ENTITIES
  0
INSERT
  5
67
330
1F
100
AcDbEntity
  8
0
100
AcDbBlockReference
  2
OLAY
 10
0.0
 20
0.0
 30
0.0
  0
LWPOLYLINE
  5
229
102
{ACAD_REACTORS
330
3D1
102
}
330
1F
100
AcDbEntity
  8
LAYER_1
  6
Continuous
 62
     1
100
AcDbPolyline
 90
       29
 70
     1
 43
0.003
 10
2.281575
 20
3.181054999999998
 10
2.262961
 20
3.228936999999998
 10
2.209188999999998
 20
3.226853999999999
 10
2.159555
 20
3.241429
 10
2.132668999999999
 20
3.297637999999998
 10
2.128534999999998
 20
3.326783
 10
2.107854
 20
3.345519999999998
 10
2.107854
 20
3.39548
 10
2.076831
 20
3.412137999999998
 10
2.103716999999999
 20
3.445444999999998
 10
2.165759999999999
 20
3.464180999999998
 10
2.171809999999998
 20
3.469038999999998
 10
2.181077999999998
 20
3.480837
 10
2.180235999999998
 20
3.495408999999998
 10
2.171123
 20
3.507126999999998
 10
2.166603999999999
 20
3.518383
 10
2.169897999999998
 20
3.537043
 10
2.174109999999999
 20
3.561641
 10
2.173266999999999
 20
3.581148999999999
 10
2.171965
 20
3.589091
 10
2.157488
 20
3.589091
 10
2.116125999999999
 20
3.67028
 10
2.087172999999999
 20
3.647381999999999
 10
2.066491999999998
 20
3.689016
 10
2.037538999999999
 20
3.674444999999998
 10
2.016858
 20
3.711916999999998
 10
1.961019999999999
 20
3.703591
 10
1.69837
 20
3.568272
 10
1.985834999999999
 20
3.010345999999998
  0
LWPOLYLINE
  5
22A
102
{ACAD_REACTORS
330
3D1
102
}
330
1F
100
AcDbEntity
  8
LAYER_1
  6
Continuous
 62
     1
100
AcDbPolyline
 90
       24
 70
     1
 43
0.003
 10
2.316732
 20
3.539125999999998
 10
2.300189
 20
3.532881999999998
 10
2.312593999999998
 20
3.505819
 10
2.343618
 20
3.514145999999998
 10
2.366366
 20
3.501654
 10
2.38498
 20
3.472508
 10
2.378775999999998
 20
3.457937
 10
2.333275999999999
 20
3.426708999999998
 10
2.308460999999998
 20
3.393401999999998
 10
2.285709
 20
3.387154
 10
2.284175999999999
 20
3.385844
 10
2.28724
 20
3.379444999999998
 10
2.306389999999999
 20
3.364255999999998
 10
2.325004
 20
3.346366999999998
 10
2.327072
 20
3.334955
 10
2.325004
 20
3.330944999999998
 10
2.341550999999999
 20
3.301798999999998
 10
2.368433
 20
3.29139
 10
2.382913
 20
3.299719999999998
 10
2.428408999999998
 20
3.297637999999998
 10
2.440818999999998
 20
3.270575
 10
2.449091
 20
3.258083
 10
2.531814999999999
 20
3.297637999999998
 10
2.38498
 20
3.576598
  0
LWPOLYLINE
  5
22B
102
{ACAD_REACTORS
330
3D2
102
}
330
1F
100
AcDbEntity
  8
LAYER_1
  6
Continuous
 62
    30
100
AcDbPolyline
 90
       14
 70
     1
 43
0.003
 10
-0.998736
 20
4.612496
 10
-0.726539
 20
4.756345999999998
 10
-0.5904410000000002
 20
4.516594
 10
-0.5496100000000002
 20
4.502898
 10
-0.488366
 20
4.502898
 10
-0.433929
 20
4.502898
 10
-0.420319
 20
4.441244
 10
-0.495173
 20
4.400146
 10
-0.6176610000000001
 20
4.400146
 10
-0.678906
 20
4.400146
 10
-0.719736
 20
4.448094
 10
-0.760563
 20
4.434398
 10
-0.8286139999999997
 20
4.400146
 10
-0.876248
 20
4.372743999999999
  0
LWPOLYLINE
  5
22C
102
{ACAD_REACTORS
330
3D2
102
}
330
1F
100
AcDbEntity
  8
LAYER_1
  6
Continuous
 62
    30
100
AcDbPolyline
 90
       11
 70
     1
 43
0.003
 10
-0.352268
 20
4.290547
 10
-0.338661
 20
4.372743999999999
 10
-0.345465
 20
4.413845999999998
 10
-0.257
 20
4.420697
 10
-0.209366
 20
4.434398
 10
-0.025634
 20
4.132996
 10
-0.073268
 20
4.098743999999999
 10
-0.148122
 20
4.146697
 10
-0.175343
 20
4.215196999999998
 10
-0.22978
 20
4.215196999999998
 10
-0.297831
 20
4.242594
  0
LWPOLYLINE
  5
22D
330
1F
100
AcDbEntity
  8
LAYER_1
  6
Continuous
 62
    30
100
AcDbPolyline
 90
        2
 70
     0
 43
0.019685
 10
-1.634154396031014
 20
4.656682467913347
 10
-1.362007308358547
 20
4.608342416038251
  0
LWPOLYLINE
  5
22E
330
1F
100
AcDbEntity
  8
LAYER_1
  6
Continuous
 62
     7
100
AcDbPolyline
 90
        6
 70
     1
 43
0.01185
 10
-1.985168999999999
 20
4.474188999999999
 10
-1.442079
 20
4.756542999999998
 10
-1.232338999999998
 20
4.368345999999998
 10
-1.502819
 20
4.206996
 10
-1.521437
 20
4.233401999999998
 10
-1.795004
 20
4.094154
  0
LWPOLYLINE
  5
22F
330
1F
100
AcDbEntity
  8
LAYER_1
  6
Continuous
 62
     2
100
AcDbPolyline
 90
       12
 70
     1
 43
0.003
 10
0.059539
 20
3.856444999999999
 10
0.049248
 20
3.867798
 10
0.035078
 20
3.872400999999998
 10
0.020079
 20
3.869263999999999
 10
0.008726
 20
3.858973
 10
0.004122
 20
3.844802999999998
 10
0.00726
 20
3.829803
 10
0.017551
 20
3.818449999999998
 10
0.031721
 20
3.813844999999998
 10
0.04672
 20
3.81698
 10
0.058074
 20
3.827273
 10
0.062677
 20
3.841442999999998
  0
LWPOLYLINE
  5
230
330
1F
100
AcDbEntity
  8
LAYER_1
  6
Continuous
 62
     2
100
AcDbPolyline
 90
       12
 70
     1
 43
0.003
 10
-1.823622
 20
4.469008
 10
-1.833913
 20
4.480361
 10
-1.848083
 20
4.484963999999998
 10
-1.863083
 20
4.481827
 10
-1.874436
 20
4.471536
 10
-1.879038999999998
 20
4.457366
 10
-1.875901999999999
 20
4.442366
 10
-1.865611
 20
4.431013
 10
-1.851440999999999
 20
4.426408
 10
-1.836440999999999
 20
4.429542999999998
 10
-1.825088
 20
4.439835999999998
 10
-1.820484
 20
4.454005999999998
  0
LWPOLYLINE
  5
231
330
1F
100
AcDbEntity
  8
LAYER_1
  6
Continuous
 62
     2
100
AcDbPolyline
 90
       12
 70
     1
 43
0.003
 10
-1.577461
 20
4.531591
 10
-1.587752
 20
4.542944
 10
-1.601921999999999
 20
4.547546999999998
 10
-1.616920999999999
 20
4.544408999999999
 10
-1.628274
 20
4.534119
 10
-1.632878
 20
4.519948
 10
-1.629739999999999
 20
4.504948999999998
 10
-1.619448999999999
 20
4.493596
 10
-1.605279
 20
4.488991
 10
-1.590279999999999
 20
4.492125999999998
 10
-1.578926
 20
4.502419
 10
-1.574322999999998
 20
4.516588999999998
  0
LWPOLYLINE
  5
232
330
1F
100
AcDbEntity
  8
LAYER_1
  6
Continuous
 62
     2
100
AcDbPolyline
 90
       12
 70
     1
 43
0.003
 10
-0.076555
 20
4.082495999999999
 10
-0.086846
 20
4.093848999999998
 10
-0.101016
 20
4.098453
 10
-0.116016
 20
4.095315
 10
-0.127369
 20
4.085023999999998
 10
-0.131972
 20
4.070853999999998
 10
-0.128835
 20
4.055854
 10
-0.118544
 20
4.044501
 10
-0.104374
 20
4.039896999999998
 10
-0.089374
 20
4.043031
 10
-0.078021
 20
4.053323999999999
 10
-0.073417
 20
4.067495
  0
LWPOLYLINE
  5
233
330
1F
100
AcDbEntity
  8
LAYER_1
  6
Continuous
 62
     2
100
AcDbPolyline
 90
       12
 70
     1
 43
0.003
 10
-2.503953
 20
3.541251999999998
 10
-2.514243999999999
 20
3.552605
 10
-2.528414
 20
3.557208999999998
 10
-2.543413
 20
3.554070999999998
 10
-2.554767
 20
3.54378
 10
-2.559369999999999
 20
3.529609999999999
 10
-2.556232
 20
3.514609999999998
 10
-2.545941
 20
3.503257
 10
-2.531770999999999
 20
3.498653
 10
-2.516772
 20
3.501787
 10
-2.505418
 20
3.51208
 10
-2.500815
 20
3.526251
  0
LWPOLYLINE
  5
234
330
1F
100
AcDbEntity
  8
LAYER_1
  6
Continuous
 62
     2
100
AcDbPolyline
 90
       12
 70
     1
 43
0.003
 10
-0.71622
 20
4.287995999999998
 10
-0.726511
 20
4.299348999999998
 10
-0.740682
 20
4.303952999999999
 10
-0.7556810000000001
 20
4.300815
 10
-0.767034
 20
4.290523999999998
 10
-0.7716380000000001
 20
4.276354
 10
-0.7685
 20
4.261353999999998
 10
-0.758209
 20
4.250001
 10
-0.744039
 20
4.245397
 10
-0.7290390000000002
 20
4.248530999999998
 10
-0.717686
 20
4.258823999999998
 10
-0.7130830000000002
 20
4.272994999999998
  0
LWPOLYLINE
  5
235
330
1F
100
AcDbEntity
  8
LAYER_1
  6
Continuous
 62
     2
100
AcDbPolyline
 90
       12
 70
     1
 43
0.003
 10
-0.151413
 20
4.075645999999998
 10
-0.161704
 20
4.086998999999998
 10
-0.175874
 20
4.091601999999999
 10
-0.190874
 20
4.088465
 10
-0.202227
 20
4.078173999999998
 10
-0.206831
 20
4.064002999999998
 10
-0.203693
 20
4.049004
 10
-0.193402
 20
4.037651
 10
-0.179232
 20
4.033045999999998
 10
-0.164232
 20
4.036181
 10
-0.152879
 20
4.046473999999999
 10
-0.148276
 20
4.060643999999999
  0
LWPOLYLINE
  5
236
330
1F
100
AcDbEntity
  8
LAYER_1
  6
Continuous
 62
     2
100
AcDbPolyline
 90
       12
 70
     1
 43
0.003
 10
-0.226268
 20
4.000294999999998
 10
-0.236559
 20
4.011648
 10
-0.250729
 20
4.016251999999998
 10
-0.265728
 20
4.013113999999998
 10
-0.277082
 20
4.002823
 10
-0.281685
 20
3.988652999999998
 10
-0.278547
 20
3.973654
 10
-0.268256
 20
3.962299999999998
 10
-0.254086
 20
3.957695999999998
 10
-0.239087
 20
3.960830999999998
 10
-0.227733
 20
3.971123999999998
 10
-0.22313
 20
3.985294
  0
LWPOLYLINE
  5
237
330
1F
100
AcDbEntity
  8
LAYER_1
  6
Continuous
 62
     2
100
AcDbPolyline
 90
       12
 70
     1
 43
0.003
 10
-0.6149329999999999
 20
4.087142
 10
-0.6252240000000002
 20
4.098494999999998
 10
-0.6393939999999999
 20
4.103098
 10
-0.654394
 20
4.099961
 10
-0.665747
 20
4.089669999999999
 10
-0.67035
 20
4.075499999999999
 10
-0.6672130000000001
 20
4.0605
 10
-0.656922
 20
4.049147
 10
-0.642752
 20
4.044541999999998
 10
-0.6277520000000001
 20
4.047676999999998
 10
-0.616399
 20
4.05797
 10
-0.611795
 20
4.07214
  0
LWPOLYLINE
  5
238
330
1F
100
AcDbEntity
  8
LAYER_1
  6
Continuous
 62
     2
100
AcDbPolyline
 90
       12
 70
     1
 43
0.003
 10
-0.546098
 20
4.349645999999999
 10
-0.5563890000000002
 20
4.360998999999998
 10
-0.5705590000000002
 20
4.365601999999999
 10
-0.5855590000000001
 20
4.362465
 10
-0.5969120000000001
 20
4.352173999999998
 10
-0.601516
 20
4.338002999999998
 10
-0.598378
 20
4.323004
 10
-0.588087
 20
4.311651
 10
-0.573917
 20
4.307045999999998
 10
-0.5589170000000001
 20
4.310181
 10
-0.5475640000000001
 20
4.320473999999999
 10
-0.542961
 20
4.334643999999999
  0
LWPOLYLINE
  5
239
330
1F
100
AcDbEntity
  8
LAYER_1
  6
Continuous
 62
     2
100
AcDbPolyline
 90
       12
 70
     1
 43
0.003
 10
-0.518878
 20
4.281145999999998
 10
-0.529169
 20
4.292498999999998
 10
-0.5433390000000001
 20
4.297101999999998
 10
-0.5583390000000002
 20
4.293965
 10
-0.569692
 20
4.283673999999998
 10
-0.5742950000000002
 20
4.269503
 10
-0.571157
 20
4.254503999999998
 10
-0.560867
 20
4.243151
 10
-0.546696
 20
4.238545999999998
 10
-0.531697
 20
4.241680999999998
 10
-0.5203439999999999
 20
4.251973999999998
 10
-0.51574
 20
4.266144
  0
LWPOLYLINE
  5
23A
330
1F
100
AcDbEntity
  8
LAYER_1
  6
Continuous
 62
     2
100
AcDbPolyline
 90
       12
 70
     1
 43
0.003
 10
-0.076555
 20
3.787944999999998
 10
-0.086846
 20
3.799298
 10
-0.101016
 20
3.803901
 10
-0.116016
 20
3.800764
 10
-0.127369
 20
3.790473
 10
-0.131972
 20
3.776302999999998
 10
-0.128835
 20
3.761302999999998
 10
-0.118544
 20
3.74995
 10
-0.104374
 20
3.745344999999998
 10
-0.089374
 20
3.74848
 10
-0.078021
 20
3.758773
 10
-0.073417
 20
3.772943
  0
LWPOLYLINE
  5
23B
330
1F
100
AcDbEntity
  8
LAYER_1
  6
Continuous
 62
     2
100
AcDbPolyline
 90
       12
 70
     1
 43
0.003
 10
0.324933
 20
4.020845999999998
 10
0.314642
 20
4.032199999999998
 10
0.300472
 20
4.036802999999999
 10
0.285472
 20
4.033665
 10
0.274119
 20
4.023373999999998
 10
0.269516
 20
4.009204
 10
0.272654
 20
3.994205
 10
0.282944
 20
3.982851
 10
0.297115
 20
3.978246999999998
 10
0.312114
 20
3.981381999999998
 10
0.323467
 20
3.991674999999998
 10
0.328071
 20
4.005844999999998
  0
LWPOLYLINE
  5
23C
330
1F
100
AcDbEntity
  8
LAYER_1
  6
Continuous
 62
     2
100
AcDbPolyline
 90
       12
 70
     1
 43
0.003
 10
0.161614
 20
4.082495999999999
 10
0.151323
 20
4.093848999999998
 10
0.137153
 20
4.098453
 10
0.122154
 20
4.095315
 10
0.1108
 20
4.085023999999998
 10
0.106197
 20
4.070853999999998
 10
0.109335
 20
4.055854
 10
0.119626
 20
4.044501
 10
0.133796
 20
4.039896999999998
 10
0.148795
 20
4.043031
 10
0.160148
 20
4.053323999999999
 10
0.164752
 20
4.067495
  0
LWPOLYLINE
  5
23D
330
1F
100
AcDbEntity
  8
LAYER_1
  6
Continuous
 62
     2
100
AcDbPolyline
 90
       12
 70
     1
 43
0.003
 10
-0.035728
 20
3.966047
 10
-0.046019
 20
3.977399999999999
 10
-0.060189
 20
3.982003999999998
 10
-0.075189
 20
3.978866
 10
-0.086542
 20
3.968574999999998
 10
-0.091146
 20
3.954405
 10
-0.088008
 20
3.939405999999998
 10
-0.077717
 20
3.928051999999998
 10
-0.063547
 20
3.923448
 10
-0.048547
 20
3.926583
 10
-0.037194
 20
3.936875
 10
-0.032591
 20
3.951045999999998
  0
LWPOLYLINE
  5
23E
330
1F
100
AcDbEntity
  8
LAYER_1
  6
Continuous
 62
     2
100
AcDbPolyline
 90
       12
 70
     1
 43
0.003
 10
0.440614
 20
3.390649999999998
 10
0.430323
 20
3.402002999999998
 10
0.416153
 20
3.406605999999998
 10
0.401154
 20
3.403469
 10
0.3898
 20
3.393177999999998
 10
0.385197
 20
3.379007
 10
0.388335
 20
3.364008
 10
0.3986260000000001
 20
3.352655
 10
0.412796
 20
3.34805
 10
0.427795
 20
3.351184999999998
 10
0.439148
 20
3.361477999999998
 10
0.4437520000000001
 20
3.375648
  0
LWPOLYLINE
  5
23F
330
1F
100
AcDbEntity
  8
LAYER_1
  6
Continuous
 62
     2
100
AcDbPolyline
 90
       12
 70
     1
 43
0.003
 10
-0.600535
 20
4.233197
 10
-0.610826
 20
4.24455
 10
-0.6249970000000002
 20
4.249152999999998
 10
-0.639996
 20
4.246016
 10
-0.651349
 20
4.235725
 10
-0.6559530000000002
 20
4.221555
 10
-0.652815
 20
4.206555
 10
-0.642524
 20
4.195202
 10
-0.628354
 20
4.190597
 10
-0.613354
 20
4.193731999999998
 10
-0.602001
 20
4.204024999999998
 10
-0.597398
 20
4.218194999999998
  0
LWPOLYLINE
  5
240
330
1F
100
AcDbEntity
  8
LAYER_1
  6
Continuous
 62
     2
100
AcDbPolyline
 90
       12
 70
     1
 43
0.003
 10
0.8693229999999998
 20
3.726294999999999
 10
0.859032
 20
3.737648
 10
0.8448620000000001
 20
3.742251999999998
 10
0.8298620000000001
 20
3.739113999999998
 10
0.818509
 20
3.728823
 10
0.813906
 20
3.714652999999998
 10
0.8170430000000001
 20
3.699654
 10
0.8273340000000001
 20
3.688299999999999
 10
0.8415040000000001
 20
3.683695999999998
 10
0.8565039999999999
 20
3.686830999999998
 10
0.867857
 20
3.697123999999998
 10
0.87246
 20
3.711294
  0
LWPOLYLINE
  5
241
330
1F
100
AcDbEntity
  8
LAYER_1
  6
Continuous
 62
     2
100
AcDbPolyline
 90
       12
 70
     1
 43
0.003
 10
0.848909
 20
3.363244
 10
0.8386189999999999
 20
3.374597
 10
0.8244479999999999
 20
3.379201
 10
0.809449
 20
3.376062999999998
 10
0.7980960000000002
 20
3.365772
 10
0.793492
 20
3.351601999999998
 10
0.7966300000000001
 20
3.336601999999998
 10
0.8069209999999998
 20
3.325248999999999
 10
0.821091
 20
3.320644999999998
 10
0.836091
 20
3.32378
 10
0.8474440000000001
 20
3.334071999999998
 10
0.8520469999999999
 20
3.348243
  0
LWPOLYLINE
  5
242
330
1F
100
AcDbEntity
  8
LAYER_1
  6
Continuous
 62
     3
100
AcDbPolyline
 90
        2
 70
     0
 43
0.01185
 10
-0.7229020000000001
 20
4.627330999999998
 10
-0.855461
 20
4.671810999999999
  0
LWPOLYLINE
  5
243
330
1F
100
AcDbEntity
  8
LAYER_1
  6
Continuous
 62
     3
100
AcDbPolyline
 90
        2
 70
     0
 43
0.01185
 10
-0.796547
 20
4.590268
 10
-0.8996459999999999
 20
4.619917
  0
LWPOLYLINE
  5
244
330
1F
100
AcDbEntity
  8
LAYER_1
  6
Continuous
 62
     3
100
AcDbPolyline
 90
        2
 70
     0
 43
0.01185
 10
-0.870189
 20
4.553201
 10
-0.9364649999999999
 20
4.575441
  0
LWPOLYLINE
  5
245
330
1F
100
AcDbEntity
  8
LAYER_1
  6
Continuous
 62
     3
100
AcDbPolyline
 90
        2
 70
     0
 43
0.01185
 10
-0.465157
 20
4.160311
 10
-0.759724
 20
4.204787
  0
LWPOLYLINE
  5
246
330
1F
100
AcDbEntity
  8
LAYER_1
  6
Continuous
 62
     3
100
AcDbPolyline
 90
        2
 70
     0
 43
0.01185
 10
-0.435701
 20
4.101008
 10
-0.7302680000000002
 20
4.152898
  0
LWPOLYLINE
  5
247
330
1F
100
AcDbEntity
  8
LAYER_1
  6
Continuous
 62
     3
100
AcDbPolyline
 90
        2
 70
     0
 43
0.011811
 10
-0.398878
 20
4.056528
 10
-0.7155390000000002
 20
4.093594
  0
LWPOLYLINE
  5
248
330
1F
100
AcDbEntity
  8
LAYER_1
  6
Continuous
 62
     3
100
AcDbPolyline
 90
        2
 70
     0
 43
0.011811
 10
-0.303142
 20
3.982398
 10
-0.700811
 20
4.019465
  0
LWPOLYLINE
  5
249
330
1F
100
AcDbEntity
  8
LAYER_1
  6
Continuous
 62
     3
100
AcDbPolyline
 90
        2
 70
     0
 43
0.011811
 10
-0.325236
 20
3.930508
 10
-0.671354
 20
3.974983999999998
  0
LWPOLYLINE
  5
24A
330
1F
100
AcDbEntity
  8
LAYER_1
  6
Continuous
 62
     3
100
AcDbPolyline
 90
        2
 70
     0
 43
0.011811
 10
-0.398878
 20
3.886027999999998
 10
-0.6345310000000001
 20
3.915680999999998
  0
LWPOLYLINE
  5
24B
330
1F
100
AcDbEntity
  8
LAYER_1
  6
Continuous
 62
     3
100
AcDbPolyline
 90
        2
 70
     0
 43
0.011811
 10
-0.4946140000000002
 20
3.834137999999999
 10
-0.6050750000000002
 20
3.848965
  0
LWPOLYLINE
  5
24C
330
1F
100
AcDbEntity
  8
LAYER_1
  6
Continuous
 62
     3
100
AcDbPolyline
 90
        2
 70
     0
 43
0.011811
 10
0.727846
 20
4.041700999999998
 10
0.5805630000000001
 20
4.041700999999998
  0
LWPOLYLINE
  5
24D
330
1F
100
AcDbEntity
  8
LAYER_1
  6
Continuous
 62
     3
100
AcDbPolyline
 90
        2
 70
     0
 43
0.011811
 10
0.7428430000000002
 20
3.989491999999998
 10
0.5
 20
4.002358
  0
LWPOLYLINE
  5
24E
330
1F
100
AcDbEntity
  8
LAYER_1
  6
Continuous
 62
     3
100
AcDbPolyline
 90
        2
 70
     0
 43
0.011811
 10
0.342362
 20
4.05811
 10
0.005787
 20
4.092417
  0
LWPOLYLINE
  5
24F
330
1F
100
AcDbEntity
  8
LAYER_1
  6
Continuous
 62
     3
100
AcDbPolyline
 90
        2
 70
     0
 43
0.011811
 10
0.393488
 20
4.023798999999998
 10
0.108039
 20
4.032377999999998
  0
LWPOLYLINE
  5
250
330
1F
100
AcDbEntity
  8
LAYER_1
  6
Continuous
 62
     3
100
AcDbPolyline
 90
        3
 70
     0
 43
0.011811
 10
0.7172800000000002
 20
3.955180999999998
 10
0.444614
 20
3.955180999999998
 10
0.150642
 20
3.976625999999998
  0
LWPOLYLINE
  5
251
330
1F
100
AcDbEntity
  8
LAYER_1
  6
Continuous
 62
     3
100
AcDbPolyline
 90
        3
 70
     0
 43
0.011811
 10
0.776929
 20
3.920869999999998
 10
0.572425
 20
3.916583
 10
0.321059
 20
3.916583
  0
LWPOLYLINE
  5
252
330
1F
100
AcDbEntity
  8
LAYER_1
  6
Continuous
 62
     3
100
AcDbPolyline
 90
        2
 70
     0
 43
0.011811
 10
0.815272
 20
3.847969
 10
0.6746770000000001
 20
3.839386
  0
LWPOLYLINE
  5
253
330
1F
100
AcDbEntity
  8
LAYER_1
  6
Continuous
 62
     3
100
AcDbPolyline
 90
        2
 70
     0
 43
0.011811
 10
0.448874
 20
3.873696999999998
 10
0.125079
 20
3.895137999999998
  0
LWPOLYLINE
  5
254
330
1F
100
AcDbEntity
  8
LAYER_1
  6
Continuous
 62
     3
100
AcDbPolyline
 90
        2
 70
     0
 43
0.011811
 10
0.4786970000000001
 20
3.822231999999998
 10
0.142122
 20
3.839386
  0
LWPOLYLINE
  5
255
330
1F
100
AcDbEntity
  8
LAYER_1
  6
Continuous
 62
     3
100
AcDbPolyline
 90
        2
 70
     0
 43
0.011811
 10
0.5426020000000002
 20
3.715016
 10
0.342362
 20
3.684995999999998
  0
LWPOLYLINE
  5
256
330
1F
100
AcDbEntity
  8
LAYER_1
  6
Continuous
 62
     3
100
AcDbPolyline
 90
        2
 70
     0
 43
0.011811
 10
0.384965
 20
3.732169
 10
0.180465
 20
3.740748
  0
LWPOLYLINE
  5
257
330
1F
100
AcDbEntity
  8
LAYER_1
  6
Continuous
 62
     3
100
AcDbPolyline
 90
        2
 70
     0
 43
0.011811
 10
0.406268
 20
3.783633999999998
 10
0.146382
 20
3.787920999999998
  0
LWPOLYLINE
  5
258
330
1F
100
AcDbEntity
  8
LAYER_1
  6
Continuous
 62
     3
100
AcDbPolyline
 90
        2
 70
     0
 43
0.011811
 10
0.8536139999999999
 20
3.779345999999998
 10
0.7641460000000002
 20
3.787920999999998
  0
LWPOLYLINE
  5
259
330
1F
100
AcDbEntity
  8
LAYER_1
  6
Continuous
 62
     3
100
AcDbPolyline
 90
        2
 70
     0
 43
0.011811
 10
0.572425
 20
3.654972
 10
0.312539
 20
3.646398
  0
LWPOLYLINE
  5
25A
330
1F
100
AcDbEntity
  8
LAYER_1
  6
Continuous
 62
     3
100
AcDbPolyline
 90
        2
 70
     0
 43
0.011811
 10
0.8706569999999999
 20
3.53489
 10
0.593728
 20
3.492004
  0
LWPOLYLINE
  5
25B
330
1F
100
AcDbEntity
  8
LAYER_1
  6
Continuous
 62
     3
100
AcDbPolyline
 90
        2
 70
     0
 43
0.011811
 10
0.8323109999999999
 20
3.479137999999998
 10
0.4659130000000001
 20
3.440538999999998
  0
LWPOLYLINE
  5
25C
330
1F
100
AcDbEntity
  8
LAYER_1
  6
Continuous
 62
     3
100
AcDbPolyline
 90
        2
 70
     0
 43
0.011811
 10
0.7215430000000001
 20
3.414807
 10
0.4403500000000001
 20
3.376208999999998
  0
LWPOLYLINE
  5
25D
330
1F
100
AcDbEntity
  8
LAYER_1
  6
Continuous
 62
     3
100
AcDbPolyline
 90
        2
 70
     0
 43
0.011811
 10
0.568165
 20
3.329034999999998
 10
0.448874
 20
3.303303
  0
LWPOLYLINE
  5
25E
330
1F
100
AcDbEntity
  8
LAYER_1
  6
Continuous
 62
     3
100
AcDbPolyline
 90
        2
 70
     0
 43
0.011811
 10
1.075156999999999
 20
3.273279999999998
 10
0.938823
 20
3.303303
  0
LWPOLYLINE
  5
25F
330
1F
100
AcDbEntity
  8
LAYER_1
  6
Continuous
 62
     3
100
AcDbPolyline
 90
        2
 70
     0
 43
0.011811
 10
0.9473459999999999
 20
3.187508
 10
0.8536139999999999
 20
3.166063
  0
LWPOLYLINE
  5
260
330
1F
100
AcDbEntity
  8
LAYER_1
  6
Continuous
 62
     3
100
AcDbPolyline
 90
        2
 70
     0
 43
0.011811
 10
1.019776
 20
3.354767999999998
 10
0.943087
 20
3.36763
  0
LWPOLYLINE
  5
261
330
1F
100
AcDbEntity
  8
LAYER_1
  6
Continuous
 62
     3
100
AcDbPolyline
 90
        2
 70
     0
 43
0.011811
 10
0.840835
 20
3.474849999999998
 10
0.938823
 20
3.474849999999998
  0
LWPOLYLINE
  5
262
330
1F
100
AcDbEntity
  8
LAYER_1
  6
Continuous
 62
     3
100
AcDbPolyline
 90
        2
 70
     0
 43
0.011811
 10
0.8791770000000001
 20
3.410519999999998
 10
0.9686459999999998
 20
3.410519999999998
  0
LWPOLYLINE
  5
263
330
1F
100
AcDbEntity
  8
LAYER_1
  6
Continuous
 62
     3
100
AcDbPolyline
 90
        2
 70
     0
 43
0.011811
 10
0.597988
 20
3.556334999999998
 10
0.329583
 20
3.474849999999998
  0
LWPOLYLINE
  5
264
330
1F
100
AcDbEntity
  8
LAYER_1
  6
Continuous
 62
     2
100
AcDbPolyline
 90
        2
 70
     0
 43
0.019685
 10
0.272661
 20
3.561995999999998
 10
0.9088739999999999
 20
3.690083
  0
LWPOLYLINE
  5
265
102
{ACAD_REACTORS
330
3D2
102
}
330
1F
100
AcDbEntity
  8
LAYER_1
  6
Continuous
 62
     7
100
AcDbPolyline
 90
       16
 70
     1
 43
0.01185
 10
-1.013559
 20
4.626768
 10
-0.7243940000000002
 20
4.77578
 10
-0.5817720000000001
 20
4.504593999999999
 10
-0.306406
 20
4.658579
 10
-0.006339
 20
4.092748
 10
0.25374
 20
4.236318999999999
 10
0.4299210000000002
 20
3.966070999999999
 10
0.6855240000000001
 20
4.108141999999999
 10
1.12626
 20
3.282008
 10
0.8745709999999997
 20
3.129991999999998
 10
0.7235590000000001
 20
3.408684999999998
 10
0.4496810000000001
 20
3.249731999999998
 10
0.135264
 20
3.817530999999998
 10
-0.123791
 20
3.687377999999998
 10
-0.283197
 20
3.949180999999999
 10
-0.568441
 20
3.788719999999998
  0
LWPOLYLINE
  5
266
330
1F
100
AcDbEntity
  8
LAYER_1
  6
Continuous
 62
    30
100
AcDbPolyline
 90
        2
 70
     0
 43
0.019685
 10
-0.5438109999999999
 20
2.128204999999999
 10
-0.6709290000000001
 20
1.987374
  0
LWPOLYLINE
  5
267
330
1F
100
AcDbEntity
  8
LAYER_1
  6
Continuous
 62
    30
100
AcDbPolyline
 90
        3
 70
     0
 43
0.019685
 10
-0.245579
 20
2.158224
 10
-0.390433
 20
1.973810999999999
 10
-0.5529250000000001
 20
1.777227999999999
  0
LWPOLYLINE
  5
268
330
1F
100
AcDbEntity
  8
LAYER_1
  6
Continuous
 62
    30
100
AcDbPolyline
 90
        2
 70
     0
 43
0.019685
 10
-0.087941
 20
2.029563
 10
-0.249839
 20
1.793684999999999
  0
LWPOLYLINE
  5
269
330
1F
100
AcDbEntity
  8
LAYER_1
  6
Continuous
 62
    30
100
AcDbPolyline
 90
        2
 70
     0
 43
0.019685
 10
0.022831
 20
1.870881999999999
 10
-0.130547
 20
1.737933
  0
LWPOLYLINE
  5
26A
330
1F
100
AcDbEntity
  8
LAYER_1
  6
Continuous
 62
    30
100
AcDbPolyline
 90
        3
 70
     0
 43
0.019685
 10
-0.17315
 20
1.759377999999998
 10
-0.258362
 20
1.643583
 10
-0.406161
 20
1.499090999999999
  0
LWPOLYLINE
  5
26B
330
1F
100
AcDbEntity
  8
LAYER_1
  6
Continuous
 62
    30
100
AcDbPolyline
 90
        2
 70
     0
 43
0.019685
 10
-1.613180999999999
 20
1.437724
 10
-1.732472
 20
1.300487999999998
  0
LWPOLYLINE
  5
26C
330
1F
100
AcDbEntity
  8
LAYER_1
  6
Continuous
 62
    30
100
AcDbPolyline
 90
        2
 70
     0
 43
0.019685
 10
-1.127491999999999
 20
1.442015999999999
 10
-1.263822999999999
 20
1.261889999999998
  0
LWPOLYLINE
  5
26D
330
1F
100
AcDbEntity
  8
LAYER_1
  6
Continuous
 62
    30
100
AcDbPolyline
 90
        3
 70
     0
 43
0.019685
 10
-0.9442909999999999
 20
1.141807
 10
-1.114708999999999
 20
0.910217
 10
-1.366074999999999
 20
0.618587
  0
LWPOLYLINE
  5
26E
330
1F
100
AcDbEntity
  8
LAYER_1
  6
Continuous
 62
    30
100
AcDbPolyline
 90
        2
 70
     0
 43
0.019685
 10
-0.82926
 20
0.8673309999999998
 10
-0.8676020000000001
 20
0.7987130000000002
  0
LWPOLYLINE
  5
26F
330
1F
100
AcDbEntity
  8
LAYER_1
  6
Continuous
 62
    30
100
AcDbPolyline
 90
        2
 70
     0
 43
0.019685
 10
-1.268087
 20
1.038877999999998
 10
-1.370335
 20
0.9531059999999998
  0
LWPOLYLINE
  5
270
330
1F
100
AcDbEntity
  8
LAYER_1
  6
Continuous
 62
    30
100
AcDbPolyline
 90
        2
 70
     0
 43
0.019685
 10
-1.851764
 20
1.806550999999999
 10
-2.179818999999999
 20
1.420570999999999
  0
LWPOLYLINE
  5
271
330
1F
100
AcDbEntity
  8
LAYER_1
  6
Continuous
 62
    30
100
AcDbPolyline
 90
        2
 70
     0
 43
0.019685
 10
-2.052008
 20
1.463457
 10
-2.175558999999998
 20
1.347664999999999
  0
LWPOLYLINE
  5
272
330
1F
100
AcDbEntity
  8
LAYER_1
  6
Continuous
 62
    30
100
AcDbPolyline
 90
        2
 70
     0
 43
0.019685
 10
-2.247988
 20
1.665027999999999
 10
-2.397101999999998
 20
1.532079
  0
LWPOLYLINE
  5
273
330
1F
100
AcDbEntity
  8
LAYER_1
  6
Continuous
 62
    30
100
AcDbPolyline
 90
        2
 70
     0
 43
0.019685
 10
-1.928453
 20
1.939499999999999
 10
-2.09887
 20
1.810843
  0
LWPOLYLINE
  5
274
330
1F
100
AcDbEntity
  8
LAYER_1
  6
Continuous
 62
    30
100
AcDbPolyline
 90
        2
 70
     0
 43
0.019685
 10
-2.222424999999998
 20
1.840861999999999
 10
-2.418406
 20
1.669315
  0
LWPOLYLINE
  5
275
330
1F
100
AcDbEntity
  8
LAYER_1
  6
Continuous
 62
    30
100
AcDbPolyline
 90
        2
 70
     0
 43
0.019685
 10
-2.239465
 20
2.141070999999999
 10
-2.486571
 20
1.815129999999999
  0
LWPOLYLINE
  5
276
330
1F
100
AcDbEntity
  8
LAYER_1
  6
Continuous
 62
    30
100
AcDbPolyline
 90
        2
 70
     0
 43
0.019685
 10
-2.409307
 20
3.048354
 10
-2.136830999999999
 20
2.966810999999998
  0
LWPOLYLINE
  5
277
330
1F
100
AcDbEntity
  8
LAYER_1
  6
Continuous
 62
     5
100
AcDbPolyline
 90
        2
 70
     0
 43
0.019685
 10
0.512047
 20
1.142645999999998
 10
0.293421
 20
0.8477479999999999
  0
LWPOLYLINE
  5
278
330
1F
100
AcDbEntity
  8
LAYER_1
  6
Continuous
 62
    30
100
AcDbPolyline
 90
        2
 70
     0
 43
0.019685
 10
0.985594
 20
0.846685
 10
0.5437400000000002
 20
0.364839
  0
LWPOLYLINE
  5
279
330
1F
100
AcDbEntity
  8
LAYER_1
  6
Continuous
 62
    30
100
AcDbPolyline
 90
        2
 70
     0
 43
0.019685
 10
1.029779999999999
 20
0.6465310000000001
 10
0.8162169999999997
 20
0.409315
  0
LWPOLYLINE
  5
27A
330
1F
100
AcDbEntity
  8
LAYER_1
  6
Continuous
 62
    30
100
AcDbPolyline
 90
        2
 70
     0
 43
0.019685
 10
-0.276157
 20
-0.8002640000000001
 10
-0.501976
 20
-1.058464999999998
  0
LWPOLYLINE
  5
27B
330
1F
100
AcDbEntity
  8
LAYER_1
  6
Continuous
 62
    30
100
AcDbPolyline
 90
        2
 70
     0
 43
0.019685
 10
1.685192999999999
 20
1.758488
 10
1.523180999999999
 20
1.461965
  0
LWPOLYLINE
  5
27C
330
1F
100
AcDbEntity
  8
LAYER_1
  6
Continuous
 62
    30
100
AcDbPolyline
 90
        2
 70
     0
 43
0.019685
 10
1.854570999999999
 20
1.773315
 10
1.722015999999999
 20
1.587987999999999
  0
LWPOLYLINE
  5
27D
330
1F
100
AcDbEntity
  8
LAYER_1
  6
Continuous
 62
   212
100
AcDbPolyline
 90
        2
 70
     0
 43
0.019685
 10
-0.9806499999999999
 20
-0.5692050000000001
 10
-0.479976
 20
-1.156598
  0
LWPOLYLINE
  5
27E
330
1F
100
AcDbEntity
  8
LAYER_1
  6
Continuous
 62
   212
100
AcDbPolyline
 90
        2
 70
     0
 43
0.019685
 10
-1.017471999999999
 20
-0.635921
 10
-0.5387990000000002
 20
-1.191902
  0
LWPOLYLINE
  5
27F
330
1F
100
AcDbEntity
  8
LAYER_1
  6
Continuous
 62
   212
100
AcDbPolyline
 90
        2
 70
     0
 43
0.019685
 10
-0.516181
 20
-1.121008
 10
-0.573264
 20
-1.153842999999999
  0
LWPOLYLINE
  5
280
330
1F
100
AcDbEntity
  8
LAYER_1
  6
Continuous
 62
     5
100
AcDbPolyline
 90
        2
 70
     0
 43
0.019685
 10
1.80302
 20
-0.014449
 10
1.640822999999999
 20
-0.19461
  0
LWPOLYLINE
  5
281
330
1F
100
AcDbEntity
  8
LAYER_1
  6
Continuous
 62
     5
100
AcDbPolyline
 90
        2
 70
     0
 43
0.019685
 10
1.517776
 20
-0.414189
 10
1.391185
 20
-0.550811
  0
LWPOLYLINE
  5
282
330
1F
100
AcDbEntity
  8
LAYER_1
  6
Continuous
 62
     5
100
AcDbPolyline
 90
        2
 70
     0
 43
0.019685
 10
0.089461
 20
0.5376260000000001
 10
-0.305567
 20
0.047484
  0
LWPOLYLINE
  5
283
330
1F
100
AcDbEntity
  8
LAYER_1
  6
Continuous
 62
     5
100
AcDbPolyline
 90
        2
 70
     0
 43
0.019685
 10
-0.596406
 20
-0.228394
 10
-1.009929
 20
-0.73137
  0
LWPOLYLINE
  5
284
330
1F
100
AcDbEntity
  8
LAYER_1
  6
Continuous
 62
     5
100
AcDbPolyline
 90
        2
 70
     0
 43
0.019685
 10
-0.624374
 20
-0.419819
 10
-0.9655509999999999
 20
-0.8251889999999999
  0
LWPOLYLINE
  5
285
330
1F
100
AcDbEntity
  8
LAYER_1
  6
Continuous
 62
     5
100
AcDbPolyline
 90
        2
 70
     0
 43
0.019685
 10
0.4577950000000002
 20
1.116649999999999
 10
0.279654
 20
0.892567
  0
LWPOLYLINE
  5
286
330
1F
100
AcDbEntity
  8
LAYER_1
  6
Continuous
 62
     5
100
AcDbPolyline
 90
        2
 70
     0
 43
0.019685
 10
0.6841300000000002
 20
1.248768
 10
0.835142
 20
1.139731999999998
  0
LWPOLYLINE
  5
287
330
1F
100
AcDbEntity
  8
LAYER_1
  6
Continuous
 62
    30
100
AcDbPolyline
 90
        2
 70
     0
 43
0.019685
 10
0.645346
 20
1.214613999999998
 10
0.880165
 20
1.061476
  0
LWPOLYLINE
  5
288
330
1F
100
AcDbEntity
  8
LAYER_1
  6
Continuous
 62
     5
100
AcDbPolyline
 90
        2
 70
     0
 43
0.019685
 10
1.613602
 20
1.722264
 10
1.419149999999999
 20
1.435408999999999
  0
LWPOLYLINE
  5
289
330
1F
100
AcDbEntity
  8
LAYER_1
  6
Continuous
 62
     5
100
AcDbPolyline
 90
        2
 70
     0
 43
0.019685
 10
1.622176999999999
 20
1.411479999999999
 10
1.523090999999999
 20
1.221961
  0
LWPOLYLINE
  5
28A
330
1F
100
AcDbEntity
  8
LAYER_1
  6
Continuous
 62
     5
100
AcDbPolyline
 90
        2
 70
     0
 43
0.019685
 10
2.225165
 20
1.203886
 10
2.010806999999998
 20
0.8904129999999998
  0
LWPOLYLINE
  5
28B
330
1F
100
AcDbEntity
  8
LAYER_1
  6
Continuous
 62
     2
100
AcDbPolyline
 90
        2
 70
     0
 43
0.019685
 10
2.556969
 20
0.09065
 10
2.94289
 20
-0.142437
  0
LWPOLYLINE
  5
28C
330
1F
100
AcDbEntity
  8
LAYER_1
  6
Continuous
 62
     2
100
AcDbPolyline
 90
        2
 70
     0
 43
0.019685
 10
1.493538999999999
 20
0.107913
 10
1.442083
 20
0.03885
  0
LWPOLYLINE
  5
28D
330
1F
100
AcDbEntity
  8
LAYER_1
  6
Continuous
 62
     2
100
AcDbPolyline
 90
        2
 70
     0
 43
0.019685
 10
1.339169
 20
-0.116539
 10
1.227681
 20
-0.237402
  0
LWPOLYLINE
  5
28E
330
1F
100
AcDbEntity
  8
LAYER_1
  6
Continuous
 62
     2
100
AcDbPolyline
 90
        2
 70
     0
 43
0.019685
 10
0.950957
 20
-0.4121770000000002
 10
0.6187800000000001
 20
-0.928031
  0
LWPOLYLINE
  5
28F
330
1F
100
AcDbEntity
  8
LAYER_1
  6
Continuous
 62
     2
100
AcDbPolyline
 90
        2
 70
     0
 43
0.019685
 10
-0.381354
 20
3.431483999999998
 10
-0.622134
 20
3.396016
  0
LWPOLYLINE
  5
290
330
1F
100
AcDbEntity
  8
LAYER_1
  6
Continuous
 62
    30
100
AcDbPolyline
 90
        2
 70
     0
 43
0.019685
 10
-2.231263999999999
 20
2.355563
 10
-2.599566999999999
 20
1.971771999999999
  0
LWPOLYLINE
  5
291
330
1F
100
AcDbEntity
  8
LAYER_1
  6
Continuous
 62
     5
100
AcDbPolyline
 90
        2
 70
     0
 43
0.019685
 10
2.999933
 20
3.062425
 10
2.727272
 20
2.710542999999998
  0
LWPOLYLINE
  5
292
330
1F
100
AcDbEntity
  8
LAYER_1
  6
Continuous
 62
    30
100
AcDbPolyline
 90
        2
 70
     0
 43
0.019685
 10
3.069846
 20
2.802030999999998
 10
2.825149999999998
 20
2.400885999999998
  0
LWPOLYLINE
  5
293
330
1F
100
AcDbEntity
  8
LAYER_1
  6
Continuous
 62
    30
100
AcDbPolyline
 90
        2
 70
     0
 43
0.019685
 10
2.447617999999998
 20
2.86537
 10
2.258853999999999
 20
2.576827
  0
LWPOLYLINE
  5
294
330
1F
100
AcDbEntity
  8
LAYER_1
  6
Continuous
 62
     2
100
AcDbPolyline
 90
        2
 70
     0
 43
0.019685
 10
0.91652
 20
2.084188999999998
 10
0.8046569999999999
 20
1.929361999999999
  0
LWPOLYLINE
  5
295
330
1F
100
AcDbEntity
  8
LAYER_1
  6
Continuous
 62
     5
100
AcDbPolyline
 90
        2
 70
     0
 43
0.019685
 10
-2.810893999999998
 20
3.648527999999998
 10
-2.031591
 20
3.136559
  0
LWPOLYLINE
  5
296
330
1F
100
AcDbEntity
  8
LAYER_1
  6
Continuous
 62
     7
100
AcDbPolyline
 90
        4
 70
     1
 43
0.01185
 10
-2.954779999999998
 20
3.594109999999998
 10
-2.526075
 20
2.780543
 10
-1.970866
 20
3.067058999999998
 10
-2.403086999999999
 20
3.887701
  0
LWPOLYLINE
  5
297
330
1F
100
AcDbEntity
  8
LAYER_1
  6
Continuous
 62
     7
100
AcDbPolyline
 90
        4
 70
     1
 43
0.01185
 10
-2.709579
 20
2.109945
 10
-2.166622
 20
2.398527999999999
 10
-1.732256
 20
1.580878
 10
-2.266528
 20
1.292294999999998
  0
LWPOLYLINE
  5
298
102
{ACAD_REACTORS
330
3D1
102
}
330
1F
100
AcDbEntity
  8
LAYER_1
  6
Continuous
 62
     7
100
AcDbPolyline
 90
       11
 70
     1
 43
0.01185
 10
1.696449
 20
3.571912999999999
 10
1.956578999999999
 20
3.704858
 10
2.012606
 20
3.708886
 10
2.108654
 20
3.668598
 10
2.160681
 20
3.588027999999998
 10
2.228716999999999
 20
3.592058999999999
 10
2.256727999999998
 20
3.571912999999999
 10
2.284743999999998
 20
3.519543
 10
2.384794999999999
 20
3.579972
 10
2.532869999999999
 20
3.297972
 10
1.988593999999999
 20
3.011944999999998
  0
LWPOLYLINE
  5
299
330
1F
100
AcDbEntity
  8
LAYER_1
  6
Continuous
 62
     7
100
AcDbPolyline
 90
        6
 70
     1
 43
0.01185
 10
-0.605524
 20
-0.161287
 10
-0.8798350000000001
 20
-0.302563
 10
-0.854319
 20
-0.36678
 10
-1.131823
 20
-0.4984250000000002
 10
-0.72035
 20
-1.291503999999998
 10
-0.17172
 20
-0.9961059999999999
  0
LWPOLYLINE
  5
29A
330
1F
100
AcDbEntity
  8
LAYER_1
  6
Continuous
 62
     7
100
AcDbPolyline
 90
        4
 70
     1
 43
0.01185
 10
2.769188999999999
 20
0.204752
 10
2.21737
 20
-0.090646
 10
2.651168999999998
 20
-0.9222559999999999
 10
3.202987999999998
 20
-0.6236460000000001
  0
LWPOLYLINE
  5
29B
330
1F
100
AcDbEntity
  8
LAYER_1
  6
Continuous
 62
     2
100
AcDbPolyline
 90
       12
 70
     1
 43
0.003
 10
-1.498782999999999
 20
4.322244
 10
-1.509074
 20
4.333597
 10
-1.523245
 20
4.338201
 10
-1.538243999999999
 20
4.335062999999999
 10
-1.549596999999999
 20
4.324772
 10
-1.554200999999999
 20
4.310601999999998
 10
-1.551062999999999
 20
4.295601999999998
 10
-1.540772
 20
4.284248999999999
 10
-1.526602
 20
4.279644999999998
 10
-1.511602
 20
4.28278
 10
-1.500248999999999
 20
4.293072
 10
-1.495645999999999
 20
4.307242999999998
  0
LWPOLYLINE
  5
29C
330
1F
100
AcDbEntity
  8
LAYER_1
  6
Continuous
 62
     2
100
AcDbPolyline
 90
       12
 70
     1
 43
0.003
 10
-2.217306999999999
 20
3.118055
 10
-2.227597999999999
 20
3.129408
 10
-2.241767999999999
 20
3.134011999999998
 10
-2.256768
 20
3.130874
 10
-2.268120999999998
 20
3.120583
 10
-2.272724
 20
3.106413
 10
-2.269587
 20
3.091413
 10
-2.259295999999999
 20
3.08006
 10
-2.245125999999999
 20
3.075455999999998
 10
-2.230125999999998
 20
3.078590999999998
 10
-2.218773
 20
3.088883
 10
-2.214169
 20
3.103054
  0
LWPOLYLINE
  5
29D
330
1F
100
AcDbEntity
  8
LAYER_1
  6
Continuous
 62
     2
100
AcDbPolyline
 90
       12
 70
     1
 43
0.003
 10
-2.274637999999999
 20
3.452763999999998
 10
-2.284928999999999
 20
3.464116999999999
 10
-2.299099
 20
3.468719999999998
 10
-2.314097999999999
 20
3.465583
 10
-2.325451999999998
 20
3.455292
 10
-2.330054999999999
 20
3.441122
 10
-2.326916999999999
 20
3.426122
 10
-2.316625999999998
 20
3.414769
 10
-2.302456
 20
3.410163999999998
 10
-2.287456999999998
 20
3.413298999999998
 10
-2.276104
 20
3.423591999999998
 10
-2.2715
 20
3.437762
  0
LWPOLYLINE
  5
29E
330
1F
100
AcDbEntity
  8
LAYER_1
  6
Continuous
 62
     2
100
AcDbPolyline
 90
       12
 70
     1
 43
0.003
 10
-2.129405999999999
 20
1.529133999999999
 10
-2.139695999999998
 20
1.540487
 10
-2.153866999999999
 20
1.54509
 10
-2.168865999999999
 20
1.541953
 10
-2.180218999999999
 20
1.531662
 10
-2.184822999999999
 20
1.517492
 10
-2.181684999999998
 20
1.502491999999999
 10
-2.171393999999998
 20
1.491138999999999
 10
-2.157224
 20
1.486533999999999
 10
-2.142224
 20
1.489669
 10
-2.130870999999999
 20
1.499962
 10
-2.126268
 20
1.514132
  0
LWPOLYLINE
  5
29F
330
1F
100
AcDbEntity
  8
LAYER_1
  6
Continuous
 62
     2
100
AcDbPolyline
 90
       12
 70
     1
 43
0.003
 10
-2.244063
 20
3.071886
 10
-2.254354
 20
3.083238999999998
 10
-2.268524
 20
3.087841999999998
 10
-2.283524
 20
3.084705
 10
-2.294877
 20
3.074413999999998
 10
-2.299479999999999
 20
3.060243999999998
 10
-2.296343
 20
3.045243999999998
 10
-2.286052
 20
3.033891
 10
-2.271881
 20
3.029285999999998
 10
-2.256882
 20
3.032420999999998
 10
-2.245528999999998
 20
3.042714
 10
-2.240924999999998
 20
3.056884
  0
LWPOLYLINE
  5
2A0
330
1F
100
AcDbEntity
  8
LAYER_1
  6
Continuous
 62
     2
100
AcDbPolyline
 90
       12
 70
     1
 43
0.003
 10
-2.442803
 20
3.152681
 10
-2.453093999999999
 20
3.164034
 10
-2.467264
 20
3.168638
 10
-2.482263999999998
 20
3.1655
 10
-2.493616999999999
 20
3.155209
 10
-2.498219999999998
 20
3.141039
 10
-2.495083
 20
3.126039
 10
-2.484791999999999
 20
3.114685999999998
 10
-2.470622
 20
3.110081999999998
 10
-2.455621999999999
 20
3.113216999999998
 10
-2.444268999999998
 20
3.123508999999998
 10
-2.439665999999999
 20
3.13768
  0
LWPOLYLINE
  5
2A1
330
1F
100
AcDbEntity
  8
LAYER_1
  6
Continuous
 62
     2
100
AcDbPolyline
 90
       12
 70
     1
 43
0.003
 10
-0.45922
 20
3.002634
 10
-0.469511
 20
3.013986999999998
 10
-0.483682
 20
3.01859
 10
-0.4986810000000001
 20
3.015452999999998
 10
-0.510034
 20
3.005161999999999
 10
-0.5146380000000002
 20
2.990991999999998
 10
-0.5115
 20
2.975991999999998
 10
-0.5012090000000002
 20
2.964639
 10
-0.4870390000000002
 20
2.960033999999998
 10
-0.472039
 20
2.963168999999998
 10
-0.4606860000000001
 20
2.973461999999998
 10
-0.4560830000000001
 20
2.987631999999998
  0
LWPOLYLINE
  5
2A2
330
1F
100
AcDbEntity
  8
LAYER_1
  6
Continuous
 62
     2
100
AcDbPolyline
 90
       12
 70
     1
 43
0.003
 10
-2.343428999999999
 20
3.741311
 10
-2.35372
 20
3.752663999999998
 10
-2.36789
 20
3.757267999999998
 10
-2.38289
 20
3.75413
 10
-2.394242999999999
 20
3.743838999999999
 10
-2.398845999999998
 20
3.729669
 10
-2.395709
 20
3.714669
 10
-2.385418
 20
3.703316
 10
-2.371248
 20
3.698712
 10
-2.356247999999999
 20
3.701845999999998
 10
-2.344895
 20
3.712139
 10
-2.340291
 20
3.726309999999998
  0
LWPOLYLINE
  5
2A3
330
1F
100
AcDbEntity
  8
LAYER_1
  6
Continuous
 62
     2
100
AcDbPolyline
 90
       12
 70
     1
 43
0.003
 10
-2.351074999999998
 20
3.637433
 10
-2.361365999999998
 20
3.648785999999998
 10
-2.375535999999998
 20
3.65339
 10
-2.390534999999998
 20
3.650251999999998
 10
-2.401889
 20
3.639961
 10
-2.406491999999999
 20
3.625791
 10
-2.403354
 20
3.610791
 10
-2.393063
 20
3.599437999999998
 10
-2.378893
 20
3.594833999999998
 10
-2.363893999999999
 20
3.597969
 10
-2.352540999999999
 20
3.608261
 10
-2.347936999999999
 20
3.622431999999998
  0
LWPOLYLINE
  5
2A4
330
1F
100
AcDbEntity
  8
LAYER_1
  6
Continuous
 62
     2
100
AcDbPolyline
 90
       12
 70
     1
 43
0.003
 10
-2.519244
 20
3.637437
 10
-2.529534999999999
 20
3.648789999999998
 10
-2.543705
 20
3.653394
 10
-2.558704999999998
 20
3.650255999999998
 10
-2.570057999999999
 20
3.639965
 10
-2.574660999999998
 20
3.625794999999998
 10
-2.571524
 20
3.610794999999998
 10
-2.561233
 20
3.599441999999998
 10
-2.547063
 20
3.594837999999998
 10
-2.532062999999999
 20
3.597971999999998
 10
-2.520709999999998
 20
3.608265
 10
-2.516106
 20
3.622435999999998
  0
LWPOLYLINE
  5
2A5
330
1F
100
AcDbEntity
  8
LAYER_1
  6
Continuous
 62
     2
100
AcDbPolyline
 90
       12
 70
     1
 43
0.003
 10
-2.744736
 20
3.537405999999998
 10
-2.755027
 20
3.548758999999998
 10
-2.769197
 20
3.553362
 10
-2.784197
 20
3.550223999999998
 10
-2.795549999999998
 20
3.539933999999998
 10
-2.800152999999999
 20
3.525762999999998
 10
-2.797016
 20
3.510763999999998
 10
-2.786725
 20
3.499409999999998
 10
-2.772555
 20
3.494805999999998
 10
-2.757554999999998
 20
3.497941
 10
-2.746202
 20
3.508233999999998
 10
-2.741599
 20
3.522403999999998
  0
LWPOLYLINE
  5
2A6
330
1F
100
AcDbEntity
  8
LAYER_1
  6
Continuous
 62
     2
100
AcDbPolyline
 90
       12
 70
     1
 43
0.003
 10
-2.374008
 20
3.464306999999998
 10
-2.384298999999999
 20
3.475659999999998
 10
-2.398468999999999
 20
3.480264
 10
-2.413469
 20
3.477126
 10
-2.424822
 20
3.466834999999998
 10
-2.429425
 20
3.452665
 10
-2.426286999999998
 20
3.437664999999998
 10
-2.415996999999999
 20
3.426312
 10
-2.401825999999998
 20
3.421708
 10
-2.386827
 20
3.424843
 10
-2.375474
 20
3.435134999999998
 10
-2.37087
 20
3.449305999999998
  0
LWPOLYLINE
  5
2A7
330
1F
100
AcDbEntity
  8
LAYER_1
  6
Continuous
 62
     2
100
AcDbPolyline
 90
       12
 70
     1
 43
0.003
 10
-0.218437
 20
2.841050999999998
 10
-0.228728
 20
2.852403999999998
 10
-0.242898
 20
2.857008
 10
-0.257898
 20
2.85387
 10
-0.269251
 20
2.843579
 10
-0.273854
 20
2.829409
 10
-0.270717
 20
2.814408999999998
 10
-0.260426
 20
2.803056
 10
-0.246255
 20
2.798452
 10
-0.231256
 20
2.801586999999998
 10
-0.219903
 20
2.811879
 10
-0.215299
 20
2.82605
  0
LWPOLYLINE
  5
2A8
330
1F
100
AcDbEntity
  8
LAYER_1
  6
Continuous
 62
     2
100
AcDbPolyline
 90
       12
 70
     1
 43
0.003
 10
-0.229906
 20
2.879528
 10
-0.240196
 20
2.890881
 10
-0.254367
 20
2.895484
 10
-0.269366
 20
2.892345999999998
 10
-0.280719
 20
2.882056
 10
-0.285323
 20
2.867884999999998
 10
-0.2821849999999999
 20
2.852886
 10
-0.271894
 20
2.841533
 10
-0.257724
 20
2.836927999999998
 10
-0.242724
 20
2.840063
 10
-0.231371
 20
2.850356
 10
-0.226768
 20
2.864525999999998
  0
LWPOLYLINE
  5
2A9
330
1F
100
AcDbEntity
  8
LAYER_1
  6
Continuous
 62
     2
100
AcDbPolyline
 90
       12
 70
     1
 43
0.003
 10
-0.214618
 20
3.118055
 10
-0.224909
 20
3.129408
 10
-0.239079
 20
3.134011999999998
 10
-0.254079
 20
3.130874
 10
-0.265432
 20
3.120583
 10
-0.270035
 20
3.106413
 10
-0.266898
 20
3.091413
 10
-0.256607
 20
3.08006
 10
-0.242437
 20
3.075455999999998
 10
-0.227437
 20
3.078590999999998
 10
-0.216084
 20
3.088883
 10
-0.21148
 20
3.103054
  0
LWPOLYLINE
  5
2AA
330
1F
100
AcDbEntity
  8
LAYER_1
  6
Continuous
 62
     2
100
AcDbPolyline
 90
       12
 70
     1
 43
0.003
 10
-0.673248
 20
2.894913
 10
-0.6835390000000002
 20
2.906266999999998
 10
-0.6977090000000002
 20
2.91087
 10
-0.7127090000000002
 20
2.907731999999998
 10
-0.724062
 20
2.897441
 10
-0.728665
 20
2.883270999999998
 10
-0.7255279999999999
 20
2.868272
 10
-0.7152370000000002
 20
2.856917999999998
 10
-0.701066
 20
2.852313999999998
 10
-0.686067
 20
2.855449
 10
-0.674714
 20
2.865742
 10
-0.6701100000000002
 20
2.879912
  0
LWPOLYLINE
  5
2AB
330
1F
100
AcDbEntity
  8
LAYER_1
  6
Continuous
 62
     2
100
AcDbPolyline
 90
       12
 70
     1
 43
0.003
 10
-0.8528819999999999
 20
3.241165
 10
-0.8631729999999999
 20
3.252518999999998
 10
-0.8773429999999999
 20
3.257122
 10
-0.8923429999999999
 20
3.253983999999998
 10
-0.9036959999999998
 20
3.243692999999998
 10
-0.9082989999999997
 20
3.229522999999998
 10
-0.905161
 20
3.214524
 10
-0.8948709999999998
 20
3.20317
 10
-0.8807
 20
3.198566
 10
-0.8657009999999999
 20
3.201700999999999
 10
-0.854348
 20
3.211993999999998
 10
-0.849744
 20
3.226163999999998
  0
LWPOLYLINE
  5
2AC
330
1F
100
AcDbEntity
  8
LAYER_1
  6
Continuous
 62
     2
100
AcDbPolyline
 90
       12
 70
     1
 43
0.003
 10
-0.20315
 20
2.74487
 10
-0.213441
 20
2.756222999999998
 10
-0.227611
 20
2.760826999999998
 10
-0.24261
 20
2.757689
 10
-0.253963
 20
2.747398
 10
-0.258567
 20
2.733227999999998
 10
-0.255429
 20
2.718227999999998
 10
-0.245138
 20
2.706875
 10
-0.230968
 20
2.702271
 10
-0.215969
 20
2.705405999999998
 10
-0.204615
 20
2.715698
 10
-0.200012
 20
2.729868999999998
  0
LWPOLYLINE
  5
2AD
330
1F
100
AcDbEntity
  8
LAYER_1
  6
Continuous
 62
     2
100
AcDbPolyline
 90
       12
 70
     1
 43
0.003
 10
-0.279587
 20
2.791034999999998
 10
-0.289878
 20
2.802388999999998
 10
-0.304048
 20
2.806991999999998
 10
-0.3190469999999999
 20
2.803854
 10
-0.3304
 20
2.793563
 10
-0.335004
 20
2.779393
 10
-0.331866
 20
2.764393999999998
 10
-0.321575
 20
2.753039999999998
 10
-0.3074050000000001
 20
2.748435999999998
 10
-0.292406
 20
2.751570999999998
 10
-0.281052
 20
2.761864
 10
-0.276449
 20
2.776034
  0
LWPOLYLINE
  5
2AE
330
1F
100
AcDbEntity
  8
LAYER_1
  6
Continuous
 62
     2
100
AcDbPolyline
 90
       12
 70
     1
 43
0.003
 10
-0.4018900000000001
 20
2.625602
 10
-0.412181
 20
2.636956
 10
-0.4263510000000001
 20
2.641558999999999
 10
-0.44135
 20
2.638421
 10
-0.452704
 20
2.62813
 10
-0.457307
 20
2.61396
 10
-0.454169
 20
2.598961
 10
-0.443878
 20
2.587606999999999
 10
-0.429708
 20
2.583002999999999
 10
-0.4147090000000002
 20
2.586138
 10
-0.403355
 20
2.596430999999999
 10
-0.398752
 20
2.610600999999999
  0
LWPOLYLINE
  5
2AF
330
1F
100
AcDbEntity
  8
LAYER_1
  6
Continuous
 62
     2
100
AcDbPolyline
 90
       12
 70
     1
 43
0.003
 10
-0.4133580000000002
 20
3.360428999999999
 10
-0.423649
 20
3.371782
 10
-0.437819
 20
3.376386
 10
-0.452819
 20
3.373248
 10
-0.4641720000000002
 20
3.362956999999998
 10
-0.4687750000000002
 20
3.348787
 10
-0.4656380000000002
 20
3.333787
 10
-0.455347
 20
3.322433999999998
 10
-0.4411770000000001
 20
3.31783
 10
-0.4261770000000002
 20
3.320965
 10
-0.414824
 20
3.331256999999999
 10
-0.4102210000000002
 20
3.345428
  0
LWPOLYLINE
  5
2B0
330
1F
100
AcDbEntity
  8
LAYER_1
  6
Continuous
 62
     2
100
AcDbPolyline
 90
       12
 70
     1
 43
0.003
 10
-0.680894
 20
3.298873999999998
 10
-0.6911850000000001
 20
3.310226999999998
 10
-0.7053550000000001
 20
3.314830999999998
 10
-0.7203540000000001
 20
3.311692999999998
 10
-0.7317070000000001
 20
3.301401999999998
 10
-0.7363109999999999
 20
3.287231999999998
 10
-0.733173
 20
3.272231999999998
 10
-0.7228820000000002
 20
3.260879
 10
-0.7087120000000002
 20
3.256275
 10
-0.693713
 20
3.259409
 10
-0.6823590000000001
 20
3.269702
 10
-0.6777560000000002
 20
3.283873
  0
LWPOLYLINE
  5
2B1
330
1F
100
AcDbEntity
  8
LAYER_1
  6
Continuous
 62
     2
100
AcDbPolyline
 90
       12
 70
     1
 43
0.003
 10
-0.153465
 20
2.867983999999998
 10
-0.163755
 20
2.879336999999998
 10
-0.177926
 20
2.883941
 10
-0.192925
 20
2.880802999999998
 10
-0.204278
 20
2.870511999999998
 10
-0.208882
 20
2.856341999999998
 10
-0.205744
 20
2.841343
 10
-0.195453
 20
2.829988999999999
 10
-0.181283
 20
2.825384999999998
 10
-0.166283
 20
2.82852
 10
-0.15493
 20
2.838811999999999
 10
-0.150327
 20
2.852983
  0
LWPOLYLINE
  5
2B2
330
1F
100
AcDbEntity
  8
LAYER_1
  6
Continuous
 62
     2
100
AcDbPolyline
 90
       12
 70
     1
 43
0.003
 10
-0.206972
 20
2.664079
 10
-0.217263
 20
2.675431999999998
 10
-0.231434
 20
2.680034999999999
 10
-0.246433
 20
2.676897999999999
 10
-0.257786
 20
2.666606999999999
 10
-0.26239
 20
2.652436999999999
 10
-0.259252
 20
2.637436999999998
 10
-0.248961
 20
2.626084
 10
-0.234791
 20
2.621478999999999
 10
-0.219791
 20
2.624613999999998
 10
-0.208438
 20
2.634907
 10
-0.203835
 20
2.649077
  0
LWPOLYLINE
  5
2B3
330
1F
100
AcDbEntity
  8
LAYER_1
  6
Continuous
 62
     2
100
AcDbPolyline
 90
       12
 70
     1
 43
0.003
 10
-0.191685
 20
3.029566999999998
 10
-0.201976
 20
3.04092
 10
-0.216146
 20
3.045522999999998
 10
-0.231146
 20
3.042386
 10
-0.242499
 20
3.032094999999998
 10
-0.247102
 20
3.017924999999998
 10
-0.243965
 20
3.002924999999998
 10
-0.233674
 20
2.991572
 10
-0.219503
 20
2.986966999999998
 10
-0.204504
 20
2.990102
 10
-0.193151
 20
3.000395
 10
-0.188547
 20
3.014565
  0
LWPOLYLINE
  5
2B4
330
1F
100
AcDbEntity
  8
LAYER_1
  6
Continuous
 62
     2
100
AcDbPolyline
 90
       12
 70
     1
 43
0.003
 10
-0.4171770000000001
 20
3.191154
 10
-0.427468
 20
3.202506999999998
 10
-0.4416380000000001
 20
3.207109999999998
 10
-0.456638
 20
3.203972
 10
-0.467991
 20
3.193681999999999
 10
-0.472594
 20
3.179511
 10
-0.469457
 20
3.164511999999998
 10
-0.459166
 20
3.153159
 10
-0.444996
 20
3.148554
 10
-0.429996
 20
3.151688999999998
 10
-0.4186430000000002
 20
3.161982
 10
-0.41404
 20
3.176152
  0
LWPOLYLINE
  5
2B5
330
1F
100
AcDbEntity
  8
LAYER_1
  6
Continuous
 62
     2
100
AcDbPolyline
 90
       12
 70
     1
 43
0.003
 10
-0.505087
 20
2.625606
 10
-0.5153780000000002
 20
2.636959
 10
-0.529548
 20
2.641563
 10
-0.5445470000000002
 20
2.638424999999998
 10
-0.5559
 20
2.628134
 10
-0.560504
 20
2.613963999999999
 10
-0.5573660000000002
 20
2.598965
 10
-0.547075
 20
2.587610999999998
 10
-0.5329050000000001
 20
2.583006999999998
 10
-0.5179060000000001
 20
2.586141999999999
 10
-0.5065520000000002
 20
2.596435
 10
-0.501949
 20
2.610605
  0
LWPOLYLINE
  5
2B6
330
1F
100
AcDbEntity
  8
LAYER_1
  6
Continuous
 62
     2
100
AcDbPolyline
 90
       12
 70
     1
 43
0.003
 10
-0.73822
 20
3.141138
 10
-0.7485109999999999
 20
3.152490999999998
 10
-0.762682
 20
3.157093999999998
 10
-0.7776810000000001
 20
3.153957
 10
-0.7890340000000001
 20
3.143666
 10
-0.7936380000000001
 20
3.129496
 10
-0.7905
 20
3.114495999999998
 10
-0.7802090000000002
 20
3.103143
 10
-0.7660390000000002
 20
3.098538
 10
-0.7510390000000001
 20
3.101672999999999
 10
-0.739686
 20
3.111965999999998
 10
-0.7350830000000002
 20
3.126136
  0
LWPOLYLINE
  5
2B7
330
1F
100
AcDbEntity
  8
LAYER_1
  6
Continuous
 62
     2
100
AcDbPolyline
 90
       12
 70
     1
 43
0.003
 10
-0.558591
 20
3.121901999999998
 10
-0.5688810000000001
 20
3.133255
 10
-0.583052
 20
3.137858
 10
-0.598051
 20
3.13472
 10
-0.609404
 20
3.124429999999998
 10
-0.6140080000000001
 20
3.110259
 10
-0.6108700000000002
 20
3.095259999999998
 10
-0.600579
 20
3.083906999999998
 10
-0.5864090000000001
 20
3.079302
 10
-0.5714090000000001
 20
3.082437
 10
-0.560056
 20
3.092729999999998
 10
-0.555453
 20
3.106899999999998
  0
LWPOLYLINE
  5
2B8
330
1F
100
AcDbEntity
  8
LAYER_1
  6
Continuous
 62
    30
100
AcDbPolyline
 90
        2
 70
     0
 43
0.019685
 10
-0.258362
 20
3.21324
 10
-0.714228
 20
3.166063
  0
LWPOLYLINE
  5
2B9
330
1F
100
AcDbEntity
  8
LAYER_1
  6
Continuous
 62
    30
100
AcDbPolyline
 90
        2
 70
     0
 43
0.019685
 10
-0.130547
 20
2.955916999999999
 10
-0.714228
 20
2.865858
  0
LWPOLYLINE
  5
2BA
330
1F
100
AcDbEntity
  8
LAYER_1
  6
Continuous
 62
    30
100
AcDbPolyline
 90
        2
 70
     0
 43
0.019685
 10
-0.070902
 20
2.840125999999998
 10
-0.718488
 20
2.728617999999998
  0
LWPOLYLINE
  5
2BB
330
1F
100
AcDbEntity
  8
LAYER_1
  6
Continuous
 62
    30
100
AcDbPolyline
 90
        2
 70
     0
 43
0.019685
 10
-0.032555
 20
2.775795
 10
-0.6716220000000001
 20
2.664286999999998
  0
LWPOLYLINE
  5
2BC
330
1F
100
AcDbEntity
  8
LAYER_1
  6
Continuous
 62
    30
100
AcDbPolyline
 90
        2
 70
     0
 43
0.019685
 10
0.001528
 20
2.685731999999998
 10
-0.6503230000000002
 20
2.612823
  0
LWPOLYLINE
  5
2BD
330
1F
100
AcDbEntity
  8
LAYER_1
  6
Continuous
 62
     7
100
AcDbPolyline
 90
        5
 70
     1
 43
0.01185
 10
-0.9687989999999999
 20
3.224858
 10
-0.5759170000000001
 20
3.424319
 10
-0.388016
 20
3.458708999999998
 10
0.011697
 20
2.695251999999998
 10
-0.534921
 20
2.392622
  0
LWPOLYLINE
  5
2BE
330
1F
100
AcDbEntity
  8
LAYER_1
  6
Continuous
 62
     5
100
AcDbPolyline
 90
        2
 70
     0
 43
0.019685
 10
-2.767079
 20
3.320184999999998
 10
-2.618024
 20
3.239393999999998
  0
LWPOLYLINE
  5
2BF
330
1F
100
AcDbEntity
  8
LAYER_1
  6
Continuous
 62
     2
100
AcDbPolyline
 90
       12
 70
     1
 43
0.003
 10
-2.328145999999998
 20
2.929534999999998
 10
-2.338436999999998
 20
2.940888999999998
 10
-2.352606999999999
 20
2.945491999999998
 10
-2.367606
 20
2.942353999999999
 10
-2.378959
 20
2.932063
 10
-2.383563
 20
2.917892999999999
 10
-2.380424999999998
 20
2.902893999999998
 10
-2.370134
 20
2.891539999999998
 10
-2.355963999999999
 20
2.886936
 10
-2.340965
 20
2.890070999999998
 10
-2.329610999999998
 20
2.900363999999998
 10
-2.325007999999999
 20
2.914534
  0
LWPOLYLINE
  5
2C0
330
1F
100
AcDbEntity
  8
LAYER_1
  6
Continuous
 62
     2
100
AcDbPolyline
 90
       12
 70
     1
 43
0.003
 10
-2.289928999999998
 20
1.540672999999999
 10
-2.300219999999999
 20
1.552026
 10
-2.314389999999999
 20
1.55663
 10
-2.32939
 20
1.553492
 10
-2.340743
 20
1.543201
 10
-2.345345999999999
 20
1.529030999999999
 10
-2.342208999999999
 20
1.514030999999999
 10
-2.331917999999999
 20
1.502677999999999
 10
-2.317747999999999
 20
1.498073999999999
 10
-2.302747999999998
 20
1.501209
 10
-2.291395
 20
1.511500999999999
 10
-2.286791
 20
1.525671999999999
  0
LWPOLYLINE
  5
2C1
330
1F
100
AcDbEntity
  8
LAYER_1
  6
Continuous
 62
     2
100
AcDbPolyline
 90
       12
 70
     1
 43
0.003
 10
-2.278461
 20
1.475271999999999
 10
-2.288752
 20
1.486625
 10
-2.302922
 20
1.491227999999999
 10
-2.317921
 20
1.488091
 10
-2.329274
 20
1.4778
 10
-2.333877999999999
 20
1.463629
 10
-2.33074
 20
1.448629999999999
 10
-2.320448999999999
 20
1.437277
 10
-2.306278999999999
 20
1.432671999999999
 10
-2.291279999999999
 20
1.435807
 10
-2.279925999999999
 20
1.446099999999999
 10
-2.275322999999999
 20
1.46027
  0
LWPOLYLINE
  5
2C2
330
1F
100
AcDbEntity
  8
LAYER_1
  6
Continuous
 62
     2
100
AcDbPolyline
 90
       12
 70
     1
 43
0.003
 10
-2.347256
 20
1.836913
 10
-2.357547
 20
1.848266999999999
 10
-2.371716999999998
 20
1.85287
 10
-2.386716999999999
 20
1.849731999999999
 10
-2.39807
 20
1.839440999999999
 10
-2.402673
 20
1.825270999999999
 10
-2.399534999999999
 20
1.810272
 10
-2.389245
 20
1.798918
 10
-2.375074
 20
1.794313999999999
 10
-2.360075
 20
1.797449
 10
-2.348721999999999
 20
1.807741999999999
 10
-2.344117999999999
 20
1.821912
  0
LWPOLYLINE
  5
2C3
330
1F
100
AcDbEntity
  8
LAYER_1
  6
Continuous
 62
     2
100
AcDbPolyline
 90
       12
 70
     1
 43
0.003
 10
-1.418528
 20
1.502201
 10
-1.428817999999998
 20
1.513554
 10
-1.442988999999999
 20
1.518156999999999
 10
-1.457987999999999
 20
1.515019999999999
 10
-1.469341
 20
1.504729
 10
-1.473945
 20
1.490559
 10
-1.470806999999999
 20
1.475559
 10
-1.460515999999999
 20
1.464205999999999
 10
-1.446345999999999
 20
1.459600999999999
 10
-1.431346
 20
1.462736
 10
-1.419993
 20
1.473029
 10
-1.415389999999999
 20
1.487198999999999
  0
LWPOLYLINE
  5
2C4
330
1F
100
AcDbEntity
  8
LAYER_1
  6
Continuous
 62
     2
100
AcDbPolyline
 90
       12
 70
     1
 43
0.003
 10
-1.376487999999999
 20
1.536826999999999
 10
-1.386778999999999
 20
1.548179999999999
 10
-1.400948999999999
 20
1.552782999999999
 10
-1.415948999999999
 20
1.549645999999999
 10
-1.427302
 20
1.539355
 10
-1.431904999999999
 20
1.525185
 10
-1.428767999999999
 20
1.510185
 10
-1.418477
 20
1.498831999999999
 10
-1.404307
 20
1.494226999999999
 10
-1.389307
 20
1.497362
 10
-1.377954
 20
1.507654999999999
 10
-1.373350999999999
 20
1.521824999999999
  0
LWPOLYLINE
  5
2C5
330
1F
100
AcDbEntity
  8
LAYER_1
  6
Continuous
 62
     2
100
AcDbPolyline
 90
       12
 70
     1
 43
0.003
 10
-1.089843
 20
1.202113999999999
 10
-1.100133
 20
1.213467
 10
-1.114304
 20
1.218070999999999
 10
-1.129303
 20
1.214933
 10
-1.140655999999999
 20
1.204641999999998
 10
-1.145259999999999
 20
1.190471999999998
 10
-1.142121999999998
 20
1.175471999999998
 10
-1.131831
 20
1.164119
 10
-1.117661
 20
1.159515
 10
-1.102661
 20
1.162649999999998
 10
-1.091307999999999
 20
1.172941999999999
 10
-1.086705
 20
1.187112999999998
  0
LWPOLYLINE
  5
2C6
330
1F
100
AcDbEntity
  8
LAYER_1
  6
Continuous
 62
     2
100
AcDbPolyline
 90
       12
 70
     1
 43
0.003
 10
-1.942129999999998
 20
1.783054999999999
 10
-1.952421
 20
1.794408
 10
-1.966591
 20
1.799011999999999
 10
-1.981590999999999
 20
1.795874
 10
-1.992943999999999
 20
1.785583
 10
-1.997547
 20
1.771413
 10
-1.994409
 20
1.756413
 10
-1.984118999999999
 20
1.745059999999999
 10
-1.969948
 20
1.740456
 10
-1.954949
 20
1.743590999999999
 10
-1.943595999999999
 20
1.753883
 10
-1.938991999999999
 20
1.768054
  0
LWPOLYLINE
  5
2C7
330
1F
100
AcDbEntity
  8
LAYER_1
  6
Continuous
 62
     2
100
AcDbPolyline
 90
       12
 70
     1
 43
0.003
 10
-1.850406
 20
1.594538999999999
 10
-1.860695999999999
 20
1.605893
 10
-1.874866999999999
 20
1.610495999999999
 10
-1.889865999999999
 20
1.607358
 10
-1.901218999999999
 20
1.597067
 10
-1.905823
 20
1.582896999999999
 10
-1.902684999999999
 20
1.567898
 10
-1.892393999999999
 20
1.556544
 10
-1.878224
 20
1.551939999999999
 10
-1.863224
 20
1.555074999999999
 10
-1.851870999999999
 20
1.565368
 10
-1.847268
 20
1.579537999999998
  0
LWPOLYLINE
  5
2C8
330
1F
100
AcDbEntity
  8
LAYER_1
  6
Continuous
 62
     2
100
AcDbPolyline
 90
       12
 70
     1
 43
0.003
 10
-2.515420999999999
 20
1.913858
 10
-2.525711999999999
 20
1.925211
 10
-2.539881999999999
 20
1.929814999999999
 10
-2.554882
 20
1.926676999999999
 10
-2.566234999999998
 20
1.916386
 10
-2.570838
 20
1.902215999999999
 10
-2.567701
 20
1.887216999999998
 10
-2.557409999999999
 20
1.875863
 10
-2.543239999999999
 20
1.871259
 10
-2.52824
 20
1.874393999999998
 10
-2.516887
 20
1.884686
 10
-2.512284
 20
1.898856999999999
  0
LWPOLYLINE
  5
2C9
330
1F
100
AcDbEntity
  8
LAYER_1
  6
Continuous
 62
     2
100
AcDbPolyline
 90
       12
 70
     1
 43
0.003
 10
-1.28476
 20
1.344465
 10
-1.295050999999999
 20
1.355817999999999
 10
-1.309220999999998
 20
1.360420999999999
 10
-1.32422
 20
1.357283
 10
-1.335574
 20
1.346993
 10
-1.340176999999999
 20
1.332821999999999
 10
-1.337038999999998
 20
1.317822999999998
 10
-1.326748
 20
1.30647
 10
-1.312578
 20
1.301865
 10
-1.297579
 20
1.304999999999999
 10
-1.286226
 20
1.315293
 10
-1.281622
 20
1.329462999999998
  0
LWPOLYLINE
  5
2CA
330
1F
100
AcDbEntity
  8
LAYER_1
  6
Continuous
 62
     2
100
AcDbPolyline
 90
       12
 70
     1
 43
0.003
 10
-1.311515999999999
 20
1.282909
 10
-1.321806999999999
 20
1.294262999999999
 10
-1.335976999999998
 20
1.298866
 10
-1.350975999999999
 20
1.295727999999998
 10
-1.362329999999999
 20
1.285437
 10
-1.366932999999999
 20
1.271266999999999
 10
-1.363795
 20
1.256267999999999
 10
-1.353504
 20
1.244913999999998
 10
-1.339334
 20
1.24031
 10
-1.324335
 20
1.243445
 10
-1.312980999999999
 20
1.253738
 10
-1.308378
 20
1.267908
  0
LWPOLYLINE
  5
2CB
330
1F
100
AcDbEntity
  8
LAYER_1
  6
Continuous
 62
     2
100
AcDbPolyline
 90
       12
 70
     1
 43
0.003
 10
-1.219791
 20
1.432953
 10
-1.230081999999999
 20
1.444305999999999
 10
-1.244252
 20
1.448909
 10
-1.259252
 20
1.445771999999999
 10
-1.270604999999998
 20
1.435481
 10
-1.275209
 20
1.421311
 10
-1.272070999999999
 20
1.406311
 10
-1.261779999999999
 20
1.394957999999999
 10
-1.24761
 20
1.390353
 10
-1.232609999999998
 20
1.393487999999999
 10
-1.221257
 20
1.403780999999999
 10
-1.216654
 20
1.417950999999999
  0
LWPOLYLINE
  5
2CC
330
1F
100
AcDbEntity
  8
LAYER_1
  6
Continuous
 62
     2
100
AcDbPolyline
 90
       12
 70
     1
 43
0.003
 10
-1.548475999999999
 20
1.121322999999998
 10
-1.558767
 20
1.132676
 10
-1.572937
 20
1.137279
 10
-1.587937
 20
1.134141999999998
 10
-1.599289999999999
 20
1.123850999999999
 10
-1.603894
 20
1.109680999999999
 10
-1.600755999999999
 20
1.094681
 10
-1.590465
 20
1.083328
 10
-1.576295
 20
1.078722999999998
 10
-1.561295
 20
1.081857999999998
 10
-1.549941999999998
 20
1.092151
 10
-1.545339
 20
1.106320999999998
  0
LWPOLYLINE
  5
2CD
330
1F
100
AcDbEntity
  8
LAYER_1
  6
Continuous
 62
     2
100
AcDbPolyline
 90
       12
 70
     1
 43
0.003
 10
-1.609626
 20
1.221349999999999
 10
-1.619917
 20
1.232704
 10
-1.634087
 20
1.237306999999999
 10
-1.649086999999999
 20
1.234169
 10
-1.66044
 20
1.223878
 10
-1.665043
 20
1.209708
 10
-1.661906
 20
1.194709
 10
-1.651615
 20
1.183354999999999
 10
-1.637444
 20
1.178751
 10
-1.622445
 20
1.181885999999998
 10
-1.611092
 20
1.192179
 10
-1.606487999999998
 20
1.206348999999999
  0
LWPOLYLINE
  5
2CE
330
1F
100
AcDbEntity
  8
LAYER_1
  6
Continuous
 62
     2
100
AcDbPolyline
 90
       12
 70
     1
 43
0.003
 10
-0.9790079999999999
 20
0.9597399999999998
 10
-0.9892990000000001
 20
0.9710929999999999
 10
-1.003468999999999
 20
0.975697
 10
-1.018469
 20
0.972559
 10
-1.029822
 20
0.962268
 10
-1.034424999999999
 20
0.948098
 10
-1.031287
 20
0.933098
 10
-1.020996999999999
 20
0.9217449999999999
 10
-1.006825999999998
 20
0.9171409999999999
 10
-0.9918269999999999
 20
0.9202759999999999
 10
-0.9804739999999998
 20
0.930568
 10
-0.9758700000000001
 20
0.944739
  0
LWPOLYLINE
  5
2CF
330
1F
100
AcDbEntity
  8
LAYER_1
  6
Continuous
 62
     2
100
AcDbPolyline
 90
       12
 70
     1
 43
0.003
 10
-1.043979999999999
 20
0.8597129999999999
 10
-1.054270999999998
 20
0.871066
 10
-1.068440999999998
 20
0.875669
 10
-1.083440999999998
 20
0.872531
 10
-1.094794
 20
0.862241
 10
-1.099396999999998
 20
0.84807
 10
-1.09626
 20
0.8330709999999999
 10
-1.085968999999998
 20
0.821718
 10
-1.071798999999999
 20
0.8171129999999998
 10
-1.056799
 20
0.8202479999999997
 10
-1.045445999999998
 20
0.830541
 10
-1.040842999999998
 20
0.844711
  0
LWPOLYLINE
  5
2D0
330
1F
100
AcDbEntity
  8
LAYER_1
  6
Continuous
 62
     2
100
AcDbPolyline
 90
       12
 70
     1
 43
0.003
 10
-1.204499999999999
 20
0.690429
 10
-1.214790999999999
 20
0.7017820000000002
 10
-1.228960999999998
 20
0.706386
 10
-1.243961
 20
0.703248
 10
-1.255314
 20
0.692957
 10
-1.259916999999999
 20
0.678787
 10
-1.25678
 20
0.6637870000000002
 10
-1.246488999999998
 20
0.6524340000000001
 10
-1.232318
 20
0.64783
 10
-1.217319
 20
0.6509650000000002
 10
-1.205966
 20
0.661257
 10
-1.201362
 20
0.6754280000000002
  0
LWPOLYLINE
  5
2D1
330
1F
100
AcDbEntity
  8
LAYER_1
  6
Continuous
 62
     2
100
AcDbPolyline
 90
       12
 70
     1
 43
0.003
 10
-1.380311
 20
0.9905159999999998
 10
-1.390602
 20
1.001869
 10
-1.404771999999999
 20
1.006472
 10
-1.419772
 20
1.003335
 10
-1.431124999999999
 20
0.993044
 10
-1.435728
 20
0.978874
 10
-1.432590999999999
 20
0.963874
 10
-1.422299999999999
 20
0.9525209999999999
 10
-1.408129
 20
0.947916
 10
-1.393129999999999
 20
0.951051
 10
-1.381777
 20
0.961344
 10
-1.377172999999999
 20
0.975514
  0
LWPOLYLINE
  5
2D2
330
1F
100
AcDbEntity
  8
LAYER_1
  6
Continuous
 62
     2
100
AcDbPolyline
 90
       12
 70
     1
 43
0.003
 10
-1.043976
 20
1.317535
 10
-1.054267
 20
1.328888999999998
 10
-1.068437
 20
1.333491999999999
 10
-1.083436999999998
 20
1.330354
 10
-1.094789999999999
 20
1.320062999999998
 10
-1.099393999999998
 20
1.305892999999998
 10
-1.096255999999999
 20
1.290893999999998
 10
-1.085965
 20
1.279539999999999
 10
-1.071795
 20
1.274936
 10
-1.056795
 20
1.278070999999998
 10
-1.045441999999998
 20
1.288363999999998
 10
-1.040838999999998
 20
1.302534
  0
LWPOLYLINE
  5
2D3
330
1F
100
AcDbEntity
  8
LAYER_1
  6
Continuous
 62
     2
100
AcDbPolyline
 90
       12
 70
     1
 43
0.003
 10
-0.8643499999999999
 20
0.9558939999999999
 10
-0.874641
 20
0.967247
 10
-0.8888110000000001
 20
0.97185
 10
-0.9038109999999999
 20
0.9687129999999999
 10
-0.915164
 20
0.9584219999999998
 10
-0.919768
 20
0.944252
 10
-0.9166299999999999
 20
0.9292519999999999
 10
-0.9063389999999998
 20
0.917899
 10
-0.8921690000000001
 20
0.9132940000000001
 10
-0.8771690000000001
 20
0.9164290000000001
 10
-0.865816
 20
0.926722
 10
-0.8612129999999996
 20
0.940892
  0
LWPOLYLINE
  5
2D4
330
1F
100
AcDbEntity
  8
LAYER_1
  6
Continuous
 62
     2
100
AcDbPolyline
 90
       12
 70
     1
 43
0.003
 10
-1.047803
 20
0.736598
 10
-1.058094
 20
0.7479520000000001
 10
-1.072263999999998
 20
0.752555
 10
-1.087264
 20
0.7494170000000002
 10
-1.098616999999999
 20
0.7391260000000001
 10
-1.10322
 20
0.7249560000000001
 10
-1.100082999999999
 20
0.709957
 10
-1.089792
 20
0.698603
 10
-1.075621999999998
 20
0.693999
 10
-1.060621999999999
 20
0.6971340000000002
 10
-1.049269
 20
0.7074270000000002
 10
-1.044666
 20
0.7215970000000002
  0
LWPOLYLINE
  5
2D5
330
1F
100
AcDbEntity
  8
LAYER_1
  6
Continuous
 62
     2
100
AcDbPolyline
 90
       12
 70
     1
 43
0.003
 10
-1.040161
 20
0.7866100000000002
 10
-1.050451999999999
 20
0.7979630000000001
 10
-1.064621999999998
 20
0.8025669999999999
 10
-1.079621999999998
 20
0.799429
 10
-1.090975
 20
0.789138
 10
-1.095579
 20
0.774968
 10
-1.092440999999998
 20
0.759969
 10
-1.082149999999999
 20
0.748615
 10
-1.067979999999999
 20
0.744011
 10
-1.05298
 20
0.747146
 10
-1.041627
 20
0.7574380000000001
 10
-1.037023999999999
 20
0.771609
  0
LWPOLYLINE
  5
2D6
330
1F
100
AcDbEntity
  8
LAYER_1
  6
Continuous
 62
     2
100
AcDbPolyline
 90
       12
 70
     1
 43
0.003
 10
-0.9790079999999999
 20
1.205964999999999
 10
-0.9892990000000001
 20
1.217318
 10
-1.003468999999999
 20
1.221920999999998
 10
-1.018469
 20
1.218782999999999
 10
-1.029822
 20
1.208493
 10
-1.034424999999999
 20
1.194321999999998
 10
-1.031287
 20
1.179322999999999
 10
-1.020996999999999
 20
1.16797
 10
-1.006825999999998
 20
1.163364999999998
 10
-0.9918269999999999
 20
1.1665
 10
-0.9804739999999998
 20
1.176792999999998
 10
-0.9758700000000001
 20
1.190962999999998
  0
LWPOLYLINE
  5
2D7
330
1F
100
AcDbEntity
  8
LAYER_1
  6
Continuous
 62
     2
100
AcDbPolyline
 90
       12
 70
     1
 43
0.003
 10
-1.227437
 20
1.602223999999999
 10
-1.237728
 20
1.613577999999999
 10
-1.251897999999999
 20
1.618180999999999
 10
-1.266897999999998
 20
1.615043
 10
-1.278251
 20
1.604751999999999
 10
-1.282854
 20
1.590581999999999
 10
-1.279716999999998
 20
1.575582999999999
 10
-1.269425999999999
 20
1.564229
 10
-1.255255
 20
1.559625
 10
-1.240256
 20
1.562759999999999
 10
-1.228903
 20
1.573052999999999
 10
-1.224299
 20
1.587223
  0
LWPOLYLINE
  5
2D8
330
1F
100
AcDbEntity
  8
LAYER_1
  6
Continuous
 62
     2
100
AcDbPolyline
 90
       12
 70
     1
 43
0.003
 10
-0.157291
 20
2.121606
 10
-0.167582
 20
2.132959
 10
-0.181752
 20
2.137563
 10
-0.196752
 20
2.134424999999998
 10
-0.208105
 20
2.124134
 10
-0.212709
 20
2.109963999999999
 10
-0.209571
 20
2.094965
 10
-0.19928
 20
2.083610999999998
 10
-0.18511
 20
2.079006999999998
 10
-0.17011
 20
2.082141999999999
 10
-0.158757
 20
2.092435
 10
-0.154154
 20
2.106605
  0
LWPOLYLINE
  5
2D9
330
1F
100
AcDbEntity
  8
LAYER_1
  6
Continuous
 62
     2
100
AcDbPolyline
 90
       12
 70
     1
 43
0.003
 10
-1.384129999999999
 20
1.548365999999998
 10
-1.394420999999999
 20
1.559719
 10
-1.408590999999999
 20
1.564322999999999
 10
-1.423591
 20
1.561185
 10
-1.434943999999999
 20
1.550893999999999
 10
-1.439546999999999
 20
1.536723999999999
 10
-1.436409
 20
1.521724
 10
-1.426119
 20
1.510370999999999
 10
-1.411947999999999
 20
1.505767
 10
-1.396949
 20
1.508901999999999
 10
-1.385595999999999
 20
1.519194
 10
-1.380991999999999
 20
1.533364999999999
  0
LWPOLYLINE
  5
2DA
330
1F
100
AcDbEntity
  8
LAYER_1
  6
Continuous
 62
    30
100
AcDbPolyline
 90
        3
 70
     0
 43
0.019685
 10
-1.447024
 20
1.467748
 10
-1.472587
 20
1.416282999999999
 10
-1.596137999999999
 20
1.287622
  0
LWPOLYLINE
  5
2DB
330
1F
100
AcDbEntity
  8
LAYER_1
  6
Continuous
 62
    30
100
AcDbPolyline
 90
        2
 70
     0
 43
0.019685
 10
-1.174354
 20
1.570673
 10
-1.319209
 20
1.446303
  0
LWPOLYLINE
  5
2DC
330
1F
100
AcDbEntity
  8
LAYER_1
  6
Continuous
 62
    30
100
AcDbPolyline
 90
        3
 70
     0
 43
0.019685
 10
-1.059323
 20
1.309066999999998
 10
-1.187138
 20
1.154673
 10
-1.182878
 20
1.154673
  0
LWPOLYLINE
  5
2DD
330
1F
100
AcDbEntity
  8
LAYER_1
  6
Continuous
 62
     7
100
AcDbPolyline
 90
        4
 70
     1
 43
0.01185
 10
-1.775692999999999
 20
1.370999999999999
 10
-1.228393999999998
 20
1.668331
 10
-0.7810000000000002
 20
0.8375629999999999
 10
-1.328295
 20
0.540236
  0
LWPOLYLINE
  5
2DE
330
1F
100
AcDbEntity
  8
LAYER_1
  6
Continuous
 62
     2
100
AcDbPolyline
 90
       12
 70
     1
 43
0.003
 10
-1.227432999999998
 20
1.559905999999999
 10
-1.237724
 20
1.571258999999999
 10
-1.251894
 20
1.575862
 10
-1.266893999999998
 20
1.572724
 10
-1.278246999999999
 20
1.562434
 10
-1.28285
 20
1.548262999999999
 10
-1.279712999999998
 20
1.533263999999999
 10
-1.269421999999998
 20
1.52191
 10
-1.255252
 20
1.517306
 10
-1.240252
 20
1.520440999999999
 10
-1.228898999999998
 20
1.530733999999999
 10
-1.224295
 20
1.544904
  0
LWPOLYLINE
  5
2DF
330
1F
100
AcDbEntity
  8
LAYER_1
  6
Continuous
 62
     2
100
AcDbPolyline
 90
       12
 70
     1
 43
0.003
 10
-0.4936220000000002
 20
2.029272
 10
-0.503913
 20
2.040624999999999
 10
-0.518083
 20
2.045227999999998
 10
-0.533083
 20
2.042091
 10
-0.544436
 20
2.0318
 10
-0.5490390000000001
 20
2.017628999999999
 10
-0.545902
 20
2.002629999999999
 10
-0.535611
 20
1.991277
 10
-0.5214409999999999
 20
1.986672
 10
-0.5064410000000002
 20
1.989806999999999
 10
-0.4950880000000001
 20
2.0001
 10
-0.490484
 20
2.01427
  0
LWPOLYLINE
  5
2E0
330
1F
100
AcDbEntity
  8
LAYER_1
  6
Continuous
 62
     2
100
AcDbPolyline
 90
       12
 70
     1
 43
0.003
 10
-0.157291
 20
2.121606
 10
-0.167582
 20
2.132959
 10
-0.181752
 20
2.137563
 10
-0.196752
 20
2.134424999999998
 10
-0.208105
 20
2.124134
 10
-0.212709
 20
2.109963999999999
 10
-0.209571
 20
2.094965
 10
-0.19928
 20
2.083610999999998
 10
-0.18511
 20
2.079006999999998
 10
-0.17011
 20
2.082141999999999
 10
-0.158757
 20
2.092435
 10
-0.154154
 20
2.106605
  0
LWPOLYLINE
  5
2E1
330
1F
100
AcDbEntity
  8
LAYER_1
  6
Continuous
 62
     2
100
AcDbPolyline
 90
       12
 70
     1
 43
0.003
 10
-0.126717
 20
1.65224
 10
-0.137007
 20
1.663593
 10
-0.151178
 20
1.668197
 10
-0.166177
 20
1.665059
 10
-0.17753
 20
1.654767999999999
 10
-0.182134
 20
1.640597999999999
 10
-0.178996
 20
1.625597999999999
 10
-0.168705
 20
1.614245
 10
-0.154535
 20
1.609640999999999
 10
-0.139535
 20
1.612776
 10
-0.128182
 20
1.623067999999999
 10
-0.123579
 20
1.637238999999999
  0
LWPOLYLINE
  5
2E2
330
1F
100
AcDbEntity
  8
LAYER_1
  6
Continuous
 62
     2
100
AcDbPolyline
 90
       12
 70
     1
 43
0.003
 10
0.049094
 20
1.744570999999999
 10
0.038804
 20
1.755924
 10
0.024633
 20
1.760526999999999
 10
0.009634
 20
1.75739
 10
-0.001719
 20
1.747099
 10
-0.006323
 20
1.732929
 10
-0.003185
 20
1.717928999999999
 10
0.007106
 20
1.706575999999999
 10
0.021276
 20
1.701970999999999
 10
0.036276
 20
1.705106
 10
0.047629
 20
1.715399
 10
0.052232
 20
1.729568999999998
  0
LWPOLYLINE
  5
2E3
330
1F
100
AcDbEntity
  8
LAYER_1
  6
Continuous
 62
     2
100
AcDbPolyline
 90
        2
 70
     0
 43
0.019685
 10
-0.7338110000000002
 20
2.254496
 10
-0.462453
 20
2.250645999999999
  0
LWPOLYLINE
  5
2E4
330
1F
100
AcDbEntity
  8
LAYER_1
  6
Continuous
 62
    30
100
AcDbPolyline
 90
        3
 70
     0
 43
0.019685
 10
-0.394693
 20
2.119625999999998
 10
-0.488425
 20
1.999543
 10
-0.610295
 20
1.879858
  0
LWPOLYLINE
  5
2E5
330
1F
100
AcDbEntity
  8
LAYER_1
  6
Continuous
 62
     7
100
AcDbPolyline
 90
        8
 70
     1
 43
0.01185
 10
-0.787732
 20
2.213795
 10
-0.736484
 20
2.261941
 10
-0.633996
 20
2.265381999999998
 10
-0.4768430000000001
 20
2.282575
 10
-0.377768
 20
2.107184999999998
 10
-0.121543
 20
2.248184999999998
 10
0.168846
 20
1.694508
 10
-0.360685
 20
1.409070999999999
  0
LWPOLYLINE
  5
2E6
330
1F
100
AcDbEntity
  8
LAYER_1
  6
Continuous
 62
     5
100
AcDbPolyline
 90
        2
 70
     0
 43
0.019685
 10
1.505838999999999
 20
1.904393999999999
 10
1.276523999999998
 20
1.563129999999999
  0
LWPOLYLINE
  5
2E7
330
1F
100
AcDbEntity
  8
LAYER_1
  6
Continuous
 62
     2
100
AcDbPolyline
 90
        2
 70
     0
 43
0.019685
 10
0.622976
 20
0.226988
 10
0.726165
 20
0.203906
  0
LWPOLYLINE
  5
2E8
330
1F
100
AcDbEntity
  8
LAYER_1
  6
Continuous
 62
    30
100
AcDbPolyline
 90
        2
 70
     0
 43
0.019685
 10
1.016634
 20
0.5116850000000001
 10
0.8714019999999999
 20
0.28085
  0
LWPOLYLINE
  5
2E9
330
1F
100
AcDbEntity
  8
LAYER_1
  6
Continuous
 62
    30
100
AcDbPolyline
 90
        2
 70
     0
 43
0.019685
 10
1.12365
 20
0.5347720000000002
 10
0.9975239999999999
 20
0.353949
  0
LWPOLYLINE
  5
2EA
330
1F
100
AcDbEntity
  8
LAYER_1
  6
Continuous
 62
     7
100
AcDbPolyline
 90
        4
 70
     1
 43
0.01185
 10
0.6524090000000001
 20
0.159831
 10
0.213701
 20
0.994969
 10
0.7610000000000002
 20
1.287924999999998
 10
1.212739999999999
 20
0.452787
  0
LWPOLYLINE
  5
2EB
330
1F
100
AcDbEntity
  8
LAYER_1
  6
Continuous
 62
     2
100
AcDbPolyline
 90
       12
 70
     1
 43
0.003
 10
1.035979999999999
 20
1.767979999999998
 10
1.025688999999998
 20
1.779333
 10
1.011519
 20
1.783936999999998
 10
0.9965199999999999
 20
1.780799
 10
0.985167
 20
1.770508
 10
0.9805629999999998
 20
1.756338
 10
0.9837010000000001
 20
1.741338999999999
 10
0.993992
 20
1.729984999999999
 10
1.008162
 20
1.725381
 10
1.023160999999998
 20
1.728515999999999
 10
1.034515
 20
1.738809
 10
1.039117999999998
 20
1.752979
  0
LWPOLYLINE
  5
2EC
330
1F
100
AcDbEntity
  8
LAYER_1
  6
Continuous
 62
     2
100
AcDbPolyline
 90
       12
 70
     1
 43
0.003
 10
1.419894
 20
1.954975999999999
 10
1.409603
 20
1.966329999999999
 10
1.395432999999999
 20
1.970933
 10
1.380433
 20
1.967795
 10
1.369079999999999
 20
1.957504
 10
1.364476999999999
 20
1.943334
 10
1.367613999999998
 20
1.928334999999998
 10
1.377904999999999
 20
1.916981
 10
1.392074999999999
 20
1.912377
 10
1.407075
 20
1.915511999999999
 10
1.418428
 20
1.925805
 10
1.423030999999999
 20
1.939975
  0
LWPOLYLINE
  5
2ED
330
1F
100
AcDbEntity
  8
LAYER_1
  6
Continuous
 62
     2
100
AcDbPolyline
 90
       12
 70
     1
 43
0.003
 10
1.219268
 20
2.002349999999998
 10
1.208976999999998
 20
2.013704
 10
1.194806999999999
 20
2.018307
 10
1.179807
 20
2.015168999999999
 10
1.168454
 20
2.004877999999999
 10
1.163850999999998
 20
1.990708
 10
1.166987999999999
 20
1.975708999999999
 10
1.177279
 20
1.964354999999999
 10
1.191448999999998
 20
1.959750999999999
 10
1.206448999999998
 20
1.962886
 10
1.217802
 20
1.973179
 10
1.222404999999998
 20
1.987349
  0
LWPOLYLINE
  5
2EE
330
1F
100
AcDbEntity
  8
LAYER_1
  6
Continuous
 62
     2
100
AcDbPolyline
 90
       12
 70
     1
 43
0.003
 10
1.137530999999998
 20
1.915086999999999
 10
1.127240999999999
 20
1.92644
 10
1.11307
 20
1.931043
 10
1.098071
 20
1.927906
 10
1.086718
 20
1.917614999999999
 10
1.082114
 20
1.903444
 10
1.085252
 20
1.888445
 10
1.095542999999999
 20
1.877091999999999
 10
1.109712999999999
 20
1.872486999999999
 10
1.124712999999998
 20
1.875622
 10
1.136066
 20
1.885915
 10
1.140669
 20
1.900084999999999
  0
LWPOLYLINE
  5
2EF
330
1F
100
AcDbEntity
  8
LAYER_1
  6
Continuous
 62
     2
100
AcDbPolyline
 90
       12
 70
     1
 43
0.003
 10
1.100378
 20
1.945004
 10
1.090087
 20
1.956356999999998
 10
1.075917
 20
1.960959999999999
 10
1.060917
 20
1.957822999999999
 10
1.049563999999999
 20
1.947531999999999
 10
1.044961
 20
1.933361999999999
 10
1.048097999999998
 20
1.918361999999999
 10
1.058389
 20
1.907009
 10
1.072559
 20
1.902403999999999
 10
1.087558999999999
 20
1.905538999999999
 10
1.098912
 20
1.915831999999999
 10
1.103515999999999
 20
1.930001999999999
  0
LWPOLYLINE
  5
2F0
330
1F
100
AcDbEntity
  8
LAYER_1
  6
Continuous
 62
     2
100
AcDbPolyline
 90
       12
 70
     1
 43
0.003
 10
1.169731999999998
 20
2.134491999999998
 10
1.159440999999999
 20
2.145845
 10
1.145270999999999
 20
2.150449
 10
1.130271999999999
 20
2.147311
 10
1.118918
 20
2.13702
 10
1.114314999999999
 20
2.12285
 10
1.117453
 20
2.10785
 10
1.127744
 20
2.096497
 10
1.141913999999998
 20
2.091893
 10
1.156912999999998
 20
2.095027999999999
 10
1.168266999999999
 20
2.105319999999998
 10
1.17287
 20
2.119491
  0
LWPOLYLINE
  5
2F1
330
1F
100
AcDbEntity
  8
LAYER_1
  6
Continuous
 62
     2
100
AcDbPolyline
 90
       12
 70
     1
 43
0.003
 10
1.107806999999998
 20
2.029776
 10
1.097515999999999
 20
2.041129
 10
1.083345999999999
 20
2.045732
 10
1.068346
 20
2.042593999999998
 10
1.056993
 20
2.032303999999999
 10
1.052389999999999
 20
2.018133
 10
1.055528
 20
2.003134
 10
1.065817999999999
 20
1.991780999999999
 10
1.079988999999998
 20
1.987175999999999
 10
1.094987999999998
 20
1.990311
 10
1.106341
 20
2.000604
 10
1.110945
 20
2.014774
  0
LWPOLYLINE
  5
2F2
330
1F
100
AcDbEntity
  8
LAYER_1
  6
Continuous
 62
     2
100
AcDbPolyline
 90
       12
 70
     1
 43
0.003
 10
1.003783
 20
1.945004
 10
0.9934929999999999
 20
1.956356999999998
 10
0.9793219999999999
 20
1.960959999999999
 10
0.964323
 20
1.957822999999999
 10
0.95297
 20
1.947531999999999
 10
0.9483659999999998
 20
1.933361999999999
 10
0.951504
 20
1.918361999999999
 10
0.961795
 20
1.907009
 10
0.975965
 20
1.902403999999999
 10
0.9909649999999999
 20
1.905538999999999
 10
1.002318
 20
1.915831999999999
 10
1.006920999999999
 20
1.930001999999999
  0
LWPOLYLINE
  5
2F3
330
1F
100
AcDbEntity
  8
LAYER_1
  6
Continuous
 62
     2
100
AcDbPolyline
 90
       12
 70
     1
 43
0.003
 10
1.912790999999998
 20
1.005043
 10
1.9025
 20
1.016395999999998
 10
1.888329999999999
 20
1.020999999999999
 10
1.873331
 20
1.017862
 10
1.861977999999998
 20
1.007570999999998
 10
1.857374
 20
0.993401
 10
1.860511999999999
 20
0.9784019999999999
 10
1.870803
 20
0.9670479999999999
 10
1.884973
 20
0.9624439999999999
 10
1.899972
 20
0.9655789999999999
 10
1.911325999999999
 20
0.975872
 10
1.915929
 20
0.990042
  0
LWPOLYLINE
  5
2F4
330
1F
100
AcDbEntity
  8
LAYER_1
  6
Continuous
 62
     2
100
AcDbPolyline
 90
       12
 70
     1
 43
0.003
 10
1.357971999999999
 20
1.775465
 10
1.347682
 20
1.786818
 10
1.333511
 20
1.791420999999998
 10
1.318512
 20
1.788283
 10
1.307158999999998
 20
1.777992999999999
 10
1.302554999999999
 20
1.763822
 10
1.305692999999998
 20
1.748822999999999
 10
1.315984
 20
1.73747
 10
1.330154
 20
1.732865
 10
1.345154
 20
1.735999999999999
 10
1.356506999999999
 20
1.746293
 10
1.36111
 20
1.760463
  0
LWPOLYLINE
  5
2F5
330
1F
100
AcDbEntity
  8
LAYER_1
  6
Continuous
 62
     2
100
AcDbPolyline
 90
       12
 70
     1
 43
0.003
 10
1.345590999999999
 20
1.845275999999999
 10
1.335299999999999
 20
1.856629
 10
1.321128999999998
 20
1.861232
 10
1.30613
 20
1.858093999999999
 10
1.294777
 20
1.847804
 10
1.290173
 20
1.833633
 10
1.293311
 20
1.818634
 10
1.303602
 20
1.807281
 10
1.317771999999999
 20
1.802675999999999
 10
1.332771999999998
 20
1.805811
 10
1.344125
 20
1.816104
 10
1.348728
 20
1.830274
  0
LWPOLYLINE
  5
2F6
330
1F
100
AcDbEntity
  8
LAYER_1
  6
Continuous
 62
     2
100
AcDbPolyline
 90
       12
 70
     1
 43
0.003
 10
2.172861999999998
 20
1.229441
 10
2.162570999999998
 20
1.240793999999999
 10
2.148400999999998
 20
1.245396999999998
 10
2.133402
 20
1.24226
 10
2.122047999999999
 20
1.231969
 10
2.117445
 20
1.217799
 10
2.120583
 20
1.202798999999999
 10
2.130874
 20
1.191446
 10
2.145043999999999
 20
1.186841
 10
2.160042999999999
 20
1.189975999999999
 10
2.171396
 20
1.200269
 10
2.176
 20
1.214439
  0
LWPOLYLINE
  5
2F7
330
1F
100
AcDbEntity
  8
LAYER_1
  6
Continuous
 62
     2
100
AcDbPolyline
 90
       12
 70
     1
 43
0.003
 10
2.113416999999999
 20
1.289276
 10
2.103126
 20
1.300629
 10
2.088956
 20
1.305231999999999
 10
2.073957
 20
1.302094
 10
2.062603999999998
 20
1.291804
 10
2.057999999999998
 20
1.277633
 10
2.061138
 20
1.262634
 10
2.071429
 20
1.251280999999998
 10
2.085599
 20
1.246676
 10
2.100597999999999
 20
1.249811
 10
2.111952
 20
1.260104
 10
2.116554999999999
 20
1.274273999999999
  0
LWPOLYLINE
  5
2F8
330
1F
100
AcDbEntity
  8
LAYER_1
  6
Continuous
 62
     2
100
AcDbPolyline
 90
       12
 70
     1
 43
0.003
 10
1.85087
 20
0.942717
 10
1.840579
 20
0.9540699999999999
 10
1.826408999999999
 20
0.9586729999999999
 10
1.811409
 20
0.955535
 10
1.800056
 20
0.945245
 10
1.795453
 20
0.9310739999999999
 10
1.798591
 20
0.916075
 10
1.808881
 20
0.9047209999999999
 10
1.823052
 20
0.900117
 10
1.838050999999999
 20
0.9032519999999999
 10
1.849404
 20
0.913545
 10
1.854008
 20
0.9277149999999998
  0
LWPOLYLINE
  5
2F9
330
1F
100
AcDbEntity
  8
LAYER_1
  6
Continuous
 62
     2
100
AcDbPolyline
 90
       12
 70
     1
 43
0.003
 10
1.845916999999999
 20
1.012523999999998
 10
1.835625999999999
 20
1.023877
 10
1.821456
 20
1.028479999999998
 10
1.806456999999999
 20
1.025343
 10
1.795104
 20
1.015052
 10
1.790499999999999
 20
1.000880999999999
 10
1.793638
 20
0.9858819999999999
 10
1.803929
 20
0.974529
 10
1.818099
 20
0.9699239999999999
 10
1.833097999999998
 20
0.9730589999999999
 10
1.844452
 20
0.983352
 10
1.849054999999999
 20
0.9975219999999998
  0
LWPOLYLINE
  5
2FA
330
1F
100
AcDbEntity
  8
LAYER_1
  6
Continuous
 62
     2
100
AcDbPolyline
 90
       12
 70
     1
 43
0.003
 10
1.779042999999998
 20
1.334154
 10
1.768752
 20
1.345507
 10
1.754581999999999
 20
1.35011
 10
1.739583
 20
1.346971999999999
 10
1.728229999999999
 20
1.336681999999999
 10
1.723625999999999
 20
1.322510999999998
 10
1.726764
 20
1.307512
 10
1.737054999999999
 20
1.296159
 10
1.751224999999999
 20
1.291554
 10
1.766224
 20
1.294688999999998
 10
1.777577999999999
 20
1.304981999999998
 10
1.782181
 20
1.319152
  0
LWPOLYLINE
  5
2FB
330
1F
100
AcDbEntity
  8
LAYER_1
  6
Continuous
 62
     2
100
AcDbPolyline
 90
       12
 70
     1
 43
0.003
 10
1.74189
 20
1.563539
 10
1.731599
 20
1.574893
 10
1.717429
 20
1.579495999999999
 10
1.702429
 20
1.576357999999999
 10
1.691075999999999
 20
1.566067
 10
1.686472999999999
 20
1.551896999999999
 10
1.689609999999999
 20
1.536897999999999
 10
1.699900999999998
 20
1.525544
 10
1.714070999999998
 20
1.520939999999999
 10
1.729070999999999
 20
1.524075
 10
1.740424
 20
1.534367999999999
 10
1.745027
 20
1.548537999999999
  0
LWPOLYLINE
  5
2FC
330
1F
100
AcDbEntity
  8
LAYER_1
  6
Continuous
 62
     2
100
AcDbPolyline
 90
       12
 70
     1
 43
0.003
 10
1.731979999999999
 20
1.665759999999998
 10
1.721689
 20
1.677113
 10
1.707518999999999
 20
1.681715999999999
 10
1.69252
 20
1.678579
 10
1.681166999999999
 20
1.668287999999999
 10
1.676562999999999
 20
1.654117999999999
 10
1.679700999999998
 20
1.639118
 10
1.689991999999999
 20
1.627764999999999
 10
1.704161999999999
 20
1.623159999999999
 10
1.719161
 20
1.626295
 10
1.730515
 20
1.636587999999998
 10
1.735117999999999
 20
1.650758
  0
LWPOLYLINE
  5
2FD
330
1F
100
AcDbEntity
  8
LAYER_1
  6
Continuous
 62
    30
100
AcDbPolyline
 90
        2
 70
     0
 43
0.019685
 10
1.913484
 20
1.617637999999999
 10
1.579688999999999
 20
1.116114
  0
LWPOLYLINE
  5
2FE
330
1F
100
AcDbEntity
  8
LAYER_1
  6
Continuous
 62
     5
100
AcDbPolyline
 90
        2
 70
     0
 43
0.019685
 10
2.150272
 20
1.342605999999999
 10
1.763763999999999
 20
0.7670430000000002
  0
LWPOLYLINE
  5
2FF
330
1F
100
AcDbEntity
  8
LAYER_1
  6
Continuous
 62
     7
100
AcDbPolyline
 90
        8
 70
     1
 43
0.01185
 10
1.769338999999999
 20
0.758248
 10
2.316027999999999
 20
1.043066999999998
 10
1.864286999999999
 20
1.860716999999999
 10
1.608011999999999
 20
1.729543
 10
1.312645999999998
 20
2.284842999999999
 10
0.747969
 20
2.018125999999999
 10
1.047680999999998
 20
1.445330999999999
 10
1.330019999999998
 20
1.589621999999999
  0
LWPOLYLINE
  5
300
330
1F
100
AcDbEntity
  8
LAYER_1
  6
Continuous
 62
     2
100
AcDbPolyline
 90
       12
 70
     1
 43
0.003
 10
1.734456999999999
 20
1.01502
 10
1.724166
 20
1.026372999999998
 10
1.709995999999999
 20
1.030976
 10
1.694995999999999
 20
1.027838999999999
 10
1.683643
 20
1.017547999999999
 10
1.67904
 20
1.003378
 10
1.682177
 20
0.9883779999999999
 10
1.692468
 20
0.977025
 10
1.706638
 20
0.9724199999999999
 10
1.721638
 20
0.9755549999999999
 10
1.732990999999999
 20
0.985848
 10
1.737593999999999
 20
1.000018
  0
LWPOLYLINE
  5
301
330
1F
100
AcDbEntity
  8
LAYER_1
  6
Continuous
 62
     2
100
AcDbPolyline
 90
       12
 70
     1
 43
0.003
 10
0.71152
 20
0.349319
 10
0.7012290000000001
 20
0.360672
 10
0.687059
 20
0.365275
 10
0.672059
 20
0.362138
 10
0.6607060000000002
 20
0.351847
 10
0.656103
 20
0.337677
 10
0.65924
 20
0.322677
 10
0.669531
 20
0.311324
 10
0.6837010000000002
 20
0.306719
 10
0.698701
 20
0.309854
 10
0.710054
 20
0.320147
 10
0.714657
 20
0.334317
  0
LWPOLYLINE
  5
302
330
1F
100
AcDbEntity
  8
LAYER_1
  6
Continuous
 62
     2
100
AcDbPolyline
 90
       12
 70
     1
 43
0.003
 10
0.6322600000000002
 20
0.8604370000000001
 10
0.621969
 20
0.87179
 10
0.607799
 20
0.8763939999999998
 10
0.592799
 20
0.8732559999999999
 10
0.5814460000000002
 20
0.8629649999999998
 10
0.5768430000000002
 20
0.8487950000000001
 10
0.5799800000000001
 20
0.8337950000000001
 10
0.590271
 20
0.822442
 10
0.604441
 20
0.817838
 10
0.6194410000000002
 20
0.8209719999999999
 10
0.630794
 20
0.8312649999999999
 10
0.6353970000000002
 20
0.8454360000000001
  0
LWPOLYLINE
  5
303
330
1F
100
AcDbEntity
  8
LAYER_1
  6
Continuous
 62
     2
100
AcDbPolyline
 90
       12
 70
     1
 43
0.003
 10
0.6396890000000001
 20
0.965154
 10
0.629398
 20
0.9765069999999999
 10
0.6152280000000001
 20
0.9811099999999999
 10
0.600228
 20
0.9779719999999999
 10
0.588875
 20
0.9676820000000001
 10
0.584272
 20
0.9535109999999999
 10
0.5874090000000001
 20
0.938512
 10
0.5977000000000002
 20
0.9271589999999999
 10
0.611871
 20
0.922554
 10
0.6268699999999999
 20
0.925689
 10
0.638223
 20
0.9359819999999999
 10
0.6428270000000002
 20
0.9501519999999999
  0
LWPOLYLINE
  5
304
330
1F
100
AcDbEntity
  8
LAYER_1
  6
Continuous
 62
     2
100
AcDbPolyline
 90
       12
 70
     1
 43
0.003
 10
0.728858
 20
1.024991999999999
 10
0.718567
 20
1.036345
 10
0.7043970000000001
 20
1.040948999999999
 10
0.6893979999999999
 20
1.037811
 10
0.678044
 20
1.027519999999998
 10
0.673441
 20
1.013349999999998
 10
0.6765790000000002
 20
0.9983499999999999
 10
0.68687
 20
0.9869969999999998
 10
0.70104
 20
0.982393
 10
0.716039
 20
0.985528
 10
0.7273930000000001
 20
0.9958199999999999
 10
0.731996
 20
1.009991
  0
LWPOLYLINE
  5
305
330
1F
100
AcDbEntity
  8
LAYER_1
  6
Continuous
 62
     2
100
AcDbPolyline
 90
       12
 70
     1
 43
0.003
 10
0.609969
 20
1.064881999999998
 10
0.599678
 20
1.076235
 10
0.585507
 20
1.080837999999998
 10
0.5705080000000002
 20
1.077701
 10
0.5591550000000001
 20
1.067409999999998
 10
0.5545510000000001
 20
1.053239999999999
 10
0.557689
 20
1.03824
 10
0.5679800000000002
 20
1.026887
 10
0.58215
 20
1.022281999999999
 10
0.59715
 20
1.025417
 10
0.608503
 20
1.03571
 10
0.6131060000000002
 20
1.049879999999999
  0
LWPOLYLINE
  5
306
330
1F
100
AcDbEntity
  8
LAYER_1
  6
Continuous
 62
     2
100
AcDbPolyline
 90
       12
 70
     1
 43
0.003
 10
0.6074880000000002
 20
1.152145999999999
 10
0.597197
 20
1.163499
 10
0.5830270000000001
 20
1.168101999999998
 10
0.568028
 20
1.164965
 10
0.5566740000000002
 20
1.154673999999998
 10
0.552071
 20
1.140503
 10
0.5552090000000001
 20
1.125504
 10
0.5655000000000002
 20
1.114151
 10
0.5796700000000002
 20
1.109545999999999
 10
0.5946690000000002
 20
1.112681
 10
0.6060220000000001
 20
1.122973999999999
 10
0.610626
 20
1.137144
  0
LWPOLYLINE
  5
307
330
1F
100
AcDbEntity
  8
LAYER_1
  6
Continuous
 62
     2
100
AcDbPolyline
 90
       12
 70
     1
 43
0.003
 10
0.4539210000000001
 20
0.8529569999999997
 10
0.4436300000000001
 20
0.86431
 10
0.4294600000000001
 20
0.8689129999999998
 10
0.4144610000000001
 20
0.8657759999999999
 10
0.403107
 20
0.855485
 10
0.398504
 20
0.8413149999999999
 10
0.401642
 20
0.8263149999999999
 10
0.411933
 20
0.8149619999999998
 10
0.426103
 20
0.8103569999999999
 10
0.4411020000000001
 20
0.8134919999999999
 10
0.4524560000000001
 20
0.8237849999999998
 10
0.4570590000000001
 20
0.8379549999999998
  0
LWPOLYLINE
  5
308
330
1F
100
AcDbEntity
  8
LAYER_1
  6
Continuous
 62
     2
100
AcDbPolyline
 90
       12
 70
     1
 43
0.003
 10
0.5034609999999999
 20
1.017511999999998
 10
0.4931700000000001
 20
1.028864999999999
 10
0.479
 20
1.033468
 10
0.4640000000000001
 20
1.030330999999998
 10
0.452647
 20
1.02004
 10
0.4480430000000001
 20
1.00587
 10
0.4511810000000002
 20
0.9908699999999999
 10
0.4614720000000001
 20
0.9795169999999997
 10
0.4756420000000002
 20
0.9749119999999999
 10
0.4906420000000001
 20
0.9780469999999999
 10
0.501995
 20
0.9883399999999999
 10
0.506598
 20
1.00251
  0
LWPOLYLINE
  5
309
330
1F
100
AcDbEntity
  8
LAYER_1
  6
Continuous
 62
     2
100
AcDbPolyline
 90
       12
 70
     1
 43
0.003
 10
0.478693
 20
0.7282950000000002
 10
0.4684020000000002
 20
0.739648
 10
0.4542320000000001
 20
0.744252
 10
0.439232
 20
0.7411140000000001
 10
0.427879
 20
0.730823
 10
0.4232760000000001
 20
0.716653
 10
0.426413
 20
0.701654
 10
0.436704
 20
0.6903000000000002
 10
0.450874
 20
0.685696
 10
0.465874
 20
0.6888310000000001
 10
0.4772270000000002
 20
0.699124
 10
0.4818310000000002
 20
0.713294
  0
LWPOLYLINE
  5
30A
330
1F
100
AcDbEntity
  8
LAYER_1
  6
Continuous
 62
     2
100
AcDbPolyline
 90
       12
 70
     1
 43
0.003
 10
-0.058783
 20
0.780654
 10
-0.069074
 20
0.792007
 10
-0.083245
 20
0.7966100000000002
 10
-0.098244
 20
0.7934720000000001
 10
-0.109597
 20
0.783182
 10
-0.114201
 20
0.769011
 10
-0.111063
 20
0.754012
 10
-0.100772
 20
0.7426590000000001
 10
-0.086602
 20
0.738054
 10
-0.071602
 20
0.741189
 10
-0.060249
 20
0.7514820000000002
 10
-0.055646
 20
0.7656520000000002
  0
LWPOLYLINE
  5
30B
330
1F
100
AcDbEntity
  8
LAYER_1
  6
Continuous
 62
     2
100
AcDbPolyline
 90
       12
 70
     1
 43
0.003
 10
0.743717
 20
1.119736
 10
0.7334260000000002
 20
1.131089
 10
0.719255
 20
1.135693
 10
0.704256
 20
1.132554999999998
 10
0.692903
 20
1.122263999999999
 10
0.688299
 20
1.108094
 10
0.691437
 20
1.093094
 10
0.7017280000000002
 20
1.081741
 10
0.715898
 20
1.077137
 10
0.730898
 20
1.080271999999999
 10
0.742251
 20
1.090563999999998
 10
0.746854
 20
1.104735
  0
LWPOLYLINE
  5
30C
330
1F
100
AcDbEntity
  8
LAYER_1
  6
Continuous
 62
     2
100
AcDbPolyline
 90
       12
 70
     1
 43
0.003
 10
-0.098413
 20
0.78813
 10
-0.108704
 20
0.799483
 10
-0.122874
 20
0.804086
 10
-0.137874
 20
0.8009489999999999
 10
-0.149227
 20
0.790658
 10
-0.153831
 20
0.776488
 10
-0.150693
 20
0.7614880000000001
 10
-0.140402
 20
0.7501350000000002
 10
-0.126232
 20
0.7455300000000002
 10
-0.111232
 20
0.748665
 10
-0.099879
 20
0.758958
 10
-0.095276
 20
0.7731279999999999
  0
LWPOLYLINE
  5
30D
330
1F
100
AcDbEntity
  8
LAYER_1
  6
Continuous
 62
     2
100
AcDbPolyline
 90
       12
 70
     1
 43
0.003
 10
-0.098413
 20
0.78813
 10
-0.108704
 20
0.799483
 10
-0.122874
 20
0.804086
 10
-0.137874
 20
0.8009489999999999
 10
-0.149227
 20
0.790658
 10
-0.153831
 20
0.776488
 10
-0.150693
 20
0.7614880000000001
 10
-0.140402
 20
0.7501350000000002
 10
-0.126232
 20
0.7455300000000002
 10
-0.111232
 20
0.748665
 10
-0.099879
 20
0.758958
 10
-0.095276
 20
0.7731279999999999
  0
LWPOLYLINE
  5
30E
330
1F
100
AcDbEntity
  8
LAYER_1
  6
Continuous
 62
     2
100
AcDbPolyline
 90
       12
 70
     1
 43
0.003
 10
0.146795
 20
0.391701
 10
0.136504
 20
0.4030540000000002
 10
0.122334
 20
0.4076570000000002
 10
0.107335
 20
0.40452
 10
0.095981
 20
0.394229
 10
0.091378
 20
0.3800590000000001
 10
0.094516
 20
0.365059
 10
0.104807
 20
0.353706
 10
0.118977
 20
0.349101
 10
0.133976
 20
0.352236
 10
0.14533
 20
0.362529
 10
0.149933
 20
0.3766989999999999
  0
LWPOLYLINE
  5
30F
330
1F
100
AcDbEntity
  8
LAYER_1
  6
Continuous
 62
     2
100
AcDbPolyline
 90
       12
 70
     1
 43
0.003
 10
0.062583
 20
0.5662279999999999
 10
0.052292
 20
0.577582
 10
0.038122
 20
0.5821850000000001
 10
0.023122
 20
0.579047
 10
0.011769
 20
0.5687560000000002
 10
0.007166
 20
0.554586
 10
0.010303
 20
0.5395870000000002
 10
0.020594
 20
0.528233
 10
0.034764
 20
0.5236290000000002
 10
0.049764
 20
0.526764
 10
0.061117
 20
0.537057
 10
0.06572
 20
0.551227
  0
LWPOLYLINE
  5
310
330
1F
100
AcDbEntity
  8
LAYER_1
  6
Continuous
 62
     2
100
AcDbPolyline
 90
       12
 70
     1
 43
0.003
 10
-0.152902
 20
0.396689
 10
-0.163192
 20
0.4080420000000001
 10
-0.177363
 20
0.412646
 10
-0.192362
 20
0.409508
 10
-0.203715
 20
0.399217
 10
-0.208319
 20
0.3850469999999999
 10
-0.205181
 20
0.370047
 10
-0.19489
 20
0.358694
 10
-0.18072
 20
0.35409
 10
-0.16572
 20
0.357224
 10
-0.154367
 20
0.367517
 10
-0.149764
 20
0.381688
  0
LWPOLYLINE
  5
311
330
1F
100
AcDbEntity
  8
LAYER_1
  6
Continuous
 62
     2
100
AcDbPolyline
 90
       12
 70
     1
 43
0.003
 10
0.010567
 20
0.633547
 10
0.000276
 20
0.6449
 10
-0.013894
 20
0.649504
 10
-0.028894
 20
0.646366
 10
-0.040247
 20
0.636075
 10
-0.04485
 20
0.6219050000000001
 10
-0.041713
 20
0.6069060000000001
 10
-0.031422
 20
0.5955520000000001
 10
-0.017252
 20
0.590948
 10
-0.002252
 20
0.594083
 10
0.009101
 20
0.6043750000000001
 10
0.013705
 20
0.6185460000000002
  0
LWPOLYLINE
  5
312
330
1F
100
AcDbEntity
  8
LAYER_1
  6
Continuous
 62
     2
100
AcDbPolyline
 90
       12
 70
     1
 43
0.003
 10
0.119551
 20
0.4714840000000002
 10
0.10926
 20
0.4828370000000002
 10
0.09509
 20
0.4874410000000001
 10
0.080091
 20
0.484303
 10
0.068737
 20
0.474012
 10
0.064134
 20
0.459842
 10
0.067272
 20
0.444843
 10
0.077563
 20
0.433489
 10
0.091733
 20
0.428885
 10
0.106732
 20
0.43202
 10
0.118085
 20
0.442312
 10
0.122689
 20
0.456483
  0
LWPOLYLINE
  5
313
330
1F
100
AcDbEntity
  8
LAYER_1
  6
Continuous
 62
     2
100
AcDbPolyline
 90
       12
 70
     1
 43
0.003
 10
-0.048878
 20
0.14487
 10
-0.059169
 20
0.156223
 10
-0.073339
 20
0.160827
 10
-0.088339
 20
0.157689
 10
-0.099692
 20
0.147398
 10
-0.104295
 20
0.133228
 10
-0.101157
 20
0.118228
 10
-0.090867
 20
0.106875
 10
-0.076696
 20
0.102271
 10
-0.061697
 20
0.105406
 10
-0.050344
 20
0.115698
 10
-0.04574
 20
0.129869
  0
LWPOLYLINE
  5
314
330
1F
100
AcDbEntity
  8
LAYER_1
  6
Continuous
 62
     2
100
AcDbPolyline
 90
       12
 70
     1
 43
0.003
 10
-0.192531
 20
0.653496
 10
-0.202822
 20
0.6648490000000002
 10
-0.216993
 20
0.669453
 10
-0.231992
 20
0.666315
 10
-0.243345
 20
0.656024
 10
-0.247949
 20
0.6418540000000002
 10
-0.244811
 20
0.626854
 10
-0.23452
 20
0.6155010000000001
 10
-0.22035
 20
0.6108970000000002
 10
-0.20535
 20
0.614031
 10
-0.193997
 20
0.6243240000000001
 10
-0.189394
 20
0.638495
  0
LWPOLYLINE
  5
315
330
1F
100
AcDbEntity
  8
LAYER_1
  6
Continuous
 62
     2
100
AcDbPolyline
 90
       12
 70
     1
 43
0.003
 10
-0.185102
 20
0.099992
 10
-0.195393
 20
0.111345
 10
-0.209563
 20
0.115949
 10
-0.224563
 20
0.112811
 10
-0.235916
 20
0.10252
 10
-0.24052
 20
0.08835
 10
-0.237382
 20
0.07335
 10
-0.227091
 20
0.061997
 10
-0.212921
 20
0.057393
 10
-0.197921
 20
0.060528
 10
-0.186568
 20
0.07082
 10
-0.181965
 20
0.084991
  0
LWPOLYLINE
  5
316
330
1F
100
AcDbEntity
  8
LAYER_1
  6
Continuous
 62
     2
100
AcDbPolyline
 90
       12
 70
     1
 43
0.003
 10
-0.133087
 20
0.052622
 10
-0.143378
 20
0.063975
 10
-0.157548
 20
0.068579
 10
-0.172547
 20
0.065441
 10
-0.1839
 20
0.05515
 10
-0.188504
 20
0.04098
 10
-0.185366
 20
0.02598
 10
-0.175075
 20
0.014627
 10
-0.160905
 20
0.010023
 10
-0.145906
 20
0.013157
 10
-0.134552
 20
0.02345
 10
-0.129949
 20
0.037621
  0
LWPOLYLINE
  5
317
330
1F
100
AcDbEntity
  8
LAYER_1
  6
Continuous
 62
     2
100
AcDbPolyline
 90
       12
 70
     1
 43
0.003
 10
-0.073642
 20
0.027685
 10
-0.083933
 20
0.039038
 10
-0.098103
 20
0.043642
 10
-0.113102
 20
0.040504
 10
-0.124456
 20
0.030213
 10
-0.129059
 20
0.016043
 10
-0.125921
 20
0.001043
 10
-0.11563
 20
-0.01031
 10
-0.10146
 20
-0.014914
 10
-0.086461
 20
-0.01178
 10
-0.075107
 20
-0.001487
 10
-0.070504
 20
0.012684
  0
LWPOLYLINE
  5
318
330
1F
100
AcDbEntity
  8
LAYER_1
  6
Continuous
 62
     2
100
AcDbPolyline
 90
       12
 70
     1
 43
0.003
 10
-0.058783
 20
-0.017189
 10
-0.069074
 20
-0.005836
 10
-0.083245
 20
-0.001232
 10
-0.098244
 20
-0.00437
 10
-0.109597
 20
-0.014661
 10
-0.114201
 20
-0.028831
 10
-0.111063
 20
-0.043831
 10
-0.100772
 20
-0.055184
 10
-0.086602
 20
-0.059788
 10
-0.071602
 20
-0.056654
 10
-0.060249
 20
-0.046361
 10
-0.055646
 20
-0.03219
  0
LWPOLYLINE
  5
319
330
1F
100
AcDbEntity
  8
LAYER_1
  6
Continuous
 62
     2
100
AcDbPolyline
 90
       12
 70
     1
 43
0.003
 10
-0.348575
 20
0.309425
 10
-0.3588659999999999
 20
0.320778
 10
-0.373036
 20
0.325382
 10
-0.3880349999999999
 20
0.322244
 10
-0.399389
 20
0.311953
 10
-0.4039920000000001
 20
0.297783
 10
-0.400854
 20
0.282783
 10
-0.390563
 20
0.27143
 10
-0.376393
 20
0.266826
 10
-0.361394
 20
0.269961
 10
-0.350041
 20
0.280253
 10
-0.345437
 20
0.294424
  0
LWPOLYLINE
  5
31A
330
1F
100
AcDbEntity
  8
LAYER_1
  6
Continuous
 62
     2
100
AcDbPolyline
 90
       12
 70
     1
 43
0.003
 10
-0.011724
 20
0.00026
 10
-0.022015
 20
0.011613
 10
-0.036185
 20
0.016216
 10
-0.051185
 20
0.013079
 10
-0.062538
 20
0.002788
 10
-0.067142
 20
-0.011382
 10
-0.064004
 20
-0.026382
 10
-0.053713
 20
-0.037735
 10
-0.039543
 20
-0.04234
 10
-0.024543
 20
-0.039205
 10
-0.01319
 20
-0.028912
 10
-0.008587
 20
-0.014742
  0
LWPOLYLINE
  5
31B
330
1F
100
AcDbEntity
  8
LAYER_1
  6
Continuous
 62
     2
100
AcDbPolyline
 90
       12
 70
     1
 43
0.003
 10
0.092307
 20
0.316906
 10
0.082016
 20
0.328259
 10
0.067846
 20
0.332862
 10
0.052846
 20
0.3297239999999999
 10
0.041493
 20
0.319434
 10
0.03689
 20
0.305263
 10
0.040028
 20
0.290264
 10
0.050318
 20
0.27891
 10
0.064489
 20
0.274306
 10
0.079488
 20
0.277441
 10
0.090841
 20
0.287734
 10
0.095445
 20
0.301904
  0
LWPOLYLINE
  5
31C
330
1F
100
AcDbEntity
  8
LAYER_1
  6
Continuous
 62
     2
100
AcDbPolyline
 90
       12
 70
     1
 43
0.003
 10
0.6396930000000002
 20
0.057606
 10
0.629402
 20
0.068959
 10
0.615232
 20
0.073563
 10
0.600232
 20
0.070425
 10
0.5888790000000002
 20
0.060134
 10
0.5842760000000001
 20
0.045964
 10
0.587413
 20
0.030965
 10
0.5977040000000002
 20
0.019611
 10
0.6118740000000002
 20
0.015007
 10
0.626874
 20
0.018142
 10
0.638227
 20
0.028435
 10
0.6428310000000002
 20
0.042605
  0
LWPOLYLINE
  5
31D
330
1F
100
AcDbEntity
  8
LAYER_1
  6
Continuous
 62
     2
100
AcDbPolyline
 90
       12
 70
     1
 43
0.003
 10
0.268165
 20
0.207205
 10
0.257874
 20
0.218558
 10
0.243704
 20
0.223161
 10
0.228705
 20
0.2200239999999999
 10
0.217352
 20
0.209733
 10
0.212748
 20
0.195563
 10
0.215886
 20
0.180563
 10
0.226177
 20
0.16921
 10
0.2403469999999999
 20
0.164605
 10
0.255346
 20
0.16774
 10
0.2667
 20
0.178033
 10
0.271303
 20
0.192203
  0
LWPOLYLINE
  5
31E
330
1F
100
AcDbEntity
  8
LAYER_1
  6
Continuous
 62
     5
100
AcDbPolyline
 90
        2
 70
     0
 43
0.019685
 10
0.297224
 20
0.149594
 10
0.084213
 20
-0.139622
  0
LWPOLYLINE
  5
31F
330
1F
100
AcDbEntity
  8
LAYER_1
  6
Continuous
 62
     2
100
AcDbPolyline
 90
       12
 70
     1
 43
0.003
 10
0.17652
 20
0.04763
 10
0.166229
 20
0.058983
 10
0.152059
 20
0.063586
 10
0.137059
 20
0.060449
 10
0.125706
 20
0.050158
 10
0.121103
 20
0.035988
 10
0.12424
 20
0.020988
 10
0.134531
 20
0.009635
 10
0.148701
 20
0.00503
 10
0.163701
 20
0.008165
 10
0.175054
 20
0.018458
 10
0.179657
 20
0.032628
  0
LWPOLYLINE
  5
320
330
1F
100
AcDbEntity
  8
LAYER_1
  6
Continuous
 62
     2
100
AcDbPolyline
 90
       12
 70
     1
 43
0.003
 10
-0.440217
 20
0.376744
 10
-0.450507
 20
0.3880969999999999
 10
-0.464678
 20
0.392701
 10
-0.4796770000000001
 20
0.389563
 10
-0.4910300000000002
 20
0.379272
 10
-0.495634
 20
0.365102
 10
-0.492496
 20
0.350102
 10
-0.482205
 20
0.338749
 10
-0.4680350000000001
 20
0.334145
 10
-0.4530350000000001
 20
0.33728
 10
-0.441682
 20
0.347572
 10
-0.437079
 20
0.361743
  0
LWPOLYLINE
  5
321
330
1F
100
AcDbEntity
  8
LAYER_1
  6
Continuous
 62
     2
100
AcDbPolyline
 90
       12
 70
     1
 43
0.003
 10
-0.088504
 20
0.593657
 10
-0.098795
 20
0.605011
 10
-0.112965
 20
0.6096140000000001
 10
-0.127965
 20
0.606476
 10
-0.139318
 20
0.5961850000000001
 10
-0.143921
 20
0.582015
 10
-0.140783
 20
0.567016
 10
-0.130493
 20
0.555662
 10
-0.116322
 20
0.5510580000000001
 10
-0.101323
 20
0.5541930000000001
 10
-0.08997
 20
0.564486
 10
-0.085366
 20
0.5786560000000001
  0
LWPOLYLINE
  5
322
330
1F
100
AcDbEntity
  8
LAYER_1
  6
Continuous
 62
     2
100
AcDbPolyline
 90
       12
 70
     1
 43
0.003
 10
0.6694170000000002
 20
-0.154323
 10
0.6591260000000001
 20
-0.14297
 10
0.6449560000000001
 20
-0.138366
 10
0.6299570000000001
 20
-0.141504
 10
0.6186040000000002
 20
-0.151795
 10
0.614
 20
-0.165965
 10
0.617138
 20
-0.180965
 10
0.6274290000000002
 20
-0.192318
 10
0.6415990000000002
 20
-0.196922
 10
0.6565979999999999
 20
-0.193787
 10
0.6679520000000001
 20
-0.183495
 10
0.6725550000000001
 20
-0.169324
  0
LWPOLYLINE
  5
323
330
1F
100
AcDbEntity
  8
LAYER_1
  6
Continuous
 62
     2
100
AcDbPolyline
 90
       12
 70
     1
 43
0.003
 10
-0.128134
 20
0.4939250000000002
 10
-0.138425
 20
0.5052780000000002
 10
-0.152595
 20
0.509882
 10
-0.167594
 20
0.506744
 10
-0.178948
 20
0.496453
 10
-0.183551
 20
0.482283
 10
-0.180413
 20
0.4672830000000002
 10
-0.170122
 20
0.4559300000000002
 10
-0.155952
 20
0.451326
 10
-0.140953
 20
0.454461
 10
-0.1296
 20
0.464753
 10
-0.124996
 20
0.478924
  0
LWPOLYLINE
  5
324
330
1F
100
AcDbEntity
  8
LAYER_1
  6
Continuous
 62
    30
100
AcDbPolyline
 90
        2
 70
     0
 43
0.019685
 10
0.048634
 20
0.622965
 10
-0.327941
 20
0.137567
  0
LWPOLYLINE
  5
325
330
1F
100
AcDbEntity
  8
LAYER_1
  6
Continuous
 62
     2
100
AcDbPolyline
 90
       12
 70
     1
 43
0.003
 10
0.6545550000000002
 20
-0.825008
 10
0.6442640000000001
 20
-0.8136549999999999
 10
0.6300939999999999
 20
-0.809051
 10
0.615094
 20
-0.812189
 10
0.603741
 20
-0.8224799999999998
 10
0.5991380000000001
 20
-0.83665
 10
0.602276
 20
-0.85165
 10
0.612566
 20
-0.8630030000000001
 10
0.626737
 20
-0.8676069999999999
 10
0.641736
 20
-0.8644719999999999
 10
0.6530890000000002
 20
-0.8541799999999998
 10
0.6576930000000001
 20
-0.840009
  0
LWPOLYLINE
  5
326
330
1F
100
AcDbEntity
  8
LAYER_1
  6
Continuous
 62
     2
100
AcDbPolyline
 90
       12
 70
     1
 43
0.003
 10
0.441547
 20
-0.5482600000000001
 10
0.4312560000000002
 20
-0.5369070000000002
 10
0.417086
 20
-0.532303
 10
0.402087
 20
-0.535441
 10
0.390733
 20
-0.5457320000000001
 10
0.38613
 20
-0.5599020000000002
 10
0.389268
 20
-0.574902
 10
0.399559
 20
-0.586255
 10
0.4137290000000001
 20
-0.5908590000000002
 10
0.428728
 20
-0.5877240000000002
 10
0.440082
 20
-0.577432
 10
0.4446850000000002
 20
-0.563261
  0
LWPOLYLINE
  5
327
330
1F
100
AcDbEntity
  8
LAYER_1
  6
Continuous
 62
     2
100
AcDbPolyline
 90
       12
 70
     1
 43
0.003
 10
0.6025390000000001
 20
-0.32137
 10
0.5922480000000001
 20
-0.310017
 10
0.578078
 20
-0.3054139999999999
 10
0.5630790000000001
 20
-0.308551
 10
0.5517260000000001
 20
-0.318842
 10
0.547122
 20
-0.333012
 10
0.5502600000000001
 20
-0.348012
 10
0.5605510000000002
 20
-0.359365
 10
0.5747210000000002
 20
-0.3639699999999999
 10
0.58972
 20
-0.360835
 10
0.6010740000000001
 20
-0.350542
 10
0.6056770000000001
 20
-0.336372
  0
LWPOLYLINE
  5
328
330
1F
100
AcDbEntity
  8
LAYER_1
  6
Continuous
 62
     2
100
AcDbPolyline
 90
       12
 70
     1
 43
0.003
 10
0.4365940000000001
 20
-0.283972
 10
0.4263040000000001
 20
-0.272619
 10
0.412133
 20
-0.268016
 10
0.397134
 20
-0.271154
 10
0.385781
 20
-0.281444
 10
0.381177
 20
-0.295615
 10
0.384315
 20
-0.310614
 10
0.394606
 20
-0.321967
 10
0.4087760000000002
 20
-0.326572
 10
0.4237760000000001
 20
-0.323437
 10
0.435129
 20
-0.313144
 10
0.439732
 20
-0.2989739999999999
  0
LWPOLYLINE
  5
329
330
1F
100
AcDbEntity
  8
LAYER_1
  6
Continuous
 62
     2
100
AcDbPolyline
 90
       12
 70
     1
 43
0.003
 10
0.3003659999999999
 20
-0.311398
 10
0.290075
 20
-0.300044
 10
0.275905
 20
-0.295441
 10
0.2609059999999999
 20
-0.298579
 10
0.249552
 20
-0.30887
 10
0.244949
 20
-0.32304
 10
0.248087
 20
-0.338039
 10
0.258378
 20
-0.349393
 10
0.272548
 20
-0.353997
 10
0.287547
 20
-0.350862
 10
0.2989
 20
-0.340569
 10
0.303504
 20
-0.326399
  0
LWPOLYLINE
  5
32A
330
1F
100
AcDbEntity
  8
LAYER_1
  6
Continuous
 62
     2
100
AcDbPolyline
 90
       12
 70
     1
 43
0.003
 10
0.795736
 20
-0.760185
 10
0.785445
 20
-0.748832
 10
0.7712750000000002
 20
-0.7442280000000002
 10
0.7562760000000001
 20
-0.747366
 10
0.744922
 20
-0.7576570000000002
 10
0.740319
 20
-0.7718270000000002
 10
0.7434569999999999
 20
-0.7868270000000001
 10
0.753748
 20
-0.79818
 10
0.767918
 20
-0.8027840000000001
 10
0.782917
 20
-0.79965
 10
0.7942700000000002
 20
-0.789357
 10
0.798874
 20
-0.7751859999999999
  0
LWPOLYLINE
  5
32B
330
1F
100
AcDbEntity
  8
LAYER_1
  6
Continuous
 62
     2
100
AcDbPolyline
 90
       12
 70
     1
 43
0.003
 10
0.879949
 20
-0.358768
 10
0.869658
 20
-0.347415
 10
0.8554879999999997
 20
-0.342811
 10
0.8404879999999998
 20
-0.345949
 10
0.8291350000000001
 20
-0.35624
 10
0.8245319999999999
 20
-0.37041
 10
0.827669
 20
-0.385409
 10
0.8379599999999999
 20
-0.396763
 10
0.85213
 20
-0.4013670000000002
 10
0.8671299999999998
 20
-0.3982320000000001
 10
0.8784829999999999
 20
-0.387939
 10
0.8830860000000001
 20
-0.373769
  0
LWPOLYLINE
  5
32C
330
1F
100
AcDbEntity
  8
LAYER_1
  6
Continuous
 62
     2
100
AcDbPolyline
 90
       12
 70
     1
 43
0.003
 10
0.997193
 20
-0.5868700000000002
 10
0.986902
 20
-0.5755170000000001
 10
0.9727319999999998
 20
-0.5709140000000002
 10
0.9577319999999998
 20
-0.574051
 10
0.9463789999999999
 20
-0.584342
 10
0.9417759999999999
 20
-0.5985120000000002
 10
0.9449129999999998
 20
-0.613512
 10
0.9552039999999999
 20
-0.624865
 10
0.969374
 20
-0.62947
 10
0.984374
 20
-0.6263350000000001
 10
0.9957270000000001
 20
-0.6160420000000002
 10
1.000330999999998
 20
-0.6018720000000001
  0
LWPOLYLINE
  5
32D
330
1F
100
AcDbEntity
  8
LAYER_1
  6
Continuous
 62
     2
100
AcDbPolyline
 90
       12
 70
     1
 43
0.003
 10
0.491083
 20
-0.044618
 10
0.4807920000000001
 20
-0.033265
 10
0.466622
 20
-0.028662
 10
0.4516220000000001
 20
-0.031799
 10
0.440269
 20
-0.04209
 10
0.435666
 20
-0.05626
 10
0.438803
 20
-0.07126
 10
0.449094
 20
-0.082613
 10
0.4632640000000002
 20
-0.087218
 10
0.4782640000000001
 20
-0.084083
 10
0.4896170000000001
 20
-0.07379
 10
0.49422
 20
-0.05962
  0
LWPOLYLINE
  5
32E
330
1F
100
AcDbEntity
  8
LAYER_1
  6
Continuous
 62
     4
100
AcDbPolyline
 90
        2
 70
     0
 43
0.019685
 10
0.153437
 20
-0.028055
 10
0.81063
 20
-0.146661
  0
LWPOLYLINE
  5
32F
330
1F
100
AcDbEntity
  8
LAYER_1
  6
Continuous
 62
     2
100
AcDbPolyline
 90
       12
 70
     1
 43
0.003
 10
0.868398
 20
-1.447924999999998
 10
0.858107
 20
-1.436571999999999
 10
0.843937
 20
-1.431969
 10
0.8289369999999999
 20
-1.435106
 10
0.8175839999999999
 20
-1.445396999999999
 10
0.8129799999999999
 20
-1.459567
 10
0.8161179999999998
 20
-1.474566999999999
 10
0.8264090000000001
 20
-1.48592
 10
0.8405790000000001
 20
-1.490525
 10
0.8555790000000001
 20
-1.487389999999999
 10
0.8669319999999999
 20
-1.477096999999999
 10
0.871535
 20
-1.462927
  0
LWPOLYLINE
  5
330
330
1F
100
AcDbEntity
  8
LAYER_1
  6
Continuous
 62
     2
100
AcDbPolyline
 90
       12
 70
     1
 43
0.003
 10
1.019290999999999
 20
-1.315276
 10
1.008999999999999
 20
-1.303922
 10
0.9948299999999999
 20
-1.299319
 10
0.9798309999999997
 20
-1.302456999999998
 10
0.9684779999999999
 20
-1.312748
 10
0.963874
 20
-1.326918
 10
0.967012
 20
-1.341917
 10
0.977303
 20
-1.353270999999999
 10
0.9914729999999998
 20
-1.357874999999999
 10
1.006472
 20
-1.35474
 10
1.017826
 20
-1.344446999999999
 10
1.022429
 20
-1.330277
  0
LWPOLYLINE
  5
331
330
1F
100
AcDbEntity
  8
LAYER_1
  6
Continuous
 62
     2
100
AcDbPolyline
 90
       12
 70
     1
 43
0.003
 10
0.8527049999999999
 20
-0.249063
 10
0.8424139999999999
 20
-0.23771
 10
0.8282440000000001
 20
-0.233106
 10
0.8132439999999999
 20
-0.236244
 10
0.8018909999999998
 20
-0.246535
 10
0.797288
 20
-0.260705
 10
0.800425
 20
-0.275705
 10
0.810716
 20
-0.287058
 10
0.824886
 20
-0.291662
 10
0.839886
 20
-0.288528
 10
0.8512389999999998
 20
-0.278235
 10
0.8558419999999998
 20
-0.2640639999999999
  0
LWPOLYLINE
  5
332
330
1F
100
AcDbEntity
  8
LAYER_1
  6
Continuous
 62
     2
100
AcDbPolyline
 90
       12
 70
     1
 43
0.003
 10
1.76624
 20
-0.291287
 10
1.755949
 20
-0.279934
 10
1.741779
 20
-0.275331
 10
1.726779999999999
 20
-0.278469
 10
1.715425999999999
 20
-0.288759
 10
1.710822999999999
 20
-0.30293
 10
1.713961
 20
-0.317929
 10
1.724252
 20
-0.329282
 10
1.738422
 20
-0.333887
 10
1.753420999999999
 20
-0.330752
 10
1.764774
 20
-0.320459
 10
1.769377999999998
 20
-0.306289
  0
LWPOLYLINE
  5
333
330
1F
100
AcDbEntity
  8
LAYER_1
  6
Continuous
 62
     2
100
AcDbPolyline
 90
       12
 70
     1
 43
0.003
 10
1.747597999999999
 20
-0.028551
 10
1.737308
 20
-0.017198
 10
1.723136999999999
 20
-0.012595
 10
1.708138
 20
-0.015732
 10
1.696784999999999
 20
-0.026023
 10
1.692181
 20
-0.040193
 10
1.695318999999999
 20
-0.055193
 10
1.705609999999999
 20
-0.066546
 10
1.719779999999999
 20
-0.071151
 10
1.734779999999999
 20
-0.068016
 10
1.746133
 20
-0.057723
 10
1.750736
 20
-0.043553
  0
LWPOLYLINE
  5
334
330
1F
100
AcDbEntity
  8
LAYER_1
  6
Continuous
 62
     2
100
AcDbPolyline
 90
       12
 70
     1
 43
0.003
 10
1.444641999999999
 20
-0.24437
 10
1.434350999999999
 20
-0.233017
 10
1.420180999999999
 20
-0.228414
 10
1.405180999999999
 20
-0.231551
 10
1.393828
 20
-0.241842
 10
1.389224999999999
 20
-0.2560119999999999
 10
1.392362
 20
-0.271012
 10
1.402653
 20
-0.282365
 10
1.416822999999999
 20
-0.28697
 10
1.431822999999999
 20
-0.283835
 10
1.443176
 20
-0.273542
 10
1.447779
 20
-0.259372
  0
LWPOLYLINE
  5
335
330
1F
100
AcDbEntity
  8
LAYER_1
  6
Continuous
 62
     2
100
AcDbPolyline
 90
       12
 70
     1
 43
0.003
 10
1.714972
 20
-0.06139
 10
1.704682
 20
-0.050037
 10
1.690511
 20
-0.045433
 10
1.675511999999999
 20
-0.048571
 10
1.664158999999999
 20
-0.058862
 10
1.659554999999999
 20
-0.073032
 10
1.662692999999999
 20
-0.088031
 10
1.672984
 20
-0.099385
 10
1.687154
 20
-0.103989
 10
1.702154
 20
-0.100854
 10
1.713506999999999
 20
-0.090562
 10
1.718109999999999
 20
-0.076391
  0
LWPOLYLINE
  5
336
330
1F
100
AcDbEntity
  8
LAYER_1
  6
Continuous
 62
     2
100
AcDbPolyline
 90
       12
 70
     1
 43
0.003
 10
1.761579
 20
-0.178685
 10
1.751288
 20
-0.167332
 10
1.737117999999999
 20
-0.162728
 10
1.722118
 20
-0.165866
 10
1.710765
 20
-0.176157
 10
1.706161999999999
 20
-0.190327
 10
1.709299
 20
-0.205327
 10
1.71959
 20
-0.21668
 10
1.733759999999999
 20
-0.221284
 10
1.748759999999999
 20
-0.21815
 10
1.760113
 20
-0.207857
 10
1.764715999999999
 20
-0.193686
  0
LWPOLYLINE
  5
337
330
1F
100
AcDbEntity
  8
LAYER_1
  6
Continuous
 62
     2
100
AcDbPolyline
 90
       12
 70
     1
 43
0.003
 10
1.826831
 20
-0.173992
 10
1.816539999999999
 20
-0.162639
 10
1.802369999999999
 20
-0.158036
 10
1.78737
 20
-0.161173
 10
1.776016999999999
 20
-0.171464
 10
1.771414
 20
-0.185634
 10
1.774550999999999
 20
-0.200634
 10
1.784841999999999
 20
-0.211987
 10
1.799011999999999
 20
-0.216592
 10
1.814011999999999
 20
-0.213457
 10
1.825365
 20
-0.203164
 10
1.829968
 20
-0.188994
  0
LWPOLYLINE
  5
338
330
1F
100
AcDbEntity
  8
LAYER_1
  6
Continuous
 62
     2
100
AcDbPolyline
 90
       12
 70
     1
 43
0.003
 10
1.859456999999999
 20
-0.286598
 10
1.849166
 20
-0.275245
 10
1.834995999999999
 20
-0.270642
 10
1.819995999999999
 20
-0.27378
 10
1.808643
 20
-0.28407
 10
1.80404
 20
-0.298241
 10
1.807177
 20
-0.31324
 10
1.817468
 20
-0.3245929999999999
 10
1.831638
 20
-0.329198
 10
1.846638
 20
-0.326063
 10
1.857990999999999
 20
-0.31577
 10
1.862593999999999
 20
-0.3016
  0
LWPOLYLINE
  5
339
330
1F
100
AcDbEntity
  8
LAYER_1
  6
Continuous
 62
     2
100
AcDbPolyline
 90
       12
 70
     1
 43
0.003
 10
1.724291
 20
-0.521185
 10
1.713999999999999
 20
-0.509832
 10
1.699829999999999
 20
-0.505228
 10
1.684831
 20
-0.508366
 10
1.673477999999999
 20
-0.518657
 10
1.668874
 20
-0.5328270000000001
 10
1.672011999999999
 20
-0.5478270000000001
 10
1.682302999999999
 20
-0.55918
 10
1.696472999999999
 20
-0.5637840000000001
 10
1.711472
 20
-0.56065
 10
1.722825999999999
 20
-0.550357
 10
1.727429
 20
-0.536186
  0
LWPOLYLINE
  5
33A
330
1F
100
AcDbEntity
  8
LAYER_1
  6
Continuous
 62
     2
100
AcDbPolyline
 90
       12
 70
     1
 43
0.003
 10
2.44039
 20
-0.108311
 10
2.430099
 20
-0.096958
 10
2.415929
 20
-0.092354
 10
2.400929
 20
-0.095492
 10
2.389575999999999
 20
-0.105783
 10
2.384973
 20
-0.119953
 10
2.388109999999999
 20
-0.134953
 10
2.398400999999998
 20
-0.146306
 10
2.412570999999998
 20
-0.15091
 10
2.427570999999999
 20
-0.147776
 10
2.438924
 20
-0.137483
 10
2.443527
 20
-0.123312
  0
LWPOLYLINE
  5
33B
330
1F
100
AcDbEntity
  8
LAYER_1
  6
Continuous
 62
     2
100
AcDbPolyline
 90
       12
 70
     1
 43
0.003
 10
1.906066999999999
 20
-0.511803
 10
1.895775999999998
 20
-0.50045
 10
1.881606
 20
-0.4958470000000001
 10
1.866606
 20
-0.498984
 10
1.855252999999999
 20
-0.5092750000000002
 10
1.850649999999999
 20
-0.5234449999999999
 10
1.853786999999999
 20
-0.538445
 10
1.864077999999999
 20
-0.549798
 10
1.878247999999999
 20
-0.554403
 10
1.893247999999999
 20
-0.551268
 10
1.904600999999999
 20
-0.540975
 10
1.909204999999999
 20
-0.526805
  0
LWPOLYLINE
  5
33C
330
1F
100
AcDbEntity
  8
LAYER_1
  6
Continuous
 62
     2
100
AcDbPolyline
 90
       12
 70
     1
 43
0.003
 10
1.570483999999999
 20
-0.183378
 10
1.560192999999999
 20
-0.172025
 10
1.546022999999999
 20
-0.167421
 10
1.531023999999999
 20
-0.170559
 10
1.51967
 20
-0.18085
 10
1.515066999999999
 20
-0.19502
 10
1.518205
 20
-0.21002
 10
1.528495999999999
 20
-0.221373
 10
1.542666
 20
-0.225977
 10
1.557664999999999
 20
-0.222843
 10
1.569018999999999
 20
-0.21255
 10
1.573621999999999
 20
-0.198379
  0
LWPOLYLINE
  5
33D
330
1F
100
AcDbEntity
  8
LAYER_1
  6
Continuous
 62
     2
100
AcDbPolyline
 90
       12
 70
     1
 43
0.003
 10
1.756916999999999
 20
-0.652555
 10
1.746625999999999
 20
-0.641202
 10
1.732456
 20
-0.636599
 10
1.717457
 20
-0.639736
 10
1.706104
 20
-0.6500270000000002
 10
1.7015
 20
-0.6641970000000002
 10
1.704638
 20
-0.6791970000000001
 10
1.714929
 20
-0.69055
 10
1.729099
 20
-0.695155
 10
1.744097999999999
 20
-0.69202
 10
1.755452
 20
-0.6817270000000001
 10
1.760054999999999
 20
-0.667557
  0
LWPOLYLINE
  5
33E
330
1F
100
AcDbEntity
  8
LAYER_1
  6
Continuous
 62
     2
100
AcDbPolyline
 90
       12
 70
     1
 43
0.003
 10
1.60311
 20
-0.6290939999999999
 10
1.592818999999999
 20
-0.617741
 10
1.578648999999999
 20
-0.613138
 10
1.563649999999999
 20
-0.6162760000000001
 10
1.552295999999999
 20
-0.626566
 10
1.547692999999999
 20
-0.6407370000000002
 10
1.550830999999999
 20
-0.655736
 10
1.561121999999999
 20
-0.66709
 10
1.575291999999999
 20
-0.6716940000000001
 10
1.590290999999998
 20
-0.6685590000000002
 10
1.601644999999999
 20
-0.6582660000000002
 10
1.606247999999999
 20
-0.6440960000000002
  0
LWPOLYLINE
  5
33F
330
1F
100
AcDbEntity
  8
LAYER_1
  6
Continuous
 62
     2
100
AcDbPolyline
 90
       12
 70
     1
 43
0.003
 10
1.761579
 20
0.013677
 10
1.751288
 20
0.02503
 10
1.737117999999999
 20
0.029634
 10
1.722118
 20
0.026496
 10
1.710765
 20
0.016205
 10
1.706161999999999
 20
0.002035
 10
1.709299
 20
-0.012965
 10
1.71959
 20
-0.024318
 10
1.733759999999999
 20
-0.028922
 10
1.748759999999999
 20
-0.025787
 10
1.760113
 20
-0.015495
 10
1.764715999999999
 20
-0.001324
  0
LWPOLYLINE
  5
340
330
1F
100
AcDbEntity
  8
LAYER_1
  6
Continuous
 62
     2
100
AcDbPolyline
 90
       12
 70
     1
 43
0.003
 10
1.798866
 20
-0.525874
 10
1.788574999999999
 20
-0.5145210000000002
 10
1.774404999999999
 20
-0.5099169999999999
 10
1.759406
 20
-0.5130550000000002
 10
1.748051999999999
 20
-0.523346
 10
1.743449
 20
-0.5375160000000001
 10
1.746586999999999
 20
-0.552516
 10
1.756877999999999
 20
-0.563869
 10
1.771047999999999
 20
-0.568473
 10
1.786047
 20
-0.565339
 10
1.7974
 20
-0.5550460000000001
 10
1.802004
 20
-0.540875
  0
LWPOLYLINE
  5
341
330
1F
100
AcDbEntity
  8
LAYER_1
  6
Continuous
 62
     2
100
AcDbPolyline
 90
       12
 70
     1
 43
0.003
 10
1.556499999999999
 20
-0.5399530000000002
 10
1.546208999999999
 20
-0.5286
 10
1.532038999999999
 20
-0.523996
 10
1.517039
 20
-0.5271340000000002
 10
1.505686
 20
-0.537425
 10
1.501082999999999
 20
-0.551595
 10
1.50422
 20
-0.5665939999999999
 10
1.514511
 20
-0.577948
 10
1.528681999999999
 20
-0.5825520000000001
 10
1.543680999999999
 20
-0.579417
 10
1.555034
 20
-0.5691250000000001
 10
1.559637999999999
 20
-0.554954
  0
LWPOLYLINE
  5
342
330
1F
100
AcDbEntity
  8
LAYER_1
  6
Continuous
 62
     5
100
AcDbPolyline
 90
        2
 70
     0
 43
0.019685
 10
1.795657
 20
-0.205969
 10
1.427728
 20
-0.624378
  0
LWPOLYLINE
  5
343
330
1F
100
AcDbEntity
  8
LAYER_1
  6
Continuous
 62
     1
100
AcDbPolyline
 90
        3
 70
     0
 43
0.019685
 10
2.446034999999999
 20
0.023083
 10
2.637129999999999
 20
-0.103878
 10
2.407815
 20
-0.4231970000000002
  0
LWPOLYLINE
  5
344
330
1F
100
AcDbEntity
  8
LAYER_1
  6
Continuous
 62
     1
100
AcDbPolyline
 90
        2
 70
     0
 43
0.019685
 10
2.908488
 20
-0.353949
 10
2.595091
 20
-0.807925
  0
LWPOLYLINE
  5
345
330
1F
100
AcDbEntity
  8
LAYER_1
  6
Continuous
 62
     1
100
AcDbPolyline
 90
        2
 70
     0
 43
0.019685
 10
2.583625999999999
 20
-0.6655750000000002
 10
2.820583
 20
-0.6771180000000001
  0
LWPOLYLINE
  5
346
330
1F
100
AcDbEntity
  8
LAYER_1
  6
Continuous
 62
     2
100
AcDbPolyline
 90
       12
 70
     1
 43
0.003
 10
2.581799
 20
-0.092921
 10
2.571508
 20
-0.081568
 10
2.557338
 20
-0.076965
 10
2.542339
 20
-0.080102
 10
2.530984999999998
 20
-0.090393
 10
2.526381999999999
 20
-0.104563
 10
2.52952
 20
-0.119563
 10
2.539811
 20
-0.130916
 10
2.553981
 20
-0.135521
 10
2.568979999999998
 20
-0.132386
 10
2.580332999999999
 20
-0.122093
 10
2.584937
 20
-0.107923
  0
LWPOLYLINE
  5
347
330
1F
100
AcDbEntity
  8
LAYER_1
  6
Continuous
 62
     2
100
AcDbPolyline
 90
       12
 70
     1
 43
0.003
 10
3.093936999999998
 20
-0.473799
 10
3.083645999999998
 20
-0.462446
 10
3.069475999999998
 20
-0.4578430000000001
 10
3.054475999999998
 20
-0.46098
 10
3.043123
 20
-0.471271
 10
3.03852
 20
-0.485441
 10
3.041656999999998
 20
-0.500441
 10
3.051947999999998
 20
-0.511794
 10
3.066119
 20
-0.516399
 10
3.081118
 20
-0.5132640000000001
 10
3.092470999999998
 20
-0.5029710000000001
 10
3.097074999999998
 20
-0.4888010000000002
  0
LWPOLYLINE
  5
348
330
1F
100
AcDbEntity
  8
LAYER_1
  6
Continuous
 62
     2
100
AcDbPolyline
 90
       12
 70
     1
 43
0.003
 10
3.028969
 20
-0.566134
 10
3.018677999999998
 20
-0.5547810000000001
 10
3.004506999999998
 20
-0.5501770000000002
 10
2.989508
 20
-0.553315
 10
2.978155
 20
-0.5636060000000001
 10
2.973551
 20
-0.5777760000000001
 10
2.976689
 20
-0.592776
 10
2.986979999999998
 20
-0.604129
 10
3.001149999999998
 20
-0.608733
 10
3.01615
 20
-0.605598
 10
3.027502999999998
 20
-0.595306
 10
3.032106
 20
-0.5811350000000001
  0
LWPOLYLINE
  5
349
330
1F
100
AcDbEntity
  8
LAYER_1
  6
Continuous
 62
     2
100
AcDbPolyline
 90
       12
 70
     1
 43
0.003
 10
2.730858
 20
-0.389161
 10
2.720566999999998
 20
-0.377808
 10
2.706396999999998
 20
-0.373205
 10
2.691397999999998
 20
-0.376343
 10
2.680043999999999
 20
-0.386633
 10
2.675441
 20
-0.4008040000000002
 10
2.678579
 20
-0.4158030000000001
 10
2.68887
 20
-0.427156
 10
2.70304
 20
-0.431761
 10
2.718039
 20
-0.4286260000000002
 10
2.729392999999998
 20
-0.418333
 10
2.733995999999998
 20
-0.404163
  0
LWPOLYLINE
  5
34A
330
1F
100
AcDbEntity
  8
LAYER_1
  6
Continuous
 62
     2
100
AcDbPolyline
 90
       12
 70
     1
 43
0.003
 10
2.696461
 20
-0.216031
 10
2.68617
 20
-0.204678
 10
2.671999999999999
 20
-0.200075
 10
2.657
 20
-0.203213
 10
2.645647
 20
-0.213503
 10
2.641042999999998
 20
-0.227674
 10
2.644181
 20
-0.242673
 10
2.654472
 20
-0.254027
 10
2.668641999999999
 20
-0.258631
 10
2.683641999999998
 20
-0.255496
 10
2.694995
 20
-0.245203
 10
2.699597999999998
 20
-0.231033
  0
LWPOLYLINE
  5
34B
330
1F
100
AcDbEntity
  8
LAYER_1
  6
Continuous
 62
     2
100
AcDbPolyline
 90
       12
 70
     1
 43
0.003
 10
2.665881999999998
 20
-0.393008
 10
2.655590999999998
 20
-0.381655
 10
2.641420999999998
 20
-0.377051
 10
2.626421
 20
-0.380189
 10
2.615067999999999
 20
-0.39048
 10
2.610465
 20
-0.40465
 10
2.613602
 20
-0.4196500000000001
 10
2.623892999999998
 20
-0.431003
 10
2.638063
 20
-0.435607
 10
2.653062999999999
 20
-0.4324720000000001
 10
2.664416
 20
-0.42218
 10
2.66902
 20
-0.4080090000000001
  0
LWPOLYLINE
  5
34C
330
1F
100
AcDbEntity
  8
LAYER_1
  6
Continuous
 62
     2
100
AcDbPolyline
 90
       12
 70
     1
 43
0.003
 10
2.834046999999998
 20
-0.116004
 10
2.823755999999998
 20
-0.104651
 10
2.809585999999999
 20
-0.100047
 10
2.794586999999998
 20
-0.103185
 10
2.783233
 20
-0.113476
 10
2.778629999999998
 20
-0.127646
 10
2.781768
 20
-0.142646
 10
2.792059
 20
-0.153999
 10
2.806229
 20
-0.158603
 10
2.821227999999998
 20
-0.155469
 10
2.832582
 20
-0.145176
 10
2.837184999999998
 20
-0.131005
  0
LWPOLYLINE
  5
34D
330
1F
100
AcDbEntity
  8
LAYER_1
  6
Continuous
 62
     2
100
AcDbPolyline
 90
       12
 70
     1
 43
0.003
 10
2.780539
 20
-0.050598
 10
2.770248
 20
-0.039245
 10
2.756078
 20
-0.034642
 10
2.741079
 20
-0.03778
 10
2.729725999999998
 20
-0.04807
 10
2.725122
 20
-0.062241
 10
2.728259999999998
 20
-0.07724
 10
2.738550999999998
 20
-0.088593
 10
2.752720999999998
 20
-0.093198
 10
2.76772
 20
-0.090063
 10
2.779074
 20
-0.07977
 10
2.783676999999998
 20
-0.0656
  0
LWPOLYLINE
  5
34E
330
1F
100
AcDbEntity
  8
LAYER_1
  6
Continuous
 62
     2
100
AcDbPolyline
 90
       12
 70
     1
 43
0.003
 10
2.543579
 20
-0.354531
 10
2.533288
 20
-0.343178
 10
2.519118
 20
-0.338575
 10
2.504118
 20
-0.341713
 10
2.492765
 20
-0.352003
 10
2.488161999999999
 20
-0.366174
 10
2.491299
 20
-0.381173
 10
2.50159
 20
-0.392527
 10
2.515759999999998
 20
-0.397131
 10
2.530759999999999
 20
-0.393996
 10
2.542113
 20
-0.383703
 10
2.546715999999999
 20
-0.369533
  0
LWPOLYLINE
  5
34F
330
1F
100
AcDbEntity
  8
LAYER_1
  6
Continuous
 62
     2
100
AcDbPolyline
 90
       12
 70
     1
 43
0.003
 10
2.513004
 20
-0.173713
 10
2.502712999999999
 20
-0.162359
 10
2.488542999999999
 20
-0.157756
 10
2.473542999999998
 20
-0.160894
 10
2.46219
 20
-0.171185
 10
2.457586999999999
 20
-0.185355
 10
2.460724
 20
-0.200354
 10
2.471014999999999
 20
-0.211708
 10
2.485184999999999
 20
-0.216312
 10
2.500184999999999
 20
-0.213177
 10
2.511538
 20
-0.202884
 10
2.516141999999998
 20
-0.188714
  0
LWPOLYLINE
  5
350
330
1F
100
AcDbEntity
  8
LAYER_1
  6
Continuous
 62
     2
100
AcDbPolyline
 90
       12
 70
     1
 43
0.003
 10
2.352484
 20
-0.212185
 10
2.342192999999999
 20
-0.200832
 10
2.328022999999999
 20
-0.196228
 10
2.313023999999999
 20
-0.199366
 10
2.30167
 20
-0.209657
 10
2.297066999999999
 20
-0.223827
 10
2.300205
 20
-0.238827
 10
2.310496
 20
-0.25018
 10
2.324666
 20
-0.254784
 10
2.339665
 20
-0.25165
 10
2.351018999999999
 20
-0.241357
 10
2.355622
 20
-0.227186
  0
LWPOLYLINE
  5
351
330
1F
100
AcDbEntity
  8
LAYER_1
  6
Continuous
 62
     2
100
AcDbPolyline
 90
       12
 70
     1
 43
0.003
 10
3.124515999999998
 20
-0.519965
 10
3.114224999999998
 20
-0.508611
 10
3.100054999999998
 20
-0.504008
 10
3.085055
 20
-0.507146
 10
3.073701999999998
 20
-0.5174370000000002
 10
3.069099
 20
-0.531607
 10
3.072236
 20
-0.5466060000000002
 10
3.082527
 20
-0.5579600000000001
 10
3.096697
 20
-0.5625640000000001
 10
3.111696999999998
 20
-0.5594289999999999
 10
3.12305
 20
-0.549136
 10
3.127653
 20
-0.534966
  0
LWPOLYLINE
  5
352
330
1F
100
AcDbEntity
  8
LAYER_1
  6
Continuous
 62
     2
100
AcDbPolyline
 90
       12
 70
     1
 43
0.003
 10
3.128334999999998
 20
-0.616146
 10
3.118043999999998
 20
-0.604793
 10
3.103874
 20
-0.6001890000000003
 10
3.088874
 20
-0.6033270000000001
 10
3.077520999999998
 20
-0.613618
 10
3.072916999999999
 20
-0.627788
 10
3.076054999999998
 20
-0.6427870000000002
 10
3.086345999999998
 20
-0.654141
 10
3.100515999999998
 20
-0.6587450000000002
 10
3.115515999999998
 20
-0.6556100000000002
 10
3.126868999999998
 20
-0.645317
 10
3.131472
 20
-0.631147
  0
LWPOLYLINE
  5
353
330
1F
100
AcDbEntity
  8
LAYER_1
  6
Continuous
 62
     2
100
AcDbPolyline
 90
       12
 70
     1
 43
0.003
 10
3.006034999999998
 20
-0.443024
 10
2.995744999999999
 20
-0.43167
 10
2.981574
 20
-0.427067
 10
2.966575
 20
-0.4302050000000002
 10
2.955222
 20
-0.440496
 10
2.950618
 20
-0.454666
 10
2.953756
 20
-0.4696649999999999
 10
2.964047
 20
-0.481019
 10
2.978216999999999
 20
-0.485623
 10
2.993216999999998
 20
-0.4824880000000002
 10
3.00457
 20
-0.472195
 10
3.009173
 20
-0.4580250000000002
  0
LWPOLYLINE
  5
354
330
1F
100
AcDbEntity
  8
LAYER_1
  6
Continuous
 62
     2
100
AcDbPolyline
 90
       12
 70
     1
 43
0.003
 10
2.89902
 20
-0.731567
 10
2.888729
 20
-0.720214
 10
2.874558999999998
 20
-0.7156100000000001
 10
2.859558999999998
 20
-0.7187479999999999
 10
2.848206
 20
-0.7290390000000002
 10
2.843602999999998
 20
-0.7432090000000002
 10
2.84674
 20
-0.758209
 10
2.857031
 20
-0.769562
 10
2.871200999999998
 20
-0.7741660000000002
 10
2.886200999999998
 20
-0.771031
 10
2.897553999999998
 20
-0.7607390000000001
 10
2.902156999999998
 20
-0.746568
  0
LWPOLYLINE
  5
355
330
1F
100
AcDbEntity
  8
LAYER_1
  6
Continuous
 62
     2
100
AcDbPolyline
 90
       12
 70
     1
 43
0.003
 10
1.920602
 20
-1.435618
 10
1.910311
 20
-1.424264999999999
 10
1.896141
 20
-1.419661999999999
 10
1.881141999999999
 20
-1.422798999999999
 10
1.869788999999999
 20
-1.433089999999999
 10
1.865184999999999
 20
-1.447259999999999
 10
1.868323
 20
-1.46226
 10
1.878613999999999
 20
-1.473612999999999
 10
1.892783999999999
 20
-1.478218
 10
1.907783
 20
-1.475082999999998
 10
1.919136999999999
 20
-1.464789999999999
 10
1.92374
 20
-1.450619999999999
  0
LWPOLYLINE
  5
356
330
1F
100
AcDbEntity
  8
LAYER_1
  6
Continuous
 62
     2
100
AcDbPolyline
 90
       12
 70
     1
 43
0.003
 10
2.765252
 20
-0.75465
 10
2.754961
 20
-0.743296
 10
2.740791
 20
-0.7386930000000002
 10
2.725791
 20
-0.741831
 10
2.714437999999999
 20
-0.7521220000000001
 10
2.709834999999998
 20
-0.766292
 10
2.712972
 20
-0.781291
 10
2.723263
 20
-0.7926449999999999
 10
2.737433999999998
 20
-0.797249
 10
2.752433
 20
-0.794114
 10
2.763786
 20
-0.7838210000000001
 10
2.76839
 20
-0.769651
  0
LWPOLYLINE
  5
357
330
1F
100
AcDbEntity
  8
LAYER_1
  6
Continuous
 62
     2
100
AcDbPolyline
 90
       12
 70
     1
 43
0.003
 10
2.941063
 20
-0.6507760000000001
 10
2.930772
 20
-0.6394220000000001
 10
2.916602
 20
-0.6348189999999999
 10
2.901602
 20
-0.6379570000000001
 10
2.890249
 20
-0.6482479999999999
 10
2.885645999999998
 20
-0.6624180000000001
 10
2.888783
 20
-0.6774170000000001
 10
2.899074
 20
-0.6887710000000001
 10
2.913244999999998
 20
-0.693375
 10
2.928243999999999
 20
-0.69024
 10
2.939597
 20
-0.6799470000000003
 10
2.944200999999998
 20
-0.6657770000000001
  0
LWPOLYLINE
  5
358
330
1F
100
AcDbEntity
  8
LAYER_1
  6
Continuous
 62
     2
100
AcDbPolyline
 90
       12
 70
     1
 43
0.003
 10
3.03661
 20
-0.354531
 10
3.026318999999998
 20
-0.343178
 10
3.012148999999998
 20
-0.338575
 10
2.997149999999998
 20
-0.341713
 10
2.985796
 20
-0.352003
 10
2.981193
 20
-0.366174
 10
2.984331
 20
-0.381173
 10
2.994622
 20
-0.392527
 10
3.008791999999998
 20
-0.397131
 10
3.023791
 20
-0.393996
 10
3.035144999999998
 20
-0.383703
 10
3.039747999999999
 20
-0.369533
  0
LWPOLYLINE
  5
359
330
1F
100
AcDbEntity
  8
LAYER_1
  6
Continuous
 62
     2
100
AcDbPolyline
 90
       12
 70
     1
 43
0.003
 10
2.967815
 20
-0.319906
 10
2.957524
 20
-0.308552
 10
2.943354
 20
-0.303949
 10
2.928354
 20
-0.307087
 10
2.917000999999998
 20
-0.317378
 10
2.912397999999998
 20
-0.331548
 10
2.915534999999998
 20
-0.346547
 10
2.925825999999998
 20
-0.357901
 10
2.939996999999998
 20
-0.362505
 10
2.954995999999998
 20
-0.35937
 10
2.966349
 20
-0.3490769999999999
 10
2.970952999999998
 20
-0.334907
  0
LWPOLYLINE
  5
35A
330
1F
100
AcDbEntity
  8
LAYER_1
  6
Continuous
 62
     2
100
AcDbPolyline
 90
       12
 70
     1
 43
0.003
 10
2.876091
 20
-0.277591
 10
2.8658
 20
-0.266237
 10
2.851628999999998
 20
-0.261634
 10
2.836629999999998
 20
-0.264772
 10
2.825277
 20
-0.275063
 10
2.820672999999998
 20
-0.289233
 10
2.823811
 20
-0.304232
 10
2.834102
 20
-0.315586
 10
2.848272
 20
-0.32019
 10
2.863272
 20
-0.317055
 10
2.874624999999998
 20
-0.306762
 10
2.879227999999999
 20
-0.292592
  0
LWPOLYLINE
  5
35B
330
1F
100
AcDbEntity
  8
LAYER_1
  6
Continuous
 62
     2
100
AcDbPolyline
 90
       12
 70
     1
 43
0.003
 10
2.050551
 20
-0.4930350000000001
 10
2.040259999999999
 20
-0.481682
 10
2.026089999999999
 20
-0.477079
 10
2.011090999999999
 20
-0.4802170000000002
 10
1.999736999999999
 20
-0.490507
 10
1.995134
 20
-0.504678
 10
1.998272
 20
-0.5196770000000001
 10
2.008563
 20
-0.53103
 10
2.022733
 20
-0.5356350000000001
 10
2.037732
 20
-0.5325
 10
2.049084999999998
 20
-0.522207
 10
2.053688999999998
 20
-0.508037
  0
LWPOLYLINE
  5
35C
330
1F
100
AcDbEntity
  8
LAYER_1
  6
Continuous
 62
     2
100
AcDbPolyline
 90
       12
 70
     1
 43
0.003
 10
3.006034999999998
 20
-0.581524
 10
2.995744999999999
 20
-0.57017
 10
2.981574
 20
-0.5655670000000002
 10
2.966575
 20
-0.5687050000000001
 10
2.955222
 20
-0.578996
 10
2.950618
 20
-0.593166
 10
2.953756
 20
-0.608165
 10
2.964047
 20
-0.619519
 10
2.978216999999999
 20
-0.624123
 10
2.993216999999998
 20
-0.620988
 10
3.00457
 20
-0.610695
 10
3.009173
 20
-0.596525
  0
LWPOLYLINE
  5
35D
330
1F
100
AcDbEntity
  8
LAYER_1
  6
Continuous
 62
     2
100
AcDbPolyline
 90
       12
 70
     1
 43
0.003
 10
3.174196999999998
 20
-0.58537
 10
3.163906
 20
-0.574017
 10
3.149735999999998
 20
-0.5694140000000001
 10
3.134736
 20
-0.572551
 10
3.123383
 20
-0.582842
 10
3.11878
 20
-0.597012
 10
3.121916999999998
 20
-0.612012
 10
3.132208
 20
-0.6233649999999999
 10
3.146377999999999
 20
-0.62797
 10
3.161378
 20
-0.6248350000000002
 10
3.172731
 20
-0.6145420000000002
 10
3.177334
 20
-0.6003720000000002
  0
LWPOLYLINE
  5
35E
330
1F
100
AcDbEntity
  8
LAYER_1
  6
Continuous
 62
     7
100
AcDbPolyline
 90
        6
 70
     1
 43
0.01185
 10
1.679597999999999
 20
0.219575
 10
1.403299
 20
0.087831
 10
1.472374
 20
-0.043913
 10
1.196079
 20
-0.175661
 10
1.526909
 20
-0.8051059999999999
 10
2.075865999999999
 20
-0.512343
  0
LWPOLYLINE
  5
35F
330
1F
100
AcDbEntity
  8
LAYER_1
  6
Continuous
 62
     2
100
AcDbPolyline
 90
       12
 70
     1
 43
0.003
 10
2.711743999999998
 20
-0.7854290000000002
 10
2.701452999999998
 20
-0.774076
 10
2.687283
 20
-0.769473
 10
2.672283
 20
-0.7726100000000002
 10
2.66093
 20
-0.7829010000000001
 10
2.656327
 20
-0.797071
 10
2.659464999999999
 20
-0.8120709999999997
 10
2.669754999999998
 20
-0.8234239999999999
 10
2.683926
 20
-0.828029
 10
2.698925
 20
-0.8248940000000001
 10
2.710277999999998
 20
-0.814601
 10
2.714881999999998
 20
-0.800431
  0
LWPOLYLINE
  5
360
330
1F
100
AcDbEntity
  8
LAYER_1
  6
Continuous
 62
     2
100
AcDbPolyline
 90
       12
 70
     1
 43
0.003
 10
1.867093999999999
 20
-1.0355
 10
1.856804
 20
-1.024146999999999
 10
1.842633
 20
-1.019543
 10
1.827633999999999
 20
-1.022680999999999
 10
1.816281
 20
-1.032972
 10
1.811676999999999
 20
-1.047142
 10
1.814815
 20
-1.062141999999999
 10
1.825106
 20
-1.073495
 10
1.839275999999999
 20
-1.078098999999999
 10
1.854275999999999
 20
-1.074964999999999
 10
1.865629
 20
-1.064671999999998
 10
1.870231999999998
 20
-1.050501
  0
LWPOLYLINE
  5
361
330
1F
100
AcDbEntity
  8
LAYER_1
  6
Continuous
 62
     2
100
AcDbPolyline
 90
       12
 70
     1
 43
0.003
 10
2.302795
 20
-1.689534999999999
 10
2.292504
 20
-1.678182
 10
2.278334
 20
-1.673579
 10
2.263334999999999
 20
-1.676716999999999
 10
2.251981
 20
-1.687006999999999
 10
2.247377999999998
 20
-1.701177999999999
 10
2.250516
 20
-1.716177
 10
2.260806999999998
 20
-1.727529999999999
 10
2.274977
 20
-1.732134999999999
 10
2.289975999999998
 20
-1.729
 10
2.30133
 20
-1.718707
 10
2.305933
 20
-1.704537
  0
LWPOLYLINE
  5
362
330
1F
100
AcDbEntity
  8
LAYER_1
  6
Continuous
 62
     2
100
AcDbPolyline
 90
       12
 70
     1
 43
0.003
 10
1.947358
 20
-1.958843
 10
1.937066999999999
 20
-1.947489
 10
1.922897
 20
-1.942886
 10
1.907897999999999
 20
-1.946024
 10
1.896543999999999
 20
-1.956315
 10
1.891941
 20
-1.970484999999999
 10
1.895079
 20
-1.985483999999999
 10
1.905369999999999
 20
-1.996838
 10
1.91954
 20
-2.001441999999999
 10
1.934539
 20
-1.998307
 10
1.945893
 20
-1.988013999999999
 10
1.950496
 20
-1.973843999999998
  0
LWPOLYLINE
  5
363
330
1F
100
AcDbEntity
  8
LAYER_1
  6
Continuous
 62
     2
100
AcDbPolyline
 90
       12
 70
     1
 43
0.003
 10
2.237823
 20
-1.697232
 10
2.227532
 20
-1.685879
 10
2.213362
 20
-1.681275999999999
 10
2.198361999999999
 20
-1.684413
 10
2.187009
 20
-1.694703999999999
 10
2.182406
 20
-1.708874
 10
2.185543
 20
-1.723874
 10
2.195834
 20
-1.735227
 10
2.210004
 20
-1.739832
 10
2.225004
 20
-1.736697
 10
2.236356999999999
 20
-1.726404
 10
2.240959999999998
 20
-1.712234
  0
LWPOLYLINE
  5
364
330
1F
100
AcDbEntity
  8
LAYER_1
  6
Continuous
 62
     2
100
AcDbPolyline
 90
       12
 70
     1
 43
0.003
 10
1.681331
 20
-1.653299
 10
1.67104
 20
-1.641945999999999
 10
1.65687
 20
-1.637342999999999
 10
1.64187
 20
-1.640479999999999
 10
1.630517
 20
-1.650770999999999
 10
1.625913999999999
 20
-1.664940999999999
 10
1.629051
 20
-1.679940999999999
 10
1.639341999999999
 20
-1.691293999999999
 10
1.653511999999999
 20
-1.695899
 10
1.668511999999999
 20
-1.692763999999999
 10
1.679865
 20
-1.682470999999999
 10
1.684468
 20
-1.668300999999999
  0
LWPOLYLINE
  5
365
330
1F
100
AcDbEntity
  8
LAYER_1
  6
Continuous
 62
     2
100
AcDbPolyline
 90
       12
 70
     1
 43
0.003
 10
2.230180999999999
 20
-1.547188999999999
 10
2.21989
 20
-1.535835999999999
 10
2.205719999999999
 20
-1.531231999999999
 10
2.19072
 20
-1.53437
 10
2.179366999999999
 20
-1.544661
 10
2.174764
 20
-1.558830999999999
 10
2.177902
 20
-1.573831
 10
2.188191999999999
 20
-1.585183999999999
 10
2.202363
 20
-1.589787999999999
 10
2.217362
 20
-1.586654
 10
2.228715
 20
-1.576361
 10
2.233318999999998
 20
-1.56219
  0
LWPOLYLINE
  5
366
330
1F
100
AcDbEntity
  8
LAYER_1
  6
Continuous
 62
     2
100
AcDbPolyline
 90
       12
 70
     1
 43
0.003
 10
1.813590999999999
 20
-1.062429
 10
1.803299999999999
 20
-1.051076
 10
1.789129
 20
-1.046472999999998
 10
1.774129999999999
 20
-1.049609999999999
 10
1.762776999999999
 20
-1.059900999999998
 10
1.758173
 20
-1.074070999999998
 10
1.761311
 20
-1.089070999999999
 10
1.771602
 20
-1.100424
 10
1.785772
 20
-1.105029
 10
1.800772
 20
-1.101894
 10
1.812124999999999
 20
-1.091601
 10
1.816727999999999
 20
-1.077431
  0
LWPOLYLINE
  5
367
330
1F
100
AcDbEntity
  8
LAYER_1
  6
Continuous
 62
     2
100
AcDbPolyline
 90
       12
 70
     1
 43
0.003
 10
1.611028
 20
-1.170154
 10
1.600737
 20
-1.1588
 10
1.586565999999999
 20
-1.154196999999999
 10
1.571566999999999
 20
-1.157335
 10
1.560214
 20
-1.167626
 10
1.555609999999999
 20
-1.181795999999998
 10
1.558748
 20
-1.196795
 10
1.569038999999999
 20
-1.208148999999999
 10
1.583209
 20
-1.212752999999998
 10
1.598208999999999
 20
-1.209618
 10
1.609562
 20
-1.199324999999998
 10
1.614165
 20
-1.185154999999998
  0
LWPOLYLINE
  5
368
330
1F
100
AcDbEntity
  8
LAYER_1
  6
Continuous
 62
     2
100
AcDbPolyline
 90
       12
 70
     1
 43
0.003
 10
1.935893999999999
 20
-1.047042999999999
 10
1.925602999999999
 20
-1.035689999999998
 10
1.911433
 20
-1.031087
 10
1.896433
 20
-1.034224
 10
1.885079999999999
 20
-1.044514999999998
 10
1.880476999999999
 20
-1.058685
 10
1.883613999999998
 20
-1.073685
 10
1.893904999999999
 20
-1.085037999999999
 10
1.908075
 20
-1.089643
 10
1.923075
 20
-1.086508
 10
1.934427999999999
 20
-1.076214999999999
 10
1.939031
 20
-1.062045
  0
LWPOLYLINE
  5
369
330
1F
100
AcDbEntity
  8
LAYER_1
  6
Continuous
 62
     2
100
AcDbPolyline
 90
       12
 70
     1
 43
0.003
 10
2.077302999999999
 20
-1.274030999999999
 10
2.067012
 20
-1.262677999999998
 10
2.052841999999999
 20
-1.258075
 10
2.037843
 20
-1.261212999999999
 10
2.026488999999999
 20
-1.271503
 10
2.021885999999998
 20
-1.285673999999998
 10
2.025024
 20
-1.300672999999998
 10
2.035315
 20
-1.312027
 10
2.049484999999998
 20
-1.316630999999998
 10
2.064484
 20
-1.313495999999998
 10
2.075836999999999
 20
-1.303203
 10
2.080440999999999
 20
-1.289033
  0
LWPOLYLINE
  5
36A
330
1F
100
AcDbEntity
  8
LAYER_1
  6
Continuous
 62
     2
100
AcDbPolyline
 90
       12
 70
     1
 43
0.003
 10
2.008507999999999
 20
-1.36252
 10
1.998216999999998
 20
-1.351167
 10
1.984047
 20
-1.346562999999999
 10
1.969047
 20
-1.349701
 10
1.957693999999999
 20
-1.359992
 10
1.953090999999998
 20
-1.374162
 10
1.956227999999999
 20
-1.389161
 10
1.966518999999999
 20
-1.400514999999999
 10
1.980688999999999
 20
-1.405119
 10
1.995689
 20
-1.401984
 10
2.007041999999999
 20
-1.391691
 10
2.011645999999998
 20
-1.377520999999999
  0
LWPOLYLINE
  5
36B
330
1F
100
AcDbEntity
  8
LAYER_1
  6
Continuous
 62
     2
100
AcDbPolyline
 90
       12
 70
     1
 43
0.003
 10
1.989402
 20
-1.408685
 10
1.979110999999999
 20
-1.397332
 10
1.964940999999999
 20
-1.392727999999999
 10
1.949940999999999
 20
-1.395866
 10
1.938588
 20
-1.406156999999999
 10
1.933983999999998
 20
-1.420327
 10
1.937122
 20
-1.435327
 10
1.947413
 20
-1.446679999999999
 10
1.961583
 20
-1.451284
 10
1.976583
 20
-1.44815
 10
1.987936
 20
-1.437856999999999
 10
1.992538999999999
 20
-1.423686
  0
LWPOLYLINE
  5
36C
330
1F
100
AcDbEntity
  8
LAYER_1
  6
Continuous
 62
     2
100
AcDbPolyline
 90
       12
 70
     1
 43
0.003
 10
1.878563
 20
-1.762634
 10
1.868272
 20
-1.751281
 10
1.854102
 20
-1.746677
 10
1.839102
 20
-1.749815
 10
1.827749
 20
-1.760106
 10
1.823145999999999
 20
-1.774275999999999
 10
1.826283
 20
-1.789275999999999
 10
1.836574
 20
-1.800628999999999
 10
1.850745
 20
-1.805233
 10
1.865743999999999
 20
-1.802097999999999
 10
1.877097
 20
-1.791806
 10
1.881700999999999
 20
-1.777634999999999
  0
LWPOLYLINE
  5
36D
330
1F
100
AcDbEntity
  8
LAYER_1
  6
Continuous
 62
     2
100
AcDbPolyline
 90
       12
 70
     1
 43
0.003
 10
1.901495999999999
 20
-1.666449
 10
1.891205
 20
-1.655095999999999
 10
1.877034999999999
 20
-1.650491999999999
 10
1.862034999999998
 20
-1.653629999999999
 10
1.850681999999999
 20
-1.663921
 10
1.846078999999999
 20
-1.678091
 10
1.849216999999999
 20
-1.693090999999999
 10
1.859506999999999
 20
-1.704443999999999
 10
1.873677999999999
 20
-1.709047999999999
 10
1.888676999999999
 20
-1.705912999999999
 10
1.900029999999999
 20
-1.695620999999999
 10
1.904633999999999
 20
-1.681449999999999
  0
LWPOLYLINE
  5
36E
330
1F
100
AcDbEntity
  8
LAYER_1
  6
Continuous
 62
     2
100
AcDbPolyline
 90
       12
 70
     1
 43
0.003
 10
1.928247999999999
 20
-1.366365999999999
 10
1.917956999999999
 20
-1.355013
 10
1.903786999999999
 20
-1.35041
 10
1.888786999999999
 20
-1.353546999999999
 10
1.877434
 20
-1.363837999999998
 10
1.872831
 20
-1.378007999999999
 10
1.875968999999999
 20
-1.393008
 10
1.886258999999999
 20
-1.404360999999999
 10
1.900429999999999
 20
-1.408965999999999
 10
1.915428999999999
 20
-1.405831
 10
1.926782
 20
-1.395537999999999
 10
1.931386
 20
-1.381367999999999
  0
LWPOLYLINE
  5
36F
330
1F
100
AcDbEntity
  8
LAYER_1
  6
Continuous
 62
     5
100
AcDbPolyline
 90
        3
 70
     0
 43
0.019685
 10
2.099453
 20
-1.275598
 10
1.914882
 20
-1.523327
 10
1.702345999999999
 20
-1.810465
  0
LWPOLYLINE
  5
370
330
1F
100
AcDbEntity
  8
LAYER_1
  6
Continuous
 62
     7
100
AcDbPolyline
 90
        4
 70
     1
 43
0.01185
 10
1.391236
 20
-1.230495999999998
 10
1.828224
 20
-2.055684999999999
 10
2.376854
 20
-1.766709
 10
1.936676999999999
 20
-0.9447319999999999
  0
LWPOLYLINE
  5
371
330
1F
100
AcDbEntity
  8
LAYER_1
  6
Continuous
 62
     2
100
AcDbPolyline
 90
       12
 70
     1
 43
0.003
 10
0.6867830000000002
 20
-1.700004
 10
0.676493
 20
-1.688650999999999
 10
0.6623220000000001
 20
-1.684047
 10
0.647323
 20
-1.687184999999999
 10
0.6359700000000002
 20
-1.697475999999999
 10
0.631366
 20
-1.711646
 10
0.634504
 20
-1.726645999999998
 10
0.6447950000000002
 20
-1.737999
 10
0.6589649999999999
 20
-1.742602999999999
 10
0.673965
 20
-1.739468999999998
 10
0.685318
 20
-1.729175999999999
 10
0.689921
 20
-1.715004999999998
  0
LWPOLYLINE
  5
372
330
1F
100
AcDbEntity
  8
LAYER_1
  6
Continuous
 62
     2
100
AcDbPolyline
 90
       12
 70
     1
 43
0.003
 10
1.374732
 20
-1.873125999999999
 10
1.364441
 20
-1.861772999999999
 10
1.350270999999999
 20
-1.857168999999999
 10
1.335272
 20
-1.860306999999999
 10
1.323917999999999
 20
-1.870598
 10
1.319315
 20
-1.884768
 10
1.322453
 20
-1.899768
 10
1.332744
 20
-1.911120999999999
 10
1.346913999999999
 20
-1.915724999999999
 10
1.361912999999999
 20
-1.912590999999999
 10
1.373267
 20
-1.902298
 10
1.37787
 20
-1.888127
  0
LWPOLYLINE
  5
373
330
1F
100
AcDbEntity
  8
LAYER_1
  6
Continuous
 62
     2
100
AcDbPolyline
 90
       12
 70
     1
 43
0.003
 10
1.137776
 20
-1.549957
 10
1.127485
 20
-1.538604
 10
1.113315
 20
-1.533999999999999
 10
1.098314999999999
 20
-1.537137999999998
 10
1.086961999999998
 20
-1.547429
 10
1.082357999999999
 20
-1.561599
 10
1.085496
 20
-1.576597999999999
 10
1.095787
 20
-1.587952
 10
1.109956999999998
 20
-1.592555999999999
 10
1.124956999999998
 20
-1.589420999999999
 10
1.136309999999999
 20
-1.579128
 10
1.140912999999998
 20
-1.564958
  0
LWPOLYLINE
  5
374
330
1F
100
AcDbEntity
  8
LAYER_1
  6
Continuous
 62
     2
100
AcDbPolyline
 90
       12
 70
     1
 43
0.003
 10
0.7020710000000002
 20
-1.361440999999999
 10
0.6917800000000001
 20
-1.350087999999999
 10
0.6776100000000001
 20
-1.345484
 10
0.66261
 20
-1.348621999999999
 10
0.6512570000000001
 20
-1.358912999999999
 10
0.646654
 20
-1.373083
 10
0.649791
 20
-1.388082999999999
 10
0.660082
 20
-1.399436
 10
0.6742520000000001
 20
-1.404039999999999
 10
0.6892520000000001
 20
-1.400905999999999
 10
0.700605
 20
-1.390612999999999
 10
0.705209
 20
-1.376441999999999
  0
LWPOLYLINE
  5
375
330
1F
100
AcDbEntity
  8
LAYER_1
  6
Continuous
 62
     2
100
AcDbPolyline
 90
       12
 70
     1
 43
0.003
 10
0.854953
 20
-1.507637999999999
 10
0.8446620000000001
 20
-1.496285
 10
0.8304919999999999
 20
-1.491680999999999
 10
0.815492
 20
-1.494819
 10
0.8041389999999999
 20
-1.505109999999999
 10
0.7995359999999999
 20
-1.51928
 10
0.802673
 20
-1.534279999999999
 10
0.812964
 20
-1.545633
 10
0.827134
 20
-1.550237
 10
0.842134
 20
-1.547101999999999
 10
0.8534870000000001
 20
-1.53681
 10
0.8580899999999999
 20
-1.522638999999999
  0
LWPOLYLINE
  5
376
330
1F
100
AcDbEntity
  8
LAYER_1
  6
Continuous
 62
     2
100
AcDbPolyline
 90
       12
 70
     1
 43
0.003
 10
0.8129089999999997
 20
-1.961613999999999
 10
0.8026189999999997
 20
-1.950261
 10
0.7884479999999999
 20
-1.945658
 10
0.773449
 20
-1.948795
 10
0.7620960000000001
 20
-1.959086
 10
0.7574920000000001
 20
-1.973256
 10
0.76063
 20
-1.988255999999999
 10
0.770921
 20
-1.999608999999999
 10
0.785091
 20
-2.004214
 10
0.8000909999999999
 20
-2.001079
 10
0.811444
 20
-1.990786
 10
0.816047
 20
-1.976615999999999
  0
LWPOLYLINE
  5
377
330
1F
100
AcDbEntity
  8
LAYER_1
  6
Continuous
 62
     2
100
AcDbPolyline
 90
       12
 70
     1
 43
0.003
 10
0.8931690000000001
 20
-1.196012
 10
0.882878
 20
-1.184658999999999
 10
0.8687079999999999
 20
-1.180054999999998
 10
0.853709
 20
-1.183192999999999
 10
0.8423549999999998
 20
-1.193483999999998
 10
0.837752
 20
-1.207654
 10
0.8408899999999999
 20
-1.222654
 10
0.851181
 20
-1.234007
 10
0.865351
 20
-1.238611
 10
0.8803499999999997
 20
-1.235476
 10
0.891704
 20
-1.225184
 10
0.896307
 20
-1.211012999999999
  0
LWPOLYLINE
  5
378
330
1F
100
AcDbEntity
  8
LAYER_1
  6
Continuous
 62
     2
100
AcDbPolyline
 90
       12
 70
     1
 43
0.003
 10
1.141593999999998
 20
-1.665374
 10
1.131304
 20
-1.654021
 10
1.117132999999999
 20
-1.649416999999998
 10
1.102133999999999
 20
-1.652554999999999
 10
1.090780999999998
 20
-1.662845999999999
 10
1.086176999999999
 20
-1.677016
 10
1.089315
 20
-1.692015999999999
 10
1.099605999999998
 20
-1.703368999999999
 10
1.113776
 20
-1.707972999999999
 10
1.128776
 20
-1.704838999999999
 10
1.140129
 20
-1.694545999999998
 10
1.144731999999998
 20
-1.680374999999999
  0
LWPOLYLINE
  5
379
330
1F
100
AcDbEntity
  8
LAYER_1
  6
Continuous
 62
     2
100
AcDbPolyline
 90
       12
 70
     1
 43
0.003
 10
0.7899760000000002
 20
-1.349901999999999
 10
0.7796850000000001
 20
-1.338547999999998
 10
0.7655149999999999
 20
-1.333945
 10
0.750516
 20
-1.337083
 10
0.7391630000000001
 20
-1.347374
 10
0.734559
 20
-1.361544
 10
0.737697
 20
-1.376543
 10
0.747988
 20
-1.387896999999999
 10
0.762158
 20
-1.392500999999999
 10
0.777157
 20
-1.389365999999999
 10
0.788511
 20
-1.379072999999999
 10
0.793114
 20
-1.364902999999999
  0
LWPOLYLINE
  5
37A
330
1F
100
AcDbEntity
  8
LAYER_1
  6
Continuous
 62
     2
100
AcDbPolyline
 90
       12
 70
     1
 43
0.003
 10
0.996362
 20
-1.169078999999998
 10
0.986071
 20
-1.157726
 10
0.971901
 20
-1.153121999999998
 10
0.956902
 20
-1.15626
 10
0.9455480000000001
 20
-1.166551
 10
0.9409449999999999
 20
-1.180720999999999
 10
0.944083
 20
-1.19572
 10
0.9543739999999999
 20
-1.207073999999998
 10
0.9685439999999999
 20
-1.211678
 10
0.983543
 20
-1.208542999999999
 10
0.9948959999999999
 20
-1.198250999999999
 10
0.9995
 20
-1.18408
  0
LWPOLYLINE
  5
37B
330
1F
100
AcDbEntity
  8
LAYER_1
  6
Continuous
 62
     2
100
AcDbPolyline
 90
       12
 70
     1
 43
0.003
 10
0.961965
 20
-1.188315
 10
0.951674
 20
-1.176962
 10
0.937503
 20
-1.172358
 10
0.9225039999999999
 20
-1.175495999999998
 10
0.911151
 20
-1.185787
 10
0.9065469999999999
 20
-1.199956999999999
 10
0.9096849999999999
 20
-1.214957
 10
0.9199759999999999
 20
-1.22631
 10
0.9341459999999999
 20
-1.230913999999998
 10
0.949146
 20
-1.227779999999998
 10
0.960499
 20
-1.217486999999998
 10
0.965102
 20
-1.203316
  0
LWPOLYLINE
  5
37C
330
1F
100
AcDbEntity
  8
LAYER_1
  6
Continuous
 62
     7
100
AcDbPolyline
 90
        4
 70
     1
 43
0.01185
 10
0.9606259999999997
 20
-1.105275999999999
 10
0.405618
 20
-1.397461
 10
0.845795
 20
-2.232279999999998
 10
1.397613999999999
 20
-1.927252
  0
LWPOLYLINE
  5
37D
330
1F
100
AcDbEntity
  8
LAYER_1
  6
Continuous
 62
     2
100
AcDbPolyline
 90
       12
 70
     1
 43
0.003
 10
2.54389
 20
2.635826999999999
 10
2.533599
 20
2.64718
 10
2.519429
 20
2.651783
 10
2.504429
 20
2.648645999999998
 10
2.493075999999998
 20
2.638354999999998
 10
2.488472999999999
 20
2.624184999999999
 10
2.491609999999999
 20
2.609184999999999
 10
2.501900999999999
 20
2.597831999999999
 10
2.516070999999999
 20
2.593227
 10
2.531070999999998
 20
2.596362
 10
2.542424
 20
2.606654999999999
 10
2.547026999999999
 20
2.620824999999999
  0
LWPOLYLINE
  5
37E
330
1F
100
AcDbEntity
  8
LAYER_1
  6
Continuous
 62
     2
100
AcDbPolyline
 90
       12
 70
     1
 43
0.003
 10
3.022098
 20
2.855122
 10
3.011808
 20
2.866474999999999
 10
2.997637
 20
2.871078999999998
 10
2.982638
 20
2.867941
 10
2.971284999999998
 20
2.857649999999998
 10
2.966681
 20
2.843479999999998
 10
2.969818999999998
 20
2.828479999999998
 10
2.980109999999998
 20
2.817127
 10
2.994279999999998
 20
2.812523
 10
3.009279999999998
 20
2.815656999999998
 10
3.020633
 20
2.82595
 10
3.025236
 20
2.840120999999999
  0
LWPOLYLINE
  5
37F
330
1F
100
AcDbEntity
  8
LAYER_1
  6
Continuous
 62
     2
100
AcDbPolyline
 90
       12
 70
     1
 43
0.003
 10
3.138996
 20
2.828374
 10
3.128705
 20
2.839726999999999
 10
3.114535
 20
2.844331
 10
3.099534999999998
 20
2.841193
 10
3.088181999999998
 20
2.830902
 10
3.083579
 20
2.816732
 10
3.086716999999998
 20
2.801731999999999
 10
3.097007
 20
2.790379
 10
3.111177999999998
 20
2.785775
 10
3.126177
 20
2.788908999999998
 10
3.137529999999998
 20
2.799202
 10
3.142133999999998
 20
2.813372999999998
  0
LWPOLYLINE
  5
380
330
1F
100
AcDbEntity
  8
LAYER_1
  6
Continuous
 62
     2
100
AcDbPolyline
 90
       12
 70
     1
 43
0.003
 10
2.974279999999998
 20
3.122550999999998
 10
2.963988999999998
 20
3.133904
 10
2.949818
 20
3.138508
 10
2.934819
 20
3.135369999999998
 10
2.923465999999999
 20
3.125078999999998
 10
2.918861999999998
 20
3.110908999999998
 10
2.921999999999999
 20
3.095908999999998
 10
2.932291
 20
3.084556
 10
2.946461
 20
3.079952
 10
2.961460999999999
 20
3.083086999999999
 10
2.972813999999998
 20
3.093379
 10
2.977416999999998
 20
3.107549999999998
  0
LWPOLYLINE
  5
381
330
1F
100
AcDbEntity
  8
LAYER_1
  6
Continuous
 62
     2
100
AcDbPolyline
 90
       12
 70
     1
 43
0.003
 10
2.26228
 20
3.464866
 10
2.251989
 20
3.476219
 10
2.237817999999998
 20
3.480823
 10
2.222818999999998
 20
3.477684999999998
 10
2.211466
 20
3.467394
 10
2.206862
 20
3.453223999999998
 10
2.209999999999999
 20
3.438223999999998
 10
2.220291
 20
3.426870999999998
 10
2.234461
 20
3.422266999999998
 10
2.249461
 20
3.425401999999998
 10
2.260813999999998
 20
3.435694
 10
2.265416999999998
 20
3.449864999999998
  0
LWPOLYLINE
  5
382
330
1F
100
AcDbEntity
  8
LAYER_1
  6
Continuous
 62
     2
100
AcDbPolyline
 90
       12
 70
     1
 43
0.003
 10
2.198516
 20
3.299058999999998
 10
2.188225
 20
3.310412
 10
2.174055
 20
3.315016
 10
2.159054999999999
 20
3.311878
 10
2.147702
 20
3.301587
 10
2.143099
 20
3.287417
 10
2.146236
 20
3.272416999999999
 10
2.156527
 20
3.261063999999998
 10
2.170697
 20
3.256459999999998
 10
2.185697
 20
3.259593999999998
 10
2.197049999999999
 20
3.269886999999998
 10
2.201652999999998
 20
3.284058
  0
LWPOLYLINE
  5
383
330
1F
100
AcDbEntity
  8
LAYER_1
  6
Continuous
 62
     2
100
AcDbPolyline
 90
       12
 70
     1
 43
0.003
 10
2.798933
 20
2.65722
 10
2.788641999999998
 20
2.668574
 10
2.774472
 20
2.673176999999999
 10
2.759472
 20
2.670039
 10
2.748118999999998
 20
2.659748
 10
2.743516
 20
2.645577999999999
 10
2.746653999999998
 20
2.630579
 10
2.756943999999998
 20
2.619225
 10
2.771114999999998
 20
2.614621
 10
2.786113999999998
 20
2.617755999999999
 10
2.797466999999998
 20
2.628049
 10
2.802070999999998
 20
2.642218999999998
  0
LWPOLYLINE
  5
384
330
1F
100
AcDbEntity
  8
LAYER_1
  6
Continuous
 62
     2
100
AcDbPolyline
 90
       12
 70
     1
 43
0.003
 10
2.804247999999999
 20
2.903256
 10
2.793956999999998
 20
2.914609
 10
2.779786999999998
 20
2.919211999999999
 10
2.764787
 20
2.916075
 10
2.753433999999998
 20
2.905784
 10
2.748831
 20
2.891614
 10
2.751968999999998
 20
2.876614
 10
2.762258999999998
 20
2.865261
 10
2.776429999999998
 20
2.860656
 10
2.791428999999998
 20
2.863790999999998
 10
2.802782
 20
2.874083999999998
 10
2.807386
 20
2.888253999999998
  0
LWPOLYLINE
  5
385
330
1F
100
AcDbEntity
  8
LAYER_1
  6
Continuous
 62
     2
100
AcDbPolyline
 90
       12
 70
     1
 43
0.003
 10
2.496067
 20
2.828377999999998
 10
2.485775999999999
 20
2.839731
 10
2.471605999999999
 20
2.844333999999999
 10
2.456606
 20
2.841197
 10
2.445252999999999
 20
2.830906
 10
2.44065
 20
2.816736
 10
2.443786999999999
 20
2.801736
 10
2.454077999999999
 20
2.790383
 10
2.468247999999999
 20
2.785779
 10
2.483248
 20
2.788912999999998
 10
2.494600999999998
 20
2.799206
 10
2.499204999999999
 20
2.813375999999998
  0
LWPOLYLINE
  5
386
330
1F
100
AcDbEntity
  8
LAYER_1
  6
Continuous
 62
     2
100
AcDbPolyline
 90
       12
 70
     1
 43
0.003
 10
2.26228
 20
2.641172999999999
 10
2.251989
 20
2.652525999999999
 10
2.237817999999998
 20
2.657129999999999
 10
2.222818999999998
 20
2.653991999999999
 10
2.211466
 20
2.643700999999999
 10
2.206862
 20
2.629531
 10
2.209999999999999
 20
2.614530999999999
 10
2.220291
 20
2.603177999999999
 10
2.234461
 20
2.598574
 10
2.249461
 20
2.601709
 10
2.260813999999998
 20
2.612000999999998
 10
2.265416999999998
 20
2.626171999999999
  0
LWPOLYLINE
  5
387
330
1F
100
AcDbEntity
  8
LAYER_1
  6
Continuous
 62
     2
100
AcDbPolyline
 90
       12
 70
     1
 43
0.003
 10
2.304786999999999
 20
2.689315
 10
2.294497
 20
2.700667999999998
 10
2.280325999999999
 20
2.705271999999999
 10
2.265327
 20
2.702134
 10
2.253974
 20
2.691842999999998
 10
2.249369999999998
 20
2.677672999999999
 10
2.252508
 20
2.662672999999998
 10
2.262799
 20
2.65132
 10
2.276968999999998
 20
2.646716
 10
2.291968999999999
 20
2.649849999999998
 10
2.303322
 20
2.660143
 10
2.307925
 20
2.674313999999998
  0
LWPOLYLINE
  5
388
330
1F
100
AcDbEntity
  8
LAYER_1
  6
Continuous
 62
     2
100
AcDbPolyline
 90
       12
 70
     1
 43
0.003
 10
2.692665
 20
2.721405999999998
 10
2.682374
 20
2.732759
 10
2.668204
 20
2.737362
 10
2.653204999999998
 20
2.734224
 10
2.641852
 20
2.723933999999998
 10
2.637248
 20
2.709763
 10
2.640385999999999
 20
2.694764
 10
2.650676999999999
 20
2.683409999999998
 10
2.664846999999999
 20
2.678806
 10
2.679845999999999
 20
2.681941
 10
2.691199999999998
 20
2.692234
 10
2.695802999999998
 20
2.706404
  0
LWPOLYLINE
  5
389
330
1F
100
AcDbEntity
  8
LAYER_1
  6
Continuous
 62
     2
100
AcDbPolyline
 90
       12
 70
     1
 43
0.003
 10
3.186811
 20
2.705358
 10
3.17652
 20
2.716711
 10
3.162349999999998
 20
2.721315
 10
3.147349999999998
 20
2.718176999999998
 10
3.135997
 20
2.707886
 10
3.131393999999998
 20
2.693715999999998
 10
3.134530999999998
 20
2.678716999999998
 10
3.144822
 20
2.667362999999999
 10
3.158993
 20
2.662758999999998
 10
3.173991999999998
 20
2.665893999999999
 10
3.185344999999998
 20
2.676185999999999
 10
3.189949
 20
2.690357
  0
LWPOLYLINE
  5
38A
330
1F
100
AcDbEntity
  8
LAYER_1
  6
Continuous
 62
     2
100
AcDbPolyline
 90
       12
 70
     1
 43
0.003
 10
3.213382
 20
2.630475999999998
 10
3.203091
 20
2.64183
 10
3.188921
 20
2.646433
 10
3.173920999999998
 20
2.643295
 10
3.162567999999998
 20
2.633004
 10
3.157965
 20
2.618834
 10
3.161102
 20
2.603834999999999
 10
3.171393
 20
2.592481
 10
3.185563
 20
2.587877
 10
3.200563
 20
2.591012
 10
3.211915999999998
 20
2.601304999999999
 10
3.21652
 20
2.615474999999999
  0
LWPOLYLINE
  5
38B
330
1F
100
AcDbEntity
  8
LAYER_1
  6
Continuous
 62
     2
100
AcDbPolyline
 90
       12
 70
     1
 43
0.003
 10
3.000843
 20
2.566291
 10
2.990552
 20
2.577644999999999
 10
2.976380999999998
 20
2.582247999999998
 10
2.961382
 20
2.57911
 10
2.950029
 20
2.568818999999999
 10
2.945425
 20
2.554648999999999
 10
2.948563
 20
2.539649999999999
 10
2.958854
 20
2.528296
 10
2.973024
 20
2.523692
 10
2.988024
 20
2.526826999999999
 10
2.999376999999998
 20
2.53712
 10
3.003979999999998
 20
2.55129
  0
LWPOLYLINE
  5
38C
330
1F
100
AcDbEntity
  8
LAYER_1
  6
Continuous
 62
     2
100
AcDbPolyline
 90
       12
 70
     1
 43
0.003
 10
2.676724
 20
2.892562999999998
 10
2.666434
 20
2.903916
 10
2.652263
 20
2.90852
 10
2.637264
 20
2.905381999999999
 10
2.625910999999998
 20
2.895090999999998
 10
2.621306999999998
 20
2.880920999999998
 10
2.624445
 20
2.865920999999998
 10
2.634736
 20
2.854568
 10
2.648906
 20
2.849963999999998
 10
2.663906
 20
2.853098
 10
2.675259
 20
2.863391
 10
2.679861999999999
 20
2.877561999999998
  0
LWPOLYLINE
  5
38D
330
1F
100
AcDbEntity
  8
LAYER_1
  6
Continuous
 62
     2
100
AcDbPolyline
 90
       12
 70
     1
 43
0.003
 10
2.830815
 20
2.550247999999998
 10
2.820524
 20
2.561601
 10
2.806354
 20
2.566205
 10
2.791354
 20
2.563066999999999
 10
2.780000999999998
 20
2.552775999999999
 10
2.775398
 20
2.538606
 10
2.778534999999998
 20
2.523606
 10
2.788825999999998
 20
2.512252999999998
 10
2.802996999999998
 20
2.507649
 10
2.817995999999998
 20
2.510782999999999
 10
2.829349
 20
2.521075999999998
 10
2.833952999999998
 20
2.535247
  0
LWPOLYLINE
  5
38E
330
1F
100
AcDbEntity
  8
LAYER_1
  6
Continuous
 62
     2
100
AcDbPolyline
 90
       12
 70
     1
 43
0.003
 10
2.979587
 20
2.951397999999998
 10
2.969295999999998
 20
2.962750999999999
 10
2.955125999999998
 20
2.967354
 10
2.940125999999998
 20
2.964216999999998
 10
2.928772999999998
 20
2.953926
 10
2.924169
 20
2.939754999999999
 10
2.927306999999998
 20
2.924756
 10
2.937597999999998
 20
2.913402999999998
 10
2.951767999999998
 20
2.908797999999998
 10
2.966768
 20
2.911933
 10
2.978120999999998
 20
2.922225999999998
 10
2.982724
 20
2.936395999999998
  0
LWPOLYLINE
  5
38F
330
1F
100
AcDbEntity
  8
LAYER_1
  6
Continuous
 62
     2
100
AcDbPolyline
 90
       12
 70
     1
 43
0.003
 10
2.931772
 20
2.694660999999998
 10
2.921480999999998
 20
2.706015
 10
2.907310999999998
 20
2.710618
 10
2.892310999999999
 20
2.707479999999998
 10
2.880958
 20
2.697188999999998
 10
2.876354
 20
2.683018999999998
 10
2.879491999999998
 20
2.66802
 10
2.889782999999998
 20
2.656665999999999
 10
2.903952999999998
 20
2.652061999999999
 10
2.918952999999998
 20
2.655197
 10
2.930306
 20
2.66549
 10
2.934909
 20
2.679659999999999
  0
LWPOLYLINE
  5
390
330
1F
100
AcDbEntity
  8
LAYER_1
  6
Continuous
 62
     2
100
AcDbPolyline
 90
       12
 70
     1
 43
0.003
 10
2.660783
 20
2.651874
 10
2.650492999999999
 20
2.663227
 10
2.636322
 20
2.667831
 10
2.621322999999998
 20
2.664693
 10
2.60997
 20
2.654402
 10
2.605366
 20
2.640232
 10
2.608503999999999
 20
2.625232
 10
2.618794999999999
 20
2.613879
 10
2.632964999999999
 20
2.609274999999998
 10
2.647965
 20
2.612408999999999
 10
2.659317999999998
 20
2.622701999999998
 10
2.663920999999999
 20
2.636873
  0
LWPOLYLINE
  5
391
330
1F
100
AcDbEntity
  8
LAYER_1
  6
Continuous
 62
     2
100
AcDbPolyline
 90
       12
 70
     1
 43
0.003
 10
2.469504
 20
2.475366
 10
2.459213
 20
2.486718999999999
 10
2.445043
 20
2.491322999999999
 10
2.430042999999999
 20
2.488184999999999
 10
2.41869
 20
2.477894
 10
2.414086999999998
 20
2.463724
 10
2.417224
 20
2.448724
 10
2.427515
 20
2.437370999999999
 10
2.441684999999999
 20
2.432766999999999
 10
2.456684999999998
 20
2.435902
 10
2.468037999999999
 20
2.446193999999999
 10
2.472642
 20
2.460365
  0
LWPOLYLINE
  5
392
330
1F
100
AcDbEntity
  8
LAYER_1
  6
Continuous
 62
     2
100
AcDbPolyline
 90
       12
 70
     1
 43
0.003
 10
2.581083
 20
2.400484
 10
2.570791999999999
 20
2.411836999999998
 10
2.556621999999999
 20
2.416440999999998
 10
2.541622
 20
2.413302999999999
 10
2.530268999999999
 20
2.403011999999999
 10
2.525666
 20
2.388841999999999
 10
2.528802999999999
 20
2.373842999999999
 10
2.539093999999999
 20
2.362489
 10
2.553263999999999
 20
2.357885
 10
2.568264
 20
2.361019999999999
 10
2.579616999999998
 20
2.371312
 10
2.58422
 20
2.385483
  0
LWPOLYLINE
  5
393
330
1F
100
AcDbEntity
  8
LAYER_1
  6
Continuous
 62
     2
100
AcDbPolyline
 90
       12
 70
     1
 43
0.003
 10
2.740483999999998
 20
2.64652
 10
2.730192999999998
 20
2.657872999999999
 10
2.716022999999998
 20
2.662475999999998
 10
2.701024
 20
2.659339
 10
2.68967
 20
2.649048
 10
2.685066999999998
 20
2.634878
 10
2.688204999999998
 20
2.619877999999999
 10
2.698496
 20
2.608525
 10
2.712666
 20
2.60392
 10
2.727665
 20
2.607054999999999
 10
2.739018999999998
 20
2.617347999999998
 10
2.743622
 20
2.631518
  0
LWPOLYLINE
  5
394
330
1F
100
AcDbEntity
  8
LAYER_1
  6
Continuous
 62
     2
100
AcDbPolyline
 90
       12
 70
     1
 43
0.003
 10
2.921141999999998
 20
2.609083
 10
2.910850999999998
 20
2.620436
 10
2.896681
 20
2.625039
 10
2.881681
 20
2.621901999999999
 10
2.870327999999998
 20
2.611610999999999
 10
2.865724999999999
 20
2.597440999999999
 10
2.868862
 20
2.582440999999999
 10
2.879153
 20
2.571088
 10
2.893323
 20
2.566483
 10
2.908322999999998
 20
2.569618
 10
2.919675999999998
 20
2.579911
 10
2.924279
 20
2.594081
  0
LWPOLYLINE
  5
395
330
1F
100
AcDbEntity
  8
LAYER_1
  6
Continuous
 62
     2
100
AcDbPolyline
 90
       12
 70
     1
 43
0.003
 10
2.878633999999999
 20
2.780235999999998
 10
2.868342999999999
 20
2.791589
 10
2.854172999999999
 20
2.796193
 10
2.839173
 20
2.793054999999998
 10
2.82782
 20
2.782763999999998
 10
2.823216999999998
 20
2.768593999999998
 10
2.826354
 20
2.753593999999998
 10
2.836644999999998
 20
2.742240999999998
 10
2.850815
 20
2.737636999999998
 10
2.865814999999998
 20
2.740772
 10
2.877168
 20
2.751063999999998
 10
2.881772
 20
2.765234999999998
  0
LWPOLYLINE
  5
396
330
1F
100
AcDbEntity
  8
LAYER_1
  6
Continuous
 62
     2
100
AcDbPolyline
 90
       12
 70
     1
 43
0.003
 10
2.4695
 20
2.400488
 10
2.459208999999999
 20
2.411840999999999
 10
2.445038999999999
 20
2.416444999999999
 10
2.430038999999998
 20
2.413307
 10
2.418686
 20
2.403016
 10
2.414083
 20
2.388846
 10
2.417219999999999
 20
2.373845999999999
 10
2.427510999999999
 20
2.362493
 10
2.441682
 20
2.357889
 10
2.456681
 20
2.361024
 10
2.468033999999998
 20
2.371316
 10
2.472637999999999
 20
2.385486999999999
  0
LWPOLYLINE
  5
397
330
1F
100
AcDbEntity
  8
LAYER_1
  6
Continuous
 62
     2
100
AcDbPolyline
 90
       12
 70
     1
 43
0.003
 10
2.230398
 20
3.534398
 10
2.220107
 20
3.545751
 10
2.205937
 20
3.550354
 10
2.190936999999999
 20
3.547216999999998
 10
2.179584
 20
3.536926
 10
2.17498
 20
3.522755
 10
2.178117999999999
 20
3.507755999999998
 10
2.188409
 20
3.496402999999998
 10
2.202579
 20
3.491798
 10
2.217579
 20
3.494933
 10
2.228931999999999
 20
3.505226
 10
2.233534999999998
 20
3.519395999999998
  0
LWPOLYLINE
  5
398
330
1F
100
AcDbEntity
  8
LAYER_1
  6
Continuous
 62
     7
100
AcDbPolyline
 90
        6
 70
     1
 43
0.01185
 10
2.148677
 20
2.729948999999998
 10
2.957083
 20
3.148916999999998
 10
3.245228
 20
2.613122
 10
2.508858
 20
2.210264
 10
2.35278
 20
2.492264
 10
2.284743999999998
 20
2.460034999999999
  0
LWPOLYLINE
  5
399
330
1F
100
AcDbEntity
  8
LAYER_1
  6
Continuous
 62
     7
100
AcDbPolyline
 90
        4
 70
     1
 43
0.003
 10
-3.347937
 20
-2.069125999999998
 10
0.4664020000000001
 20
-2.069125999999998
 10
0.4664020000000001
 20
-2.317768
 10
-3.347937
 20
-2.317768
  0
LWPOLYLINE
  5
39A
330
1F
100
AcDbEntity
  8
LAYER_1
  6
Continuous
 62
     7
100
AcDbPolyline
 90
        4
 70
     1
 43
0.003
 10
-3.346227999999998
 20
-1.820374
 10
0.463315
 20
-1.820374
 10
0.463315
 20
-2.069015999999999
 10
-3.346227999999998
 20
-2.069015999999999
  0
LWPOLYLINE
  5
39B
330
1F
100
AcDbEntity
  8
LAYER_1
  6
Continuous
 62
     7
100
AcDbPolyline
 90
        4
 70
     1
 43
0.003
 10
-3.348483999999998
 20
-2.81278
 10
0.4610590000000001
 20
-2.81278
 10
0.4610590000000001
 20
-3.061420999999998
 10
-3.348483999999998
 20
-3.061420999999998
  0
TEXT
  5
39C
330
1F
100
AcDbEntity
  8
LAYER_1
 62
     7
100
AcDbText
 10
-3.360012
 20
-1.721495999999999
 30
0.0
 40
0.12885
  1
KEY
  7
SN0
100
AcDbText
  0
TEXT
  5
39D
330
1F
100
AcDbEntity
  8
LAYER_1
 62
     7
100
AcDbText
 10
-3.090468999999998
 20
-2.009097999999998
 30
0.0
 40
0.117455
  1
TYPE OF ANOMALY
  7
SN0
100
AcDbText
  0
TEXT
  5
39E
330
1F
100
AcDbEntity
  8
LAYER_1
 62
     7
100
AcDbText
 10
-1.323004
 20
-2.008531
 30
0.0
 40
0.117455
  1
INTERPRETATION
  7
SN0
100
AcDbText
  0
LWPOLYLINE
  5
39F
330
1F
100
AcDbEntity
  8
LAYER_1
  6
Continuous
 62
     7
100
AcDbPolyline
 90
        2
 70
     0
 43
0.003
 10
-1.382857999999999
 20
-1.827606
 10
-1.384894
 20
-4.614858687849967
  0
LWPOLYLINE
  5
3A0
330
1F
100
AcDbEntity
  8
LAYER_1
  6
Continuous
 62
     7
100
AcDbPolyline
 90
        4
 70
     1
 43
0.003
 10
-3.34798
 20
-2.563515999999999
 10
0.4615630000000002
 20
-2.563515999999999
 10
0.4615630000000002
 20
-2.812157
 10
-3.34798
 20
-2.812157
  0
LWPOLYLINE
  5
3A1
330
1F
100
AcDbEntity
  8
LAYER_1
  6
Continuous
 62
     7
100
AcDbPolyline
 90
        4
 70
     1
 43
0.003
 10
-3.348483999999998
 20
-3.061263999999998
 10
0.4610590000000001
 20
-3.061263999999998
 10
0.4610590000000001
 20
-3.309905999999998
 10
-3.348483999999998
 20
-3.309905999999998
  0
TEXT
  5
3A2
330
1F
100
AcDbEntity
  8
LAYER_1
 62
     7
100
AcDbText
 10
-3.085449
 20
-2.236024
 30
0.0
 40
0.075
  1
DIPOLAR, ISOLATED
  7
SN1
100
AcDbText
  0
TEXT
  5
3A3
330
1F
100
AcDbEntity
  8
LAYER_1
 62
     7
100
AcDbText
 10
-1.322102
 20
-2.245495999999999
 30
0.0
 40
0.075
  1
FERROUS MATERIAL IN TOPSOIL
  7
SN1
100
AcDbText
  0
LWPOLYLINE
  5
3A4
330
1F
100
AcDbEntity
  8
LAYER_1
  6
Continuous
 62
     7
100
AcDbPolyline
 90
        4
 70
     1
 43
0.003
 10
-3.34798
 20
-2.318575
 10
0.4615630000000002
 20
-2.318575
 10
0.4615630000000002
 20
-2.564386
 10
-3.34798
 20
-2.564386
  0
LWPOLYLINE
  5
3A5
330
1F
100
AcDbEntity
  8
LAYER_1
  6
Continuous
 62
     5
100
AcDbPolyline
 90
        2
 70
     0
 43
0.019685
 10
-3.290165
 20
-2.679845999999999
 10
-3.147413
 20
-2.679845999999999
  0
TEXT
  5
3A6
330
1F
100
AcDbEntity
  8
LAYER_1
 62
     7
100
AcDbText
 10
-1.31972
 20
-2.660661
 30
0.0
 40
0.075
  1
FIELD DRAIN/
  7
SN1
100
AcDbText
  0
TEXT
  5
3A7
330
1F
100
AcDbEntity
  8
LAYER_1
 62
     7
100
AcDbText
 10
-1.31972
 20
-2.793906
 30
0.0
 40
0.075
  1
RIDGE AND FURROW?
  7
SN1
100
AcDbText
  0
TEXT
  5
3A8
330
1F
100
AcDbEntity
  8
LAYER_1
 62
     7
100
AcDbText
 10
-3.077185
 20
-2.721609999999998
 30
0.0
 40
0.075
  1
NEGATIVE, LINEAR
  7
SN1
100
AcDbText
  0
LWPOLYLINE
  5
3A9
330
1F
100
AcDbEntity
  8
LAYER_1
  6
Continuous
 62
     3
100
AcDbPolyline
 90
        2
 70
     0
 43
0.019685
 10
-3.297617999999998
 20
-2.426838999999999
 10
-3.151295
 20
-2.426838999999999
  0
TEXT
  5
3AA
330
1F
100
AcDbEntity
  8
LAYER_1
 62
     7
100
AcDbText
 10
-3.082638
 20
-2.473752
 30
0.0
 40
0.075
  1
POSITIVE, LINEAR
  7
SN1
100
AcDbText
  0
TEXT
  5
3AB
330
1F
100
AcDbEntity
  8
LAYER_1
 62
     7
100
AcDbText
 10
-1.329723999999999
 20
-2.470433
 30
0.0
 40
0.075
  1
RIDGE AND FURROW
  7
SN1
100
AcDbText
  0
TEXT
  5
3AC
330
1F
100
AcDbEntity
  8
LAYER_1
 62
     7
100
AcDbText
 10
-1.324913
 20
-4.395988
 30
0.0
 40
0.075
  1
MODERN/ARCHAEOLOGICAL
  7
SN1
100
AcDbText
  0
TEXT
  5
3AD
330
1F
100
AcDbEntity
  8
LAYER_1
 62
     7
100
AcDbText
 10
-1.324913
 20
-4.529232
 30
0.0
 40
0.075
  1
DITCH?
  7
SN1
100
AcDbText
  0
LWPOLYLINE
  5
3AE
330
1F
100
AcDbEntity
  8
LAYER_1
  6
Continuous
 62
   212
100
AcDbPolyline
 90
        2
 70
     0
 43
0.019685
 10
-3.304208999999998
 20
-4.176908999999998
 10
-3.161456999999998
 20
-4.176908999999998
  0
TEXT
  5
3AF
330
1F
100
AcDbEntity
  8
LAYER_1
 62
     7
100
AcDbText
 10
-1.33022
 20
-4.148668999999999
 30
0.0
 40
0.075
  1
MODERN/ARCHAEOLOGICAL
  7
SN1
100
AcDbText
  0
TEXT
  5
3B0
330
1F
100
AcDbEntity
  8
LAYER_1
 62
     7
100
AcDbText
 10
-1.33022
 20
-4.281912999999998
 30
0.0
 40
0.075
  1
TRACKWAY?
  7
SN1
100
AcDbText
  0
TEXT
  5
3B1
330
1F
100
AcDbEntity
  8
LAYER_1
 62
     7
100
AcDbText
 10
-3.099102
 20
-4.215523999999998
 30
0.0
 40
0.075
  1
POSITIVE, LINEAR
  7
SN1
100
AcDbText
  0
LWPOLYLINE
  5
3B2
330
1F
100
AcDbEntity
  8
LAYER_1
  6
Continuous
 62
     7
100
AcDbPolyline
 90
        4
 70
     1
 43
0.003
 10
-3.348983999999998
 20
-4.295912999999998
 10
0.4605590000000002
 20
-4.295912999999998
 10
0.4605590000000002
 20
-4.541723999999998
 10
-3.348983999999998
 20
-4.541723999999998
  0
LWPOLYLINE
  5
3B3
330
1F
100
AcDbEntity
  8
LAYER_1
  6
Continuous
 62
     1
100
AcDbPolyline
 90
        2
 70
     0
 43
0.019689
 10
-3.292806999999998
 20
-4.419323
 10
-3.146484
 20
-4.419323
  0
LWPOLYLINE
  5
3B4
330
1F
100
AcDbEntity
  8
LAYER_1
  6
Continuous
 62
     7
100
AcDbPolyline
 90
        4
 70
     1
 43
0.003
 10
-3.348983999999998
 20
-4.295912999999998
 10
0.4605590000000002
 20
-4.295912999999998
 10
0.4605590000000002
 20
-4.541723999999998
 10
-3.348983999999998
 20
-4.541723999999998
  0
LWPOLYLINE
  5
3B5
330
1F
100
AcDbEntity
  8
LAYER_1
  6
Continuous
 62
     1
100
AcDbPolyline
 90
        2
 70
     0
 43
0.019689
 10
-3.298319
 20
-4.423259999999999
 10
-3.151996
 20
-4.423259999999999
  0
TEXT
  5
3B6
330
1F
100
AcDbEntity
  8
LAYER_1
 62
     7
100
AcDbText
 10
-3.077827
 20
-4.46978
 30
0.0
 40
0.075
  1
POSITIVE, LINEAR
  7
SN1
100
AcDbText
  0
LWPOLYLINE
  5
3B7
330
1F
100
AcDbEntity
  8
LAYER_1
  6
Continuous
 62
     7
100
AcDbPolyline
 90
        4
 70
     1
 43
0.003
 10
-3.349003999999998
 20
-4.049530999999999
 10
0.460539
 20
-4.049530999999999
 10
0.460539
 20
-4.295342999999999
 10
-3.349003999999998
 20
-4.295342999999999
  0
LWPOLYLINE
  5
3B8
330
1F
100
AcDbEntity
  8
LAYER_1
  6
Continuous
 62
     7
100
AcDbPolyline
 90
        4
 70
     1
 43
0.003
 10
-3.348338999999998
 20
-3.804075
 10
0.461205
 20
-3.804075
 10
0.461205
 20
-4.049885999999998
 10
-3.348338999999998
 20
-4.049885999999998
  0
TEXT
  5
3B9
330
1F
100
AcDbEntity
  8
LAYER_1
 62
     7
100
AcDbText
 10
-3.077180999999998
 20
-3.903137999999998
 30
0.0
 40
0.075
  1
AREA OF MAGNETIC
  7
SN1
100
AcDbText
  0
TEXT
  5
3BA
330
1F
100
AcDbEntity
  8
LAYER_1
 62
     7
100
AcDbText
 10
-3.077180999999998
 20
-4.036381999999998
 30
0.0
 40
0.075
  1
DISTURBANCE
  7
SN1
100
AcDbText
  0
TEXT
  5
3BB
330
1F
100
AcDbEntity
  8
LAYER_1
 62
     7
100
AcDbText
 10
-1.324268
 20
-3.963205
 30
0.0
 40
0.075
  1
INDUSTRIAL ACTIVITY?
  7
SN1
100
AcDbText
  0
LWPOLYLINE
  5
3BC
330
1F
100
AcDbEntity
  8
LAYER_1
  6
Continuous
 62
     1
100
AcDbPolyline
 90
        4
 70
     1
 43
0.003
 10
-3.291830999999998
 20
-3.869091
 10
-3.174818999999998
 20
-3.869091
 10
-3.174818999999998
 20
-4.017873999999999
 10
-3.291830999999998
 20
-4.017873999999999
  0
LWPOLYLINE
  5
3BD
330
1F
100
AcDbEntity
  8
LAYER_1
  6
Continuous
 62
     7
100
AcDbPolyline
 90
        4
 70
     1
 43
0.003
 10
-3.348449
 20
-3.558894
 10
0.461094
 20
-3.558894
 10
0.461094
 20
-3.804705
 10
-3.348449
 20
-3.804705
  0
TEXT
  5
3BE
330
1F
100
AcDbEntity
  8
LAYER_1
 62
     7
100
AcDbText
 10
-3.077290999999998
 20
-3.657957
 30
0.0
 40
0.075
  1
AREA OF MAGNETIC
  7
SN1
100
AcDbText
  0
TEXT
  5
3BF
330
1F
100
AcDbEntity
  8
LAYER_1
 62
     7
100
AcDbText
 10
-3.077290999999998
 20
-3.791201
 30
0.0
 40
0.075
  1
DISTURBANCE
  7
SN1
100
AcDbText
  0
TEXT
  5
3C0
330
1F
100
AcDbEntity
  8
LAYER_1
 62
     7
100
AcDbText
 10
-1.324378
 20
-3.718416999999998
 30
0.0
 40
0.075
  1
MODERN BUILDING REMAINS
  7
SN1
100
AcDbText
  0
LWPOLYLINE
  5
3C1
102
{ACAD_REACTORS
330
4BC
102
}
330
1F
100
AcDbEntity
  8
LAYER_1
  6
Continuous
 62
    30
100
AcDbPolyline
 90
        4
 70
     1
 43
0.003
 10
-3.291941
 20
-3.623908999999998
 10
-3.174929
 20
-3.623908999999998
 10
-3.174929
 20
-3.772692999999998
 10
-3.291941
 20
-3.772692999999998
  0
LWPOLYLINE
  5
3C2
330
1F
100
AcDbEntity
  8
LAYER_1
  6
Continuous
 62
     2
100
AcDbPolyline
 90
       12
 70
     1
 43
0.003
 10
-3.199365999999998
 20
-2.193204999999998
 10
-3.209656999999998
 20
-2.181852
 10
-3.223826999999998
 20
-2.177248
 10
-3.238827
 20
-2.180385999999999
 10
-3.250179999999998
 20
-2.190676999999999
 10
-3.254783
 20
-2.204847
 10
-3.251646
 20
-2.219845999999999
 10
-3.241354999999998
 20
-2.231199999999998
 10
-3.227184999999998
 20
-2.235803999999999
 10
-3.212184999999998
 20
-2.232669
 10
-3.200832
 20
-2.222375999999999
 10
-3.196228
 20
-2.208206
  0
LWPOLYLINE
  5
3C3
330
1F
100
AcDbEntity
  8
LAYER_1
  6
Continuous
 62
     2
100
AcDbPolyline
 90
        2
 70
     0
 43
0.019689
 10
-3.289708999999998
 20
-3.158034999999998
 10
-3.143386
 20
-3.158034999999998
  0
TEXT
  5
3C4
330
1F
100
AcDbEntity
  8
LAYER_1
 62
     7
100
AcDbText
 10
-3.074727999999999
 20
-3.208491999999998
 30
0.0
 40
0.075
  1
DIPOLAR, LINEAR
  7
SN1
100
AcDbText
  0
TEXT
  5
3C5
330
1F
100
AcDbEntity
  8
LAYER_1
 62
     7
100
AcDbText
 10
-1.321814999999998
 20
-3.216591
 30
0.0
 40
0.075
  1
CURRENT DRAINAGE DITCH
  7
SN1
100
AcDbText
  0
LWPOLYLINE
  5
3C6
330
1F
100
AcDbEntity
  8
LAYER_1
  6
Continuous
 62
    30
100
AcDbPolyline
 90
        2
 70
     0
 43
0.019685
 10
-3.294562999999998
 20
-3.440523999999999
 10
-3.148239999999998
 20
-3.440523999999999
  0
TEXT
  5
3C7
330
1F
100
AcDbEntity
  8
LAYER_1
 62
     7
100
AcDbText
 10
-3.079582999999998
 20
-3.466965
 30
0.0
 40
0.075
  1
POSITIVE, LINEAR
  7
SN1
100
AcDbText
  0
TEXT
  5
3C8
330
1F
100
AcDbEntity
  8
LAYER_1
 62
     7
100
AcDbText
 10
-1.326669
 20
-3.410495999999998
 30
0.0
 40
0.075
  1
FIELD DRAIN/
  7
SN1
100
AcDbText
  0
TEXT
  5
3C9
330
1F
100
AcDbEntity
  8
LAYER_1
 62
     7
100
AcDbText
 10
-1.326669
 20
-3.54374
 30
0.0
 40
0.075
  1
RIDGE AND FURROW?
  7
SN1
100
AcDbText
  0
LWPOLYLINE
  5
3CA
330
1F
100
AcDbEntity
  8
LAYER_1
  6
Continuous
 62
     7
100
AcDbPolyline
 90
        4
 70
     1
 43
0.003
 10
-3.348483999999998
 20
-3.310995999999998
 10
0.4610590000000001
 20
-3.310995999999998
 10
0.4610590000000001
 20
-3.559637999999998
 10
-3.348483999999998
 20
-3.559637999999998
  0
LWPOLYLINE
  5
3CB
330
1F
100
AcDbEntity
  8
LAYER_1
  6
Continuous
 62
     4
100
AcDbPolyline
 90
        2
 70
     0
 43
0.019685
 10
-3.298961
 20
-2.91722
 10
-3.152638
 20
-2.91722
  0
TEXT
  5
3CC
330
1F
100
AcDbEntity
  8
LAYER_1
 62
     7
100
AcDbText
 10
-3.083979999999998
 20
-2.967677
 30
0.0
 40
0.075
  1
DIPOLAR, LINEAR
  7
SN1
100
AcDbText
  0
TEXT
  5
3CD
330
1F
100
AcDbEntity
  8
LAYER_1
 62
     7
100
AcDbText
 10
-1.323979999999999
 20
-2.982861999999999
 30
0.0
 40
0.075
  1
FERROUS PIPE?
  7
SN1
100
AcDbText
  0
TEXT
  5
3CE
330
1F
100
AcDbEntity
  8
LAYER_1
 62
     7
100
AcDbText
 10
-3.363441
 20
-4.791708466780903
 30
0.0
 40
0.140683
  1
Fig. 17. Interpretation of gradiometer data overlay
  7
SN2
100
AcDbText
  0
LWPOLYLINE
  5
3CF
330
1F
100
AcDbEntity
  8
LAYER_1
  6
Continuous
 62
     4
100
AcDbPolyline
 90
        2
 70
     0
 43
0.019685
 10
0.12398
 20
-0.176315
 10
0.9193149999999999
 20
-0.361642
  0
LWPOLYLINE
  5
3D0
330
1F
100
AcDbEntity
  8
LAYER_1
  6
Continuous
 62
     7
100
AcDbPolyline
 90
        8
 70
     1
 43
0.01185
 10
-0.6115940000000001
 20
0.531492
 10
-0.068638
 20
0.8463069999999998
 10
0.374413
 20
0.006795
 10
0.6524090000000001
 20
0.155461
 10
1.082429
 20
-0.670933
 10
0.548161
 20
-0.9638860000000001
 10
0.10511
 20
-0.133122
 10
-0.172886
 20
-0.286157
  0
HATCH
  5
3D1
330
1F
100
AcDbEntity
  8
LAYER_1
  6
Continuous
 62
     1
100
AcDbHatch
 10
0.0
 20
0.0
 30
0.0
210
0.0
220
0.0
230
1.0
  2
ANSI31
 70
     0
 71
     1
 91
        2
 92
        7
 72
     0
 73
     1
 93
       34
 10
2.076831
 20
3.412137999999998
 10
2.103716999999999
 20
3.445444999999998
 10
2.165759999999999
 20
3.464180999999998
 10
2.171809999999998
 20
3.469038999999998
 10
2.181077999999998
 20
3.480837
 10
2.180235999999998
 20
3.495408999999998
 10
2.165820594134421
 20
3.513945127063848
 10
2.169897999999998
 20
3.537043
 10
2.174109999999999
 20
3.561641
 10
2.173266999999999
 20
3.581148999999999
 10
2.172029042703459
 20
3.588700349346486
 10
2.158107235591879
 20
3.587875509490134
 10
2.148117918527348
 20
3.607483426494926
 10
2.110460962588458
 20
3.665799703427988
 10
2.087172999999999
 20
3.647381999999999
 10
2.06820679246438
 20
3.685563861831532
 10
2.063530262898638
 20
3.687525464604568
 10
2.037538999999999
 20
3.674444999999998
 10
2.020315602660085
 20
3.705652153673481
 10
2.012606
 20
3.708886
 10
1.981563417175883
 20
3.706654227397227
 10
1.961019999999999
 20
3.703591
 10
1.69837
 20
3.568272
 10
1.700074060791072
 20
3.564964676253035
 10
1.988593999999999
 20
3.011944999999998
 10
1.988718385430778
 20
3.012010366820526
 10
2.281575
 20
3.181054999999998
 10
2.262961
 20
3.228936999999998
 10
2.209188999999998
 20
3.226853999999999
 10
2.159555
 20
3.241429
 10
2.132668999999999
 20
3.297637999999998
 10
2.128534999999998
 20
3.326783
 10
2.107854
 20
3.345519999999998
 10
2.107854
 20
3.39548
 97
        2
330
229
330
298
 92
        7
 72
     0
 73
     1
 93
       23
 10
2.38498
 20
3.576598
 10
2.321517106280654
 20
3.541753293144833
 10
2.301628724008486
 20
3.529741068855972
 10
2.312593999999998
 20
3.505819
 10
2.343618
 20
3.514145999999998
 10
2.366366
 20
3.501654
 10
2.38498
 20
3.472508
 10
2.378775999999998
 20
3.457937
 10
2.333275999999999
 20
3.426708999999998
 10
2.308460999999998
 20
3.393401999999998
 10
2.285709
 20
3.387154
 10
2.284175999999999
 20
3.385844
 10
2.28724
 20
3.379444999999998
 10
2.306389999999999
 20
3.364255999999998
 10
2.325004
 20
3.346366999999998
 10
2.32910890549917
 20
3.323714591123536
 10
2.341550999999999
 20
3.301798999999998
 10
2.368433
 20
3.29139
 10
2.382913
 20
3.299719999999998
 10
2.428408999999998
 20
3.297637999999998
 10
2.440818999999998
 20
3.270575
 10
2.449091
 20
3.258083
 10
2.531814999999999
 20
3.297637999999998
 97
        2
330
22A
330
298
 75
     0
 76
     1
 52
90.0
 41
0.25
 77
     0
 78
     1
 53
135.0
 43
0.0
 44
0.0
 45
-0.0220970869120796
 46
-0.0220970869120796
 79
     0
 47
0.0021140447197416
 98
        2
 10
2.077263867767033
 20
3.381090830568627
 10
2.41986395544401
 20
3.410687442432911
  0
HATCH
  5
3D2
330
1F
100
AcDbEntity
  8
LAYER_1
  6
Continuous
 62
    30
100
AcDbHatch
 10
0.0
 20
0.0
 30
0.0
210
0.0
220
0.0
230
1.0
  2
ANSI31
 70
     0
 71
     1
 91
        2
 92
        7
 72
     0
 73
     1
 93
       17
 10
-0.5817720000000001
 20
4.504593999999999
 10
-0.5875779662114026
 20
4.515633648532521
 10
-0.5904410000000002
 20
4.516594
 10
-0.726539
 20
4.756345999999998
 10
-0.998736
 20
4.612496
 10
-0.876248
 20
4.372743999999999
 10
-0.8286139999999997
 20
4.400146
 10
-0.760563
 20
4.434398
 10
-0.719736
 20
4.448094
 10
-0.678906
 20
4.400146
 10
-0.6176610000000001
 20
4.400146
 10
-0.495173
 20
4.400146
 10
-0.420319
 20
4.441244
 10
-0.433929
 20
4.502898
 10
-0.488366
 20
4.502898
 10
-0.5496100000000002
 20
4.502898
 10
-0.5716090069762522
 20
4.510277157981601
 97
        2
330
22B
330
265
 92
        7
 72
     0
 73
     1
 93
       12
 10
-0.345465
 20
4.413845999999998
 10
-0.3386610000000001
 20
4.372743999999999
 10
-0.352268
 20
4.290547
 10
-0.297831
 20
4.242594
 10
-0.22978
 20
4.215196999999998
 10
-0.175343
 20
4.215196999999998
 10
-0.1481220000000001
 20
4.146697
 10
-0.073268
 20
4.098743999999999
 10
-0.0271173532407164
 20
4.131929370802347
 10
-0.041389119492651
 20
4.158841386352535
 10
-0.2093660000000001
 20
4.434398
 10
-0.2570000000000001
 20
4.420697
 97
        2
330
22C
330
265
 75
     0
 76
     1
 52
0.0
 41
0.25
 77
     0
 78
     1
 53
45.0
 43
0.0
 44
0.0
 45
-0.0220970869120796
 46
0.0220970869120796
 79
     0
 47
0.0023063492332445
 98
        2
 10
-0.6064665480081182
 20
4.460151224830627
 10
-0.2603880549111253
 20
4.344833760907388
  0
HATCH
  5
4BC
330
1F
100
AcDbEntity
  8
LAYER_1
  6
Continuous
 62
    30
100
AcDbHatch
 10
0.0
 20
0.0
 30
0.0
210
0.0
220
0.0
230
1.0
  2
ANSI31
 70
     0
 71
     1
 91
        1
 92
        7
 72
     0
 73
     1
 93
        4
 10
-3.174929
 20
-3.623908999999998
 10
-3.291941
 20
-3.623908999999998
 10
-3.291941
 20
-3.772692999999998
 10
-3.174929
 20
-3.772692999999998
 97
        1
330
3C1
 75
     0
 76
     1
 52
0.0
 41
0.01
 77
     0
 78
     1
 53
45.0
 43
0.0
 44
0.0
 45
-0.0224506403026729
 46
0.0224506403026729
 79
     0
 47
0.0024107211884115
 98
        1
 10
-3.209539446332398
 20
-3.680014646624478
  0
HATCH
  5
4BD
330
1F
100
AcDbEntity
  8
LAYER_1
  6
Continuous
 62
     1
100
AcDbHatch
 10
0.0
 20
0.0
 30
0.0
210
0.0
220
0.0
230
1.0
  2
ANSI31
 70
     0
 71
     0
 91
        1
 92
        7
 72
     0
 73
     1
 93
        4
 10
-3.174818999999998
 20
-3.869091
 10
-3.291830999999999
 20
-3.869091
 10
-3.291830999999999
 20
-4.017875
 10
-3.174818999999998
 20
-4.017875
 97
        0
 75
     0
 76
     1
 52
0.0
 41
0.01
 77
     0
 78
     1
 53
45.0
 43
0.0001100000000007
 44
-0.2451820000000007
 45
-0.0224506403026729
 46
0.0224506403026729
 79
     0
 47
0.0024107211884115
 98
        1
 10
-3.209429446332398
 20
-3.925196646624478
  0
LWPOLYLINE
  5
4CF
330
1F
100
AcDbEntity
  8
0
100
AcDbPolyline
 90
        4
 70
     1
 43
0.0
 10
-3.473023604743906
 20
-4.604515450954894
 10
3.362777556998501
 20
-4.604515450954894
 10
3.362777556998501
 20
4.992085308391678
 10
-3.473023604743906
 20
4.992085308391678
  0
ENDSEC
  0
SECTION
  2
OBJECTS
  0
DICTIONARY
  5
C
330
0
100
AcDbDictionary
281
     1
  3
ACAD_CIP_PREVIOUS_PRODUCT_INFO
350
54D
  3
ACAD_COLOR
350
52C
  3
ACAD_DETAILVIEWSTYLE
350
545
  3
ACAD_GROUP
350
D
  3
ACAD_IMAGE_DICT
350
54
  3
ACAD_IMAGE_VARS
350
68
  3
ACAD_LAYOUT
350
1A
  3
ACAD_MATERIAL
350
4FA
  3
ACAD_MLEADERSTYLE
350
541
  3
ACAD_MLINESTYLE
350
17
  3
ACAD_PLOTSETTINGS
350
19
  3
ACAD_PLOTSTYLENAME
350
E
  3
ACAD_SCALELIST
350
52F
  3
ACAD_SECTIONVIEWSTYLE
350
543
  3
ACAD_TABLESTYLE
350
52D
  3
ACAD_VISUALSTYLE
350
513
  3
ACDB_RECOMPOSE_DATA
350
59F
  3
ACDBVARIABLEDICTIONARY
350
3D3
  0
DICTIONARY
  5
54E
330
10
100
AcDbDictionary
280
     1
281
     1
  3
ADSK_XREC_LAYER_RECONCILED
360
54F
  0
DICTIONARY
  5
550
330
2B
100
AcDbDictionary
280
     1
281
     1
  3
ADSK_XREC_LAYER_RECONCILED
360
551
  0
DICTIONARY
  5
552
330
72
100
AcDbDictionary
280
     1
281
     1
  3
ADSK_XREC_LAYER_RECONCILED
360
553
  0
DICTIONARY
  5
554
330
73
100
AcDbDictionary
280
     1
281
     1
  3
ADSK_XREC_LAYER_RECONCILED
360
555
  0
DICTIONARY
  5
4BE
330
1F
100
AcDbDictionary
280
     1
281
     1
  3
ACAD_LAYOUTSELFREF
360
4F4
  3
ACAD_SORTENTS
360
4BF
  0
DICTIONARY
  5
4F2
330
1B
100
AcDbDictionary
280
     1
281
     1
  3
ACAD_LAYOUTSELFREF
360
4F3
  0
IMAGEDEF_REACTOR
  5
2F
330
2E
100
AcDbRasterImageDefReactor
 90
        2
330
2E
  0
IMAGEDEF_REACTOR
  5
31
330
30
100
AcDbRasterImageDefReactor
 90
        2
330
30
  0
IMAGEDEF_REACTOR
  5
33
330
32
100
AcDbRasterImageDefReactor
 90
        2
330
32
  0
IMAGEDEF_REACTOR
  5
35
330
34
100
AcDbRasterImageDefReactor
 90
        2
330
34
  0
IMAGEDEF_REACTOR
  5
37
330
36
100
AcDbRasterImageDefReactor
 90
        2
330
36
  0
IMAGEDEF_REACTOR
  5
39
330
38
100
AcDbRasterImageDefReactor
 90
        2
330
38
  0
IMAGEDEF_REACTOR
  5
3B
330
3A
100
AcDbRasterImageDefReactor
 90
        2
330
3A
  0
IMAGEDEF_REACTOR
  5
3D
330
3C
100
AcDbRasterImageDefReactor
 90
        2
330
3C
  0
IMAGEDEF_REACTOR
  5
3F
330
3E
100
AcDbRasterImageDefReactor
 90
        2
330
3E
  0
IMAGEDEF_REACTOR
  5
41
330
40
100
AcDbRasterImageDefReactor
 90
        2
330
40
  0
IMAGEDEF_REACTOR
  5
43
330
42
100
AcDbRasterImageDefReactor
 90
        2
330
42
  0
IMAGEDEF_REACTOR
  5
45
330
44
100
AcDbRasterImageDefReactor
 90
        2
330
44
  0
IMAGEDEF_REACTOR
  5
47
330
46
100
AcDbRasterImageDefReactor
 90
        2
330
46
  0
IMAGEDEF_REACTOR
  5
49
330
48
100
AcDbRasterImageDefReactor
 90
        2
330
48
  0
IMAGEDEF_REACTOR
  5
4B
330
4A
100
AcDbRasterImageDefReactor
 90
        2
330
4A
  0
IMAGEDEF_REACTOR
  5
4D
330
4C
100
AcDbRasterImageDefReactor
 90
        2
330
4C
  0
IMAGEDEF_REACTOR
  5
4F
330
4E
100
AcDbRasterImageDefReactor
 90
        2
330
4E
  0
IMAGEDEF_REACTOR
  5
51
330
50
100
AcDbRasterImageDefReactor
 90
        2
330
50
  0
XRECORD
  5
54D
102
{ACAD_REACTORS
330
C
102
}
330
C
100
AcDbXrecord
280
     1
300
ACD
300
2015
300
ACD_F_S
  0
DICTIONARY
  5
52C
102
{ACAD_REACTORS
330
C
102
}
330
C
100
AcDbDictionary
281
     1
  0
DICTIONARY
  5
545
102
{ACAD_REACTORS
330
C
102
}
330
C
100
AcDbDictionary
281
     1
  3
Metric50
350
546
  0
DICTIONARY
  5
D
102
{ACAD_REACTORS
330
C
102
}
330
C
100
AcDbDictionary
281
     1
  0
DICTIONARY
  5
54
102
{ACAD_REACTORS
330
C
102
}
330
C
100
AcDbDictionary
281
     1
  3
ADMD1
350
55
  3
ADMD10
350
56
  3
ADMD11
350
57
  3
ADMD12
350
58
  3
ADMD13
350
59
  3
ADMD14
350
5A
  3
ADMD15
350
5B
  3
ADMD16
350
5C
  3
ADMD17
350
5D
  3
ADMD18
350
5E
  3
ADMD2
350
5F
  3
ADMD3
350
60
  3
ADMD4
350
61
  3
ADMD5
350
62
  3
ADMD6
350
63
  3
ADMD7
350
64
  3
ADMD8
350
65
  3
ADMD9
350
66
  0
RASTERVARIABLES
  5
68
102
{ACAD_REACTORS
330
C
102
}
330
C
100
AcDbRasterVariables
 90
        0
 70
     1
 71
     1
 72
     1
  0
DICTIONARY
  5
1A
102
{ACAD_REACTORS
330
C
102
}
330
C
100
AcDbDictionary
281
     1
  3
Layout1
350
548
  3
Model
350
547
  0
DICTIONARY
  5
4FA
102
{ACAD_REACTORS
330
C
102
}
330
C
100
AcDbDictionary
281
     1
  3
ByBlock
350
503
  3
ByLayer
350
4FB
  3
Global
350
50B
  0
DICTIONARY
  5
541
102
{ACAD_REACTORS
330
C
102
}
330
C
100
AcDbDictionary
281
     1
  3
Standard
350
542
  0
DICTIONARY
  5
17
102
{ACAD_REACTORS
330
C
102
}
330
C
100
AcDbDictionary
281
     1
  3
STANDARD
350
18
  0
DICTIONARY
  5
19
102
{ACAD_REACTORS
330
C
102
}
330
C
100
AcDbDictionary
281
     1
  0
ACDBDICTIONARYWDFLT
  5
E
102
{ACAD_REACTORS
330
C
102
}
330
C
100
AcDbDictionary
281
     1
  3
Normal
350
F
100
AcDbDictionaryWithDefault
340
F
  0
DICTIONARY
  5
52F
102
{ACAD_REACTORS
330
C
102
}
330
C
100
AcDbDictionary
281
     1
  3
A0
350
530
  3
A1
350
531
  3
A2
350
532
  3
A3
350
533
  3
A4
350
534
  3
A5
350
535
  3
A6
350
536
  3
A7
350
537
  3
A8
350
538
  3
A9
350
539
  3
B0
350
53A
  3
B1
350
53B
  3
B2
350
53C
  3
B3
350
53D
  3
B4
350
53E
  3
B5
350
53F
  3
B6
350
540
  0
DICTIONARY
  5
543
102
{ACAD_REACTORS
330
C
102
}
330
C
100
AcDbDictionary
281
     1
  3
Metric50
350
544
  0
DICTIONARY
  5
52D
102
{ACAD_REACTORS
330
C
102
}
330
C
100
AcDbDictionary
281
     1
  3
Standard
350
52E
  0
DICTIONARY
  5
513
102
{ACAD_REACTORS
330
C
102
}
330
C
100
AcDbDictionary
281
     1
  3
2dWireframe
350
519
  3
Basic
350
518
  3
Brighten
350
51F
  3
ColorChange
350
523
  3
Conceptual
350
51C
  3
Dim
350
51E
  3
EdgeColorOff
350
52B
  3
Facepattern
350
522
  3
Flat
350
514
  3
FlatWithEdges
350
515
  3
Gouraud
350
516
  3
GouraudWithEdges
350
517
  3
Hidden
350
51B
  3
JitterOff
350
529
  3
Linepattern
350
521
  3
OverhangOff
350
52A
  3
Realistic
350
51D
  3
Shaded
350
528
  3
Shaded with edges
350
527
  3
Shades of Gray
350
524
  3
Sketchy
350
525
  3
Thicken
350
520
  3
Wireframe
350
51A
  3
X-Ray
350
526
  0
XRECORD
  5
59F
102
{ACAD_REACTORS
330
C
102
}
330
C
100
AcDbXrecord
280
     1
 90
        1
330
52E
  0
DICTIONARY
  5
3D3
102
{ACAD_REACTORS
330
C
102
}
330
C
100
AcDbDictionary
281
     1
  3
CANNOSCALE
350
599
  3
CMLEADERSTYLE
350
595
  3
CTABLESTYLE
350
594
  3
CVIEWDETAILSTYLE
350
596
  3
CVIEWSECTIONSTYLE
350
597
  3
LAYEREVAL
350
59B
  3
LAYERNOTIFY
350
59C
  3
LIGHTINGUNITS
350
59A
  3
MSLTSCALE
350
598
  3
SORTENTS
350
3D4
  0
XRECORD
  5
54F
102
{ACAD_REACTORS
330
54E
102
}
330
54E
100
AcDbXrecord
280
     1
290
     1
  0
XRECORD
  5
551
102
{ACAD_REACTORS
330
550
102
}
330
550
100
AcDbXrecord
280
     1
290
     1
  0
XRECORD
  5
553
102
{ACAD_REACTORS
330
552
102
}
330
552
100
AcDbXrecord
280
     1
290
     1
  0
XRECORD
  5
555
102
{ACAD_REACTORS
330
554
102
}
330
554
100
AcDbXrecord
280
     1
290
     1
  0
XRECORD
  5
4F4
102
{ACAD_REACTORS
330
4BE
102
}
330
4BE
100
AcDbXrecord
280
     1
340
1F
  0
SORTENTSTABLE
  5
4BF
102
{ACAD_REACTORS
330
4BE
102
}
330
4BE
100
AcDbSortentsTable
330
1F
331
246
  5
246
331
3AD
  5
3AD
331
242
  5
242
331
27D
  5
27D
331
3A9
  5
3A9
331
23E
  5
23E
331
279
  5
279
331
3A5
  5
3A5
331
23A
  5
23A
331
3A1
  5
3A1
331
337
  5
337
331
2BD
  5
2BD
331
2B9
  5
2B9
331
333
  5
333
331
36E
  5
36E
331
2B5
  5
2B5
331
2F4
  5
2F4
331
32F
  5
32F
331
32B
  5
32B
331
36A
  5
36A
331
2B1
  5
2B1
331
2F0
  5
2F0
331
236
  5
236
331
275
  5
275
331
67
  5
67
331
39D
  5
39D
331
232
  5
232
331
271
  5
271
331
399
  5
399
331
22E
  5
22E
331
26D
  5
26D
331
269
  5
269
331
395
  5
395
331
22A
  5
22A
331
391
  5
391
331
2EC
  5
2EC
331
327
  5
327
331
366
  5
366
331
2AD
  5
2AD
331
2A9
  5
2A9
331
2E8
  5
2E8
331
323
  5
323
331
362
  5
362
331
35E
  5
35E
331
2A5
  5
2A5
331
2E4
  5
2E4
331
31F
  5
31F
331
35A
  5
35A
331
2A1
  5
2A1
331
2E0
  5
2E0
331
31B
  5
31B
331
265
  5
265
331
3D2
  5
3D1
331
38D
  5
38D
331
3CC
  5
3CC
331
261
  5
261
331
389
  5
389
331
3C8
  5
3C8
331
25D
  5
25D
331
3C4
  5
3C4
331
259
  5
259
331
385
  5
385
331
381
  5
381
331
2DC
  5
2DC
331
3C0
  5
3C0
331
317
  5
317
331
356
  5
356
331
29D
  5
29D
331
299
  5
299
331
2D8
  5
2D8
331
313
  5
313
331
352
  5
352
331
295
  5
295
331
2D4
  5
2D4
331
30F
  5
30F
331
34E
  5
34E
331
34A
  5
34A
331
291
  5
291
331
2D0
  5
2D0
331
30B
  5
30B
331
255
  5
255
331
37D
  5
37D
331
3BC
  5
3BC
331
251
  5
251
331
379
  5
379
331
3B8
  5
3B8
331
24D
  5
24D
331
3B4
  5
3B4
331
249
  5
249
331
375
  5
375
331
3B0
  5
3B0
331
2CC
  5
2CC
331
307
  5
307
331
346
  5
346
331
28D
  5
28D
331
371
  5
371
331
2C8
  5
2C8
331
303
  5
303
331
342
  5
342
331
289
  5
289
331
285
  5
285
331
2C4
  5
2C4
331
2FF
  5
2FF
331
33E
  5
33E
331
33A
  5
33A
331
281
  5
281
331
2C0
  5
2C0
331
2FB
  5
2FB
331
245
  5
245
331
3AC
  5
3AC
331
241
  5
241
331
27C
  5
27C
331
3A8
  5
3A8
331
23D
  5
23D
331
239
  5
239
331
278
  5
278
331
3A4
  5
3A4
331
3A0
  5
3A0
331
336
  5
336
331
2BC
  5
2BC
331
2B8
  5
2B8
331
2F7
  5
2F7
331
332
  5
332
331
36D
  5
36D
331
2B4
  5
2B4
331
2F3
  5
2F3
331
32E
  5
32E
331
32A
  5
32A
331
369
  5
369
331
2B0
  5
2B0
331
235
  5
235
331
274
  5
274
331
39C
  5
39C
331
231
  5
231
331
270
  5
270
331
26C
  5
26C
331
398
  5
398
331
22D
  5
22D
331
268
  5
268
331
394
  5
394
331
229
  5
229
331
2EF
  5
2EF
331
390
  5
390
331
2EB
  5
2EB
331
326
  5
326
331
365
  5
365
331
2AC
  5
2AC
331
2A8
  5
2A8
331
2E7
  5
2E7
331
322
  5
322
331
361
  5
361
331
35D
  5
35D
331
2A4
  5
2A4
331
2E3
  5
2E3
331
31E
  5
31E
331
31A
  5
31A
331
359
  5
359
331
2A0
  5
2A0
331
3CF
  5
3CF
331
264
  5
264
331
3D1
  5
4BD
331
38C
  5
38C
331
3CB
  5
3CB
331
260
  5
260
331
388
  5
388
331
3C7
  5
3C7
331
25C
  5
25C
331
3C3
  5
3C3
331
258
  5
258
331
384
  5
384
331
2DF
  5
2DF
331
380
  5
380
331
2DB
  5
2DB
331
316
  5
316
331
355
  5
355
331
29C
  5
29C
331
298
  5
298
331
2D7
  5
2D7
331
312
  5
312
331
351
  5
351
331
34D
  5
34D
331
294
  5
294
331
2D3
  5
2D3
331
30E
  5
30E
331
349
  5
349
331
290
  5
290
331
30A
  5
30A
331
3BF
  5
3BF
331
254
  5
254
331
37C
  5
37C
331
3BB
  5
3BB
331
250
  5
250
331
378
  5
378
331
3B7
  5
3B7
331
24C
  5
24C
331
3B3
  5
3B3
331
248
  5
248
331
374
  5
374
331
2CF
  5
2CF
331
370
  5
370
331
2CB
  5
2CB
331
306
  5
306
331
345
  5
345
331
28C
  5
28C
331
288
  5
288
331
2C7
  5
2C7
331
302
  5
302
331
341
  5
341
331
284
  5
284
331
2C3
  5
2C3
331
2FE
  5
2FE
331
33D
  5
33D
331
339
  5
339
331
280
  5
280
331
2FA
  5
2FA
331
3AF
  5
3AF
331
244
  5
244
331
3AB
  5
3AB
331
240
  5
240
331
27F
  5
27F
331
27B
  5
27B
331
3A7
  5
3A7
331
23C
  5
23C
331
3A3
  5
3A3
331
238
  5
238
331
2BF
  5
2BF
331
2BB
  5
2BB
331
335
  5
335
331
2B7
  5
2B7
331
2F6
  5
2F6
331
331
  5
331
331
36C
  5
36C
331
2B3
  5
2B3
331
2F2
  5
2F2
331
32D
  5
32D
331
329
  5
329
331
368
  5
368
331
277
  5
277
331
39F
  5
39F
331
234
  5
234
331
273
  5
273
331
39B
  5
39B
331
230
  5
230
331
26F
  5
26F
331
26B
  5
26B
331
397
  5
397
331
22C
  5
22C
331
2EE
  5
2EE
331
2AF
  5
2AF
331
393
  5
393
331
2EA
  5
2EA
331
325
  5
325
331
364
  5
364
331
2AB
  5
2AB
331
2A7
  5
2A7
331
2E6
  5
2E6
331
321
  5
321
331
360
  5
360
331
35C
  5
35C
331
2A3
  5
2A3
331
2E2
  5
2E2
331
31D
  5
31D
331
319
  5
319
331
358
  5
358
331
267
  5
267
331
38F
  5
38F
331
3CE
  5
3CE
331
263
  5
263
331
3D0
  5
3D0
331
38B
  5
38B
331
3CA
  5
3CA
331
25F
  5
25F
331
25B
  5
25B
331
387
  5
387
331
3C6
  5
3C6
331
3C2
  5
3C2
331
383
  5
383
331
29F
  5
29F
331
2DE
  5
2DE
331
2DA
  5
2DA
331
315
  5
315
331
354
  5
354
331
29B
  5
29B
331
297
  5
297
331
2D6
  5
2D6
331
311
  5
311
331
350
  5
350
331
34C
  5
34C
331
293
  5
293
331
2D2
  5
2D2
331
30D
  5
30D
331
309
  5
309
331
348
  5
348
331
257
  5
257
331
37F
  5
37F
331
3BE
  5
3BE
331
253
  5
253
331
37B
  5
37B
331
3BA
  5
3BA
331
24F
  5
24F
331
4BD
  5
4BC
331
377
  5
377
331
3B6
  5
3B6
331
24B
  5
24B
331
3B2
  5
3B2
331
373
  5
373
331
28F
  5
28F
331
2CE
  5
2CE
331
2CA
  5
2CA
331
305
  5
305
331
344
  5
344
331
28B
  5
28B
331
287
  5
287
331
2C6
  5
2C6
331
301
  5
301
331
340
  5
340
331
33C
  5
33C
331
283
  5
283
331
2C2
  5
2C2
331
2FD
  5
2FD
331
338
  5
338
331
2F9
  5
2F9
331
247
  5
247
331
3AE
  5
3AE
331
243
  5
243
331
3AA
  5
3AA
331
23F
  5
23F
331
27E
  5
27E
331
27A
  5
27A
331
3A6
  5
3A6
331
23B
  5
23B
331
3A2
  5
3A2
331
2BE
  5
2BE
331
2BA
  5
2BA
331
334
  5
334
331
36F
  5
36F
331
2B6
  5
2B6
331
2F5
  5
2F5
331
330
  5
330
331
36B
  5
36B
331
2B2
  5
2B2
331
2F1
  5
2F1
331
32C
  5
32C
331
328
  5
328
331
237
  5
237
331
276
  5
276
331
39E
  5
39E
331
233
  5
233
331
272
  5
272
331
39A
  5
39A
331
22F
  5
22F
331
26E
  5
26E
331
26A
  5
26A
331
396
  5
396
331
22B
  5
22B
331
392
  5
392
331
2ED
  5
2ED
331
367
  5
367
331
2AE
  5
2AE
331
2AA
  5
2AA
331
2E9
  5
2E9
331
324
  5
324
331
363
  5
363
331
2A6
  5
2A6
331
2E5
  5
2E5
331
320
  5
320
331
35F
  5
35F
331
35B
  5
35B
331
2A2
  5
2A2
331
2E1
  5
2E1
331
31C
  5
31C
331
318
  5
318
331
266
  5
266
331
38E
  5
38E
331
3CD
  5
3CD
331
262
  5
262
331
38A
  5
38A
331
3C9
  5
3C9
331
25E
  5
25E
331
3C5
  5
3C5
331
25A
  5
25A
331
386
  5
386
331
3C1
  5
3C1
331
2DD
  5
2DD
331
357
  5
357
331
29E
  5
29E
331
382
  5
382
331
2D9
  5
2D9
331
314
  5
314
331
353
  5
353
331
29A
  5
29A
331
296
  5
296
331
2D5
  5
2D5
331
310
  5
310
331
34F
  5
34F
331
34B
  5
34B
331
292
  5
292
331
2D1
  5
2D1
331
30C
  5
30C
331
308
  5
308
331
256
  5
256
331
37E
  5
37E
331
3BD
  5
3BD
331
252
  5
252
331
37A
  5
37A
331
3B9
  5
3B9
331
24E
  5
24E
331
24A
  5
24A
331
4BC
  5
3D2
331
376
  5
376
331
3B5
  5
3B5
331
3B1
  5
3B1
331
372
  5
372
331
347
  5
347
331
28E
  5
28E
331
2CD
  5
2CD
331
2C9
  5
2C9
331
304
  5
304
331
343
  5
343
331
28A
  5
28A
331
286
  5
286
331
2C5
  5
2C5
331
300
  5
300
331
33F
  5
33F
331
33B
  5
33B
331
282
  5
282
331
2C1
  5
2C1
331
2FC
  5
2FC
331
2F8
  5
2F8
  0
XRECORD
  5
4F3
102
{ACAD_REACTORS
330
4F2
102
}
330
4F2
100
AcDbXrecord
280
     1
340
1B
  0
ACDBDETAILVIEWSTYLE
  5
546
102
{ACAD_XDICTIONARY
360
5D2
102
}
102
{ACAD_REACTORS
330
545
102
}
330
545
100
AcDbModelDocViewStyle
 70
     0
  3
Metric50
290
     0
100
AcDbDetailViewStyle
 70
     0
 71
     0
 90
        3
 71
     1
340
11
 62
   256
 40
5.0
340
0
 62
   256
 40
5.0
300

 40
0.0
280
     1
 71
     2
340
16
 90
       25
 62
   256
 71
     3
340
11
 62
   256
 40
5.0
 90
        0
 40
15.0
 90
        1
300
%<\AcVar ViewDetailId>% (%<\AcVar ViewScale \f "%sn">%)
 71
     4
340
16
 90
       25
 62
   256
340
16
 90
       25
 62
   256
280
     0
  0
IMAGEDEF
  5
55
102
{ACAD_REACTORS
330
54
330
2F
102
}
330
54
100
AcDbRasterImageDef
 90
        0
  1
C:\incoming\WYAS\1774_adm\cad\admd1.tif
 10
157.0
 20
234.0
 11
0.3527777323590443
 21
0.3527777323590443
280
     1
281
     2
  0
IMAGEDEF
  5
56
102
{ACAD_REACTORS
330
54
330
3F
102
}
330
54
100
AcDbRasterImageDef
 90
        0
  1
C:\incoming\WYAS\1774_adm\cad\admd10.tif
 10
157.0
 20
234.0
 11
0.3527777323590443
 21
0.3527777323590443
280
     1
281
     2
  0
IMAGEDEF
  5
57
102
{ACAD_REACTORS
330
54
330
41
102
}
330
54
100
AcDbRasterImageDef
 90
        0
  1
C:\incoming\WYAS\1774_adm\cad\admd11.tif
 10
157.0
 20
234.0
 11
0.3527777323590443
 21
0.3527777323590443
280
     1
281
     2
  0
IMAGEDEF
  5
58
102
{ACAD_REACTORS
330
54
330
43
102
}
330
54
100
AcDbRasterImageDef
 90
        0
  1
C:\incoming\WYAS\1774_adm\cad\admd12.tif
 10
233.0
 20
392.0
 11
0.3527777323590443
 21
0.3527777323590443
280
     1
281
     2
  0
IMAGEDEF
  5
59
102
{ACAD_REACTORS
330
54
330
45
102
}
330
54
100
AcDbRasterImageDef
 90
        0
  1
C:\incoming\WYAS\1774_adm\cad\admd13.tif
 10
157.0
 20
235.0
 11
0.3527777323590443
 21
0.3527777323590443
280
     1
281
     2
  0
IMAGEDEF
  5
5A
102
{ACAD_REACTORS
330
54
330
47
102
}
330
54
100
AcDbRasterImageDef
 90
        0
  1
C:\incoming\WYAS\1774_adm\cad\admd14.tif
 10
233.0
 20
471.0
 11
0.3527777323590443
 21
0.3527777323590443
280
     1
281
     2
  0
IMAGEDEF
  5
5B
102
{ACAD_REACTORS
330
54
330
49
102
}
330
54
100
AcDbRasterImageDef
 90
        0
  1
C:\incoming\WYAS\1774_adm\cad\admd15.tif
 10
157.0
 20
211.0
 11
0.3527777323590443
 21
0.3527777323590443
280
     1
281
     2
  0
IMAGEDEF
  5
5C
102
{ACAD_REACTORS
330
54
330
4B
102
}
330
54
100
AcDbRasterImageDef
 90
        0
  1
C:\incoming\WYAS\1774_adm\cad\admd16.tif
 10
156.0
 20
234.0
 11
0.3527777323590443
 21
0.3527777323590443
280
     1
281
     2
  0
IMAGEDEF
  5
5D
102
{ACAD_REACTORS
330
54
330
4D
102
}
330
54
100
AcDbRasterImageDef
 90
        0
  1
C:\incoming\WYAS\1774_adm\cad\admd17.tif
 10
157.0
 20
235.0
 11
0.3527777323590443
 21
0.3527777323590443
280
     1
281
     2
  0
IMAGEDEF
  5
5E
102
{ACAD_REACTORS
330
54
330
4F
102
}
330
54
100
AcDbRasterImageDef
 90
        0
  1
C:\incoming\WYAS\1774_adm\cad\admd18.tif
 10
156.0
 20
233.0
 11
0.3527777323590443
 21
0.3527777323590443
280
     1
281
     2
  0
IMAGEDEF
  5
5F
102
{ACAD_REACTORS
330
54
330
31
102
}
330
54
100
AcDbRasterImageDef
 90
        0
  1
C:\incoming\WYAS\1774_adm\cad\admd2.tif
 10
156.0
 20
114.0
 11
0.3527777323590443
 21
0.3527777323590443
280
     1
281
     2
  0
IMAGEDEF
  5
60
102
{ACAD_REACTORS
330
54
330
33
102
}
330
54
100
AcDbRasterImageDef
 90
        0
  1
C:\incoming\WYAS\1774_adm\cad\admd3.tif
 10
156.0
 20
312.0
 11
0.3527777323590443
 21
0.3527777323590443
280
     1
281
     2
  0
IMAGEDEF
  5
61
102
{ACAD_REACTORS
330
54
330
51
102
}
330
54
100
AcDbRasterImageDef
 90
        0
  1
C:\incoming\WYAS\1774_adm\cad\admd4.tif
 10
157.0
 20
234.0
 11
0.3527777323590443
 21
0.3527777323590443
280
     1
281
     2
  0
IMAGEDEF
  5
62
102
{ACAD_REACTORS
330
54
330
35
102
}
330
54
100
AcDbRasterImageDef
 90
        0
  1
C:\incoming\WYAS\1774_adm\cad\admd5.tif
 10
154.0
 20
313.0
 11
0.3527777323590443
 21
0.3527777323590443
280
     1
281
     2
  0
IMAGEDEF
  5
63
102
{ACAD_REACTORS
330
54
330
37
102
}
330
54
100
AcDbRasterImageDef
 90
        0
  1
C:\incoming\WYAS\1774_adm\cad\admd6.tif
 10
156.0
 20
234.0
 11
0.3527777323590443
 21
0.3527777323590443
280
     1
281
     2
  0
IMAGEDEF
  5
64
102
{ACAD_REACTORS
330
54
330
39
102
}
330
54
100
AcDbRasterImageDef
 90
        0
  1
C:\incoming\WYAS\1774_adm\cad\admd7.tif
 10
157.0
 20
234.0
 11
0.3527777323590443
 21
0.3527777323590443
280
     1
281
     2
  0
IMAGEDEF
  5
65
102
{ACAD_REACTORS
330
54
330
3B
102
}
330
54
100
AcDbRasterImageDef
 90
        0
  1
C:\incoming\WYAS\1774_adm\cad\admd8.tif
 10
154.0
 20
232.0
 11
0.3527777323590443
 21
0.3527777323590443
280
     1
281
     2
  0
IMAGEDEF
  5
66
102
{ACAD_REACTORS
330
54
330
3D
102
}
330
54
100
AcDbRasterImageDef
 90
        0
  1
C:\incoming\WYAS\1774_adm\cad\admd9.tif
 10
156.0
 20
155.0
 11
0.3527777323590443
 21
0.3527777323590443
280
     1
281
     2
  0
LAYOUT
  5
548
102
{ACAD_REACTORS
330
1A
102
}
330
1A
100
AcDbPlotSettings
  1

  2
\\userFS\gf659\w2k\Applications\Autodesk\AutoCAD 2015\R20.0\enu\plotters\DWG To PDF.pc3
  4

  6

 40
0.0
 41
0.0
 42
0.0
 43
0.0
 44
0.0
 45
0.0
 46
0.0
 47
0.0
 48
0.0
 49
0.0
140
0.0
141
0.0
142
1.0
143
1.0
 70
   688
 72
     0
 73
     0
 74
     5
  7

 75
    16
147
1.0
 76
     0
 77
     2
 78
   300
148
0.0
149
0.0
100
AcDbLayout
  1
Layout1
 70
     1
 71
     1
 10
0.0
 20
0.0
 11
420.0
 21
297.0
 12
0.0
 22
0.0
 32
0.0
 14
1.000000000000000E+20
 24
1.000000000000000E+20
 34
1.000000000000000E+20
 15
-1.000000000000000E+20
 25
-1.000000000000000E+20
 35
-1.000000000000000E+20
146
0.0
 13
0.0
 23
0.0
 33
0.0
 16
1.0
 26
0.0
 36
0.0
 17
0.0
 27
1.0
 37
0.0
 76
     0
330
1B
  0
LAYOUT
  5
547
102
{ACAD_REACTORS
330
1A
102
}
330
1A
100
AcDbPlotSettings
  1

  2
\\userFS\gf659\w2k\Applications\Autodesk\AutoCAD 2015\R20.0\enu\plotters\DWG To PDF.pc3
  4

  6

 40
0.0
 41
0.0
 42
0.0
 43
0.0
 44
0.0
 45
0.0
 46
0.0
 47
0.0
 48
0.0
 49
0.0
140
0.0
141
0.0
142
1.0
143
1.0
 70
  1712
 72
     0
 73
     0
 74
     0
  7

 75
     0
147
1.0
 76
     0
 77
     2
 78
   300
148
0.0
149
0.0
100
AcDbLayout
  1
Model
 70
     1
 71
     0
 10
0.0
 20
0.0
 11
12.0
 21
9.0
 12
0.0
 22
0.0
 32
0.0
 14
0.0
 24
0.0
 34
0.0
 15
0.0
 25
0.0
 35
0.0
146
0.0
 13
0.0
 23
0.0
 33
0.0
 16
1.0
 26
0.0
 36
0.0
 17
0.0
 27
1.0
 37
0.0
 76
     0
330
1F
331
4D0
  0
MATERIAL
  5
503
102
{ACAD_XDICTIONARY
360
504
102
}
102
{ACAD_REACTORS
330
4FA
102
}
330
4FA
100
AcDbMaterial
  1
ByBlock
 72
     0
 43
0.0008202099737533
 43
0.0
 43
0.0
 43
0.0
 43
0.0
 43
0.0008202099737533
 43
0.0
 43
0.0
 43
0.0
 43
0.0
 43
1.0
 43
0.0
 43
0.0
 43
0.0
 43
0.0
 43
1.0
 77
     0
 47
0.0008202099737533
 47
0.0
 47
0.0
 47
0.0
 47
0.0
 47
0.0008202099737533
 47
0.0
 47
0.0
 47
0.0
 47
0.0
 47
1.0
 47
0.0
 47
0.0
 47
0.0
 47
0.0
 47
1.0
171
     0
 49
0.0008202099737533
 49
0.0
 49
0.0
 49
0.0
 49
0.0
 49
0.0008202099737533
 49
0.0
 49
0.0
 49
0.0
 49
0.0
 49
1.0
 49
0.0
 49
0.0
 49
0.0
 49
0.0
 49
1.0
175
     0
142
0.0008202099737533
142
0.0
142
0.0
142
0.0
142
0.0
142
0.0008202099737533
142
0.0
142
0.0
142
0.0
142
0.0
142
1.0
142
0.0
142
0.0
142
0.0
142
0.0
142
1.0
179
     0
144
0.0008202099737533
144
0.0
144
0.0
144
0.0
144
0.0
144
0.0008202099737533
144
0.0
144
0.0
144
0.0
144
0.0
144
1.0
144
0.0
144
0.0
144
0.0
144
0.0
144
1.0
147
0.0008202099737533
147
0.0
147
0.0
147
0.0
147
0.0
147
0.0008202099737533
147
0.0
147
0.0
147
0.0
147
0.0
147
1.0
147
0.0
147
0.0
147
0.0
147
0.0
147
1.0
  0
MATERIAL
  5
4FB
102
{ACAD_XDICTIONARY
360
4FC
102
}
102
{ACAD_REACTORS
330
4FA
102
}
330
4FA
100
AcDbMaterial
  1
ByLayer
 72
     0
 43
0.0008202099737533
 43
0.0
 43
0.0
 43
0.0
 43
0.0
 43
0.0008202099737533
 43
0.0
 43
0.0
 43
0.0
 43
0.0
 43
1.0
 43
0.0
 43
0.0
 43
0.0
 43
0.0
 43
1.0
 77
     0
 47
0.0008202099737533
 47
0.0
 47
0.0
 47
0.0
 47
0.0
 47
0.0008202099737533
 47
0.0
 47
0.0
 47
0.0
 47
0.0
 47
1.0
 47
0.0
 47
0.0
 47
0.0
 47
0.0
 47
1.0
171
     0
 49
0.0008202099737533
 49
0.0
 49
0.0
 49
0.0
 49
0.0
 49
0.0008202099737533
 49
0.0
 49
0.0
 49
0.0
 49
0.0
 49
1.0
 49
0.0
 49
0.0
 49
0.0
 49
0.0
 49
1.0
175
     0
142
0.0008202099737533
142
0.0
142
0.0
142
0.0
142
0.0
142
0.0008202099737533
142
0.0
142
0.0
142
0.0
142
0.0
142
1.0
142
0.0
142
0.0
142
0.0
142
0.0
142
1.0
179
     0
144
0.0008202099737533
144
0.0
144
0.0
144
0.0
144
0.0
144
0.0008202099737533
144
0.0
144
0.0
144
0.0
144
0.0
144
1.0
144
0.0
144
0.0
144
0.0
144
0.0
144
1.0
147
0.0008202099737533
147
0.0
147
0.0
147
0.0
147
0.0
147
0.0008202099737533
147
0.0
147
0.0
147
0.0
147
0.0
147
1.0
147
0.0
147
0.0
147
0.0
147
0.0
147
1.0
  0
MATERIAL
  5
50B
102
{ACAD_XDICTIONARY
360
50C
102
}
102
{ACAD_REACTORS
330
4FA
102
}
330
4FA
100
AcDbMaterial
  1
Global
 72
     0
 43
0.0008202099737533
 43
0.0
 43
0.0
 43
0.0
 43
0.0
 43
0.0008202099737533
 43
0.0
 43
0.0
 43
0.0
 43
0.0
 43
1.0
 43
0.0
 43
0.0
 43
0.0
 43
0.0
 43
1.0
 77
     0
 47
0.0008202099737533
 47
0.0
 47
0.0
 47
0.0
 47
0.0
 47
0.0008202099737533
 47
0.0
 47
0.0
 47
0.0
 47
0.0
 47
1.0
 47
0.0
 47
0.0
 47
0.0
 47
0.0
 47
1.0
171
     0
 49
0.0008202099737533
 49
0.0
 49
0.0
 49
0.0
 49
0.0
 49
0.0008202099737533
 49
0.0
 49
0.0
 49
0.0
 49
0.0
 49
1.0
 49
0.0
 49
0.0
 49
0.0
 49
0.0
 49
1.0
175
     0
142
0.0008202099737533
142
0.0
142
0.0
142
0.0
142
0.0
142
0.0008202099737533
142
0.0
142
0.0
142
0.0
142
0.0
142
1.0
142
0.0
142
0.0
142
0.0
142
0.0
142
1.0
179
     0
144
0.0008202099737533
144
0.0
144
0.0
144
0.0
144
0.0
144
0.0008202099737533
144
0.0
144
0.0
144
0.0
144
0.0
144
1.0
144
0.0
144
0.0
144
0.0
144
0.0
144
1.0
147
0.0008202099737533
147
0.0
147
0.0
147
0.0
147
0.0
147
0.0008202099737533
147
0.0
147
0.0
147
0.0
147
0.0
147
1.0
147
0.0
147
0.0
147
0.0
147
0.0
147
1.0
  0
MLEADERSTYLE
  5
542
102
{ACAD_REACTORS
330
541
102
}
330
541
100
AcDbMLeaderStyle
179
     2
170
     2
171
     1
172
     0
 90
        2
 40
0.0
 41
0.0
173
     1
 91
-1056964608
340
14
 92
       -2
290
     1
 42
2.0
291
     1
 43
0.36
  3
Standard
 44
4.0
300

342
11
174
     1
178
     6
175
     1
176
     0
 93
-1056964608
 45
4.0
292
     0
297
     0
 46
4.0
 94
-1056964608
 47
1.0
 49
1.0
140
1.0
293
     1
141
0.0
294
     1
177
     0
142
1.0
295
     0
296
     0
143
0.125
271
     0
272
     9
273
     9
  0
MLINESTYLE
  5
18
102
{ACAD_REACTORS
330
17
102
}
330
17
100
AcDbMlineStyle
  2
STANDARD
 70
     0
  3

 62
   256
 51
90.0
 52
90.0
 71
     2
 49
0.5
 62
   256
  6
BYLAYER
 49
-0.5
 62
   256
  6
BYLAYER
  0
ACDBPLACEHOLDER
  5
F
102
{ACAD_REACTORS
330
E
102
}
330
E
  0
SCALE
  5
530
102
{ACAD_REACTORS
330
52F
102
}
330
52F
100
AcDbScale
 70
     0
300
1:1
140
1.0
141
1.0
290
     1
  0
SCALE
  5
531
102
{ACAD_REACTORS
330
52F
102
}
330
52F
100
AcDbScale
 70
     0
300
1:2
140
1.0
141
2.0
290
     0
  0
SCALE
  5
532
102
{ACAD_REACTORS
330
52F
102
}
330
52F
100
AcDbScale
 70
     0
300
1:4
140
1.0
141
4.0
290
     0
  0
SCALE
  5
533
102
{ACAD_REACTORS
330
52F
102
}
330
52F
100
AcDbScale
 70
     0
300
1:5
140
1.0
141
5.0
290
     0
  0
SCALE
  5
534
102
{ACAD_REACTORS
330
52F
102
}
330
52F
100
AcDbScale
 70
     0
300
1:8
140
1.0
141
8.0
290
     0
  0
SCALE
  5
535
102
{ACAD_REACTORS
330
52F
102
}
330
52F
100
AcDbScale
 70
     0
300
1:10
140
1.0
141
10.0
290
     0
  0
SCALE
  5
536
102
{ACAD_REACTORS
330
52F
102
}
330
52F
100
AcDbScale
 70
     0
300
1:16
140
1.0
141
16.0
290
     0
  0
SCALE
  5
537
102
{ACAD_REACTORS
330
52F
102
}
330
52F
100
AcDbScale
 70
     0
300
1:20
140
1.0
141
20.0
290
     0
  0
SCALE
  5
538
102
{ACAD_REACTORS
330
52F
102
}
330
52F
100
AcDbScale
 70
     0
300
1:30
140
1.0
141
30.0
290
     0
  0
SCALE
  5
539
102
{ACAD_REACTORS
330
52F
102
}
330
52F
100
AcDbScale
 70
     0
300
1:40
140
1.0
141
40.0
290
     0
  0
SCALE
  5
53A
102
{ACAD_REACTORS
330
52F
102
}
330
52F
100
AcDbScale
 70
     0
300
1:50
140
1.0
141
50.0
290
     0
  0
SCALE
  5
53B
102
{ACAD_REACTORS
330
52F
102
}
330
52F
100
AcDbScale
 70
     0
300
1:100
140
1.0
141
100.0
290
     0
  0
SCALE
  5
53C
102
{ACAD_REACTORS
330
52F
102
}
330
52F
100
AcDbScale
 70
     0
300
2:1
140
2.0
141
1.0
290
     0
  0
SCALE
  5
53D
102
{ACAD_REACTORS
330
52F
102
}
330
52F
100
AcDbScale
 70
     0
300
4:1
140
4.0
141
1.0
290
     0
  0
SCALE
  5
53E
102
{ACAD_REACTORS
330
52F
102
}
330
52F
100
AcDbScale
 70
     0
300
8:1
140
8.0
141
1.0
290
     0
  0
SCALE
  5
53F
102
{ACAD_REACTORS
330
52F
102
}
330
52F
100
AcDbScale
 70
     0
300
10:1
140
10.0
141
1.0
290
     0
  0
SCALE
  5
540
102
{ACAD_REACTORS
330
52F
102
}
330
52F
100
AcDbScale
 70
     0
300
100:1
140
100.0
141
1.0
290
     0
  0
ACDBSECTIONVIEWSTYLE
  5
544
102
{ACAD_XDICTIONARY
360
5D0
102
}
102
{ACAD_REACTORS
330
543
102
}
330
543
100
AcDbModelDocViewStyle
 70
     0
  3
Metric50
290
     0
100
AcDbSectionViewStyle
 70
     0
 71
     0
 90
      102
 71
     1
340
11
 62
   256
 40
5.0
340
0
340
0
 62
   256
 40
5.0
300
I, O, Q, S, X, Z
 40
10.0
 90
        0
 40
2.5
 90
        0
 71
     2
340
16
 90
       25
 62
   256
340
16
 90
       50
 62
   256
 40
5.0
 40
2.5
 40
5.0
 71
     3
340
11
 62
   256
 40
5.0
 90
        0
 40
15.0
 90
        1
300
%<\AcVar ViewSectionStartId>%-%<\AcVar ViewSectionEndId>% (%<\AcVar ViewScale \f "%sn">%)
 71
     4
 62
   256
 62
   257
300
ANSI31
 40
1.0
 90
        0
290
     0
290
     0
 90
        6
 40
0.0
 40
1.570796326794896
 40
0.2617993877991494
 40
1.308996938995747
 40
-0.2617993877991494
 40
1.832595714594046
  0
TABLESTYLE
  5
52E
102
{ACAD_XDICTIONARY
360
59D
102
}
102
{ACAD_REACTORS
330
52D
102
}
330
52D
100
AcDbTableStyle
280
     0
  3
Standard
 70
     0
 71
     0
 40
1.5
 41
1.5
280
     0
281
     0
  7
STANDARD
140
4.5
170
     2
 62
     0
 63
     7
283
     0
 90
      512
 91
        0
  1

274
    -2
284
     1
 64
     0
275
    -2
285
     1
 65
     0
276
    -2
286
     1
 66
     0
277
    -2
287
     1
 67
     0
278
    -2
288
     1
 68
     0
279
    -2
289
     1
 69
     0
  7
STANDARD
140
6.0
170
     5
 62
     0
 63
     7
283
     0
 90
      512
 91
        0
  1

274
    -2
284
     1
 64
     0
275
    -2
285
     1
 65
     0
276
    -2
286
     1
 66
     0
277
    -2
287
     1
 67
     0
278
    -2
288
     1
 68
     0
279
    -2
289
     1
 69
     0
  7
STANDARD
140
4.5
170
     5
 62
     0
 63
     7
283
     0
 90
      512
 91
        0
  1

274
    -2
284
     1
 64
     0
275
    -2
285
     1
 65
     0
276
    -2
286
     1
 66
     0
277
    -2
287
     1
 67
     0
278
    -2
288
     1
 68
     0
279
    -2
289
     1
 69
     0
  0
VISUALSTYLE
  5
519
102
{ACAD_XDICTIONARY
360
5AA
102
}
102
{ACAD_REACTORS
330
513
102
}
330
513
100
AcDbVisualStyle
  2
2dWireframe
 70
     4
177
     2
291
     0
 71
     0
176
     1
 72
     2
176
     1
 73
     0
176
     1
 90
        0
176
     1
 40
0.6
176
     1
 41
30.0
176
     1
 63
     7
421
 16777215
176
     1
 74
     1
176
     1
 91
        4
176
     1
 64
     7
176
     1
 65
   257
176
     1
 75
     1
176
     1
175
     1
176
     1
 42
1.0
176
     1
 92
        0
176
     1
 66
   257
176
     1
 43
1.0
176
     1
 76
     1
176
     1
 77
     6
176
     1
 78
     2
176
     1
 67
     7
176
     1
 79
     5
176
     1
170
     0
176
     1
171
     0
176
     1
290
     0
176
     1
 93
        1
176
     1
 44
0.0
176
     1
173
     0
176
     1
1001
ACAD
1000
AcDbSavedByObjectVersion
1070
     0
  0
VISUALSTYLE
  5
518
102
{ACAD_XDICTIONARY
360
5A8
102
}
102
{ACAD_REACTORS
330
513
102
}
330
513
100
AcDbVisualStyle
  2
Basic
 70
     7
177
     2
291
     1
 71
     1
176
     1
 72
     0
176
     1
 73
     1
176
     1
 90
        0
176
     1
 40
0.6
176
     1
 41
30.0
176
     1
 63
     7
421
 16777215
176
     1
 74
     0
176
     1
 91
        4
176
     1
 64
     7
176
     1
 65
   257
176
     1
 75
     1
176
     1
175
     1
176
     1
 42
1.0
176
     1
 92
        8
176
     1
 66
     7
176
     1
 43
1.0
176
     1
 76
     1
176
     1
 77
     6
176
     1
 78
     2
176
     1
 67
     7
176
     1
 79
     5
176
     1
170
     0
176
     1
171
     0
176
     1
290
     0
176
     1
 93
        1
176
     1
 44
0.0
176
     1
173
     0
176
     1
1001
ACAD
1000
AcDbSavedByObjectVersion
1070
     0
  0
VISUALSTYLE
  5
51F
102
{ACAD_XDICTIONARY
360
5B6
102
}
102
{ACAD_REACTORS
330
513
102
}
330
513
100
AcDbVisualStyle
  2
Brighten
 70
    12
177
     2
291
     1
 71
     2
176
     1
 72
     2
176
     1
 73
     0
176
     1
 90
        0
176
     1
 40
0.6
176
     1
 41
30.0
176
     1
 63
     7
421
 16777215
176
     1
 74
     1
176
     1
 91
        4
176
     1
 64
     7
176
     1
 65
   257
176
     1
 75
     1
176
     1
175
     1
176
     1
 42
1.0
176
     1
 92
        8
176
     1
 66
     7
176
     1
 43
1.0
176
     1
 76
     1
176
     1
 77
     6
176
     1
 78
     2
176
     1
 67
     7
176
     1
 79
     5
176
     1
170
     0
176
     1
171
     0
176
     1
290
     0
176
     1
 93
        1
176
     1
 44
50.0
176
     1
173
     0
176
     1
1001
ACAD
1000
AcDbSavedByObjectVersion
1070
     0
  0
VISUALSTYLE
  5
523
102
{ACAD_XDICTIONARY
360
5BE
102
}
102
{ACAD_REACTORS
330
513
102
}
330
513
100
AcDbVisualStyle
  2
ColorChange
 70
    16
177
     2
291
     1
 71
     2
176
     1
 72
     2
176
     1
 73
     3
176
     1
 90
        0
176
     1
 40
0.6
176
     1
 41
30.0
176
     1
 63
     8
421
  8421504
176
     1
 74
     1
176
     1
 91
        4
176
     1
 64
     7
176
     1
 65
   257
176
     1
 75
     1
176
     1
175
     1
176
     1
 42
1.0
176
     1
 92
        8
176
     1
 66
     8
424
  8421504
176
     1
 43
1.0
176
     1
 76
     1
176
     1
 77
     6
176
     1
 78
     2
176
     1
 67
     7
176
     1
 79
     5
176
     1
170
     0
176
     1
171
     0
176
     1
290
     0
176
     1
 93
        1
176
     1
 44
0.0
176
     1
173
     0
176
     1
1001
ACAD
1000
AcDbSavedByObjectVersion
1070
     0
  0
VISUALSTYLE
  5
51C
102
{ACAD_XDICTIONARY
360
5B0
102
}
102
{ACAD_REACTORS
330
513
102
}
330
513
100
AcDbVisualStyle
  2
Conceptual
 70
     9
177
     2
291
     0
 71
     3
176
     1
 72
     2
176
     1
 73
     0
176
     1
 90
        0
176
     1
 40
0.6
176
     1
 41
30.0
176
     1
 63
     7
421
 16777215
176
     1
 74
     2
176
     1
 91
        2
176
     1
 64
     7
176
     1
 65
   257
176
     1
 75
     1
176
     1
175
     1
176
     1
 42
179.0
176
     1
 92
        8
176
     1
 66
     7
176
     1
 43
1.0
176
     1
 76
     1
176
     1
 77
     6
176
     1
 78
     2
176
     1
 67
     7
176
     1
 79
     3
176
     1
170
     0
176
     1
171
     0
176
     1
290
     0
176
     1
 93
        1
176
     1
 44
0.0
176
     1
173
     0
176
     1
1001
ACAD
1000
AcDbSavedByObjectVersion
1070
     0
  0
VISUALSTYLE
  5
51E
102
{ACAD_XDICTIONARY
360
5B4
102
}
102
{ACAD_REACTORS
330
513
102
}
330
513
100
AcDbVisualStyle
  2
Dim
 70
    11
177
     2
291
     1
 71
     2
176
     1
 72
     2
176
     1
 73
     0
176
     1
 90
        0
176
     1
 40
0.6
176
     1
 41
30.0
176
     1
 63
     7
421
 16777215
176
     1
 74
     1
176
     1
 91
        4
176
     1
 64
     7
176
     1
 65
   257
176
     1
 75
     1
176
     1
175
     1
176
     1
 42
1.0
176
     1
 92
        8
176
     1
 66
     7
176
     1
 43
1.0
176
     1
 76
     1
176
     1
 77
     6
176
     1
 78
     2
176
     1
 67
     7
176
     1
 79
     5
176
     1
170
     0
176
     1
171
     0
176
     1
290
     0
176
     1
 93
        1
176
     1
 44
-50.0
176
     1
173
     0
176
     1
1001
ACAD
1000
AcDbSavedByObjectVersion
1070
     0
  0
VISUALSTYLE
  5
52B
102
{ACAD_XDICTIONARY
360
5CE
102
}
102
{ACAD_REACTORS
330
513
102
}
330
513
100
AcDbVisualStyle
  2
EdgeColorOff
 70
    22
177
     2
291
     1
 71
     2
176
     0
 72
     2
176
     0
 73
     0
176
     0
 90
        0
176
     0
 40
0.6
176
     0
 41
30.0
176
     0
 63
     7
421
 16777215
176
     0
 74
     1
176
     0
 91
        4
176
     0
 64
     7
176
     0
 65
   257
176
     0
 75
     1
176
     0
175
     1
176
     0
 42
1.0
176
     0
 92
        8
176
     2
 66
     7
176
     0
 43
1.0
176
     0
 76
     1
176
     0
 77
     6
176
     0
 78
     2
176
     0
 67
     7
176
     0
 79
     5
176
     0
170
     0
176
     0
171
     0
176
     0
290
     0
176
     0
 93
        1
176
     0
 44
0.0
176
     0
173
     0
176
     0
1001
ACAD
1000
AcDbSavedByObjectVersion
1070
     0
  0
VISUALSTYLE
  5
522
102
{ACAD_XDICTIONARY
360
5BC
102
}
102
{ACAD_REACTORS
330
513
102
}
330
513
100
AcDbVisualStyle
  2
Facepattern
 70
    15
177
     2
291
     1
 71
     2
176
     1
 72
     2
176
     1
 73
     0
176
     1
 90
        0
176
     1
 40
0.6
176
     1
 41
30.0
176
     1
 63
     7
421
 16777215
176
     1
 74
     1
176
     1
 91
        4
176
     1
 64
     7
176
     1
 65
   257
176
     1
 75
     1
176
     1
175
     1
176
     1
 42
1.0
176
     1
 92
        8
176
     1
 66
     7
176
     1
 43
1.0
176
     1
 76
     1
176
     1
 77
     6
176
     1
 78
     2
176
     1
 67
     7
176
     1
 79
     5
176
     1
170
     0
176
     1
171
     0
176
     1
290
     0
176
     1
 93
        1
176
     1
 44
0.0
176
     1
173
     0
176
     1
1001
ACAD
1000
AcDbSavedByObjectVersion
1070
     0
  0
VISUALSTYLE
  5
514
102
{ACAD_XDICTIONARY
360
5A0
102
}
102
{ACAD_REACTORS
330
513
102
}
330
513
100
AcDbVisualStyle
  2
Flat
 70
     0
177
     2
291
     1
 71
     2
176
     1
 72
     1
176
     1
 73
     1
176
     1
 90
        2
176
     1
 40
0.6
176
     1
 41
30.0
176
     1
 63
     7
421
 16777215
176
     1
 74
     0
176
     1
 91
        0
176
     1
 64
     7
176
     1
 65
   257
176
     1
 75
     1
176
     1
175
     1
176
     1
 42
1.0
176
     1
 92
        8
176
     1
 66
     7
176
     1
 43
1.0
176
     1
 76
     1
176
     1
 77
     6
176
     1
 78
     2
176
     1
 67
     7
176
     1
 79
     5
176
     1
170
     0
176
     1
171
     0
176
     1
290
     0
176
     1
 93
       13
176
     1
 44
0.0
176
     1
173
     0
176
     1
1001
ACAD
1000
AcDbSavedByObjectVersion
1070
     0
  0
VISUALSTYLE
  5
515
102
{ACAD_XDICTIONARY
360
5A2
102
}
102
{ACAD_REACTORS
330
513
102
}
330
513
100
AcDbVisualStyle
  2
FlatWithEdges
 70
     1
177
     2
291
     1
 71
     2
176
     1
 72
     1
176
     1
 73
     1
176
     1
 90
        2
176
     1
 40
0.6
176
     1
 41
30.0
176
     1
 63
     7
421
 16777215
176
     1
 74
     1
176
     1
 91
        0
176
     1
 64
     7
176
     1
 65
   257
176
     1
 75
     1
176
     1
175
     1
176
     1
 42
1.0
176
     1
 92
        0
176
     1
 66
   257
176
     1
 43
1.0
176
     1
 76
     1
176
     1
 77
     6
176
     1
 78
     2
176
     1
 67
     7
176
     1
 79
     5
176
     1
170
     0
176
     1
171
     0
176
     1
290
     0
176
     1
 93
       13
176
     1
 44
0.0
176
     1
173
     0
176
     1
1001
ACAD
1000
AcDbSavedByObjectVersion
1070
     0
  0
VISUALSTYLE
  5
516
102
{ACAD_XDICTIONARY
360
5A4
102
}
102
{ACAD_REACTORS
330
513
102
}
330
513
100
AcDbVisualStyle
  2
Gouraud
 70
     2
177
     2
291
     1
 71
     2
176
     1
 72
     2
176
     1
 73
     1
176
     1
 90
        2
176
     1
 40
0.6
176
     1
 41
30.0
176
     1
 63
     7
421
 16777215
176
     1
 74
     0
176
     1
 91
        0
176
     1
 64
     7
176
     1
 65
   257
176
     1
 75
     1
176
     1
175
     1
176
     1
 42
1.0
176
     1
 92
        0
176
     1
 66
     7
176
     1
 43
1.0
176
     1
 76
     1
176
     1
 77
     6
176
     1
 78
     2
176
     1
 67
     7
176
     1
 79
     5
176
     1
170
     0
176
     1
171
     0
176
     1
290
     0
176
     1
 93
       13
176
     1
 44
0.0
176
     1
173
     0
176
     1
1001
ACAD
1000
AcDbSavedByObjectVersion
1070
     0
  0
VISUALSTYLE
  5
517
102
{ACAD_XDICTIONARY
360
5A6
102
}
102
{ACAD_REACTORS
330
513
102
}
330
513
100
AcDbVisualStyle
  2
GouraudWithEdges
 70
     3
177
     2
291
     1
 71
     2
176
     1
 72
     2
176
     1
 73
     1
176
     1
 90
        2
176
     1
 40
0.6
176
     1
 41
30.0
176
     1
 63
     7
421
 16777215
176
     1
 74
     1
176
     1
 91
        0
176
     1
 64
     7
176
     1
 65
   257
176
     1
 75
     1
176
     1
175
     1
176
     1
 42
1.0
176
     1
 92
        0
176
     1
 66
   257
176
     1
 43
1.0
176
     1
 76
     1
176
     1
 77
     6
176
     1
 78
     2
176
     1
 67
     7
176
     1
 79
     5
176
     1
170
     0
176
     1
171
     0
176
     1
290
     0
176
     1
 93
       13
176
     1
 44
0.0
176
     1
173
     0
176
     1
1001
ACAD
1000
AcDbSavedByObjectVersion
1070
     0
  0
VISUALSTYLE
  5
51B
102
{ACAD_XDICTIONARY
360
5AE
102
}
102
{ACAD_REACTORS
330
513
102
}
330
513
100
AcDbVisualStyle
  2
Hidden
 70
     6
177
     2
291
     0
 71
     1
176
     1
 72
     2
176
     1
 73
     2
176
     1
 90
        0
176
     1
 40
0.6
176
     1
 41
30.0
176
     1
 63
     7
421
 16777215
176
     1
 74
     2
176
     1
 91
        2
176
     1
 64
     7
176
     1
 65
   257
176
     1
 75
     2
176
     1
175
     1
176
     1
 42
40.0
176
     1
 92
        0
176
     1
 66
   257
176
     1
 43
1.0
176
     1
 76
     1
176
     1
 77
     6
176
     1
 78
     2
176
     1
 67
     7
176
     1
 79
     3
176
     1
170
     0
176
     1
171
     0
176
     1
290
     0
176
     1
 93
        1
176
     1
 44
0.0
176
     1
173
     0
176
     1
1001
ACAD
1000
AcDbSavedByObjectVersion
1070
     0
  0
VISUALSTYLE
  5
529
102
{ACAD_XDICTIONARY
360
5CA
102
}
102
{ACAD_REACTORS
330
513
102
}
330
513
100
AcDbVisualStyle
  2
JitterOff
 70
    20
177
     2
291
     1
 71
     2
176
     0
 72
     2
176
     0
 73
     0
176
     0
 90
        0
176
     0
 40
0.6
176
     0
 41
30.0
176
     0
 63
     7
421
 16777215
176
     0
 74
     1
176
     0
 91
        4
176
     0
 64
     7
176
     0
 65
   257
176
     0
 75
     1
176
     0
175
     1
176
     0
 42
1.0
176
     0
 92
       10
176
     2
 66
     7
176
     0
 43
1.0
176
     0
 76
     1
176
     0
 77
     6
176
     0
 78
     2
176
     0
 67
     7
176
     0
 79
     5
176
     0
170
     0
176
     0
171
     0
176
     0
290
     0
176
     0
 93
        1
176
     0
 44
0.0
176
     0
173
     0
176
     0
1001
ACAD
1000
AcDbSavedByObjectVersion
1070
     0
  0
VISUALSTYLE
  5
521
102
{ACAD_XDICTIONARY
360
5BA
102
}
102
{ACAD_REACTORS
330
513
102
}
330
513
100
AcDbVisualStyle
  2
Linepattern
 70
    14
177
     2
291
     1
 71
     2
176
     1
 72
     2
176
     1
 73
     0
176
     1
 90
        0
176
     1
 40
0.6
176
     1
 41
30.0
176
     1
 63
     7
421
 16777215
176
     1
 74
     1
176
     1
 91
        4
176
     1
 64
     7
176
     1
 65
   257
176
     1
 75
     7
176
     1
175
     7
176
     1
 42
1.0
176
     1
 92
        8
176
     1
 66
     7
176
     1
 43
1.0
176
     1
 76
     1
176
     1
 77
     6
176
     1
 78
     2
176
     1
 67
     7
176
     1
 79
     5
176
     1
170
     0
176
     1
171
     0
176
     1
290
     0
176
     1
 93
        1
176
     1
 44
0.0
176
     1
173
     0
176
     1
1001
ACAD
1000
AcDbSavedByObjectVersion
1070
     0
  0
VISUALSTYLE
  5
52A
102
{ACAD_XDICTIONARY
360
5CC
102
}
102
{ACAD_REACTORS
330
513
102
}
330
513
100
AcDbVisualStyle
  2
OverhangOff
 70
    21
177
     2
291
     1
 71
     2
176
     0
 72
     2
176
     0
 73
     0
176
     0
 90
        0
176
     0
 40
0.6
176
     0
 41
30.0
176
     0
 63
     7
421
 16777215
176
     0
 74
     1
176
     0
 91
        4
176
     0
 64
     7
176
     0
 65
   257
176
     0
 75
     1
176
     0
175
     1
176
     0
 42
1.0
176
     0
 92
        9
176
     2
 66
     7
176
     0
 43
1.0
176
     0
 76
     1
176
     0
 77
     6
176
     0
 78
     2
176
     0
 67
     7
176
     0
 79
     5
176
     0
170
     0
176
     0
171
     0
176
     0
290
     0
176
     0
 93
        1
176
     0
 44
0.0
176
     0
173
     0
176
     0
1001
ACAD
1000
AcDbSavedByObjectVersion
1070
     0
  0
VISUALSTYLE
  5
51D
102
{ACAD_XDICTIONARY
360
5B2
102
}
102
{ACAD_REACTORS
330
513
102
}
330
513
100
AcDbVisualStyle
  2
Realistic
 70
     8
177
     2
291
     0
 71
     2
176
     1
 72
     3
176
     1
 73
     0
176
     1
 90
        2
176
     1
 40
0.6
176
     1
 41
30.0
176
     1
 63
     7
421
 16777215
176
     1
 74
     0
176
     1
 91
        0
176
     1
 64
     7
176
     1
 65
   257
176
     1
 75
     1
176
     1
175
     1
176
     1
 42
1.0
176
     1
 92
        8
176
     1
 66
   257
176
     1
 43
1.0
176
     1
 76
     1
176
     1
 77
     6
176
     1
 78
     2
176
     1
 67
     7
176
     1
 79
     3
176
     1
170
     0
176
     1
171
     0
176
     1
290
     0
176
     1
 93
       13
176
     1
 44
0.0
176
     1
173
     0
176
     1
1001
ACAD
1000
AcDbSavedByObjectVersion
1070
     0
  0
VISUALSTYLE
  5
528
102
{ACAD_XDICTIONARY
360
5C8
102
}
102
{ACAD_REACTORS
330
513
102
}
330
513
100
AcDbVisualStyle
  2
Shaded
 70
    27
177
     2
291
     0
 71
     2
176
     1
 72
     2
176
     1
 73
     1
176
     1
 90
        2
176
     1
 40
0.6
176
     1
 41
30.0
176
     1
 63
     7
421
 16777215
176
     1
 74
     0
176
     1
 91
        4
176
     1
 64
     7
176
     1
 65
   257
176
     1
 75
     1
176
     1
175
     1
176
     1
 42
1.0
176
     1
 92
        8
176
     1
 66
   257
176
     1
 43
1.0
176
     1
 76
     1
176
     1
 77
     6
176
     1
 78
     2
176
     1
 67
     8
425
  7895160
176
     1
 79
     3
176
     1
170
     0
176
     1
171
     0
176
     1
290
     0
176
     1
 93
        5
176
     1
 44
0.0
176
     1
173
     0
176
     1
1001
ACAD
1000
AcDbSavedByObjectVersion
1070
     0
  0
VISUALSTYLE
  5
527
102
{ACAD_XDICTIONARY
360
5C6
102
}
102
{ACAD_REACTORS
330
513
102
}
330
513
100
AcDbVisualStyle
  2
Shaded with edges
 70
    26
177
     2
291
     0
 71
     2
176
     1
 72
     2
176
     1
 73
     1
176
     1
 90
        2
176
     1
 40
0.6
176
     1
 41
30.0
176
     1
 63
     7
421
 16777215
176
     1
 74
     1
176
     1
 91
       10
176
     1
 64
     7
176
     1
 65
   257
176
     1
 75
     2
176
     1
175
     1
176
     1
 42
1.0
176
     1
 92
        8
176
     1
 66
   257
176
     1
 43
1.0
176
     1
 76
     1
176
     1
 77
     6
176
     1
 78
     2
176
     1
 67
     7
176
     1
 79
     3
176
     1
170
     0
176
     1
171
     0
176
     1
290
     0
176
     1
 93
        5
176
     1
 44
0.0
176
     1
173
     0
176
     1
1001
ACAD
1000
AcDbSavedByObjectVersion
1070
     0
  0
VISUALSTYLE
  5
524
102
{ACAD_XDICTIONARY
360
5C0
102
}
102
{ACAD_REACTORS
330
513
102
}
330
513
100
AcDbVisualStyle
  2
Shades of Gray
 70
    23
177
     2
291
     0
 71
     2
176
     1
 72
     2
176
     1
 73
     3
176
     1
 90
        0
176
     1
 40
0.6
176
     1
 41
30.0
176
     1
 63
     7
421
 16777215
176
     1
 74
     2
176
     1
 91
        2
176
     1
 64
     7
176
     1
 65
     7
176
     1
 75
     1
176
     1
175
     1
176
     1
 42
40.0
176
     1
 92
        8
176
     1
 66
     7
176
     1
 43
1.0
176
     1
 76
     1
176
     1
 77
     6
176
     1
 78
     2
176
     1
 67
     7
176
     1
 79
     3
176
     1
170
     0
176
     1
171
     0
176
     1
290
     0
176
     1
 93
        1
176
     1
 44
0.0
176
     1
173
     0
176
     1
1001
ACAD
1000
AcDbSavedByObjectVersion
1070
     0
  0
VISUALSTYLE
  5
525
102
{ACAD_XDICTIONARY
360
5C2
102
}
102
{ACAD_REACTORS
330
513
102
}
330
513
100
AcDbVisualStyle
  2
Sketchy
 70
    24
177
     2
291
     0
 71
     1
176
     1
 72
     2
176
     1
 73
     2
176
     1
 90
        0
176
     1
 40
0.6
176
     1
 41
30.0
176
     1
 63
     7
421
 16777215
176
     1
 74
     2
176
     1
 91
        2
176
     1
 64
     7
176
     1
 65
     7
176
     1
 75
     1
176
     1
175
     1
176
     1
 42
40.0
176
     1
 92
       11
176
     1
 66
     7
176
     1
 43
1.0
176
     1
 76
     1
176
     1
 77
     6
176
     1
 78
     2
176
     1
 67
     7
176
     1
 79
     6
176
     1
170
     0
176
     1
171
     0
176
     1
290
     0
176
     1
 93
        1
176
     1
 44
0.0
176
     1
173
     0
176
     1
1001
ACAD
1000
AcDbSavedByObjectVersion
1070
     0
  0
VISUALSTYLE
  5
520
102
{ACAD_XDICTIONARY
360
5B8
102
}
102
{ACAD_REACTORS
330
513
102
}
330
513
100
AcDbVisualStyle
  2
Thicken
 70
    13
177
     2
291
     1
 71
     2
176
     1
 72
     2
176
     1
 73
     0
176
     1
 90
        0
176
     1
 40
0.6
176
     1
 41
30.0
176
     1
 63
     7
421
 16777215
176
     1
 74
     1
176
     1
 91
        4
176
     1
 64
     7
176
     1
 65
   257
176
     1
 75
     1
176
     1
175
     1
176
     1
 42
1.0
176
     1
 92
       12
176
     1
 66
     7
176
     1
 43
1.0
176
     1
 76
     1
176
     1
 77
     6
176
     1
 78
     2
176
     1
 67
     7
176
     1
 79
     5
176
     1
170
     0
176
     1
171
     0
176
     1
290
     0
176
     1
 93
        1
176
     1
 44
0.0
176
     1
173
     0
176
     1
1001
ACAD
1000
AcDbSavedByObjectVersion
1070
     0
  0
VISUALSTYLE
  5
51A
102
{ACAD_XDICTIONARY
360
5AC
102
}
102
{ACAD_REACTORS
330
513
102
}
330
513
100
AcDbVisualStyle
  2
Wireframe
 70
     5
177
     2
291
     0
 71
     0
176
     1
 72
     2
176
     1
 73
     0
176
     1
 90
        0
176
     1
 40
0.6
176
     1
 41
30.0
176
     1
 63
     7
421
 16777215
176
     1
 74
     1
176
     1
 91
        4
176
     1
 64
     7
176
     1
 65
   257
176
     1
 75
     1
176
     1
175
     1
176
     1
 42
1.0
176
     1
 92
        0
176
     1
 66
   257
176
     1
 43
1.0
176
     1
 76
     1
176
     1
 77
     6
176
     1
 78
     2
176
     1
 67
     7
176
     1
 79
     3
176
     1
170
     0
176
     1
171
     0
176
     1
290
     0
176
     1
 93
        1
176
     1
 44
0.0
176
     1
173
     0
176
     1
1001
ACAD
1000
AcDbSavedByObjectVersion
1070
     0
  0
VISUALSTYLE
  5
526
102
{ACAD_XDICTIONARY
360
5C4
102
}
102
{ACAD_REACTORS
330
513
102
}
330
513
100
AcDbVisualStyle
  2
X-Ray
 70
    25
177
     2
291
     0
 71
     2
176
     1
 72
     2
176
     1
 73
     1
176
     1
 90
        1
176
     1
 40
0.5
176
     1
 41
30.0
176
     1
 63
     7
421
 16777215
176
     1
 74
     1
176
     1
 91
        0
176
     1
 64
     7
176
     1
 65
   257
176
     1
 75
     1
176
     1
175
     1
176
     1
 42
1.0
176
     1
 92
        8
176
     1
 66
     7
176
     1
 43
1.0
176
     1
 76
     1
176
     1
 77
     6
176
     1
 78
     2
176
     1
 67
     7
176
     1
 79
     3
176
     1
170
     0
176
     1
171
     0
176
     1
290
     0
176
     1
 93
       13
176
     1
 44
0.0
176
     1
173
     0
176
     1
1001
ACAD
1000
AcDbSavedByObjectVersion
1070
     0
  0
DICTIONARYVAR
  5
599
102
{ACAD_REACTORS
330
3D3
102
}
330
3D3
100
DictionaryVariables
280
     0
  1
1:1
  0
DICTIONARYVAR
  5
595
102
{ACAD_REACTORS
330
3D3
102
}
330
3D3
100
DictionaryVariables
280
     0
  1
STANDARD
  0
DICTIONARYVAR
  5
594
102
{ACAD_REACTORS
330
3D3
102
}
330
3D3
100
DictionaryVariables
280
     0
  1
STANDARD
  0
DICTIONARYVAR
  5
596
102
{ACAD_REACTORS
330
3D3
102
}
330
3D3
100
DictionaryVariables
280
     0
  1
Metric50
  0
DICTIONARYVAR
  5
597
102
{ACAD_REACTORS
330
3D3
102
}
330
3D3
100
DictionaryVariables
280
     0
  1
Metric50
  0
DICTIONARYVAR
  5
59B
102
{ACAD_REACTORS
330
3D3
102
}
330
3D3
100
DictionaryVariables
280
     0
  1
1
  0
DICTIONARYVAR
  5
59C
102
{ACAD_REACTORS
330
3D3
102
}
330
3D3
100
DictionaryVariables
280
     0
  1
15
  0
DICTIONARYVAR
  5
59A
102
{ACAD_REACTORS
330
3D3
102
}
330
3D3
100
DictionaryVariables
280
     0
  1
0
  0
DICTIONARYVAR
  5
598
102
{ACAD_REACTORS
330
3D3
102
}
330
3D3
100
DictionaryVariables
280
     0
  1
0
  0
DICTIONARYVAR
  5
3D4
102
{ACAD_REACTORS
330
3D3
102
}
330
3D3
100
DictionaryVariables
280
     0
  1
127
  0
DICTIONARY
  5
5D2
330
546
100
AcDbDictionary
280
     1
281
     1
  3
ACAD_XREC_ROUNDTRIP
360
5D3
  0
DICTIONARY
  5
504
330
503
100
AcDbDictionary
280
     1
281
     1
  3
BUMPTILE
360
506
  3
DIFFUSETILE
360
505
  3
OPACITYTILE
360
509
  3
REFLECTIONTILE
360
508
  3
REFRACTIONTILE
360
50A
  3
SPECULARTILE
360
507
  0
DICTIONARY
  5
4FC
330
4FB
100
AcDbDictionary
280
     1
281
     1
  3
BUMPTILE
360
4FE
  3
DIFFUSETILE
360
4FD
  3
OPACITYTILE
360
501
  3
REFLECTIONTILE
360
500
  3
REFRACTIONTILE
360
502
  3
SPECULARTILE
360
4FF
  0
DICTIONARY
  5
50C
330
50B
100
AcDbDictionary
280
     1
281
     1
  3
BUMPTILE
360
50E
  3
DIFFUSETILE
360
50D
  3
OPACITYTILE
360
511
  3
REFLECTIONTILE
360
510
  3
REFRACTIONTILE
360
512
  3
SPECULARTILE
360
50F
  0
DICTIONARY
  5
5D0
330
544
100
AcDbDictionary
280
     1
281
     1
  3
ACAD_XREC_ROUNDTRIP
360
5D1
  0
DICTIONARY
  5
59D
330
52E
100
AcDbDictionary
280
     1
281
     1
  3
ACAD_ROUNDTRIP_2008_TABLESTYLE_CELLSTYLEMAP
360
59E
  0
DICTIONARY
  5
5AA
330
519
100
AcDbDictionary
280
     1
281
     1
  3
ACAD_XREC_ROUNDTRIP
360
5AB
  0
DICTIONARY
  5
5A8
330
518
100
AcDbDictionary
280
     1
281
     1
  3
ACAD_XREC_ROUNDTRIP
360
5A9
  0
DICTIONARY
  5
5B6
330
51F
100
AcDbDictionary
280
     1
281
     1
  3
ACAD_XREC_ROUNDTRIP
360
5B7
  0
DICTIONARY
  5
5BE
330
523
100
AcDbDictionary
280
     1
281
     1
  3
ACAD_XREC_ROUNDTRIP
360
5BF
  0
DICTIONARY
  5
5B0
330
51C
100
AcDbDictionary
280
     1
281
     1
  3
ACAD_XREC_ROUNDTRIP
360
5B1
  0
DICTIONARY
  5
5B4
330
51E
100
AcDbDictionary
280
     1
281
     1
  3
ACAD_XREC_ROUNDTRIP
360
5B5
  0
DICTIONARY
  5
5CE
330
52B
100
AcDbDictionary
280
     1
281
     1
  3
ACAD_XREC_ROUNDTRIP
360
5CF
  0
DICTIONARY
  5
5BC
330
522
100
AcDbDictionary
280
     1
281
     1
  3
ACAD_XREC_ROUNDTRIP
360
5BD
  0
DICTIONARY
  5
5A0
330
514
100
AcDbDictionary
280
     1
281
     1
  3
ACAD_XREC_ROUNDTRIP
360
5A1
  0
DICTIONARY
  5
5A2
330
515
100
AcDbDictionary
280
     1
281
     1
  3
ACAD_XREC_ROUNDTRIP
360
5A3
  0
DICTIONARY
  5
5A4
330
516
100
AcDbDictionary
280
     1
281
     1
  3
ACAD_XREC_ROUNDTRIP
360
5A5
  0
DICTIONARY
  5
5A6
330
517
100
AcDbDictionary
280
     1
281
     1
  3
ACAD_XREC_ROUNDTRIP
360
5A7
  0
DICTIONARY
  5
5AE
330
51B
100
AcDbDictionary
280
     1
281
     1
  3
ACAD_XREC_ROUNDTRIP
360
5AF
  0
DICTIONARY
  5
5CA
330
529
100
AcDbDictionary
280
     1
281
     1
  3
ACAD_XREC_ROUNDTRIP
360
5CB
  0
DICTIONARY
  5
5BA
330
521
100
AcDbDictionary
280
     1
281
     1
  3
ACAD_XREC_ROUNDTRIP
360
5BB
  0
DICTIONARY
  5
5CC
330
52A
100
AcDbDictionary
280
     1
281
     1
  3
ACAD_XREC_ROUNDTRIP
360
5CD
  0
DICTIONARY
  5
5B2
330
51D
100
AcDbDictionary
280
     1
281
     1
  3
ACAD_XREC_ROUNDTRIP
360
5B3
  0
DICTIONARY
  5
5C8
330
528
100
AcDbDictionary
280
     1
281
     1
  3
ACAD_XREC_ROUNDTRIP
360
5C9
  0
DICTIONARY
  5
5C6
330
527
100
AcDbDictionary
280
     1
281
     1
  3
ACAD_XREC_ROUNDTRIP
360
5C7
  0
DICTIONARY
  5
5C0
330
524
100
AcDbDictionary
280
     1
281
     1
  3
ACAD_XREC_ROUNDTRIP
360
5C1
  0
DICTIONARY
  5
5C2
330
525
100
AcDbDictionary
280
     1
281
     1
  3
ACAD_XREC_ROUNDTRIP
360
5C3
  0
DICTIONARY
  5
5B8
330
520
100
AcDbDictionary
280
     1
281
     1
  3
ACAD_XREC_ROUNDTRIP
360
5B9
  0
DICTIONARY
  5
5AC
330
51A
100
AcDbDictionary
280
     1
281
     1
  3
ACAD_XREC_ROUNDTRIP
360
5AD
  0
DICTIONARY
  5
5C4
330
526
100
AcDbDictionary
280
     1
281
     1
  3
ACAD_XREC_ROUNDTRIP
360
5C5
  0
XRECORD
  5
5D3
102
{ACAD_REACTORS
330
5D2
102
}
330
5D2
100
AcDbXrecord
280
     1
102
DISPLAYNAME
  1
Metric50
102
FLAGS
 90
        0
  0
XRECORD
  5
506
102
{ACAD_REACTORS
330
504
102
}
330
504
100
AcDbXrecord
280
     1
270
     1
271
     1
  0
XRECORD
  5
505
102
{ACAD_REACTORS
330
504
102
}
330
504
100
AcDbXrecord
280
     1
270
     1
271
     1
  0
XRECORD
  5
509
102
{ACAD_REACTORS
330
504
102
}
330
504
100
AcDbXrecord
280
     1
270
     1
271
     1
  0
XRECORD
  5
508
102
{ACAD_REACTORS
330
504
102
}
330
504
100
AcDbXrecord
280
     1
270
     1
271
     1
  0
XRECORD
  5
50A
102
{ACAD_REACTORS
330
504
102
}
330
504
100
AcDbXrecord
280
     1
270
     1
271
     1
  0
XRECORD
  5
507
102
{ACAD_REACTORS
330
504
102
}
330
504
100
AcDbXrecord
280
     1
270
     1
271
     1
  0
XRECORD
  5
4FE
102
{ACAD_REACTORS
330
4FC
102
}
330
4FC
100
AcDbXrecord
280
     1
270
     1
271
     1
  0
XRECORD
  5
4FD
102
{ACAD_REACTORS
330
4FC
102
}
330
4FC
100
AcDbXrecord
280
     1
270
     1
271
     1
  0
XRECORD
  5
501
102
{ACAD_REACTORS
330
4FC
102
}
330
4FC
100
AcDbXrecord
280
     1
270
     1
271
     1
  0
XRECORD
  5
500
102
{ACAD_REACTORS
330
4FC
102
}
330
4FC
100
AcDbXrecord
280
     1
270
     1
271
     1
  0
XRECORD
  5
502
102
{ACAD_REACTORS
330
4FC
102
}
330
4FC
100
AcDbXrecord
280
     1
270
     1
271
     1
  0
XRECORD
  5
4FF
102
{ACAD_REACTORS
330
4FC
102
}
330
4FC
100
AcDbXrecord
280
     1
270
     1
271
     1
  0
XRECORD
  5
50E
102
{ACAD_REACTORS
330
50C
102
}
330
50C
100
AcDbXrecord
280
     1
270
     1
271
     1
  0
XRECORD
  5
50D
102
{ACAD_REACTORS
330
50C
102
}
330
50C
100
AcDbXrecord
280
     1
270
     1
271
     1
  0
XRECORD
  5
511
102
{ACAD_REACTORS
330
50C
102
}
330
50C
100
AcDbXrecord
280
     1
270
     1
271
     1
  0
XRECORD
  5
510
102
{ACAD_REACTORS
330
50C
102
}
330
50C
100
AcDbXrecord
280
     1
270
     1
271
     1
  0
XRECORD
  5
512
102
{ACAD_REACTORS
330
50C
102
}
330
50C
100
AcDbXrecord
280
     1
270
     1
271
     1
  0
XRECORD
  5
50F
102
{ACAD_REACTORS
330
50C
102
}
330
50C
100
AcDbXrecord
280
     1
270
     1
271
     1
  0
XRECORD
  5
5D1
102
{ACAD_REACTORS
330
5D0
102
}
330
5D0
100
AcDbXrecord
280
     1
102
DISPLAYNAME
  1
Metric50
102
FLAGS
 90
        0
  0
CELLSTYLEMAP
  5
59E
102
{ACAD_REACTORS
330
59D
102
}
330
59D
100
AcDbCellStyleMap
 90
        3
300
CELLSTYLE
  1
TABLEFORMAT_BEGIN
 90
        5
170
     1
 91
        0
 92
    32768
 62
   257
 93
        1
300
CONTENTFORMAT
  1
CONTENTFORMAT_BEGIN
 90
        0
 91
        0
 92
      512
 93
        0
300

 40
0.0
140
1.0
 94
        5
 62
     0
340
11
144
6.0
309
CONTENTFORMAT_END
171
     1
301
MARGIN
  1
CELLMARGIN_BEGIN
 40
1.5
 40
1.5
 40
1.5
 40
1.5
 40
4.5
 40
4.5
309
CELLMARGIN_END
 94
        6
 95
        1
302
GRIDFORMAT
  1
GRIDFORMAT_BEGIN
 90
        0
 91
        1
 62
     0
 92
       -2
340
0
 93
        0
 40
1.125
309
GRIDFORMAT_END
 95
        2
302
GRIDFORMAT
  1
GRIDFORMAT_BEGIN
 90
        0
 91
        1
 62
     0
 92
       -2
340
0
 93
        0
 40
1.125
309
GRIDFORMAT_END
 95
        4
302
GRIDFORMAT
  1
GRIDFORMAT_BEGIN
 90
        0
 91
        1
 62
     0
 92
       -2
340
0
 93
        0
 40
1.125
309
GRIDFORMAT_END
 95
        8
302
GRIDFORMAT
  1
GRIDFORMAT_BEGIN
 90
        0
 91
        1
 62
     0
 92
       -2
340
0
 93
        0
 40
1.125
309
GRIDFORMAT_END
 95
       16
302
GRIDFORMAT
  1
GRIDFORMAT_BEGIN
 90
        0
 91
        1
 62
     0
 92
       -2
340
0
 93
        0
 40
1.125
309
GRIDFORMAT_END
 95
       32
302
GRIDFORMAT
  1
GRIDFORMAT_BEGIN
 90
        0
 91
        1
 62
     0
 92
       -2
340
0
 93
        0
 40
1.125
309
GRIDFORMAT_END
309
TABLEFORMAT_END
  1
CELLSTYLE_BEGIN
 90
        1
 91
        1
300
_TITLE
309
CELLSTYLE_END
300
CELLSTYLE
  1
TABLEFORMAT_BEGIN
 90
        5
170
     1
 91
        0
 92
        0
 62
   257
 93
        1
300
CONTENTFORMAT
  1
CONTENTFORMAT_BEGIN
 90
        0
 91
        0
 92
      512
 93
        0
300

 40
0.0
140
1.0
 94
        5
 62
     0
340
11
144
4.5
309
CONTENTFORMAT_END
171
     1
301
MARGIN
  1
CELLMARGIN_BEGIN
 40
1.5
 40
1.5
 40
1.5
 40
1.5
 40
4.5
 40
4.5
309
CELLMARGIN_END
 94
        6
 95
        1
302
GRIDFORMAT
  1
GRIDFORMAT_BEGIN
 90
        0
 91
        1
 62
     0
 92
       -2
340
0
 93
        0
 40
1.125
309
GRIDFORMAT_END
 95
        2
302
GRIDFORMAT
  1
GRIDFORMAT_BEGIN
 90
        0
 91
        1
 62
     0
 92
       -2
340
0
 93
        0
 40
1.125
309
GRIDFORMAT_END
 95
        4
302
GRIDFORMAT
  1
GRIDFORMAT_BEGIN
 90
        0
 91
        1
 62
     0
 92
       -2
340
0
 93
        0
 40
1.125
309
GRIDFORMAT_END
 95
        8
302
GRIDFORMAT
  1
GRIDFORMAT_BEGIN
 90
        0
 91
        1
 62
     0
 92
       -2
340
0
 93
        0
 40
1.125
309
GRIDFORMAT_END
 95
       16
302
GRIDFORMAT
  1
GRIDFORMAT_BEGIN
 90
        0
 91
        1
 62
     0
 92
       -2
340
0
 93
        0
 40
1.125
309
GRIDFORMAT_END
 95
       32
302
GRIDFORMAT
  1
GRIDFORMAT_BEGIN
 90
        0
 91
        1
 62
     0
 92
       -2
340
0
 93
        0
 40
1.125
309
GRIDFORMAT_END
309
TABLEFORMAT_END
  1
CELLSTYLE_BEGIN
 90
        2
 91
        1
300
_HEADER
309
CELLSTYLE_END
300
CELLSTYLE
  1
TABLEFORMAT_BEGIN
 90
        5
170
     1
 91
        0
 92
        0
 62
   257
 93
        1
300
CONTENTFORMAT
  1
CONTENTFORMAT_BEGIN
 90
        0
 91
        0
 92
      512
 93
        0
300

 40
0.0
140
1.0
 94
        2
 62
     0
340
11
144
4.5
309
CONTENTFORMAT_END
171
     1
301
MARGIN
  1
CELLMARGIN_BEGIN
 40
1.5
 40
1.5
 40
1.5
 40
1.5
 40
4.5
 40
4.5
309
CELLMARGIN_END
 94
        6
 95
        1
302
GRIDFORMAT
  1
GRIDFORMAT_BEGIN
 90
        0
 91
        1
 62
     0
 92
       -2
340
0
 93
        0
 40
1.125
309
GRIDFORMAT_END
 95
        2
302
GRIDFORMAT
  1
GRIDFORMAT_BEGIN
 90
        0
 91
        1
 62
     0
 92
       -2
340
0
 93
        0
 40
1.125
309
GRIDFORMAT_END
 95
        4
302
GRIDFORMAT
  1
GRIDFORMAT_BEGIN
 90
        0
 91
        1
 62
     0
 92
       -2
340
0
 93
        0
 40
1.125
309
GRIDFORMAT_END
 95
        8
302
GRIDFORMAT
  1
GRIDFORMAT_BEGIN
 90
        0
 91
        1
 62
     0
 92
       -2
340
0
 93
        0
 40
1.125
309
GRIDFORMAT_END
 95
       16
302
GRIDFORMAT
  1
GRIDFORMAT_BEGIN
 90
        0
 91
        1
 62
     0
 92
       -2
340
0
 93
        0
 40
1.125
309
GRIDFORMAT_END
 95
       32
302
GRIDFORMAT
  1
GRIDFORMAT_BEGIN
 90
        0
 91
        1
 62
     0
 92
       -2
340
0
 93
        0
 40
1.125
309
GRIDFORMAT_END
309
TABLEFORMAT_END
  1
CELLSTYLE_BEGIN
 90
        3
 91
        2
300
_DATA
309
CELLSTYLE_END
  0
XRECORD
  5
5AB
102
{ACAD_REACTORS
330
5AA
102
}
330
5AA
100
AcDbXrecord
280
     1
102
RTVSPost2010Prop28
280
     1
102
RTVSPost2010PropOp28
 70
     1
102
RTVSPost2010Prop29
280
     1
102
RTVSPost2010PropOp29
 70
     1
102
RTVSPost2010Prop30
280
     0
102
RTVSPost2010PropOp30
 70
     1
102
RTVSPost2010Prop31
280
     0
102
RTVSPost2010PropOp31
 70
     1
102
RTVSPost2010Prop32
280
     0
102
RTVSPost2010PropOp32
 70
     1
102
RTVSPost2010Prop33
280
     0
102
RTVSPost2010PropOp33
 70
     1
102
RTVSPost2010Prop34
280
     0
102
RTVSPost2010PropOp34
 70
     1
102
RTVSPost2010Prop35
280
     0
102
RTVSPost2010PropOp35
 70
     1
102
RTVSPost2010Prop36
280
     0
102
RTVSPost2010PropOp36
 70
     1
102
RTVSPost2010Prop37
 90
       50
102
RTVSPost2010PropOp37
 70
     1
102
RTVSPost2010Prop38
140
0.0
102
RTVSPost2010PropOp38
 70
     1
102
RTVSPost2010Prop39
140
1.0
102
RTVSPost2010PropOp39
 70
     1
102
RTVSPost2010Prop40
 90
        0
102
RTVSPost2010PropOp40
 70
     1
102
RTVSPost2010Prop41ColorIndex
 90
       18
102
RTVSPost2010Prop41ColorRGB
 90
        0
102
RTVSPost2010PropOp41
 70
     1
102
RTVSPost2010Prop42
 90
       50
102
RTVSPost2010PropOp42
 70
     1
102
RTVSPost2010Prop43
 90
        3
102
RTVSPost2010PropOp43
 70
     1
102
RTVSPost2010Prop44ColorIndex
 90
        5
102
RTVSPost2010Prop44ColorRGB
 90
      255
102
RTVSPost2010PropOp44
 70
     1
102
RTVSPost2010Prop45
280
     0
102
RTVSPost2010PropOp45
 70
     1
102
RTVSPost2010Prop46
 90
       50
102
RTVSPost2010PropOp46
 70
     1
102
RTVSPost2010Prop47
 90
       50
102
RTVSPost2010PropOp47
 70
     1
102
RTVSPost2010Prop48
 90
       50
102
RTVSPost2010PropOp48
 70
     1
102
RTVSPost2010Prop49
280
     0
102
RTVSPost2010PropOp49
 70
     1
102
RTVSPost2010Prop50
 90
       50
102
RTVSPost2010PropOp50
 70
     1
102
RTVSPost2010Prop51ColorIndex
 90
      256
102
RTVSPost2010Prop51ColorRGB
 90
-16777216
102
RTVSPost2010PropOp51
 70
     0
102
RTVSPost2010Prop52
140
1.0
102
RTVSPost2010PropOp52
 70
     0
102
RTVSPost2010Prop53
 90
        2
102
RTVSPost2010PropOp53
 70
     1
102
RTVSPost2010Prop54
  1
strokes_ogs.tif
102
RTVSPost2010PropOp54
 70
     1
102
RTVSPost2010Prop55
280
     0
102
RTVSPost2010PropOp55
 70
     1
102
RTVSPost2010Prop56
140
1.0
102
RTVSPost2010PropOp56
 70
     1
102
RTVSPost2010Prop57
140
1.0
102
RTVSPost2010PropOp57
 70
     1
  0
XRECORD
  5
5A9
102
{ACAD_REACTORS
330
5A8
102
}
330
5A8
100
AcDbXrecord
280
     1
102
RTVSPost2010Prop28
280
     0
102
RTVSPost2010PropOp28
 70
     1
102
RTVSPost2010Prop29
280
     1
102
RTVSPost2010PropOp29
 70
     1
102
RTVSPost2010Prop30
280
     1
102
RTVSPost2010PropOp30
 70
     1
102
RTVSPost2010Prop31
280
     0
102
RTVSPost2010PropOp31
 70
     1
102
RTVSPost2010Prop32
280
     0
102
RTVSPost2010PropOp32
 70
     1
102
RTVSPost2010Prop33
280
     0
102
RTVSPost2010PropOp33
 70
     1
102
RTVSPost2010Prop34
280
     0
102
RTVSPost2010PropOp34
 70
     1
102
RTVSPost2010Prop35
280
     0
102
RTVSPost2010PropOp35
 70
     1
102
RTVSPost2010Prop36
280
     0
102
RTVSPost2010PropOp36
 70
     1
102
RTVSPost2010Prop37
 90
       50
102
RTVSPost2010PropOp37
 70
     1
102
RTVSPost2010Prop38
140
0.0
102
RTVSPost2010PropOp38
 70
     1
102
RTVSPost2010Prop39
140
1.0
102
RTVSPost2010PropOp39
 70
     1
102
RTVSPost2010Prop40
 90
        0
102
RTVSPost2010PropOp40
 70
     1
102
RTVSPost2010Prop41ColorIndex
 90
       18
102
RTVSPost2010Prop41ColorRGB
 90
        0
102
RTVSPost2010PropOp41
 70
     1
102
RTVSPost2010Prop42
 90
       50
102
RTVSPost2010PropOp42
 70
     1
102
RTVSPost2010Prop43
 90
        3
102
RTVSPost2010PropOp43
 70
     1
102
RTVSPost2010Prop44ColorIndex
 90
        5
102
RTVSPost2010Prop44ColorRGB
 90
      255
102
RTVSPost2010PropOp44
 70
     1
102
RTVSPost2010Prop45
280
     0
102
RTVSPost2010PropOp45
 70
     1
102
RTVSPost2010Prop46
 90
       50
102
RTVSPost2010PropOp46
 70
     1
102
RTVSPost2010Prop47
 90
       50
102
RTVSPost2010PropOp47
 70
     1
102
RTVSPost2010Prop48
 90
       50
102
RTVSPost2010PropOp48
 70
     1
102
RTVSPost2010Prop49
280
     0
102
RTVSPost2010PropOp49
 70
     1
102
RTVSPost2010Prop50
 90
       50
102
RTVSPost2010PropOp50
 70
     1
102
RTVSPost2010Prop51ColorIndex
 90
      256
102
RTVSPost2010Prop51ColorRGB
 90
-16777216
102
RTVSPost2010PropOp51
 70
     0
102
RTVSPost2010Prop52
140
1.0
102
RTVSPost2010PropOp52
 70
     0
102
RTVSPost2010Prop53
 90
        2
102
RTVSPost2010PropOp53
 70
     1
102
RTVSPost2010Prop54
  1
strokes_ogs.tif
102
RTVSPost2010PropOp54
 70
     1
102
RTVSPost2010Prop55
280
     0
102
RTVSPost2010PropOp55
 70
     1
102
RTVSPost2010Prop56
140
1.0
102
RTVSPost2010PropOp56
 70
     1
102
RTVSPost2010Prop57
140
1.0
102
RTVSPost2010PropOp57
 70
     1
  0
XRECORD
  5
5B7
102
{ACAD_REACTORS
330
5B6
102
}
330
5B6
100
AcDbXrecord
280
     1
102
RTVSPost2010Prop28
280
     0
102
RTVSPost2010PropOp28
 70
     1
102
RTVSPost2010Prop29
280
     1
102
RTVSPost2010PropOp29
 70
     1
102
RTVSPost2010Prop30
280
     1
102
RTVSPost2010PropOp30
 70
     1
102
RTVSPost2010Prop31
280
     0
102
RTVSPost2010PropOp31
 70
     1
102
RTVSPost2010Prop32
280
     0
102
RTVSPost2010PropOp32
 70
     1
102
RTVSPost2010Prop33
280
     0
102
RTVSPost2010PropOp33
 70
     1
102
RTVSPost2010Prop34
280
     0
102
RTVSPost2010PropOp34
 70
     1
102
RTVSPost2010Prop35
280
     0
102
RTVSPost2010PropOp35
 70
     1
102
RTVSPost2010Prop36
280
     0
102
RTVSPost2010PropOp36
 70
     1
102
RTVSPost2010Prop37
 90
       50
102
RTVSPost2010PropOp37
 70
     1
102
RTVSPost2010Prop38
140
0.0
102
RTVSPost2010PropOp38
 70
     1
102
RTVSPost2010Prop39
140
1.0
102
RTVSPost2010PropOp39
 70
     1
102
RTVSPost2010Prop40
 90
        0
102
RTVSPost2010PropOp40
 70
     1
102
RTVSPost2010Prop41ColorIndex
 90
       18
102
RTVSPost2010Prop41ColorRGB
 90
        0
102
RTVSPost2010PropOp41
 70
     1
102
RTVSPost2010Prop42
 90
       50
102
RTVSPost2010PropOp42
 70
     1
102
RTVSPost2010Prop43
 90
        3
102
RTVSPost2010PropOp43
 70
     1
102
RTVSPost2010Prop44ColorIndex
 90
        5
102
RTVSPost2010Prop44ColorRGB
 90
      255
102
RTVSPost2010PropOp44
 70
     1
102
RTVSPost2010Prop45
280
     0
102
RTVSPost2010PropOp45
 70
     1
102
RTVSPost2010Prop46
 90
       50
102
RTVSPost2010PropOp46
 70
     1
102
RTVSPost2010Prop47
 90
       50
102
RTVSPost2010PropOp47
 70
     1
102
RTVSPost2010Prop48
 90
       50
102
RTVSPost2010PropOp48
 70
     1
102
RTVSPost2010Prop49
280
     0
102
RTVSPost2010PropOp49
 70
     1
102
RTVSPost2010Prop50
 90
       50
102
RTVSPost2010PropOp50
 70
     1
102
RTVSPost2010Prop51ColorIndex
 90
      256
102
RTVSPost2010Prop51ColorRGB
 90
-16777216
102
RTVSPost2010PropOp51
 70
     0
102
RTVSPost2010Prop52
140
1.0
102
RTVSPost2010PropOp52
 70
     0
102
RTVSPost2010Prop53
 90
        2
102
RTVSPost2010PropOp53
 70
     1
102
RTVSPost2010Prop54
  1
strokes_ogs.tif
102
RTVSPost2010PropOp54
 70
     1
102
RTVSPost2010Prop55
280
     0
102
RTVSPost2010PropOp55
 70
     1
102
RTVSPost2010Prop56
140
1.0
102
RTVSPost2010PropOp56
 70
     1
102
RTVSPost2010Prop57
140
1.0
102
RTVSPost2010PropOp57
 70
     1
  0
XRECORD
  5
5BF
102
{ACAD_REACTORS
330
5BE
102
}
330
5BE
100
AcDbXrecord
280
     1
102
RTVSPost2010Prop28
280
     0
102
RTVSPost2010PropOp28
 70
     1
102
RTVSPost2010Prop29
280
     1
102
RTVSPost2010PropOp29
 70
     1
102
RTVSPost2010Prop30
280
     1
102
RTVSPost2010PropOp30
 70
     1
102
RTVSPost2010Prop31
280
     0
102
RTVSPost2010PropOp31
 70
     1
102
RTVSPost2010Prop32
280
     0
102
RTVSPost2010PropOp32
 70
     1
102
RTVSPost2010Prop33
280
     0
102
RTVSPost2010PropOp33
 70
     1
102
RTVSPost2010Prop34
280
     0
102
RTVSPost2010PropOp34
 70
     1
102
RTVSPost2010Prop35
280
     0
102
RTVSPost2010PropOp35
 70
     1
102
RTVSPost2010Prop36
280
     0
102
RTVSPost2010PropOp36
 70
     1
102
RTVSPost2010Prop37
 90
       50
102
RTVSPost2010PropOp37
 70
     1
102
RTVSPost2010Prop38
140
0.0
102
RTVSPost2010PropOp38
 70
     1
102
RTVSPost2010Prop39
140
1.0
102
RTVSPost2010PropOp39
 70
     1
102
RTVSPost2010Prop40
 90
        0
102
RTVSPost2010PropOp40
 70
     1
102
RTVSPost2010Prop41ColorIndex
 90
       18
102
RTVSPost2010Prop41ColorRGB
 90
        0
102
RTVSPost2010PropOp41
 70
     1
102
RTVSPost2010Prop42
 90
       50
102
RTVSPost2010PropOp42
 70
     1
102
RTVSPost2010Prop43
 90
        3
102
RTVSPost2010PropOp43
 70
     1
102
RTVSPost2010Prop44ColorIndex
 90
        5
102
RTVSPost2010Prop44ColorRGB
 90
      255
102
RTVSPost2010PropOp44
 70
     1
102
RTVSPost2010Prop45
280
     0
102
RTVSPost2010PropOp45
 70
     1
102
RTVSPost2010Prop46
 90
       50
102
RTVSPost2010PropOp46
 70
     1
102
RTVSPost2010Prop47
 90
       50
102
RTVSPost2010PropOp47
 70
     1
102
RTVSPost2010Prop48
 90
       50
102
RTVSPost2010PropOp48
 70
     1
102
RTVSPost2010Prop49
280
     0
102
RTVSPost2010PropOp49
 70
     1
102
RTVSPost2010Prop50
 90
       50
102
RTVSPost2010PropOp50
 70
     1
102
RTVSPost2010Prop51ColorIndex
 90
      256
102
RTVSPost2010Prop51ColorRGB
 90
-16777216
102
RTVSPost2010PropOp51
 70
     0
102
RTVSPost2010Prop52
140
1.0
102
RTVSPost2010PropOp52
 70
     0
102
RTVSPost2010Prop53
 90
        2
102
RTVSPost2010PropOp53
 70
     1
102
RTVSPost2010Prop54
  1
strokes_ogs.tif
102
RTVSPost2010PropOp54
 70
     1
102
RTVSPost2010Prop55
280
     0
102
RTVSPost2010PropOp55
 70
     1
102
RTVSPost2010Prop56
140
1.0
102
RTVSPost2010PropOp56
 70
     1
102
RTVSPost2010Prop57
140
1.0
102
RTVSPost2010PropOp57
 70
     1
  0
XRECORD
  5
5B1
102
{ACAD_REACTORS
330
5B0
102
}
330
5B0
100
AcDbXrecord
280
     1
102
RTVSPost2010Prop28
280
     0
102
RTVSPost2010PropOp28
 70
     1
102
RTVSPost2010Prop29
280
     1
102
RTVSPost2010PropOp29
 70
     1
102
RTVSPost2010Prop30
280
     1
102
RTVSPost2010PropOp30
 70
     1
102
RTVSPost2010Prop31
280
     0
102
RTVSPost2010PropOp31
 70
     1
102
RTVSPost2010Prop32
280
     0
102
RTVSPost2010PropOp32
 70
     1
102
RTVSPost2010Prop33
280
     0
102
RTVSPost2010PropOp33
 70
     1
102
RTVSPost2010Prop34
280
     0
102
RTVSPost2010PropOp34
 70
     1
102
RTVSPost2010Prop35
280
     0
102
RTVSPost2010PropOp35
 70
     1
102
RTVSPost2010Prop36
280
     0
102
RTVSPost2010PropOp36
 70
     1
102
RTVSPost2010Prop37
 90
       50
102
RTVSPost2010PropOp37
 70
     1
102
RTVSPost2010Prop38
140
0.0
102
RTVSPost2010PropOp38
 70
     1
102
RTVSPost2010Prop39
140
1.0
102
RTVSPost2010PropOp39
 70
     1
102
RTVSPost2010Prop40
 90
        0
102
RTVSPost2010PropOp40
 70
     1
102
RTVSPost2010Prop41ColorIndex
 90
       18
102
RTVSPost2010Prop41ColorRGB
 90
        0
102
RTVSPost2010PropOp41
 70
     1
102
RTVSPost2010Prop42
 90
       50
102
RTVSPost2010PropOp42
 70
     1
102
RTVSPost2010Prop43
 90
        3
102
RTVSPost2010PropOp43
 70
     1
102
RTVSPost2010Prop44ColorIndex
 90
        5
102
RTVSPost2010Prop44ColorRGB
 90
      255
102
RTVSPost2010PropOp44
 70
     1
102
RTVSPost2010Prop45
280
     0
102
RTVSPost2010PropOp45
 70
     1
102
RTVSPost2010Prop46
 90
       50
102
RTVSPost2010PropOp46
 70
     1
102
RTVSPost2010Prop47
 90
       50
102
RTVSPost2010PropOp47
 70
     1
102
RTVSPost2010Prop48
 90
       50
102
RTVSPost2010PropOp48
 70
     1
102
RTVSPost2010Prop49
280
     0
102
RTVSPost2010PropOp49
 70
     1
102
RTVSPost2010Prop50
 90
       50
102
RTVSPost2010PropOp50
 70
     1
102
RTVSPost2010Prop51ColorIndex
 90
      256
102
RTVSPost2010Prop51ColorRGB
 90
-16777216
102
RTVSPost2010PropOp51
 70
     0
102
RTVSPost2010Prop52
140
1.0
102
RTVSPost2010PropOp52
 70
     0
102
RTVSPost2010Prop53
 90
        2
102
RTVSPost2010PropOp53
 70
     1
102
RTVSPost2010Prop54
  1
strokes_ogs.tif
102
RTVSPost2010PropOp54
 70
     1
102
RTVSPost2010Prop55
280
     0
102
RTVSPost2010PropOp55
 70
     1
102
RTVSPost2010Prop56
140
1.0
102
RTVSPost2010PropOp56
 70
     1
102
RTVSPost2010Prop57
140
1.0
102
RTVSPost2010PropOp57
 70
     1
  0
XRECORD
  5
5B5
102
{ACAD_REACTORS
330
5B4
102
}
330
5B4
100
AcDbXrecord
280
     1
102
RTVSPost2010Prop28
280
     0
102
RTVSPost2010PropOp28
 70
     1
102
RTVSPost2010Prop29
280
     1
102
RTVSPost2010PropOp29
 70
     1
102
RTVSPost2010Prop30
280
     1
102
RTVSPost2010PropOp30
 70
     1
102
RTVSPost2010Prop31
280
     0
102
RTVSPost2010PropOp31
 70
     1
102
RTVSPost2010Prop32
280
     0
102
RTVSPost2010PropOp32
 70
     1
102
RTVSPost2010Prop33
280
     0
102
RTVSPost2010PropOp33
 70
     1
102
RTVSPost2010Prop34
280
     0
102
RTVSPost2010PropOp34
 70
     1
102
RTVSPost2010Prop35
280
     0
102
RTVSPost2010PropOp35
 70
     1
102
RTVSPost2010Prop36
280
     0
102
RTVSPost2010PropOp36
 70
     1
102
RTVSPost2010Prop37
 90
       50
102
RTVSPost2010PropOp37
 70
     1
102
RTVSPost2010Prop38
140
0.0
102
RTVSPost2010PropOp38
 70
     1
102
RTVSPost2010Prop39
140
1.0
102
RTVSPost2010PropOp39
 70
     1
102
RTVSPost2010Prop40
 90
        0
102
RTVSPost2010PropOp40
 70
     1
102
RTVSPost2010Prop41ColorIndex
 90
       18
102
RTVSPost2010Prop41ColorRGB
 90
        0
102
RTVSPost2010PropOp41
 70
     1
102
RTVSPost2010Prop42
 90
       50
102
RTVSPost2010PropOp42
 70
     1
102
RTVSPost2010Prop43
 90
        3
102
RTVSPost2010PropOp43
 70
     1
102
RTVSPost2010Prop44ColorIndex
 90
        5
102
RTVSPost2010Prop44ColorRGB
 90
      255
102
RTVSPost2010PropOp44
 70
     1
102
RTVSPost2010Prop45
280
     0
102
RTVSPost2010PropOp45
 70
     1
102
RTVSPost2010Prop46
 90
       50
102
RTVSPost2010PropOp46
 70
     1
102
RTVSPost2010Prop47
 90
       50
102
RTVSPost2010PropOp47
 70
     1
102
RTVSPost2010Prop48
 90
       50
102
RTVSPost2010PropOp48
 70
     1
102
RTVSPost2010Prop49
280
     0
102
RTVSPost2010PropOp49
 70
     1
102
RTVSPost2010Prop50
 90
       50
102
RTVSPost2010PropOp50
 70
     1
102
RTVSPost2010Prop51ColorIndex
 90
      256
102
RTVSPost2010Prop51ColorRGB
 90
-16777216
102
RTVSPost2010PropOp51
 70
     0
102
RTVSPost2010Prop52
140
1.0
102
RTVSPost2010PropOp52
 70
     0
102
RTVSPost2010Prop53
 90
        2
102
RTVSPost2010PropOp53
 70
     1
102
RTVSPost2010Prop54
  1
strokes_ogs.tif
102
RTVSPost2010PropOp54
 70
     1
102
RTVSPost2010Prop55
280
     0
102
RTVSPost2010PropOp55
 70
     1
102
RTVSPost2010Prop56
140
1.0
102
RTVSPost2010PropOp56
 70
     1
102
RTVSPost2010Prop57
140
1.0
102
RTVSPost2010PropOp57
 70
     1
  0
XRECORD
  5
5CF
102
{ACAD_REACTORS
330
5CE
102
}
330
5CE
100
AcDbXrecord
280
     1
102
RTVSPost2010Prop28
280
     0
102
RTVSPost2010PropOp28
 70
     1
102
RTVSPost2010Prop29
280
     1
102
RTVSPost2010PropOp29
 70
     1
102
RTVSPost2010Prop30
280
     1
102
RTVSPost2010PropOp30
 70
     1
102
RTVSPost2010Prop31
280
     0
102
RTVSPost2010PropOp31
 70
     1
102
RTVSPost2010Prop32
280
     0
102
RTVSPost2010PropOp32
 70
     1
102
RTVSPost2010Prop33
280
     0
102
RTVSPost2010PropOp33
 70
     1
102
RTVSPost2010Prop34
280
     0
102
RTVSPost2010PropOp34
 70
     1
102
RTVSPost2010Prop35
280
     0
102
RTVSPost2010PropOp35
 70
     1
102
RTVSPost2010Prop36
280
     0
102
RTVSPost2010PropOp36
 70
     1
102
RTVSPost2010Prop37
 90
       50
102
RTVSPost2010PropOp37
 70
     0
102
RTVSPost2010Prop38
140
0.0
102
RTVSPost2010PropOp38
 70
     0
102
RTVSPost2010Prop39
140
1.0
102
RTVSPost2010PropOp39
 70
     0
102
RTVSPost2010Prop40
 90
        0
102
RTVSPost2010PropOp40
 70
     0
102
RTVSPost2010Prop41ColorIndex
 90
       18
102
RTVSPost2010Prop41ColorRGB
 90
        0
102
RTVSPost2010PropOp41
 70
     0
102
RTVSPost2010Prop42
 90
       50
102
RTVSPost2010PropOp42
 70
     0
102
RTVSPost2010Prop43
 90
        3
102
RTVSPost2010PropOp43
 70
     0
102
RTVSPost2010Prop44ColorIndex
 90
        5
102
RTVSPost2010Prop44ColorRGB
 90
      255
102
RTVSPost2010PropOp44
 70
     0
102
RTVSPost2010Prop45
280
     0
102
RTVSPost2010PropOp45
 70
     1
102
RTVSPost2010Prop46
 90
       50
102
RTVSPost2010PropOp46
 70
     0
102
RTVSPost2010Prop47
 90
       50
102
RTVSPost2010PropOp47
 70
     0
102
RTVSPost2010Prop48
 90
       50
102
RTVSPost2010PropOp48
 70
     0
102
RTVSPost2010Prop49
280
     0
102
RTVSPost2010PropOp49
 70
     1
102
RTVSPost2010Prop50
 90
       50
102
RTVSPost2010PropOp50
 70
     0
102
RTVSPost2010Prop51ColorIndex
 90
      256
102
RTVSPost2010Prop51ColorRGB
 90
-16777216
102
RTVSPost2010PropOp51
 70
     0
102
RTVSPost2010Prop52
140
1.0
102
RTVSPost2010PropOp52
 70
     0
102
RTVSPost2010Prop53
 90
        2
102
RTVSPost2010PropOp53
 70
     0
102
RTVSPost2010Prop54
  1
strokes_ogs.tif
102
RTVSPost2010PropOp54
 70
     0
102
RTVSPost2010Prop55
280
     0
102
RTVSPost2010PropOp55
 70
     1
102
RTVSPost2010Prop56
140
1.0
102
RTVSPost2010PropOp56
 70
     0
102
RTVSPost2010Prop57
140
1.0
102
RTVSPost2010PropOp57
 70
     0
  0
XRECORD
  5
5BD
102
{ACAD_REACTORS
330
5BC
102
}
330
5BC
100
AcDbXrecord
280
     1
102
RTVSPost2010Prop28
280
     0
102
RTVSPost2010PropOp28
 70
     1
102
RTVSPost2010Prop29
280
     1
102
RTVSPost2010PropOp29
 70
     1
102
RTVSPost2010Prop30
280
     1
102
RTVSPost2010PropOp30
 70
     1
102
RTVSPost2010Prop31
280
     0
102
RTVSPost2010PropOp31
 70
     1
102
RTVSPost2010Prop32
280
     0
102
RTVSPost2010PropOp32
 70
     1
102
RTVSPost2010Prop33
280
     0
102
RTVSPost2010PropOp33
 70
     1
102
RTVSPost2010Prop34
280
     0
102
RTVSPost2010PropOp34
 70
     1
102
RTVSPost2010Prop35
280
     0
102
RTVSPost2010PropOp35
 70
     1
102
RTVSPost2010Prop36
280
     0
102
RTVSPost2010PropOp36
 70
     1
102
RTVSPost2010Prop37
 90
       50
102
RTVSPost2010PropOp37
 70
     1
102
RTVSPost2010Prop38
140
0.0
102
RTVSPost2010PropOp38
 70
     1
102
RTVSPost2010Prop39
140
1.0
102
RTVSPost2010PropOp39
 70
     1
102
RTVSPost2010Prop40
 90
        0
102
RTVSPost2010PropOp40
 70
     1
102
RTVSPost2010Prop41ColorIndex
 90
       18
102
RTVSPost2010Prop41ColorRGB
 90
        0
102
RTVSPost2010PropOp41
 70
     1
102
RTVSPost2010Prop42
 90
       50
102
RTVSPost2010PropOp42
 70
     1
102
RTVSPost2010Prop43
 90
        3
102
RTVSPost2010PropOp43
 70
     1
102
RTVSPost2010Prop44ColorIndex
 90
        5
102
RTVSPost2010Prop44ColorRGB
 90
      255
102
RTVSPost2010PropOp44
 70
     1
102
RTVSPost2010Prop45
280
     0
102
RTVSPost2010PropOp45
 70
     1
102
RTVSPost2010Prop46
 90
       50
102
RTVSPost2010PropOp46
 70
     1
102
RTVSPost2010Prop47
 90
       50
102
RTVSPost2010PropOp47
 70
     1
102
RTVSPost2010Prop48
 90
       50
102
RTVSPost2010PropOp48
 70
     1
102
RTVSPost2010Prop49
280
     0
102
RTVSPost2010PropOp49
 70
     1
102
RTVSPost2010Prop50
 90
       50
102
RTVSPost2010PropOp50
 70
     1
102
RTVSPost2010Prop51ColorIndex
 90
      256
102
RTVSPost2010Prop51ColorRGB
 90
-16777216
102
RTVSPost2010PropOp51
 70
     0
102
RTVSPost2010Prop52
140
1.0
102
RTVSPost2010PropOp52
 70
     0
102
RTVSPost2010Prop53
 90
        2
102
RTVSPost2010PropOp53
 70
     1
102
RTVSPost2010Prop54
  1
strokes_ogs.tif
102
RTVSPost2010PropOp54
 70
     1
102
RTVSPost2010Prop55
280
     0
102
RTVSPost2010PropOp55
 70
     1
102
RTVSPost2010Prop56
140
1.0
102
RTVSPost2010PropOp56
 70
     1
102
RTVSPost2010Prop57
140
1.0
102
RTVSPost2010PropOp57
 70
     1
  0
XRECORD
  5
5A1
102
{ACAD_REACTORS
330
5A0
102
}
330
5A0
100
AcDbXrecord
280
     1
102
RTVSPost2010Prop28
280
     0
102
RTVSPost2010PropOp28
 70
     1
102
RTVSPost2010Prop29
280
     1
102
RTVSPost2010PropOp29
 70
     1
102
RTVSPost2010Prop30
280
     1
102
RTVSPost2010PropOp30
 70
     1
102
RTVSPost2010Prop31
280
     0
102
RTVSPost2010PropOp31
 70
     1
102
RTVSPost2010Prop32
280
     0
102
RTVSPost2010PropOp32
 70
     1
102
RTVSPost2010Prop33
280
     0
102
RTVSPost2010PropOp33
 70
     1
102
RTVSPost2010Prop34
280
     0
102
RTVSPost2010PropOp34
 70
     1
102
RTVSPost2010Prop35
280
     0
102
RTVSPost2010PropOp35
 70
     1
102
RTVSPost2010Prop36
280
     0
102
RTVSPost2010PropOp36
 70
     1
102
RTVSPost2010Prop37
 90
       50
102
RTVSPost2010PropOp37
 70
     1
102
RTVSPost2010Prop38
140
0.0
102
RTVSPost2010PropOp38
 70
     1
102
RTVSPost2010Prop39
140
1.0
102
RTVSPost2010PropOp39
 70
     1
102
RTVSPost2010Prop40
 90
        0
102
RTVSPost2010PropOp40
 70
     1
102
RTVSPost2010Prop41ColorIndex
 90
       18
102
RTVSPost2010Prop41ColorRGB
 90
        0
102
RTVSPost2010PropOp41
 70
     1
102
RTVSPost2010Prop42
 90
       50
102
RTVSPost2010PropOp42
 70
     1
102
RTVSPost2010Prop43
 90
        3
102
RTVSPost2010PropOp43
 70
     1
102
RTVSPost2010Prop44ColorIndex
 90
        5
102
RTVSPost2010Prop44ColorRGB
 90
      255
102
RTVSPost2010PropOp44
 70
     1
102
RTVSPost2010Prop45
280
     0
102
RTVSPost2010PropOp45
 70
     1
102
RTVSPost2010Prop46
 90
       50
102
RTVSPost2010PropOp46
 70
     1
102
RTVSPost2010Prop47
 90
       50
102
RTVSPost2010PropOp47
 70
     1
102
RTVSPost2010Prop48
 90
       50
102
RTVSPost2010PropOp48
 70
     1
102
RTVSPost2010Prop49
280
     0
102
RTVSPost2010PropOp49
 70
     1
102
RTVSPost2010Prop50
 90
       50
102
RTVSPost2010PropOp50
 70
     1
102
RTVSPost2010Prop51ColorIndex
 90
      256
102
RTVSPost2010Prop51ColorRGB
 90
-16777216
102
RTVSPost2010PropOp51
 70
     0
102
RTVSPost2010Prop52
140
1.0
102
RTVSPost2010PropOp52
 70
     0
102
RTVSPost2010Prop53
 90
        2
102
RTVSPost2010PropOp53
 70
     1
102
RTVSPost2010Prop54
  1
strokes_ogs.tif
102
RTVSPost2010PropOp54
 70
     1
102
RTVSPost2010Prop55
280
     0
102
RTVSPost2010PropOp55
 70
     1
102
RTVSPost2010Prop56
140
1.0
102
RTVSPost2010PropOp56
 70
     1
102
RTVSPost2010Prop57
140
1.0
102
RTVSPost2010PropOp57
 70
     1
  0
XRECORD
  5
5A3
102
{ACAD_REACTORS
330
5A2
102
}
330
5A2
100
AcDbXrecord
280
     1
102
RTVSPost2010Prop28
280
     0
102
RTVSPost2010PropOp28
 70
     1
102
RTVSPost2010Prop29
280
     1
102
RTVSPost2010PropOp29
 70
     1
102
RTVSPost2010Prop30
280
     1
102
RTVSPost2010PropOp30
 70
     1
102
RTVSPost2010Prop31
280
     0
102
RTVSPost2010PropOp31
 70
     1
102
RTVSPost2010Prop32
280
     0
102
RTVSPost2010PropOp32
 70
     1
102
RTVSPost2010Prop33
280
     0
102
RTVSPost2010PropOp33
 70
     1
102
RTVSPost2010Prop34
280
     0
102
RTVSPost2010PropOp34
 70
     1
102
RTVSPost2010Prop35
280
     0
102
RTVSPost2010PropOp35
 70
     1
102
RTVSPost2010Prop36
280
     0
102
RTVSPost2010PropOp36
 70
     1
102
RTVSPost2010Prop37
 90
       50
102
RTVSPost2010PropOp37
 70
     1
102
RTVSPost2010Prop38
140
0.0
102
RTVSPost2010PropOp38
 70
     1
102
RTVSPost2010Prop39
140
1.0
102
RTVSPost2010PropOp39
 70
     1
102
RTVSPost2010Prop40
 90
        0
102
RTVSPost2010PropOp40
 70
     1
102
RTVSPost2010Prop41ColorIndex
 90
       18
102
RTVSPost2010Prop41ColorRGB
 90
        0
102
RTVSPost2010PropOp41
 70
     1
102
RTVSPost2010Prop42
 90
       50
102
RTVSPost2010PropOp42
 70
     1
102
RTVSPost2010Prop43
 90
        3
102
RTVSPost2010PropOp43
 70
     1
102
RTVSPost2010Prop44ColorIndex
 90
        5
102
RTVSPost2010Prop44ColorRGB
 90
      255
102
RTVSPost2010PropOp44
 70
     1
102
RTVSPost2010Prop45
280
     0
102
RTVSPost2010PropOp45
 70
     1
102
RTVSPost2010Prop46
 90
       50
102
RTVSPost2010PropOp46
 70
     1
102
RTVSPost2010Prop47
 90
       50
102
RTVSPost2010PropOp47
 70
     1
102
RTVSPost2010Prop48
 90
       50
102
RTVSPost2010PropOp48
 70
     1
102
RTVSPost2010Prop49
280
     0
102
RTVSPost2010PropOp49
 70
     1
102
RTVSPost2010Prop50
 90
       50
102
RTVSPost2010PropOp50
 70
     1
102
RTVSPost2010Prop51ColorIndex
 90
      256
102
RTVSPost2010Prop51ColorRGB
 90
-16777216
102
RTVSPost2010PropOp51
 70
     0
102
RTVSPost2010Prop52
140
1.0
102
RTVSPost2010PropOp52
 70
     0
102
RTVSPost2010Prop53
 90
        2
102
RTVSPost2010PropOp53
 70
     1
102
RTVSPost2010Prop54
  1
strokes_ogs.tif
102
RTVSPost2010PropOp54
 70
     1
102
RTVSPost2010Prop55
280
     0
102
RTVSPost2010PropOp55
 70
     1
102
RTVSPost2010Prop56
140
1.0
102
RTVSPost2010PropOp56
 70
     1
102
RTVSPost2010Prop57
140
1.0
102
RTVSPost2010PropOp57
 70
     1
  0
XRECORD
  5
5A5
102
{ACAD_REACTORS
330
5A4
102
}
330
5A4
100
AcDbXrecord
280
     1
102
RTVSPost2010Prop28
280
     0
102
RTVSPost2010PropOp28
 70
     1
102
RTVSPost2010Prop29
280
     1
102
RTVSPost2010PropOp29
 70
     1
102
RTVSPost2010Prop30
280
     1
102
RTVSPost2010PropOp30
 70
     1
102
RTVSPost2010Prop31
280
     0
102
RTVSPost2010PropOp31
 70
     1
102
RTVSPost2010Prop32
280
     0
102
RTVSPost2010PropOp32
 70
     1
102
RTVSPost2010Prop33
280
     0
102
RTVSPost2010PropOp33
 70
     1
102
RTVSPost2010Prop34
280
     0
102
RTVSPost2010PropOp34
 70
     1
102
RTVSPost2010Prop35
280
     0
102
RTVSPost2010PropOp35
 70
     1
102
RTVSPost2010Prop36
280
     0
102
RTVSPost2010PropOp36
 70
     1
102
RTVSPost2010Prop37
 90
       50
102
RTVSPost2010PropOp37
 70
     1
102
RTVSPost2010Prop38
140
0.0
102
RTVSPost2010PropOp38
 70
     1
102
RTVSPost2010Prop39
140
1.0
102
RTVSPost2010PropOp39
 70
     1
102
RTVSPost2010Prop40
 90
        0
102
RTVSPost2010PropOp40
 70
     1
102
RTVSPost2010Prop41ColorIndex
 90
       18
102
RTVSPost2010Prop41ColorRGB
 90
        0
102
RTVSPost2010PropOp41
 70
     1
102
RTVSPost2010Prop42
 90
       50
102
RTVSPost2010PropOp42
 70
     1
102
RTVSPost2010Prop43
 90
        3
102
RTVSPost2010PropOp43
 70
     1
102
RTVSPost2010Prop44ColorIndex
 90
        5
102
RTVSPost2010Prop44ColorRGB
 90
      255
102
RTVSPost2010PropOp44
 70
     1
102
RTVSPost2010Prop45
280
     0
102
RTVSPost2010PropOp45
 70
     1
102
RTVSPost2010Prop46
 90
       50
102
RTVSPost2010PropOp46
 70
     1
102
RTVSPost2010Prop47
 90
       50
102
RTVSPost2010PropOp47
 70
     1
102
RTVSPost2010Prop48
 90
       50
102
RTVSPost2010PropOp48
 70
     1
102
RTVSPost2010Prop49
280
     0
102
RTVSPost2010PropOp49
 70
     1
102
RTVSPost2010Prop50
 90
       50
102
RTVSPost2010PropOp50
 70
     1
102
RTVSPost2010Prop51ColorIndex
 90
      256
102
RTVSPost2010Prop51ColorRGB
 90
-16777216
102
RTVSPost2010PropOp51
 70
     0
102
RTVSPost2010Prop52
140
1.0
102
RTVSPost2010PropOp52
 70
     0
102
RTVSPost2010Prop53
 90
        2
102
RTVSPost2010PropOp53
 70
     1
102
RTVSPost2010Prop54
  1
strokes_ogs.tif
102
RTVSPost2010PropOp54
 70
     1
102
RTVSPost2010Prop55
280
     0
102
RTVSPost2010PropOp55
 70
     1
102
RTVSPost2010Prop56
140
1.0
102
RTVSPost2010PropOp56
 70
     1
102
RTVSPost2010Prop57
140
1.0
102
RTVSPost2010PropOp57
 70
     1
  0
XRECORD
  5
5A7
102
{ACAD_REACTORS
330
5A6
102
}
330
5A6
100
AcDbXrecord
280
     1
102
RTVSPost2010Prop28
280
     0
102
RTVSPost2010PropOp28
 70
     1
102
RTVSPost2010Prop29
280
     1
102
RTVSPost2010PropOp29
 70
     1
102
RTVSPost2010Prop30
280
     1
102
RTVSPost2010PropOp30
 70
     1
102
RTVSPost2010Prop31
280
     0
102
RTVSPost2010PropOp31
 70
     1
102
RTVSPost2010Prop32
280
     0
102
RTVSPost2010PropOp32
 70
     1
102
RTVSPost2010Prop33
280
     0
102
RTVSPost2010PropOp33
 70
     1
102
RTVSPost2010Prop34
280
     0
102
RTVSPost2010PropOp34
 70
     1
102
RTVSPost2010Prop35
280
     0
102
RTVSPost2010PropOp35
 70
     1
102
RTVSPost2010Prop36
280
     0
102
RTVSPost2010PropOp36
 70
     1
102
RTVSPost2010Prop37
 90
       50
102
RTVSPost2010PropOp37
 70
     1
102
RTVSPost2010Prop38
140
0.0
102
RTVSPost2010PropOp38
 70
     1
102
RTVSPost2010Prop39
140
1.0
102
RTVSPost2010PropOp39
 70
     1
102
RTVSPost2010Prop40
 90
        0
102
RTVSPost2010PropOp40
 70
     1
102
RTVSPost2010Prop41ColorIndex
 90
       18
102
RTVSPost2010Prop41ColorRGB
 90
        0
102
RTVSPost2010PropOp41
 70
     1
102
RTVSPost2010Prop42
 90
       50
102
RTVSPost2010PropOp42
 70
     1
102
RTVSPost2010Prop43
 90
        3
102
RTVSPost2010PropOp43
 70
     1
102
RTVSPost2010Prop44ColorIndex
 90
        5
102
RTVSPost2010Prop44ColorRGB
 90
      255
102
RTVSPost2010PropOp44
 70
     1
102
RTVSPost2010Prop45
280
     0
102
RTVSPost2010PropOp45
 70
     1
102
RTVSPost2010Prop46
 90
       50
102
RTVSPost2010PropOp46
 70
     1
102
RTVSPost2010Prop47
 90
       50
102
RTVSPost2010PropOp47
 70
     1
102
RTVSPost2010Prop48
 90
       50
102
RTVSPost2010PropOp48
 70
     1
102
RTVSPost2010Prop49
280
     0
102
RTVSPost2010PropOp49
 70
     1
102
RTVSPost2010Prop50
 90
       50
102
RTVSPost2010PropOp50
 70
     1
102
RTVSPost2010Prop51ColorIndex
 90
      256
102
RTVSPost2010Prop51ColorRGB
 90
-16777216
102
RTVSPost2010PropOp51
 70
     0
102
RTVSPost2010Prop52
140
1.0
102
RTVSPost2010PropOp52
 70
     0
102
RTVSPost2010Prop53
 90
        2
102
RTVSPost2010PropOp53
 70
     1
102
RTVSPost2010Prop54
  1
strokes_ogs.tif
102
RTVSPost2010PropOp54
 70
     1
102
RTVSPost2010Prop55
280
     0
102
RTVSPost2010PropOp55
 70
     1
102
RTVSPost2010Prop56
140
1.0
102
RTVSPost2010PropOp56
 70
     1
102
RTVSPost2010Prop57
140
1.0
102
RTVSPost2010PropOp57
 70
     1
  0
XRECORD
  5
5AF
102
{ACAD_REACTORS
330
5AE
102
}
330
5AE
100
AcDbXrecord
280
     1
102
RTVSPost2010Prop28
280
     0
102
RTVSPost2010PropOp28
 70
     1
102
RTVSPost2010Prop29
280
     1
102
RTVSPost2010PropOp29
 70
     1
102
RTVSPost2010Prop30
280
     1
102
RTVSPost2010PropOp30
 70
     1
102
RTVSPost2010Prop31
280
     0
102
RTVSPost2010PropOp31
 70
     1
102
RTVSPost2010Prop32
280
     0
102
RTVSPost2010PropOp32
 70
     1
102
RTVSPost2010Prop33
280
     0
102
RTVSPost2010PropOp33
 70
     1
102
RTVSPost2010Prop34
280
     0
102
RTVSPost2010PropOp34
 70
     1
102
RTVSPost2010Prop35
280
     0
102
RTVSPost2010PropOp35
 70
     1
102
RTVSPost2010Prop36
280
     0
102
RTVSPost2010PropOp36
 70
     1
102
RTVSPost2010Prop37
 90
       50
102
RTVSPost2010PropOp37
 70
     1
102
RTVSPost2010Prop38
140
0.0
102
RTVSPost2010PropOp38
 70
     1
102
RTVSPost2010Prop39
140
1.0
102
RTVSPost2010PropOp39
 70
     1
102
RTVSPost2010Prop40
 90
        0
102
RTVSPost2010PropOp40
 70
     1
102
RTVSPost2010Prop41ColorIndex
 90
       18
102
RTVSPost2010Prop41ColorRGB
 90
        0
102
RTVSPost2010PropOp41
 70
     1
102
RTVSPost2010Prop42
 90
       50
102
RTVSPost2010PropOp42
 70
     1
102
RTVSPost2010Prop43
 90
        3
102
RTVSPost2010PropOp43
 70
     1
102
RTVSPost2010Prop44ColorIndex
 90
        5
102
RTVSPost2010Prop44ColorRGB
 90
      255
102
RTVSPost2010PropOp44
 70
     1
102
RTVSPost2010Prop45
280
     0
102
RTVSPost2010PropOp45
 70
     1
102
RTVSPost2010Prop46
 90
       50
102
RTVSPost2010PropOp46
 70
     1
102
RTVSPost2010Prop47
 90
       50
102
RTVSPost2010PropOp47
 70
     1
102
RTVSPost2010Prop48
 90
       50
102
RTVSPost2010PropOp48
 70
     1
102
RTVSPost2010Prop49
280
     0
102
RTVSPost2010PropOp49
 70
     1
102
RTVSPost2010Prop50
 90
       50
102
RTVSPost2010PropOp50
 70
     1
102
RTVSPost2010Prop51ColorIndex
 90
      256
102
RTVSPost2010Prop51ColorRGB
 90
-16777216
102
RTVSPost2010PropOp51
 70
     0
102
RTVSPost2010Prop52
140
1.0
102
RTVSPost2010PropOp52
 70
     0
102
RTVSPost2010Prop53
 90
        2
102
RTVSPost2010PropOp53
 70
     1
102
RTVSPost2010Prop54
  1
strokes_ogs.tif
102
RTVSPost2010PropOp54
 70
     1
102
RTVSPost2010Prop55
280
     0
102
RTVSPost2010PropOp55
 70
     1
102
RTVSPost2010Prop56
140
1.0
102
RTVSPost2010PropOp56
 70
     1
102
RTVSPost2010Prop57
140
1.0
102
RTVSPost2010PropOp57
 70
     1
  0
XRECORD
  5
5CB
102
{ACAD_REACTORS
330
5CA
102
}
330
5CA
100
AcDbXrecord
280
     1
102
RTVSPost2010Prop28
280
     0
102
RTVSPost2010PropOp28
 70
     1
102
RTVSPost2010Prop29
280
     1
102
RTVSPost2010PropOp29
 70
     1
102
RTVSPost2010Prop30
280
     1
102
RTVSPost2010PropOp30
 70
     1
102
RTVSPost2010Prop31
280
     0
102
RTVSPost2010PropOp31
 70
     1
102
RTVSPost2010Prop32
280
     0
102
RTVSPost2010PropOp32
 70
     1
102
RTVSPost2010Prop33
280
     0
102
RTVSPost2010PropOp33
 70
     1
102
RTVSPost2010Prop34
280
     0
102
RTVSPost2010PropOp34
 70
     1
102
RTVSPost2010Prop35
280
     0
102
RTVSPost2010PropOp35
 70
     1
102
RTVSPost2010Prop36
280
     0
102
RTVSPost2010PropOp36
 70
     1
102
RTVSPost2010Prop37
 90
       50
102
RTVSPost2010PropOp37
 70
     0
102
RTVSPost2010Prop38
140
0.0
102
RTVSPost2010PropOp38
 70
     0
102
RTVSPost2010Prop39
140
1.0
102
RTVSPost2010PropOp39
 70
     0
102
RTVSPost2010Prop40
 90
        0
102
RTVSPost2010PropOp40
 70
     0
102
RTVSPost2010Prop41ColorIndex
 90
       18
102
RTVSPost2010Prop41ColorRGB
 90
        0
102
RTVSPost2010PropOp41
 70
     0
102
RTVSPost2010Prop42
 90
       50
102
RTVSPost2010PropOp42
 70
     0
102
RTVSPost2010Prop43
 90
        3
102
RTVSPost2010PropOp43
 70
     0
102
RTVSPost2010Prop44ColorIndex
 90
        5
102
RTVSPost2010Prop44ColorRGB
 90
      255
102
RTVSPost2010PropOp44
 70
     0
102
RTVSPost2010Prop45
280
     0
102
RTVSPost2010PropOp45
 70
     1
102
RTVSPost2010Prop46
 90
       50
102
RTVSPost2010PropOp46
 70
     0
102
RTVSPost2010Prop47
 90
       50
102
RTVSPost2010PropOp47
 70
     0
102
RTVSPost2010Prop48
 90
       50
102
RTVSPost2010PropOp48
 70
     0
102
RTVSPost2010Prop49
280
     0
102
RTVSPost2010PropOp49
 70
     1
102
RTVSPost2010Prop50
 90
       50
102
RTVSPost2010PropOp50
 70
     0
102
RTVSPost2010Prop51ColorIndex
 90
      256
102
RTVSPost2010Prop51ColorRGB
 90
-16777216
102
RTVSPost2010PropOp51
 70
     0
102
RTVSPost2010Prop52
140
1.0
102
RTVSPost2010PropOp52
 70
     0
102
RTVSPost2010Prop53
 90
        2
102
RTVSPost2010PropOp53
 70
     0
102
RTVSPost2010Prop54
  1
strokes_ogs.tif
102
RTVSPost2010PropOp54
 70
     0
102
RTVSPost2010Prop55
280
     0
102
RTVSPost2010PropOp55
 70
     1
102
RTVSPost2010Prop56
140
1.0
102
RTVSPost2010PropOp56
 70
     0
102
RTVSPost2010Prop57
140
1.0
102
RTVSPost2010PropOp57
 70
     0
  0
XRECORD
  5
5BB
102
{ACAD_REACTORS
330
5BA
102
}
330
5BA
100
AcDbXrecord
280
     1
102
RTVSPost2010Prop28
280
     0
102
RTVSPost2010PropOp28
 70
     1
102
RTVSPost2010Prop29
280
     1
102
RTVSPost2010PropOp29
 70
     1
102
RTVSPost2010Prop30
280
     1
102
RTVSPost2010PropOp30
 70
     1
102
RTVSPost2010Prop31
280
     0
102
RTVSPost2010PropOp31
 70
     1
102
RTVSPost2010Prop32
280
     0
102
RTVSPost2010PropOp32
 70
     1
102
RTVSPost2010Prop33
280
     0
102
RTVSPost2010PropOp33
 70
     1
102
RTVSPost2010Prop34
280
     0
102
RTVSPost2010PropOp34
 70
     1
102
RTVSPost2010Prop35
280
     0
102
RTVSPost2010PropOp35
 70
     1
102
RTVSPost2010Prop36
280
     0
102
RTVSPost2010PropOp36
 70
     1
102
RTVSPost2010Prop37
 90
       50
102
RTVSPost2010PropOp37
 70
     1
102
RTVSPost2010Prop38
140
0.0
102
RTVSPost2010PropOp38
 70
     1
102
RTVSPost2010Prop39
140
1.0
102
RTVSPost2010PropOp39
 70
     1
102
RTVSPost2010Prop40
 90
        0
102
RTVSPost2010PropOp40
 70
     1
102
RTVSPost2010Prop41ColorIndex
 90
       18
102
RTVSPost2010Prop41ColorRGB
 90
        0
102
RTVSPost2010PropOp41
 70
     1
102
RTVSPost2010Prop42
 90
       50
102
RTVSPost2010PropOp42
 70
     1
102
RTVSPost2010Prop43
 90
        3
102
RTVSPost2010PropOp43
 70
     1
102
RTVSPost2010Prop44ColorIndex
 90
        5
102
RTVSPost2010Prop44ColorRGB
 90
      255
102
RTVSPost2010PropOp44
 70
     1
102
RTVSPost2010Prop45
280
     0
102
RTVSPost2010PropOp45
 70
     1
102
RTVSPost2010Prop46
 90
       50
102
RTVSPost2010PropOp46
 70
     1
102
RTVSPost2010Prop47
 90
       50
102
RTVSPost2010PropOp47
 70
     1
102
RTVSPost2010Prop48
 90
       50
102
RTVSPost2010PropOp48
 70
     1
102
RTVSPost2010Prop49
280
     0
102
RTVSPost2010PropOp49
 70
     1
102
RTVSPost2010Prop50
 90
       50
102
RTVSPost2010PropOp50
 70
     1
102
RTVSPost2010Prop51ColorIndex
 90
      256
102
RTVSPost2010Prop51ColorRGB
 90
-16777216
102
RTVSPost2010PropOp51
 70
     0
102
RTVSPost2010Prop52
140
1.0
102
RTVSPost2010PropOp52
 70
     0
102
RTVSPost2010Prop53
 90
        2
102
RTVSPost2010PropOp53
 70
     1
102
RTVSPost2010Prop54
  1
strokes_ogs.tif
102
RTVSPost2010PropOp54
 70
     1
102
RTVSPost2010Prop55
280
     0
102
RTVSPost2010PropOp55
 70
     1
102
RTVSPost2010Prop56
140
1.0
102
RTVSPost2010PropOp56
 70
     1
102
RTVSPost2010Prop57
140
1.0
102
RTVSPost2010PropOp57
 70
     1
  0
XRECORD
  5
5CD
102
{ACAD_REACTORS
330
5CC
102
}
330
5CC
100
AcDbXrecord
280
     1
102
RTVSPost2010Prop28
280
     0
102
RTVSPost2010PropOp28
 70
     1
102
RTVSPost2010Prop29
280
     1
102
RTVSPost2010PropOp29
 70
     1
102
RTVSPost2010Prop30
280
     1
102
RTVSPost2010PropOp30
 70
     1
102
RTVSPost2010Prop31
280
     0
102
RTVSPost2010PropOp31
 70
     1
102
RTVSPost2010Prop32
280
     0
102
RTVSPost2010PropOp32
 70
     1
102
RTVSPost2010Prop33
280
     0
102
RTVSPost2010PropOp33
 70
     1
102
RTVSPost2010Prop34
280
     0
102
RTVSPost2010PropOp34
 70
     1
102
RTVSPost2010Prop35
280
     0
102
RTVSPost2010PropOp35
 70
     1
102
RTVSPost2010Prop36
280
     0
102
RTVSPost2010PropOp36
 70
     1
102
RTVSPost2010Prop37
 90
       50
102
RTVSPost2010PropOp37
 70
     0
102
RTVSPost2010Prop38
140
0.0
102
RTVSPost2010PropOp38
 70
     0
102
RTVSPost2010Prop39
140
1.0
102
RTVSPost2010PropOp39
 70
     0
102
RTVSPost2010Prop40
 90
        0
102
RTVSPost2010PropOp40
 70
     0
102
RTVSPost2010Prop41ColorIndex
 90
       18
102
RTVSPost2010Prop41ColorRGB
 90
        0
102
RTVSPost2010PropOp41
 70
     0
102
RTVSPost2010Prop42
 90
       50
102
RTVSPost2010PropOp42
 70
     0
102
RTVSPost2010Prop43
 90
        3
102
RTVSPost2010PropOp43
 70
     0
102
RTVSPost2010Prop44ColorIndex
 90
        5
102
RTVSPost2010Prop44ColorRGB
 90
      255
102
RTVSPost2010PropOp44
 70
     0
102
RTVSPost2010Prop45
280
     0
102
RTVSPost2010PropOp45
 70
     1
102
RTVSPost2010Prop46
 90
       50
102
RTVSPost2010PropOp46
 70
     0
102
RTVSPost2010Prop47
 90
       50
102
RTVSPost2010PropOp47
 70
     0
102
RTVSPost2010Prop48
 90
       50
102
RTVSPost2010PropOp48
 70
     0
102
RTVSPost2010Prop49
280
     0
102
RTVSPost2010PropOp49
 70
     1
102
RTVSPost2010Prop50
 90
       50
102
RTVSPost2010PropOp50
 70
     0
102
RTVSPost2010Prop51ColorIndex
 90
      256
102
RTVSPost2010Prop51ColorRGB
 90
-16777216
102
RTVSPost2010PropOp51
 70
     0
102
RTVSPost2010Prop52
140
1.0
102
RTVSPost2010PropOp52
 70
     0
102
RTVSPost2010Prop53
 90
        2
102
RTVSPost2010PropOp53
 70
     0
102
RTVSPost2010Prop54
  1
strokes_ogs.tif
102
RTVSPost2010PropOp54
 70
     0
102
RTVSPost2010Prop55
280
     0
102
RTVSPost2010PropOp55
 70
     1
102
RTVSPost2010Prop56
140
1.0
102
RTVSPost2010PropOp56
 70
     0
102
RTVSPost2010Prop57
140
1.0
102
RTVSPost2010PropOp57
 70
     0
  0
XRECORD
  5
5B3
102
{ACAD_REACTORS
330
5B2
102
}
330
5B2
100
AcDbXrecord
280
     1
102
RTVSPost2010Prop28
280
     0
102
RTVSPost2010PropOp28
 70
     1
102
RTVSPost2010Prop29
280
     1
102
RTVSPost2010PropOp29
 70
     1
102
RTVSPost2010Prop30
280
     1
102
RTVSPost2010PropOp30
 70
     1
102
RTVSPost2010Prop31
280
     0
102
RTVSPost2010PropOp31
 70
     1
102
RTVSPost2010Prop32
280
     0
102
RTVSPost2010PropOp32
 70
     1
102
RTVSPost2010Prop33
280
     0
102
RTVSPost2010PropOp33
 70
     1
102
RTVSPost2010Prop34
280
     0
102
RTVSPost2010PropOp34
 70
     1
102
RTVSPost2010Prop35
280
     0
102
RTVSPost2010PropOp35
 70
     1
102
RTVSPost2010Prop36
280
     0
102
RTVSPost2010PropOp36
 70
     1
102
RTVSPost2010Prop37
 90
       50
102
RTVSPost2010PropOp37
 70
     1
102
RTVSPost2010Prop38
140
0.0
102
RTVSPost2010PropOp38
 70
     1
102
RTVSPost2010Prop39
140
1.0
102
RTVSPost2010PropOp39
 70
     1
102
RTVSPost2010Prop40
 90
        0
102
RTVSPost2010PropOp40
 70
     1
102
RTVSPost2010Prop41ColorIndex
 90
       18
102
RTVSPost2010Prop41ColorRGB
 90
        0
102
RTVSPost2010PropOp41
 70
     1
102
RTVSPost2010Prop42
 90
       50
102
RTVSPost2010PropOp42
 70
     1
102
RTVSPost2010Prop43
 90
        3
102
RTVSPost2010PropOp43
 70
     1
102
RTVSPost2010Prop44ColorIndex
 90
        5
102
RTVSPost2010Prop44ColorRGB
 90
      255
102
RTVSPost2010PropOp44
 70
     1
102
RTVSPost2010Prop45
280
     0
102
RTVSPost2010PropOp45
 70
     1
102
RTVSPost2010Prop46
 90
       50
102
RTVSPost2010PropOp46
 70
     1
102
RTVSPost2010Prop47
 90
       50
102
RTVSPost2010PropOp47
 70
     1
102
RTVSPost2010Prop48
 90
       50
102
RTVSPost2010PropOp48
 70
     1
102
RTVSPost2010Prop49
280
     0
102
RTVSPost2010PropOp49
 70
     1
102
RTVSPost2010Prop50
 90
       50
102
RTVSPost2010PropOp50
 70
     1
102
RTVSPost2010Prop51ColorIndex
 90
      256
102
RTVSPost2010Prop51ColorRGB
 90
-16777216
102
RTVSPost2010PropOp51
 70
     0
102
RTVSPost2010Prop52
140
1.0
102
RTVSPost2010PropOp52
 70
     0
102
RTVSPost2010Prop53
 90
        2
102
RTVSPost2010PropOp53
 70
     1
102
RTVSPost2010Prop54
  1
strokes_ogs.tif
102
RTVSPost2010PropOp54
 70
     1
102
RTVSPost2010Prop55
280
     0
102
RTVSPost2010PropOp55
 70
     1
102
RTVSPost2010Prop56
140
1.0
102
RTVSPost2010PropOp56
 70
     1
102
RTVSPost2010Prop57
140
1.0
102
RTVSPost2010PropOp57
 70
     1
  0
XRECORD
  5
5C9
102
{ACAD_REACTORS
330
5C8
102
}
330
5C8
100
AcDbXrecord
280
     1
102
RTVSPost2010Prop28
280
     0
102
RTVSPost2010PropOp28
 70
     1
102
RTVSPost2010Prop29
280
     1
102
RTVSPost2010PropOp29
 70
     1
102
RTVSPost2010Prop30
280
     1
102
RTVSPost2010PropOp30
 70
     1
102
RTVSPost2010Prop31
280
     0
102
RTVSPost2010PropOp31
 70
     1
102
RTVSPost2010Prop32
280
     0
102
RTVSPost2010PropOp32
 70
     1
102
RTVSPost2010Prop33
280
     0
102
RTVSPost2010PropOp33
 70
     1
102
RTVSPost2010Prop34
280
     0
102
RTVSPost2010PropOp34
 70
     1
102
RTVSPost2010Prop35
280
     0
102
RTVSPost2010PropOp35
 70
     1
102
RTVSPost2010Prop36
280
     0
102
RTVSPost2010PropOp36
 70
     1
102
RTVSPost2010Prop37
 90
       50
102
RTVSPost2010PropOp37
 70
     1
102
RTVSPost2010Prop38
140
0.0
102
RTVSPost2010PropOp38
 70
     1
102
RTVSPost2010Prop39
140
1.0
102
RTVSPost2010PropOp39
 70
     1
102
RTVSPost2010Prop40
 90
        0
102
RTVSPost2010PropOp40
 70
     1
102
RTVSPost2010Prop41ColorIndex
 90
       18
102
RTVSPost2010Prop41ColorRGB
 90
        0
102
RTVSPost2010PropOp41
 70
     1
102
RTVSPost2010Prop42
 90
       50
102
RTVSPost2010PropOp42
 70
     1
102
RTVSPost2010Prop43
 90
        3
102
RTVSPost2010PropOp43
 70
     1
102
RTVSPost2010Prop44ColorIndex
 90
        5
102
RTVSPost2010Prop44ColorRGB
 90
      255
102
RTVSPost2010PropOp44
 70
     1
102
RTVSPost2010Prop45
280
     0
102
RTVSPost2010PropOp45
 70
     1
102
RTVSPost2010Prop46
 90
       50
102
RTVSPost2010PropOp46
 70
     1
102
RTVSPost2010Prop47
 90
       50
102
RTVSPost2010PropOp47
 70
     1
102
RTVSPost2010Prop48
 90
       50
102
RTVSPost2010PropOp48
 70
     1
102
RTVSPost2010Prop49
280
     0
102
RTVSPost2010PropOp49
 70
     1
102
RTVSPost2010Prop50
 90
       50
102
RTVSPost2010PropOp50
 70
     1
102
RTVSPost2010Prop51ColorIndex
 90
      256
102
RTVSPost2010Prop51ColorRGB
 90
-16777216
102
RTVSPost2010PropOp51
 70
     0
102
RTVSPost2010Prop52
140
1.0
102
RTVSPost2010PropOp52
 70
     0
102
RTVSPost2010Prop53
 90
        2
102
RTVSPost2010PropOp53
 70
     1
102
RTVSPost2010Prop54
  1
strokes_ogs.tif
102
RTVSPost2010PropOp54
 70
     1
102
RTVSPost2010Prop55
280
     0
102
RTVSPost2010PropOp55
 70
     1
102
RTVSPost2010Prop56
140
1.0
102
RTVSPost2010PropOp56
 70
     1
102
RTVSPost2010Prop57
140
1.0
102
RTVSPost2010PropOp57
 70
     1
  0
XRECORD
  5
5C7
102
{ACAD_REACTORS
330
5C6
102
}
330
5C6
100
AcDbXrecord
280
     1
102
RTVSPost2010Prop28
280
     0
102
RTVSPost2010PropOp28
 70
     1
102
RTVSPost2010Prop29
280
     1
102
RTVSPost2010PropOp29
 70
     1
102
RTVSPost2010Prop30
280
     1
102
RTVSPost2010PropOp30
 70
     1
102
RTVSPost2010Prop31
280
     0
102
RTVSPost2010PropOp31
 70
     1
102
RTVSPost2010Prop32
280
     0
102
RTVSPost2010PropOp32
 70
     1
102
RTVSPost2010Prop33
280
     0
102
RTVSPost2010PropOp33
 70
     1
102
RTVSPost2010Prop34
280
     0
102
RTVSPost2010PropOp34
 70
     1
102
RTVSPost2010Prop35
280
     0
102
RTVSPost2010PropOp35
 70
     1
102
RTVSPost2010Prop36
280
     0
102
RTVSPost2010PropOp36
 70
     1
102
RTVSPost2010Prop37
 90
       50
102
RTVSPost2010PropOp37
 70
     1
102
RTVSPost2010Prop38
140
0.0
102
RTVSPost2010PropOp38
 70
     1
102
RTVSPost2010Prop39
140
1.0
102
RTVSPost2010PropOp39
 70
     1
102
RTVSPost2010Prop40
 90
        0
102
RTVSPost2010PropOp40
 70
     1
102
RTVSPost2010Prop41ColorIndex
 90
       18
102
RTVSPost2010Prop41ColorRGB
 90
        0
102
RTVSPost2010PropOp41
 70
     1
102
RTVSPost2010Prop42
 90
       50
102
RTVSPost2010PropOp42
 70
     1
102
RTVSPost2010Prop43
 90
        3
102
RTVSPost2010PropOp43
 70
     1
102
RTVSPost2010Prop44ColorIndex
 90
        5
102
RTVSPost2010Prop44ColorRGB
 90
      255
102
RTVSPost2010PropOp44
 70
     1
102
RTVSPost2010Prop45
280
     0
102
RTVSPost2010PropOp45
 70
     1
102
RTVSPost2010Prop46
 90
       50
102
RTVSPost2010PropOp46
 70
     1
102
RTVSPost2010Prop47
 90
       50
102
RTVSPost2010PropOp47
 70
     1
102
RTVSPost2010Prop48
 90
       50
102
RTVSPost2010PropOp48
 70
     1
102
RTVSPost2010Prop49
280
     0
102
RTVSPost2010PropOp49
 70
     1
102
RTVSPost2010Prop50
 90
       50
102
RTVSPost2010PropOp50
 70
     1
102
RTVSPost2010Prop51ColorIndex
 90
      256
102
RTVSPost2010Prop51ColorRGB
 90
-16777216
102
RTVSPost2010PropOp51
 70
     0
102
RTVSPost2010Prop52
140
1.0
102
RTVSPost2010PropOp52
 70
     0
102
RTVSPost2010Prop53
 90
        2
102
RTVSPost2010PropOp53
 70
     1
102
RTVSPost2010Prop54
  1
strokes_ogs.tif
102
RTVSPost2010PropOp54
 70
     1
102
RTVSPost2010Prop55
280
     0
102
RTVSPost2010PropOp55
 70
     1
102
RTVSPost2010Prop56
140
1.0
102
RTVSPost2010PropOp56
 70
     1
102
RTVSPost2010Prop57
140
1.0
102
RTVSPost2010PropOp57
 70
     1
  0
XRECORD
  5
5C1
102
{ACAD_REACTORS
330
5C0
102
}
330
5C0
100
AcDbXrecord
280
     1
102
RTVSPost2010Prop28
280
     0
102
RTVSPost2010PropOp28
 70
     1
102
RTVSPost2010Prop29
280
     1
102
RTVSPost2010PropOp29
 70
     1
102
RTVSPost2010Prop30
280
     1
102
RTVSPost2010PropOp30
 70
     1
102
RTVSPost2010Prop31
280
     0
102
RTVSPost2010PropOp31
 70
     1
102
RTVSPost2010Prop32
280
     0
102
RTVSPost2010PropOp32
 70
     1
102
RTVSPost2010Prop33
280
     0
102
RTVSPost2010PropOp33
 70
     1
102
RTVSPost2010Prop34
280
     0
102
RTVSPost2010PropOp34
 70
     1
102
RTVSPost2010Prop35
280
     0
102
RTVSPost2010PropOp35
 70
     1
102
RTVSPost2010Prop36
280
     0
102
RTVSPost2010PropOp36
 70
     1
102
RTVSPost2010Prop37
 90
       50
102
RTVSPost2010PropOp37
 70
     1
102
RTVSPost2010Prop38
140
0.0
102
RTVSPost2010PropOp38
 70
     1
102
RTVSPost2010Prop39
140
1.0
102
RTVSPost2010PropOp39
 70
     1
102
RTVSPost2010Prop40
 90
        0
102
RTVSPost2010PropOp40
 70
     1
102
RTVSPost2010Prop41ColorIndex
 90
       18
102
RTVSPost2010Prop41ColorRGB
 90
        0
102
RTVSPost2010PropOp41
 70
     1
102
RTVSPost2010Prop42
 90
       50
102
RTVSPost2010PropOp42
 70
     1
102
RTVSPost2010Prop43
 90
        3
102
RTVSPost2010PropOp43
 70
     1
102
RTVSPost2010Prop44ColorIndex
 90
        5
102
RTVSPost2010Prop44ColorRGB
 90
      255
102
RTVSPost2010PropOp44
 70
     1
102
RTVSPost2010Prop45
280
     0
102
RTVSPost2010PropOp45
 70
     1
102
RTVSPost2010Prop46
 90
       50
102
RTVSPost2010PropOp46
 70
     1
102
RTVSPost2010Prop47
 90
       50
102
RTVSPost2010PropOp47
 70
     1
102
RTVSPost2010Prop48
 90
       50
102
RTVSPost2010PropOp48
 70
     1
102
RTVSPost2010Prop49
280
     0
102
RTVSPost2010PropOp49
 70
     1
102
RTVSPost2010Prop50
 90
       50
102
RTVSPost2010PropOp50
 70
     1
102
RTVSPost2010Prop51ColorIndex
 90
      256
102
RTVSPost2010Prop51ColorRGB
 90
-16777216
102
RTVSPost2010PropOp51
 70
     0
102
RTVSPost2010Prop52
140
1.0
102
RTVSPost2010PropOp52
 70
     0
102
RTVSPost2010Prop53
 90
        2
102
RTVSPost2010PropOp53
 70
     1
102
RTVSPost2010Prop54
  1
strokes_ogs.tif
102
RTVSPost2010PropOp54
 70
     1
102
RTVSPost2010Prop55
280
     0
102
RTVSPost2010PropOp55
 70
     1
102
RTVSPost2010Prop56
140
1.0
102
RTVSPost2010PropOp56
 70
     1
102
RTVSPost2010Prop57
140
1.0
102
RTVSPost2010PropOp57
 70
     1
  0
XRECORD
  5
5C3
102
{ACAD_REACTORS
330
5C2
102
}
330
5C2
100
AcDbXrecord
280
     1
102
RTVSPost2010Prop28
280
     0
102
RTVSPost2010PropOp28
 70
     1
102
RTVSPost2010Prop29
280
     1
102
RTVSPost2010PropOp29
 70
     1
102
RTVSPost2010Prop30
280
     1
102
RTVSPost2010PropOp30
 70
     1
102
RTVSPost2010Prop31
280
     0
102
RTVSPost2010PropOp31
 70
     1
102
RTVSPost2010Prop32
280
     0
102
RTVSPost2010PropOp32
 70
     1
102
RTVSPost2010Prop33
280
     0
102
RTVSPost2010PropOp33
 70
     1
102
RTVSPost2010Prop34
280
     0
102
RTVSPost2010PropOp34
 70
     1
102
RTVSPost2010Prop35
280
     0
102
RTVSPost2010PropOp35
 70
     1
102
RTVSPost2010Prop36
280
     0
102
RTVSPost2010PropOp36
 70
     1
102
RTVSPost2010Prop37
 90
       50
102
RTVSPost2010PropOp37
 70
     1
102
RTVSPost2010Prop38
140
0.0
102
RTVSPost2010PropOp38
 70
     1
102
RTVSPost2010Prop39
140
1.0
102
RTVSPost2010PropOp39
 70
     1
102
RTVSPost2010Prop40
 90
        0
102
RTVSPost2010PropOp40
 70
     1
102
RTVSPost2010Prop41ColorIndex
 90
       18
102
RTVSPost2010Prop41ColorRGB
 90
        0
102
RTVSPost2010PropOp41
 70
     1
102
RTVSPost2010Prop42
 90
       50
102
RTVSPost2010PropOp42
 70
     1
102
RTVSPost2010Prop43
 90
        3
102
RTVSPost2010PropOp43
 70
     1
102
RTVSPost2010Prop44ColorIndex
 90
        5
102
RTVSPost2010Prop44ColorRGB
 90
      255
102
RTVSPost2010PropOp44
 70
     1
102
RTVSPost2010Prop45
280
     0
102
RTVSPost2010PropOp45
 70
     1
102
RTVSPost2010Prop46
 90
       50
102
RTVSPost2010PropOp46
 70
     1
102
RTVSPost2010Prop47
 90
       50
102
RTVSPost2010PropOp47
 70
     1
102
RTVSPost2010Prop48
 90
       50
102
RTVSPost2010PropOp48
 70
     1
102
RTVSPost2010Prop49
280
     0
102
RTVSPost2010PropOp49
 70
     1
102
RTVSPost2010Prop50
 90
       50
102
RTVSPost2010PropOp50
 70
     1
102
RTVSPost2010Prop51ColorIndex
 90
      256
102
RTVSPost2010Prop51ColorRGB
 90
-16777216
102
RTVSPost2010PropOp51
 70
     0
102
RTVSPost2010Prop52
140
1.0
102
RTVSPost2010PropOp52
 70
     0
102
RTVSPost2010Prop53
 90
        2
102
RTVSPost2010PropOp53
 70
     1
102
RTVSPost2010Prop54
  1
strokes_ogs.tif
102
RTVSPost2010PropOp54
 70
     1
102
RTVSPost2010Prop55
280
     0
102
RTVSPost2010PropOp55
 70
     1
102
RTVSPost2010Prop56
140
1.0
102
RTVSPost2010PropOp56
 70
     1
102
RTVSPost2010Prop57
140
1.0
102
RTVSPost2010PropOp57
 70
     1
  0
XRECORD
  5
5B9
102
{ACAD_REACTORS
330
5B8
102
}
330
5B8
100
AcDbXrecord
280
     1
102
RTVSPost2010Prop28
280
     0
102
RTVSPost2010PropOp28
 70
     1
102
RTVSPost2010Prop29
280
     1
102
RTVSPost2010PropOp29
 70
     1
102
RTVSPost2010Prop30
280
     1
102
RTVSPost2010PropOp30
 70
     1
102
RTVSPost2010Prop31
280
     0
102
RTVSPost2010PropOp31
 70
     1
102
RTVSPost2010Prop32
280
     0
102
RTVSPost2010PropOp32
 70
     1
102
RTVSPost2010Prop33
280
     0
102
RTVSPost2010PropOp33
 70
     1
102
RTVSPost2010Prop34
280
     0
102
RTVSPost2010PropOp34
 70
     1
102
RTVSPost2010Prop35
280
     0
102
RTVSPost2010PropOp35
 70
     1
102
RTVSPost2010Prop36
280
     0
102
RTVSPost2010PropOp36
 70
     1
102
RTVSPost2010Prop37
 90
       50
102
RTVSPost2010PropOp37
 70
     1
102
RTVSPost2010Prop38
140
0.0
102
RTVSPost2010PropOp38
 70
     1
102
RTVSPost2010Prop39
140
1.0
102
RTVSPost2010PropOp39
 70
     1
102
RTVSPost2010Prop40
 90
        0
102
RTVSPost2010PropOp40
 70
     1
102
RTVSPost2010Prop41ColorIndex
 90
       18
102
RTVSPost2010Prop41ColorRGB
 90
        0
102
RTVSPost2010PropOp41
 70
     1
102
RTVSPost2010Prop42
 90
       50
102
RTVSPost2010PropOp42
 70
     1
102
RTVSPost2010Prop43
 90
        3
102
RTVSPost2010PropOp43
 70
     1
102
RTVSPost2010Prop44ColorIndex
 90
        5
102
RTVSPost2010Prop44ColorRGB
 90
      255
102
RTVSPost2010PropOp44
 70
     1
102
RTVSPost2010Prop45
280
     0
102
RTVSPost2010PropOp45
 70
     1
102
RTVSPost2010Prop46
 90
       50
102
RTVSPost2010PropOp46
 70
     1
102
RTVSPost2010Prop47
 90
       50
102
RTVSPost2010PropOp47
 70
     1
102
RTVSPost2010Prop48
 90
       50
102
RTVSPost2010PropOp48
 70
     1
102
RTVSPost2010Prop49
280
     0
102
RTVSPost2010PropOp49
 70
     1
102
RTVSPost2010Prop50
 90
       50
102
RTVSPost2010PropOp50
 70
     1
102
RTVSPost2010Prop51ColorIndex
 90
      256
102
RTVSPost2010Prop51ColorRGB
 90
-16777216
102
RTVSPost2010PropOp51
 70
     0
102
RTVSPost2010Prop52
140
1.0
102
RTVSPost2010PropOp52
 70
     0
102
RTVSPost2010Prop53
 90
        2
102
RTVSPost2010PropOp53
 70
     1
102
RTVSPost2010Prop54
  1
strokes_ogs.tif
102
RTVSPost2010PropOp54
 70
     1
102
RTVSPost2010Prop55
280
     0
102
RTVSPost2010PropOp55
 70
     1
102
RTVSPost2010Prop56
140
1.0
102
RTVSPost2010PropOp56
 70
     1
102
RTVSPost2010Prop57
140
1.0
102
RTVSPost2010PropOp57
 70
     1
  0
XRECORD
  5
5AD
102
{ACAD_REACTORS
330
5AC
102
}
330
5AC
100
AcDbXrecord
280
     1
102
RTVSPost2010Prop28
280
     0
102
RTVSPost2010PropOp28
 70
     1
102
RTVSPost2010Prop29
280
     1
102
RTVSPost2010PropOp29
 70
     1
102
RTVSPost2010Prop30
280
     1
102
RTVSPost2010PropOp30
 70
     1
102
RTVSPost2010Prop31
280
     0
102
RTVSPost2010PropOp31
 70
     1
102
RTVSPost2010Prop32
280
     0
102
RTVSPost2010PropOp32
 70
     1
102
RTVSPost2010Prop33
280
     0
102
RTVSPost2010PropOp33
 70
     1
102
RTVSPost2010Prop34
280
     0
102
RTVSPost2010PropOp34
 70
     1
102
RTVSPost2010Prop35
280
     0
102
RTVSPost2010PropOp35
 70
     1
102
RTVSPost2010Prop36
280
     0
102
RTVSPost2010PropOp36
 70
     1
102
RTVSPost2010Prop37
 90
       50
102
RTVSPost2010PropOp37
 70
     1
102
RTVSPost2010Prop38
140
0.0
102
RTVSPost2010PropOp38
 70
     1
102
RTVSPost2010Prop39
140
1.0
102
RTVSPost2010PropOp39
 70
     1
102
RTVSPost2010Prop40
 90
        0
102
RTVSPost2010PropOp40
 70
     1
102
RTVSPost2010Prop41ColorIndex
 90
       18
102
RTVSPost2010Prop41ColorRGB
 90
        0
102
RTVSPost2010PropOp41
 70
     1
102
RTVSPost2010Prop42
 90
       50
102
RTVSPost2010PropOp42
 70
     1
102
RTVSPost2010Prop43
 90
        3
102
RTVSPost2010PropOp43
 70
     1
102
RTVSPost2010Prop44ColorIndex
 90
        5
102
RTVSPost2010Prop44ColorRGB
 90
      255
102
RTVSPost2010PropOp44
 70
     1
102
RTVSPost2010Prop45
280
     0
102
RTVSPost2010PropOp45
 70
     1
102
RTVSPost2010Prop46
 90
       50
102
RTVSPost2010PropOp46
 70
     1
102
RTVSPost2010Prop47
 90
       50
102
RTVSPost2010PropOp47
 70
     1
102
RTVSPost2010Prop48
 90
       50
102
RTVSPost2010PropOp48
 70
     1
102
RTVSPost2010Prop49
280
     0
102
RTVSPost2010PropOp49
 70
     1
102
RTVSPost2010Prop50
 90
       50
102
RTVSPost2010PropOp50
 70
     1
102
RTVSPost2010Prop51ColorIndex
 90
      256
102
RTVSPost2010Prop51ColorRGB
 90
-16777216
102
RTVSPost2010PropOp51
 70
     0
102
RTVSPost2010Prop52
140
1.0
102
RTVSPost2010PropOp52
 70
     0
102
RTVSPost2010Prop53
 90
        2
102
RTVSPost2010PropOp53
 70
     1
102
RTVSPost2010Prop54
  1
strokes_ogs.tif
102
RTVSPost2010PropOp54
 70
     1
102
RTVSPost2010Prop55
280
     0
102
RTVSPost2010PropOp55
 70
     1
102
RTVSPost2010Prop56
140
1.0
102
RTVSPost2010PropOp56
 70
     1
102
RTVSPost2010Prop57
140
1.0
102
RTVSPost2010PropOp57
 70
     1
  0
XRECORD
  5
5C5
102
{ACAD_REACTORS
330
5C4
102
}
330
5C4
100
AcDbXrecord
280
     1
102
RTVSPost2010Prop28
280
     0
102
RTVSPost2010PropOp28
 70
     1
102
RTVSPost2010Prop29
280
     1
102
RTVSPost2010PropOp29
 70
     1
102
RTVSPost2010Prop30
280
     1
102
RTVSPost2010PropOp30
 70
     1
102
RTVSPost2010Prop31
280
     0
102
RTVSPost2010PropOp31
 70
     1
102
RTVSPost2010Prop32
280
     0
102
RTVSPost2010PropOp32
 70
     1
102
RTVSPost2010Prop33
280
     0
102
RTVSPost2010PropOp33
 70
     1
102
RTVSPost2010Prop34
280
     0
102
RTVSPost2010PropOp34
 70
     1
102
RTVSPost2010Prop35
280
     0
102
RTVSPost2010PropOp35
 70
     1
102
RTVSPost2010Prop36
280
     0
102
RTVSPost2010PropOp36
 70
     1
102
RTVSPost2010Prop37
 90
       50
102
RTVSPost2010PropOp37
 70
     1
102
RTVSPost2010Prop38
140
0.0
102
RTVSPost2010PropOp38
 70
     1
102
RTVSPost2010Prop39
140
1.0
102
RTVSPost2010PropOp39
 70
     1
102
RTVSPost2010Prop40
 90
        0
102
RTVSPost2010PropOp40
 70
     1
102
RTVSPost2010Prop41ColorIndex
 90
       18
102
RTVSPost2010Prop41ColorRGB
 90
        0
102
RTVSPost2010PropOp41
 70
     1
102
RTVSPost2010Prop42
 90
       50
102
RTVSPost2010PropOp42
 70
     1
102
RTVSPost2010Prop43
 90
        3
102
RTVSPost2010PropOp43
 70
     1
102
RTVSPost2010Prop44ColorIndex
 90
        5
102
RTVSPost2010Prop44ColorRGB
 90
      255
102
RTVSPost2010PropOp44
 70
     1
102
RTVSPost2010Prop45
280
     0
102
RTVSPost2010PropOp45
 70
     1
102
RTVSPost2010Prop46
 90
       50
102
RTVSPost2010PropOp46
 70
     1
102
RTVSPost2010Prop47
 90
       50
102
RTVSPost2010PropOp47
 70
     1
102
RTVSPost2010Prop48
 90
       50
102
RTVSPost2010PropOp48
 70
     1
102
RTVSPost2010Prop49
280
     0
102
RTVSPost2010PropOp49
 70
     1
102
RTVSPost2010Prop50
 90
       50
102
RTVSPost2010PropOp50
 70
     1
102
RTVSPost2010Prop51ColorIndex
 90
      256
102
RTVSPost2010Prop51ColorRGB
 90
-16777216
102
RTVSPost2010PropOp51
 70
     0
102
RTVSPost2010Prop52
140
1.0
102
RTVSPost2010PropOp52
 70
     0
102
RTVSPost2010Prop53
 90
        2
102
RTVSPost2010PropOp53
 70
     1
102
RTVSPost2010Prop54
  1
strokes_ogs.tif
102
RTVSPost2010PropOp54
 70
     1
102
RTVSPost2010Prop55
280
     0
102
RTVSPost2010PropOp55
 70
     1
102
RTVSPost2010Prop56
140
1.0
102
RTVSPost2010PropOp56
 70
     1
102
RTVSPost2010Prop57
140
1.0
102
RTVSPost2010PropOp57
 70
     1
  0
ENDSEC
  0
EOF
