  0
SECTION
  2
HEADER
  9
$ACADVER
  1
AC1024
  9
$ACADMAINTVER
 70
   226
  9
$DWGCODEPAGE
  3
ANSI_1252
  9
$LASTSAVEDBY
  1
okf502
  9
$INSBASE
 10
0.0
 20
0.0
 30
0.0
  9
$EXTMIN
 10
442192.360470968
 20
111115.7406534549
 30
0.0
  9
$EXTMAX
 10
442225.29
 20
111179.3846298748
 30
0.0
  9
$LIMMIN
 10
0.0
 20
0.0
  9
$LIMMAX
 10
12.0
 20
9.0
  9
$ORTHOMODE
 70
     0
  9
$REGENMODE
 70
     1
  9
$FILLMODE
 70
     1
  9
$QTEXTMODE
 70
     0
  9
$MIRRTEXT
 70
     0
  9
$LTSCALE
 40
1.0
  9
$ATTMODE
 70
     1
  9
$TEXTSIZE
 40
0.2
  9
$TRACEWID
 40
0.05
  9
$TEXTSTYLE
  7
STANDARD
  9
$CLAYER
  8
TRENCH_BASE
  9
$CELTYPE
  6
ByLayer
  9
$CECOLOR
 62
   256
  9
$CELTSCALE
 40
1.0
  9
$DISPSILH
 70
     0
  9
$DIMSCALE
 40
1.0
  9
$DIMASZ
 40
0.18
  9
$DIMEXO
 40
0.0625
  9
$DIMDLI
 40
0.38
  9
$DIMRND
 40
0.0
  9
$DIMDLE
 40
0.0
  9
$DIMEXE
 40
0.18
  9
$DIMTP
 40
0.0
  9
$DIMTM
 40
0.0
  9
$DIMTXT
 40
0.18
  9
$DIMCEN
 40
0.09
  9
$DIMTSZ
 40
0.0
  9
$DIMTOL
 70
     0
  9
$DIMLIM
 70
     0
  9
$DIMTIH
 70
     1
  9
$DIMTOH
 70
     1
  9
$DIMSE1
 70
     0
  9
$DIMSE2
 70
     0
  9
$DIMTAD
 70
     0
  9
$DIMZIN
 70
     0
  9
$DIMBLK
  1

  9
$DIMASO
 70
     1
  9
$DIMSHO
 70
     1
  9
$DIMPOST
  1

  9
$DIMAPOST
  1

  9
$DIMALT
 70
     0
  9
$DIMALTD
 70
     2
  9
$DIMALTF
 40
25.4
  9
$DIMLFAC
 40
1.0
  9
$DIMTOFL
 70
     0
  9
$DIMTVP
 40
0.0
  9
$DIMTIX
 70
     0
  9
$DIMSOXD
 70
     0
  9
$DIMSAH
 70
     0
  9
$DIMBLK1
  1

  9
$DIMBLK2
  1

  9
$DIMSTYLE
  2
STANDARD
  9
$DIMCLRD
 70
     0
  9
$DIMCLRE
 70
     0
  9
$DIMCLRT
 70
     0
  9
$DIMTFAC
 40
1.0
  9
$DIMGAP
 40
0.09
  9
$DIMJUST
 70
     0
  9
$DIMSD1
 70
     0
  9
$DIMSD2
 70
     0
  9
$DIMTOLJ
 70
     1
  9
$DIMTZIN
 70
     0
  9
$DIMALTZ
 70
     0
  9
$DIMALTTZ
 70
     0
  9
$DIMUPT
 70
     0
  9
$DIMDEC
 70
     4
  9
$DIMTDEC
 70
     4
  9
$DIMALTU
 70
     2
  9
$DIMALTTD
 70
     2
  9
$DIMTXSTY
  7
STANDARD
  9
$DIMAUNIT
 70
     0
  9
$DIMADEC
 70
     0
  9
$DIMALTRND
 40
0.0
  9
$DIMAZIN
 70
     0
  9
$DIMDSEP
 70
    46
  9
$DIMATFIT
 70
     3
  9
$DIMFRAC
 70
     0
  9
$DIMLDRBLK
  1

  9
$DIMLUNIT
 70
     2
  9
$DIMLWD
 70
    -2
  9
$DIMLWE
 70
    -2
  9
$DIMTMOVE
 70
     0
  9
$DIMFXL
 40
1.0
  9
$DIMFXLON
 70
     0
  9
$DIMJOGANG
 40
0.7853981633974483
  9
$DIMTFILL
 70
     0
  9
$DIMTFILLCLR
 70
     0
  9
$DIMARCSYM
 70
     0
  9
$DIMLTYPE
  6

  9
$DIMLTEX1
  6

  9
$DIMLTEX2
  6

  9
$DIMTXTDIRECTION
 70
     0
  9
$LUNITS
 70
     2
  9
$LUPREC
 70
     4
  9
$SKETCHINC
 40
0.1
  9
$FILLETRAD
 40
0.0
  9
$AUNITS
 70
     0
  9
$AUPREC
 70
     0
  9
$MENU
  1
.
  9
$ELEVATION
 40
0.0
  9
$PELEVATION
 40
0.0
  9
$THICKNESS
 40
0.0
  9
$LIMCHECK
 70
     0
  9
$CHAMFERA
 40
0.0
  9
$CHAMFERB
 40
0.0
  9
$CHAMFERC
 40
0.0
  9
$CHAMFERD
 40
0.0
  9
$SKPOLY
 70
     0
  9
$TDCREATE
 40
2456679.684224537
  9
$TDUCREATE
 40
2456679.684224537
  9
$TDUPDATE
 40
2458697.639282407
  9
$TDUUPDATE
 40
2458697.597615741
  9
$TDINDWG
 40
0.0269009144
  9
$TDUSRTIMER
 40
0.0268262269
  9
$USRTIMER
 70
     1
  9
$ANGBASE
 50
0.0
  9
$ANGDIR
 70
     0
  9
$PDMODE
 70
     0
  9
$PDSIZE
 40
0.0
  9
$PLINEWID
 40
0.0
  9
$SPLFRAME
 70
     0
  9
$SPLINETYPE
 70
     6
  9
$SPLINESEGS
 70
     8
  9
$HANDSEED
  5
AC8
  9
$SURFTAB1
 70
     6
  9
$SURFTAB2
 70
     6
  9
$SURFTYPE
 70
     6
  9
$SURFU
 70
     6
  9
$SURFV
 70
     6
  9
$UCSBASE
  2

  9
$UCSNAME
  2

  9
$UCSORG
 10
0.0
 20
0.0
 30
0.0
  9
$UCSXDIR
 10
1.0
 20
0.0
 30
0.0
  9
$UCSYDIR
 10
0.0
 20
1.0
 30
0.0
  9
$UCSORTHOREF
  2

  9
$UCSORTHOVIEW
 70
     0
  9
$UCSORGTOP
 10
0.0
 20
0.0
 30
0.0
  9
$UCSORGBOTTOM
 10
0.0
 20
0.0
 30
0.0
  9
$UCSORGLEFT
 10
0.0
 20
0.0
 30
0.0
  9
$UCSORGRIGHT
 10
0.0
 20
0.0
 30
0.0
  9
$UCSORGFRONT
 10
0.0
 20
0.0
 30
0.0
  9
$UCSORGBACK
 10
0.0
 20
0.0
 30
0.0
  9
$PUCSBASE
  2

  9
$PUCSNAME
  2

  9
$PUCSORG
 10
0.0
 20
0.0
 30
0.0
  9
$PUCSXDIR
 10
1.0
 20
0.0
 30
0.0
  9
$PUCSYDIR
 10
0.0
 20
1.0
 30
0.0
  9
$PUCSORTHOREF
  2

  9
$PUCSORTHOVIEW
 70
     0
  9
$PUCSORGTOP
 10
0.0
 20
0.0
 30
0.0
  9
$PUCSORGBOTTOM
 10
0.0
 20
0.0
 30
0.0
  9
$PUCSORGLEFT
 10
0.0
 20
0.0
 30
0.0
  9
$PUCSORGRIGHT
 10
0.0
 20
0.0
 30
0.0
  9
$PUCSORGFRONT
 10
0.0
 20
0.0
 30
0.0
  9
$PUCSORGBACK
 10
0.0
 20
0.0
 30
0.0
  9
$USERI1
 70
     0
  9
$USERI2
 70
     0
  9
$USERI3
 70
     0
  9
$USERI4
 70
     0
  9
$USERI5
 70
     0
  9
$USERR1
 40
0.0
  9
$USERR2
 40
0.0
  9
$USERR3
 40
0.0
  9
$USERR4
 40
0.0
  9
$USERR5
 40
0.0
  9
$WORLDVIEW
 70
     1
  9
$SHADEDGE
 70
     3
  9
$SHADEDIF
 70
    70
  9
$TILEMODE
 70
     1
  9
$MAXACTVP
 70
    64
  9
$PINSBASE
 10
0.0
 20
0.0
 30
0.0
  9
$PLIMCHECK
 70
     0
  9
$PEXTMIN
 10
0.0
 20
0.0
 30
0.0
  9
$PEXTMAX
 10
0.0
 20
0.0
 30
0.0
  9
$PLIMMIN
 10
0.0
 20
0.0
  9
$PLIMMAX
 10
12.0
 20
9.0
  9
$UNITMODE
 70
     0
  9
$VISRETAIN
 70
     1
  9
$PLINEGEN
 70
     0
  9
$PSLTSCALE
 70
     1
  9
$TREEDEPTH
 70
  3020
  9
$CMLSTYLE
  2
Standard
  9
$CMLJUST
 70
     0
  9
$CMLSCALE
 40
1.0
  9
$PROXYGRAPHICS
 70
     1
  9
$MEASUREMENT
 70
     0
  9
$CELWEIGHT
370
    -1
  9
$ENDCAPS
280
     0
  9
$JOINSTYLE
280
     0
  9
$LWDISPLAY
290
     0
  9
$INSUNITS
 70
     0
  9
$HYPERLINKBASE
  1

  9
$STYLESHEET
  1

  9
$XEDIT
290
     1
  9
$CEPSNTYPE
380
     0
  9
$PSTYLEMODE
290
     1
  9
$FINGERPRINTGUID
  2
{CEDA07FD-39E0-6349-BD95-1965371FA8DE}
  9
$VERSIONGUID
  2
{CF672644-2344-EC4F-9F7D-6ADBC33EF265}
  9
$EXTNAMES
290
     1
  9
$PSVPSCALE
 40
0.0
  9
$OLESTARTUP
290
     0
  9
$SORTENTS
280
   127
  9
$INDEXCTL
280
     0
  9
$HIDETEXT
280
     0
  9
$XCLIPFRAME
280
     2
  9
$HALOGAP
280
     0
  9
$OBSCOLOR
 70
   257
  9
$OBSLTYPE
280
     0
  9
$INTERSECTIONDISPLAY
280
     0
  9
$INTERSECTIONCOLOR
 70
   257
  9
$DIMASSOC
280
     1
  9
$PROJECTNAME
  1

  9
$CAMERADISPLAY
290
     0
  9
$LENSLENGTH
 40
50.0
  9
$CAMERAHEIGHT
 40
0.0
  9
$STEPSPERSEC
 40
2.0
  9
$STEPSIZE
 40
6.0
  9
$3DDWFPREC
 40
2.0
  9
$PSOLWIDTH
 40
0.25
  9
$PSOLHEIGHT
 40
4.0
  9
$LOFTANG1
 40
1.570796326794896
  9
$LOFTANG2
 40
1.570796326794896
  9
$LOFTMAG1
 40
0.0
  9
$LOFTMAG2
 40
0.0
  9
$LOFTPARAM
 70
     7
  9
$LOFTNORMALS
280
     1
  9
$LATITUDE
 40
37.795
  9
$LONGITUDE
 40
-122.394
  9
$NORTHDIRECTION
 40
0.0
  9
$TIMEZONE
 70
 -8000
  9
$LIGHTGLYPHDISPLAY
280
     1
  9
$TILEMODELIGHTSYNCH
280
     1
  9
$CMATERIAL
347
8DC
  9
$SOLIDHIST
280
     0
  9
$SHOWHIST
280
     1
  9
$DWFFRAME
280
     2
  9
$DGNFRAME
280
     0
  9
$REALWORLDSCALE
290
     1
  9
$INTERFERECOLOR
 62
     1
  9
$INTERFEREOBJVS
345
8FE
  9
$INTERFEREVPVS
346
8FB
  9
$CSHADOW
280
     0
  9
$SHADOWPLANELOCATION
 40
0.0
  0
ENDSEC
  0
SECTION
  2
CLASSES
  0
CLASS
  1
ACDBDICTIONARYWDFLT
  2
AcDbDictionaryWithDefault
  3
ObjectDBX Classes
 90
        0
 91
        1
280
     0
281
     0
  0
CLASS
  1
MATERIAL
  2
AcDbMaterial
  3
ObjectDBX Classes
 90
     1153
 91
        3
280
     0
281
     0
  0
CLASS
  1
VISUALSTYLE
  2
AcDbVisualStyle
  3
ObjectDBX Classes
 90
     4095
 91
       24
280
     0
281
     0
  0
CLASS
  1
SCALE
  2
AcDbScale
  3
ObjectDBX Classes
 90
     1153
 91
       17
280
     0
281
     0
  0
CLASS
  1
TABLESTYLE
  2
AcDbTableStyle
  3
ObjectDBX Classes
 90
     4095
 91
        1
280
     0
281
     0
  0
CLASS
  1
MLEADERSTYLE
  2
AcDbMLeaderStyle
  3
ACDB_MLEADERSTYLE_CLASS
 90
     4095
 91
        1
280
     0
281
     0
  0
CLASS
  1
ACDBSECTIONVIEWSTYLE
  2
AcDbSectionViewStyle
  3
ObjectDBX Classes
 90
     1025
 91
        1
280
     0
281
     0
  0
CLASS
  1
ACDBDETAILVIEWSTYLE
  2
AcDbDetailViewStyle
  3
ObjectDBX Classes
 90
     1025
 91
        1
280
     0
281
     0
  0
CLASS
  1
DICTIONARYVAR
  2
AcDbDictionaryVar
  3
ObjectDBX Classes
 90
        0
 91
        9
280
     0
281
     0
  0
CLASS
  1
CELLSTYLEMAP
  2
AcDbCellStyleMap
  3
ObjectDBX Classes
 90
     1152
 91
        1
280
     0
281
     0
  0
ENDSEC
  0
SECTION
  2
TABLES
  0
TABLE
  2
VPORT
  5
8D3
330
0
100
AcDbSymbolTable
 70
     1
  0
VPORT
  5
93F
330
8D3
100
AcDbSymbolTableRecord
100
AcDbViewportTableRecord
  2
*ACTIVE
 70
     0
 10
0.0
 20
0.0
 11
1.0
 21
1.0
 12
442190.3637613167
 22
111139.6269125837
 13
0.0
 23
0.0
 14
0.5
 24
0.5
 15
0.5
 25
0.5
 16
0.0
 26
0.0
 36
1.0
 17
0.0
 27
0.0
 37
0.0
 40
92.32886494243055
 41
2.305925030229746
 42
50.0
 43
0.0
 44
0.0
 50
0.0
 51
0.0
 71
     0
 72
  1000
 73
     1
 74
     3
 75
     0
 76
     0
 77
     0
 78
     0
281
     0
 65
     1
110
0.0
120
0.0
130
0.0
111
1.0
121
0.0
131
0.0
112
0.0
122
1.0
132
0.0
 79
     0
146
0.0
348
8FA
 60
     3
 61
     5
292
     1
282
     0
141
0.0
142
0.0
 63
   250
421
  3355443
1001
ACAD_NAV_VCDISPLAY
1070
     3
  0
ENDTAB
  0
TABLE
  2
LTYPE
  5
8D0
330
0
100
AcDbSymbolTable
 70
     1
  0
LTYPE
  5
925
330
8D0
100
AcDbSymbolTableRecord
100
AcDbLinetypeTableRecord
  2
ByBlock
 70
     0
  3

 72
    65
 73
     0
 40
0.0
  0
LTYPE
  5
926
330
8D0
100
AcDbSymbolTableRecord
100
AcDbLinetypeTableRecord
  2
ByLayer
 70
     0
  3

 72
    65
 73
     0
 40
0.0
  0
LTYPE
  5
927
330
8D0
100
AcDbSymbolTableRecord
100
AcDbLinetypeTableRecord
  2
CONTINUOUS
 70
     0
  3
Solid line
 72
    65
 73
     0
 40
0.0
  0
ENDTAB
  0
TABLE
  2
LAYER
  5
8CD
330
0
100
AcDbSymbolTable
 70
    19
  0
LAYER
  5
91F
102
{ACAD_XDICTIONARY
360
A60
102
}
330
8CD
100
AcDbSymbolTableRecord
100
AcDbLayerTableRecord
  2
0
 70
     0
 62
     7
  6
CONTINUOUS
370
    -3
390
8DA
347
8EC
  0
LAYER
  5
93E
102
{ACAD_XDICTIONARY
360
A62
102
}
330
8CD
100
AcDbSymbolTableRecord
100
AcDbLayerTableRecord
  2
TRENCH_BASE
 70
     0
 62
     1
  6
CONTINUOUS
370
    -3
390
8DA
347
8EC
  0
LAYER
  5
940
102
{ACAD_XDICTIONARY
360
A64
102
}
330
8CD
100
AcDbSymbolTableRecord
100
AcDbLayerTableRecord
  2
TRENCH_TOP
 70
     0
 62
    20
  6
CONTINUOUS
370
    -3
390
8DA
347
8EC
  0
LAYER
  5
941
102
{ACAD_XDICTIONARY
360
A66
102
}
330
8CD
100
AcDbSymbolTableRecord
100
AcDbLayerTableRecord
  2
TRENCH_TOP_LABEL
 70
     0
 62
    20
  6
CONTINUOUS
370
    -3
390
8DA
347
8EC
  0
LAYER
  5
942
102
{ACAD_XDICTIONARY
360
A68
102
}
330
8CD
100
AcDbSymbolTableRecord
100
AcDbLayerTableRecord
  2
TRENCH_BASE_LABEL
 70
     0
 62
     1
  6
CONTINUOUS
370
    -3
390
8DA
347
8EC
  0
LAYER
  5
943
102
{ACAD_XDICTIONARY
360
A6A
102
}
330
8CD
100
AcDbSymbolTableRecord
100
AcDbLayerTableRecord
  2
TREE_THROW
 70
     0
 62
    37
  6
CONTINUOUS
370
    -3
390
8DA
347
8EC
  0
LAYER
  5
944
102
{ACAD_XDICTIONARY
360
A6C
102
}
330
8CD
100
AcDbSymbolTableRecord
100
AcDbLayerTableRecord
  2
SECTION_LINE
 70
     0
 62
     3
  6
CONTINUOUS
370
    -3
390
8DA
347
8EC
  0
LAYER
  5
945
102
{ACAD_XDICTIONARY
360
A6E
102
}
330
8CD
100
AcDbSymbolTableRecord
100
AcDbLayerTableRecord
  2
SECTION_LINE_LABEL
 70
     0
 62
     3
  6
CONTINUOUS
370
    -3
390
8DA
347
8EC
  0
LAYER
  5
946
102
{ACAD_XDICTIONARY
360
A70
102
}
330
8CD
100
AcDbSymbolTableRecord
100
AcDbLayerTableRecord
  2
OPEN_LINE
 70
     0
 62
     7
  6
CONTINUOUS
370
    -3
390
8DA
347
8EC
  0
LAYER
  5
947
102
{ACAD_XDICTIONARY
360
A72
102
}
330
8CD
100
AcDbSymbolTableRecord
100
AcDbLayerTableRecord
  2
LEVEL
 70
     0
 62
     4
  6
CONTINUOUS
370
    -3
390
8DA
347
8EC
  0
LAYER
  5
948
102
{ACAD_XDICTIONARY
360
A74
102
}
330
8CD
100
AcDbSymbolTableRecord
100
AcDbLayerTableRecord
  2
LEVEL_LEVEL
 70
     0
 62
     4
  6
CONTINUOUS
370
    -3
390
8DA
347
8EC
  0
LAYER
  5
949
102
{ACAD_XDICTIONARY
360
A76
102
}
330
8CD
100
AcDbSymbolTableRecord
100
AcDbLayerTableRecord
  2
OPEN_LINE_LEVEL
 70
     0
 62
     7
  6
CONTINUOUS
370
    -3
390
8DA
347
8EC
  0
LAYER
  5
94A
102
{ACAD_XDICTIONARY
360
A78
102
}
330
8CD
100
AcDbSymbolTableRecord
100
AcDbLayerTableRecord
  2
SECTION_LINE_LEVEL
 70
     0
 62
     3
  6
CONTINUOUS
370
    -3
390
8DA
347
8EC
  0
LAYER
  5
94B
102
{ACAD_XDICTIONARY
360
A7A
102
}
330
8CD
100
AcDbSymbolTableRecord
100
AcDbLayerTableRecord
  2
TREE_THROW_LEVEL
 70
     0
 62
    37
  6
CONTINUOUS
370
    -3
390
8DA
347
8EC
  0
LAYER
  5
94C
102
{ACAD_XDICTIONARY
360
A7C
102
}
330
8CD
100
AcDbSymbolTableRecord
100
AcDbLayerTableRecord
  2
TRENCH_BASE_LEVEL
 70
     0
 62
     1
  6
CONTINUOUS
370
    -3
390
8DA
347
8EC
  0
LAYER
  5
94D
102
{ACAD_XDICTIONARY
360
A7E
102
}
330
8CD
100
AcDbSymbolTableRecord
100
AcDbLayerTableRecord
  2
TRENCH_TOP_LEVEL
 70
     0
 62
    20
  6
CONTINUOUS
370
    -3
390
8DA
347
8EC
  0
LAYER
  5
94E
102
{ACAD_XDICTIONARY
360
A80
102
}
330
8CD
100
AcDbSymbolTableRecord
100
AcDbLayerTableRecord
  2
SECTION_LINE_ID
 70
     0
 62
     3
  6
CONTINUOUS
370
    -3
390
8DA
347
8EC
  0
LAYER
  5
94F
102
{ACAD_XDICTIONARY
360
A82
102
}
330
8CD
100
AcDbSymbolTableRecord
100
AcDbLayerTableRecord
  2
WSITE
 70
     0
 62
     1
  6
CONTINUOUS
370
    -3
390
8DA
347
8EC
  0
LAYER
  5
950
102
{ACAD_XDICTIONARY
360
A84
102
}
330
8CD
100
AcDbSymbolTableRecord
100
AcDbLayerTableRecord
  2
WRUBBLE
 70
     0
 62
   151
  6
CONTINUOUS
370
    -3
390
8DA
347
8EC
  0
ENDTAB
  0
TABLE
  2
STYLE
  5
8CE
330
0
100
AcDbSymbolTable
 70
     3
  0
STYLE
  5
920
330
8CE
100
AcDbSymbolTableRecord
100
AcDbTextStyleTableRecord
  2
STANDARD
 70
     0
 40
0.0
 41
1.0
 50
0.0
 71
     0
 42
0.2
  3
txt
  4

  0
STYLE
  5
924
330
8CE
100
AcDbSymbolTableRecord
100
AcDbTextStyleTableRecord
  2
Annotative
 70
     0
 40
0.0
 41
1.0
 50
0.0
 71
     0
 42
0.2
  3
txt
  4

1001
ACADANNOTATIVE
1000
AnnotativeData
1002
{
1070
     1
1070
     1
1002
}
  0
STYLE
  5
951
330
8CE
100
AcDbSymbolTableRecord
100
AcDbTextStyleTableRecord
  2
LEGEND
 70
     0
 40
0.0
 41
1.0
 50
0.0
 71
     0
 42
0.2
  3
txt
  4

  0
ENDTAB
  0
TABLE
  2
VIEW
  5
8D1
330
0
100
AcDbSymbolTable
 70
     0
  0
ENDTAB
  0
TABLE
  2
UCS
  5
8D2
330
0
100
AcDbSymbolTable
 70
     0
  0
ENDTAB
  0
TABLE
  2
APPID
  5
8D4
330
0
100
AcDbSymbolTable
 70
    18
  0
APPID
  5
921
330
8D4
100
AcDbSymbolTableRecord
100
AcDbRegAppTableRecord
  2
ACAD
 70
     0
  0
APPID
  5
928
330
8D4
100
AcDbSymbolTableRecord
100
AcDbRegAppTableRecord
  2
ACADANNOTATIVE
 70
     0
  0
APPID
  5
952
330
8D4
100
AcDbSymbolTableRecord
100
AcDbRegAppTableRecord
  2
ACADANNOPO
 70
     0
  0
APPID
  5
953
330
8D4
100
AcDbSymbolTableRecord
100
AcDbRegAppTableRecord
  2
ACAD_DSTYLE_DIMJAG
 70
     0
  0
APPID
  5
954
330
8D4
100
AcDbSymbolTableRecord
100
AcDbRegAppTableRecord
  2
ACAD_DSTYLE_DIMTALN
 70
     0
  0
APPID
  5
955
330
8D4
100
AcDbSymbolTableRecord
100
AcDbRegAppTableRecord
  2
ACAD_MLEADERVER
 70
     0
  0
APPID
  5
956
330
8D4
100
AcDbSymbolTableRecord
100
AcDbRegAppTableRecord
  2
ACMAPDMDISPLAYSTYLEREGAPP
 70
     0
  0
APPID
  5
957
330
8D4
100
AcDbSymbolTableRecord
100
AcDbRegAppTableRecord
  2
ADE
 70
     0
  0
APPID
  5
958
330
8D4
100
AcDbSymbolTableRecord
100
AcDbRegAppTableRecord
  2
MAPGWS
 70
     0
  0
APPID
  5
959
330
8D4
100
AcDbSymbolTableRecord
100
AcDbRegAppTableRecord
  2
DCO15
 70
     0
  0
APPID
  5
95A
330
8D4
100
AcDbSymbolTableRecord
100
AcDbRegAppTableRecord
  2
ACAD_EXEMPT_FROM_CAD_STANDARDS
 70
     0
  0
APPID
  5
95B
330
8D4
100
AcDbSymbolTableRecord
100
AcDbRegAppTableRecord
  2
ACAECLAYERSTANDARD
 70
     0
  0
APPID
  5
95C
330
8D4
100
AcDbSymbolTableRecord
100
AcDbRegAppTableRecord
  2
ACCMTRANSPARENCY
 70
     0
  0
APPID
  5
95D
330
8D4
100
AcDbSymbolTableRecord
100
AcDbRegAppTableRecord
  2
ACAD_PSEXT
 70
     0
  0
APPID
  5
95E
330
8D4
100
AcDbSymbolTableRecord
100
AcDbRegAppTableRecord
  2
M-COLOR__358644234323
 70
     0
  0
APPID
  5
95F
330
8D4
100
AcDbSymbolTableRecord
100
AcDbRegAppTableRecord
  2
GRADIENTCOLOR1ACI
 70
     0
  0
APPID
  5
960
330
8D4
100
AcDbSymbolTableRecord
100
AcDbRegAppTableRecord
  2
GRADIENTCOLOR2ACI
 70
     0
  0
APPID
  5
A90
330
8D4
100
AcDbSymbolTableRecord
100
AcDbRegAppTableRecord
  2
ACAD_NAV_VCDISPLAY
 70
     0
  0
ENDTAB
  0
TABLE
  2
DIMSTYLE
  5
8D5
330
0
100
AcDbSymbolTable
 70
     2
100
AcDbDimStyleTable
 71
     0
  0
DIMSTYLE
105
922
330
8D5
100
AcDbSymbolTableRecord
100
AcDbDimStyleTableRecord
  2
STANDARD
 70
     0
279
     2
340
920
  0
DIMSTYLE
105
923
330
8D5
100
AcDbSymbolTableRecord
100
AcDbDimStyleTableRecord
  2
Annotative
 70
     0
340
920
1001
ACADANNOTATIVE
1000
AnnotativeData
1002
{
1070
     1
1070
     1
1002
}
  0
ENDTAB
  0
TABLE
  2
BLOCK_RECORD
  5
8CC
330
0
100
AcDbSymbolTable
 70
   126
  0
BLOCK_RECORD
  5
93A
330
8CC
100
AcDbSymbolTableRecord
100
AcDbBlockTableRecord
  2
*Model_Space
340
93D
 70
     0
280
     1
281
     0
  0
BLOCK_RECORD
  5
936
330
8CC
100
AcDbSymbolTableRecord
100
AcDbBlockTableRecord
  2
*Paper_Space
340
939
 70
     0
280
     1
281
     0
  0
BLOCK_RECORD
  5
962
330
8CC
100
AcDbSymbolTableRecord
100
AcDbBlockTableRecord
  2
$MODEL_SPACE
340
0
 70
     0
280
     1
281
     0
  0
BLOCK_RECORD
  5
964
330
8CC
100
AcDbSymbolTableRecord
100
AcDbBlockTableRecord
  2
$PAPER_SPACE
340
0
 70
     0
280
     1
281
     0
  0
BLOCK_RECORD
  5
966
330
8CC
100
AcDbSymbolTableRecord
100
AcDbBlockTableRecord
  2
*U2
340
0
102
{BLKREFS
331
1C9
102
}
 70
     0
280
     1
281
     0
  0
BLOCK_RECORD
  5
968
330
8CC
100
AcDbSymbolTableRecord
100
AcDbBlockTableRecord
  2
*U3
340
0
102
{BLKREFS
331
1CA
102
}
 70
     0
280
     1
281
     0
  0
BLOCK_RECORD
  5
96A
330
8CC
100
AcDbSymbolTableRecord
100
AcDbBlockTableRecord
  2
*U4
340
0
102
{BLKREFS
331
1CB
102
}
 70
     0
280
     1
281
     0
  0
BLOCK_RECORD
  5
96C
330
8CC
100
AcDbSymbolTableRecord
100
AcDbBlockTableRecord
  2
*U5
340
0
102
{BLKREFS
331
1CC
102
}
 70
     0
280
     1
281
     0
  0
BLOCK_RECORD
  5
96E
330
8CC
100
AcDbSymbolTableRecord
100
AcDbBlockTableRecord
  2
*U6
340
0
102
{BLKREFS
331
1F1
102
}
 70
     0
280
     1
281
     0
  0
BLOCK_RECORD
  5
970
330
8CC
100
AcDbSymbolTableRecord
100
AcDbBlockTableRecord
  2
*U7
340
0
102
{BLKREFS
331
1F2
102
}
 70
     0
280
     1
281
     0
  0
BLOCK_RECORD
  5
972
330
8CC
100
AcDbSymbolTableRecord
100
AcDbBlockTableRecord
  2
*U8
340
0
102
{BLKREFS
331
1F3
102
}
 70
     0
280
     1
281
     0
  0
BLOCK_RECORD
  5
974
330
8CC
100
AcDbSymbolTableRecord
100
AcDbBlockTableRecord
  2
*U9
340
0
102
{BLKREFS
331
219
102
}
 70
     0
280
     1
281
     0
  0
BLOCK_RECORD
  5
976
330
8CC
100
AcDbSymbolTableRecord
100
AcDbBlockTableRecord
  2
*U10
340
0
102
{BLKREFS
331
21A
102
}
 70
     0
280
     1
281
     0
  0
BLOCK_RECORD
  5
978
330
8CC
100
AcDbSymbolTableRecord
100
AcDbBlockTableRecord
  2
*U11
340
0
102
{BLKREFS
331
21B
102
}
 70
     0
280
     1
281
     0
  0
BLOCK_RECORD
  5
97A
330
8CC
100
AcDbSymbolTableRecord
100
AcDbBlockTableRecord
  2
*U12
340
0
102
{BLKREFS
331
21C
102
}
 70
     0
280
     1
281
     0
  0
BLOCK_RECORD
  5
97C
330
8CC
100
AcDbSymbolTableRecord
100
AcDbBlockTableRecord
  2
*U13
340
0
102
{BLKREFS
331
248
102
}
 70
     0
280
     1
281
     0
  0
BLOCK_RECORD
  5
97E
330
8CC
100
AcDbSymbolTableRecord
100
AcDbBlockTableRecord
  2
*U14
340
0
102
{BLKREFS
331
249
102
}
 70
     0
280
     1
281
     0
  0
BLOCK_RECORD
  5
980
330
8CC
100
AcDbSymbolTableRecord
100
AcDbBlockTableRecord
  2
*U15
340
0
102
{BLKREFS
331
24A
102
}
 70
     0
280
     1
281
     0
  0
BLOCK_RECORD
  5
982
330
8CC
100
AcDbSymbolTableRecord
100
AcDbBlockTableRecord
  2
*U16
340
0
102
{BLKREFS
331
24B
102
}
 70
     0
280
     1
281
     0
  0
BLOCK_RECORD
  5
984
330
8CC
100
AcDbSymbolTableRecord
100
AcDbBlockTableRecord
  2
*U17
340
0
102
{BLKREFS
331
24C
102
}
 70
     0
280
     1
281
     0
  0
BLOCK_RECORD
  5
986
330
8CC
100
AcDbSymbolTableRecord
100
AcDbBlockTableRecord
  2
*U18
340
0
102
{BLKREFS
331
24D
102
}
 70
     0
280
     1
281
     0
  0
BLOCK_RECORD
  5
988
330
8CC
100
AcDbSymbolTableRecord
100
AcDbBlockTableRecord
  2
*U19
340
0
102
{BLKREFS
331
24E
102
}
 70
     0
280
     1
281
     0
  0
BLOCK_RECORD
  5
98A
330
8CC
100
AcDbSymbolTableRecord
100
AcDbBlockTableRecord
  2
*U20
340
0
102
{BLKREFS
331
24F
102
}
 70
     0
280
     1
281
     0
  0
BLOCK_RECORD
  5
98C
330
8CC
100
AcDbSymbolTableRecord
100
AcDbBlockTableRecord
  2
*U21
340
0
102
{BLKREFS
331
250
102
}
 70
     0
280
     1
281
     0
  0
BLOCK_RECORD
  5
98E
330
8CC
100
AcDbSymbolTableRecord
100
AcDbBlockTableRecord
  2
*U22
340
0
102
{BLKREFS
331
251
102
}
 70
     0
280
     1
281
     0
  0
BLOCK_RECORD
  5
990
330
8CC
100
AcDbSymbolTableRecord
100
AcDbBlockTableRecord
  2
*U23
340
0
102
{BLKREFS
331
252
102
}
 70
     0
280
     1
281
     0
  0
BLOCK_RECORD
  5
992
330
8CC
100
AcDbSymbolTableRecord
100
AcDbBlockTableRecord
  2
*U24
340
0
102
{BLKREFS
331
253
102
}
 70
     0
280
     1
281
     0
  0
BLOCK_RECORD
  5
994
330
8CC
100
AcDbSymbolTableRecord
100
AcDbBlockTableRecord
  2
*U25
340
0
102
{BLKREFS
331
255
102
}
 70
     0
280
     1
281
     0
  0
BLOCK_RECORD
  5
996
330
8CC
100
AcDbSymbolTableRecord
100
AcDbBlockTableRecord
  2
*U26
340
0
102
{BLKREFS
331
256
102
}
 70
     0
280
     1
281
     0
  0
BLOCK_RECORD
  5
998
330
8CC
100
AcDbSymbolTableRecord
100
AcDbBlockTableRecord
  2
*U27
340
0
102
{BLKREFS
331
257
102
}
 70
     0
280
     1
281
     0
  0
BLOCK_RECORD
  5
99A
330
8CC
100
AcDbSymbolTableRecord
100
AcDbBlockTableRecord
  2
*U28
340
0
102
{BLKREFS
331
258
102
}
 70
     0
280
     1
281
     0
  0
BLOCK_RECORD
  5
99C
330
8CC
100
AcDbSymbolTableRecord
100
AcDbBlockTableRecord
  2
*U29
340
0
102
{BLKREFS
331
259
102
}
 70
     0
280
     1
281
     0
  0
BLOCK_RECORD
  5
99E
330
8CC
100
AcDbSymbolTableRecord
100
AcDbBlockTableRecord
  2
*U30
340
0
102
{BLKREFS
331
25A
102
}
 70
     0
280
     1
281
     0
  0
BLOCK_RECORD
  5
9A0
330
8CC
100
AcDbSymbolTableRecord
100
AcDbBlockTableRecord
  2
*U31
340
0
102
{BLKREFS
331
25B
102
}
 70
     0
280
     1
281
     0
  0
BLOCK_RECORD
  5
9A2
330
8CC
100
AcDbSymbolTableRecord
100
AcDbBlockTableRecord
  2
*U32
340
0
102
{BLKREFS
331
25C
102
}
 70
     0
280
     1
281
     0
  0
BLOCK_RECORD
  5
9A4
330
8CC
100
AcDbSymbolTableRecord
100
AcDbBlockTableRecord
  2
*U33
340
0
102
{BLKREFS
331
25D
102
}
 70
     0
280
     1
281
     0
  0
BLOCK_RECORD
  5
9A6
330
8CC
100
AcDbSymbolTableRecord
100
AcDbBlockTableRecord
  2
*U34
340
0
102
{BLKREFS
331
25E
102
}
 70
     0
280
     1
281
     0
  0
BLOCK_RECORD
  5
9A8
330
8CC
100
AcDbSymbolTableRecord
100
AcDbBlockTableRecord
  2
*U35
340
0
102
{BLKREFS
331
25F
102
}
 70
     0
280
     1
281
     0
  0
BLOCK_RECORD
  5
9AA
330
8CC
100
AcDbSymbolTableRecord
100
AcDbBlockTableRecord
  2
*U36
340
0
102
{BLKREFS
331
260
102
}
 70
     0
280
     1
281
     0
  0
BLOCK_RECORD
  5
9AC
330
8CC
100
AcDbSymbolTableRecord
100
AcDbBlockTableRecord
  2
*U37
340
0
102
{BLKREFS
331
261
102
}
 70
     0
280
     1
281
     0
  0
BLOCK_RECORD
  5
9AE
330
8CC
100
AcDbSymbolTableRecord
100
AcDbBlockTableRecord
  2
*U38
340
0
102
{BLKREFS
331
262
102
}
 70
     0
280
     1
281
     0
  0
BLOCK_RECORD
  5
9B0
330
8CC
100
AcDbSymbolTableRecord
100
AcDbBlockTableRecord
  2
*U39
340
0
102
{BLKREFS
331
263
102
}
 70
     0
280
     1
281
     0
  0
BLOCK_RECORD
  5
9B2
330
8CC
100
AcDbSymbolTableRecord
100
AcDbBlockTableRecord
  2
*U40
340
0
102
{BLKREFS
331
264
102
}
 70
     0
280
     1
281
     0
  0
BLOCK_RECORD
  5
9B4
330
8CC
100
AcDbSymbolTableRecord
100
AcDbBlockTableRecord
  2
*U41
340
0
102
{BLKREFS
331
265
102
}
 70
     0
280
     1
281
     0
  0
BLOCK_RECORD
  5
9B6
330
8CC
100
AcDbSymbolTableRecord
100
AcDbBlockTableRecord
  2
*U42
340
0
102
{BLKREFS
331
266
102
}
 70
     0
280
     1
281
     0
  0
BLOCK_RECORD
  5
9B8
330
8CC
100
AcDbSymbolTableRecord
100
AcDbBlockTableRecord
  2
*U43
340
0
102
{BLKREFS
331
267
102
}
 70
     0
280
     1
281
     0
  0
BLOCK_RECORD
  5
9BA
330
8CC
100
AcDbSymbolTableRecord
100
AcDbBlockTableRecord
  2
*U44
340
0
102
{BLKREFS
331
268
102
}
 70
     0
280
     1
281
     0
  0
BLOCK_RECORD
  5
9BC
330
8CC
100
AcDbSymbolTableRecord
100
AcDbBlockTableRecord
  2
*U45
340
0
102
{BLKREFS
331
269
102
}
 70
     0
280
     1
281
     0
  0
BLOCK_RECORD
  5
9BE
330
8CC
100
AcDbSymbolTableRecord
100
AcDbBlockTableRecord
  2
*U46
340
0
102
{BLKREFS
331
26A
102
}
 70
     0
280
     1
281
     0
  0
BLOCK_RECORD
  5
9C0
330
8CC
100
AcDbSymbolTableRecord
100
AcDbBlockTableRecord
  2
*U47
340
0
102
{BLKREFS
331
26B
102
}
 70
     0
280
     1
281
     0
  0
BLOCK_RECORD
  5
9C2
330
8CC
100
AcDbSymbolTableRecord
100
AcDbBlockTableRecord
  2
*U48
340
0
102
{BLKREFS
331
26C
102
}
 70
     0
280
     1
281
     0
  0
BLOCK_RECORD
  5
9C4
330
8CC
100
AcDbSymbolTableRecord
100
AcDbBlockTableRecord
  2
*U49
340
0
102
{BLKREFS
331
26E
102
}
 70
     0
280
     1
281
     0
  0
BLOCK_RECORD
  5
9C6
330
8CC
100
AcDbSymbolTableRecord
100
AcDbBlockTableRecord
  2
*U50
340
0
102
{BLKREFS
331
26F
102
}
 70
     0
280
     1
281
     0
  0
BLOCK_RECORD
  5
9C8
330
8CC
100
AcDbSymbolTableRecord
100
AcDbBlockTableRecord
  2
*U51
340
0
102
{BLKREFS
331
270
102
}
 70
     0
280
     1
281
     0
  0
BLOCK_RECORD
  5
9CA
330
8CC
100
AcDbSymbolTableRecord
100
AcDbBlockTableRecord
  2
*U52
340
0
102
{BLKREFS
331
271
102
}
 70
     0
280
     1
281
     0
  0
BLOCK_RECORD
  5
9CC
330
8CC
100
AcDbSymbolTableRecord
100
AcDbBlockTableRecord
  2
*U53
340
0
102
{BLKREFS
331
272
102
}
 70
     0
280
     1
281
     0
  0
BLOCK_RECORD
  5
9CE
330
8CC
100
AcDbSymbolTableRecord
100
AcDbBlockTableRecord
  2
*U54
340
0
102
{BLKREFS
331
273
102
}
 70
     0
280
     1
281
     0
  0
BLOCK_RECORD
  5
9D0
330
8CC
100
AcDbSymbolTableRecord
100
AcDbBlockTableRecord
  2
*U55
340
0
102
{BLKREFS
331
274
102
}
 70
     0
280
     1
281
     0
  0
BLOCK_RECORD
  5
9D2
330
8CC
100
AcDbSymbolTableRecord
100
AcDbBlockTableRecord
  2
*U56
340
0
102
{BLKREFS
331
275
102
}
 70
     0
280
     1
281
     0
  0
BLOCK_RECORD
  5
9D4
330
8CC
100
AcDbSymbolTableRecord
100
AcDbBlockTableRecord
  2
*U57
340
0
102
{BLKREFS
331
277
102
}
 70
     0
280
     1
281
     0
  0
BLOCK_RECORD
  5
9D6
330
8CC
100
AcDbSymbolTableRecord
100
AcDbBlockTableRecord
  2
*U58
340
0
102
{BLKREFS
331
278
102
}
 70
     0
280
     1
281
     0
  0
BLOCK_RECORD
  5
9D8
330
8CC
100
AcDbSymbolTableRecord
100
AcDbBlockTableRecord
  2
*U59
340
0
102
{BLKREFS
331
279
102
}
 70
     0
280
     1
281
     0
  0
BLOCK_RECORD
  5
9DA
330
8CC
100
AcDbSymbolTableRecord
100
AcDbBlockTableRecord
  2
*U60
340
0
102
{BLKREFS
331
27A
102
}
 70
     0
280
     1
281
     0
  0
BLOCK_RECORD
  5
9DC
330
8CC
100
AcDbSymbolTableRecord
100
AcDbBlockTableRecord
  2
*U61
340
0
102
{BLKREFS
331
27B
102
}
 70
     0
280
     1
281
     0
  0
BLOCK_RECORD
  5
9DE
330
8CC
100
AcDbSymbolTableRecord
100
AcDbBlockTableRecord
  2
*U62
340
0
102
{BLKREFS
331
27C
102
}
 70
     0
280
     1
281
     0
  0
BLOCK_RECORD
  5
9E0
330
8CC
100
AcDbSymbolTableRecord
100
AcDbBlockTableRecord
  2
*U63
340
0
102
{BLKREFS
331
27D
102
}
 70
     0
280
     1
281
     0
  0
BLOCK_RECORD
  5
9E2
330
8CC
100
AcDbSymbolTableRecord
100
AcDbBlockTableRecord
  2
*U64
340
0
102
{BLKREFS
331
27E
102
}
 70
     0
280
     1
281
     0
  0
BLOCK_RECORD
  5
9E4
330
8CC
100
AcDbSymbolTableRecord
100
AcDbBlockTableRecord
  2
*U65
340
0
102
{BLKREFS
331
27F
102
}
 70
     0
280
     1
281
     0
  0
BLOCK_RECORD
  5
9E6
330
8CC
100
AcDbSymbolTableRecord
100
AcDbBlockTableRecord
  2
*U66
340
0
102
{BLKREFS
331
280
102
}
 70
     0
280
     1
281
     0
  0
BLOCK_RECORD
  5
9E8
330
8CC
100
AcDbSymbolTableRecord
100
AcDbBlockTableRecord
  2
*U67
340
0
102
{BLKREFS
331
281
102
}
 70
     0
280
     1
281
     0
  0
BLOCK_RECORD
  5
9EA
330
8CC
100
AcDbSymbolTableRecord
100
AcDbBlockTableRecord
  2
*U68
340
0
102
{BLKREFS
331
282
102
}
 70
     0
280
     1
281
     0
  0
BLOCK_RECORD
  5
9EC
330
8CC
100
AcDbSymbolTableRecord
100
AcDbBlockTableRecord
  2
*U69
340
0
102
{BLKREFS
331
283
102
}
 70
     0
280
     1
281
     0
  0
BLOCK_RECORD
  5
9EE
330
8CC
100
AcDbSymbolTableRecord
100
AcDbBlockTableRecord
  2
*U70
340
0
102
{BLKREFS
331
285
102
}
 70
     0
280
     1
281
     0
  0
BLOCK_RECORD
  5
9F0
330
8CC
100
AcDbSymbolTableRecord
100
AcDbBlockTableRecord
  2
*U71
340
0
102
{BLKREFS
331
286
102
}
 70
     0
280
     1
281
     0
  0
BLOCK_RECORD
  5
9F2
330
8CC
100
AcDbSymbolTableRecord
100
AcDbBlockTableRecord
  2
*U72
340
0
102
{BLKREFS
331
287
102
}
 70
     0
280
     1
281
     0
  0
BLOCK_RECORD
  5
9F4
330
8CC
100
AcDbSymbolTableRecord
100
AcDbBlockTableRecord
  2
*U73
340
0
102
{BLKREFS
331
288
102
}
 70
     0
280
     1
281
     0
  0
BLOCK_RECORD
  5
9F6
330
8CC
100
AcDbSymbolTableRecord
100
AcDbBlockTableRecord
  2
*U74
340
0
102
{BLKREFS
331
289
102
}
 70
     0
280
     1
281
     0
  0
BLOCK_RECORD
  5
9F8
330
8CC
100
AcDbSymbolTableRecord
100
AcDbBlockTableRecord
  2
*U75
340
0
102
{BLKREFS
331
28A
102
}
 70
     0
280
     1
281
     0
  0
BLOCK_RECORD
  5
9FA
330
8CC
100
AcDbSymbolTableRecord
100
AcDbBlockTableRecord
  2
*U76
340
0
102
{BLKREFS
331
28B
102
}
 70
     0
280
     1
281
     0
  0
BLOCK_RECORD
  5
9FC
330
8CC
100
AcDbSymbolTableRecord
100
AcDbBlockTableRecord
  2
*U77
340
0
102
{BLKREFS
331
28C
102
}
 70
     0
280
     1
281
     0
  0
BLOCK_RECORD
  5
9FE
330
8CC
100
AcDbSymbolTableRecord
100
AcDbBlockTableRecord
  2
*U78
340
0
102
{BLKREFS
331
28D
102
}
 70
     0
280
     1
281
     0
  0
BLOCK_RECORD
  5
A00
330
8CC
100
AcDbSymbolTableRecord
100
AcDbBlockTableRecord
  2
*U79
340
0
102
{BLKREFS
331
28E
102
}
 70
     0
280
     1
281
     0
  0
BLOCK_RECORD
  5
A02
330
8CC
100
AcDbSymbolTableRecord
100
AcDbBlockTableRecord
  2
*U80
340
0
102
{BLKREFS
331
28F
102
}
 70
     0
280
     1
281
     0
  0
BLOCK_RECORD
  5
A04
330
8CC
100
AcDbSymbolTableRecord
100
AcDbBlockTableRecord
  2
*U81
340
0
102
{BLKREFS
331
290
102
}
 70
     0
280
     1
281
     0
  0
BLOCK_RECORD
  5
A06
330
8CC
100
AcDbSymbolTableRecord
100
AcDbBlockTableRecord
  2
*U82
340
0
102
{BLKREFS
331
291
102
}
 70
     0
280
     1
281
     0
  0
BLOCK_RECORD
  5
A08
330
8CC
100
AcDbSymbolTableRecord
100
AcDbBlockTableRecord
  2
*U83
340
0
102
{BLKREFS
331
292
102
}
 70
     0
280
     1
281
     0
  0
BLOCK_RECORD
  5
A0A
330
8CC
100
AcDbSymbolTableRecord
100
AcDbBlockTableRecord
  2
*U84
340
0
102
{BLKREFS
331
293
102
}
 70
     0
280
     1
281
     0
  0
BLOCK_RECORD
  5
A0C
330
8CC
100
AcDbSymbolTableRecord
100
AcDbBlockTableRecord
  2
*U85
340
0
102
{BLKREFS
331
294
102
}
 70
     0
280
     1
281
     0
  0
BLOCK_RECORD
  5
A0E
330
8CC
100
AcDbSymbolTableRecord
100
AcDbBlockTableRecord
  2
*U86
340
0
102
{BLKREFS
331
295
102
}
 70
     0
280
     1
281
     0
  0
BLOCK_RECORD
  5
A10
330
8CC
100
AcDbSymbolTableRecord
100
AcDbBlockTableRecord
  2
*U87
340
0
102
{BLKREFS
331
296
102
}
 70
     0
280
     1
281
     0
  0
BLOCK_RECORD
  5
A12
330
8CC
100
AcDbSymbolTableRecord
100
AcDbBlockTableRecord
  2
*U88
340
0
102
{BLKREFS
331
297
102
}
 70
     0
280
     1
281
     0
  0
BLOCK_RECORD
  5
A14
330
8CC
100
AcDbSymbolTableRecord
100
AcDbBlockTableRecord
  2
*U89
340
0
102
{BLKREFS
331
298
102
}
 70
     0
280
     1
281
     0
  0
BLOCK_RECORD
  5
A16
330
8CC
100
AcDbSymbolTableRecord
100
AcDbBlockTableRecord
  2
*U90
340
0
102
{BLKREFS
331
299
102
}
 70
     0
280
     1
281
     0
  0
BLOCK_RECORD
  5
A18
330
8CC
100
AcDbSymbolTableRecord
100
AcDbBlockTableRecord
  2
*U91
340
0
102
{BLKREFS
331
29A
102
}
 70
     0
280
     1
281
     0
  0
BLOCK_RECORD
  5
A1A
330
8CC
100
AcDbSymbolTableRecord
100
AcDbBlockTableRecord
  2
*U92
340
0
102
{BLKREFS
331
29C
102
}
 70
     0
280
     1
281
     0
  0
BLOCK_RECORD
  5
A1C
330
8CC
100
AcDbSymbolTableRecord
100
AcDbBlockTableRecord
  2
*U93
340
0
102
{BLKREFS
331
29D
102
}
 70
     0
280
     1
281
     0
  0
BLOCK_RECORD
  5
A1E
330
8CC
100
AcDbSymbolTableRecord
100
AcDbBlockTableRecord
  2
*U94
340
0
102
{BLKREFS
331
29E
102
}
 70
     0
280
     1
281
     0
  0
BLOCK_RECORD
  5
A20
330
8CC
100
AcDbSymbolTableRecord
100
AcDbBlockTableRecord
  2
*U95
340
0
102
{BLKREFS
331
29F
102
}
 70
     0
280
     1
281
     0
  0
BLOCK_RECORD
  5
A22
330
8CC
100
AcDbSymbolTableRecord
100
AcDbBlockTableRecord
  2
*U96
340
0
102
{BLKREFS
331
2A0
102
}
 70
     0
280
     1
281
     0
  0
BLOCK_RECORD
  5
A24
330
8CC
100
AcDbSymbolTableRecord
100
AcDbBlockTableRecord
  2
*U97
340
0
102
{BLKREFS
331
2A1
102
}
 70
     0
280
     1
281
     0
  0
BLOCK_RECORD
  5
A26
330
8CC
100
AcDbSymbolTableRecord
100
AcDbBlockTableRecord
  2
*U98
340
0
102
{BLKREFS
331
2A2
102
}
 70
     0
280
     1
281
     0
  0
BLOCK_RECORD
  5
A28
330
8CC
100
AcDbSymbolTableRecord
100
AcDbBlockTableRecord
  2
*U99
340
0
102
{BLKREFS
331
2A3
102
}
 70
     0
280
     1
281
     0
  0
BLOCK_RECORD
  5
A2A
330
8CC
100
AcDbSymbolTableRecord
100
AcDbBlockTableRecord
  2
*U100
340
0
102
{BLKREFS
331
2A4
102
}
 70
     0
280
     1
281
     0
  0
BLOCK_RECORD
  5
A2C
330
8CC
100
AcDbSymbolTableRecord
100
AcDbBlockTableRecord
  2
*U101
340
0
102
{BLKREFS
331
2A5
102
}
 70
     0
280
     1
281
     0
  0
BLOCK_RECORD
  5
A2E
330
8CC
100
AcDbSymbolTableRecord
100
AcDbBlockTableRecord
  2
*U102
340
0
102
{BLKREFS
331
2A6
102
}
 70
     0
280
     1
281
     0
  0
BLOCK_RECORD
  5
A30
330
8CC
100
AcDbSymbolTableRecord
100
AcDbBlockTableRecord
  2
*U103
340
0
102
{BLKREFS
331
2A7
102
}
 70
     0
280
     1
281
     0
  0
BLOCK_RECORD
  5
A32
330
8CC
100
AcDbSymbolTableRecord
100
AcDbBlockTableRecord
  2
*U104
340
0
102
{BLKREFS
331
2A8
102
}
 70
     0
280
     1
281
     0
  0
BLOCK_RECORD
  5
A34
330
8CC
100
AcDbSymbolTableRecord
100
AcDbBlockTableRecord
  2
*U105
340
0
102
{BLKREFS
331
2A9
102
}
 70
     0
280
     1
281
     0
  0
BLOCK_RECORD
  5
A36
330
8CC
100
AcDbSymbolTableRecord
100
AcDbBlockTableRecord
  2
*U106
340
0
102
{BLKREFS
331
2AA
102
}
 70
     0
280
     1
281
     0
  0
BLOCK_RECORD
  5
A38
330
8CC
100
AcDbSymbolTableRecord
100
AcDbBlockTableRecord
  2
*U107
340
0
102
{BLKREFS
331
2AB
102
}
 70
     0
280
     1
281
     0
  0
BLOCK_RECORD
  5
A3A
330
8CC
100
AcDbSymbolTableRecord
100
AcDbBlockTableRecord
  2
*U108
340
0
102
{BLKREFS
331
2AC
102
}
 70
     0
280
     1
281
     0
  0
BLOCK_RECORD
  5
A3C
330
8CC
100
AcDbSymbolTableRecord
100
AcDbBlockTableRecord
  2
*U109
340
0
102
{BLKREFS
331
2AD
102
}
 70
     0
280
     1
281
     0
  0
BLOCK_RECORD
  5
A3E
330
8CC
100
AcDbSymbolTableRecord
100
AcDbBlockTableRecord
  2
*U110
340
0
102
{BLKREFS
331
2AE
102
}
 70
     0
280
     1
281
     0
  0
BLOCK_RECORD
  5
A40
330
8CC
100
AcDbSymbolTableRecord
100
AcDbBlockTableRecord
  2
*U111
340
0
102
{BLKREFS
331
2AF
102
}
 70
     0
280
     1
281
     0
  0
BLOCK_RECORD
  5
A42
330
8CC
100
AcDbSymbolTableRecord
100
AcDbBlockTableRecord
  2
*U112
340
0
102
{BLKREFS
331
2B0
102
}
 70
     0
280
     1
281
     0
  0
BLOCK_RECORD
  5
A44
330
8CC
100
AcDbSymbolTableRecord
100
AcDbBlockTableRecord
  2
*U113
340
0
102
{BLKREFS
331
2B1
102
}
 70
     0
280
     1
281
     0
  0
BLOCK_RECORD
  5
A46
330
8CC
100
AcDbSymbolTableRecord
100
AcDbBlockTableRecord
  2
*U114
340
0
102
{BLKREFS
331
2B2
102
}
 70
     0
280
     1
281
     0
  0
BLOCK_RECORD
  5
A48
330
8CC
100
AcDbSymbolTableRecord
100
AcDbBlockTableRecord
  2
*U115
340
0
102
{BLKREFS
331
2B3
102
}
 70
     0
280
     1
281
     0
  0
BLOCK_RECORD
  5
A4A
330
8CC
100
AcDbSymbolTableRecord
100
AcDbBlockTableRecord
  2
*U116
340
0
102
{BLKREFS
331
2B5
102
}
 70
     0
280
     1
281
     0
  0
BLOCK_RECORD
  5
A4C
330
8CC
100
AcDbSymbolTableRecord
100
AcDbBlockTableRecord
  2
*U117
340
0
102
{BLKREFS
331
2B6
102
}
 70
     0
280
     1
281
     0
  0
BLOCK_RECORD
  5
A4E
330
8CC
100
AcDbSymbolTableRecord
100
AcDbBlockTableRecord
  2
*U118
340
0
102
{BLKREFS
331
2B7
102
}
 70
     0
280
     1
281
     0
  0
BLOCK_RECORD
  5
A50
330
8CC
100
AcDbSymbolTableRecord
100
AcDbBlockTableRecord
  2
*U119
340
0
102
{BLKREFS
331
2B8
102
}
 70
     0
280
     1
281
     0
  0
BLOCK_RECORD
  5
A52
330
8CC
100
AcDbSymbolTableRecord
100
AcDbBlockTableRecord
  2
*U120
340
0
102
{BLKREFS
331
2B9
102
}
 70
     0
280
     1
281
     0
  0
BLOCK_RECORD
  5
A54
330
8CC
100
AcDbSymbolTableRecord
100
AcDbBlockTableRecord
  2
*U121
340
0
102
{BLKREFS
331
2BA
102
}
 70
     0
280
     1
281
     0
  0
BLOCK_RECORD
  5
A56
330
8CC
100
AcDbSymbolTableRecord
100
AcDbBlockTableRecord
  2
*U122
340
0
102
{BLKREFS
331
2BB
102
}
 70
     0
280
     1
281
     0
  0
BLOCK_RECORD
  5
A58
330
8CC
100
AcDbSymbolTableRecord
100
AcDbBlockTableRecord
  2
*U123
340
0
102
{BLKREFS
331
2BC
102
}
 70
     0
280
     1
281
     0
  0
BLOCK_RECORD
  5
A5A
330
8CC
100
AcDbSymbolTableRecord
100
AcDbBlockTableRecord
  2
*X124
340
0
 70
     0
280
     1
281
     0
  0
BLOCK_RECORD
  5
A5C
330
8CC
100
AcDbSymbolTableRecord
100
AcDbBlockTableRecord
  2
*X125
340
0
102
{BLKREFS
331
335
102
}
 70
     0
280
     1
281
     0
  0
ENDTAB
  0
ENDSEC
  0
SECTION
  2
BLOCKS
  0
BLOCK
  5
93B
330
93A
100
AcDbEntity
  8
0
100
AcDbBlockBegin
  2
*Model_Space
 70
     0
 10
0.0
 20
0.0
 30
0.0
  3
*Model_Space
  1

  0
ENDBLK
  5
93C
330
93A
100
AcDbEntity
  8
0
100
AcDbBlockEnd
  0
BLOCK
  5
937
330
936
100
AcDbEntity
 67
     1
  8
0
100
AcDbBlockBegin
  2
*Paper_Space
 70
     0
 10
0.0
 20
0.0
 30
0.0
  3
*Paper_Space
  1

  0
ENDBLK
  5
938
330
936
100
AcDbEntity
 67
     1
  8
0
100
AcDbBlockEnd
  0
BLOCK
  5
963
330
962
100
AcDbEntity
  8
0
100
AcDbBlockBegin
  2
$MODEL_SPACE
 70
     0
 10
0.0
 20
0.0
 30
0.0
  3
$MODEL_SPACE
  1

  0
ENDBLK
  5
21
330
962
100
AcDbEntity
  8
0
100
AcDbBlockEnd
  0
BLOCK
  5
965
330
964
100
AcDbEntity
  8
0
100
AcDbBlockBegin
  2
$PAPER_SPACE
 70
     0
 10
0.0
 20
0.0
 30
0.0
  3
$PAPER_SPACE
  1

  0
ENDBLK
  5
5B
330
964
100
AcDbEntity
  8
0
100
AcDbBlockEnd
  0
BLOCK
  5
967
330
966
100
AcDbEntity
  8
0
100
AcDbBlockBegin
  2
*U2
 70
     1
 10
0.0
 20
0.0
 30
0.0
  3
*U2
  1

  0
TEXT
  5
655
330
966
100
AcDbEntity
  8
TRENCH_TOP_LABEL
100
AcDbText
 10
442209.6066889388
 20
111157.0995443438
 30
0.0
 40
0.2
  1
TOP TR5
100
AcDbText
  0
ENDBLK
  5
657
330
966
100
AcDbEntity
  8
0
100
AcDbBlockEnd
  0
BLOCK
  5
969
330
968
100
AcDbEntity
  8
0
100
AcDbBlockBegin
  2
*U3
 70
     1
 10
0.0
 20
0.0
 30
0.0
  3
*U3
  1

  0
TEXT
  5
659
330
968
100
AcDbEntity
  8
TRENCH_TOP_LABEL
100
AcDbText
 10
442219.4378529437
 20
111146.2414427036
 30
0.0
 40
0.2
  1
TOP TR4
100
AcDbText
  0
ENDBLK
  5
65B
330
968
100
AcDbEntity
  8
0
100
AcDbBlockEnd
  0
BLOCK
  5
96B
330
96A
100
AcDbEntity
  8
0
100
AcDbBlockBegin
  2
*U4
 70
     1
 10
0.0
 20
0.0
 30
0.0
  3
*U4
  1

  0
TEXT
  5
65D
330
96A
100
AcDbEntity
  8
TRENCH_TOP_LABEL
100
AcDbText
 10
442215.9617630849
 20
111125.9718984792
 30
0.0
 40
0.2
  1
TOP TR2
100
AcDbText
  0
ENDBLK
  5
65F
330
96A
100
AcDbEntity
  8
0
100
AcDbBlockEnd
  0
BLOCK
  5
96D
330
96C
100
AcDbEntity
  8
0
100
AcDbBlockBegin
  2
*U5
 70
     1
 10
0.0
 20
0.0
 30
0.0
  3
*U5
  1

  0
TEXT
  5
661
330
96C
100
AcDbEntity
  8
TRENCH_TOP_LABEL
100
AcDbText
 10
442202.5747641987
 20
111125.9377694346
 30
0.0
 40
0.2
  1
TOP TR1
100
AcDbText
  0
ENDBLK
  5
663
330
96C
100
AcDbEntity
  8
0
100
AcDbBlockEnd
  0
BLOCK
  5
96F
330
96E
100
AcDbEntity
  8
0
100
AcDbBlockBegin
  2
*U6
 70
     1
 10
0.0
 20
0.0
 30
0.0
  3
*U6
  1

  0
TEXT
  5
665
330
96E
100
AcDbEntity
  8
TRENCH_BASE_LABEL
100
AcDbText
 10
442209.2385101591
 20
111157.2532082357
 30
0.0
 40
0.2
  1
BASE TR5
100
AcDbText
  0
ENDBLK
  5
667
330
96E
100
AcDbEntity
  8
0
100
AcDbBlockEnd
  0
BLOCK
  5
971
330
970
100
AcDbEntity
  8
0
100
AcDbBlockBegin
  2
*U7
 70
     1
 10
0.0
 20
0.0
 30
0.0
  3
*U7
  1

  0
TEXT
  5
669
330
970
100
AcDbEntity
  8
TRENCH_BASE_LABEL
100
AcDbText
 10
442219.3752365509
 20
111146.5627557095
 30
0.0
 40
0.2
  1
BASE TR4
100
AcDbText
  0
ENDBLK
  5
66B
330
970
100
AcDbEntity
  8
0
100
AcDbBlockEnd
  0
BLOCK
  5
973
330
972
100
AcDbEntity
  8
0
100
AcDbBlockBegin
  2
*U8
 70
     1
 10
0.0
 20
0.0
 30
0.0
  3
*U8
  1

  0
TEXT
  5
66D
330
972
100
AcDbEntity
  8
TRENCH_BASE_LABEL
100
AcDbText
 10
442216.0118416459
 20
111126.34076901
 30
0.0
 40
0.2
  1
BASE TR2
100
AcDbText
  0
ENDBLK
  5
66F
330
972
100
AcDbEntity
  8
0
100
AcDbBlockEnd
  0
BLOCK
  5
975
330
974
100
AcDbEntity
  8
0
100
AcDbBlockBegin
  2
*U9
 70
     1
 10
0.0
 20
0.0
 30
0.0
  3
*U9
  1

  0
TEXT
  5
671
330
974
100
AcDbEntity
  8
SECTION_LINE_LABEL
100
AcDbText
 10
442211.0874488404
 20
111158.4745893588
 30
0.0
 40
0.2
  1
SL501
100
AcDbText
  0
ENDBLK
  5
673
330
974
100
AcDbEntity
  8
0
100
AcDbBlockEnd
  0
BLOCK
  5
977
330
976
100
AcDbEntity
  8
0
100
AcDbBlockBegin
  2
*U10
 70
     1
 10
0.0
 20
0.0
 30
0.0
  3
*U10
  1

  0
TEXT
  5
675
330
976
100
AcDbEntity
  8
SECTION_LINE_LABEL
100
AcDbText
 10
442202.4019488404
 20
111124.6955893588
 30
0.0
 40
0.2
  1
SL101
100
AcDbText
  0
ENDBLK
  5
677
330
976
100
AcDbEntity
  8
0
100
AcDbBlockEnd
  0
BLOCK
  5
979
330
978
100
AcDbEntity
  8
0
100
AcDbBlockBegin
  2
*U11
 70
     1
 10
0.0
 20
0.0
 30
0.0
  3
*U11
  1

  0
TEXT
  5
679
330
978
100
AcDbEntity
  8
SECTION_LINE_LABEL
100
AcDbText
 10
442218.4009488403
 20
111148.9265893588
 30
0.0
 40
0.2
  1
SL401
100
AcDbText
  0
ENDBLK
  5
67B
330
978
100
AcDbEntity
  8
0
100
AcDbBlockEnd
  0
BLOCK
  5
97B
330
97A
100
AcDbEntity
  8
0
100
AcDbBlockBegin
  2
*U12
 70
     1
 10
0.0
 20
0.0
 30
0.0
  3
*U12
  1

  0
TEXT
  5
67D
330
97A
100
AcDbEntity
  8
SECTION_LINE_LABEL
100
AcDbText
 10
442214.6664488404
 20
111128.0260893588
 30
0.0
 40
0.2
  1
SL201
100
AcDbText
  0
ENDBLK
  5
67F
330
97A
100
AcDbEntity
  8
0
100
AcDbBlockEnd
  0
BLOCK
  5
97D
330
97C
100
AcDbEntity
  8
0
100
AcDbBlockBegin
  2
*U13
 70
     1
 10
0.0
 20
0.0
 30
0.0
  3
*U13
  1

  0
TEXT
  5
681
330
97C
100
AcDbEntity
  8
LEVEL_LEVEL
100
AcDbText
 10
442211.4456916779
 20
111157.0571473397
 30
0.0
 40
0.05
  1
71 (3.096)
100
AcDbText
  0
ENDBLK
  5
683
330
97C
100
AcDbEntity
  8
0
100
AcDbBlockEnd
  0
BLOCK
  5
97F
330
97E
100
AcDbEntity
  8
0
100
AcDbBlockBegin
  2
*U14
 70
     1
 10
0.0
 20
0.0
 30
0.0
  3
*U14
  1

  0
TEXT
  5
685
330
97E
100
AcDbEntity
  8
LEVEL_LEVEL
100
AcDbText
 10
442209.484691678
 20
111157.4181473397
 30
0.0
 40
0.05
  1
72 (3.244)
100
AcDbText
  0
ENDBLK
  5
687
330
97E
100
AcDbEntity
  8
0
100
AcDbBlockEnd
  0
BLOCK
  5
981
330
980
100
AcDbEntity
  8
0
100
AcDbBlockBegin
  2
*U15
 70
     1
 10
0.0
 20
0.0
 30
0.0
  3
*U15
  1

  0
TEXT
  5
689
330
980
100
AcDbEntity
  8
LEVEL_LEVEL
100
AcDbText
 10
442207.1296916779
 20
111157.8441473397
 30
0.0
 40
0.05
  1
73 (3.254)
100
AcDbText
  0
ENDBLK
  5
68B
330
980
100
AcDbEntity
  8
0
100
AcDbBlockEnd
  0
BLOCK
  5
983
330
982
100
AcDbEntity
  8
0
100
AcDbBlockBegin
  2
*U16
 70
     1
 10
0.0
 20
0.0
 30
0.0
  3
*U16
  1

  0
TEXT
  5
68D
330
982
100
AcDbEntity
  8
LEVEL_LEVEL
100
AcDbText
 10
442219.036691678
 20
111144.9251473397
 30
0.0
 40
0.05
  1
74 (2.651)
100
AcDbText
  0
ENDBLK
  5
68F
330
982
100
AcDbEntity
  8
0
100
AcDbBlockEnd
  0
BLOCK
  5
985
330
984
100
AcDbEntity
  8
0
100
AcDbBlockBegin
  2
*U17
 70
     1
 10
0.0
 20
0.0
 30
0.0
  3
*U17
  1

  0
TEXT
  5
691
330
984
100
AcDbEntity
  8
LEVEL_LEVEL
100
AcDbText
 10
442219.4096916779
 20
111146.7231473397
 30
0.0
 40
0.05
  1
75 (2.618)
100
AcDbText
  0
ENDBLK
  5
693
330
984
100
AcDbEntity
  8
0
100
AcDbBlockEnd
  0
BLOCK
  5
987
330
986
100
AcDbEntity
  8
0
100
AcDbBlockBegin
  2
*U18
 70
     1
 10
0.0
 20
0.0
 30
0.0
  3
*U18
  1

  0
TEXT
  5
695
330
986
100
AcDbEntity
  8
LEVEL_LEVEL
100
AcDbText
 10
442219.652691678
 20
111148.6581473396
 30
0.0
 40
0.05
  1
76 (2.552)
100
AcDbText
  0
ENDBLK
  5
697
330
986
100
AcDbEntity
  8
0
100
AcDbBlockEnd
  0
BLOCK
  5
989
330
988
100
AcDbEntity
  8
0
100
AcDbBlockBegin
  2
*U19
 70
     1
 10
0.0
 20
0.0
 30
0.0
  3
*U19
  1

  0
TEXT
  5
699
330
988
100
AcDbEntity
  8
LEVEL_LEVEL
100
AcDbText
 10
442216.3871691679
 20
111129.2261473396
 30
0.0
 40
0.05
  1
83 (2.429)
100
AcDbText
  0
ENDBLK
  5
69B
330
988
100
AcDbEntity
  8
0
100
AcDbBlockEnd
  0
BLOCK
  5
98B
330
98A
100
AcDbEntity
  8
0
100
AcDbBlockBegin
  2
*U20
 70
     1
 10
0.0
 20
0.0
 30
0.0
  3
*U20
  1

  0
TEXT
  5
69D
330
98A
100
AcDbEntity
  8
LEVEL_LEVEL
100
AcDbText
 10
442215.9301691678
 20
111125.8241473397
 30
0.0
 40
0.05
  1
84 (2.52)
100
AcDbText
  0
ENDBLK
  5
69F
330
98A
100
AcDbEntity
  8
0
100
AcDbBlockEnd
  0
BLOCK
  5
98D
330
98C
100
AcDbEntity
  8
0
100
AcDbBlockBegin
  2
*U21
 70
     1
 10
0.0
 20
0.0
 30
0.0
  3
*U21
  1

  0
TEXT
  5
6A1
330
98C
100
AcDbEntity
  8
LEVEL_LEVEL
100
AcDbText
 10
442215.6031691678
 20
111123.6271473397
 30
0.0
 40
0.05
  1
85 (2.636)
100
AcDbText
  0
ENDBLK
  5
6A3
330
98C
100
AcDbEntity
  8
0
100
AcDbBlockEnd
  0
BLOCK
  5
98F
330
98E
100
AcDbEntity
  8
0
100
AcDbBlockBegin
  2
*U22
 70
     1
 10
0.0
 20
0.0
 30
0.0
  3
*U22
  1

  0
TEXT
  5
6A5
330
98E
100
AcDbEntity
  8
LEVEL_LEVEL
100
AcDbText
 10
442204.7673942702
 20
111125.7641473397
 30
0.0
 40
0.05
  1
101 (2.455)
100
AcDbText
  0
ENDBLK
  5
6A7
330
98E
100
AcDbEntity
  8
0
100
AcDbBlockEnd
  0
BLOCK
  5
991
330
990
100
AcDbEntity
  8
0
100
AcDbBlockBegin
  2
*U23
 70
     1
 10
0.0
 20
0.0
 30
0.0
  3
*U23
  1

  0
TEXT
  5
6A9
330
990
100
AcDbEntity
  8
LEVEL_LEVEL
100
AcDbText
 10
442202.0703942702
 20
111126.2761473397
 30
0.0
 40
0.05
  1
102 (2.518)
100
AcDbText
  0
ENDBLK
  5
6AB
330
990
100
AcDbEntity
  8
0
100
AcDbBlockEnd
  0
BLOCK
  5
993
330
992
100
AcDbEntity
  8
0
100
AcDbBlockBegin
  2
*U24
 70
     1
 10
0.0
 20
0.0
 30
0.0
  3
*U24
  1

  0
TEXT
  5
6AD
330
992
100
AcDbEntity
  8
LEVEL_LEVEL
100
AcDbText
 10
442199.3043942701
 20
111126.3761473397
 30
0.0
 40
0.05
  1
103 (2.656)
100
AcDbText
  0
ENDBLK
  5
6AF
330
992
100
AcDbEntity
  8
0
100
AcDbBlockEnd
  0
BLOCK
  5
995
330
994
100
AcDbEntity
  8
0
100
AcDbBlockBegin
  2
*U25
 70
     1
 10
0.0
 20
0.0
 30
0.0
  3
*U25
  1

  0
TEXT
  5
6B1
330
994
100
AcDbEntity
  8
OPEN_LINE_LEVEL
100
AcDbText
 10
442194.3561132333
 20
111130.5861473397
 30
0.0
 40
0.05
  1
47 (4.344)
100
AcDbText
  0
ENDBLK
  5
6B3
330
994
100
AcDbEntity
  8
0
100
AcDbBlockEnd
  0
BLOCK
  5
997
330
996
100
AcDbEntity
  8
0
100
AcDbBlockBegin
  2
*U26
 70
     1
 10
0.0
 20
0.0
 30
0.0
  3
*U26
  1

  0
TEXT
  5
6B5
330
996
100
AcDbEntity
  8
OPEN_LINE_LEVEL
100
AcDbText
 10
442198.6031132333
 20
111130.1501473397
 30
0.0
 40
0.05
  1
48 (4.032)
100
AcDbText
  0
ENDBLK
  5
6B7
330
996
100
AcDbEntity
  8
0
100
AcDbBlockEnd
  0
BLOCK
  5
999
330
998
100
AcDbEntity
  8
0
100
AcDbBlockBegin
  2
*U27
 70
     1
 10
0.0
 20
0.0
 30
0.0
  3
*U27
  1

  0
TEXT
  5
6B9
330
998
100
AcDbEntity
  8
OPEN_LINE_LEVEL
100
AcDbText
 10
442202.3591132332
 20
111128.8741473396
 30
0.0
 40
0.05
  1
49 (4.027)
100
AcDbText
  0
ENDBLK
  5
6BB
330
998
100
AcDbEntity
  8
0
100
AcDbBlockEnd
  0
BLOCK
  5
99B
330
99A
100
AcDbEntity
  8
0
100
AcDbBlockBegin
  2
*U28
 70
     1
 10
0.0
 20
0.0
 30
0.0
  3
*U28
  1

  0
TEXT
  5
6BD
330
99A
100
AcDbEntity
  8
OPEN_LINE_LEVEL
100
AcDbText
 10
442206.0201009549
 20
111127.3521473397
 30
0.0
 40
0.05
  1
50 (3.609)
100
AcDbText
  0
ENDBLK
  5
6BF
330
99A
100
AcDbEntity
  8
0
100
AcDbBlockEnd
  0
BLOCK
  5
99D
330
99C
100
AcDbEntity
  8
0
100
AcDbBlockBegin
  2
*U29
 70
     1
 10
0.0
 20
0.0
 30
0.0
  3
*U29
  1

  0
TEXT
  5
6C1
330
99C
100
AcDbEntity
  8
OPEN_LINE_LEVEL
100
AcDbText
 10
442208.864100955
 20
111126.8831473397
 30
0.0
 40
0.05
  1
51 (3.751)
100
AcDbText
  0
ENDBLK
  5
6C3
330
99C
100
AcDbEntity
  8
0
100
AcDbBlockEnd
  0
BLOCK
  5
99F
330
99E
100
AcDbEntity
  8
0
100
AcDbBlockBegin
  2
*U30
 70
     1
 10
0.0
 20
0.0
 30
0.0
  3
*U30
  1

  0
TEXT
  5
6C5
330
99E
100
AcDbEntity
  8
OPEN_LINE_LEVEL
100
AcDbText
 10
442210.9741009551
 20
111126.9801473397
 30
0.0
 40
0.05
  1
52 (3.695)
100
AcDbText
  0
ENDBLK
  5
6C7
330
99E
100
AcDbEntity
  8
0
100
AcDbBlockEnd
  0
BLOCK
  5
9A1
330
9A0
100
AcDbEntity
  8
0
100
AcDbBlockBegin
  2
*U31
 70
     1
 10
0.0
 20
0.0
 30
0.0
  3
*U31
  1

  0
TEXT
  5
6C9
330
9A0
100
AcDbEntity
  8
OPEN_LINE_LEVEL
100
AcDbText
 10
442212.7771009551
 20
111127.8111473397
 30
0.0
 40
0.05
  1
53 (3.728)
100
AcDbText
  0
ENDBLK
  5
6CB
330
9A0
100
AcDbEntity
  8
0
100
AcDbBlockEnd
  0
BLOCK
  5
9A3
330
9A2
100
AcDbEntity
  8
0
100
AcDbBlockBegin
  2
*U32
 70
     1
 10
0.0
 20
0.0
 30
0.0
  3
*U32
  1

  0
TEXT
  5
6CD
330
9A2
100
AcDbEntity
  8
OPEN_LINE_LEVEL
100
AcDbText
 10
442213.6601009549
 20
111129.7021473397
 30
0.0
 40
0.05
  1
54 (3.898)
100
AcDbText
  0
ENDBLK
  5
6CF
330
9A2
100
AcDbEntity
  8
0
100
AcDbBlockEnd
  0
BLOCK
  5
9A5
330
9A4
100
AcDbEntity
  8
0
100
AcDbBlockBegin
  2
*U33
 70
     1
 10
0.0
 20
0.0
 30
0.0
  3
*U33
  1

  0
TEXT
  5
6D1
330
9A4
100
AcDbEntity
  8
OPEN_LINE_LEVEL
100
AcDbText
 10
442214.6131009549
 20
111132.1381473397
 30
0.0
 40
0.05
  1
55 (4.155)
100
AcDbText
  0
ENDBLK
  5
6D3
330
9A4
100
AcDbEntity
  8
0
100
AcDbBlockEnd
  0
BLOCK
  5
9A7
330
9A6
100
AcDbEntity
  8
0
100
AcDbBlockBegin
  2
*U34
 70
     1
 10
0.0
 20
0.0
 30
0.0
  3
*U34
  1

  0
TEXT
  5
6D5
330
9A6
100
AcDbEntity
  8
OPEN_LINE_LEVEL
100
AcDbText
 10
442215.664100955
 20
111134.1881473396
 30
0.0
 40
0.05
  1
56 (3.944)
100
AcDbText
  0
ENDBLK
  5
6D7
330
9A6
100
AcDbEntity
  8
0
100
AcDbBlockEnd
  0
BLOCK
  5
9A9
330
9A8
100
AcDbEntity
  8
0
100
AcDbBlockBegin
  2
*U35
 70
     1
 10
0.0
 20
0.0
 30
0.0
  3
*U35
  1

  0
TEXT
  5
6D9
330
9A8
100
AcDbEntity
  8
OPEN_LINE_LEVEL
100
AcDbText
 10
442217.9221009549
 20
111136.8831473397
 30
0.0
 40
0.05
  1
57 (3.881)
100
AcDbText
  0
ENDBLK
  5
6DB
330
9A8
100
AcDbEntity
  8
0
100
AcDbBlockEnd
  0
BLOCK
  5
9AB
330
9AA
100
AcDbEntity
  8
0
100
AcDbBlockBegin
  2
*U36
 70
     1
 10
0.0
 20
0.0
 30
0.0
  3
*U36
  1

  0
TEXT
  5
6DD
330
9AA
100
AcDbEntity
  8
OPEN_LINE_LEVEL
100
AcDbText
 10
442218.259100955
 20
111139.5781473397
 30
0.0
 40
0.05
  1
58 (3.887)
100
AcDbText
  0
ENDBLK
  5
6DF
330
9AA
100
AcDbEntity
  8
0
100
AcDbBlockEnd
  0
BLOCK
  5
9AD
330
9AC
100
AcDbEntity
  8
0
100
AcDbBlockBegin
  2
*U37
 70
     1
 10
0.0
 20
0.0
 30
0.0
  3
*U37
  1

  0
TEXT
  5
6E1
330
9AC
100
AcDbEntity
  8
OPEN_LINE_LEVEL
100
AcDbText
 10
442218.331100955
 20
111142.1011473396
 30
0.0
 40
0.05
  1
59 (3.901)
100
AcDbText
  0
ENDBLK
  5
6E3
330
9AC
100
AcDbEntity
  8
0
100
AcDbBlockEnd
  0
BLOCK
  5
9AF
330
9AE
100
AcDbEntity
  8
0
100
AcDbBlockBegin
  2
*U38
 70
     1
 10
0.0
 20
0.0
 30
0.0
  3
*U38
  1

  0
TEXT
  5
6E5
330
9AE
100
AcDbEntity
  8
OPEN_LINE_LEVEL
100
AcDbText
 10
442217.6303738062
 20
111143.7651473397
 30
0.0
 40
0.05
  1
60 (3.812)
100
AcDbText
  0
ENDBLK
  5
6E7
330
9AE
100
AcDbEntity
  8
0
100
AcDbBlockEnd
  0
BLOCK
  5
9B1
330
9B0
100
AcDbEntity
  8
0
100
AcDbBlockBegin
  2
*U39
 70
     1
 10
0.0
 20
0.0
 30
0.0
  3
*U39
  1

  0
TEXT
  5
6E9
330
9B0
100
AcDbEntity
  8
OPEN_LINE_LEVEL
100
AcDbText
 10
442218.2163738063
 20
111150.4131473397
 30
0.0
 40
0.05
  1
61 (4.337)
100
AcDbText
  0
ENDBLK
  5
6EB
330
9B0
100
AcDbEntity
  8
0
100
AcDbBlockEnd
  0
BLOCK
  5
9B3
330
9B2
100
AcDbEntity
  8
0
100
AcDbBlockBegin
  2
*U40
 70
     1
 10
0.0
 20
0.0
 30
0.0
  3
*U40
  1

  0
TEXT
  5
6ED
330
9B2
100
AcDbEntity
  8
OPEN_LINE_LEVEL
100
AcDbText
 10
442217.6183738062
 20
111152.0511473397
 30
0.0
 40
0.05
  1
62 (4.432)
100
AcDbText
  0
ENDBLK
  5
6EF
330
9B2
100
AcDbEntity
  8
0
100
AcDbBlockEnd
  0
BLOCK
  5
9B5
330
9B4
100
AcDbEntity
  8
0
100
AcDbBlockBegin
  2
*U41
 70
     1
 10
0.0
 20
0.0
 30
0.0
  3
*U41
  1

  0
TEXT
  5
6F1
330
9B4
100
AcDbEntity
  8
OPEN_LINE_LEVEL
100
AcDbText
 10
442216.3043738062
 20
111153.4051473397
 30
0.0
 40
0.05
  1
63 (4.776)
100
AcDbText
  0
ENDBLK
  5
6F3
330
9B4
100
AcDbEntity
  8
0
100
AcDbBlockEnd
  0
BLOCK
  5
9B7
330
9B6
100
AcDbEntity
  8
0
100
AcDbBlockBegin
  2
*U42
 70
     1
 10
0.0
 20
0.0
 30
0.0
  3
*U42
  1

  0
TEXT
  5
6F5
330
9B6
100
AcDbEntity
  8
OPEN_LINE_LEVEL
100
AcDbText
 10
442213.1383738062
 20
111153.5481473397
 30
0.0
 40
0.05
  1
64 (4.813)
100
AcDbText
  0
ENDBLK
  5
6F7
330
9B6
100
AcDbEntity
  8
0
100
AcDbBlockEnd
  0
BLOCK
  5
9B9
330
9B8
100
AcDbEntity
  8
0
100
AcDbBlockBegin
  2
*U43
 70
     1
 10
0.0
 20
0.0
 30
0.0
  3
*U43
  1

  0
TEXT
  5
6F9
330
9B8
100
AcDbEntity
  8
OPEN_LINE_LEVEL
100
AcDbText
 10
442210.1773738062
 20
111153.9071473397
 30
0.0
 40
0.05
  1
65 (4.751)
100
AcDbText
  0
ENDBLK
  5
6FB
330
9B8
100
AcDbEntity
  8
0
100
AcDbBlockEnd
  0
BLOCK
  5
9BB
330
9BA
100
AcDbEntity
  8
0
100
AcDbBlockBegin
  2
*U44
 70
     1
 10
0.0
 20
0.0
 30
0.0
  3
*U44
  1

  0
TEXT
  5
6FD
330
9BA
100
AcDbEntity
  8
OPEN_LINE_LEVEL
100
AcDbText
 10
442207.9273738062
 20
111154.3631473397
 30
0.0
 40
0.05
  1
66 (4.779)
100
AcDbText
  0
ENDBLK
  5
6FF
330
9BA
100
AcDbEntity
  8
0
100
AcDbBlockEnd
  0
BLOCK
  5
9BD
330
9BC
100
AcDbEntity
  8
0
100
AcDbBlockBegin
  2
*U45
 70
     1
 10
0.0
 20
0.0
 30
0.0
  3
*U45
  1

  0
TEXT
  5
701
330
9BC
100
AcDbEntity
  8
OPEN_LINE_LEVEL
100
AcDbText
 10
442205.0683738063
 20
111155.3771473397
 30
0.0
 40
0.05
  1
67 (4.772)
100
AcDbText
  0
ENDBLK
  5
703
330
9BC
100
AcDbEntity
  8
0
100
AcDbBlockEnd
  0
BLOCK
  5
9BF
330
9BE
100
AcDbEntity
  8
0
100
AcDbBlockBegin
  2
*U46
 70
     1
 10
0.0
 20
0.0
 30
0.0
  3
*U46
  1

  0
TEXT
  5
705
330
9BE
100
AcDbEntity
  8
OPEN_LINE_LEVEL
100
AcDbText
 10
442202.9323738063
 20
111155.3621473397
 30
0.0
 40
0.05
  1
68 (4.764)
100
AcDbText
  0
ENDBLK
  5
707
330
9BE
100
AcDbEntity
  8
0
100
AcDbBlockEnd
  0
BLOCK
  5
9C1
330
9C0
100
AcDbEntity
  8
0
100
AcDbBlockBegin
  2
*U47
 70
     1
 10
0.0
 20
0.0
 30
0.0
  3
*U47
  1

  0
TEXT
  5
709
330
9C0
100
AcDbEntity
  8
OPEN_LINE_LEVEL
100
AcDbText
 10
442200.4743738063
 20
111153.9001473397
 30
0.0
 40
0.05
  1
69 (4.765)
100
AcDbText
  0
ENDBLK
  5
70B
330
9C0
100
AcDbEntity
  8
0
100
AcDbBlockEnd
  0
BLOCK
  5
9C3
330
9C2
100
AcDbEntity
  8
0
100
AcDbBlockBegin
  2
*U48
 70
     1
 10
0.0
 20
0.0
 30
0.0
  3
*U48
  1

  0
TEXT
  5
70D
330
9C2
100
AcDbEntity
  8
OPEN_LINE_LEVEL
100
AcDbText
 10
442197.5766916779
 20
111152.6961473397
 30
0.0
 40
0.05
  1
70 (4.759)
100
AcDbText
  0
ENDBLK
  5
70F
330
9C2
100
AcDbEntity
  8
0
100
AcDbBlockEnd
  0
BLOCK
  5
9C5
330
9C4
100
AcDbEntity
  8
0
100
AcDbBlockBegin
  2
*U49
 70
     1
 10
0.0
 20
0.0
 30
0.0
  3
*U49
  1

  0
TEXT
  5
711
330
9C4
100
AcDbEntity
  8
SECTION_LINE_LEVEL
100
AcDbText
 10
442210.4731132333
 20
111158.7617953615
 30
0.0
 40
0.05
  1
4.501
100
AcDbText
  0
ENDBLK
  5
713
330
9C4
100
AcDbEntity
  8
0
100
AcDbBlockEnd
  0
BLOCK
  5
9C7
330
9C6
100
AcDbEntity
  8
0
100
AcDbBlockBegin
  2
*U50
 70
     1
 10
0.0
 20
0.0
 30
0.0
  3
*U50
  1

  0
TEXT
  5
715
330
9C6
100
AcDbEntity
  8
SECTION_LINE_LEVEL
100
AcDbText
 10
442211.7251132333
 20
111158.4937953615
 30
0.0
 40
0.05
  1
4.458
100
AcDbText
  0
ENDBLK
  5
717
330
9C6
100
AcDbEntity
  8
0
100
AcDbBlockEnd
  0
BLOCK
  5
9C9
330
9C8
100
AcDbEntity
  8
0
100
AcDbBlockBegin
  2
*U51
 70
     1
 10
0.0
 20
0.0
 30
0.0
  3
*U51
  1

  0
TEXT
  5
719
330
9C8
100
AcDbEntity
  8
SECTION_LINE_LEVEL
100
AcDbText
 10
442202.9190668485
 20
111124.8027953615
 30
0.0
 40
0.05
  1
3.569
100
AcDbText
  0
ENDBLK
  5
71B
330
9C8
100
AcDbEntity
  8
0
100
AcDbBlockEnd
  0
BLOCK
  5
9CB
330
9CA
100
AcDbEntity
  8
0
100
AcDbBlockBegin
  2
*U52
 70
     1
 10
0.0
 20
0.0
 30
0.0
  3
*U52
  1

  0
TEXT
  5
71D
330
9CA
100
AcDbEntity
  8
SECTION_LINE_LEVEL
100
AcDbText
 10
442201.9040668486
 20
111124.8947953615
 30
0.0
 40
0.05
  1
3.572
100
AcDbText
  0
ENDBLK
  5
71F
330
9CA
100
AcDbEntity
  8
0
100
AcDbBlockEnd
  0
BLOCK
  5
9CD
330
9CC
100
AcDbEntity
  8
0
100
AcDbBlockBegin
  2
*U53
 70
     1
 10
0.0
 20
0.0
 30
0.0
  3
*U53
  1

  0
TEXT
  5
721
330
9CC
100
AcDbEntity
  8
SECTION_LINE_LEVEL
100
AcDbText
 10
442218.5171132333
 20
111149.7007953615
 30
0.0
 40
0.05
  1
4.116
100
AcDbText
  0
ENDBLK
  5
723
330
9CC
100
AcDbEntity
  8
0
100
AcDbBlockEnd
  0
BLOCK
  5
9CF
330
9CE
100
AcDbEntity
  8
0
100
AcDbBlockBegin
  2
*U54
 70
     1
 10
0.0
 20
0.0
 30
0.0
  3
*U54
  1

  0
TEXT
  5
725
330
9CE
100
AcDbEntity
  8
SECTION_LINE_LEVEL
100
AcDbText
 10
442218.3060668486
 20
111148.4587953615
 30
0.0
 40
0.05
  1
3.984
100
AcDbText
  0
ENDBLK
  5
727
330
9CE
100
AcDbEntity
  8
0
100
AcDbBlockEnd
  0
BLOCK
  5
9D1
330
9D0
100
AcDbEntity
  8
0
100
AcDbBlockBegin
  2
*U55
 70
     1
 10
0.0
 20
0.0
 30
0.0
  3
*U55
  1

  0
TEXT
  5
729
330
9D0
100
AcDbEntity
  8
SECTION_LINE_LEVEL
100
AcDbText
 10
442214.5650668485
 20
111127.4167953615
 30
0.0
 40
0.05
  1
3.85
100
AcDbText
  0
ENDBLK
  5
72B
330
9D0
100
AcDbEntity
  8
0
100
AcDbBlockEnd
  0
BLOCK
  5
9D3
330
9D2
100
AcDbEntity
  8
0
100
AcDbBlockBegin
  2
*U56
 70
     1
 10
0.0
 20
0.0
 30
0.0
  3
*U56
  1

  0
TEXT
  5
72D
330
9D2
100
AcDbEntity
  8
SECTION_LINE_LEVEL
100
AcDbText
 10
442214.7870668485
 20
111128.9417953615
 30
0.0
 40
0.05
  1
3.701
100
AcDbText
  0
ENDBLK
  5
72F
330
9D2
100
AcDbEntity
  8
0
100
AcDbBlockEnd
  0
BLOCK
  5
9D5
330
9D4
100
AcDbEntity
  8
0
100
AcDbBlockBegin
  2
*U57
 70
     1
 10
0.0
 20
0.0
 30
0.0
  3
*U57
  1

  0
TEXT
  5
731
330
9D4
100
AcDbEntity
  8
TREE_THROW_LEVEL
100
AcDbText
 10
442201.0041691676
 20
111125.2501473397
 30
0.0
 40
0.05
  1
88 (2.549)
100
AcDbText
  0
ENDBLK
  5
733
330
9D4
100
AcDbEntity
  8
0
100
AcDbBlockEnd
  0
BLOCK
  5
9D7
330
9D6
100
AcDbEntity
  8
0
100
AcDbBlockBegin
  2
*U58
 70
     1
 10
0.0
 20
0.0
 30
0.0
  3
*U58
  1

  0
TEXT
  5
735
330
9D6
100
AcDbEntity
  8
TREE_THROW_LEVEL
100
AcDbText
 10
442201.2081691678
 20
111125.6431473397
 30
0.0
 40
0.05
  1
89 (2.553)
100
AcDbText
  0
ENDBLK
  5
737
330
9D6
100
AcDbEntity
  8
0
100
AcDbBlockEnd
  0
BLOCK
  5
9D9
330
9D8
100
AcDbEntity
  8
0
100
AcDbBlockBegin
  2
*U59
 70
     1
 10
0.0
 20
0.0
 30
0.0
  3
*U59
  1

  0
TEXT
  5
739
330
9D8
100
AcDbEntity
  8
TREE_THROW_LEVEL
100
AcDbText
 10
442201.5311009549
 20
111126.1011473396
 30
0.0
 40
0.05
  1
90 (2.571)
100
AcDbText
  0
ENDBLK
  5
73B
330
9D8
100
AcDbEntity
  8
0
100
AcDbBlockEnd
  0
BLOCK
  5
9DB
330
9DA
100
AcDbEntity
  8
0
100
AcDbBlockBegin
  2
*U60
 70
     1
 10
0.0
 20
0.0
 30
0.0
  3
*U60
  1

  0
TEXT
  5
73D
330
9DA
100
AcDbEntity
  8
TREE_THROW_LEVEL
100
AcDbText
 10
442201.866100955
 20
111126.2481473397
 30
0.0
 40
0.05
  1
91 (2.509)
100
AcDbText
  0
ENDBLK
  5
73F
330
9DA
100
AcDbEntity
  8
0
100
AcDbBlockEnd
  0
BLOCK
  5
9DD
330
9DC
100
AcDbEntity
  8
0
100
AcDbBlockBegin
  2
*U61
 70
     1
 10
0.0
 20
0.0
 30
0.0
  3
*U61
  1

  0
TEXT
  5
741
330
9DC
100
AcDbEntity
  8
TREE_THROW_LEVEL
100
AcDbText
 10
442202.2051009549
 20
111126.1771473396
 30
0.0
 40
0.05
  1
92 (2.483)
100
AcDbText
  0
ENDBLK
  5
743
330
9DC
100
AcDbEntity
  8
0
100
AcDbBlockEnd
  0
BLOCK
  5
9DF
330
9DE
100
AcDbEntity
  8
0
100
AcDbBlockBegin
  2
*U62
 70
     1
 10
0.0
 20
0.0
 30
0.0
  3
*U62
  1

  0
TEXT
  5
745
330
9DE
100
AcDbEntity
  8
TREE_THROW_LEVEL
100
AcDbText
 10
442202.6491009549
 20
111126.0681473397
 30
0.0
 40
0.05
  1
93 (2.442)
100
AcDbText
  0
ENDBLK
  5
747
330
9DE
100
AcDbEntity
  8
0
100
AcDbBlockEnd
  0
BLOCK
  5
9E1
330
9E0
100
AcDbEntity
  8
0
100
AcDbBlockBegin
  2
*U63
 70
     1
 10
0.0
 20
0.0
 30
0.0
  3
*U63
  1

  0
TEXT
  5
749
330
9E0
100
AcDbEntity
  8
TREE_THROW_LEVEL
100
AcDbText
 10
442203.0801009549
 20
111126.0481473396
 30
0.0
 40
0.05
  1
94 (2.414)
100
AcDbText
  0
ENDBLK
  5
74B
330
9E0
100
AcDbEntity
  8
0
100
AcDbBlockEnd
  0
BLOCK
  5
9E3
330
9E2
100
AcDbEntity
  8
0
100
AcDbBlockBegin
  2
*U64
 70
     1
 10
0.0
 20
0.0
 30
0.0
  3
*U64
  1

  0
TEXT
  5
74D
330
9E2
100
AcDbEntity
  8
TREE_THROW_LEVEL
100
AcDbText
 10
442203.6751009549
 20
111126.1881473396
 30
0.0
 40
0.05
  1
95 (2.387)
100
AcDbText
  0
ENDBLK
  5
74F
330
9E2
100
AcDbEntity
  8
0
100
AcDbBlockEnd
  0
BLOCK
  5
9E5
330
9E4
100
AcDbEntity
  8
0
100
AcDbBlockBegin
  2
*U65
 70
     1
 10
0.0
 20
0.0
 30
0.0
  3
*U65
  1

  0
TEXT
  5
751
330
9E4
100
AcDbEntity
  8
TREE_THROW_LEVEL
100
AcDbText
 10
442204.0421009549
 20
111126.0051473397
 30
0.0
 40
0.05
  1
96 (2.395)
100
AcDbText
  0
ENDBLK
  5
753
330
9E4
100
AcDbEntity
  8
0
100
AcDbBlockEnd
  0
BLOCK
  5
9E7
330
9E6
100
AcDbEntity
  8
0
100
AcDbBlockBegin
  2
*U66
 70
     1
 10
0.0
 20
0.0
 30
0.0
  3
*U66
  1

  0
TEXT
  5
755
330
9E6
100
AcDbEntity
  8
TREE_THROW_LEVEL
100
AcDbText
 10
442203.892100955
 20
111125.7141473397
 30
0.0
 40
0.05
  1
97 (2.432)
100
AcDbText
  0
ENDBLK
  5
757
330
9E6
100
AcDbEntity
  8
0
100
AcDbBlockEnd
  0
BLOCK
  5
9E9
330
9E8
100
AcDbEntity
  8
0
100
AcDbBlockBegin
  2
*U67
 70
     1
 10
0.0
 20
0.0
 30
0.0
  3
*U67
  1

  0
TEXT
  5
759
330
9E8
100
AcDbEntity
  8
TREE_THROW_LEVEL
100
AcDbText
 10
442203.469100955
 20
111125.5151473397
 30
0.0
 40
0.05
  1
98 (2.434)
100
AcDbText
  0
ENDBLK
  5
75B
330
9E8
100
AcDbEntity
  8
0
100
AcDbBlockEnd
  0
BLOCK
  5
9EB
330
9EA
100
AcDbEntity
  8
0
100
AcDbBlockBegin
  2
*U68
 70
     1
 10
0.0
 20
0.0
 30
0.0
  3
*U68
  1

  0
TEXT
  5
75D
330
9EA
100
AcDbEntity
  8
TREE_THROW_LEVEL
100
AcDbText
 10
442203.0851009549
 20
111125.3241473397
 30
0.0
 40
0.05
  1
99 (2.452)
100
AcDbText
  0
ENDBLK
  5
75F
330
9EA
100
AcDbEntity
  8
0
100
AcDbBlockEnd
  0
BLOCK
  5
9ED
330
9EC
100
AcDbEntity
  8
0
100
AcDbBlockBegin
  2
*U69
 70
     1
 10
0.0
 20
0.0
 30
0.0
  3
*U69
  1

  0
TEXT
  5
761
330
9EC
100
AcDbEntity
  8
TREE_THROW_LEVEL
100
AcDbText
 10
442202.7713942701
 20
111124.9931473397
 30
0.0
 40
0.05
  1
100 (2.46)
100
AcDbText
  0
ENDBLK
  5
763
330
9EC
100
AcDbEntity
  8
0
100
AcDbBlockEnd
  0
BLOCK
  5
9EF
330
9EE
100
AcDbEntity
  8
0
100
AcDbBlockBegin
  2
*U70
 70
     1
 10
0.0
 20
0.0
 30
0.0
  3
*U70
  1

  0
TEXT
  5
765
330
9EE
100
AcDbEntity
  8
TRENCH_BASE_LEVEL
100
AcDbText
 10
442211.4486916779
 20
111155.9511473397
 30
0.0
 40
0.05
  1
7 (3.256)
100
AcDbText
  0
ENDBLK
  5
767
330
9EE
100
AcDbEntity
  8
0
100
AcDbBlockEnd
  0
BLOCK
  5
9F1
330
9F0
100
AcDbEntity
  8
0
100
AcDbBlockBegin
  2
*U71
 70
     1
 10
0.0
 20
0.0
 30
0.0
  3
*U71
  1

  0
TEXT
  5
769
330
9F0
100
AcDbEntity
  8
TRENCH_BASE_LEVEL
100
AcDbText
 10
442208.9671691677
 20
111156.3451473397
 30
0.0
 40
0.05
  1
8 (3.335)
100
AcDbText
  0
ENDBLK
  5
76B
330
9F0
100
AcDbEntity
  8
0
100
AcDbBlockEnd
  0
BLOCK
  5
9F3
330
9F2
100
AcDbEntity
  8
0
100
AcDbBlockBegin
  2
*U72
 70
     1
 10
0.0
 20
0.0
 30
0.0
  3
*U72
  1

  0
TEXT
  5
76D
330
9F2
100
AcDbEntity
  8
TRENCH_BASE_LEVEL
100
AcDbText
 10
442206.523100955
 20
111156.8391473397
 30
0.0
 40
0.05
  1
9 (3.431)
100
AcDbText
  0
ENDBLK
  5
76F
330
9F2
100
AcDbEntity
  8
0
100
AcDbBlockEnd
  0
BLOCK
  5
9F5
330
9F4
100
AcDbEntity
  8
0
100
AcDbBlockBegin
  2
*U73
 70
     1
 10
0.0
 20
0.0
 30
0.0
  3
*U73
  1

  0
TEXT
  5
771
330
9F4
100
AcDbEntity
  8
TRENCH_BASE_LEVEL
100
AcDbText
 10
442206.8893942701
 20
111158.8711473397
 30
0.0
 40
0.05
  1
10 (3.425)
100
AcDbText
  0
ENDBLK
  5
773
330
9F4
100
AcDbEntity
  8
0
100
AcDbBlockEnd
  0
BLOCK
  5
9F7
330
9F6
100
AcDbEntity
  8
0
100
AcDbBlockBegin
  2
*U74
 70
     1
 10
0.0
 20
0.0
 30
0.0
  3
*U74
  1

  0
TEXT
  5
775
330
9F6
100
AcDbEntity
  8
TRENCH_BASE_LEVEL
100
AcDbText
 10
442209.4723942701
 20
111158.3871473397
 30
0.0
 40
0.05
  1
11 (3.235)
100
AcDbText
  0
ENDBLK
  5
777
330
9F6
100
AcDbEntity
  8
0
100
AcDbBlockEnd
  0
BLOCK
  5
9F9
330
9F8
100
AcDbEntity
  8
0
100
AcDbBlockBegin
  2
*U75
 70
     1
 10
0.0
 20
0.0
 30
0.0
  3
*U75
  1

  0
TEXT
  5
779
330
9F8
100
AcDbEntity
  8
TRENCH_BASE_LEVEL
100
AcDbText
 10
442212.05939427
 20
111158.0991473397
 30
0.0
 40
0.05
  1
12 (3.31)
100
AcDbText
  0
ENDBLK
  5
77B
330
9F8
100
AcDbEntity
  8
0
100
AcDbBlockEnd
  0
BLOCK
  5
9FB
330
9FA
100
AcDbEntity
  8
0
100
AcDbBlockBegin
  2
*U76
 70
     1
 10
0.0
 20
0.0
 30
0.0
  3
*U76
  1

  0
TEXT
  5
77D
330
9FA
100
AcDbEntity
  8
TRENCH_BASE_LEVEL
100
AcDbText
 10
442219.9549536152
 20
111144.3471473396
 30
0.0
 40
0.05
  1
21 (2.616)
100
AcDbText
  0
ENDBLK
  5
77F
330
9FA
100
AcDbEntity
  8
0
100
AcDbBlockEnd
  0
BLOCK
  5
9FD
330
9FC
100
AcDbEntity
  8
0
100
AcDbBlockBegin
  2
*U77
 70
     1
 10
0.0
 20
0.0
 30
0.0
  3
*U77
  1

  0
TEXT
  5
781
330
9FC
100
AcDbEntity
  8
TRENCH_BASE_LEVEL
100
AcDbText
 10
442220.4449536152
 20
111146.7011473397
 30
0.0
 40
0.05
  1
22 (2.553)
100
AcDbText
  0
ENDBLK
  5
783
330
9FC
100
AcDbEntity
  8
0
100
AcDbBlockEnd
  0
BLOCK
  5
9FF
330
9FE
100
AcDbEntity
  8
0
100
AcDbBlockBegin
  2
*U78
 70
     1
 10
0.0
 20
0.0
 30
0.0
  3
*U78
  1

  0
TEXT
  5
785
330
9FE
100
AcDbEntity
  8
TRENCH_BASE_LEVEL
100
AcDbText
 10
442220.7019536153
 20
111148.7251473397
 30
0.0
 40
0.05
  1
23 (2.794)
100
AcDbText
  0
ENDBLK
  5
787
330
9FE
100
AcDbEntity
  8
0
100
AcDbBlockEnd
  0
BLOCK
  5
A01
330
A00
100
AcDbEntity
  8
0
100
AcDbBlockBegin
  2
*U79
 70
     1
 10
0.0
 20
0.0
 30
0.0
  3
*U79
  1

  0
TEXT
  5
789
330
A00
100
AcDbEntity
  8
TRENCH_BASE_LEVEL
100
AcDbText
 10
442218.8169536153
 20
111149.1051473397
 30
0.0
 40
0.05
  1
24 (2.736)
100
AcDbText
  0
ENDBLK
  5
78B
330
A00
100
AcDbEntity
  8
0
100
AcDbBlockEnd
  0
BLOCK
  5
A03
330
A02
100
AcDbEntity
  8
0
100
AcDbBlockBegin
  2
*U80
 70
     1
 10
0.0
 20
0.0
 30
0.0
  3
*U80
  1

  0
TEXT
  5
78D
330
A02
100
AcDbEntity
  8
TRENCH_BASE_LEVEL
100
AcDbText
 10
442218.3479536152
 20
111146.5571473397
 30
0.0
 40
0.05
  1
25 (2.733)
100
AcDbText
  0
ENDBLK
  5
78F
330
A02
100
AcDbEntity
  8
0
100
AcDbBlockEnd
  0
BLOCK
  5
A05
330
A04
100
AcDbEntity
  8
0
100
AcDbBlockBegin
  2
*U81
 70
     1
 10
0.0
 20
0.0
 30
0.0
  3
*U81
  1

  0
TEXT
  5
791
330
A04
100
AcDbEntity
  8
TRENCH_BASE_LEVEL
100
AcDbText
 10
442218.0349536152
 20
111144.7181473397
 30
0.0
 40
0.05
  1
26 (2.73)
100
AcDbText
  0
ENDBLK
  5
793
330
A04
100
AcDbEntity
  8
0
100
AcDbBlockEnd
  0
BLOCK
  5
A07
330
A06
100
AcDbEntity
  8
0
100
AcDbBlockBegin
  2
*U82
 70
     1
 10
0.0
 20
0.0
 30
0.0
  3
*U82
  1

  0
TEXT
  5
795
330
A06
100
AcDbEntity
  8
TRENCH_BASE_LEVEL
100
AcDbText
 10
442216.5730668487
 20
111122.9571473397
 30
0.0
 40
0.05
  1
33 (2.729)
100
AcDbText
  0
ENDBLK
  5
797
330
A06
100
AcDbEntity
  8
0
100
AcDbBlockEnd
  0
BLOCK
  5
A09
330
A08
100
AcDbEntity
  8
0
100
AcDbBlockBegin
  2
*U83
 70
     1
 10
0.0
 20
0.0
 30
0.0
  3
*U83
  1

  0
TEXT
  5
799
330
A08
100
AcDbEntity
  8
TRENCH_BASE_LEVEL
100
AcDbText
 10
442217.0550668485
 20
111126.3171473396
 30
0.0
 40
0.05
  1
34 (2.531)
100
AcDbText
  0
ENDBLK
  5
79B
330
A08
100
AcDbEntity
  8
0
100
AcDbBlockEnd
  0
BLOCK
  5
A0B
330
A0A
100
AcDbEntity
  8
0
100
AcDbBlockBegin
  2
*U84
 70
     1
 10
0.0
 20
0.0
 30
0.0
  3
*U84
  1

  0
TEXT
  5
79D
330
A0A
100
AcDbEntity
  8
TRENCH_BASE_LEVEL
100
AcDbText
 10
442217.5550668486
 20
111129.6901473397
 30
0.0
 40
0.05
  1
35 (2.783)
100
AcDbText
  0
ENDBLK
  5
79F
330
A0A
100
AcDbEntity
  8
0
100
AcDbBlockEnd
  0
BLOCK
  5
A0D
330
A0C
100
AcDbEntity
  8
0
100
AcDbBlockBegin
  2
*U85
 70
     1
 10
0.0
 20
0.0
 30
0.0
  3
*U85
  1

  0
TEXT
  5
7A1
330
A0C
100
AcDbEntity
  8
TRENCH_BASE_LEVEL
100
AcDbText
 10
442215.5370668487
 20
111129.9611473397
 30
0.0
 40
0.05
  1
36 (2.612)
100
AcDbText
  0
ENDBLK
  5
7A3
330
A0C
100
AcDbEntity
  8
0
100
AcDbBlockEnd
  0
BLOCK
  5
A0F
330
A0E
100
AcDbEntity
  8
0
100
AcDbBlockBegin
  2
*U86
 70
     1
 10
0.0
 20
0.0
 30
0.0
  3
*U86
  1

  0
TEXT
  5
7A5
330
A0E
100
AcDbEntity
  8
TRENCH_BASE_LEVEL
100
AcDbText
 10
442214.8930668487
 20
111126.4751473397
 30
0.0
 40
0.05
  1
37 (2.495)
100
AcDbText
  0
ENDBLK
  5
7A7
330
A0E
100
AcDbEntity
  8
0
100
AcDbBlockEnd
  0
BLOCK
  5
A11
330
A10
100
AcDbEntity
  8
0
100
AcDbBlockBegin
  2
*U87
 70
     1
 10
0.0
 20
0.0
 30
0.0
  3
*U87
  1

  0
TEXT
  5
7A9
330
A10
100
AcDbEntity
  8
TRENCH_BASE_LEVEL
100
AcDbText
 10
442214.5940668484
 20
111123.3241473397
 30
0.0
 40
0.05
  1
38 (2.626)
100
AcDbText
  0
ENDBLK
  5
7AB
330
A10
100
AcDbEntity
  8
0
100
AcDbBlockEnd
  0
BLOCK
  5
A13
330
A12
100
AcDbEntity
  8
0
100
AcDbBlockBegin
  2
*U88
 70
     1
 10
0.0
 20
0.0
 30
0.0
  3
*U88
  1

  0
TEXT
  5
7AD
330
A12
100
AcDbEntity
  8
TRENCH_BASE_LEVEL
100
AcDbText
 10
442218.833691678
 20
111149.1511473397
 30
0.0
 40
0.05
  1
77 (2.736)
100
AcDbText
  0
ENDBLK
  5
7AF
330
A12
100
AcDbEntity
  8
0
100
AcDbBlockEnd
  0
BLOCK
  5
A15
330
A14
100
AcDbEntity
  8
0
100
AcDbBlockBegin
  2
*U89
 70
     1
 10
0.0
 20
0.0
 30
0.0
  3
*U89
  1

  0
TEXT
  5
7B1
330
A14
100
AcDbEntity
  8
TRENCH_BASE_LEVEL
100
AcDbText
 10
442220.7796916779
 20
111148.8911473397
 30
0.0
 40
0.05
  1
78 (2.724)
100
AcDbText
  0
ENDBLK
  5
7B3
330
A14
100
AcDbEntity
  8
0
100
AcDbBlockEnd
  0
BLOCK
  5
A17
330
A16
100
AcDbEntity
  8
0
100
AcDbBlockBegin
  2
*U90
 70
     1
 10
0.0
 20
0.0
 30
0.0
  3
*U90
  1

  0
TEXT
  5
7B5
330
A16
100
AcDbEntity
  8
TRENCH_BASE_LEVEL
100
AcDbText
 10
442219.992691678
 20
111144.3341473397
 30
0.0
 40
0.05
  1
79 (2.587)
100
AcDbText
  0
ENDBLK
  5
7B7
330
A16
100
AcDbEntity
  8
0
100
AcDbBlockEnd
  0
BLOCK
  5
A19
330
A18
100
AcDbEntity
  8
0
100
AcDbBlockBegin
  2
*U91
 70
     1
 10
0.0
 20
0.0
 30
0.0
  3
*U91
  1

  0
TEXT
  5
7B9
330
A18
100
AcDbEntity
  8
TRENCH_BASE_LEVEL
100
AcDbText
 10
442218.0211691677
 20
111144.7911473397
 30
0.0
 40
0.05
  1
80 (2.704)
100
AcDbText
  0
ENDBLK
  5
7BB
330
A18
100
AcDbEntity
  8
0
100
AcDbBlockEnd
  0
BLOCK
  5
A1B
330
A1A
100
AcDbEntity
  8
0
100
AcDbBlockBegin
  2
*U92
 70
     1
 10
0.0
 20
0.0
 30
0.0
  3
*U92
  1

  0
TEXT
  5
7BD
330
A1A
100
AcDbEntity
  8
TRENCH_TOP_LEVEL
100
AcDbText
 10
442213.54939427
 20
111154.8161473397
 30
0.0
 40
0.05
  1
1 (4.665)
100
AcDbText
  0
ENDBLK
  5
7BF
330
A1A
100
AcDbEntity
  8
0
100
AcDbBlockEnd
  0
BLOCK
  5
A1D
330
A1C
100
AcDbEntity
  8
0
100
AcDbBlockBegin
  2
*U93
 70
     1
 10
0.0
 20
0.0
 30
0.0
  3
*U93
  1

  0
TEXT
  5
7C1
330
A1C
100
AcDbEntity
  8
TRENCH_TOP_LEVEL
100
AcDbText
 10
442214.1279536154
 20
111157.9241473397
 30
0.0
 40
0.05
  1
2 (4.561)
100
AcDbText
  0
ENDBLK
  5
7C3
330
A1C
100
AcDbEntity
  8
0
100
AcDbBlockEnd
  0
BLOCK
  5
A1F
330
A1E
100
AcDbEntity
  8
0
100
AcDbBlockBegin
  2
*U94
 70
     1
 10
0.0
 20
0.0
 30
0.0
  3
*U94
  1

  0
TEXT
  5
7C5
330
A1E
100
AcDbEntity
  8
TRENCH_TOP_LEVEL
100
AcDbText
 10
442205.4010668485
 20
111159.3941473397
 30
0.0
 40
0.05
  1
3 (4.594)
100
AcDbText
  0
ENDBLK
  5
7C7
330
A1E
100
AcDbEntity
  8
0
100
AcDbBlockEnd
  0
BLOCK
  5
A21
330
A20
100
AcDbEntity
  8
0
100
AcDbBlockBegin
  2
*U95
 70
     1
 10
0.0
 20
0.0
 30
0.0
  3
*U95
  1

  0
TEXT
  5
7C9
330
A20
100
AcDbEntity
  8
TRENCH_TOP_LEVEL
100
AcDbText
 10
442204.8141132333
 20
111156.9111473397
 30
0.0
 40
0.05
  1
4 (4.746)
100
AcDbText
  0
ENDBLK
  5
7CB
330
A20
100
AcDbEntity
  8
0
100
AcDbBlockEnd
  0
BLOCK
  5
A23
330
A22
100
AcDbEntity
  8
0
100
AcDbBlockBegin
  2
*U96
 70
     1
 10
0.0
 20
0.0
 30
0.0
  3
*U96
  1

  0
TEXT
  5
7CD
330
A22
100
AcDbEntity
  8
TRENCH_TOP_LEVEL
100
AcDbText
 10
442208.387100955
 20
111156.0711473397
 30
0.0
 40
0.05
  1
5 (4.39)
100
AcDbText
  0
ENDBLK
  5
7CF
330
A22
100
AcDbEntity
  8
0
100
AcDbBlockEnd
  0
BLOCK
  5
A25
330
A24
100
AcDbEntity
  8
0
100
AcDbBlockBegin
  2
*U97
 70
     1
 10
0.0
 20
0.0
 30
0.0
  3
*U97
  1

  0
TEXT
  5
7D1
330
A24
100
AcDbEntity
  8
TRENCH_TOP_LEVEL
100
AcDbText
 10
442211.7143738062
 20
111155.3841473397
 30
0.0
 40
0.05
  1
6 (4.44)
100
AcDbText
  0
ENDBLK
  5
7D3
330
A24
100
AcDbEntity
  8
0
100
AcDbBlockEnd
  0
BLOCK
  5
A27
330
A26
100
AcDbEntity
  8
0
100
AcDbBlockBegin
  2
*U98
 70
     1
 10
0.0
 20
0.0
 30
0.0
  3
*U98
  1

  0
TEXT
  5
7D5
330
A26
100
AcDbEntity
  8
TRENCH_TOP_LEVEL
100
AcDbText
 10
442218.5433942701
 20
111149.8781473397
 30
0.0
 40
0.05
  1
15 (4.339)
100
AcDbText
  0
ENDBLK
  5
7D7
330
A26
100
AcDbEntity
  8
0
100
AcDbBlockEnd
  0
BLOCK
  5
A29
330
A28
100
AcDbEntity
  8
0
100
AcDbBlockBegin
  2
*U99
 70
     1
 10
0.0
 20
0.0
 30
0.0
  3
*U99
  1

  0
TEXT
  5
7D9
330
A28
100
AcDbEntity
  8
TRENCH_TOP_LEVEL
100
AcDbText
 10
442218.2873942701
 20
111146.9321473397
 30
0.0
 40
0.05
  1
16 (3.89)
100
AcDbText
  0
ENDBLK
  5
7DB
330
A28
100
AcDbEntity
  8
0
100
AcDbBlockEnd
  0
BLOCK
  5
A2B
330
A2A
100
AcDbEntity
  8
0
100
AcDbBlockBegin
  2
*U100
 70
     1
 10
0.0
 20
0.0
 30
0.0
  3
*U100
  1

  0
TEXT
  5
7DD
330
A2A
100
AcDbEntity
  8
TRENCH_TOP_LEVEL
100
AcDbText
 10
442217.54239427
 20
111143.4131473397
 30
0.0
 40
0.05
  1
17 (3.912)
100
AcDbText
  0
ENDBLK
  5
7DF
330
A2A
100
AcDbEntity
  8
0
100
AcDbBlockEnd
  0
BLOCK
  5
A2D
330
A2C
100
AcDbEntity
  8
0
100
AcDbBlockBegin
  2
*U101
 70
     1
 10
0.0
 20
0.0
 30
0.0
  3
*U101
  1

  0
TEXT
  5
7E1
330
A2C
100
AcDbEntity
  8
TRENCH_TOP_LEVEL
100
AcDbText
 10
442220.1513942702
 20
111142.9061473397
 30
0.0
 40
0.05
  1
18 (3.785)
100
AcDbText
  0
ENDBLK
  5
7E3
330
A2C
100
AcDbEntity
  8
0
100
AcDbBlockEnd
  0
BLOCK
  5
A2F
330
A2E
100
AcDbEntity
  8
0
100
AcDbBlockBegin
  2
*U102
 70
     1
 10
0.0
 20
0.0
 30
0.0
  3
*U102
  1

  0
TEXT
  5
7E5
330
A2E
100
AcDbEntity
  8
TRENCH_TOP_LEVEL
100
AcDbText
 10
442220.88539427
 20
111146.9301473397
 30
0.0
 40
0.05
  1
19 (3.897)
100
AcDbText
  0
ENDBLK
  5
7E7
330
A2E
100
AcDbEntity
  8
0
100
AcDbBlockEnd
  0
BLOCK
  5
A31
330
A30
100
AcDbEntity
  8
0
100
AcDbBlockBegin
  2
*U103
 70
     1
 10
0.0
 20
0.0
 30
0.0
  3
*U103
  1

  0
TEXT
  5
7E9
330
A30
100
AcDbEntity
  8
TRENCH_TOP_LEVEL
100
AcDbText
 10
442221.2829536152
 20
111149.3261473397
 30
0.0
 40
0.05
  1
20 (4.076)
100
AcDbText
  0
ENDBLK
  5
7EB
330
A30
100
AcDbEntity
  8
0
100
AcDbBlockEnd
  0
BLOCK
  5
A33
330
A32
100
AcDbEntity
  8
0
100
AcDbBlockBegin
  2
*U104
 70
     1
 10
0.0
 20
0.0
 30
0.0
  3
*U104
  1

  0
TEXT
  5
7ED
330
A32
100
AcDbEntity
  8
TRENCH_TOP_LEVEL
100
AcDbText
 10
442217.8919536152
 20
111130.0621473397
 30
0.0
 40
0.05
  1
27 (3.82)
100
AcDbText
  0
ENDBLK
  5
7EF
330
A32
100
AcDbEntity
  8
0
100
AcDbBlockEnd
  0
BLOCK
  5
A35
330
A34
100
AcDbEntity
  8
0
100
AcDbBlockBegin
  2
*U105
 70
     1
 10
0.0
 20
0.0
 30
0.0
  3
*U105
  1

  0
TEXT
  5
7F1
330
A34
100
AcDbEntity
  8
TRENCH_TOP_LEVEL
100
AcDbText
 10
442215.2379536153
 20
111130.4781473397
 30
0.0
 40
0.05
  1
28 (3.971)
100
AcDbText
  0
ENDBLK
  5
7F3
330
A34
100
AcDbEntity
  8
0
100
AcDbBlockEnd
  0
BLOCK
  5
A37
330
A36
100
AcDbEntity
  8
0
100
AcDbBlockBegin
  2
*U106
 70
     1
 10
0.0
 20
0.0
 30
0.0
  3
*U106
  1

  0
TEXT
  5
7F5
330
A36
100
AcDbEntity
  8
TRENCH_TOP_LEVEL
100
AcDbText
 10
442214.4819536153
 20
111125.7361473397
 30
0.0
 40
0.05
  1
29 (3.799)
100
AcDbText
  0
ENDBLK
  5
7F7
330
A36
100
AcDbEntity
  8
0
100
AcDbBlockEnd
  0
BLOCK
  5
A39
330
A38
100
AcDbEntity
  8
0
100
AcDbBlockBegin
  2
*U107
 70
     1
 10
0.0
 20
0.0
 30
0.0
  3
*U107
  1

  0
TEXT
  5
7F9
330
A38
100
AcDbEntity
  8
TRENCH_TOP_LEVEL
100
AcDbText
 10
442214.1750668485
 20
111122.0831473397
 30
0.0
 40
0.05
  1
30 (3.541)
100
AcDbText
  0
ENDBLK
  5
7FB
330
A38
100
AcDbEntity
  8
0
100
AcDbBlockEnd
  0
BLOCK
  5
A3B
330
A3A
100
AcDbEntity
  8
0
100
AcDbBlockBegin
  2
*U108
 70
     1
 10
0.0
 20
0.0
 30
0.0
  3
*U108
  1

  0
TEXT
  5
7FD
330
A3A
100
AcDbEntity
  8
TRENCH_TOP_LEVEL
100
AcDbText
 10
442216.6440668487
 20
111121.6901473397
 30
0.0
 40
0.05
  1
31 (3.711)
100
AcDbText
  0
ENDBLK
  5
7FF
330
A3A
100
AcDbEntity
  8
0
100
AcDbBlockEnd
  0
BLOCK
  5
A3D
330
A3C
100
AcDbEntity
  8
0
100
AcDbBlockBegin
  2
*U109
 70
     1
 10
0.0
 20
0.0
 30
0.0
  3
*U109
  1

  0
TEXT
  5
801
330
A3C
100
AcDbEntity
  8
TRENCH_TOP_LEVEL
100
AcDbText
 10
442217.2580668487
 20
111125.5051473397
 30
0.0
 40
0.05
  1
32 (3.646)
100
AcDbText
  0
ENDBLK
  5
803
330
A3C
100
AcDbEntity
  8
0
100
AcDbBlockEnd
  0
BLOCK
  5
A3F
330
A3E
100
AcDbEntity
  8
0
100
AcDbBlockBegin
  2
*U110
 70
     1
 10
0.0
 20
0.0
 30
0.0
  3
*U110
  1

  0
TEXT
  5
805
330
A3E
100
AcDbEntity
  8
TRENCH_TOP_LEVEL
100
AcDbText
 10
442206.7640668486
 20
111124.2821473397
 30
0.0
 40
0.05
  1
39 (3.788)
100
AcDbText
  0
ENDBLK
  5
807
330
A3E
100
AcDbEntity
  8
0
100
AcDbBlockEnd
  0
BLOCK
  5
A41
330
A40
100
AcDbEntity
  8
0
100
AcDbBlockBegin
  2
*U111
 70
     1
 10
0.0
 20
0.0
 30
0.0
  3
*U111
  1

  0
TEXT
  5
809
330
A40
100
AcDbEntity
  8
TRENCH_TOP_LEVEL
100
AcDbText
 10
442207.1501132333
 20
111126.6891473397
 30
0.0
 40
0.05
  1
40 (3.856)
100
AcDbText
  0
ENDBLK
  5
80B
330
A40
100
AcDbEntity
  8
0
100
AcDbBlockEnd
  0
BLOCK
  5
A43
330
A42
100
AcDbEntity
  8
0
100
AcDbBlockBegin
  2
*U112
 70
     1
 10
0.0
 20
0.0
 30
0.0
  3
*U112
  1

  0
TEXT
  5
80D
330
A42
100
AcDbEntity
  8
TRENCH_TOP_LEVEL
100
AcDbText
 10
442202.3091132333
 20
111127.3471473396
 30
0.0
 40
0.05
  1
41 (3.66)
100
AcDbText
  0
ENDBLK
  5
80F
330
A42
100
AcDbEntity
  8
0
100
AcDbBlockEnd
  0
BLOCK
  5
A45
330
A44
100
AcDbEntity
  8
0
100
AcDbBlockBegin
  2
*U113
 70
     1
 10
0.0
 20
0.0
 30
0.0
  3
*U113
  1

  0
TEXT
  5
811
330
A44
100
AcDbEntity
  8
TRENCH_TOP_LEVEL
100
AcDbText
 10
442198.3771132333
 20
111127.8841473397
 30
0.0
 40
0.05
  1
42 (3.641)
100
AcDbText
  0
ENDBLK
  5
813
330
A44
100
AcDbEntity
  8
0
100
AcDbBlockEnd
  0
BLOCK
  5
A47
330
A46
100
AcDbEntity
  8
0
100
AcDbBlockBegin
  2
*U114
 70
     1
 10
0.0
 20
0.0
 30
0.0
  3
*U114
  1

  0
TEXT
  5
815
330
A46
100
AcDbEntity
  8
TRENCH_TOP_LEVEL
100
AcDbText
 10
442198.0201132333
 20
111125.4671473397
 30
0.0
 40
0.05
  1
43 (3.555)
100
AcDbText
  0
ENDBLK
  5
817
330
A46
100
AcDbEntity
  8
0
100
AcDbBlockEnd
  0
BLOCK
  5
A49
330
A48
100
AcDbEntity
  8
0
100
AcDbBlockBegin
  2
*U115
 70
     1
 10
0.0
 20
0.0
 30
0.0
  3
*U115
  1

  0
TEXT
  5
819
330
A48
100
AcDbEntity
  8
TRENCH_TOP_LEVEL
100
AcDbText
 10
442201.5061132333
 20
111125.0341473397
 30
0.0
 40
0.05
  1
44 (3.649)
100
AcDbText
  0
ENDBLK
  5
81B
330
A48
100
AcDbEntity
  8
0
100
AcDbBlockEnd
  0
BLOCK
  5
A4B
330
A4A
100
AcDbEntity
  8
0
100
AcDbBlockBegin
  2
*U116
 70
     1
 10
0.0
 20
0.0
 30
0.0
  3
*U116
  1

  0
TEXT
  5
81D
330
A4A
100
AcDbEntity
  8
SECTION_LINE_ID
100
AcDbText
 10
442210.46639427
 20
111158.6617953615
 30
0.0
 40
0.05
  1
13
100
AcDbText
  0
ENDBLK
  5
81F
330
A4A
100
AcDbEntity
  8
0
100
AcDbBlockEnd
  0
BLOCK
  5
A4D
330
A4C
100
AcDbEntity
  8
0
100
AcDbBlockBegin
  2
*U117
 70
     1
 10
0.0
 20
0.0
 30
0.0
  3
*U117
  1

  0
TEXT
  5
821
330
A4C
100
AcDbEntity
  8
SECTION_LINE_ID
100
AcDbText
 10
442211.7183942702
 20
111158.3937953615
 30
0.0
 40
0.05
  1
14
100
AcDbText
  0
ENDBLK
  5
823
330
A4C
100
AcDbEntity
  8
0
100
AcDbBlockEnd
  0
BLOCK
  5
A4F
330
A4E
100
AcDbEntity
  8
0
100
AcDbBlockBegin
  2
*U118
 70
     1
 10
0.0
 20
0.0
 30
0.0
  3
*U118
  1

  0
TEXT
  5
825
330
A4E
100
AcDbEntity
  8
SECTION_LINE_ID
100
AcDbText
 10
442202.9211132332
 20
111124.703
 30
0.0
 40
0.05
  1
45
100
AcDbText
  0
ENDBLK
  5
827
330
A4E
100
AcDbEntity
  8
0
100
AcDbBlockEnd
  0
BLOCK
  5
A51
330
A50
100
AcDbEntity
  8
0
100
AcDbBlockBegin
  2
*U119
 70
     1
 10
0.0
 20
0.0
 30
0.0
  3
*U119
  1

  0
TEXT
  5
829
330
A50
100
AcDbEntity
  8
SECTION_LINE_ID
100
AcDbText
 10
442201.9061132333
 20
111124.7947953615
 30
0.0
 40
0.05
  1
46
100
AcDbText
  0
ENDBLK
  5
82B
330
A50
100
AcDbEntity
  8
0
100
AcDbBlockEnd
  0
BLOCK
  5
A53
330
A52
100
AcDbEntity
  8
0
100
AcDbBlockBegin
  2
*U120
 70
     1
 10
0.0
 20
0.0
 30
0.0
  3
*U120
  1

  0
TEXT
  5
82D
330
A52
100
AcDbEntity
  8
SECTION_LINE_ID
100
AcDbText
 10
442218.5151691677
 20
111149.6007953615
 30
0.0
 40
0.05
  1
81
100
AcDbText
  0
ENDBLK
  5
82F
330
A52
100
AcDbEntity
  8
0
100
AcDbBlockEnd
  0
BLOCK
  5
A55
330
A54
100
AcDbEntity
  8
0
100
AcDbBlockBegin
  2
*U121
 70
     1
 10
0.0
 20
0.0
 30
0.0
  3
*U121
  1

  0
TEXT
  5
831
330
A54
100
AcDbEntity
  8
SECTION_LINE_ID
100
AcDbText
 10
442218.3061691678
 20
111148.3587953615
 30
0.0
 40
0.05
  1
82
100
AcDbText
  0
ENDBLK
  5
833
330
A54
100
AcDbEntity
  8
0
100
AcDbBlockEnd
  0
BLOCK
  5
A57
330
A56
100
AcDbEntity
  8
0
100
AcDbBlockBegin
  2
*U122
 70
     1
 10
0.0
 20
0.0
 30
0.0
  3
*U122
  1

  0
TEXT
  5
835
330
A56
100
AcDbEntity
  8
SECTION_LINE_ID
100
AcDbText
 10
442214.5651691677
 20
111127.3167953615
 30
0.0
 40
0.05
  1
86
100
AcDbText
  0
ENDBLK
  5
837
330
A56
100
AcDbEntity
  8
0
100
AcDbBlockEnd
  0
BLOCK
  5
A59
330
A58
100
AcDbEntity
  8
0
100
AcDbBlockBegin
  2
*U123
 70
     1
 10
0.0
 20
0.0
 30
0.0
  3
*U123
  1

  0
TEXT
  5
839
330
A58
100
AcDbEntity
  8
SECTION_LINE_ID
100
AcDbText
 10
442214.7871691676
 20
111128.8417953615
 30
0.0
 40
0.05
  1
87
100
AcDbText
  0
ENDBLK
  5
83B
330
A58
100
AcDbEntity
  8
0
100
AcDbBlockEnd
  0
BLOCK
  5
A5B
330
A5A
100
AcDbEntity
  8
0
100
AcDbBlockBegin
  2
*X124
 70
     1
 10
0.0
 20
0.0
 30
0.0
  3
*X124
  1

  0
LINE
  5
84C
330
A5A
100
AcDbEntity
  8
0
 62
     0
100
AcDbLine
 10
442210.3049593589
 20
111127.0001052407
 30
0.0
 11
442214.0518766186
 21
111130.7470225002
 31
0.0
  0
LINE
  5
84D
330
A5A
100
AcDbEntity
  8
0
 62
     0
100
AcDbLine
 10
442208.519662545
 20
111126.9825753797
 30
0.0
 11
442215.552234624
 21
111134.0151474586
 31
0.0
  0
LINE
  5
84E
330
A5A
100
AcDbEntity
  8
0
 62
     0
100
AcDbLine
 10
442206.9687866433
 20
111127.199466431
 30
0.0
 11
442218.0995996983
 21
111138.3302794858
 31
0.0
  0
LINE
  5
84F
330
A5A
100
AcDbEntity
  8
0
 62
     0
100
AcDbLine
 10
442205.586091531
 20
111127.5845382718
 30
0.0
 11
442218.2805492311
 21
111140.2789959717
 31
0.0
  0
LINE
  5
850
330
A5A
100
AcDbEntity
  8
0
 62
     0
100
AcDbLine
 10
442204.337233219
 20
111128.1034469126
 30
0.0
 11
442218.3324787376
 21
111142.0986924312
 31
0.0
  0
LINE
  5
851
330
A5A
100
AcDbEntity
  8
0
 62
     0
100
AcDbLine
 10
442203.0883749068
 20
111128.6223555533
 30
0.0
 11
442217.8427589286
 21
111143.3767395752
 31
0.0
  0
LINE
  5
852
330
A5A
100
AcDbEntity
  8
0
 62
     0
100
AcDbLine
 10
442201.8100747249
 20
111129.1118223245
 30
0.0
 11
442217.9225013677
 21
111145.2242489672
 31
0.0
  0
LINE
  5
853
330
A5A
100
AcDbEntity
  8
0
 62
     0
100
AcDbLine
 10
442200.4905730009
 20
111129.5600875534
 30
0.0
 11
442217.9257356513
 21
111146.9952502038
 31
0.0
  0
LINE
  5
854
330
A5A
100
AcDbEntity
  8
0
 62
     0
100
AcDbLine
 10
442199.1710712769
 20
111130.0083527824
 30
0.0
 11
442218.0366571243
 21
111148.8739386298
 31
0.0
  0
LINE
  5
855
330
A5A
100
AcDbEntity
  8
0
 62
     0
100
AcDbLine
 10
442197.6898035866
 20
111130.2948520452
 30
0.0
 11
442218.1227079703
 21
111150.7277564288
 31
0.0
  0
LINE
  5
856
330
A5A
100
AcDbEntity
  8
0
 62
     0
100
AcDbLine
 10
442196.0866205313
 20
111130.4594359426
 30
0.0
 11
442217.6499330876
 21
111152.022748499
 31
0.0
  0
LINE
  5
857
330
A5A
100
AcDbEntity
  8
0
 62
     0
100
AcDbLine
 10
442194.4834374757
 20
111130.62401984
 30
0.0
 11
442216.8036494652
 21
111152.9442318295
 31
0.0
  0
LINE
  5
858
330
A5A
100
AcDbEntity
  8
0
 62
     0
100
AcDbLine
 10
442194.5432923911
 20
111132.4516417084
 30
0.0
 11
442215.585055665
 21
111153.4934049822
 31
0.0
  0
LINE
  5
859
330
A5A
100
AcDbEntity
  8
0
 62
     0
100
AcDbLine
 10
442194.7455349497
 20
111134.42165122
 30
0.0
 11
442213.9043675963
 21
111153.5804838666
 31
0.0
  0
LINE
  5
85A
330
A5A
100
AcDbEntity
  8
0
 62
     0
100
AcDbLine
 10
442194.9477775087
 20
111136.3916607319
 30
0.0
 11
442212.261722824
 21
111153.7056060473
 31
0.0
  0
LINE
  5
85B
330
A5A
100
AcDbEntity
  8
0
 62
     0
100
AcDbLine
 10
442195.222568129
 20
111138.4342183052
 30
0.0
 11
442210.6851089846
 21
111153.8967591606
 31
0.0
  0
LINE
  5
85C
330
A5A
100
AcDbEntity
  8
0
 62
     0
100
AcDbLine
 10
442195.5047277615
 20
111140.4841448907
 30
0.0
 11
442209.1810389723
 21
111154.1604561016
 31
0.0
  0
LINE
  5
85D
330
A5A
100
AcDbEntity
  8
0
 62
     0
100
AcDbLine
 10
442195.7868873939
 20
111142.5340714761
 30
0.0
 11
442207.7357208132
 21
111154.4829048952
 31
0.0
  0
LINE
  5
85E
330
A5A
100
AcDbEntity
  8
0
 62
     0
100
AcDbLine
 10
442196.0690470264
 20
111144.5839980615
 30
0.0
 11
442206.430777431
 21
111154.9457284661
 31
0.0
  0
LINE
  5
85F
330
A5A
100
AcDbEntity
  8
0
 62
     0
100
AcDbLine
 10
442196.3512066588
 20
111146.6339246469
 30
0.0
 11
442205.125834049
 21
111155.4085520371
 31
0.0
  0
LINE
  5
860
330
A5A
100
AcDbEntity
  8
0
 62
     0
100
AcDbLine
 10
442196.6333662914
 20
111148.6838512323
 30
0.0
 11
442203.3655385035
 21
111155.4160234445
 31
0.0
  0
LINE
  5
861
330
A5A
100
AcDbEntity
  8
0
 62
     0
100
AcDbLine
 10
442196.9155259236
 20
111150.7337778177
 30
0.0
 11
442199.9028762001
 21
111153.7211280943
 31
0.0
  0
ENDBLK
  5
863
330
A5A
100
AcDbEntity
  8
0
100
AcDbBlockEnd
  0
BLOCK
  5
A5D
330
A5C
100
AcDbEntity
  8
0
100
AcDbBlockBegin
  2
*X125
 70
     1
 10
0.0
 20
0.0
 30
0.0
  3
*X125
  1

  0
LINE
  5
890
330
A5C
100
AcDbEntity
  8
0
 62
     0
100
AcDbLine
 10
442210.3049593589
 20
111127.0001052407
 30
0.0
 11
442214.0518766186
 21
111130.7470225002
 31
0.0
  0
LINE
  5
891
330
A5C
100
AcDbEntity
  8
0
 62
     0
100
AcDbLine
 10
442208.5271339868
 20
111126.9900468215
 30
0.0
 11
442215.552234624
 21
111134.0151474586
 31
0.0
  0
LINE
  5
892
330
A5C
100
AcDbEntity
  8
0
 62
     0
100
AcDbLine
 10
442207.0096183772
 20
111127.2402981649
 30
0.0
 11
442218.0995996983
 21
111138.3302794858
 31
0.0
  0
LINE
  5
893
330
A5C
100
AcDbEntity
  8
0
 62
     0
100
AcDbLine
 10
442205.586091531
 20
111127.5845382718
 30
0.0
 11
442218.2805492311
 21
111140.2789959717
 31
0.0
  0
LINE
  5
894
330
A5C
100
AcDbEntity
  8
0
 62
     0
100
AcDbLine
 10
442204.337233219
 20
111128.1034469126
 30
0.0
 11
442218.3324787376
 21
111142.0986924312
 31
0.0
  0
LINE
  5
895
330
A5C
100
AcDbEntity
  8
0
 62
     0
100
AcDbLine
 10
442203.0883749068
 20
111128.6223555533
 30
0.0
 11
442217.8427589286
 21
111143.3767395752
 31
0.0
  0
LINE
  5
896
330
A5C
100
AcDbEntity
  8
0
 62
     0
100
AcDbLine
 10
442201.8100747249
 20
111129.1118223245
 30
0.0
 11
442217.9225013677
 21
111145.2242489672
 31
0.0
  0
LINE
  5
897
330
A5C
100
AcDbEntity
  8
0
 62
     0
100
AcDbLine
 10
442200.4905730009
 20
111129.5600875534
 30
0.0
 11
442217.9257356513
 21
111146.9952502038
 31
0.0
  0
LINE
  5
898
330
A5C
100
AcDbEntity
  8
0
 62
     0
100
AcDbLine
 10
442199.1710712769
 20
111130.0083527824
 30
0.0
 11
442218.0366571243
 21
111148.8739386298
 31
0.0
  0
LINE
  5
899
330
A5C
100
AcDbEntity
  8
0
 62
     0
100
AcDbLine
 10
442197.6898035866
 20
111130.2948520452
 30
0.0
 11
442218.1227079703
 21
111150.7277564288
 31
0.0
  0
LINE
  5
89A
330
A5C
100
AcDbEntity
  8
0
 62
     0
100
AcDbLine
 10
442196.0866205313
 20
111130.4594359426
 30
0.0
 11
442217.6499330876
 21
111152.022748499
 31
0.0
  0
LINE
  5
89B
330
A5C
100
AcDbEntity
  8
0
 62
     0
100
AcDbLine
 10
442194.4834374757
 20
111130.62401984
 30
0.0
 11
442216.8036494652
 21
111152.9442318295
 31
0.0
  0
LINE
  5
89C
330
A5C
100
AcDbEntity
  8
0
 62
     0
100
AcDbLine
 10
442194.5432923911
 20
111132.4516417084
 30
0.0
 11
442215.585055665
 21
111153.4934049822
 31
0.0
  0
LINE
  5
89D
330
A5C
100
AcDbEntity
  8
0
 62
     0
100
AcDbLine
 10
442194.7455349497
 20
111134.42165122
 30
0.0
 11
442213.9043675963
 21
111153.5804838666
 31
0.0
  0
LINE
  5
89E
330
A5C
100
AcDbEntity
  8
0
 62
     0
100
AcDbLine
 10
442194.9477775087
 20
111136.3916607319
 30
0.0
 11
442212.261722824
 21
111153.7056060473
 31
0.0
  0
LINE
  5
89F
330
A5C
100
AcDbEntity
  8
0
 62
     0
100
AcDbLine
 10
442195.222568129
 20
111138.4342183052
 30
0.0
 11
442210.6851089846
 21
111153.8967591606
 31
0.0
  0
LINE
  5
8A0
330
A5C
100
AcDbEntity
  8
0
 62
     0
100
AcDbLine
 10
442195.5047277615
 20
111140.4841448907
 30
0.0
 11
442209.1810389723
 21
111154.1604561016
 31
0.0
  0
LINE
  5
8A1
330
A5C
100
AcDbEntity
  8
0
 62
     0
100
AcDbLine
 10
442195.7868873939
 20
111142.5340714761
 30
0.0
 11
442207.7357208132
 21
111154.4829048952
 31
0.0
  0
LINE
  5
8A2
330
A5C
100
AcDbEntity
  8
0
 62
     0
100
AcDbLine
 10
442196.0690470264
 20
111144.5839980615
 30
0.0
 11
442206.430777431
 21
111154.9457284661
 31
0.0
  0
LINE
  5
8A3
330
A5C
100
AcDbEntity
  8
0
 62
     0
100
AcDbLine
 10
442196.3512066588
 20
111146.6339246469
 30
0.0
 11
442205.125834049
 21
111155.4085520371
 31
0.0
  0
LINE
  5
8A4
330
A5C
100
AcDbEntity
  8
0
 62
     0
100
AcDbLine
 10
442196.6333662914
 20
111148.6838512323
 30
0.0
 11
442203.3655385035
 21
111155.4160234445
 31
0.0
  0
LINE
  5
8A5
330
A5C
100
AcDbEntity
  8
0
 62
     0
100
AcDbLine
 10
442196.9155259236
 20
111150.7337778177
 30
0.0
 11
442199.9028762001
 21
111153.7211280943
 31
0.0
  0
ENDBLK
  5
8A7
330
A5C
100
AcDbEntity
  8
0
100
AcDbBlockEnd
  0
ENDSEC
  0
SECTION
  2
ENTITIES
  0
LWPOLYLINE
  5
1A4
330
93A
100
AcDbEntity
  8
TRENCH_TOP
100
AcDbPolyline
 90
        7
 70
     1
 43
0.0
 10
442211.7169999999
 20
111155.435
 10
442208.39
 20
111156.122
 10
442204.8150000001
 20
111156.962
 10
442205.4039999999
 20
111159.445
 10
442214.13
 20
111157.975
 10
442213.557
 20
111154.867
 10
442211.7169999999
 20
111155.435
  0
LWPOLYLINE
  5
1AD
330
93A
100
AcDbEntity
  8
TRENCH_TOP
100
AcDbPolyline
 90
        7
 70
     1
 43
0.0
 10
442221.285
 20
111149.377
 10
442220.893
 20
111146.981
 10
442220.159
 20
111142.957
 10
442217.55
 20
111143.464
 10
442218.2949999998
 20
111146.983
 10
442218.551
 20
111149.929
 10
442221.285
 20
111149.377
  0
LWPOLYLINE
  5
1B6
330
93A
100
AcDbEntity
  8
TRENCH_TOP
100
AcDbPolyline
 90
        7
 70
     1
 43
0.0
 10
442217.261
 20
111125.556
 10
442216.647
 20
111121.741
 10
442214.178
 20
111122.134
 10
442214.484
 20
111125.787
 10
442215.24
 20
111130.529
 10
442217.894
 20
111130.113
 10
442217.261
 20
111125.556
  0
LWPOLYLINE
  5
1BF
330
93A
100
AcDbEntity
  8
TRENCH_TOP
100
AcDbPolyline
 90
        7
 70
     1
 43
0.0
 10
442201.5069999999
 20
111125.085
 10
442198.021
 20
111125.518
 10
442198.378
 20
111127.935
 10
442202.31
 20
111127.398
 10
442207.1510000001
 20
111126.74
 10
442206.7669999999
 20
111124.333
 10
442201.5069999999
 20
111125.085
  0
INSERT
  5
1C9
330
93A
100
AcDbEntity
  8
TRENCH_BASE
100
AcDbBlockReference
  2
*U2
 10
0.0
 20
0.0
 30
0.0
  0
INSERT
  5
1CA
330
93A
100
AcDbEntity
  8
TRENCH_BASE
100
AcDbBlockReference
  2
*U3
 10
0.0
 20
0.0
 30
0.0
  0
INSERT
  5
1CB
330
93A
100
AcDbEntity
  8
TRENCH_BASE
100
AcDbBlockReference
  2
*U4
 10
0.0
 20
0.0
 30
0.0
  0
INSERT
  5
1CC
330
93A
100
AcDbEntity
  8
TRENCH_BASE
100
AcDbBlockReference
  2
*U5
 10
0.0
 20
0.0
 30
0.0
  0
LWPOLYLINE
  5
1CE
330
93A
100
AcDbEntity
  8
TRENCH_BASE
100
AcDbPolyline
 90
        7
 70
     1
 43
0.0
 10
442211.452
 20
111156.002
 10
442208.9699999999
 20
111156.396
 10
442206.526
 20
111156.89
 10
442206.897
 20
111158.922
 10
442209.4799999999
 20
111158.438
 10
442212.067
 20
111158.15
 10
442211.452
 20
111156.002
  0
LWPOLYLINE
  5
1E0
330
93A
100
AcDbEntity
  8
TRENCH_BASE
100
AcDbPolyline
 90
        7
 70
     1
 43
0.0
 10
442214.597
 20
111123.375
 10
442214.896
 20
111126.526
 10
442215.54
 20
111130.012
 10
442217.558
 20
111129.741
 10
442217.058
 20
111126.368
 10
442216.576
 20
111123.008
 10
442214.597
 20
111123.375
  0
LWPOLYLINE
  5
1E9
330
93A
100
AcDbEntity
  8
TRENCH_BASE
100
AcDbPolyline
 90
        5
 70
     1
 43
0.0
 10
442218.8369999999
 20
111149.202
 10
442220.783
 20
111148.942
 10
442219.996
 20
111144.385
 10
442218.024
 20
111144.842
 10
442218.8369999999
 20
111149.202
  0
INSERT
  5
1F1
330
93A
100
AcDbEntity
  8
TRENCH_BASE
100
AcDbBlockReference
  2
*U6
 10
0.0
 20
0.0
 30
0.0
  0
INSERT
  5
1F2
330
93A
100
AcDbEntity
  8
TRENCH_BASE
100
AcDbBlockReference
  2
*U7
 10
0.0
 20
0.0
 30
0.0
  0
INSERT
  5
1F3
330
93A
100
AcDbEntity
  8
TRENCH_BASE
100
AcDbBlockReference
  2
*U8
 10
0.0
 20
0.0
 30
0.0
  0
LWPOLYLINE
  5
1F6
330
93A
100
AcDbEntity
  8
TREE_THROW
100
AcDbPolyline
 90
       14
 70
     1
 43
0.0
 10
442201.007
 20
111125.301
 10
442201.2109999999
 20
111125.694
 10
442201.534
 20
111126.152
 10
442201.869
 20
111126.299
 10
442202.208
 20
111126.228
 10
442202.652
 20
111126.119
 10
442203.0829999999
 20
111126.099
 10
442203.678
 20
111126.239
 10
442204.0449999999
 20
111126.056
 10
442203.895
 20
111125.765
 10
442203.472
 20
111125.566
 10
442203.088
 20
111125.375
 10
442202.779
 20
111125.044
 10
442201.007
 20
111125.301
  0
LWPOLYLINE
  5
208
330
93A
100
AcDbEntity
  8
SECTION_LINE
100
AcDbPolyline
 90
        2
 70
     0
 43
0.0
 10
442210.474
 20
111158.812
 10
442211.726
 20
111158.544
  0
LWPOLYLINE
  5
20C
330
93A
100
AcDbEntity
  8
SECTION_LINE
100
AcDbPolyline
 90
        2
 70
     0
 43
0.0
 10
442202.922
 20
111124.853
 10
442201.907
 20
111124.945
  0
LWPOLYLINE
  5
210
330
93A
100
AcDbEntity
  8
SECTION_LINE
100
AcDbPolyline
 90
        2
 70
     0
 43
0.0
 10
442218.518
 20
111149.751
 10
442218.3089999999
 20
111148.509
  0
LWPOLYLINE
  5
214
330
93A
100
AcDbEntity
  8
SECTION_LINE
100
AcDbPolyline
 90
        2
 70
     0
 43
0.0
 10
442214.568
 20
111127.467
 10
442214.79
 20
111128.992
  0
INSERT
  5
219
330
93A
100
AcDbEntity
  8
TRENCH_BASE
100
AcDbBlockReference
  2
*U9
 10
0.0
 20
0.0
 30
0.0
  0
INSERT
  5
21A
330
93A
100
AcDbEntity
  8
TRENCH_BASE
100
AcDbBlockReference
  2
*U10
 10
0.0
 20
0.0
 30
0.0
  0
INSERT
  5
21B
330
93A
100
AcDbEntity
  8
TRENCH_BASE
100
AcDbBlockReference
  2
*U11
 10
0.0
 20
0.0
 30
0.0
  0
INSERT
  5
21C
330
93A
100
AcDbEntity
  8
TRENCH_BASE
100
AcDbBlockReference
  2
*U12
 10
0.0
 20
0.0
 30
0.0
  0
LWPOLYLINE
  5
21E
330
93A
100
AcDbEntity
  8
OPEN_LINE
100
AcDbPolyline
 90
       24
 70
     0
 43
0.0
 10
442194.357
 20
111130.637
 10
442198.604
 20
111130.201
 10
442202.36
 20
111128.925
 10
442206.023
 20
111127.403
 10
442208.867
 20
111126.934
 10
442210.977
 20
111127.031
 10
442212.7800000001
 20
111127.862
 10
442213.6629999999
 20
111129.753
 10
442214.6159999999
 20
111132.189
 10
442215.667
 20
111134.239
 10
442217.925
 20
111136.934
 10
442218.262
 20
111139.629
 10
442218.334
 20
111142.152
 10
442217.633
 20
111143.816
 10
442218.219
 20
111150.464
 10
442217.6209999999
 20
111152.102
 10
442216.3069999998
 20
111153.456
 10
442213.141
 20
111153.599
 10
442210.18
 20
111153.958
 10
442207.93
 20
111154.414
 10
442205.0709999999
 20
111155.428
 10
442202.935
 20
111155.413
 10
442200.477
 20
111153.951
 10
442197.5800000001
 20
111152.747
  0
POINT
  5
23A
330
93A
100
AcDbEntity
  8
LEVEL
100
AcDbPoint
 10
442211.4490000001
 20
111157.108
 30
0.0
  0
POINT
  5
23B
330
93A
100
AcDbEntity
  8
LEVEL
100
AcDbPoint
 10
442209.488
 20
111157.469
 30
0.0
  0
POINT
  5
23C
330
93A
100
AcDbEntity
  8
LEVEL
100
AcDbPoint
 10
442207.133
 20
111157.895
 30
0.0
  0
POINT
  5
23D
330
93A
100
AcDbEntity
  8
LEVEL
100
AcDbPoint
 10
442219.04
 20
111144.976
 30
0.0
  0
POINT
  5
23E
330
93A
100
AcDbEntity
  8
LEVEL
100
AcDbPoint
 10
442219.413
 20
111146.774
 30
0.0
  0
POINT
  5
23F
330
93A
100
AcDbEntity
  8
LEVEL
100
AcDbPoint
 10
442219.656
 20
111148.709
 30
0.0
  0
POINT
  5
240
330
93A
100
AcDbEntity
  8
LEVEL
100
AcDbPoint
 10
442216.39
 20
111129.277
 30
0.0
  0
POINT
  5
241
330
93A
100
AcDbEntity
  8
LEVEL
100
AcDbPoint
 10
442215.933
 20
111125.875
 30
0.0
  0
POINT
  5
242
330
93A
100
AcDbEntity
  8
LEVEL
100
AcDbPoint
 10
442215.606
 20
111123.678
 30
0.0
  0
POINT
  5
243
330
93A
100
AcDbEntity
  8
LEVEL
100
AcDbPoint
 10
442204.7749999999
 20
111125.815
 30
0.0
  0
POINT
  5
244
330
93A
100
AcDbEntity
  8
LEVEL
100
AcDbPoint
 10
442202.0779999999
 20
111126.327
 30
0.0
  0
POINT
  5
245
330
93A
100
AcDbEntity
  8
LEVEL
100
AcDbPoint
 10
442199.3119999998
 20
111126.427
 30
0.0
  0
INSERT
  5
248
330
93A
100
AcDbEntity
  8
TRENCH_BASE
100
AcDbBlockReference
  2
*U13
 10
0.0
 20
0.0
 30
0.0
  0
INSERT
  5
249
330
93A
100
AcDbEntity
  8
TRENCH_BASE
100
AcDbBlockReference
  2
*U14
 10
0.0
 20
0.0
 30
0.0
  0
INSERT
  5
24A
330
93A
100
AcDbEntity
  8
TRENCH_BASE
100
AcDbBlockReference
  2
*U15
 10
0.0
 20
0.0
 30
0.0
  0
INSERT
  5
24B
330
93A
100
AcDbEntity
  8
TRENCH_BASE
100
AcDbBlockReference
  2
*U16
 10
0.0
 20
0.0
 30
0.0
  0
INSERT
  5
24C
330
93A
100
AcDbEntity
  8
TRENCH_BASE
100
AcDbBlockReference
  2
*U17
 10
0.0
 20
0.0
 30
0.0
  0
INSERT
  5
24D
330
93A
100
AcDbEntity
  8
TRENCH_BASE
100
AcDbBlockReference
  2
*U18
 10
0.0
 20
0.0
 30
0.0
  0
INSERT
  5
24E
330
93A
100
AcDbEntity
  8
TRENCH_BASE
100
AcDbBlockReference
  2
*U19
 10
0.0
 20
0.0
 30
0.0
  0
INSERT
  5
24F
330
93A
100
AcDbEntity
  8
TRENCH_BASE
100
AcDbBlockReference
  2
*U20
 10
0.0
 20
0.0
 30
0.0
  0
INSERT
  5
250
330
93A
100
AcDbEntity
  8
TRENCH_BASE
100
AcDbBlockReference
  2
*U21
 10
0.0
 20
0.0
 30
0.0
  0
INSERT
  5
251
330
93A
100
AcDbEntity
  8
TRENCH_BASE
100
AcDbBlockReference
  2
*U22
 10
0.0
 20
0.0
 30
0.0
  0
INSERT
  5
252
330
93A
100
AcDbEntity
  8
TRENCH_BASE
100
AcDbBlockReference
  2
*U23
 10
0.0
 20
0.0
 30
0.0
  0
INSERT
  5
253
330
93A
100
AcDbEntity
  8
TRENCH_BASE
100
AcDbBlockReference
  2
*U24
 10
0.0
 20
0.0
 30
0.0
  0
INSERT
  5
255
330
93A
100
AcDbEntity
  8
TRENCH_BASE
100
AcDbBlockReference
  2
*U25
 10
0.0
 20
0.0
 30
0.0
  0
INSERT
  5
256
330
93A
100
AcDbEntity
  8
TRENCH_BASE
100
AcDbBlockReference
  2
*U26
 10
0.0
 20
0.0
 30
0.0
  0
INSERT
  5
257
330
93A
100
AcDbEntity
  8
TRENCH_BASE
100
AcDbBlockReference
  2
*U27
 10
0.0
 20
0.0
 30
0.0
  0
INSERT
  5
258
330
93A
100
AcDbEntity
  8
TRENCH_BASE
100
AcDbBlockReference
  2
*U28
 10
0.0
 20
0.0
 30
0.0
  0
INSERT
  5
259
330
93A
100
AcDbEntity
  8
TRENCH_BASE
100
AcDbBlockReference
  2
*U29
 10
0.0
 20
0.0
 30
0.0
  0
INSERT
  5
25A
330
93A
100
AcDbEntity
  8
TRENCH_BASE
100
AcDbBlockReference
  2
*U30
 10
0.0
 20
0.0
 30
0.0
  0
INSERT
  5
25B
330
93A
100
AcDbEntity
  8
TRENCH_BASE
100
AcDbBlockReference
  2
*U31
 10
0.0
 20
0.0
 30
0.0
  0
INSERT
  5
25C
330
93A
100
AcDbEntity
  8
TRENCH_BASE
100
AcDbBlockReference
  2
*U32
 10
0.0
 20
0.0
 30
0.0
  0
INSERT
  5
25D
330
93A
100
AcDbEntity
  8
TRENCH_BASE
100
AcDbBlockReference
  2
*U33
 10
0.0
 20
0.0
 30
0.0
  0
INSERT
  5
25E
330
93A
100
AcDbEntity
  8
TRENCH_BASE
100
AcDbBlockReference
  2
*U34
 10
0.0
 20
0.0
 30
0.0
  0
INSERT
  5
25F
330
93A
100
AcDbEntity
  8
TRENCH_BASE
100
AcDbBlockReference
  2
*U35
 10
0.0
 20
0.0
 30
0.0
  0
INSERT
  5
260
330
93A
100
AcDbEntity
  8
TRENCH_BASE
100
AcDbBlockReference
  2
*U36
 10
0.0
 20
0.0
 30
0.0
  0
INSERT
  5
261
330
93A
100
AcDbEntity
  8
TRENCH_BASE
100
AcDbBlockReference
  2
*U37
 10
0.0
 20
0.0
 30
0.0
  0
INSERT
  5
262
330
93A
100
AcDbEntity
  8
TRENCH_BASE
100
AcDbBlockReference
  2
*U38
 10
0.0
 20
0.0
 30
0.0
  0
INSERT
  5
263
330
93A
100
AcDbEntity
  8
TRENCH_BASE
100
AcDbBlockReference
  2
*U39
 10
0.0
 20
0.0
 30
0.0
  0
INSERT
  5
264
330
93A
100
AcDbEntity
  8
TRENCH_BASE
100
AcDbBlockReference
  2
*U40
 10
0.0
 20
0.0
 30
0.0
  0
INSERT
  5
265
330
93A
100
AcDbEntity
  8
TRENCH_BASE
100
AcDbBlockReference
  2
*U41
 10
0.0
 20
0.0
 30
0.0
  0
INSERT
  5
266
330
93A
100
AcDbEntity
  8
TRENCH_BASE
100
AcDbBlockReference
  2
*U42
 10
0.0
 20
0.0
 30
0.0
  0
INSERT
  5
267
330
93A
100
AcDbEntity
  8
TRENCH_BASE
100
AcDbBlockReference
  2
*U43
 10
0.0
 20
0.0
 30
0.0
  0
INSERT
  5
268
330
93A
100
AcDbEntity
  8
TRENCH_BASE
100
AcDbBlockReference
  2
*U44
 10
0.0
 20
0.0
 30
0.0
  0
INSERT
  5
269
330
93A
100
AcDbEntity
  8
TRENCH_BASE
100
AcDbBlockReference
  2
*U45
 10
0.0
 20
0.0
 30
0.0
  0
INSERT
  5
26A
330
93A
100
AcDbEntity
  8
TRENCH_BASE
100
AcDbBlockReference
  2
*U46
 10
0.0
 20
0.0
 30
0.0
  0
INSERT
  5
26B
330
93A
100
AcDbEntity
  8
TRENCH_BASE
100
AcDbBlockReference
  2
*U47
 10
0.0
 20
0.0
 30
0.0
  0
INSERT
  5
26C
330
93A
100
AcDbEntity
  8
TRENCH_BASE
100
AcDbBlockReference
  2
*U48
 10
0.0
 20
0.0
 30
0.0
  0
INSERT
  5
26E
330
93A
100
AcDbEntity
  8
TRENCH_BASE
100
AcDbBlockReference
  2
*U49
 10
0.0
 20
0.0
 30
0.0
  0
INSERT
  5
26F
330
93A
100
AcDbEntity
  8
TRENCH_BASE
100
AcDbBlockReference
  2
*U50
 10
0.0
 20
0.0
 30
0.0
  0
INSERT
  5
270
330
93A
100
AcDbEntity
  8
TRENCH_BASE
100
AcDbBlockReference
  2
*U51
 10
0.0
 20
0.0
 30
0.0
  0
INSERT
  5
271
330
93A
100
AcDbEntity
  8
TRENCH_BASE
100
AcDbBlockReference
  2
*U52
 10
0.0
 20
0.0
 30
0.0
  0
INSERT
  5
272
330
93A
100
AcDbEntity
  8
TRENCH_BASE
100
AcDbBlockReference
  2
*U53
 10
0.0
 20
0.0
 30
0.0
  0
INSERT
  5
273
330
93A
100
AcDbEntity
  8
TRENCH_BASE
100
AcDbBlockReference
  2
*U54
 10
0.0
 20
0.0
 30
0.0
  0
INSERT
  5
274
330
93A
100
AcDbEntity
  8
TRENCH_BASE
100
AcDbBlockReference
  2
*U55
 10
0.0
 20
0.0
 30
0.0
  0
INSERT
  5
275
330
93A
100
AcDbEntity
  8
TRENCH_BASE
100
AcDbBlockReference
  2
*U56
 10
0.0
 20
0.0
 30
0.0
  0
INSERT
  5
277
330
93A
100
AcDbEntity
  8
TRENCH_BASE
100
AcDbBlockReference
  2
*U57
 10
0.0
 20
0.0
 30
0.0
  0
INSERT
  5
278
330
93A
100
AcDbEntity
  8
TRENCH_BASE
100
AcDbBlockReference
  2
*U58
 10
0.0
 20
0.0
 30
0.0
  0
INSERT
  5
279
330
93A
100
AcDbEntity
  8
TRENCH_BASE
100
AcDbBlockReference
  2
*U59
 10
0.0
 20
0.0
 30
0.0
  0
INSERT
  5
27A
330
93A
100
AcDbEntity
  8
TRENCH_BASE
100
AcDbBlockReference
  2
*U60
 10
0.0
 20
0.0
 30
0.0
  0
INSERT
  5
27B
330
93A
100
AcDbEntity
  8
TRENCH_BASE
100
AcDbBlockReference
  2
*U61
 10
0.0
 20
0.0
 30
0.0
  0
INSERT
  5
27C
330
93A
100
AcDbEntity
  8
TRENCH_BASE
100
AcDbBlockReference
  2
*U62
 10
0.0
 20
0.0
 30
0.0
  0
INSERT
  5
27D
330
93A
100
AcDbEntity
  8
TRENCH_BASE
100
AcDbBlockReference
  2
*U63
 10
0.0
 20
0.0
 30
0.0
  0
INSERT
  5
27E
330
93A
100
AcDbEntity
  8
TRENCH_BASE
100
AcDbBlockReference
  2
*U64
 10
0.0
 20
0.0
 30
0.0
  0
INSERT
  5
27F
330
93A
100
AcDbEntity
  8
TRENCH_BASE
100
AcDbBlockReference
  2
*U65
 10
0.0
 20
0.0
 30
0.0
  0
INSERT
  5
280
330
93A
100
AcDbEntity
  8
TRENCH_BASE
100
AcDbBlockReference
  2
*U66
 10
0.0
 20
0.0
 30
0.0
  0
INSERT
  5
281
330
93A
100
AcDbEntity
  8
TRENCH_BASE
100
AcDbBlockReference
  2
*U67
 10
0.0
 20
0.0
 30
0.0
  0
INSERT
  5
282
330
93A
100
AcDbEntity
  8
TRENCH_BASE
100
AcDbBlockReference
  2
*U68
 10
0.0
 20
0.0
 30
0.0
  0
INSERT
  5
283
330
93A
100
AcDbEntity
  8
TRENCH_BASE
100
AcDbBlockReference
  2
*U69
 10
0.0
 20
0.0
 30
0.0
  0
INSERT
  5
285
330
93A
100
AcDbEntity
  8
TRENCH_BASE
100
AcDbBlockReference
  2
*U70
 10
0.0
 20
0.0
 30
0.0
  0
INSERT
  5
286
330
93A
100
AcDbEntity
  8
TRENCH_BASE
100
AcDbBlockReference
  2
*U71
 10
0.0
 20
0.0
 30
0.0
  0
INSERT
  5
287
330
93A
100
AcDbEntity
  8
TRENCH_BASE
100
AcDbBlockReference
  2
*U72
 10
0.0
 20
0.0
 30
0.0
  0
INSERT
  5
288
330
93A
100
AcDbEntity
  8
TRENCH_BASE
100
AcDbBlockReference
  2
*U73
 10
0.0
 20
0.0
 30
0.0
  0
INSERT
  5
289
330
93A
100
AcDbEntity
  8
TRENCH_BASE
100
AcDbBlockReference
  2
*U74
 10
0.0
 20
0.0
 30
0.0
  0
INSERT
  5
28A
330
93A
100
AcDbEntity
  8
TRENCH_BASE
100
AcDbBlockReference
  2
*U75
 10
0.0
 20
0.0
 30
0.0
  0
INSERT
  5
28B
330
93A
100
AcDbEntity
  8
TRENCH_BASE
100
AcDbBlockReference
  2
*U76
 10
0.0
 20
0.0
 30
0.0
  0
INSERT
  5
28C
330
93A
100
AcDbEntity
  8
TRENCH_BASE
100
AcDbBlockReference
  2
*U77
 10
0.0
 20
0.0
 30
0.0
  0
INSERT
  5
28D
330
93A
100
AcDbEntity
  8
TRENCH_BASE
100
AcDbBlockReference
  2
*U78
 10
0.0
 20
0.0
 30
0.0
  0
INSERT
  5
28E
330
93A
100
AcDbEntity
  8
TRENCH_BASE
100
AcDbBlockReference
  2
*U79
 10
0.0
 20
0.0
 30
0.0
  0
INSERT
  5
28F
330
93A
100
AcDbEntity
  8
TRENCH_BASE
100
AcDbBlockReference
  2
*U80
 10
0.0
 20
0.0
 30
0.0
  0
INSERT
  5
290
330
93A
100
AcDbEntity
  8
TRENCH_BASE
100
AcDbBlockReference
  2
*U81
 10
0.0
 20
0.0
 30
0.0
  0
INSERT
  5
291
330
93A
100
AcDbEntity
  8
TRENCH_BASE
100
AcDbBlockReference
  2
*U82
 10
0.0
 20
0.0
 30
0.0
  0
INSERT
  5
292
330
93A
100
AcDbEntity
  8
TRENCH_BASE
100
AcDbBlockReference
  2
*U83
 10
0.0
 20
0.0
 30
0.0
  0
INSERT
  5
293
330
93A
100
AcDbEntity
  8
TRENCH_BASE
100
AcDbBlockReference
  2
*U84
 10
0.0
 20
0.0
 30
0.0
  0
INSERT
  5
294
330
93A
100
AcDbEntity
  8
TRENCH_BASE
100
AcDbBlockReference
  2
*U85
 10
0.0
 20
0.0
 30
0.0
  0
INSERT
  5
295
330
93A
100
AcDbEntity
  8
TRENCH_BASE
100
AcDbBlockReference
  2
*U86
 10
0.0
 20
0.0
 30
0.0
  0
INSERT
  5
296
330
93A
100
AcDbEntity
  8
TRENCH_BASE
100
AcDbBlockReference
  2
*U87
 10
0.0
 20
0.0
 30
0.0
  0
INSERT
  5
297
330
93A
100
AcDbEntity
  8
TRENCH_BASE
100
AcDbBlockReference
  2
*U88
 10
0.0
 20
0.0
 30
0.0
  0
INSERT
  5
298
330
93A
100
AcDbEntity
  8
TRENCH_BASE
100
AcDbBlockReference
  2
*U89
 10
0.0
 20
0.0
 30
0.0
  0
INSERT
  5
299
330
93A
100
AcDbEntity
  8
TRENCH_BASE
100
AcDbBlockReference
  2
*U90
 10
0.0
 20
0.0
 30
0.0
  0
INSERT
  5
29A
330
93A
100
AcDbEntity
  8
TRENCH_BASE
100
AcDbBlockReference
  2
*U91
 10
0.0
 20
0.0
 30
0.0
  0
INSERT
  5
29C
330
93A
100
AcDbEntity
  8
TRENCH_BASE
100
AcDbBlockReference
  2
*U92
 10
0.0
 20
0.0
 30
0.0
  0
INSERT
  5
29D
330
93A
100
AcDbEntity
  8
TRENCH_BASE
100
AcDbBlockReference
  2
*U93
 10
0.0
 20
0.0
 30
0.0
  0
INSERT
  5
29E
330
93A
100
AcDbEntity
  8
TRENCH_BASE
100
AcDbBlockReference
  2
*U94
 10
0.0
 20
0.0
 30
0.0
  0
INSERT
  5
29F
330
93A
100
AcDbEntity
  8
TRENCH_BASE
100
AcDbBlockReference
  2
*U95
 10
0.0
 20
0.0
 30
0.0
  0
INSERT
  5
2A0
330
93A
100
AcDbEntity
  8
TRENCH_BASE
100
AcDbBlockReference
  2
*U96
 10
0.0
 20
0.0
 30
0.0
  0
INSERT
  5
2A1
330
93A
100
AcDbEntity
  8
TRENCH_BASE
100
AcDbBlockReference
  2
*U97
 10
0.0
 20
0.0
 30
0.0
  0
INSERT
  5
2A2
330
93A
100
AcDbEntity
  8
TRENCH_BASE
100
AcDbBlockReference
  2
*U98
 10
0.0
 20
0.0
 30
0.0
  0
INSERT
  5
2A3
330
93A
100
AcDbEntity
  8
TRENCH_BASE
100
AcDbBlockReference
  2
*U99
 10
0.0
 20
0.0
 30
0.0
  0
INSERT
  5
2A4
330
93A
100
AcDbEntity
  8
TRENCH_BASE
100
AcDbBlockReference
  2
*U100
 10
0.0
 20
0.0
 30
0.0
  0
INSERT
  5
2A5
330
93A
100
AcDbEntity
  8
TRENCH_BASE
100
AcDbBlockReference
  2
*U101
 10
0.0
 20
0.0
 30
0.0
  0
INSERT
  5
2A6
330
93A
100
AcDbEntity
  8
TRENCH_BASE
100
AcDbBlockReference
  2
*U102
 10
0.0
 20
0.0
 30
0.0
  0
INSERT
  5
2A7
330
93A
100
AcDbEntity
  8
TRENCH_BASE
100
AcDbBlockReference
  2
*U103
 10
0.0
 20
0.0
 30
0.0
  0
INSERT
  5
2A8
330
93A
100
AcDbEntity
  8
TRENCH_BASE
100
AcDbBlockReference
  2
*U104
 10
0.0
 20
0.0
 30
0.0
  0
INSERT
  5
2A9
330
93A
100
AcDbEntity
  8
TRENCH_BASE
100
AcDbBlockReference
  2
*U105
 10
0.0
 20
0.0
 30
0.0
  0
INSERT
  5
2AA
330
93A
100
AcDbEntity
  8
TRENCH_BASE
100
AcDbBlockReference
  2
*U106
 10
0.0
 20
0.0
 30
0.0
  0
INSERT
  5
2AB
330
93A
100
AcDbEntity
  8
TRENCH_BASE
100
AcDbBlockReference
  2
*U107
 10
0.0
 20
0.0
 30
0.0
  0
INSERT
  5
2AC
330
93A
100
AcDbEntity
  8
TRENCH_BASE
100
AcDbBlockReference
  2
*U108
 10
0.0
 20
0.0
 30
0.0
  0
INSERT
  5
2AD
330
93A
100
AcDbEntity
  8
TRENCH_BASE
100
AcDbBlockReference
  2
*U109
 10
0.0
 20
0.0
 30
0.0
  0
INSERT
  5
2AE
330
93A
100
AcDbEntity
  8
TRENCH_BASE
100
AcDbBlockReference
  2
*U110
 10
0.0
 20
0.0
 30
0.0
  0
INSERT
  5
2AF
330
93A
100
AcDbEntity
  8
TRENCH_BASE
100
AcDbBlockReference
  2
*U111
 10
0.0
 20
0.0
 30
0.0
  0
INSERT
  5
2B0
330
93A
100
AcDbEntity
  8
TRENCH_BASE
100
AcDbBlockReference
  2
*U112
 10
0.0
 20
0.0
 30
0.0
  0
INSERT
  5
2B1
330
93A
100
AcDbEntity
  8
TRENCH_BASE
100
AcDbBlockReference
  2
*U113
 10
0.0
 20
0.0
 30
0.0
  0
INSERT
  5
2B2
330
93A
100
AcDbEntity
  8
TRENCH_BASE
100
AcDbBlockReference
  2
*U114
 10
0.0
 20
0.0
 30
0.0
  0
INSERT
  5
2B3
330
93A
100
AcDbEntity
  8
TRENCH_BASE
100
AcDbBlockReference
  2
*U115
 10
0.0
 20
0.0
 30
0.0
  0
INSERT
  5
2B5
330
93A
100
AcDbEntity
  8
TRENCH_BASE
100
AcDbBlockReference
  2
*U116
 10
0.0
 20
0.0
 30
0.0
  0
INSERT
  5
2B6
330
93A
100
AcDbEntity
  8
TRENCH_BASE
100
AcDbBlockReference
  2
*U117
 10
0.0
 20
0.0
 30
0.0
  0
INSERT
  5
2B7
330
93A
100
AcDbEntity
  8
TRENCH_BASE
100
AcDbBlockReference
  2
*U118
 10
0.0
 20
0.0
 30
0.0
  0
INSERT
  5
2B8
330
93A
100
AcDbEntity
  8
TRENCH_BASE
100
AcDbBlockReference
  2
*U119
 10
0.0
 20
0.0
 30
0.0
  0
INSERT
  5
2B9
330
93A
100
AcDbEntity
  8
TRENCH_BASE
100
AcDbBlockReference
  2
*U120
 10
0.0
 20
0.0
 30
0.0
  0
INSERT
  5
2BA
330
93A
100
AcDbEntity
  8
TRENCH_BASE
100
AcDbBlockReference
  2
*U121
 10
0.0
 20
0.0
 30
0.0
  0
INSERT
  5
2BB
330
93A
100
AcDbEntity
  8
TRENCH_BASE
100
AcDbBlockReference
  2
*U122
 10
0.0
 20
0.0
 30
0.0
  0
INSERT
  5
2BC
330
93A
100
AcDbEntity
  8
TRENCH_BASE
100
AcDbBlockReference
  2
*U123
 10
0.0
 20
0.0
 30
0.0
  0
LWPOLYLINE
  5
2BE
330
93A
100
AcDbEntity
  8
TRENCH_BASE
100
AcDbPolyline
 90
        4
 70
     1
 43
0.0
 10
442198.6990233012
 20
111127.6587555002
 10
442198.4090136438
 20
111125.6511132628
 10
442206.1533494043
 20
111124.5882438586
 10
442206.4326180993
 20
111126.5851500764
  0
LWPOLYLINE
  5
334
330
93A
100
AcDbEntity
  8
WSITE
100
AcDbPolyline
 90
        9
 70
     1
 43
0.0
 10
442192.360470968
 20
111118.5868211263
 10
442221.889460574
 20
111115.7406534549
 10
442225.29
 20
111151.14
 10
442219.0625976766
 20
111152.9351851464
 10
442222.4153416594
 20
111176.1532432177
 10
442198.7067416329
 20
111179.3846298748
 10
442194.1565943533
 20
111145.2756157566
 10
442196.1892012213
 20
111145.0129957542
 10
442192.360470968
 20
111118.5868211263
  0
INSERT
  5
335
330
93A
100
AcDbEntity
  8
WRUBBLE
  6
Continuous
100
AcDbBlockReference
  2
*X125
 10
0.0
 20
0.0
 30
0.0
1001
GRADIENTCOLOR1ACI
1070
     5
1001
GRADIENTCOLOR2ACI
1070
     2
1001
ACAD
1000
HATCH
1002
{
1070
    19
1000
ANSI31
1040
10.0
1040
0.0
1000
ASC_BOUNDS
1070
     1
1070
     2
1070
     1
1005
336
1000
ASC_SEEDPOINT
1011
0.0
1021
0.0
1031
0.0
1000
R14_HATCH_DATA
1000
335
1011
1.0
1021
0.0
1031
0.0
1011
0.0
1021
1.0
1031
0.0
1011
0.0
1021
0.0
1031
1.0
1040
0.0
1010
0.0
1020
0.0
1030
1.0
1000
ANSI31
1070
     0
1070
     1
1071
        1
1071
        1
1071
       30
1070
     1
1040
442197.1666603439
1040
111152.5583021832
1040
442200.4551273736
1040
111153.9558215569
1070
     1
1040
442200.4551273736
1040
111153.9558215569
1040
442202.935
1040
111155.413
1070
     1
1040
442202.935
1040
111155.413
1040
442205.0709999999
1040
111155.428
1070
     1
1040
442205.0709999999
1040
111155.428
1040
442207.93
1040
111154.414
1070
     1
1040
442207.93
1040
111154.414
1040
442210.18
1040
111153.958
1070
     1
1040
442210.18
1040
111153.958
1040
442212.8380382885
1040
111153.6357319333
1070
     1
1040
442212.8380382885
1040
111153.6357319333
1040
442216.3069999998
1040
111153.456
1070
     1
1040
442216.3069999998
1040
111153.456
1040
442217.6209999999
1040
111152.102
1070
     1
1040
442217.6209999999
1040
111152.102
1040
442218.219
1040
111150.464
1070
     1
1040
442218.219
1040
111150.464
1040
442218.0641829697
1040
111149.3052540739
1070
     1
1040
442218.0641829697
1040
111149.3052540739
1040
442217.926
1040
111147.14
1070
     1
1040
442217.926
1040
111147.14
1040
442217.9224999999
1040
111145.2235
1070
     1
1040
442217.9224999999
1040
111145.2235
1040
442217.6390486835
1040
111143.8846205603
1070
     1
1040
442217.6390486835
1040
111143.8846205603
1040
442218.334
1040
111142.152
1070
     1
1040
442218.334
1040
111142.152
1040
442218.262
1040
111139.629
1070
     1
1040
442218.262
1040
111139.629
1040
442217.925
1040
111136.934
1070
     1
1040
442217.925
1040
111136.934
1040
442216.796
1040
111135.5865
1070
     1
1040
442216.796
1040
111135.5865
1040
442215.667
1040
111134.239
1070
     1
1040
442215.667
1040
111134.239
1040
442214.6159999999
1040
111132.189
1070
     1
1040
442214.6159999999
1040
111132.189
1040
442213.6629999999
1040
111129.753
1070
     1
1040
442213.6629999999
1040
111129.753
1040
442212.7800000001
1040
111127.862
1070
     1
1040
442212.7800000001
1040
111127.862
1040
442210.977
1040
111127.031
1070
     1
1040
442210.977
1040
111127.031
1040
442208.867
1040
111126.934
1070
     1
1040
442208.867
1040
111126.934
1040
442206.023
1040
111127.403
1070
     1
1040
442206.023
1040
111127.403
1040
442202.36
1040
111128.925
1070
     1
1040
442202.36
1040
111128.925
1040
442200.0
1040
111129.7267465388
1070
     1
1040
442200.0
1040
111129.7267465388
1040
442198.604
1040
111130.201
1070
     1
1040
442198.604
1040
111130.201
1040
442194.357
1040
111130.637
1070
     1
1040
442194.357
1040
111130.637
1040
442194.9664259376
1040
111136.5733118279
1070
     1
1040
442194.9664259376
1040
111136.5733118279
1040
442197.1666603439
1040
111152.5583021832
1071
        1
1005
336
1070
     1
1070
     1
1040
0.0
1040
10.0
1070
     0
1070
     1
1040
0.7853981633974483
1040
0.0
1040
0.0
1040
-0.8838834764831842
1040
0.8838834764831844
1070
     0
1071
        1
1040
0.0
1040
0.0
1040
0.0
1002
}
  0
LWPOLYLINE
  5
336
330
93A
100
AcDbEntity
  8
WRUBBLE
100
AcDbPolyline
 90
       32
 70
     1
 43
0.0
 10
442197.1666603439
 20
111152.5583021832
 10
442200.4551273736
 20
111153.9558215569
 10
442202.935
 20
111155.413
 10
442205.0709999999
 20
111155.428
 10
442207.93
 20
111154.414
 10
442210.18
 20
111153.958
 10
442212.8380382885
 20
111153.6357319333
 10
442216.3069999998
 20
111153.456
 10
442217.6209999999
 20
111152.102
 10
442218.219
 20
111150.464
 10
442218.0641829697
 20
111149.3052540739
 10
442217.926
 20
111147.14
 10
442217.9224999999
 20
111145.2235
 10
442217.6390486835
 20
111143.8846205603
 10
442218.334
 20
111142.152
 10
442218.262
 20
111139.629
 10
442217.925
 20
111136.934
 10
442216.796
 20
111135.5865
 10
442215.667
 20
111134.239
 10
442214.6159999999
 20
111132.189
 10
442213.6629999999
 20
111129.753
 10
442212.7800000001
 20
111127.862
 10
442210.977
 20
111127.031
 10
442208.867
 20
111126.934
 10
442206.023
 20
111127.403
 10
442206.023
 20
111127.403
 10
442202.36
 20
111128.925
 10
442200.0
 20
111129.7267465388
 10
442198.604
 20
111130.201
 10
442194.357
 20
111130.637
 10
442194.9664259376
 20
111136.5733118279
 10
442197.1666603439
 20
111152.5583021832
1001
ACAD
1000
ASC_BOUNDS
1002
{
1070
    19
1005
335
1002
}
  0
ENDSEC
  0
SECTION
  2
OBJECTS
  0
DICTIONARY
  5
8D7
330
0
100
AcDbDictionary
281
     1
  3
ACAD_CIP_PREVIOUS_PRODUCT_INFO
350
A5F
  3
ACAD_COLOR
350
92D
  3
ACAD_DETAILVIEWSTYLE
350
934
  3
ACAD_GROUP
350
8D8
  3
ACAD_LAYOUT
350
92C
  3
ACAD_MATERIAL
350
8DB
  3
ACAD_MLEADERSTYLE
350
930
  3
ACAD_MLINESTYLE
350
929
  3
ACAD_PLOTSETTINGS
350
92B
  3
ACAD_PLOTSTYLENAME
350
8D9
  3
ACAD_SCALELIST
350
90D
  3
ACAD_SECTIONVIEWSTYLE
350
932
  3
ACAD_TABLESTYLE
350
92E
  3
ACAD_VISUALSTYLE
350
8F4
  3
ACDB_RECOMPOSE_DATA
350
A93
  3
AcDbVariableDictionary
350
A86
  0
DICTIONARY
  5
A60
330
91F
100
AcDbDictionary
280
     1
281
     1
  3
ADSK_XREC_LAYER_RECONCILED
360
A61
  0
DICTIONARY
  5
A62
330
93E
100
AcDbDictionary
280
     1
281
     1
  3
ADSK_XREC_LAYER_RECONCILED
360
A63
  0
DICTIONARY
  5
A64
330
940
100
AcDbDictionary
280
     1
281
     1
  3
ADSK_XREC_LAYER_RECONCILED
360
A65
  0
DICTIONARY
  5
A66
330
941
100
AcDbDictionary
280
     1
281
     1
  3
ADSK_XREC_LAYER_RECONCILED
360
A67
  0
DICTIONARY
  5
A68
330
942
100
AcDbDictionary
280
     1
281
     1
  3
ADSK_XREC_LAYER_RECONCILED
360
A69
  0
DICTIONARY
  5
A6A
330
943
100
AcDbDictionary
280
     1
281
     1
  3
ADSK_XREC_LAYER_RECONCILED
360
A6B
  0
DICTIONARY
  5
A6C
330
944
100
AcDbDictionary
280
     1
281
     1
  3
ADSK_XREC_LAYER_RECONCILED
360
A6D
  0
DICTIONARY
  5
A6E
330
945
100
AcDbDictionary
280
     1
281
     1
  3
ADSK_XREC_LAYER_RECONCILED
360
A6F
  0
DICTIONARY
  5
A70
330
946
100
AcDbDictionary
280
     1
281
     1
  3
ADSK_XREC_LAYER_RECONCILED
360
A71
  0
DICTIONARY
  5
A72
330
947
100
AcDbDictionary
280
     1
281
     1
  3
ADSK_XREC_LAYER_RECONCILED
360
A73
  0
DICTIONARY
  5
A74
330
948
100
AcDbDictionary
280
     1
281
     1
  3
ADSK_XREC_LAYER_RECONCILED
360
A75
  0
DICTIONARY
  5
A76
330
949
100
AcDbDictionary
280
     1
281
     1
  3
ADSK_XREC_LAYER_RECONCILED
360
A77
  0
DICTIONARY
  5
A78
330
94A
100
AcDbDictionary
280
     1
281
     1
  3
ADSK_XREC_LAYER_RECONCILED
360
A79
  0
DICTIONARY
  5
A7A
330
94B
100
AcDbDictionary
280
     1
281
     1
  3
ADSK_XREC_LAYER_RECONCILED
360
A7B
  0
DICTIONARY
  5
A7C
330
94C
100
AcDbDictionary
280
     1
281
     1
  3
ADSK_XREC_LAYER_RECONCILED
360
A7D
  0
DICTIONARY
  5
A7E
330
94D
100
AcDbDictionary
280
     1
281
     1
  3
ADSK_XREC_LAYER_RECONCILED
360
A7F
  0
DICTIONARY
  5
A80
330
94E
100
AcDbDictionary
280
     1
281
     1
  3
ADSK_XREC_LAYER_RECONCILED
360
A81
  0
DICTIONARY
  5
A82
330
94F
100
AcDbDictionary
280
     1
281
     1
  3
ADSK_XREC_LAYER_RECONCILED
360
A83
  0
DICTIONARY
  5
A84
330
950
100
AcDbDictionary
280
     1
281
     1
  3
ADSK_XREC_LAYER_RECONCILED
360
A85
  0
XRECORD
  5
A5F
102
{ACAD_REACTORS
330
8D7
102
}
330
8D7
100
AcDbXrecord
280
     1
300
ACD
300
2020
300
ACD_F_S
  0
DICTIONARY
  5
92D
102
{ACAD_REACTORS
330
8D7
102
}
330
8D7
100
AcDbDictionary
281
     1
  0
DICTIONARY
  5
934
102
{ACAD_REACTORS
330
8D7
102
}
330
8D7
100
AcDbDictionary
281
     1
  3
Imperial24
350
935
  0
DICTIONARY
  5
8D8
102
{ACAD_REACTORS
330
8D7
102
}
330
8D7
100
AcDbDictionary
281
     1
  0
DICTIONARY
  5
92C
102
{ACAD_REACTORS
330
8D7
102
}
330
8D7
100
AcDbDictionary
281
     1
  3
Layout1
350
939
  3
Model
350
93D
  0
DICTIONARY
  5
8DB
102
{ACAD_REACTORS
330
8D7
102
}
330
8D7
100
AcDbDictionary
281
     1
  3
ByBlock
350
8E4
  3
ByLayer
350
8DC
  3
Global
350
8EC
  0
DICTIONARY
  5
930
102
{ACAD_REACTORS
330
8D7
102
}
330
8D7
100
AcDbDictionary
281
     1
  3
Standard
350
931
  0
DICTIONARY
  5
929
102
{ACAD_REACTORS
330
8D7
102
}
330
8D7
100
AcDbDictionary
281
     1
  3
Standard
350
92A
  0
DICTIONARY
  5
92B
102
{ACAD_REACTORS
330
8D7
102
}
330
8D7
100
AcDbDictionary
281
     1
  0
ACDBDICTIONARYWDFLT
  5
8D9
102
{ACAD_REACTORS
330
8D7
102
}
330
8D7
100
AcDbDictionary
281
     1
  3
Normal
350
8DA
100
AcDbDictionaryWithDefault
340
8DA
  0
DICTIONARY
  5
90D
102
{ACAD_REACTORS
330
8D7
102
}
330
8D7
100
AcDbDictionary
281
     1
  3
A0
350
90E
  3
A1
350
90F
  3
A2
350
910
  3
A3
350
911
  3
A4
350
912
  3
A5
350
913
  3
A6
350
914
  3
A7
350
915
  3
A8
350
916
  3
A9
350
917
  3
B0
350
918
  3
B1
350
919
  3
B2
350
91A
  3
B3
350
91B
  3
B4
350
91C
  3
B5
350
91D
  3
B6
350
91E
  0
DICTIONARY
  5
932
102
{ACAD_REACTORS
330
8D7
102
}
330
8D7
100
AcDbDictionary
281
     1
  3
Imperial24
350
933
  0
DICTIONARY
  5
92E
102
{ACAD_REACTORS
330
8D7
102
}
330
8D7
100
AcDbDictionary
281
     1
  3
Standard
350
92F
  0
DICTIONARY
  5
8F4
102
{ACAD_REACTORS
330
8D7
102
}
330
8D7
100
AcDbDictionary
281
     1
  3
2dWireframe
350
8FA
  3
Basic
350
8F9
  3
Brighten
350
900
  3
ColorChange
350
904
  3
Conceptual
350
8FD
  3
Dim
350
8FF
  3
EdgeColorOff
350
90C
  3
Facepattern
350
903
  3
Flat
350
8F5
  3
FlatWithEdges
350
8F6
  3
Gouraud
350
8F7
  3
GouraudWithEdges
350
8F8
  3
Hidden
350
8FC
  3
JitterOff
350
90A
  3
Linepattern
350
902
  3
OverhangOff
350
90B
  3
Realistic
350
8FE
  3
Shaded
350
909
  3
Shaded with edges
350
908
  3
Shades of Gray
350
905
  3
Sketchy
350
906
  3
Thicken
350
901
  3
Wireframe
350
8FB
  3
X-Ray
350
907
  0
XRECORD
  5
A93
102
{ACAD_REACTORS
330
8D7
102
}
330
8D7
100
AcDbXrecord
280
     1
 90
        1
330
92F
  0
DICTIONARY
  5
A86
102
{ACAD_REACTORS
330
8D7
102
}
330
8D7
100
AcDbDictionary
281
     1
  3
CANNOSCALE
350
A8C
  3
CMLEADERSTYLE
350
A88
  3
CTABLESTYLE
350
A87
  3
CVIEWDETAILSTYLE
350
A89
  3
CVIEWSECTIONSTYLE
350
A8A
  3
LAYEREVAL
350
A8E
  3
LAYERNOTIFY
350
A8F
  3
LIGHTINGUNITS
350
A8D
  3
MSLTSCALE
350
A8B
  0
XRECORD
  5
A61
102
{ACAD_REACTORS
330
A60
102
}
330
A60
100
AcDbXrecord
280
     1
290
     1
  0
XRECORD
  5
A63
102
{ACAD_REACTORS
330
A62
102
}
330
A62
100
AcDbXrecord
280
     1
290
     1
  0
XRECORD
  5
A65
102
{ACAD_REACTORS
330
A64
102
}
330
A64
100
AcDbXrecord
280
     1
290
     1
  0
XRECORD
  5
A67
102
{ACAD_REACTORS
330
A66
102
}
330
A66
100
AcDbXrecord
280
     1
290
     1
  0
XRECORD
  5
A69
102
{ACAD_REACTORS
330
A68
102
}
330
A68
100
AcDbXrecord
280
     1
290
     1
  0
XRECORD
  5
A6B
102
{ACAD_REACTORS
330
A6A
102
}
330
A6A
100
AcDbXrecord
280
     1
290
     1
  0
XRECORD
  5
A6D
102
{ACAD_REACTORS
330
A6C
102
}
330
A6C
100
AcDbXrecord
280
     1
290
     1
  0
XRECORD
  5
A6F
102
{ACAD_REACTORS
330
A6E
102
}
330
A6E
100
AcDbXrecord
280
     1
290
     1
  0
XRECORD
  5
A71
102
{ACAD_REACTORS
330
A70
102
}
330
A70
100
AcDbXrecord
280
     1
290
     1
  0
XRECORD
  5
A73
102
{ACAD_REACTORS
330
A72
102
}
330
A72
100
AcDbXrecord
280
     1
290
     1
  0
XRECORD
  5
A75
102
{ACAD_REACTORS
330
A74
102
}
330
A74
100
AcDbXrecord
280
     1
290
     1
  0
XRECORD
  5
A77
102
{ACAD_REACTORS
330
A76
102
}
330
A76
100
AcDbXrecord
280
     1
290
     1
  0
XRECORD
  5
A79
102
{ACAD_REACTORS
330
A78
102
}
330
A78
100
AcDbXrecord
280
     1
290
     1
  0
XRECORD
  5
A7B
102
{ACAD_REACTORS
330
A7A
102
}
330
A7A
100
AcDbXrecord
280
     1
290
     1
  0
XRECORD
  5
A7D
102
{ACAD_REACTORS
330
A7C
102
}
330
A7C
100
AcDbXrecord
280
     1
290
     1
  0
XRECORD
  5
A7F
102
{ACAD_REACTORS
330
A7E
102
}
330
A7E
100
AcDbXrecord
280
     1
290
     1
  0
XRECORD
  5
A81
102
{ACAD_REACTORS
330
A80
102
}
330
A80
100
AcDbXrecord
280
     1
290
     1
  0
XRECORD
  5
A83
102
{ACAD_REACTORS
330
A82
102
}
330
A82
100
AcDbXrecord
280
     1
290
     1
  0
XRECORD
  5
A85
102
{ACAD_REACTORS
330
A84
102
}
330
A84
100
AcDbXrecord
280
     1
290
     1
  0
ACDBDETAILVIEWSTYLE
  5
935
102
{ACAD_XDICTIONARY
360
AC6
102
}
102
{ACAD_REACTORS
330
934
102
}
330
934
100
AcDbModelDocViewStyle
 70
     0
  3
Imperial24
290
     0
100
AcDbDetailViewStyle
 70
     0
 71
     0
 90
        3
 71
     1
340
920
 62
   256
 40
0.24
340
0
 62
   256
 40
0.24
300

 40
0.36
280
     3
 71
     2
340
927
 90
       25
 62
   256
 71
     3
340
920
 62
   256
 40
0.24
 90
        1
 40
0.75
 90
        1
300
%<\AcVar ViewType \f "%tc1">% %<\AcVar ViewDetailId>%\PSCALE %<\AcVar ViewScale \f "%sn">%
 71
     4
340
927
 90
       25
 62
   256
340
927
 90
       25
 62
   256
280
     0
  0
LAYOUT
  5
939
102
{ACAD_REACTORS
330
92C
102
}
330
92C
100
AcDbPlotSettings
  1

  2
\\print.york.ac.uk\PUSH_ITSPRN0671
  4

  6

 40
0.0
 41
0.0
 42
0.0
 43
0.0
 44
0.0
 45
0.0
 46
0.0
 47
0.0
 48
0.0
 49
0.0
140
0.0
141
0.0
142
1.0
143
1.0
 70
   688
 72
     0
 73
     0
 74
     5
  7

 75
    16
147
1.0
 76
     0
 77
     2
 78
   300
148
0.0
149
0.0
100
AcDbLayout
  1
Layout1
 70
     1
 71
     1
 10
0.0
 20
0.0
 11
12.0
 21
9.0
 12
0.0
 22
0.0
 32
0.0
 14
0.0
 24
0.0
 34
0.0
 15
0.0
 25
0.0
 35
0.0
146
0.0
 13
0.0
 23
0.0
 33
0.0
 16
1.0
 26
0.0
 36
0.0
 17
0.0
 27
1.0
 37
0.0
 76
     0
330
936
  0
LAYOUT
  5
93D
102
{ACAD_REACTORS
330
92C
102
}
330
92C
100
AcDbPlotSettings
  1

  2
\\print.york.ac.uk\PUSH_ITSPRN0671
  4

  6

 40
0.0
 41
0.0
 42
0.0
 43
0.0
 44
0.0
 45
0.0
 46
0.0
 47
0.0
 48
0.0
 49
0.0
140
0.0
141
0.0
142
1.0
143
1.0
 70
  1712
 72
     0
 73
     0
 74
     0
  7

 75
     0
147
1.0
 76
     0
 77
     2
 78
   300
148
0.0
149
0.0
100
AcDbLayout
  1
Model
 70
     1
 71
     0
 10
0.0
 20
0.0
 11
12.0
 21
9.0
 12
0.0
 22
0.0
 32
0.0
 14
0.0
 24
0.0
 34
0.0
 15
0.0
 25
0.0
 35
0.0
146
0.0
 13
0.0
 23
0.0
 33
0.0
 16
1.0
 26
0.0
 36
0.0
 17
0.0
 27
1.0
 37
0.0
 76
     0
330
93A
331
93F
  0
MATERIAL
  5
8E4
102
{ACAD_XDICTIONARY
360
8E5
102
}
102
{ACAD_REACTORS
330
8DB
102
}
330
8DB
100
AcDbMaterial
  1
ByBlock
 72
     0
 43
0.0208333333333333
 43
0.0
 43
0.0
 43
0.0
 43
0.0
 43
0.0208333333333333
 43
0.0
 43
0.0
 43
0.0
 43
0.0
 43
1.0
 43
0.0
 43
0.0
 43
0.0
 43
0.0
 43
1.0
 77
     0
 47
0.0208333333333333
 47
0.0
 47
0.0
 47
0.0
 47
0.0
 47
0.0208333333333333
 47
0.0
 47
0.0
 47
0.0
 47
0.0
 47
1.0
 47
0.0
 47
0.0
 47
0.0
 47
0.0
 47
1.0
171
     0
 49
0.0208333333333333
 49
0.0
 49
0.0
 49
0.0
 49
0.0
 49
0.0208333333333333
 49
0.0
 49
0.0
 49
0.0
 49
0.0
 49
1.0
 49
0.0
 49
0.0
 49
0.0
 49
0.0
 49
1.0
175
     0
142
0.0208333333333333
142
0.0
142
0.0
142
0.0
142
0.0
142
0.0208333333333333
142
0.0
142
0.0
142
0.0
142
0.0
142
1.0
142
0.0
142
0.0
142
0.0
142
0.0
142
1.0
179
     0
144
0.0208333333333333
144
0.0
144
0.0
144
0.0
144
0.0
144
0.0208333333333333
144
0.0
144
0.0
144
0.0
144
0.0
144
1.0
144
0.0
144
0.0
144
0.0
144
0.0
144
1.0
147
0.0208333333333333
147
0.0
147
0.0
147
0.0
147
0.0
147
0.0208333333333333
147
0.0
147
0.0
147
0.0
147
0.0
147
1.0
147
0.0
147
0.0
147
0.0
147
0.0
147
1.0
  0
MATERIAL
  5
8DC
102
{ACAD_XDICTIONARY
360
8DD
102
}
102
{ACAD_REACTORS
330
8DB
102
}
330
8DB
100
AcDbMaterial
  1
ByLayer
 72
     0
 43
0.0208333333333333
 43
0.0
 43
0.0
 43
0.0
 43
0.0
 43
0.0208333333333333
 43
0.0
 43
0.0
 43
0.0
 43
0.0
 43
1.0
 43
0.0
 43
0.0
 43
0.0
 43
0.0
 43
1.0
 77
     0
 47
0.0208333333333333
 47
0.0
 47
0.0
 47
0.0
 47
0.0
 47
0.0208333333333333
 47
0.0
 47
0.0
 47
0.0
 47
0.0
 47
1.0
 47
0.0
 47
0.0
 47
0.0
 47
0.0
 47
1.0
171
     0
 49
0.0208333333333333
 49
0.0
 49
0.0
 49
0.0
 49
0.0
 49
0.0208333333333333
 49
0.0
 49
0.0
 49
0.0
 49
0.0
 49
1.0
 49
0.0
 49
0.0
 49
0.0
 49
0.0
 49
1.0
175
     0
142
0.0208333333333333
142
0.0
142
0.0
142
0.0
142
0.0
142
0.0208333333333333
142
0.0
142
0.0
142
0.0
142
0.0
142
1.0
142
0.0
142
0.0
142
0.0
142
0.0
142
1.0
179
     0
144
0.0208333333333333
144
0.0
144
0.0
144
0.0
144
0.0
144
0.0208333333333333
144
0.0
144
0.0
144
0.0
144
0.0
144
1.0
144
0.0
144
0.0
144
0.0
144
0.0
144
1.0
147
0.0208333333333333
147
0.0
147
0.0
147
0.0
147
0.0
147
0.0208333333333333
147
0.0
147
0.0
147
0.0
147
0.0
147
1.0
147
0.0
147
0.0
147
0.0
147
0.0
147
1.0
  0
MATERIAL
  5
8EC
102
{ACAD_XDICTIONARY
360
8ED
102
}
102
{ACAD_REACTORS
330
8DB
102
}
330
8DB
100
AcDbMaterial
  1
Global
 72
     0
 43
0.0208333333333333
 43
0.0
 43
0.0
 43
0.0
 43
0.0
 43
0.0208333333333333
 43
0.0
 43
0.0
 43
0.0
 43
0.0
 43
1.0
 43
0.0
 43
0.0
 43
0.0
 43
0.0
 43
1.0
 77
     0
 47
0.0208333333333333
 47
0.0
 47
0.0
 47
0.0
 47
0.0
 47
0.0208333333333333
 47
0.0
 47
0.0
 47
0.0
 47
0.0
 47
1.0
 47
0.0
 47
0.0
 47
0.0
 47
0.0
 47
1.0
171
     0
 49
0.0208333333333333
 49
0.0
 49
0.0
 49
0.0
 49
0.0
 49
0.0208333333333333
 49
0.0
 49
0.0
 49
0.0
 49
0.0
 49
1.0
 49
0.0
 49
0.0
 49
0.0
 49
0.0
 49
1.0
175
     0
142
0.0208333333333333
142
0.0
142
0.0
142
0.0
142
0.0
142
0.0208333333333333
142
0.0
142
0.0
142
0.0
142
0.0
142
1.0
142
0.0
142
0.0
142
0.0
142
0.0
142
1.0
179
     0
144
0.0208333333333333
144
0.0
144
0.0
144
0.0
144
0.0
144
0.0208333333333333
144
0.0
144
0.0
144
0.0
144
0.0
144
1.0
144
0.0
144
0.0
144
0.0
144
0.0
144
1.0
147
0.0208333333333333
147
0.0
147
0.0
147
0.0
147
0.0
147
0.0208333333333333
147
0.0
147
0.0
147
0.0
147
0.0
147
1.0
147
0.0
147
0.0
147
0.0
147
0.0
147
1.0
  0
MLEADERSTYLE
  5
931
102
{ACAD_REACTORS
330
930
102
}
330
930
100
AcDbMLeaderStyle
179
     2
170
     2
171
     1
172
     0
 90
        2
 40
0.0
 41
0.0
173
     1
 91
-1056964608
340
925
 92
       -2
290
     1
 42
0.09
291
     1
 43
0.36
  3
Standard
 44
0.18
300

342
920
174
     1
178
     6
175
     1
176
     0
 93
-1056964608
 45
0.18
292
     0
297
     0
 46
0.18
 94
-1056964608
 47
1.0
 49
1.0
140
1.0
293
     1
141
0.0
294
     1
177
     0
142
1.0
295
     0
296
     0
143
0.125
271
     0
272
     9
273
     9
  0
MLINESTYLE
  5
92A
102
{ACAD_REACTORS
330
929
102
}
330
929
100
AcDbMlineStyle
  2
STANDARD
 70
     0
  3

 62
   256
 51
90.0
 52
90.0
 71
     2
 49
0.5
 62
   256
  6
BYLAYER
 49
-0.5
 62
   256
  6
BYLAYER
  0
ACDBPLACEHOLDER
  5
8DA
102
{ACAD_REACTORS
330
8D9
102
}
330
8D9
  0
SCALE
  5
90E
102
{ACAD_REACTORS
330
90D
102
}
330
90D
100
AcDbScale
 70
     0
300
1:1
140
1.0
141
1.0
290
     1
  0
SCALE
  5
90F
102
{ACAD_REACTORS
330
90D
102
}
330
90D
100
AcDbScale
 70
     0
300
1/128" = 1'-0"
140
0.0078125
141
12.0
290
     0
  0
SCALE
  5
910
102
{ACAD_REACTORS
330
90D
102
}
330
90D
100
AcDbScale
 70
     0
300
1/64" = 1'-0"
140
0.015625
141
12.0
290
     0
  0
SCALE
  5
911
102
{ACAD_REACTORS
330
90D
102
}
330
90D
100
AcDbScale
 70
     0
300
1/32" = 1'-0"
140
0.03125
141
12.0
290
     0
  0
SCALE
  5
912
102
{ACAD_REACTORS
330
90D
102
}
330
90D
100
AcDbScale
 70
     0
300
1/16" = 1'-0"
140
0.0625
141
12.0
290
     0
  0
SCALE
  5
913
102
{ACAD_REACTORS
330
90D
102
}
330
90D
100
AcDbScale
 70
     0
300
3/32" = 1'-0"
140
0.09375
141
12.0
290
     0
  0
SCALE
  5
914
102
{ACAD_REACTORS
330
90D
102
}
330
90D
100
AcDbScale
 70
     0
300
1/8" = 1'-0"
140
0.125
141
12.0
290
     0
  0
SCALE
  5
915
102
{ACAD_REACTORS
330
90D
102
}
330
90D
100
AcDbScale
 70
     0
300
3/16" = 1'-0"
140
0.1875
141
12.0
290
     0
  0
SCALE
  5
916
102
{ACAD_REACTORS
330
90D
102
}
330
90D
100
AcDbScale
 70
     0
300
1/4" = 1'-0"
140
0.25
141
12.0
290
     0
  0
SCALE
  5
917
102
{ACAD_REACTORS
330
90D
102
}
330
90D
100
AcDbScale
 70
     0
300
3/8" = 1'-0"
140
0.375
141
12.0
290
     0
  0
SCALE
  5
918
102
{ACAD_REACTORS
330
90D
102
}
330
90D
100
AcDbScale
 70
     0
300
1/2" = 1'-0"
140
0.5
141
12.0
290
     0
  0
SCALE
  5
919
102
{ACAD_REACTORS
330
90D
102
}
330
90D
100
AcDbScale
 70
     0
300
3/4" = 1'-0"
140
0.75
141
12.0
290
     0
  0
SCALE
  5
91A
102
{ACAD_REACTORS
330
90D
102
}
330
90D
100
AcDbScale
 70
     0
300
1" = 1'-0"
140
1.0
141
12.0
290
     0
  0
SCALE
  5
91B
102
{ACAD_REACTORS
330
90D
102
}
330
90D
100
AcDbScale
 70
     0
300
1-1/2" = 1'-0"
140
1.5
141
12.0
290
     0
  0
SCALE
  5
91C
102
{ACAD_REACTORS
330
90D
102
}
330
90D
100
AcDbScale
 70
     0
300
3" = 1'-0"
140
3.0
141
12.0
290
     0
  0
SCALE
  5
91D
102
{ACAD_REACTORS
330
90D
102
}
330
90D
100
AcDbScale
 70
     0
300
6" = 1'-0"
140
6.0
141
12.0
290
     0
  0
SCALE
  5
91E
102
{ACAD_REACTORS
330
90D
102
}
330
90D
100
AcDbScale
 70
     0
300
1'-0" = 1'-0"
140
12.0
141
12.0
290
     0
  0
ACDBSECTIONVIEWSTYLE
  5
933
102
{ACAD_XDICTIONARY
360
AC4
102
}
102
{ACAD_REACTORS
330
932
102
}
330
932
100
AcDbModelDocViewStyle
 70
     0
  3
Imperial24
290
     0
100
AcDbSectionViewStyle
 70
     0
 71
     0
 90
       78
 71
     1
340
920
 62
   256
 40
0.24
340
0
340
0
 62
   256
 40
0.24
300
I, O, Q, S, X, Z
 40
0.48
 90
        3
 40
0.18
 90
        1
 71
     2
340
927
 90
       25
 62
   256
340
927
 90
       50
 62
   256
 40
0.24
 40
0.0
 40
0.24
 71
     3
340
920
 62
   256
 40
0.24
 90
        1
 40
0.75
 90
        1
300
%<\AcVar ViewType \f "%tc1">% %<\AcVar ViewSectionStartId>%-%<\AcVar ViewSectionEndId>%\PSCALE %<\AcVar ViewScale \f "%sn">%
 71
     4
 62
   256
 62
   257
300
ANSI31
 40
1.0
 90
        0
290
     0
290
     0
 90
        6
 40
0.0
 40
1.570796326794896
 40
0.2617993877991494
 40
1.308996938995747
 40
-0.2617993877991494
 40
1.832595714594046
  0
TABLESTYLE
  5
92F
102
{ACAD_XDICTIONARY
360
A91
102
}
102
{ACAD_REACTORS
330
92E
102
}
330
92E
100
AcDbTableStyle
280
     0
  3
Standard
 70
     0
 71
     0
 40
0.06
 41
0.06
280
     0
281
     0
  7
STANDARD
140
0.18
170
     2
 62
     0
 63
     7
283
     0
 90
      512
 91
        0
  1

274
    -2
284
     1
 64
     0
275
    -2
285
     1
 65
     0
276
    -2
286
     1
 66
     0
277
    -2
287
     1
 67
     0
278
    -2
288
     1
 68
     0
279
    -2
289
     1
 69
     0
  7
STANDARD
140
0.25
170
     5
 62
     0
 63
     7
283
     0
 90
      512
 91
        0
  1

274
    -2
284
     1
 64
     0
275
    -2
285
     1
 65
     0
276
    -2
286
     1
 66
     0
277
    -2
287
     1
 67
     0
278
    -2
288
     1
 68
     0
279
    -2
289
     1
 69
     0
  7
STANDARD
140
0.18
170
     5
 62
     0
 63
     7
283
     0
 90
      512
 91
        0
  1

274
    -2
284
     1
 64
     0
275
    -2
285
     1
 65
     0
276
    -2
286
     1
 66
     0
277
    -2
287
     1
 67
     0
278
    -2
288
     1
 68
     0
279
    -2
289
     1
 69
     0
  0
VISUALSTYLE
  5
8FA
102
{ACAD_XDICTIONARY
360
A9E
102
}
102
{ACAD_REACTORS
330
8F4
102
}
330
8F4
100
AcDbVisualStyle
  2
2dWireframe
 70
     4
177
     2
291
     0
 71
     0
176
     1
 72
     2
176
     1
 73
     0
176
     1
 90
        0
176
     1
 40
0.6
176
     1
 41
30.0
176
     1
 63
     7
421
 16777215
176
     1
 74
     1
176
     1
 91
        4
176
     1
 64
     7
176
     1
 65
   257
176
     1
 75
     1
176
     1
175
     1
176
     1
 42
1.0
176
     1
 92
        0
176
     1
 66
   257
176
     1
 43
1.0
176
     1
 76
     1
176
     1
 77
     6
176
     1
 78
     2
176
     1
 67
     7
176
     1
 79
     5
176
     1
170
     0
176
     1
171
     0
176
     1
290
     0
176
     1
 93
        1
176
     1
 44
0.0
176
     1
173
     0
176
     1
1001
ACAD
1000
AcDbSavedByObjectVersion
1070
     0
  0
VISUALSTYLE
  5
8F9
102
{ACAD_XDICTIONARY
360
A9C
102
}
102
{ACAD_REACTORS
330
8F4
102
}
330
8F4
100
AcDbVisualStyle
  2
Basic
 70
     7
177
     2
291
     1
 71
     1
176
     1
 72
     0
176
     1
 73
     1
176
     1
 90
        0
176
     1
 40
0.6
176
     1
 41
30.0
176
     1
 63
     7
421
 16777215
176
     1
 74
     0
176
     1
 91
        4
176
     1
 64
     7
176
     1
 65
   257
176
     1
 75
     1
176
     1
175
     1
176
     1
 42
1.0
176
     1
 92
        8
176
     1
 66
     7
176
     1
 43
1.0
176
     1
 76
     1
176
     1
 77
     6
176
     1
 78
     2
176
     1
 67
     7
176
     1
 79
     5
176
     1
170
     0
176
     1
171
     0
176
     1
290
     0
176
     1
 93
        1
176
     1
 44
0.0
176
     1
173
     0
176
     1
1001
ACAD
1000
AcDbSavedByObjectVersion
1070
     0
  0
VISUALSTYLE
  5
900
102
{ACAD_XDICTIONARY
360
AAA
102
}
102
{ACAD_REACTORS
330
8F4
102
}
330
8F4
100
AcDbVisualStyle
  2
Brighten
 70
    12
177
     2
291
     1
 71
     2
176
     1
 72
     2
176
     1
 73
     0
176
     1
 90
        0
176
     1
 40
0.6
176
     1
 41
30.0
176
     1
 63
     7
421
 16777215
176
     1
 74
     1
176
     1
 91
        4
176
     1
 64
     7
176
     1
 65
   257
176
     1
 75
     1
176
     1
175
     1
176
     1
 42
1.0
176
     1
 92
        8
176
     1
 66
     7
176
     1
 43
1.0
176
     1
 76
     1
176
     1
 77
     6
176
     1
 78
     2
176
     1
 67
     7
176
     1
 79
     5
176
     1
170
     0
176
     1
171
     0
176
     1
290
     0
176
     1
 93
        1
176
     1
 44
50.0
176
     1
173
     0
176
     1
1001
ACAD
1000
AcDbSavedByObjectVersion
1070
     0
  0
VISUALSTYLE
  5
904
102
{ACAD_XDICTIONARY
360
AB2
102
}
102
{ACAD_REACTORS
330
8F4
102
}
330
8F4
100
AcDbVisualStyle
  2
ColorChange
 70
    16
177
     2
291
     1
 71
     2
176
     1
 72
     2
176
     1
 73
     3
176
     1
 90
        0
176
     1
 40
0.6
176
     1
 41
30.0
176
     1
 63
     8
421
  8421504
176
     1
 74
     1
176
     1
 91
        4
176
     1
 64
     7
176
     1
 65
   257
176
     1
 75
     1
176
     1
175
     1
176
     1
 42
1.0
176
     1
 92
        8
176
     1
 66
     8
424
  8421504
176
     1
 43
1.0
176
     1
 76
     1
176
     1
 77
     6
176
     1
 78
     2
176
     1
 67
     7
176
     1
 79
     5
176
     1
170
     0
176
     1
171
     0
176
     1
290
     0
176
     1
 93
        1
176
     1
 44
0.0
176
     1
173
     0
176
     1
1001
ACAD
1000
AcDbSavedByObjectVersion
1070
     0
  0
VISUALSTYLE
  5
8FD
102
{ACAD_XDICTIONARY
360
AA4
102
}
102
{ACAD_REACTORS
330
8F4
102
}
330
8F4
100
AcDbVisualStyle
  2
Conceptual
 70
     9
177
     2
291
     0
 71
     3
176
     1
 72
     2
176
     1
 73
     0
176
     1
 90
        0
176
     1
 40
0.6
176
     1
 41
30.0
176
     1
 63
     7
421
 16777215
176
     1
 74
     2
176
     1
 91
        2
176
     1
 64
     7
176
     1
 65
   257
176
     1
 75
     1
176
     1
175
     1
176
     1
 42
179.0
176
     1
 92
        8
176
     1
 66
     7
176
     1
 43
1.0
176
     1
 76
     1
176
     1
 77
     6
176
     1
 78
     2
176
     1
 67
     7
176
     1
 79
     3
176
     1
170
     0
176
     1
171
     0
176
     1
290
     0
176
     1
 93
        1
176
     1
 44
0.0
176
     1
173
     0
176
     1
1001
ACAD
1000
AcDbSavedByObjectVersion
1070
     0
  0
VISUALSTYLE
  5
8FF
102
{ACAD_XDICTIONARY
360
AA8
102
}
102
{ACAD_REACTORS
330
8F4
102
}
330
8F4
100
AcDbVisualStyle
  2
Dim
 70
    11
177
     2
291
     1
 71
     2
176
     1
 72
     2
176
     1
 73
     0
176
     1
 90
        0
176
     1
 40
0.6
176
     1
 41
30.0
176
     1
 63
     7
421
 16777215
176
     1
 74
     1
176
     1
 91
        4
176
     1
 64
     7
176
     1
 65
   257
176
     1
 75
     1
176
     1
175
     1
176
     1
 42
1.0
176
     1
 92
        8
176
     1
 66
     7
176
     1
 43
1.0
176
     1
 76
     1
176
     1
 77
     6
176
     1
 78
     2
176
     1
 67
     7
176
     1
 79
     5
176
     1
170
     0
176
     1
171
     0
176
     1
290
     0
176
     1
 93
        1
176
     1
 44
-50.0
176
     1
173
     0
176
     1
1001
ACAD
1000
AcDbSavedByObjectVersion
1070
     0
  0
VISUALSTYLE
  5
90C
102
{ACAD_XDICTIONARY
360
AC2
102
}
102
{ACAD_REACTORS
330
8F4
102
}
330
8F4
100
AcDbVisualStyle
  2
EdgeColorOff
 70
    22
177
     2
291
     1
 71
     2
176
     0
 72
     2
176
     0
 73
     0
176
     0
 90
        0
176
     0
 40
0.6
176
     0
 41
30.0
176
     0
 63
     7
421
 16777215
176
     0
 74
     1
176
     0
 91
        4
176
     0
 64
     7
176
     0
 65
   257
176
     0
 75
     1
176
     0
175
     1
176
     0
 42
1.0
176
     0
 92
        8
176
     2
 66
     7
176
     0
 43
1.0
176
     0
 76
     1
176
     0
 77
     6
176
     0
 78
     2
176
     0
 67
     7
176
     0
 79
     5
176
     0
170
     0
176
     0
171
     0
176
     0
290
     0
176
     0
 93
        1
176
     0
 44
0.0
176
     0
173
     0
176
     0
1001
ACAD
1000
AcDbSavedByObjectVersion
1070
     0
  0
VISUALSTYLE
  5
903
102
{ACAD_XDICTIONARY
360
AB0
102
}
102
{ACAD_REACTORS
330
8F4
102
}
330
8F4
100
AcDbVisualStyle
  2
Facepattern
 70
    15
177
     2
291
     1
 71
     2
176
     1
 72
     2
176
     1
 73
     0
176
     1
 90
        0
176
     1
 40
0.6
176
     1
 41
30.0
176
     1
 63
     7
421
 16777215
176
     1
 74
     1
176
     1
 91
        4
176
     1
 64
     7
176
     1
 65
   257
176
     1
 75
     1
176
     1
175
     1
176
     1
 42
1.0
176
     1
 92
        8
176
     1
 66
     7
176
     1
 43
1.0
176
     1
 76
     1
176
     1
 77
     6
176
     1
 78
     2
176
     1
 67
     7
176
     1
 79
     5
176
     1
170
     0
176
     1
171
     0
176
     1
290
     0
176
     1
 93
        1
176
     1
 44
0.0
176
     1
173
     0
176
     1
1001
ACAD
1000
AcDbSavedByObjectVersion
1070
     0
  0
VISUALSTYLE
  5
8F5
102
{ACAD_XDICTIONARY
360
A94
102
}
102
{ACAD_REACTORS
330
8F4
102
}
330
8F4
100
AcDbVisualStyle
  2
Flat
 70
     0
177
     2
291
     1
 71
     2
176
     1
 72
     1
176
     1
 73
     1
176
     1
 90
        2
176
     1
 40
0.6
176
     1
 41
30.0
176
     1
 63
     7
421
 16777215
176
     1
 74
     0
176
     1
 91
        0
176
     1
 64
     7
176
     1
 65
   257
176
     1
 75
     1
176
     1
175
     1
176
     1
 42
1.0
176
     1
 92
        8
176
     1
 66
     7
176
     1
 43
1.0
176
     1
 76
     1
176
     1
 77
     6
176
     1
 78
     2
176
     1
 67
     7
176
     1
 79
     5
176
     1
170
     0
176
     1
171
     0
176
     1
290
     0
176
     1
 93
       13
176
     1
 44
0.0
176
     1
173
     0
176
     1
1001
ACAD
1000
AcDbSavedByObjectVersion
1070
     0
  0
VISUALSTYLE
  5
8F6
102
{ACAD_XDICTIONARY
360
A96
102
}
102
{ACAD_REACTORS
330
8F4
102
}
330
8F4
100
AcDbVisualStyle
  2
FlatWithEdges
 70
     1
177
     2
291
     1
 71
     2
176
     1
 72
     1
176
     1
 73
     1
176
     1
 90
        2
176
     1
 40
0.6
176
     1
 41
30.0
176
     1
 63
     7
421
 16777215
176
     1
 74
     1
176
     1
 91
        0
176
     1
 64
     7
176
     1
 65
   257
176
     1
 75
     1
176
     1
175
     1
176
     1
 42
1.0
176
     1
 92
        0
176
     1
 66
   257
176
     1
 43
1.0
176
     1
 76
     1
176
     1
 77
     6
176
     1
 78
     2
176
     1
 67
     7
176
     1
 79
     5
176
     1
170
     0
176
     1
171
     0
176
     1
290
     0
176
     1
 93
       13
176
     1
 44
0.0
176
     1
173
     0
176
     1
1001
ACAD
1000
AcDbSavedByObjectVersion
1070
     0
  0
VISUALSTYLE
  5
8F7
102
{ACAD_XDICTIONARY
360
A98
102
}
102
{ACAD_REACTORS
330
8F4
102
}
330
8F4
100
AcDbVisualStyle
  2
Gouraud
 70
     2
177
     2
291
     1
 71
     2
176
     1
 72
     2
176
     1
 73
     1
176
     1
 90
        2
176
     1
 40
0.6
176
     1
 41
30.0
176
     1
 63
     7
421
 16777215
176
     1
 74
     0
176
     1
 91
        0
176
     1
 64
     7
176
     1
 65
   257
176
     1
 75
     1
176
     1
175
     1
176
     1
 42
1.0
176
     1
 92
        0
176
     1
 66
     7
176
     1
 43
1.0
176
     1
 76
     1
176
     1
 77
     6
176
     1
 78
     2
176
     1
 67
     7
176
     1
 79
     5
176
     1
170
     0
176
     1
171
     0
176
     1
290
     0
176
     1
 93
       13
176
     1
 44
0.0
176
     1
173
     0
176
     1
1001
ACAD
1000
AcDbSavedByObjectVersion
1070
     0
  0
VISUALSTYLE
  5
8F8
102
{ACAD_XDICTIONARY
360
A9A
102
}
102
{ACAD_REACTORS
330
8F4
102
}
330
8F4
100
AcDbVisualStyle
  2
GouraudWithEdges
 70
     3
177
     2
291
     1
 71
     2
176
     1
 72
     2
176
     1
 73
     1
176
     1
 90
        2
176
     1
 40
0.6
176
     1
 41
30.0
176
     1
 63
     7
421
 16777215
176
     1
 74
     1
176
     1
 91
        0
176
     1
 64
     7
176
     1
 65
   257
176
     1
 75
     1
176
     1
175
     1
176
     1
 42
1.0
176
     1
 92
        0
176
     1
 66
   257
176
     1
 43
1.0
176
     1
 76
     1
176
     1
 77
     6
176
     1
 78
     2
176
     1
 67
     7
176
     1
 79
     5
176
     1
170
     0
176
     1
171
     0
176
     1
290
     0
176
     1
 93
       13
176
     1
 44
0.0
176
     1
173
     0
176
     1
1001
ACAD
1000
AcDbSavedByObjectVersion
1070
     0
  0
VISUALSTYLE
  5
8FC
102
{ACAD_XDICTIONARY
360
AA2
102
}
102
{ACAD_REACTORS
330
8F4
102
}
330
8F4
100
AcDbVisualStyle
  2
Hidden
 70
     6
177
     2
291
     0
 71
     1
176
     1
 72
     2
176
     1
 73
     2
176
     1
 90
        0
176
     1
 40
0.6
176
     1
 41
30.0
176
     1
 63
     7
421
 16777215
176
     1
 74
     2
176
     1
 91
        2
176
     1
 64
     7
176
     1
 65
   257
176
     1
 75
     2
176
     1
175
     1
176
     1
 42
40.0
176
     1
 92
        0
176
     1
 66
   257
176
     1
 43
1.0
176
     1
 76
     1
176
     1
 77
     6
176
     1
 78
     2
176
     1
 67
     7
176
     1
 79
     3
176
     1
170
     0
176
     1
171
     0
176
     1
290
     0
176
     1
 93
        1
176
     1
 44
0.0
176
     1
173
     0
176
     1
1001
ACAD
1000
AcDbSavedByObjectVersion
1070
     0
  0
VISUALSTYLE
  5
90A
102
{ACAD_XDICTIONARY
360
ABE
102
}
102
{ACAD_REACTORS
330
8F4
102
}
330
8F4
100
AcDbVisualStyle
  2
JitterOff
 70
    20
177
     2
291
     1
 71
     2
176
     0
 72
     2
176
     0
 73
     0
176
     0
 90
        0
176
     0
 40
0.6
176
     0
 41
30.0
176
     0
 63
     7
421
 16777215
176
     0
 74
     1
176
     0
 91
        4
176
     0
 64
     7
176
     0
 65
   257
176
     0
 75
     1
176
     0
175
     1
176
     0
 42
1.0
176
     0
 92
       10
176
     2
 66
     7
176
     0
 43
1.0
176
     0
 76
     1
176
     0
 77
     6
176
     0
 78
     2
176
     0
 67
     7
176
     0
 79
     5
176
     0
170
     0
176
     0
171
     0
176
     0
290
     0
176
     0
 93
        1
176
     0
 44
0.0
176
     0
173
     0
176
     0
1001
ACAD
1000
AcDbSavedByObjectVersion
1070
     0
  0
VISUALSTYLE
  5
902
102
{ACAD_XDICTIONARY
360
AAE
102
}
102
{ACAD_REACTORS
330
8F4
102
}
330
8F4
100
AcDbVisualStyle
  2
Linepattern
 70
    14
177
     2
291
     1
 71
     2
176
     1
 72
     2
176
     1
 73
     0
176
     1
 90
        0
176
     1
 40
0.6
176
     1
 41
30.0
176
     1
 63
     7
421
 16777215
176
     1
 74
     1
176
     1
 91
        4
176
     1
 64
     7
176
     1
 65
   257
176
     1
 75
     7
176
     1
175
     7
176
     1
 42
1.0
176
     1
 92
        8
176
     1
 66
     7
176
     1
 43
1.0
176
     1
 76
     1
176
     1
 77
     6
176
     1
 78
     2
176
     1
 67
     7
176
     1
 79
     5
176
     1
170
     0
176
     1
171
     0
176
     1
290
     0
176
     1
 93
        1
176
     1
 44
0.0
176
     1
173
     0
176
     1
1001
ACAD
1000
AcDbSavedByObjectVersion
1070
     0
  0
VISUALSTYLE
  5
90B
102
{ACAD_XDICTIONARY
360
AC0
102
}
102
{ACAD_REACTORS
330
8F4
102
}
330
8F4
100
AcDbVisualStyle
  2
OverhangOff
 70
    21
177
     2
291
     1
 71
     2
176
     0
 72
     2
176
     0
 73
     0
176
     0
 90
        0
176
     0
 40
0.6
176
     0
 41
30.0
176
     0
 63
     7
421
 16777215
176
     0
 74
     1
176
     0
 91
        4
176
     0
 64
     7
176
     0
 65
   257
176
     0
 75
     1
176
     0
175
     1
176
     0
 42
1.0
176
     0
 92
        9
176
     2
 66
     7
176
     0
 43
1.0
176
     0
 76
     1
176
     0
 77
     6
176
     0
 78
     2
176
     0
 67
     7
176
     0
 79
     5
176
     0
170
     0
176
     0
171
     0
176
     0
290
     0
176
     0
 93
        1
176
     0
 44
0.0
176
     0
173
     0
176
     0
1001
ACAD
1000
AcDbSavedByObjectVersion
1070
     0
  0
VISUALSTYLE
  5
8FE
102
{ACAD_XDICTIONARY
360
AA6
102
}
102
{ACAD_REACTORS
330
8F4
102
}
330
8F4
100
AcDbVisualStyle
  2
Realistic
 70
     8
177
     2
291
     0
 71
     2
176
     1
 72
     3
176
     1
 73
     0
176
     1
 90
        2
176
     1
 40
0.6
176
     1
 41
30.0
176
     1
 63
     7
421
 16777215
176
     1
 74
     0
176
     1
 91
        0
176
     1
 64
     7
176
     1
 65
   257
176
     1
 75
     1
176
     1
175
     1
176
     1
 42
1.0
176
     1
 92
        8
176
     1
 66
   257
176
     1
 43
1.0
176
     1
 76
     1
176
     1
 77
     6
176
     1
 78
     2
176
     1
 67
     7
176
     1
 79
     3
176
     1
170
     0
176
     1
171
     0
176
     1
290
     0
176
     1
 93
       13
176
     1
 44
0.0
176
     1
173
     0
176
     1
1001
ACAD
1000
AcDbSavedByObjectVersion
1070
     0
  0
VISUALSTYLE
  5
909
102
{ACAD_XDICTIONARY
360
ABC
102
}
102
{ACAD_REACTORS
330
8F4
102
}
330
8F4
100
AcDbVisualStyle
  2
Shaded
 70
    27
177
     2
291
     0
 71
     2
176
     1
 72
     2
176
     1
 73
     1
176
     1
 90
        2
176
     1
 40
0.6
176
     1
 41
30.0
176
     1
 63
     7
421
 16777215
176
     1
 74
     0
176
     1
 91
        4
176
     1
 64
     7
176
     1
 65
   257
176
     1
 75
     1
176
     1
175
     1
176
     1
 42
1.0
176
     1
 92
        8
176
     1
 66
   257
176
     1
 43
1.0
176
     1
 76
     1
176
     1
 77
     6
176
     1
 78
     2
176
     1
 67
     8
425
  7895160
176
     1
 79
     3
176
     1
170
     0
176
     1
171
     0
176
     1
290
     0
176
     1
 93
        5
176
     1
 44
0.0
176
     1
173
     0
176
     1
1001
ACAD
1000
AcDbSavedByObjectVersion
1070
     0
  0
VISUALSTYLE
  5
908
102
{ACAD_XDICTIONARY
360
ABA
102
}
102
{ACAD_REACTORS
330
8F4
102
}
330
8F4
100
AcDbVisualStyle
  2
Shaded with edges
 70
    26
177
     2
291
     0
 71
     2
176
     1
 72
     2
176
     1
 73
     1
176
     1
 90
        2
176
     1
 40
0.6
176
     1
 41
30.0
176
     1
 63
     7
421
 16777215
176
     1
 74
     1
176
     1
 91
        2
176
     1
 64
     7
176
     1
 65
   257
176
     1
 75
     2
176
     1
175
     1
176
     1
 42
1.0
176
     1
 92
        8
176
     1
 66
   257
176
     1
 43
1.0
176
     1
 76
     1
176
     1
 77
     6
176
     1
 78
     2
176
     1
 67
     7
176
     1
 79
     3
176
     1
170
     0
176
     1
171
     0
176
     1
290
     0
176
     1
 93
        5
176
     1
 44
0.0
176
     1
173
     0
176
     1
1001
ACAD
1000
AcDbSavedByObjectVersion
1070
     0
  0
VISUALSTYLE
  5
905
102
{ACAD_XDICTIONARY
360
AB4
102
}
102
{ACAD_REACTORS
330
8F4
102
}
330
8F4
100
AcDbVisualStyle
  2
Shades of Gray
 70
    23
177
     2
291
     0
 71
     2
176
     1
 72
     2
176
     1
 73
     3
176
     1
 90
        0
176
     1
 40
0.6
176
     1
 41
30.0
176
     1
 63
     7
421
 16777215
176
     1
 74
     2
176
     1
 91
        2
176
     1
 64
     7
176
     1
 65
     7
176
     1
 75
     1
176
     1
175
     1
176
     1
 42
40.0
176
     1
 92
        8
176
     1
 66
     7
176
     1
 43
1.0
176
     1
 76
     1
176
     1
 77
     6
176
     1
 78
     2
176
     1
 67
     7
176
     1
 79
     3
176
     1
170
     0
176
     1
171
     0
176
     1
290
     0
176
     1
 93
        1
176
     1
 44
0.0
176
     1
173
     0
176
     1
1001
ACAD
1000
AcDbSavedByObjectVersion
1070
     0
  0
VISUALSTYLE
  5
906
102
{ACAD_XDICTIONARY
360
AB6
102
}
102
{ACAD_REACTORS
330
8F4
102
}
330
8F4
100
AcDbVisualStyle
  2
Sketchy
 70
    24
177
     2
291
     0
 71
     1
176
     1
 72
     2
176
     1
 73
     2
176
     1
 90
        0
176
     1
 40
0.6
176
     1
 41
30.0
176
     1
 63
     7
421
 16777215
176
     1
 74
     2
176
     1
 91
        2
176
     1
 64
     7
176
     1
 65
     7
176
     1
 75
     1
176
     1
175
     1
176
     1
 42
40.0
176
     1
 92
       11
176
     1
 66
     7
176
     1
 43
1.0
176
     1
 76
     1
176
     1
 77
     6
176
     1
 78
     2
176
     1
 67
     7
176
     1
 79
     6
176
     1
170
     0
176
     1
171
     0
176
     1
290
     0
176
     1
 93
        1
176
     1
 44
0.0
176
     1
173
     0
176
     1
1001
ACAD
1000
AcDbSavedByObjectVersion
1070
     0
  0
VISUALSTYLE
  5
901
102
{ACAD_XDICTIONARY
360
AAC
102
}
102
{ACAD_REACTORS
330
8F4
102
}
330
8F4
100
AcDbVisualStyle
  2
Thicken
 70
    13
177
     2
291
     1
 71
     2
176
     1
 72
     2
176
     1
 73
     0
176
     1
 90
        0
176
     1
 40
0.6
176
     1
 41
30.0
176
     1
 63
     7
421
 16777215
176
     1
 74
     1
176
     1
 91
        4
176
     1
 64
     7
176
     1
 65
   257
176
     1
 75
     1
176
     1
175
     1
176
     1
 42
1.0
176
     1
 92
       12
176
     1
 66
     7
176
     1
 43
1.0
176
     1
 76
     1
176
     1
 77
     6
176
     1
 78
     2
176
     1
 67
     7
176
     1
 79
     5
176
     1
170
     0
176
     1
171
     0
176
     1
290
     0
176
     1
 93
        1
176
     1
 44
0.0
176
     1
173
     0
176
     1
1001
ACAD
1000
AcDbSavedByObjectVersion
1070
     0
  0
VISUALSTYLE
  5
8FB
102
{ACAD_XDICTIONARY
360
AA0
102
}
102
{ACAD_REACTORS
330
8F4
102
}
330
8F4
100
AcDbVisualStyle
  2
Wireframe
 70
     5
177
     2
291
     0
 71
     0
176
     1
 72
     2
176
     1
 73
     0
176
     1
 90
        0
176
     1
 40
0.6
176
     1
 41
30.0
176
     1
 63
     7
421
 16777215
176
     1
 74
     1
176
     1
 91
        4
176
     1
 64
     7
176
     1
 65
   257
176
     1
 75
     1
176
     1
175
     1
176
     1
 42
1.0
176
     1
 92
        0
176
     1
 66
   257
176
     1
 43
1.0
176
     1
 76
     1
176
     1
 77
     6
176
     1
 78
     2
176
     1
 67
     7
176
     1
 79
     3
176
     1
170
     0
176
     1
171
     0
176
     1
290
     0
176
     1
 93
        1
176
     1
 44
0.0
176
     1
173
     0
176
     1
1001
ACAD
1000
AcDbSavedByObjectVersion
1070
     0
  0
VISUALSTYLE
  5
907
102
{ACAD_XDICTIONARY
360
AB8
102
}
102
{ACAD_REACTORS
330
8F4
102
}
330
8F4
100
AcDbVisualStyle
  2
X-Ray
 70
    25
177
     2
291
     0
 71
     2
176
     1
 72
     2
176
     1
 73
     1
176
     1
 90
        1
176
     1
 40
0.5
176
     1
 41
30.0
176
     1
 63
     7
421
 16777215
176
     1
 74
     1
176
     1
 91
        0
176
     1
 64
     7
176
     1
 65
   257
176
     1
 75
     1
176
     1
175
     1
176
     1
 42
1.0
176
     1
 92
        8
176
     1
 66
     7
176
     1
 43
1.0
176
     1
 76
     1
176
     1
 77
     6
176
     1
 78
     2
176
     1
 67
     7
176
     1
 79
     3
176
     1
170
     0
176
     1
171
     0
176
     1
290
     0
176
     1
 93
       13
176
     1
 44
0.0
176
     1
173
     0
176
     1
1001
ACAD
1000
AcDbSavedByObjectVersion
1070
     0
  0
DICTIONARYVAR
  5
A8C
102
{ACAD_REACTORS
330
A86
102
}
330
A86
100
DictionaryVariables
280
     0
  1
1:1
  0
DICTIONARYVAR
  5
A88
102
{ACAD_REACTORS
330
A86
102
}
330
A86
100
DictionaryVariables
280
     0
  1
STANDARD
  0
DICTIONARYVAR
  5
A87
102
{ACAD_REACTORS
330
A86
102
}
330
A86
100
DictionaryVariables
280
     0
  1
STANDARD
  0
DICTIONARYVAR
  5
A89
102
{ACAD_REACTORS
330
A86
102
}
330
A86
100
DictionaryVariables
280
     0
  1
Imperial24
  0
DICTIONARYVAR
  5
A8A
102
{ACAD_REACTORS
330
A86
102
}
330
A86
100
DictionaryVariables
280
     0
  1
Imperial24
  0
DICTIONARYVAR
  5
A8E
102
{ACAD_REACTORS
330
A86
102
}
330
A86
100
DictionaryVariables
280
     0
  1
1
  0
DICTIONARYVAR
  5
A8F
102
{ACAD_REACTORS
330
A86
102
}
330
A86
100
DictionaryVariables
280
     0
  1
15
  0
DICTIONARYVAR
  5
A8D
102
{ACAD_REACTORS
330
A86
102
}
330
A86
100
DictionaryVariables
280
     0
  1
0
  0
DICTIONARYVAR
  5
A8B
102
{ACAD_REACTORS
330
A86
102
}
330
A86
100
DictionaryVariables
280
     0
  1
0
  0
DICTIONARY
  5
AC6
330
935
100
AcDbDictionary
280
     1
281
     1
  3
ACAD_XREC_ROUNDTRIP
360
AC7
  0
DICTIONARY
  5
8E5
330
8E4
100
AcDbDictionary
280
     1
281
     1
  3
BUMPTILE
360
8E7
  3
DIFFUSETILE
360
8E6
  3
OPACITYTILE
360
8EA
  3
REFLECTIONTILE
360
8E9
  3
REFRACTIONTILE
360
8EB
  3
SPECULARTILE
360
8E8
  0
DICTIONARY
  5
8DD
330
8DC
100
AcDbDictionary
280
     1
281
     1
  3
BUMPTILE
360
8DF
  3
DIFFUSETILE
360
8DE
  3
OPACITYTILE
360
8E2
  3
REFLECTIONTILE
360
8E1
  3
REFRACTIONTILE
360
8E3
  3
SPECULARTILE
360
8E0
  0
DICTIONARY
  5
8ED
330
8EC
100
AcDbDictionary
280
     1
281
     1
  3
BUMPTILE
360
8EF
  3
DIFFUSETILE
360
8EE
  3
OPACITYTILE
360
8F2
  3
REFLECTIONTILE
360
8F1
  3
REFRACTIONTILE
360
8F3
  3
SPECULARTILE
360
8F0
  0
DICTIONARY
  5
AC4
330
933
100
AcDbDictionary
280
     1
281
     1
  3
ACAD_XREC_ROUNDTRIP
360
AC5
  0
DICTIONARY
  5
A91
330
92F
100
AcDbDictionary
280
     1
281
     1
  3
ACAD_ROUNDTRIP_2008_TABLESTYLE_CELLSTYLEMAP
360
A92
  0
DICTIONARY
  5
A9E
330
8FA
100
AcDbDictionary
280
     1
281
     1
  3
ACAD_XREC_ROUNDTRIP
360
A9F
  0
DICTIONARY
  5
A9C
330
8F9
100
AcDbDictionary
280
     1
281
     1
  3
ACAD_XREC_ROUNDTRIP
360
A9D
  0
DICTIONARY
  5
AAA
330
900
100
AcDbDictionary
280
     1
281
     1
  3
ACAD_XREC_ROUNDTRIP
360
AAB
  0
DICTIONARY
  5
AB2
330
904
100
AcDbDictionary
280
     1
281
     1
  3
ACAD_XREC_ROUNDTRIP
360
AB3
  0
DICTIONARY
  5
AA4
330
8FD
100
AcDbDictionary
280
     1
281
     1
  3
ACAD_XREC_ROUNDTRIP
360
AA5
  0
DICTIONARY
  5
AA8
330
8FF
100
AcDbDictionary
280
     1
281
     1
  3
ACAD_XREC_ROUNDTRIP
360
AA9
  0
DICTIONARY
  5
AC2
330
90C
100
AcDbDictionary
280
     1
281
     1
  3
ACAD_XREC_ROUNDTRIP
360
AC3
  0
DICTIONARY
  5
AB0
330
903
100
AcDbDictionary
280
     1
281
     1
  3
ACAD_XREC_ROUNDTRIP
360
AB1
  0
DICTIONARY
  5
A94
330
8F5
100
AcDbDictionary
280
     1
281
     1
  3
ACAD_XREC_ROUNDTRIP
360
A95
  0
DICTIONARY
  5
A96
330
8F6
100
AcDbDictionary
280
     1
281
     1
  3
ACAD_XREC_ROUNDTRIP
360
A97
  0
DICTIONARY
  5
A98
330
8F7
100
AcDbDictionary
280
     1
281
     1
  3
ACAD_XREC_ROUNDTRIP
360
A99
  0
DICTIONARY
  5
A9A
330
8F8
100
AcDbDictionary
280
     1
281
     1
  3
ACAD_XREC_ROUNDTRIP
360
A9B
  0
DICTIONARY
  5
AA2
330
8FC
100
AcDbDictionary
280
     1
281
     1
  3
ACAD_XREC_ROUNDTRIP
360
AA3
  0
DICTIONARY
  5
ABE
330
90A
100
AcDbDictionary
280
     1
281
     1
  3
ACAD_XREC_ROUNDTRIP
360
ABF
  0
DICTIONARY
  5
AAE
330
902
100
AcDbDictionary
280
     1
281
     1
  3
ACAD_XREC_ROUNDTRIP
360
AAF
  0
DICTIONARY
  5
AC0
330
90B
100
AcDbDictionary
280
     1
281
     1
  3
ACAD_XREC_ROUNDTRIP
360
AC1
  0
DICTIONARY
  5
AA6
330
8FE
100
AcDbDictionary
280
     1
281
     1
  3
ACAD_XREC_ROUNDTRIP
360
AA7
  0
DICTIONARY
  5
ABC
330
909
100
AcDbDictionary
280
     1
281
     1
  3
ACAD_XREC_ROUNDTRIP
360
ABD
  0
DICTIONARY
  5
ABA
330
908
100
AcDbDictionary
280
     1
281
     1
  3
ACAD_XREC_ROUNDTRIP
360
ABB
  0
DICTIONARY
  5
AB4
330
905
100
AcDbDictionary
280
     1
281
     1
  3
ACAD_XREC_ROUNDTRIP
360
AB5
  0
DICTIONARY
  5
AB6
330
906
100
AcDbDictionary
280
     1
281
     1
  3
ACAD_XREC_ROUNDTRIP
360
AB7
  0
DICTIONARY
  5
AAC
330
901
100
AcDbDictionary
280
     1
281
     1
  3
ACAD_XREC_ROUNDTRIP
360
AAD
  0
DICTIONARY
  5
AA0
330
8FB
100
AcDbDictionary
280
     1
281
     1
  3
ACAD_XREC_ROUNDTRIP
360
AA1
  0
DICTIONARY
  5
AB8
330
907
100
AcDbDictionary
280
     1
281
     1
  3
ACAD_XREC_ROUNDTRIP
360
AB9
  0
XRECORD
  5
AC7
102
{ACAD_REACTORS
330
AC6
102
}
330
AC6
100
AcDbXrecord
280
     1
102
DISPLAYNAME
  1
Imperial24
102
FLAGS
 90
        0
  0
XRECORD
  5
8E7
102
{ACAD_REACTORS
330
8E5
102
}
330
8E5
100
AcDbXrecord
280
     1
270
     1
271
     1
  0
XRECORD
  5
8E6
102
{ACAD_REACTORS
330
8E5
102
}
330
8E5
100
AcDbXrecord
280
     1
270
     1
271
     1
  0
XRECORD
  5
8EA
102
{ACAD_REACTORS
330
8E5
102
}
330
8E5
100
AcDbXrecord
280
     1
270
     1
271
     1
  0
XRECORD
  5
8E9
102
{ACAD_REACTORS
330
8E5
102
}
330
8E5
100
AcDbXrecord
280
     1
270
     1
271
     1
  0
XRECORD
  5
8EB
102
{ACAD_REACTORS
330
8E5
102
}
330
8E5
100
AcDbXrecord
280
     1
270
     1
271
     1
  0
XRECORD
  5
8E8
102
{ACAD_REACTORS
330
8E5
102
}
330
8E5
100
AcDbXrecord
280
     1
270
     1
271
     1
  0
XRECORD
  5
8DF
102
{ACAD_REACTORS
330
8DD
102
}
330
8DD
100
AcDbXrecord
280
     1
270
     1
271
     1
  0
XRECORD
  5
8DE
102
{ACAD_REACTORS
330
8DD
102
}
330
8DD
100
AcDbXrecord
280
     1
270
     1
271
     1
  0
XRECORD
  5
8E2
102
{ACAD_REACTORS
330
8DD
102
}
330
8DD
100
AcDbXrecord
280
     1
270
     1
271
     1
  0
XRECORD
  5
8E1
102
{ACAD_REACTORS
330
8DD
102
}
330
8DD
100
AcDbXrecord
280
     1
270
     1
271
     1
  0
XRECORD
  5
8E3
102
{ACAD_REACTORS
330
8DD
102
}
330
8DD
100
AcDbXrecord
280
     1
270
     1
271
     1
  0
XRECORD
  5
8E0
102
{ACAD_REACTORS
330
8DD
102
}
330
8DD
100
AcDbXrecord
280
     1
270
     1
271
     1
  0
XRECORD
  5
8EF
102
{ACAD_REACTORS
330
8ED
102
}
330
8ED
100
AcDbXrecord
280
     1
270
     1
271
     1
  0
XRECORD
  5
8EE
102
{ACAD_REACTORS
330
8ED
102
}
330
8ED
100
AcDbXrecord
280
     1
270
     1
271
     1
  0
XRECORD
  5
8F2
102
{ACAD_REACTORS
330
8ED
102
}
330
8ED
100
AcDbXrecord
280
     1
270
     1
271
     1
  0
XRECORD
  5
8F1
102
{ACAD_REACTORS
330
8ED
102
}
330
8ED
100
AcDbXrecord
280
     1
270
     1
271
     1
  0
XRECORD
  5
8F3
102
{ACAD_REACTORS
330
8ED
102
}
330
8ED
100
AcDbXrecord
280
     1
270
     1
271
     1
  0
XRECORD
  5
8F0
102
{ACAD_REACTORS
330
8ED
102
}
330
8ED
100
AcDbXrecord
280
     1
270
     1
271
     1
  0
XRECORD
  5
AC5
102
{ACAD_REACTORS
330
AC4
102
}
330
AC4
100
AcDbXrecord
280
     1
102
DISPLAYNAME
  1
Imperial24
102
FLAGS
 90
        0
  0
CELLSTYLEMAP
  5
A92
102
{ACAD_REACTORS
330
A91
102
}
330
A91
100
AcDbCellStyleMap
 90
        3
300
CELLSTYLE
  1
TABLEFORMAT_BEGIN
 90
        5
170
     1
 91
        0
 92
    32768
 62
   257
 93
        1
300
CONTENTFORMAT
  1
CONTENTFORMAT_BEGIN
 90
        0
 91
        0
 92
      512
 93
        0
300

 40
0.0
140
1.0
 94
        5
 62
     0
340
920
144
0.25
309
CONTENTFORMAT_END
171
     0
 94
        0
309
TABLEFORMAT_END
  1
CELLSTYLE_BEGIN
 90
        1
 91
        1
300
_TITLE
309
CELLSTYLE_END
300
CELLSTYLE
  1
TABLEFORMAT_BEGIN
 90
        5
170
     1
 91
        0
 92
        0
 62
   257
 93
        1
300
CONTENTFORMAT
  1
CONTENTFORMAT_BEGIN
 90
        0
 91
        0
 92
      512
 93
        0
300

 40
0.0
140
1.0
 94
        5
 62
     0
340
920
144
0.18
309
CONTENTFORMAT_END
171
     0
 94
        0
309
TABLEFORMAT_END
  1
CELLSTYLE_BEGIN
 90
        2
 91
        1
300
_HEADER
309
CELLSTYLE_END
300
CELLSTYLE
  1
TABLEFORMAT_BEGIN
 90
        5
170
     1
 91
        0
 92
        0
 62
   257
 93
        1
300
CONTENTFORMAT
  1
CONTENTFORMAT_BEGIN
 90
        0
 91
        0
 92
      512
 93
        0
300

 40
0.0
140
1.0
 94
        2
 62
     0
340
920
144
0.18
309
CONTENTFORMAT_END
171
     0
 94
        0
309
TABLEFORMAT_END
  1
CELLSTYLE_BEGIN
 90
        3
 91
        2
300
_DATA
309
CELLSTYLE_END
  0
XRECORD
  5
A9F
102
{ACAD_REACTORS
330
A9E
102
}
330
A9E
100
AcDbXrecord
280
     1
102
RTVSPost2010Prop28
280
     1
102
RTVSPost2010PropOp28
 70
     1
102
RTVSPost2010Prop29
280
     1
102
RTVSPost2010PropOp29
 70
     1
102
RTVSPost2010Prop30
280
     0
102
RTVSPost2010PropOp30
 70
     1
102
RTVSPost2010Prop31
280
     0
102
RTVSPost2010PropOp31
 70
     1
102
RTVSPost2010Prop32
280
     0
102
RTVSPost2010PropOp32
 70
     1
102
RTVSPost2010Prop33
280
     0
102
RTVSPost2010PropOp33
 70
     1
102
RTVSPost2010Prop34
280
     0
102
RTVSPost2010PropOp34
 70
     1
102
RTVSPost2010Prop35
280
     0
102
RTVSPost2010PropOp35
 70
     1
102
RTVSPost2010Prop36
280
     0
102
RTVSPost2010PropOp36
 70
     1
102
RTVSPost2010Prop37
 90
       50
102
RTVSPost2010PropOp37
 70
     1
102
RTVSPost2010Prop38
140
0.0
102
RTVSPost2010PropOp38
 70
     1
102
RTVSPost2010Prop39
140
1.0
102
RTVSPost2010PropOp39
 70
     1
102
RTVSPost2010Prop40
 90
        0
102
RTVSPost2010PropOp40
 70
     1
102
RTVSPost2010Prop41ColorIndex
 90
       18
102
RTVSPost2010Prop41ColorRGB
 90
        0
102
RTVSPost2010PropOp41
 70
     1
102
RTVSPost2010Prop42
 90
       50
102
RTVSPost2010PropOp42
 70
     1
102
RTVSPost2010Prop43
 90
        3
102
RTVSPost2010PropOp43
 70
     1
102
RTVSPost2010Prop44ColorIndex
 90
        5
102
RTVSPost2010Prop44ColorRGB
 90
      255
102
RTVSPost2010PropOp44
 70
     1
102
RTVSPost2010Prop45
280
     0
102
RTVSPost2010PropOp45
 70
     1
102
RTVSPost2010Prop46
 90
       50
102
RTVSPost2010PropOp46
 70
     1
102
RTVSPost2010Prop47
 90
       50
102
RTVSPost2010PropOp47
 70
     1
102
RTVSPost2010Prop48
 90
       50
102
RTVSPost2010PropOp48
 70
     1
102
RTVSPost2010Prop49
280
     0
102
RTVSPost2010PropOp49
 70
     1
102
RTVSPost2010Prop50
 90
       50
102
RTVSPost2010PropOp50
 70
     1
102
RTVSPost2010Prop51ColorIndex
 90
      256
102
RTVSPost2010Prop51ColorRGB
 90
-16777216
102
RTVSPost2010PropOp51
 70
     0
102
RTVSPost2010Prop52
140
1.0
102
RTVSPost2010PropOp52
 70
     0
102
RTVSPost2010Prop53
 90
        2
102
RTVSPost2010PropOp53
 70
     1
102
RTVSPost2010Prop54
  1
strokes_ogs.tif
102
RTVSPost2010PropOp54
 70
     1
102
RTVSPost2010Prop55
280
     0
102
RTVSPost2010PropOp55
 70
     1
102
RTVSPost2010Prop56
140
1.0
102
RTVSPost2010PropOp56
 70
     1
102
RTVSPost2010Prop57
140
1.0
102
RTVSPost2010PropOp57
 70
     1
  0
XRECORD
  5
A9D
102
{ACAD_REACTORS
330
A9C
102
}
330
A9C
100
AcDbXrecord
280
     1
102
RTVSPost2010Prop28
280
     0
102
RTVSPost2010PropOp28
 70
     1
102
RTVSPost2010Prop29
280
     1
102
RTVSPost2010PropOp29
 70
     1
102
RTVSPost2010Prop30
280
     1
102
RTVSPost2010PropOp30
 70
     1
102
RTVSPost2010Prop31
280
     0
102
RTVSPost2010PropOp31
 70
     1
102
RTVSPost2010Prop32
280
     0
102
RTVSPost2010PropOp32
 70
     1
102
RTVSPost2010Prop33
280
     0
102
RTVSPost2010PropOp33
 70
     1
102
RTVSPost2010Prop34
280
     0
102
RTVSPost2010PropOp34
 70
     1
102
RTVSPost2010Prop35
280
     0
102
RTVSPost2010PropOp35
 70
     1
102
RTVSPost2010Prop36
280
     0
102
RTVSPost2010PropOp36
 70
     1
102
RTVSPost2010Prop37
 90
       50
102
RTVSPost2010PropOp37
 70
     1
102
RTVSPost2010Prop38
140
0.0
102
RTVSPost2010PropOp38
 70
     1
102
RTVSPost2010Prop39
140
1.0
102
RTVSPost2010PropOp39
 70
     1
102
RTVSPost2010Prop40
 90
        0
102
RTVSPost2010PropOp40
 70
     1
102
RTVSPost2010Prop41ColorIndex
 90
       18
102
RTVSPost2010Prop41ColorRGB
 90
        0
102
RTVSPost2010PropOp41
 70
     1
102
RTVSPost2010Prop42
 90
       50
102
RTVSPost2010PropOp42
 70
     1
102
RTVSPost2010Prop43
 90
        3
102
RTVSPost2010PropOp43
 70
     1
102
RTVSPost2010Prop44ColorIndex
 90
        5
102
RTVSPost2010Prop44ColorRGB
 90
      255
102
RTVSPost2010PropOp44
 70
     1
102
RTVSPost2010Prop45
280
     0
102
RTVSPost2010PropOp45
 70
     1
102
RTVSPost2010Prop46
 90
       50
102
RTVSPost2010PropOp46
 70
     1
102
RTVSPost2010Prop47
 90
       50
102
RTVSPost2010PropOp47
 70
     1
102
RTVSPost2010Prop48
 90
       50
102
RTVSPost2010PropOp48
 70
     1
102
RTVSPost2010Prop49
280
     0
102
RTVSPost2010PropOp49
 70
     1
102
RTVSPost2010Prop50
 90
       50
102
RTVSPost2010PropOp50
 70
     1
102
RTVSPost2010Prop51ColorIndex
 90
      256
102
RTVSPost2010Prop51ColorRGB
 90
-16777216
102
RTVSPost2010PropOp51
 70
     0
102
RTVSPost2010Prop52
140
1.0
102
RTVSPost2010PropOp52
 70
     0
102
RTVSPost2010Prop53
 90
        2
102
RTVSPost2010PropOp53
 70
     1
102
RTVSPost2010Prop54
  1
strokes_ogs.tif
102
RTVSPost2010PropOp54
 70
     1
102
RTVSPost2010Prop55
280
     0
102
RTVSPost2010PropOp55
 70
     1
102
RTVSPost2010Prop56
140
1.0
102
RTVSPost2010PropOp56
 70
     1
102
RTVSPost2010Prop57
140
1.0
102
RTVSPost2010PropOp57
 70
     1
  0
XRECORD
  5
AAB
102
{ACAD_REACTORS
330
AAA
102
}
330
AAA
100
AcDbXrecord
280
     1
102
RTVSPost2010Prop28
280
     0
102
RTVSPost2010PropOp28
 70
     1
102
RTVSPost2010Prop29
280
     1
102
RTVSPost2010PropOp29
 70
     1
102
RTVSPost2010Prop30
280
     1
102
RTVSPost2010PropOp30
 70
     1
102
RTVSPost2010Prop31
280
     0
102
RTVSPost2010PropOp31
 70
     1
102
RTVSPost2010Prop32
280
     0
102
RTVSPost2010PropOp32
 70
     1
102
RTVSPost2010Prop33
280
     0
102
RTVSPost2010PropOp33
 70
     1
102
RTVSPost2010Prop34
280
     0
102
RTVSPost2010PropOp34
 70
     1
102
RTVSPost2010Prop35
280
     0
102
RTVSPost2010PropOp35
 70
     1
102
RTVSPost2010Prop36
280
     0
102
RTVSPost2010PropOp36
 70
     1
102
RTVSPost2010Prop37
 90
       50
102
RTVSPost2010PropOp37
 70
     1
102
RTVSPost2010Prop38
140
0.0
102
RTVSPost2010PropOp38
 70
     1
102
RTVSPost2010Prop39
140
1.0
102
RTVSPost2010PropOp39
 70
     1
102
RTVSPost2010Prop40
 90
        0
102
RTVSPost2010PropOp40
 70
     1
102
RTVSPost2010Prop41ColorIndex
 90
       18
102
RTVSPost2010Prop41ColorRGB
 90
        0
102
RTVSPost2010PropOp41
 70
     1
102
RTVSPost2010Prop42
 90
       50
102
RTVSPost2010PropOp42
 70
     1
102
RTVSPost2010Prop43
 90
        3
102
RTVSPost2010PropOp43
 70
     1
102
RTVSPost2010Prop44ColorIndex
 90
        5
102
RTVSPost2010Prop44ColorRGB
 90
      255
102
RTVSPost2010PropOp44
 70
     1
102
RTVSPost2010Prop45
280
     0
102
RTVSPost2010PropOp45
 70
     1
102
RTVSPost2010Prop46
 90
       50
102
RTVSPost2010PropOp46
 70
     1
102
RTVSPost2010Prop47
 90
       50
102
RTVSPost2010PropOp47
 70
     1
102
RTVSPost2010Prop48
 90
       50
102
RTVSPost2010PropOp48
 70
     1
102
RTVSPost2010Prop49
280
     0
102
RTVSPost2010PropOp49
 70
     1
102
RTVSPost2010Prop50
 90
       50
102
RTVSPost2010PropOp50
 70
     1
102
RTVSPost2010Prop51ColorIndex
 90
      256
102
RTVSPost2010Prop51ColorRGB
 90
-16777216
102
RTVSPost2010PropOp51
 70
     0
102
RTVSPost2010Prop52
140
1.0
102
RTVSPost2010PropOp52
 70
     0
102
RTVSPost2010Prop53
 90
        2
102
RTVSPost2010PropOp53
 70
     1
102
RTVSPost2010Prop54
  1
strokes_ogs.tif
102
RTVSPost2010PropOp54
 70
     1
102
RTVSPost2010Prop55
280
     0
102
RTVSPost2010PropOp55
 70
     1
102
RTVSPost2010Prop56
140
1.0
102
RTVSPost2010PropOp56
 70
     1
102
RTVSPost2010Prop57
140
1.0
102
RTVSPost2010PropOp57
 70
     1
  0
XRECORD
  5
AB3
102
{ACAD_REACTORS
330
AB2
102
}
330
AB2
100
AcDbXrecord
280
     1
102
RTVSPost2010Prop28
280
     0
102
RTVSPost2010PropOp28
 70
     1
102
RTVSPost2010Prop29
280
     1
102
RTVSPost2010PropOp29
 70
     1
102
RTVSPost2010Prop30
280
     1
102
RTVSPost2010PropOp30
 70
     1
102
RTVSPost2010Prop31
280
     0
102
RTVSPost2010PropOp31
 70
     1
102
RTVSPost2010Prop32
280
     0
102
RTVSPost2010PropOp32
 70
     1
102
RTVSPost2010Prop33
280
     0
102
RTVSPost2010PropOp33
 70
     1
102
RTVSPost2010Prop34
280
     0
102
RTVSPost2010PropOp34
 70
     1
102
RTVSPost2010Prop35
280
     0
102
RTVSPost2010PropOp35
 70
     1
102
RTVSPost2010Prop36
280
     0
102
RTVSPost2010PropOp36
 70
     1
102
RTVSPost2010Prop37
 90
       50
102
RTVSPost2010PropOp37
 70
     1
102
RTVSPost2010Prop38
140
0.0
102
RTVSPost2010PropOp38
 70
     1
102
RTVSPost2010Prop39
140
1.0
102
RTVSPost2010PropOp39
 70
     1
102
RTVSPost2010Prop40
 90
        0
102
RTVSPost2010PropOp40
 70
     1
102
RTVSPost2010Prop41ColorIndex
 90
       18
102
RTVSPost2010Prop41ColorRGB
 90
        0
102
RTVSPost2010PropOp41
 70
     1
102
RTVSPost2010Prop42
 90
       50
102
RTVSPost2010PropOp42
 70
     1
102
RTVSPost2010Prop43
 90
        3
102
RTVSPost2010PropOp43
 70
     1
102
RTVSPost2010Prop44ColorIndex
 90
        5
102
RTVSPost2010Prop44ColorRGB
 90
      255
102
RTVSPost2010PropOp44
 70
     1
102
RTVSPost2010Prop45
280
     0
102
RTVSPost2010PropOp45
 70
     1
102
RTVSPost2010Prop46
 90
       50
102
RTVSPost2010PropOp46
 70
     1
102
RTVSPost2010Prop47
 90
       50
102
RTVSPost2010PropOp47
 70
     1
102
RTVSPost2010Prop48
 90
       50
102
RTVSPost2010PropOp48
 70
     1
102
RTVSPost2010Prop49
280
     0
102
RTVSPost2010PropOp49
 70
     1
102
RTVSPost2010Prop50
 90
       50
102
RTVSPost2010PropOp50
 70
     1
102
RTVSPost2010Prop51ColorIndex
 90
      256
102
RTVSPost2010Prop51ColorRGB
 90
-16777216
102
RTVSPost2010PropOp51
 70
     0
102
RTVSPost2010Prop52
140
1.0
102
RTVSPost2010PropOp52
 70
     0
102
RTVSPost2010Prop53
 90
        2
102
RTVSPost2010PropOp53
 70
     1
102
RTVSPost2010Prop54
  1
strokes_ogs.tif
102
RTVSPost2010PropOp54
 70
     1
102
RTVSPost2010Prop55
280
     0
102
RTVSPost2010PropOp55
 70
     1
102
RTVSPost2010Prop56
140
1.0
102
RTVSPost2010PropOp56
 70
     1
102
RTVSPost2010Prop57
140
1.0
102
RTVSPost2010PropOp57
 70
     1
  0
XRECORD
  5
AA5
102
{ACAD_REACTORS
330
AA4
102
}
330
AA4
100
AcDbXrecord
280
     1
102
RTVSPost2010Prop28
280
     0
102
RTVSPost2010PropOp28
 70
     1
102
RTVSPost2010Prop29
280
     1
102
RTVSPost2010PropOp29
 70
     1
102
RTVSPost2010Prop30
280
     1
102
RTVSPost2010PropOp30
 70
     1
102
RTVSPost2010Prop31
280
     0
102
RTVSPost2010PropOp31
 70
     1
102
RTVSPost2010Prop32
280
     0
102
RTVSPost2010PropOp32
 70
     1
102
RTVSPost2010Prop33
280
     0
102
RTVSPost2010PropOp33
 70
     1
102
RTVSPost2010Prop34
280
     0
102
RTVSPost2010PropOp34
 70
     1
102
RTVSPost2010Prop35
280
     0
102
RTVSPost2010PropOp35
 70
     1
102
RTVSPost2010Prop36
280
     0
102
RTVSPost2010PropOp36
 70
     1
102
RTVSPost2010Prop37
 90
       50
102
RTVSPost2010PropOp37
 70
     1
102
RTVSPost2010Prop38
140
0.0
102
RTVSPost2010PropOp38
 70
     1
102
RTVSPost2010Prop39
140
1.0
102
RTVSPost2010PropOp39
 70
     1
102
RTVSPost2010Prop40
 90
        0
102
RTVSPost2010PropOp40
 70
     1
102
RTVSPost2010Prop41ColorIndex
 90
       18
102
RTVSPost2010Prop41ColorRGB
 90
        0
102
RTVSPost2010PropOp41
 70
     1
102
RTVSPost2010Prop42
 90
       50
102
RTVSPost2010PropOp42
 70
     1
102
RTVSPost2010Prop43
 90
        3
102
RTVSPost2010PropOp43
 70
     1
102
RTVSPost2010Prop44ColorIndex
 90
        5
102
RTVSPost2010Prop44ColorRGB
 90
      255
102
RTVSPost2010PropOp44
 70
     1
102
RTVSPost2010Prop45
280
     0
102
RTVSPost2010PropOp45
 70
     1
102
RTVSPost2010Prop46
 90
       50
102
RTVSPost2010PropOp46
 70
     1
102
RTVSPost2010Prop47
 90
       50
102
RTVSPost2010PropOp47
 70
     1
102
RTVSPost2010Prop48
 90
       50
102
RTVSPost2010PropOp48
 70
     1
102
RTVSPost2010Prop49
280
     0
102
RTVSPost2010PropOp49
 70
     1
102
RTVSPost2010Prop50
 90
       50
102
RTVSPost2010PropOp50
 70
     1
102
RTVSPost2010Prop51ColorIndex
 90
      256
102
RTVSPost2010Prop51ColorRGB
 90
-16777216
102
RTVSPost2010PropOp51
 70
     0
102
RTVSPost2010Prop52
140
1.0
102
RTVSPost2010PropOp52
 70
     0
102
RTVSPost2010Prop53
 90
        2
102
RTVSPost2010PropOp53
 70
     1
102
RTVSPost2010Prop54
  1
strokes_ogs.tif
102
RTVSPost2010PropOp54
 70
     1
102
RTVSPost2010Prop55
280
     0
102
RTVSPost2010PropOp55
 70
     1
102
RTVSPost2010Prop56
140
1.0
102
RTVSPost2010PropOp56
 70
     1
102
RTVSPost2010Prop57
140
1.0
102
RTVSPost2010PropOp57
 70
     1
  0
XRECORD
  5
AA9
102
{ACAD_REACTORS
330
AA8
102
}
330
AA8
100
AcDbXrecord
280
     1
102
RTVSPost2010Prop28
280
     0
102
RTVSPost2010PropOp28
 70
     1
102
RTVSPost2010Prop29
280
     1
102
RTVSPost2010PropOp29
 70
     1
102
RTVSPost2010Prop30
280
     1
102
RTVSPost2010PropOp30
 70
     1
102
RTVSPost2010Prop31
280
     0
102
RTVSPost2010PropOp31
 70
     1
102
RTVSPost2010Prop32
280
     0
102
RTVSPost2010PropOp32
 70
     1
102
RTVSPost2010Prop33
280
     0
102
RTVSPost2010PropOp33
 70
     1
102
RTVSPost2010Prop34
280
     0
102
RTVSPost2010PropOp34
 70
     1
102
RTVSPost2010Prop35
280
     0
102
RTVSPost2010PropOp35
 70
     1
102
RTVSPost2010Prop36
280
     0
102
RTVSPost2010PropOp36
 70
     1
102
RTVSPost2010Prop37
 90
       50
102
RTVSPost2010PropOp37
 70
     1
102
RTVSPost2010Prop38
140
0.0
102
RTVSPost2010PropOp38
 70
     1
102
RTVSPost2010Prop39
140
1.0
102
RTVSPost2010PropOp39
 70
     1
102
RTVSPost2010Prop40
 90
        0
102
RTVSPost2010PropOp40
 70
     1
102
RTVSPost2010Prop41ColorIndex
 90
       18
102
RTVSPost2010Prop41ColorRGB
 90
        0
102
RTVSPost2010PropOp41
 70
     1
102
RTVSPost2010Prop42
 90
       50
102
RTVSPost2010PropOp42
 70
     1
102
RTVSPost2010Prop43
 90
        3
102
RTVSPost2010PropOp43
 70
     1
102
RTVSPost2010Prop44ColorIndex
 90
        5
102
RTVSPost2010Prop44ColorRGB
 90
      255
102
RTVSPost2010PropOp44
 70
     1
102
RTVSPost2010Prop45
280
     0
102
RTVSPost2010PropOp45
 70
     1
102
RTVSPost2010Prop46
 90
       50
102
RTVSPost2010PropOp46
 70
     1
102
RTVSPost2010Prop47
 90
       50
102
RTVSPost2010PropOp47
 70
     1
102
RTVSPost2010Prop48
 90
       50
102
RTVSPost2010PropOp48
 70
     1
102
RTVSPost2010Prop49
280
     0
102
RTVSPost2010PropOp49
 70
     1
102
RTVSPost2010Prop50
 90
       50
102
RTVSPost2010PropOp50
 70
     1
102
RTVSPost2010Prop51ColorIndex
 90
      256
102
RTVSPost2010Prop51ColorRGB
 90
-16777216
102
RTVSPost2010PropOp51
 70
     0
102
RTVSPost2010Prop52
140
1.0
102
RTVSPost2010PropOp52
 70
     0
102
RTVSPost2010Prop53
 90
        2
102
RTVSPost2010PropOp53
 70
     1
102
RTVSPost2010Prop54
  1
strokes_ogs.tif
102
RTVSPost2010PropOp54
 70
     1
102
RTVSPost2010Prop55
280
     0
102
RTVSPost2010PropOp55
 70
     1
102
RTVSPost2010Prop56
140
1.0
102
RTVSPost2010PropOp56
 70
     1
102
RTVSPost2010Prop57
140
1.0
102
RTVSPost2010PropOp57
 70
     1
  0
XRECORD
  5
AC3
102
{ACAD_REACTORS
330
AC2
102
}
330
AC2
100
AcDbXrecord
280
     1
102
RTVSPost2010Prop28
280
     0
102
RTVSPost2010PropOp28
 70
     1
102
RTVSPost2010Prop29
280
     1
102
RTVSPost2010PropOp29
 70
     1
102
RTVSPost2010Prop30
280
     1
102
RTVSPost2010PropOp30
 70
     1
102
RTVSPost2010Prop31
280
     0
102
RTVSPost2010PropOp31
 70
     1
102
RTVSPost2010Prop32
280
     0
102
RTVSPost2010PropOp32
 70
     1
102
RTVSPost2010Prop33
280
     0
102
RTVSPost2010PropOp33
 70
     1
102
RTVSPost2010Prop34
280
     0
102
RTVSPost2010PropOp34
 70
     1
102
RTVSPost2010Prop35
280
     0
102
RTVSPost2010PropOp35
 70
     1
102
RTVSPost2010Prop36
280
     0
102
RTVSPost2010PropOp36
 70
     1
102
RTVSPost2010Prop37
 90
       50
102
RTVSPost2010PropOp37
 70
     0
102
RTVSPost2010Prop38
140
0.0
102
RTVSPost2010PropOp38
 70
     0
102
RTVSPost2010Prop39
140
1.0
102
RTVSPost2010PropOp39
 70
     0
102
RTVSPost2010Prop40
 90
        0
102
RTVSPost2010PropOp40
 70
     0
102
RTVSPost2010Prop41ColorIndex
 90
       18
102
RTVSPost2010Prop41ColorRGB
 90
        0
102
RTVSPost2010PropOp41
 70
     0
102
RTVSPost2010Prop42
 90
       50
102
RTVSPost2010PropOp42
 70
     0
102
RTVSPost2010Prop43
 90
        3
102
RTVSPost2010PropOp43
 70
     0
102
RTVSPost2010Prop44ColorIndex
 90
        5
102
RTVSPost2010Prop44ColorRGB
 90
      255
102
RTVSPost2010PropOp44
 70
     0
102
RTVSPost2010Prop45
280
     0
102
RTVSPost2010PropOp45
 70
     1
102
RTVSPost2010Prop46
 90
       50
102
RTVSPost2010PropOp46
 70
     0
102
RTVSPost2010Prop47
 90
       50
102
RTVSPost2010PropOp47
 70
     0
102
RTVSPost2010Prop48
 90
       50
102
RTVSPost2010PropOp48
 70
     0
102
RTVSPost2010Prop49
280
     0
102
RTVSPost2010PropOp49
 70
     1
102
RTVSPost2010Prop50
 90
       50
102
RTVSPost2010PropOp50
 70
     0
102
RTVSPost2010Prop51ColorIndex
 90
      256
102
RTVSPost2010Prop51ColorRGB
 90
-16777216
102
RTVSPost2010PropOp51
 70
     0
102
RTVSPost2010Prop52
140
1.0
102
RTVSPost2010PropOp52
 70
     0
102
RTVSPost2010Prop53
 90
        2
102
RTVSPost2010PropOp53
 70
     0
102
RTVSPost2010Prop54
  1
strokes_ogs.tif
102
RTVSPost2010PropOp54
 70
     0
102
RTVSPost2010Prop55
280
     0
102
RTVSPost2010PropOp55
 70
     1
102
RTVSPost2010Prop56
140
1.0
102
RTVSPost2010PropOp56
 70
     0
102
RTVSPost2010Prop57
140
1.0
102
RTVSPost2010PropOp57
 70
     0
  0
XRECORD
  5
AB1
102
{ACAD_REACTORS
330
AB0
102
}
330
AB0
100
AcDbXrecord
280
     1
102
RTVSPost2010Prop28
280
     0
102
RTVSPost2010PropOp28
 70
     1
102
RTVSPost2010Prop29
280
     1
102
RTVSPost2010PropOp29
 70
     1
102
RTVSPost2010Prop30
280
     1
102
RTVSPost2010PropOp30
 70
     1
102
RTVSPost2010Prop31
280
     0
102
RTVSPost2010PropOp31
 70
     1
102
RTVSPost2010Prop32
280
     0
102
RTVSPost2010PropOp32
 70
     1
102
RTVSPost2010Prop33
280
     0
102
RTVSPost2010PropOp33
 70
     1
102
RTVSPost2010Prop34
280
     0
102
RTVSPost2010PropOp34
 70
     1
102
RTVSPost2010Prop35
280
     0
102
RTVSPost2010PropOp35
 70
     1
102
RTVSPost2010Prop36
280
     0
102
RTVSPost2010PropOp36
 70
     1
102
RTVSPost2010Prop37
 90
       50
102
RTVSPost2010PropOp37
 70
     1
102
RTVSPost2010Prop38
140
0.0
102
RTVSPost2010PropOp38
 70
     1
102
RTVSPost2010Prop39
140
1.0
102
RTVSPost2010PropOp39
 70
     1
102
RTVSPost2010Prop40
 90
        0
102
RTVSPost2010PropOp40
 70
     1
102
RTVSPost2010Prop41ColorIndex
 90
       18
102
RTVSPost2010Prop41ColorRGB
 90
        0
102
RTVSPost2010PropOp41
 70
     1
102
RTVSPost2010Prop42
 90
       50
102
RTVSPost2010PropOp42
 70
     1
102
RTVSPost2010Prop43
 90
        3
102
RTVSPost2010PropOp43
 70
     1
102
RTVSPost2010Prop44ColorIndex
 90
        5
102
RTVSPost2010Prop44ColorRGB
 90
      255
102
RTVSPost2010PropOp44
 70
     1
102
RTVSPost2010Prop45
280
     0
102
RTVSPost2010PropOp45
 70
     1
102
RTVSPost2010Prop46
 90
       50
102
RTVSPost2010PropOp46
 70
     1
102
RTVSPost2010Prop47
 90
       50
102
RTVSPost2010PropOp47
 70
     1
102
RTVSPost2010Prop48
 90
       50
102
RTVSPost2010PropOp48
 70
     1
102
RTVSPost2010Prop49
280
     0
102
RTVSPost2010PropOp49
 70
     1
102
RTVSPost2010Prop50
 90
       50
102
RTVSPost2010PropOp50
 70
     1
102
RTVSPost2010Prop51ColorIndex
 90
      256
102
RTVSPost2010Prop51ColorRGB
 90
-16777216
102
RTVSPost2010PropOp51
 70
     0
102
RTVSPost2010Prop52
140
1.0
102
RTVSPost2010PropOp52
 70
     0
102
RTVSPost2010Prop53
 90
        2
102
RTVSPost2010PropOp53
 70
     1
102
RTVSPost2010Prop54
  1
strokes_ogs.tif
102
RTVSPost2010PropOp54
 70
     1
102
RTVSPost2010Prop55
280
     0
102
RTVSPost2010PropOp55
 70
     1
102
RTVSPost2010Prop56
140
1.0
102
RTVSPost2010PropOp56
 70
     1
102
RTVSPost2010Prop57
140
1.0
102
RTVSPost2010PropOp57
 70
     1
  0
XRECORD
  5
A95
102
{ACAD_REACTORS
330
A94
102
}
330
A94
100
AcDbXrecord
280
     1
102
RTVSPost2010Prop28
280
     0
102
RTVSPost2010PropOp28
 70
     1
102
RTVSPost2010Prop29
280
     1
102
RTVSPost2010PropOp29
 70
     1
102
RTVSPost2010Prop30
280
     1
102
RTVSPost2010PropOp30
 70
     1
102
RTVSPost2010Prop31
280
     0
102
RTVSPost2010PropOp31
 70
     1
102
RTVSPost2010Prop32
280
     0
102
RTVSPost2010PropOp32
 70
     1
102
RTVSPost2010Prop33
280
     0
102
RTVSPost2010PropOp33
 70
     1
102
RTVSPost2010Prop34
280
     0
102
RTVSPost2010PropOp34
 70
     1
102
RTVSPost2010Prop35
280
     0
102
RTVSPost2010PropOp35
 70
     1
102
RTVSPost2010Prop36
280
     0
102
RTVSPost2010PropOp36
 70
     1
102
RTVSPost2010Prop37
 90
       50
102
RTVSPost2010PropOp37
 70
     1
102
RTVSPost2010Prop38
140
0.0
102
RTVSPost2010PropOp38
 70
     1
102
RTVSPost2010Prop39
140
1.0
102
RTVSPost2010PropOp39
 70
     1
102
RTVSPost2010Prop40
 90
        0
102
RTVSPost2010PropOp40
 70
     1
102
RTVSPost2010Prop41ColorIndex
 90
       18
102
RTVSPost2010Prop41ColorRGB
 90
        0
102
RTVSPost2010PropOp41
 70
     1
102
RTVSPost2010Prop42
 90
       50
102
RTVSPost2010PropOp42
 70
     1
102
RTVSPost2010Prop43
 90
        3
102
RTVSPost2010PropOp43
 70
     1
102
RTVSPost2010Prop44ColorIndex
 90
        5
102
RTVSPost2010Prop44ColorRGB
 90
      255
102
RTVSPost2010PropOp44
 70
     1
102
RTVSPost2010Prop45
280
     0
102
RTVSPost2010PropOp45
 70
     1
102
RTVSPost2010Prop46
 90
       50
102
RTVSPost2010PropOp46
 70
     1
102
RTVSPost2010Prop47
 90
       50
102
RTVSPost2010PropOp47
 70
     1
102
RTVSPost2010Prop48
 90
       50
102
RTVSPost2010PropOp48
 70
     1
102
RTVSPost2010Prop49
280
     0
102
RTVSPost2010PropOp49
 70
     1
102
RTVSPost2010Prop50
 90
       50
102
RTVSPost2010PropOp50
 70
     1
102
RTVSPost2010Prop51ColorIndex
 90
      256
102
RTVSPost2010Prop51ColorRGB
 90
-16777216
102
RTVSPost2010PropOp51
 70
     0
102
RTVSPost2010Prop52
140
1.0
102
RTVSPost2010PropOp52
 70
     0
102
RTVSPost2010Prop53
 90
        2
102
RTVSPost2010PropOp53
 70
     1
102
RTVSPost2010Prop54
  1
strokes_ogs.tif
102
RTVSPost2010PropOp54
 70
     1
102
RTVSPost2010Prop55
280
     0
102
RTVSPost2010PropOp55
 70
     1
102
RTVSPost2010Prop56
140
1.0
102
RTVSPost2010PropOp56
 70
     1
102
RTVSPost2010Prop57
140
1.0
102
RTVSPost2010PropOp57
 70
     1
  0
XRECORD
  5
A97
102
{ACAD_REACTORS
330
A96
102
}
330
A96
100
AcDbXrecord
280
     1
102
RTVSPost2010Prop28
280
     0
102
RTVSPost2010PropOp28
 70
     1
102
RTVSPost2010Prop29
280
     1
102
RTVSPost2010PropOp29
 70
     1
102
RTVSPost2010Prop30
280
     1
102
RTVSPost2010PropOp30
 70
     1
102
RTVSPost2010Prop31
280
     0
102
RTVSPost2010PropOp31
 70
     1
102
RTVSPost2010Prop32
280
     0
102
RTVSPost2010PropOp32
 70
     1
102
RTVSPost2010Prop33
280
     0
102
RTVSPost2010PropOp33
 70
     1
102
RTVSPost2010Prop34
280
     0
102
RTVSPost2010PropOp34
 70
     1
102
RTVSPost2010Prop35
280
     0
102
RTVSPost2010PropOp35
 70
     1
102
RTVSPost2010Prop36
280
     0
102
RTVSPost2010PropOp36
 70
     1
102
RTVSPost2010Prop37
 90
       50
102
RTVSPost2010PropOp37
 70
     1
102
RTVSPost2010Prop38
140
0.0
102
RTVSPost2010PropOp38
 70
     1
102
RTVSPost2010Prop39
140
1.0
102
RTVSPost2010PropOp39
 70
     1
102
RTVSPost2010Prop40
 90
        0
102
RTVSPost2010PropOp40
 70
     1
102
RTVSPost2010Prop41ColorIndex
 90
       18
102
RTVSPost2010Prop41ColorRGB
 90
        0
102
RTVSPost2010PropOp41
 70
     1
102
RTVSPost2010Prop42
 90
       50
102
RTVSPost2010PropOp42
 70
     1
102
RTVSPost2010Prop43
 90
        3
102
RTVSPost2010PropOp43
 70
     1
102
RTVSPost2010Prop44ColorIndex
 90
        5
102
RTVSPost2010Prop44ColorRGB
 90
      255
102
RTVSPost2010PropOp44
 70
     1
102
RTVSPost2010Prop45
280
     0
102
RTVSPost2010PropOp45
 70
     1
102
RTVSPost2010Prop46
 90
       50
102
RTVSPost2010PropOp46
 70
     1
102
RTVSPost2010Prop47
 90
       50
102
RTVSPost2010PropOp47
 70
     1
102
RTVSPost2010Prop48
 90
       50
102
RTVSPost2010PropOp48
 70
     1
102
RTVSPost2010Prop49
280
     0
102
RTVSPost2010PropOp49
 70
     1
102
RTVSPost2010Prop50
 90
       50
102
RTVSPost2010PropOp50
 70
     1
102
RTVSPost2010Prop51ColorIndex
 90
      256
102
RTVSPost2010Prop51ColorRGB
 90
-16777216
102
RTVSPost2010PropOp51
 70
     0
102
RTVSPost2010Prop52
140
1.0
102
RTVSPost2010PropOp52
 70
     0
102
RTVSPost2010Prop53
 90
        2
102
RTVSPost2010PropOp53
 70
     1
102
RTVSPost2010Prop54
  1
strokes_ogs.tif
102
RTVSPost2010PropOp54
 70
     1
102
RTVSPost2010Prop55
280
     0
102
RTVSPost2010PropOp55
 70
     1
102
RTVSPost2010Prop56
140
1.0
102
RTVSPost2010PropOp56
 70
     1
102
RTVSPost2010Prop57
140
1.0
102
RTVSPost2010PropOp57
 70
     1
  0
XRECORD
  5
A99
102
{ACAD_REACTORS
330
A98
102
}
330
A98
100
AcDbXrecord
280
     1
102
RTVSPost2010Prop28
280
     0
102
RTVSPost2010PropOp28
 70
     1
102
RTVSPost2010Prop29
280
     1
102
RTVSPost2010PropOp29
 70
     1
102
RTVSPost2010Prop30
280
     1
102
RTVSPost2010PropOp30
 70
     1
102
RTVSPost2010Prop31
280
     0
102
RTVSPost2010PropOp31
 70
     1
102
RTVSPost2010Prop32
280
     0
102
RTVSPost2010PropOp32
 70
     1
102
RTVSPost2010Prop33
280
     0
102
RTVSPost2010PropOp33
 70
     1
102
RTVSPost2010Prop34
280
     0
102
RTVSPost2010PropOp34
 70
     1
102
RTVSPost2010Prop35
280
     0
102
RTVSPost2010PropOp35
 70
     1
102
RTVSPost2010Prop36
280
     0
102
RTVSPost2010PropOp36
 70
     1
102
RTVSPost2010Prop37
 90
       50
102
RTVSPost2010PropOp37
 70
     1
102
RTVSPost2010Prop38
140
0.0
102
RTVSPost2010PropOp38
 70
     1
102
RTVSPost2010Prop39
140
1.0
102
RTVSPost2010PropOp39
 70
     1
102
RTVSPost2010Prop40
 90
        0
102
RTVSPost2010PropOp40
 70
     1
102
RTVSPost2010Prop41ColorIndex
 90
       18
102
RTVSPost2010Prop41ColorRGB
 90
        0
102
RTVSPost2010PropOp41
 70
     1
102
RTVSPost2010Prop42
 90
       50
102
RTVSPost2010PropOp42
 70
     1
102
RTVSPost2010Prop43
 90
        3
102
RTVSPost2010PropOp43
 70
     1
102
RTVSPost2010Prop44ColorIndex
 90
        5
102
RTVSPost2010Prop44ColorRGB
 90
      255
102
RTVSPost2010PropOp44
 70
     1
102
RTVSPost2010Prop45
280
     0
102
RTVSPost2010PropOp45
 70
     1
102
RTVSPost2010Prop46
 90
       50
102
RTVSPost2010PropOp46
 70
     1
102
RTVSPost2010Prop47
 90
       50
102
RTVSPost2010PropOp47
 70
     1
102
RTVSPost2010Prop48
 90
       50
102
RTVSPost2010PropOp48
 70
     1
102
RTVSPost2010Prop49
280
     0
102
RTVSPost2010PropOp49
 70
     1
102
RTVSPost2010Prop50
 90
       50
102
RTVSPost2010PropOp50
 70
     1
102
RTVSPost2010Prop51ColorIndex
 90
      256
102
RTVSPost2010Prop51ColorRGB
 90
-16777216
102
RTVSPost2010PropOp51
 70
     0
102
RTVSPost2010Prop52
140
1.0
102
RTVSPost2010PropOp52
 70
     0
102
RTVSPost2010Prop53
 90
        2
102
RTVSPost2010PropOp53
 70
     1
102
RTVSPost2010Prop54
  1
strokes_ogs.tif
102
RTVSPost2010PropOp54
 70
     1
102
RTVSPost2010Prop55
280
     0
102
RTVSPost2010PropOp55
 70
     1
102
RTVSPost2010Prop56
140
1.0
102
RTVSPost2010PropOp56
 70
     1
102
RTVSPost2010Prop57
140
1.0
102
RTVSPost2010PropOp57
 70
     1
  0
XRECORD
  5
A9B
102
{ACAD_REACTORS
330
A9A
102
}
330
A9A
100
AcDbXrecord
280
     1
102
RTVSPost2010Prop28
280
     0
102
RTVSPost2010PropOp28
 70
     1
102
RTVSPost2010Prop29
280
     1
102
RTVSPost2010PropOp29
 70
     1
102
RTVSPost2010Prop30
280
     1
102
RTVSPost2010PropOp30
 70
     1
102
RTVSPost2010Prop31
280
     0
102
RTVSPost2010PropOp31
 70
     1
102
RTVSPost2010Prop32
280
     0
102
RTVSPost2010PropOp32
 70
     1
102
RTVSPost2010Prop33
280
     0
102
RTVSPost2010PropOp33
 70
     1
102
RTVSPost2010Prop34
280
     0
102
RTVSPost2010PropOp34
 70
     1
102
RTVSPost2010Prop35
280
     0
102
RTVSPost2010PropOp35
 70
     1
102
RTVSPost2010Prop36
280
     0
102
RTVSPost2010PropOp36
 70
     1
102
RTVSPost2010Prop37
 90
       50
102
RTVSPost2010PropOp37
 70
     1
102
RTVSPost2010Prop38
140
0.0
102
RTVSPost2010PropOp38
 70
     1
102
RTVSPost2010Prop39
140
1.0
102
RTVSPost2010PropOp39
 70
     1
102
RTVSPost2010Prop40
 90
        0
102
RTVSPost2010PropOp40
 70
     1
102
RTVSPost2010Prop41ColorIndex
 90
       18
102
RTVSPost2010Prop41ColorRGB
 90
        0
102
RTVSPost2010PropOp41
 70
     1
102
RTVSPost2010Prop42
 90
       50
102
RTVSPost2010PropOp42
 70
     1
102
RTVSPost2010Prop43
 90
        3
102
RTVSPost2010PropOp43
 70
     1
102
RTVSPost2010Prop44ColorIndex
 90
        5
102
RTVSPost2010Prop44ColorRGB
 90
      255
102
RTVSPost2010PropOp44
 70
     1
102
RTVSPost2010Prop45
280
     0
102
RTVSPost2010PropOp45
 70
     1
102
RTVSPost2010Prop46
 90
       50
102
RTVSPost2010PropOp46
 70
     1
102
RTVSPost2010Prop47
 90
       50
102
RTVSPost2010PropOp47
 70
     1
102
RTVSPost2010Prop48
 90
       50
102
RTVSPost2010PropOp48
 70
     1
102
RTVSPost2010Prop49
280
     0
102
RTVSPost2010PropOp49
 70
     1
102
RTVSPost2010Prop50
 90
       50
102
RTVSPost2010PropOp50
 70
     1
102
RTVSPost2010Prop51ColorIndex
 90
      256
102
RTVSPost2010Prop51ColorRGB
 90
-16777216
102
RTVSPost2010PropOp51
 70
     0
102
RTVSPost2010Prop52
140
1.0
102
RTVSPost2010PropOp52
 70
     0
102
RTVSPost2010Prop53
 90
        2
102
RTVSPost2010PropOp53
 70
     1
102
RTVSPost2010Prop54
  1
strokes_ogs.tif
102
RTVSPost2010PropOp54
 70
     1
102
RTVSPost2010Prop55
280
     0
102
RTVSPost2010PropOp55
 70
     1
102
RTVSPost2010Prop56
140
1.0
102
RTVSPost2010PropOp56
 70
     1
102
RTVSPost2010Prop57
140
1.0
102
RTVSPost2010PropOp57
 70
     1
  0
XRECORD
  5
AA3
102
{ACAD_REACTORS
330
AA2
102
}
330
AA2
100
AcDbXrecord
280
     1
102
RTVSPost2010Prop28
280
     0
102
RTVSPost2010PropOp28
 70
     1
102
RTVSPost2010Prop29
280
     1
102
RTVSPost2010PropOp29
 70
     1
102
RTVSPost2010Prop30
280
     1
102
RTVSPost2010PropOp30
 70
     1
102
RTVSPost2010Prop31
280
     0
102
RTVSPost2010PropOp31
 70
     1
102
RTVSPost2010Prop32
280
     0
102
RTVSPost2010PropOp32
 70
     1
102
RTVSPost2010Prop33
280
     0
102
RTVSPost2010PropOp33
 70
     1
102
RTVSPost2010Prop34
280
     0
102
RTVSPost2010PropOp34
 70
     1
102
RTVSPost2010Prop35
280
     0
102
RTVSPost2010PropOp35
 70
     1
102
RTVSPost2010Prop36
280
     0
102
RTVSPost2010PropOp36
 70
     1
102
RTVSPost2010Prop37
 90
       50
102
RTVSPost2010PropOp37
 70
     1
102
RTVSPost2010Prop38
140
0.0
102
RTVSPost2010PropOp38
 70
     1
102
RTVSPost2010Prop39
140
1.0
102
RTVSPost2010PropOp39
 70
     1
102
RTVSPost2010Prop40
 90
        0
102
RTVSPost2010PropOp40
 70
     1
102
RTVSPost2010Prop41ColorIndex
 90
       18
102
RTVSPost2010Prop41ColorRGB
 90
        0
102
RTVSPost2010PropOp41
 70
     1
102
RTVSPost2010Prop42
 90
       50
102
RTVSPost2010PropOp42
 70
     1
102
RTVSPost2010Prop43
 90
        3
102
RTVSPost2010PropOp43
 70
     1
102
RTVSPost2010Prop44ColorIndex
 90
        5
102
RTVSPost2010Prop44ColorRGB
 90
      255
102
RTVSPost2010PropOp44
 70
     1
102
RTVSPost2010Prop45
280
     0
102
RTVSPost2010PropOp45
 70
     1
102
RTVSPost2010Prop46
 90
       50
102
RTVSPost2010PropOp46
 70
     1
102
RTVSPost2010Prop47
 90
       50
102
RTVSPost2010PropOp47
 70
     1
102
RTVSPost2010Prop48
 90
       50
102
RTVSPost2010PropOp48
 70
     1
102
RTVSPost2010Prop49
280
     0
102
RTVSPost2010PropOp49
 70
     1
102
RTVSPost2010Prop50
 90
       50
102
RTVSPost2010PropOp50
 70
     1
102
RTVSPost2010Prop51ColorIndex
 90
      256
102
RTVSPost2010Prop51ColorRGB
 90
-16777216
102
RTVSPost2010PropOp51
 70
     0
102
RTVSPost2010Prop52
140
1.0
102
RTVSPost2010PropOp52
 70
     0
102
RTVSPost2010Prop53
 90
        2
102
RTVSPost2010PropOp53
 70
     1
102
RTVSPost2010Prop54
  1
strokes_ogs.tif
102
RTVSPost2010PropOp54
 70
     1
102
RTVSPost2010Prop55
280
     0
102
RTVSPost2010PropOp55
 70
     1
102
RTVSPost2010Prop56
140
1.0
102
RTVSPost2010PropOp56
 70
     1
102
RTVSPost2010Prop57
140
1.0
102
RTVSPost2010PropOp57
 70
     1
  0
XRECORD
  5
ABF
102
{ACAD_REACTORS
330
ABE
102
}
330
ABE
100
AcDbXrecord
280
     1
102
RTVSPost2010Prop28
280
     0
102
RTVSPost2010PropOp28
 70
     1
102
RTVSPost2010Prop29
280
     1
102
RTVSPost2010PropOp29
 70
     1
102
RTVSPost2010Prop30
280
     1
102
RTVSPost2010PropOp30
 70
     1
102
RTVSPost2010Prop31
280
     0
102
RTVSPost2010PropOp31
 70
     1
102
RTVSPost2010Prop32
280
     0
102
RTVSPost2010PropOp32
 70
     1
102
RTVSPost2010Prop33
280
     0
102
RTVSPost2010PropOp33
 70
     1
102
RTVSPost2010Prop34
280
     0
102
RTVSPost2010PropOp34
 70
     1
102
RTVSPost2010Prop35
280
     0
102
RTVSPost2010PropOp35
 70
     1
102
RTVSPost2010Prop36
280
     0
102
RTVSPost2010PropOp36
 70
     1
102
RTVSPost2010Prop37
 90
       50
102
RTVSPost2010PropOp37
 70
     0
102
RTVSPost2010Prop38
140
0.0
102
RTVSPost2010PropOp38
 70
     0
102
RTVSPost2010Prop39
140
1.0
102
RTVSPost2010PropOp39
 70
     0
102
RTVSPost2010Prop40
 90
        0
102
RTVSPost2010PropOp40
 70
     0
102
RTVSPost2010Prop41ColorIndex
 90
       18
102
RTVSPost2010Prop41ColorRGB
 90
        0
102
RTVSPost2010PropOp41
 70
     0
102
RTVSPost2010Prop42
 90
       50
102
RTVSPost2010PropOp42
 70
     0
102
RTVSPost2010Prop43
 90
        3
102
RTVSPost2010PropOp43
 70
     0
102
RTVSPost2010Prop44ColorIndex
 90
        5
102
RTVSPost2010Prop44ColorRGB
 90
      255
102
RTVSPost2010PropOp44
 70
     0
102
RTVSPost2010Prop45
280
     0
102
RTVSPost2010PropOp45
 70
     1
102
RTVSPost2010Prop46
 90
       50
102
RTVSPost2010PropOp46
 70
     0
102
RTVSPost2010Prop47
 90
       50
102
RTVSPost2010PropOp47
 70
     0
102
RTVSPost2010Prop48
 90
       50
102
RTVSPost2010PropOp48
 70
     0
102
RTVSPost2010Prop49
280
     0
102
RTVSPost2010PropOp49
 70
     1
102
RTVSPost2010Prop50
 90
       50
102
RTVSPost2010PropOp50
 70
     0
102
RTVSPost2010Prop51ColorIndex
 90
      256
102
RTVSPost2010Prop51ColorRGB
 90
-16777216
102
RTVSPost2010PropOp51
 70
     0
102
RTVSPost2010Prop52
140
1.0
102
RTVSPost2010PropOp52
 70
     0
102
RTVSPost2010Prop53
 90
        2
102
RTVSPost2010PropOp53
 70
     0
102
RTVSPost2010Prop54
  1
strokes_ogs.tif
102
RTVSPost2010PropOp54
 70
     0
102
RTVSPost2010Prop55
280
     0
102
RTVSPost2010PropOp55
 70
     1
102
RTVSPost2010Prop56
140
1.0
102
RTVSPost2010PropOp56
 70
     0
102
RTVSPost2010Prop57
140
1.0
102
RTVSPost2010PropOp57
 70
     0
  0
XRECORD
  5
AAF
102
{ACAD_REACTORS
330
AAE
102
}
330
AAE
100
AcDbXrecord
280
     1
102
RTVSPost2010Prop28
280
     0
102
RTVSPost2010PropOp28
 70
     1
102
RTVSPost2010Prop29
280
     1
102
RTVSPost2010PropOp29
 70
     1
102
RTVSPost2010Prop30
280
     1
102
RTVSPost2010PropOp30
 70
     1
102
RTVSPost2010Prop31
280
     0
102
RTVSPost2010PropOp31
 70
     1
102
RTVSPost2010Prop32
280
     0
102
RTVSPost2010PropOp32
 70
     1
102
RTVSPost2010Prop33
280
     0
102
RTVSPost2010PropOp33
 70
     1
102
RTVSPost2010Prop34
280
     0
102
RTVSPost2010PropOp34
 70
     1
102
RTVSPost2010Prop35
280
     0
102
RTVSPost2010PropOp35
 70
     1
102
RTVSPost2010Prop36
280
     0
102
RTVSPost2010PropOp36
 70
     1
102
RTVSPost2010Prop37
 90
       50
102
RTVSPost2010PropOp37
 70
     1
102
RTVSPost2010Prop38
140
0.0
102
RTVSPost2010PropOp38
 70
     1
102
RTVSPost2010Prop39
140
1.0
102
RTVSPost2010PropOp39
 70
     1
102
RTVSPost2010Prop40
 90
        0
102
RTVSPost2010PropOp40
 70
     1
102
RTVSPost2010Prop41ColorIndex
 90
       18
102
RTVSPost2010Prop41ColorRGB
 90
        0
102
RTVSPost2010PropOp41
 70
     1
102
RTVSPost2010Prop42
 90
       50
102
RTVSPost2010PropOp42
 70
     1
102
RTVSPost2010Prop43
 90
        3
102
RTVSPost2010PropOp43
 70
     1
102
RTVSPost2010Prop44ColorIndex
 90
        5
102
RTVSPost2010Prop44ColorRGB
 90
      255
102
RTVSPost2010PropOp44
 70
     1
102
RTVSPost2010Prop45
280
     0
102
RTVSPost2010PropOp45
 70
     1
102
RTVSPost2010Prop46
 90
       50
102
RTVSPost2010PropOp46
 70
     1
102
RTVSPost2010Prop47
 90
       50
102
RTVSPost2010PropOp47
 70
     1
102
RTVSPost2010Prop48
 90
       50
102
RTVSPost2010PropOp48
 70
     1
102
RTVSPost2010Prop49
280
     0
102
RTVSPost2010PropOp49
 70
     1
102
RTVSPost2010Prop50
 90
       50
102
RTVSPost2010PropOp50
 70
     1
102
RTVSPost2010Prop51ColorIndex
 90
      256
102
RTVSPost2010Prop51ColorRGB
 90
-16777216
102
RTVSPost2010PropOp51
 70
     0
102
RTVSPost2010Prop52
140
1.0
102
RTVSPost2010PropOp52
 70
     0
102
RTVSPost2010Prop53
 90
        2
102
RTVSPost2010PropOp53
 70
     1
102
RTVSPost2010Prop54
  1
strokes_ogs.tif
102
RTVSPost2010PropOp54
 70
     1
102
RTVSPost2010Prop55
280
     0
102
RTVSPost2010PropOp55
 70
     1
102
RTVSPost2010Prop56
140
1.0
102
RTVSPost2010PropOp56
 70
     1
102
RTVSPost2010Prop57
140
1.0
102
RTVSPost2010PropOp57
 70
     1
  0
XRECORD
  5
AC1
102
{ACAD_REACTORS
330
AC0
102
}
330
AC0
100
AcDbXrecord
280
     1
102
RTVSPost2010Prop28
280
     0
102
RTVSPost2010PropOp28
 70
     1
102
RTVSPost2010Prop29
280
     1
102
RTVSPost2010PropOp29
 70
     1
102
RTVSPost2010Prop30
280
     1
102
RTVSPost2010PropOp30
 70
     1
102
RTVSPost2010Prop31
280
     0
102
RTVSPost2010PropOp31
 70
     1
102
RTVSPost2010Prop32
280
     0
102
RTVSPost2010PropOp32
 70
     1
102
RTVSPost2010Prop33
280
     0
102
RTVSPost2010PropOp33
 70
     1
102
RTVSPost2010Prop34
280
     0
102
RTVSPost2010PropOp34
 70
     1
102
RTVSPost2010Prop35
280
     0
102
RTVSPost2010PropOp35
 70
     1
102
RTVSPost2010Prop36
280
     0
102
RTVSPost2010PropOp36
 70
     1
102
RTVSPost2010Prop37
 90
       50
102
RTVSPost2010PropOp37
 70
     0
102
RTVSPost2010Prop38
140
0.0
102
RTVSPost2010PropOp38
 70
     0
102
RTVSPost2010Prop39
140
1.0
102
RTVSPost2010PropOp39
 70
     0
102
RTVSPost2010Prop40
 90
        0
102
RTVSPost2010PropOp40
 70
     0
102
RTVSPost2010Prop41ColorIndex
 90
       18
102
RTVSPost2010Prop41ColorRGB
 90
        0
102
RTVSPost2010PropOp41
 70
     0
102
RTVSPost2010Prop42
 90
       50
102
RTVSPost2010PropOp42
 70
     0
102
RTVSPost2010Prop43
 90
        3
102
RTVSPost2010PropOp43
 70
     0
102
RTVSPost2010Prop44ColorIndex
 90
        5
102
RTVSPost2010Prop44ColorRGB
 90
      255
102
RTVSPost2010PropOp44
 70
     0
102
RTVSPost2010Prop45
280
     0
102
RTVSPost2010PropOp45
 70
     1
102
RTVSPost2010Prop46
 90
       50
102
RTVSPost2010PropOp46
 70
     0
102
RTVSPost2010Prop47
 90
       50
102
RTVSPost2010PropOp47
 70
     0
102
RTVSPost2010Prop48
 90
       50
102
RTVSPost2010PropOp48
 70
     0
102
RTVSPost2010Prop49
280
     0
102
RTVSPost2010PropOp49
 70
     1
102
RTVSPost2010Prop50
 90
       50
102
RTVSPost2010PropOp50
 70
     0
102
RTVSPost2010Prop51ColorIndex
 90
      256
102
RTVSPost2010Prop51ColorRGB
 90
-16777216
102
RTVSPost2010PropOp51
 70
     0
102
RTVSPost2010Prop52
140
1.0
102
RTVSPost2010PropOp52
 70
     0
102
RTVSPost2010Prop53
 90
        2
102
RTVSPost2010PropOp53
 70
     0
102
RTVSPost2010Prop54
  1
strokes_ogs.tif
102
RTVSPost2010PropOp54
 70
     0
102
RTVSPost2010Prop55
280
     0
102
RTVSPost2010PropOp55
 70
     1
102
RTVSPost2010Prop56
140
1.0
102
RTVSPost2010PropOp56
 70
     0
102
RTVSPost2010Prop57
140
1.0
102
RTVSPost2010PropOp57
 70
     0
  0
XRECORD
  5
AA7
102
{ACAD_REACTORS
330
AA6
102
}
330
AA6
100
AcDbXrecord
280
     1
102
RTVSPost2010Prop28
280
     0
102
RTVSPost2010PropOp28
 70
     1
102
RTVSPost2010Prop29
280
     1
102
RTVSPost2010PropOp29
 70
     1
102
RTVSPost2010Prop30
280
     1
102
RTVSPost2010PropOp30
 70
     1
102
RTVSPost2010Prop31
280
     0
102
RTVSPost2010PropOp31
 70
     1
102
RTVSPost2010Prop32
280
     0
102
RTVSPost2010PropOp32
 70
     1
102
RTVSPost2010Prop33
280
     0
102
RTVSPost2010PropOp33
 70
     1
102
RTVSPost2010Prop34
280
     0
102
RTVSPost2010PropOp34
 70
     1
102
RTVSPost2010Prop35
280
     0
102
RTVSPost2010PropOp35
 70
     1
102
RTVSPost2010Prop36
280
     0
102
RTVSPost2010PropOp36
 70
     1
102
RTVSPost2010Prop37
 90
       50
102
RTVSPost2010PropOp37
 70
     1
102
RTVSPost2010Prop38
140
0.0
102
RTVSPost2010PropOp38
 70
     1
102
RTVSPost2010Prop39
140
1.0
102
RTVSPost2010PropOp39
 70
     1
102
RTVSPost2010Prop40
 90
        0
102
RTVSPost2010PropOp40
 70
     1
102
RTVSPost2010Prop41ColorIndex
 90
       18
102
RTVSPost2010Prop41ColorRGB
 90
        0
102
RTVSPost2010PropOp41
 70
     1
102
RTVSPost2010Prop42
 90
       50
102
RTVSPost2010PropOp42
 70
     1
102
RTVSPost2010Prop43
 90
        3
102
RTVSPost2010PropOp43
 70
     1
102
RTVSPost2010Prop44ColorIndex
 90
        5
102
RTVSPost2010Prop44ColorRGB
 90
      255
102
RTVSPost2010PropOp44
 70
     1
102
RTVSPost2010Prop45
280
     0
102
RTVSPost2010PropOp45
 70
     1
102
RTVSPost2010Prop46
 90
       50
102
RTVSPost2010PropOp46
 70
     1
102
RTVSPost2010Prop47
 90
       50
102
RTVSPost2010PropOp47
 70
     1
102
RTVSPost2010Prop48
 90
       50
102
RTVSPost2010PropOp48
 70
     1
102
RTVSPost2010Prop49
280
     0
102
RTVSPost2010PropOp49
 70
     1
102
RTVSPost2010Prop50
 90
       50
102
RTVSPost2010PropOp50
 70
     1
102
RTVSPost2010Prop51ColorIndex
 90
      256
102
RTVSPost2010Prop51ColorRGB
 90
-16777216
102
RTVSPost2010PropOp51
 70
     0
102
RTVSPost2010Prop52
140
1.0
102
RTVSPost2010PropOp52
 70
     0
102
RTVSPost2010Prop53
 90
        2
102
RTVSPost2010PropOp53
 70
     1
102
RTVSPost2010Prop54
  1
strokes_ogs.tif
102
RTVSPost2010PropOp54
 70
     1
102
RTVSPost2010Prop55
280
     0
102
RTVSPost2010PropOp55
 70
     1
102
RTVSPost2010Prop56
140
1.0
102
RTVSPost2010PropOp56
 70
     1
102
RTVSPost2010Prop57
140
1.0
102
RTVSPost2010PropOp57
 70
     1
  0
XRECORD
  5
ABD
102
{ACAD_REACTORS
330
ABC
102
}
330
ABC
100
AcDbXrecord
280
     1
102
RTVSPost2010Prop28
280
     0
102
RTVSPost2010PropOp28
 70
     1
102
RTVSPost2010Prop29
280
     1
102
RTVSPost2010PropOp29
 70
     1
102
RTVSPost2010Prop30
280
     1
102
RTVSPost2010PropOp30
 70
     1
102
RTVSPost2010Prop31
280
     0
102
RTVSPost2010PropOp31
 70
     1
102
RTVSPost2010Prop32
280
     0
102
RTVSPost2010PropOp32
 70
     1
102
RTVSPost2010Prop33
280
     0
102
RTVSPost2010PropOp33
 70
     1
102
RTVSPost2010Prop34
280
     0
102
RTVSPost2010PropOp34
 70
     1
102
RTVSPost2010Prop35
280
     0
102
RTVSPost2010PropOp35
 70
     1
102
RTVSPost2010Prop36
280
     0
102
RTVSPost2010PropOp36
 70
     1
102
RTVSPost2010Prop37
 90
       50
102
RTVSPost2010PropOp37
 70
     1
102
RTVSPost2010Prop38
140
0.0
102
RTVSPost2010PropOp38
 70
     1
102
RTVSPost2010Prop39
140
1.0
102
RTVSPost2010PropOp39
 70
     1
102
RTVSPost2010Prop40
 90
        0
102
RTVSPost2010PropOp40
 70
     1
102
RTVSPost2010Prop41ColorIndex
 90
       18
102
RTVSPost2010Prop41ColorRGB
 90
        0
102
RTVSPost2010PropOp41
 70
     1
102
RTVSPost2010Prop42
 90
       50
102
RTVSPost2010PropOp42
 70
     1
102
RTVSPost2010Prop43
 90
        3
102
RTVSPost2010PropOp43
 70
     1
102
RTVSPost2010Prop44ColorIndex
 90
        5
102
RTVSPost2010Prop44ColorRGB
 90
      255
102
RTVSPost2010PropOp44
 70
     1
102
RTVSPost2010Prop45
280
     0
102
RTVSPost2010PropOp45
 70
     1
102
RTVSPost2010Prop46
 90
       50
102
RTVSPost2010PropOp46
 70
     1
102
RTVSPost2010Prop47
 90
       50
102
RTVSPost2010PropOp47
 70
     1
102
RTVSPost2010Prop48
 90
       50
102
RTVSPost2010PropOp48
 70
     1
102
RTVSPost2010Prop49
280
     0
102
RTVSPost2010PropOp49
 70
     1
102
RTVSPost2010Prop50
 90
       50
102
RTVSPost2010PropOp50
 70
     1
102
RTVSPost2010Prop51ColorIndex
 90
      256
102
RTVSPost2010Prop51ColorRGB
 90
-16777216
102
RTVSPost2010PropOp51
 70
     0
102
RTVSPost2010Prop52
140
1.0
102
RTVSPost2010PropOp52
 70
     0
102
RTVSPost2010Prop53
 90
        2
102
RTVSPost2010PropOp53
 70
     1
102
RTVSPost2010Prop54
  1
strokes_ogs.tif
102
RTVSPost2010PropOp54
 70
     1
102
RTVSPost2010Prop55
280
     0
102
RTVSPost2010PropOp55
 70
     1
102
RTVSPost2010Prop56
140
1.0
102
RTVSPost2010PropOp56
 70
     1
102
RTVSPost2010Prop57
140
1.0
102
RTVSPost2010PropOp57
 70
     1
  0
XRECORD
  5
ABB
102
{ACAD_REACTORS
330
ABA
102
}
330
ABA
100
AcDbXrecord
280
     1
102
RTVSPost2010Prop28
280
     0
102
RTVSPost2010PropOp28
 70
     1
102
RTVSPost2010Prop29
280
     1
102
RTVSPost2010PropOp29
 70
     1
102
RTVSPost2010Prop30
280
     1
102
RTVSPost2010PropOp30
 70
     1
102
RTVSPost2010Prop31
280
     0
102
RTVSPost2010PropOp31
 70
     1
102
RTVSPost2010Prop32
280
     0
102
RTVSPost2010PropOp32
 70
     1
102
RTVSPost2010Prop33
280
     0
102
RTVSPost2010PropOp33
 70
     1
102
RTVSPost2010Prop34
280
     0
102
RTVSPost2010PropOp34
 70
     1
102
RTVSPost2010Prop35
280
     0
102
RTVSPost2010PropOp35
 70
     1
102
RTVSPost2010Prop36
280
     0
102
RTVSPost2010PropOp36
 70
     1
102
RTVSPost2010Prop37
 90
       50
102
RTVSPost2010PropOp37
 70
     1
102
RTVSPost2010Prop38
140
0.0
102
RTVSPost2010PropOp38
 70
     1
102
RTVSPost2010Prop39
140
1.0
102
RTVSPost2010PropOp39
 70
     1
102
RTVSPost2010Prop40
 90
        0
102
RTVSPost2010PropOp40
 70
     1
102
RTVSPost2010Prop41ColorIndex
 90
       18
102
RTVSPost2010Prop41ColorRGB
 90
        0
102
RTVSPost2010PropOp41
 70
     1
102
RTVSPost2010Prop42
 90
       50
102
RTVSPost2010PropOp42
 70
     1
102
RTVSPost2010Prop43
 90
        3
102
RTVSPost2010PropOp43
 70
     1
102
RTVSPost2010Prop44ColorIndex
 90
        5
102
RTVSPost2010Prop44ColorRGB
 90
      255
102
RTVSPost2010PropOp44
 70
     1
102
RTVSPost2010Prop45
280
     0
102
RTVSPost2010PropOp45
 70
     1
102
RTVSPost2010Prop46
 90
       50
102
RTVSPost2010PropOp46
 70
     1
102
RTVSPost2010Prop47
 90
       50
102
RTVSPost2010PropOp47
 70
     1
102
RTVSPost2010Prop48
 90
       50
102
RTVSPost2010PropOp48
 70
     1
102
RTVSPost2010Prop49
280
     0
102
RTVSPost2010PropOp49
 70
     1
102
RTVSPost2010Prop50
 90
       50
102
RTVSPost2010PropOp50
 70
     1
102
RTVSPost2010Prop51ColorIndex
 90
      256
102
RTVSPost2010Prop51ColorRGB
 90
-16777216
102
RTVSPost2010PropOp51
 70
     0
102
RTVSPost2010Prop52
140
1.0
102
RTVSPost2010PropOp52
 70
     0
102
RTVSPost2010Prop53
 90
        2
102
RTVSPost2010PropOp53
 70
     1
102
RTVSPost2010Prop54
  1
strokes_ogs.tif
102
RTVSPost2010PropOp54
 70
     1
102
RTVSPost2010Prop55
280
     0
102
RTVSPost2010PropOp55
 70
     1
102
RTVSPost2010Prop56
140
1.0
102
RTVSPost2010PropOp56
 70
     1
102
RTVSPost2010Prop57
140
1.0
102
RTVSPost2010PropOp57
 70
     1
  0
XRECORD
  5
AB5
102
{ACAD_REACTORS
330
AB4
102
}
330
AB4
100
AcDbXrecord
280
     1
102
RTVSPost2010Prop28
280
     0
102
RTVSPost2010PropOp28
 70
     1
102
RTVSPost2010Prop29
280
     1
102
RTVSPost2010PropOp29
 70
     1
102
RTVSPost2010Prop30
280
     1
102
RTVSPost2010PropOp30
 70
     1
102
RTVSPost2010Prop31
280
     0
102
RTVSPost2010PropOp31
 70
     1
102
RTVSPost2010Prop32
280
     0
102
RTVSPost2010PropOp32
 70
     1
102
RTVSPost2010Prop33
280
     0
102
RTVSPost2010PropOp33
 70
     1
102
RTVSPost2010Prop34
280
     0
102
RTVSPost2010PropOp34
 70
     1
102
RTVSPost2010Prop35
280
     0
102
RTVSPost2010PropOp35
 70
     1
102
RTVSPost2010Prop36
280
     0
102
RTVSPost2010PropOp36
 70
     1
102
RTVSPost2010Prop37
 90
       50
102
RTVSPost2010PropOp37
 70
     1
102
RTVSPost2010Prop38
140
0.0
102
RTVSPost2010PropOp38
 70
     1
102
RTVSPost2010Prop39
140
1.0
102
RTVSPost2010PropOp39
 70
     1
102
RTVSPost2010Prop40
 90
        0
102
RTVSPost2010PropOp40
 70
     1
102
RTVSPost2010Prop41ColorIndex
 90
       18
102
RTVSPost2010Prop41ColorRGB
 90
        0
102
RTVSPost2010PropOp41
 70
     1
102
RTVSPost2010Prop42
 90
       50
102
RTVSPost2010PropOp42
 70
     1
102
RTVSPost2010Prop43
 90
        3
102
RTVSPost2010PropOp43
 70
     1
102
RTVSPost2010Prop44ColorIndex
 90
        5
102
RTVSPost2010Prop44ColorRGB
 90
      255
102
RTVSPost2010PropOp44
 70
     1
102
RTVSPost2010Prop45
280
     0
102
RTVSPost2010PropOp45
 70
     1
102
RTVSPost2010Prop46
 90
       50
102
RTVSPost2010PropOp46
 70
     1
102
RTVSPost2010Prop47
 90
       50
102
RTVSPost2010PropOp47
 70
     1
102
RTVSPost2010Prop48
 90
       50
102
RTVSPost2010PropOp48
 70
     1
102
RTVSPost2010Prop49
280
     0
102
RTVSPost2010PropOp49
 70
     1
102
RTVSPost2010Prop50
 90
       50
102
RTVSPost2010PropOp50
 70
     1
102
RTVSPost2010Prop51ColorIndex
 90
      256
102
RTVSPost2010Prop51ColorRGB
 90
-16777216
102
RTVSPost2010PropOp51
 70
     0
102
RTVSPost2010Prop52
140
1.0
102
RTVSPost2010PropOp52
 70
     0
102
RTVSPost2010Prop53
 90
        2
102
RTVSPost2010PropOp53
 70
     1
102
RTVSPost2010Prop54
  1
strokes_ogs.tif
102
RTVSPost2010PropOp54
 70
     1
102
RTVSPost2010Prop55
280
     0
102
RTVSPost2010PropOp55
 70
     1
102
RTVSPost2010Prop56
140
1.0
102
RTVSPost2010PropOp56
 70
     1
102
RTVSPost2010Prop57
140
1.0
102
RTVSPost2010PropOp57
 70
     1
  0
XRECORD
  5
AB7
102
{ACAD_REACTORS
330
AB6
102
}
330
AB6
100
AcDbXrecord
280
     1
102
RTVSPost2010Prop28
280
     0
102
RTVSPost2010PropOp28
 70
     1
102
RTVSPost2010Prop29
280
     1
102
RTVSPost2010PropOp29
 70
     1
102
RTVSPost2010Prop30
280
     1
102
RTVSPost2010PropOp30
 70
     1
102
RTVSPost2010Prop31
280
     0
102
RTVSPost2010PropOp31
 70
     1
102
RTVSPost2010Prop32
280
     0
102
RTVSPost2010PropOp32
 70
     1
102
RTVSPost2010Prop33
280
     0
102
RTVSPost2010PropOp33
 70
     1
102
RTVSPost2010Prop34
280
     0
102
RTVSPost2010PropOp34
 70
     1
102
RTVSPost2010Prop35
280
     0
102
RTVSPost2010PropOp35
 70
     1
102
RTVSPost2010Prop36
280
     0
102
RTVSPost2010PropOp36
 70
     1
102
RTVSPost2010Prop37
 90
       50
102
RTVSPost2010PropOp37
 70
     1
102
RTVSPost2010Prop38
140
0.0
102
RTVSPost2010PropOp38
 70
     1
102
RTVSPost2010Prop39
140
1.0
102
RTVSPost2010PropOp39
 70
     1
102
RTVSPost2010Prop40
 90
        0
102
RTVSPost2010PropOp40
 70
     1
102
RTVSPost2010Prop41ColorIndex
 90
       18
102
RTVSPost2010Prop41ColorRGB
 90
        0
102
RTVSPost2010PropOp41
 70
     1
102
RTVSPost2010Prop42
 90
       50
102
RTVSPost2010PropOp42
 70
     1
102
RTVSPost2010Prop43
 90
        3
102
RTVSPost2010PropOp43
 70
     1
102
RTVSPost2010Prop44ColorIndex
 90
        5
102
RTVSPost2010Prop44ColorRGB
 90
      255
102
RTVSPost2010PropOp44
 70
     1
102
RTVSPost2010Prop45
280
     0
102
RTVSPost2010PropOp45
 70
     1
102
RTVSPost2010Prop46
 90
       50
102
RTVSPost2010PropOp46
 70
     1
102
RTVSPost2010Prop47
 90
       50
102
RTVSPost2010PropOp47
 70
     1
102
RTVSPost2010Prop48
 90
       50
102
RTVSPost2010PropOp48
 70
     1
102
RTVSPost2010Prop49
280
     0
102
RTVSPost2010PropOp49
 70
     1
102
RTVSPost2010Prop50
 90
       50
102
RTVSPost2010PropOp50
 70
     1
102
RTVSPost2010Prop51ColorIndex
 90
      256
102
RTVSPost2010Prop51ColorRGB
 90
-16777216
102
RTVSPost2010PropOp51
 70
     0
102
RTVSPost2010Prop52
140
1.0
102
RTVSPost2010PropOp52
 70
     0
102
RTVSPost2010Prop53
 90
        2
102
RTVSPost2010PropOp53
 70
     1
102
RTVSPost2010Prop54
  1
strokes_ogs.tif
102
RTVSPost2010PropOp54
 70
     1
102
RTVSPost2010Prop55
280
     0
102
RTVSPost2010PropOp55
 70
     1
102
RTVSPost2010Prop56
140
1.0
102
RTVSPost2010PropOp56
 70
     1
102
RTVSPost2010Prop57
140
1.0
102
RTVSPost2010PropOp57
 70
     1
  0
XRECORD
  5
AAD
102
{ACAD_REACTORS
330
AAC
102
}
330
AAC
100
AcDbXrecord
280
     1
102
RTVSPost2010Prop28
280
     0
102
RTVSPost2010PropOp28
 70
     1
102
RTVSPost2010Prop29
280
     1
102
RTVSPost2010PropOp29
 70
     1
102
RTVSPost2010Prop30
280
     1
102
RTVSPost2010PropOp30
 70
     1
102
RTVSPost2010Prop31
280
     0
102
RTVSPost2010PropOp31
 70
     1
102
RTVSPost2010Prop32
280
     0
102
RTVSPost2010PropOp32
 70
     1
102
RTVSPost2010Prop33
280
     0
102
RTVSPost2010PropOp33
 70
     1
102
RTVSPost2010Prop34
280
     0
102
RTVSPost2010PropOp34
 70
     1
102
RTVSPost2010Prop35
280
     0
102
RTVSPost2010PropOp35
 70
     1
102
RTVSPost2010Prop36
280
     0
102
RTVSPost2010PropOp36
 70
     1
102
RTVSPost2010Prop37
 90
       50
102
RTVSPost2010PropOp37
 70
     1
102
RTVSPost2010Prop38
140
0.0
102
RTVSPost2010PropOp38
 70
     1
102
RTVSPost2010Prop39
140
1.0
102
RTVSPost2010PropOp39
 70
     1
102
RTVSPost2010Prop40
 90
        0
102
RTVSPost2010PropOp40
 70
     1
102
RTVSPost2010Prop41ColorIndex
 90
       18
102
RTVSPost2010Prop41ColorRGB
 90
        0
102
RTVSPost2010PropOp41
 70
     1
102
RTVSPost2010Prop42
 90
       50
102
RTVSPost2010PropOp42
 70
     1
102
RTVSPost2010Prop43
 90
        3
102
RTVSPost2010PropOp43
 70
     1
102
RTVSPost2010Prop44ColorIndex
 90
        5
102
RTVSPost2010Prop44ColorRGB
 90
      255
102
RTVSPost2010PropOp44
 70
     1
102
RTVSPost2010Prop45
280
     0
102
RTVSPost2010PropOp45
 70
     1
102
RTVSPost2010Prop46
 90
       50
102
RTVSPost2010PropOp46
 70
     1
102
RTVSPost2010Prop47
 90
       50
102
RTVSPost2010PropOp47
 70
     1
102
RTVSPost2010Prop48
 90
       50
102
RTVSPost2010PropOp48
 70
     1
102
RTVSPost2010Prop49
280
     0
102
RTVSPost2010PropOp49
 70
     1
102
RTVSPost2010Prop50
 90
       50
102
RTVSPost2010PropOp50
 70
     1
102
RTVSPost2010Prop51ColorIndex
 90
      256
102
RTVSPost2010Prop51ColorRGB
 90
-16777216
102
RTVSPost2010PropOp51
 70
     0
102
RTVSPost2010Prop52
140
1.0
102
RTVSPost2010PropOp52
 70
     0
102
RTVSPost2010Prop53
 90
        2
102
RTVSPost2010PropOp53
 70
     1
102
RTVSPost2010Prop54
  1
strokes_ogs.tif
102
RTVSPost2010PropOp54
 70
     1
102
RTVSPost2010Prop55
280
     0
102
RTVSPost2010PropOp55
 70
     1
102
RTVSPost2010Prop56
140
1.0
102
RTVSPost2010PropOp56
 70
     1
102
RTVSPost2010Prop57
140
1.0
102
RTVSPost2010PropOp57
 70
     1
  0
XRECORD
  5
AA1
102
{ACAD_REACTORS
330
AA0
102
}
330
AA0
100
AcDbXrecord
280
     1
102
RTVSPost2010Prop28
280
     0
102
RTVSPost2010PropOp28
 70
     1
102
RTVSPost2010Prop29
280
     1
102
RTVSPost2010PropOp29
 70
     1
102
RTVSPost2010Prop30
280
     1
102
RTVSPost2010PropOp30
 70
     1
102
RTVSPost2010Prop31
280
     0
102
RTVSPost2010PropOp31
 70
     1
102
RTVSPost2010Prop32
280
     0
102
RTVSPost2010PropOp32
 70
     1
102
RTVSPost2010Prop33
280
     0
102
RTVSPost2010PropOp33
 70
     1
102
RTVSPost2010Prop34
280
     0
102
RTVSPost2010PropOp34
 70
     1
102
RTVSPost2010Prop35
280
     0
102
RTVSPost2010PropOp35
 70
     1
102
RTVSPost2010Prop36
280
     0
102
RTVSPost2010PropOp36
 70
     1
102
RTVSPost2010Prop37
 90
       50
102
RTVSPost2010PropOp37
 70
     1
102
RTVSPost2010Prop38
140
0.0
102
RTVSPost2010PropOp38
 70
     1
102
RTVSPost2010Prop39
140
1.0
102
RTVSPost2010PropOp39
 70
     1
102
RTVSPost2010Prop40
 90
        0
102
RTVSPost2010PropOp40
 70
     1
102
RTVSPost2010Prop41ColorIndex
 90
       18
102
RTVSPost2010Prop41ColorRGB
 90
        0
102
RTVSPost2010PropOp41
 70
     1
102
RTVSPost2010Prop42
 90
       50
102
RTVSPost2010PropOp42
 70
     1
102
RTVSPost2010Prop43
 90
        3
102
RTVSPost2010PropOp43
 70
     1
102
RTVSPost2010Prop44ColorIndex
 90
        5
102
RTVSPost2010Prop44ColorRGB
 90
      255
102
RTVSPost2010PropOp44
 70
     1
102
RTVSPost2010Prop45
280
     0
102
RTVSPost2010PropOp45
 70
     1
102
RTVSPost2010Prop46
 90
       50
102
RTVSPost2010PropOp46
 70
     1
102
RTVSPost2010Prop47
 90
       50
102
RTVSPost2010PropOp47
 70
     1
102
RTVSPost2010Prop48
 90
       50
102
RTVSPost2010PropOp48
 70
     1
102
RTVSPost2010Prop49
280
     0
102
RTVSPost2010PropOp49
 70
     1
102
RTVSPost2010Prop50
 90
       50
102
RTVSPost2010PropOp50
 70
     1
102
RTVSPost2010Prop51ColorIndex
 90
      256
102
RTVSPost2010Prop51ColorRGB
 90
-16777216
102
RTVSPost2010PropOp51
 70
     0
102
RTVSPost2010Prop52
140
1.0
102
RTVSPost2010PropOp52
 70
     0
102
RTVSPost2010Prop53
 90
        2
102
RTVSPost2010PropOp53
 70
     1
102
RTVSPost2010Prop54
  1
strokes_ogs.tif
102
RTVSPost2010PropOp54
 70
     1
102
RTVSPost2010Prop55
280
     0
102
RTVSPost2010PropOp55
 70
     1
102
RTVSPost2010Prop56
140
1.0
102
RTVSPost2010PropOp56
 70
     1
102
RTVSPost2010Prop57
140
1.0
102
RTVSPost2010PropOp57
 70
     1
  0
XRECORD
  5
AB9
102
{ACAD_REACTORS
330
AB8
102
}
330
AB8
100
AcDbXrecord
280
     1
102
RTVSPost2010Prop28
280
     0
102
RTVSPost2010PropOp28
 70
     1
102
RTVSPost2010Prop29
280
     1
102
RTVSPost2010PropOp29
 70
     1
102
RTVSPost2010Prop30
280
     1
102
RTVSPost2010PropOp30
 70
     1
102
RTVSPost2010Prop31
280
     0
102
RTVSPost2010PropOp31
 70
     1
102
RTVSPost2010Prop32
280
     0
102
RTVSPost2010PropOp32
 70
     1
102
RTVSPost2010Prop33
280
     0
102
RTVSPost2010PropOp33
 70
     1
102
RTVSPost2010Prop34
280
     0
102
RTVSPost2010PropOp34
 70
     1
102
RTVSPost2010Prop35
280
     0
102
RTVSPost2010PropOp35
 70
     1
102
RTVSPost2010Prop36
280
     0
102
RTVSPost2010PropOp36
 70
     1
102
RTVSPost2010Prop37
 90
       50
102
RTVSPost2010PropOp37
 70
     1
102
RTVSPost2010Prop38
140
0.0
102
RTVSPost2010PropOp38
 70
     1
102
RTVSPost2010Prop39
140
1.0
102
RTVSPost2010PropOp39
 70
     1
102
RTVSPost2010Prop40
 90
        0
102
RTVSPost2010PropOp40
 70
     1
102
RTVSPost2010Prop41ColorIndex
 90
       18
102
RTVSPost2010Prop41ColorRGB
 90
        0
102
RTVSPost2010PropOp41
 70
     1
102
RTVSPost2010Prop42
 90
       50
102
RTVSPost2010PropOp42
 70
     1
102
RTVSPost2010Prop43
 90
        3
102
RTVSPost2010PropOp43
 70
     1
102
RTVSPost2010Prop44ColorIndex
 90
        5
102
RTVSPost2010Prop44ColorRGB
 90
      255
102
RTVSPost2010PropOp44
 70
     1
102
RTVSPost2010Prop45
280
     0
102
RTVSPost2010PropOp45
 70
     1
102
RTVSPost2010Prop46
 90
       50
102
RTVSPost2010PropOp46
 70
     1
102
RTVSPost2010Prop47
 90
       50
102
RTVSPost2010PropOp47
 70
     1
102
RTVSPost2010Prop48
 90
       50
102
RTVSPost2010PropOp48
 70
     1
102
RTVSPost2010Prop49
280
     0
102
RTVSPost2010PropOp49
 70
     1
102
RTVSPost2010Prop50
 90
       50
102
RTVSPost2010PropOp50
 70
     1
102
RTVSPost2010Prop51ColorIndex
 90
      256
102
RTVSPost2010Prop51ColorRGB
 90
-16777216
102
RTVSPost2010PropOp51
 70
     0
102
RTVSPost2010Prop52
140
1.0
102
RTVSPost2010PropOp52
 70
     0
102
RTVSPost2010Prop53
 90
        2
102
RTVSPost2010PropOp53
 70
     1
102
RTVSPost2010Prop54
  1
strokes_ogs.tif
102
RTVSPost2010PropOp54
 70
     1
102
RTVSPost2010Prop55
280
     0
102
RTVSPost2010PropOp55
 70
     1
102
RTVSPost2010Prop56
140
1.0
102
RTVSPost2010PropOp56
 70
     1
102
RTVSPost2010Prop57
140
1.0
102
RTVSPost2010PropOp57
 70
     1
  0
ENDSEC
  0
EOF
