  0
SECTION
  2
HEADER
  9
$ACADVER
  1
AC1032
  9
$ACADMAINTVER
 90
       55
  9
$DWGCODEPAGE
  3
ANSI_1252
  9
$LASTSAVEDBY
  1
tkz500
  9
$REQUIREDVERSIONS
160
                 0
  9
$INSBASE
 10
0.0
 20
0.0
 30
0.0
  9
$EXTMIN
 10
1.000000000000000E+20
 20
1.000000000000000E+20
 30
1.000000000000000E+20
  9
$EXTMAX
 10
-1.000000000000000E+20
 20
-1.000000000000000E+20
 30
-1.000000000000000E+20
  9
$LIMMIN
 10
0.0
 20
0.0
  9
$LIMMAX
 10
420.0
 20
297.0
  9
$ORTHOMODE
 70
     0
  9
$REGENMODE
 70
     1
  9
$FILLMODE
 70
     1
  9
$QTEXTMODE
 70
     0
  9
$MIRRTEXT
 70
     0
  9
$LTSCALE
 40
1.0
  9
$ATTMODE
 70
     1
  9
$TEXTSIZE
 40
2.5
  9
$TRACEWID
 40
1.0
  9
$TEXTSTYLE
  7
Standard
  9
$CLAYER
  8
0
  9
$CELTYPE
  6
ByLayer
  9
$CECOLOR
 62
   256
  9
$CELTSCALE
 40
1.0
  9
$DISPSILH
 70
     0
  9
$DIMSCALE
 40
1.0
  9
$DIMASZ
 40
2.5
  9
$DIMEXO
 40
0.625
  9
$DIMDLI
 40
5.0
  9
$DIMRND
 40
0.0
  9
$DIMDLE
 40
0.0
  9
$DIMEXE
 40
1.25
  9
$DIMTP
 40
0.0
  9
$DIMTM
 40
0.0
  9
$DIMTXT
 40
2.5
  9
$DIMCEN
 40
2.5
  9
$DIMTSZ
 40
0.0
  9
$DIMTOL
 70
     0
  9
$DIMLIM
 70
     0
  9
$DIMTIH
 70
     0
  9
$DIMTOH
 70
     0
  9
$DIMSE1
 70
     0
  9
$DIMSE2
 70
     0
  9
$DIMTAD
 70
     1
  9
$DIMZIN
 70
     8
  9
$DIMBLK
  1

  9
$DIMASO
 70
     1
  9
$DIMSHO
 70
     1
  9
$DIMPOST
  1

  9
$DIMAPOST
  1

  9
$DIMALT
 70
     0
  9
$DIMALTD
 70
     3
  9
$DIMALTF
 40
0.03937007874016
  9
$DIMLFAC
 40
1.0
  9
$DIMTOFL
 70
     1
  9
$DIMTVP
 40
0.0
  9
$DIMTIX
 70
     0
  9
$DIMSOXD
 70
     0
  9
$DIMSAH
 70
     0
  9
$DIMBLK1
  1

  9
$DIMBLK2
  1

  9
$DIMSTYLE
  2
ISO-25
  9
$DIMCLRD
 70
     0
  9
$DIMCLRE
 70
     0
  9
$DIMCLRT
 70
     0
  9
$DIMTFAC
 40
1.0
  9
$DIMGAP
 40
0.625
  9
$DIMJUST
 70
     0
  9
$DIMSD1
 70
     0
  9
$DIMSD2
 70
     0
  9
$DIMTOLJ
 70
     0
  9
$DIMTZIN
 70
     8
  9
$DIMALTZ
 70
     0
  9
$DIMALTTZ
 70
     0
  9
$DIMUPT
 70
     0
  9
$DIMDEC
 70
     2
  9
$DIMTDEC
 70
     2
  9
$DIMALTU
 70
     2
  9
$DIMALTTD
 70
     3
  9
$DIMTXSTY
  7
Standard
  9
$DIMAUNIT
 70
     0
  9
$DIMADEC
 70
     0
  9
$DIMALTRND
 40
0.0
  9
$DIMAZIN
 70
     0
  9
$DIMDSEP
 70
    44
  9
$DIMATFIT
 70
     3
  9
$DIMFRAC
 70
     0
  9
$DIMLDRBLK
  1

  9
$DIMLUNIT
 70
     2
  9
$DIMLWD
 70
    -2
  9
$DIMLWE
 70
    -2
  9
$DIMTMOVE
 70
     0
  9
$DIMFXL
 40
1.0
  9
$DIMFXLON
 70
     0
  9
$DIMJOGANG
 40
0.7853981633974483
  9
$DIMTFILL
 70
     0
  9
$DIMTFILLCLR
 70
     0
  9
$DIMARCSYM
 70
     0
  9
$DIMLTYPE
  6

  9
$DIMLTEX1
  6

  9
$DIMLTEX2
  6

  9
$DIMTXTDIRECTION
 70
     0
  9
$LUNITS
 70
     2
  9
$LUPREC
 70
     4
  9
$SKETCHINC
 40
1.0
  9
$FILLETRAD
 40
0.0
  9
$AUNITS
 70
     0
  9
$AUPREC
 70
     0
  9
$MENU
  1
.
  9
$ELEVATION
 40
0.0
  9
$PELEVATION
 40
0.0
  9
$THICKNESS
 40
0.0
  9
$LIMCHECK
 70
     0
  9
$CHAMFERA
 40
0.0
  9
$CHAMFERB
 40
0.0
  9
$CHAMFERC
 40
0.0
  9
$CHAMFERD
 40
0.0
  9
$SKPOLY
 70
     0
  9
$TDCREATE
 40
2458968.540621609
  9
$TDUCREATE
 40
2458968.540621609
  9
$TDUPDATE
 40
2459297.658759641
  9
$TDUUPDATE
 40
2459297.658759641
  9
$TDINDWG
 40
2458968.500403218
  9
$TDUSRTIMER
 40
0.0307695139
  9
$USRTIMER
 70
     1
  9
$ANGBASE
 50
0.0
  9
$ANGDIR
 70
     0
  9
$PDMODE
 70
     0
  9
$PDSIZE
 40
0.0
  9
$PLINEWID
 40
0.0
  9
$SPLFRAME
 70
     0
  9
$SPLINETYPE
 70
     6
  9
$SPLINESEGS
 70
     8
  9
$HANDSEED
  5
41D
  9
$SURFTAB1
 70
     6
  9
$SURFTAB2
 70
     6
  9
$SURFTYPE
 70
     6
  9
$SURFU
 70
     6
  9
$SURFV
 70
     6
  9
$UCSBASE
  2

  9
$UCSNAME
  2

  9
$UCSORG
 10
0.0
 20
0.0
 30
0.0
  9
$UCSXDIR
 10
1.0
 20
0.0
 30
0.0
  9
$UCSYDIR
 10
0.0
 20
1.0
 30
0.0
  9
$UCSORTHOREF
  2

  9
$UCSORTHOVIEW
 70
     0
  9
$UCSORGTOP
 10
0.0
 20
0.0
 30
0.0
  9
$UCSORGBOTTOM
 10
0.0
 20
0.0
 30
0.0
  9
$UCSORGLEFT
 10
0.0
 20
0.0
 30
0.0
  9
$UCSORGRIGHT
 10
0.0
 20
0.0
 30
0.0
  9
$UCSORGFRONT
 10
0.0
 20
0.0
 30
0.0
  9
$UCSORGBACK
 10
0.0
 20
0.0
 30
0.0
  9
$PUCSBASE
  2

  9
$PUCSNAME
  2

  9
$PUCSORG
 10
0.0
 20
0.0
 30
0.0
  9
$PUCSXDIR
 10
1.0
 20
0.0
 30
0.0
  9
$PUCSYDIR
 10
0.0
 20
1.0
 30
0.0
  9
$PUCSORTHOREF
  2

  9
$PUCSORTHOVIEW
 70
     0
  9
$PUCSORGTOP
 10
0.0
 20
0.0
 30
0.0
  9
$PUCSORGBOTTOM
 10
0.0
 20
0.0
 30
0.0
  9
$PUCSORGLEFT
 10
0.0
 20
0.0
 30
0.0
  9
$PUCSORGRIGHT
 10
0.0
 20
0.0
 30
0.0
  9
$PUCSORGFRONT
 10
0.0
 20
0.0
 30
0.0
  9
$PUCSORGBACK
 10
0.0
 20
0.0
 30
0.0
  9
$USERI1
 70
     0
  9
$USERI2
 70
     0
  9
$USERI3
 70
     0
  9
$USERI4
 70
     0
  9
$USERI5
 70
     0
  9
$USERR1
 40
0.0
  9
$USERR2
 40
0.0
  9
$USERR3
 40
0.0
  9
$USERR4
 40
0.0
  9
$USERR5
 40
0.0
  9
$WORLDVIEW
 70
     1
  9
$SHADEDGE
 70
     3
  9
$SHADEDIF
 70
    70
  9
$TILEMODE
 70
     0
  9
$MAXACTVP
 70
    64
  9
$PINSBASE
 10
0.0
 20
0.0
 30
0.0
  9
$PLIMCHECK
 70
     0
  9
$PEXTMIN
 10
2.0
 20
3.0
 30
0.0
  9
$PEXTMAX
 10
402.0
 20
284.0
 30
0.0
  9
$PLIMMIN
 10
-3.67242431640625
 20
-6.043083190917969
  9
$PLIMMAX
 10
416.2742309570312
 20
290.9675674438477
  9
$UNITMODE
 70
     0
  9
$VISRETAIN
 70
     1
  9
$PLINEGEN
 70
     0
  9
$PSLTSCALE
 70
     1
  9
$TREEDEPTH
 70
  3020
  9
$CMLSTYLE
  2
Standard
  9
$CMLJUST
 70
     0
  9
$CMLSCALE
 40
20.0
  9
$PROXYGRAPHICS
 70
     1
  9
$MEASUREMENT
 70
     1
  9
$CELWEIGHT
370
    -1
  9
$ENDCAPS
280
     0
  9
$JOINSTYLE
280
     0
  9
$LWDISPLAY
290
     0
  9
$INSUNITS
 70
     4
  9
$HYPERLINKBASE
  1

  9
$STYLESHEET
  1

  9
$XEDIT
290
     1
  9
$CEPSNTYPE
380
     0
  9
$PSTYLEMODE
290
     1
  9
$FINGERPRINTGUID
  2
{5559452E-1E62-4159-8551-BF76FFF3E7E8}
  9
$VERSIONGUID
  2
{24D42855-44CC-49A4-B92B-68050FEA16DC}
  9
$EXTNAMES
290
     1
  9
$PSVPSCALE
 40
0.0
  9
$OLESTARTUP
290
     0
  9
$SORTENTS
280
   127
  9
$INDEXCTL
280
     0
  9
$HIDETEXT
280
     1
  9
$XCLIPFRAME
280
     0
  9
$HALOGAP
280
     0
  9
$OBSCOLOR
 70
   257
  9
$OBSLTYPE
280
     0
  9
$INTERSECTIONDISPLAY
280
     0
  9
$INTERSECTIONCOLOR
 70
   257
  9
$DIMASSOC
280
     2
  9
$PROJECTNAME
  1

  9
$CAMERADISPLAY
290
     0
  9
$LENSLENGTH
 40
50.0
  9
$CAMERAHEIGHT
 40
0.0
  9
$STEPSPERSEC
 40
2.0
  9
$STEPSIZE
 40
6.0
  9
$3DDWFPREC
 40
2.0
  9
$PSOLWIDTH
 40
0.25
  9
$PSOLHEIGHT
 40
4.0
  9
$LOFTANG1
 40
1.570796326794897
  9
$LOFTANG2
 40
1.570796326794897
  9
$LOFTMAG1
 40
1.0
  9
$LOFTMAG2
 40
1.0
  9
$LOFTPARAM
 70
     7
  9
$LOFTNORMALS
280
     1
  9
$LATITUDE
 40
37.795
  9
$LONGITUDE
 40
-122.394
  9
$NORTHDIRECTION
 40
0.0
  9
$TIMEZONE
 70
 -8000
  9
$LIGHTGLYPHDISPLAY
280
     1
  9
$TILEMODELIGHTSYNCH
280
     1
  9
$CMATERIAL
347
100
  9
$SOLIDHIST
280
     1
  9
$SHOWHIST
280
     1
  9
$DWFFRAME
280
     0
  9
$DGNFRAME
280
     2
  9
$REALWORLDSCALE
290
     1
  9
$INTERFERECOLOR
 62
   256
  9
$CSHADOW
280
     0
  9
$SHADOWPLANELOCATION
 40
0.0
  0
ENDSEC
  0
SECTION
  2
CLASSES
  0
CLASS
  1
ACDBDICTIONARYWDFLT
  2
AcDbDictionaryWithDefault
  3
ObjectDBX Classes
 90
        0
 91
        3
280
     0
281
     0
  0
CLASS
  1
ACDBPLACEHOLDER
  2
AcDbPlaceHolder
  3
ObjectDBX Classes
 90
        0
 91
        1
280
     0
281
     0
  0
CLASS
  1
LAYOUT
  2
AcDbLayout
  3
ObjectDBX Classes
 90
        0
 91
        1
280
     0
281
     0
  0
CLASS
  1
DICTIONARYVAR
  2
AcDbDictionaryVar
  3
ObjectDBX Classes
 90
        0
 91
        3
280
     0
281
     0
  0
CLASS
  1
TABLESTYLE
  2
AcDbTableStyle
  3
ObjectDBX Classes
 90
     4095
 91
        3
280
     0
281
     0
  0
CLASS
  1
SCALE
  2
AcDbScale
  3
ObjectDBX Classes
 90
     1153
 91
        3
280
     0
281
     0
  0
CLASS
  1
MATERIAL
  2
AcDbMaterial
  3
ObjectDBX Classes
 90
     1153
 91
        3
280
     0
281
     0
  0
CLASS
  1
VISUALSTYLE
  2
AcDbVisualStyle
  3
ObjectDBX Classes
 90
     4095
 91
        3
280
     0
281
     0
  0
CLASS
  1
SUN
  2
AcDbSun
  3
SCENEOE
 90
     1153
 91
        3
280
     0
281
     0
  0
CLASS
  1
CELLSTYLEMAP
  2
AcDbCellStyleMap
  3
ObjectDBX Classes
 90
     1152
 91
        3
280
     0
281
     0
  0
CLASS
  1
MLEADERSTYLE
  2
AcDbMLeaderStyle
  3
ACDB_MLEADERSTYLE_CLASS
 90
     4095
 91
        3
280
     0
281
     0
  0
CLASS
  1
ACDBSECTIONVIEWSTYLE
  2
AcDbSectionViewStyle
  3
ObjectDBX Classes
 90
     1025
 91
        3
280
     0
281
     0
  0
CLASS
  1
ACDBDETAILVIEWSTYLE
  2
AcDbDetailViewStyle
  3
ObjectDBX Classes
 90
     1025
 91
        3
280
     0
281
     0
  0
CLASS
  1
SORTENTSTABLE
  2
AcDbSortentsTable
  3
ObjectDBX Classes
 90
        0
 91
        3
280
     0
281
     0
  0
CLASS
  1
DBCOLOR
  2
AcDbColor
  3
ObjectDBX Classes
 90
        0
 91
        3
280
     0
281
     0
  0
ENDSEC
  0
SECTION
  2
TABLES
  0
TABLE
  2
VPORT
  5
8
330
0
100
AcDbSymbolTable
 70
     1
  0
VPORT
  5
97
330
8
100
AcDbSymbolTableRecord
100
AcDbViewportTableRecord
  2
*Active
 70
     0
 10
0.0
 20
0.0
 11
1.0
 21
1.0
 12
381034.759
 22
225810.564
 13
0.0
 23
0.0
 14
10.0
 24
10.0
 15
10.0
 25
10.0
 16
0.0
 26
0.0
 36
1.0
 17
0.0
 27
0.0
 37
0.0
 40
185.0871600000135
 41
1.840688912809473
 42
50.0
 43
0.0
 44
0.0
 50
0.0
 51
0.0
 71
    16
 72
  1000
 73
     1
 74
     3
 75
     0
 76
     0
 77
     0
 78
     0
281
     0
 65
     1
110
0.0
120
0.0
130
0.0
111
1.0
121
0.0
131
0.0
112
0.0
122
1.0
132
0.0
 79
     0
146
0.0
348
108
 60
     3
 61
     5
292
     1
282
     1
141
0.0
142
0.0
 63
   256
361
114
1001
ACAD_NAV_VCDISPLAY
1070
     3
  0
ENDTAB
  0
TABLE
  2
LTYPE
  5
5
330
0
100
AcDbSymbolTable
 70
     2
  0
LTYPE
  5
14
330
5
100
AcDbSymbolTableRecord
100
AcDbLinetypeTableRecord
  2
ByBlock
 70
     0
  3

 72
    65
 73
     0
 40
0.0
  0
LTYPE
  5
15
330
5
100
AcDbSymbolTableRecord
100
AcDbLinetypeTableRecord
  2
ByLayer
 70
     0
  3

 72
    65
 73
     0
 40
0.0
  0
LTYPE
  5
16
330
5
100
AcDbSymbolTableRecord
100
AcDbLinetypeTableRecord
  2
Continuous
 70
     0
  3
Solid line
 72
    65
 73
     0
 40
0.0
  0
LTYPE
  5
3FA
330
5
100
AcDbSymbolTableRecord
100
AcDbLinetypeTableRecord
  2
DASHED2
 70
     0
  3
_ _ _ _ _ _ _ _ _ _ _ _ _ _ _ _ _ _ _ _ _ _ _ _
 72
    65
 73
     2
 40
0.375
 49
0.25
 74
     0
 49
-0.125
 74
     0
  0
ENDTAB
  0
TABLE
  2
LAYER
  5
2
102
{ACAD_XDICTIONARY
360
13D
102
}
330
0
100
AcDbSymbolTable
 70
    16
  0
LAYER
  5
10
330
2
100
AcDbSymbolTableRecord
100
AcDbLayerTableRecord
  2
0
 70
     0
 62
     7
  6
Continuous
370
    -3
390
F
347
102
348
0
  0
LAYER
  5
1D2
330
2
100
AcDbSymbolTableRecord
100
AcDbLayerTableRecord
  2
Defpoints
 70
     0
 62
     7
  6
Continuous
290
     0
370
    -3
390
F
347
102
348
0
  0
LAYER
  5
1D4
330
2
100
AcDbSymbolTableRecord
100
AcDbLayerTableRecord
  2
Placemark2
 70
     0
 62
    10
  6
Continuous
370
    -3
390
F
347
102
348
0
  0
LAYER
  5
1D7
330
2
100
AcDbSymbolTableRecord
100
AcDbLayerTableRecord
  2
AS-ABST MAG POS LINEAR UNCERTAIN
 70
     0
 62
    30
  6
Continuous
370
    -3
390
F
347
102
348
0
  0
LAYER
  5
1DB
330
2
100
AcDbSymbolTableRecord
100
AcDbLayerTableRecord
  2
AS-ABST MAG POS DISCRETE UNCERTAIN
 70
     0
 62
    30
  6
Continuous
370
    -3
390
F
347
102
348
0
  0
LAYER
  5
1F9
330
2
100
AcDbSymbolTableRecord
100
AcDbLayerTableRecord
  2
AS-ABST MAG DEBRIS
 70
     0
 62
   252
  6
Continuous
370
    -3
390
F
347
102
348
0
  0
LAYER
  5
1FB
330
2
100
AcDbSymbolTableRecord
100
AcDbLayerTableRecord
  2
AS-ABST MAG DISTURBANCE
 70
     0
 62
   253
  6
Continuous
370
    -3
390
F
347
102
348
0
  0
LAYER
  5
200
330
2
100
AcDbSymbolTableRecord
100
AcDbLayerTableRecord
  2
AS-ABSTRACTION BOUNDARY
 70
     0
 62
   253
  6
Continuous
370
    -3
390
F
347
102
348
0
  0
LAYER
  5
202
330
2
100
AcDbSymbolTableRecord
100
AcDbLayerTableRecord
  2
AS-ABST MAG STRONG DIPOLAR
 70
     0
 62
   252
  6
Continuous
370
    -3
390
F
347
102
348
0
  0
LAYER
  5
2F9
330
2
100
AcDbSymbolTableRecord
100
AcDbLayerTableRecord
  2
AS-ANOMALY LABELS
 70
     0
 62
     7
  6
Continuous
370
    -3
390
F
347
102
348
0
  0
LAYER
  5
312
330
2
100
AcDbSymbolTableRecord
100
AcDbLayerTableRecord
  2
AS-TEMPLATE
 70
     0
 62
     7
  6
Continuous
370
    -3
390
F
347
102
348
0
  0
LAYER
  5
31B
330
2
100
AcDbSymbolTableRecord
100
AcDbLayerTableRecord
  2
AS-NORTH
 70
     0
 62
     7
  6
Continuous
370
    -3
390
F
347
102
348
0
  0
LAYER
  5
325
330
2
100
AcDbSymbolTableRecord
100
AcDbLayerTableRecord
  2
AS-FIGxx ABSTRACTION
 70
     0
 62
     7
  6
Continuous
370
    -3
390
F
347
102
348
0
1001
AcAecLayerStandard
1000

1000

  0
LAYER
  5
35A
330
2
100
AcDbSymbolTableRecord
100
AcDbLayerTableRecord
  2
AS-1-1000 SCALEBAR
 70
     0
 62
     7
  6
Continuous
370
    -3
390
F
347
102
348
0
  0
LAYER
  5
377
330
2
100
AcDbSymbolTableRecord
100
AcDbLayerTableRecord
  2
AS-LOGO
 70
     0
 62
     7
  6
Continuous
370
    -3
390
F
347
102
348
0
  0
LAYER
  5
3FC
330
2
100
AcDbSymbolTableRecord
100
AcDbLayerTableRecord
  2
AS-FIG05 ABSTRACTION
 70
     0
 62
     7
  6
Continuous
370
    -3
390
F
347
102
348
0
1001
AcAecLayerStandard
1000

1000

  0
ENDTAB
  0
TABLE
  2
STYLE
  5
3
330
0
100
AcDbSymbolTable
 70
     2
  0
STYLE
  5
11
330
3
100
AcDbSymbolTableRecord
100
AcDbTextStyleTableRecord
  2
Standard
 70
     0
 40
0.0
 41
1.0
 50
0.0
 71
     0
 42
2.5
  3
arial.ttf
  4

1001
ACAD
1000
Arial
1071
       34
  0
STYLE
  5
2FA
330
3
100
AcDbSymbolTableRecord
100
AcDbTextStyleTableRecord
  2
Archaeological Surveys
 70
     0
 40
0.0
 41
1.0
 50
0.0
 71
     0
 42
3.0
  3
ARIAL.TTF
  4

1001
ACAD
1000
Arial
1071
       34
  0
ENDTAB
  0
TABLE
  2
VIEW
  5
6
330
0
100
AcDbSymbolTable
 70
     1
  0
VIEW
  5
410
330
6
100
AcDbSymbolTableRecord
100
AcDbViewTableRecord
  2
1-1000
 70
     0
 40
281.0
 10
381034.759
 20
225810.564
 41
330.0
 11
0.0
 21
0.0
 31
1.0
 12
0.0
 22
0.0
 32
0.0
 42
50.0
 43
0.0
 44
0.0
 50
0.0
 71
     0
281
     0
 72
     1
 73
     0
348
108
111
1.0
121
0.0
131
0.0
112
0.0
122
1.0
132
0.0
 79
     0
146
0.0
  0
ENDTAB
  0
TABLE
  2
UCS
  5
7
330
0
100
AcDbSymbolTable
 70
     0
  0
ENDTAB
  0
TABLE
  2
APPID
  5
9
330
0
100
AcDbSymbolTable
 70
     7
  0
APPID
  5
12
330
9
100
AcDbSymbolTableRecord
100
AcDbRegAppTableRecord
  2
ACAD
 70
     0
  0
APPID
  5
F9
330
9
100
AcDbSymbolTableRecord
100
AcDbRegAppTableRecord
  2
PROGE_PRINT_SETTINGS
 70
     0
  0
APPID
  5
187
330
9
100
AcDbSymbolTableRecord
100
AcDbRegAppTableRecord
  2
ACAD_PSEXT
 70
     0
  0
APPID
  5
190
330
9
100
AcDbSymbolTableRecord
100
AcDbRegAppTableRecord
  2
ACAD_NAV_VCDISPLAY
 70
     0
  0
APPID
  5
1CF
330
9
100
AcDbSymbolTableRecord
100
AcDbRegAppTableRecord
  2
ACAD_MLEADERVER
 70
     0
  0
APPID
  5
2F4
330
9
100
AcDbSymbolTableRecord
100
AcDbRegAppTableRecord
  2
AcadAnnotative
 70
     0
  0
APPID
  5
326
330
9
100
AcDbSymbolTableRecord
100
AcDbRegAppTableRecord
  2
AcAecLayerStandard
 70
     0
  0
ENDTAB
  0
TABLE
  2
DIMSTYLE
  5
A
330
0
100
AcDbSymbolTable
 70
     2
100
AcDbDimStyleTable
  0
DIMSTYLE
105
27
330
A
100
AcDbSymbolTableRecord
100
AcDbDimStyleTableRecord
  2
Standard
 70
     0
178
     0
278
     0
340
11
  0
DIMSTYLE
105
29
330
A
100
AcDbSymbolTableRecord
100
AcDbDimStyleTableRecord
  2
ISO-25
 70
     0
 41
2.5
 42
0.625
 43
5.0
 44
1.25
 73
     0
 74
     0
 77
     1
 78
     8
140
2.5
141
2.5
143
0.03937007874016
147
0.625
171
     3
172
     1
178
     0
271
     2
272
     2
274
     3
278
    44
283
     0
284
     8
340
11
  0
ENDTAB
  0
TABLE
  2
BLOCK_RECORD
  5
1
330
0
100
AcDbSymbolTable
 70
     3
  0
BLOCK_RECORD
  5
1F
330
1
100
AcDbSymbolTableRecord
100
AcDbBlockTableRecord
  2
*Model_Space
340
22
 70
     0
280
     1
281
     0
  0
BLOCK_RECORD
  5
309
102
{ACAD_XDICTIONARY
360
30A
102
}
330
1
100
AcDbSymbolTableRecord
100
AcDbBlockTableRecord
  2
*Paper_Space
340
3F7
 70
     0
280
     1
281
     0
  0
BLOCK_RECORD
  5
164
330
1
100
AcDbSymbolTableRecord
100
AcDbBlockTableRecord
  2
*Paper_Space0
340
165
 70
     0
280
     1
281
     0
  0
BLOCK_RECORD
  5
160
330
1
100
AcDbSymbolTableRecord
100
AcDbBlockTableRecord
  2
*Paper_Space1
340
161
 70
     0
280
     1
281
     0
  0
BLOCK_RECORD
  5
378
102
{ACAD_XDICTIONARY
360
379
102
}
330
1
100
AcDbSymbolTableRecord
100
AcDbBlockTableRecord
  2
AS logo block 2019 v2
340
0
102
{BLKREFS
331
376
102
}
 70
     4
280
     1
281
     0
  0
ENDTAB
  0
ENDSEC
  0
SECTION
  2
BLOCKS
  0
BLOCK
  5
20
330
1F
100
AcDbEntity
  8
0
100
AcDbBlockBegin
  2
*Model_Space
 70
     0
 10
0.0
 20
0.0
 30
0.0
  3
*Model_Space
  1

  0
ENDBLK
  5
21
330
1F
100
AcDbEntity
  8
0
100
AcDbBlockEnd
  0
BLOCK
  5
30C
330
309
100
AcDbEntity
 67
     1
  8
0
100
AcDbBlockBegin
  2
*Paper_Space
 70
     0
 10
0.0
 20
0.0
 30
0.0
  3
*Paper_Space
  1

  0
ENDBLK
  5
3F6
330
309
100
AcDbEntity
 67
     1
  8
0
100
AcDbBlockEnd
  0
BLOCK
  5
166
330
164
100
AcDbEntity
  8
0
100
AcDbBlockBegin
  2
*Paper_Space0
 70
     0
 10
0.0
 20
0.0
 30
0.0
  3
*Paper_Space0
  1

  0
ENDBLK
  5
167
330
164
100
AcDbEntity
  8
0
100
AcDbBlockEnd
  0
BLOCK
  5
162
330
160
100
AcDbEntity
  8
0
100
AcDbBlockBegin
  2
*Paper_Space1
 70
     0
 10
0.0
 20
0.0
 30
0.0
  3
*Paper_Space1
  1

  0
VIEWPORT
  5
305
330
160
100
AcDbEntity
  8
0
100
AcDbViewport
 10
128.5
 20
97.5
 30
0.0
 40
314.226
 41
222.18
 68
     1
 69
     1
 12
128.5
 22
97.5
 13
0.0
 23
0.0
 14
10.0
 24
10.0
 15
10.0
 25
10.0
 16
0.0
 26
0.0
 36
1.0
 17
0.0
 27
0.0
 37
0.0
 42
50.0
 43
0.0
 44
0.0
 45
210.0
 50
0.0
 51
0.0
 72
   100
 90
  1867808
  1

281
     0
 71
     1
 74
     0
110
0.0
120
0.0
130
0.0
111
1.0
121
0.0
131
0.0
112
0.0
122
1.0
132
0.0
 79
     0
146
0.0
170
     0
 61
     5
348
108
292
     1
282
     1
141
0.0
142
0.0
 63
   256
361
306
  0
VIEWPORT
  5
307
330
160
100
AcDbEntity
  8
0
100
AcDbViewport
 10
128.5
 20
97.5
 30
0.0
 40
294.9
 41
207.9
 68
     2
 69
     2
 12
381034.759
 22
225810.564
 13
0.0
 23
0.0
 14
10.0
 24
10.0
 15
10.0
 25
10.0
 16
0.0
 26
0.0
 36
1.0
 17
0.0
 27
0.0
 37
0.0
 42
50.0
 43
0.0
 44
0.0
 45
185.0871599999839
 50
0.0
 51
0.0
 72
   100
 90
   557088
  1

281
     0
 71
     1
 74
     0
110
0.0
120
0.0
130
0.0
111
1.0
121
0.0
131
0.0
112
0.0
122
1.0
132
0.0
 79
     0
146
0.0
170
     0
 61
     5
348
108
292
     1
282
     1
141
0.0
142
0.0
 63
   256
361
308
  0
ENDBLK
  5
163
330
160
100
AcDbEntity
  8
0
100
AcDbBlockEnd
  0
BLOCK
  5
37B
330
378
100
AcDbEntity
  8
0
100
AcDbBlockBegin
  2
AS logo block 2019 v2
 70
     0
 10
0.0
 20
0.0
 30
0.0
  3
AS logo block 2019 v2
  1

  0
LINE
  5
37C
330
378
100
AcDbEntity
  8
AS-LOGO
 62
   156
420
    17798
430
UNNAMED$0,69,134
370
    -3
100
AcDbLine
 10
344.3773258671741
 20
280.6003114052228
 30
0.0
 11
344.4588174464343
 21
280.4035733293538
 31
0.0
  0
LINE
  5
37E
330
378
100
AcDbEntity
  8
AS-LOGO
 62
   156
420
    17798
430
UNNAMED$0,69,134
370
    -3
100
AcDbLine
 10
342.0466789982556
 20
282.8157117775324
 30
0.0
 11
342.2434170741246
 21
282.7342201982722
 31
0.0
  0
LINE
  5
37F
330
378
100
AcDbEntity
  8
AS-LOGO
 62
   156
420
    17798
430
UNNAMED$0,69,134
370
    -3
100
AcDbLine
 10
339.028876242258
 20
282.8157117775324
 30
0.0
 11
338.8321381663889
 21
282.7342201982722
 31
0.0
  0
LINE
  5
380
330
378
100
AcDbEntity
  8
AS-LOGO
 62
   156
420
    17798
430
UNNAMED$0,69,134
370
    -3
100
AcDbLine
 10
339.028876242258
 20
274.9736321251775
 30
0.0
 11
338.8321381663889
 21
275.0551237044376
 31
0.0
  0
LINE
  5
381
330
378
100
AcDbEntity
  8
AS-LOGO
 62
   156
420
    17798
430
UNNAMED$0,69,134
370
    -3
100
AcDbLine
 10
342.2434170741246
 20
275.0551237044376
 30
0.0
 11
342.0466789982556
 21
274.9736321251774
 31
0.0
  0
HATCH
  5
382
330
378
100
AcDbEntity
  8
AS-LOGO
 62
   156
420
    17798
430
UNNAMED$0,69,134
370
    -3
100
AcDbHatch
 10
0.0
 20
0.0
 30
0.0
210
0.0
220
0.0
230
1.0
  2
SOLID
 70
     1
 71
     0
 91
        2
 92
        1
 93
       16
 72
     1
 10
341.4550874112266
 20
281.2342201982722
 11
341.5434520769215
 21
281.1976183553068
 72
     1
 10
341.5434520769215
 20
281.1976183553068
 11
342.8407240242086
 21
279.9003464080197
 72
     1
 10
342.8407240242086
 20
279.9003464080197
 11
342.8773258671741
 21
279.8119817423247
 72
     1
 10
342.8773258671741
 20
279.8119817423247
 11
342.8773258671741
 21
277.9773621603851
 72
     1
 10
342.8773258671741
 20
277.9773621603851
 11
342.8407240242086
 21
277.8889974946901
 72
     1
 10
342.8407240242086
 20
277.8889974946901
 11
341.5434520769215
 21
276.591725547403
 72
     1
 10
341.5434520769215
 20
276.591725547403
 11
341.4550874112266
 21
276.5551237044376
 72
     1
 10
341.4550874112266
 20
276.5551237044376
 11
339.620467829287
 21
276.5551237044376
 72
     1
 10
339.620467829287
 20
276.5551237044376
 11
339.532103163592
 21
276.591725547403
 72
     1
 10
339.532103163592
 20
276.591725547403
 11
338.2348312163049
 21
277.8889974946901
 72
     1
 10
338.2348312163049
 20
277.8889974946901
 11
338.1982293733395
 21
277.9773621603852
 72
     1
 10
338.1982293733395
 20
277.9773621603852
 11
338.1982293733395
 21
279.8119817423247
 72
     1
 10
338.1982293733395
 20
279.8119817423247
 11
338.2348312163049
 21
279.9003464080197
 72
     1
 10
338.2348312163049
 20
279.9003464080197
 11
339.532103163592
 21
281.1976183553068
 72
     1
 10
339.532103163592
 20
281.1976183553068
 11
339.620467829287
 21
281.2342201982722
 72
     1
 10
339.620467829287
 20
281.2342201982722
 11
341.4550874112266
 21
281.2342201982722
 97
        0
 92
        1
 93
       32
 72
     1
 10
344.3773258671741
 20
280.6003114052228
 11
344.4588174464343
 21
280.4035733293538
 72
     1
 10
344.4588174464343
 20
280.4035733293538
 11
344.5273258671741
 21
280.1267862851691
 72
     1
 10
344.5273258671741
 20
280.1267862851691
 11
344.5273258671741
 21
277.6625576175406
 72
     1
 10
344.5273258671741
 20
277.6625576175406
 11
344.4588174464343
 21
277.3857705733561
 72
     1
 10
344.4588174464343
 20
277.3857705733561
 11
344.3773258671741
 21
277.189032497487
 72
     1
 10
344.3773258671741
 20
277.189032497487
 11
344.2300506401601
 21
276.944871732726
 72
     1
 10
344.2300506401601
 20
276.944871732726
 11
342.4875778388857
 21
275.2023989314515
 72
     1
 10
342.4875778388857
 20
275.2023989314515
 11
342.2434170741246
 21
275.0551237044376
 72
     1
 10
342.2434170741246
 20
275.0551237044376
 11
342.0466789982556
 21
274.9736321251774
 72
     1
 10
342.0466789982556
 20
274.9736321251774
 11
341.769891954071
 21
274.9051237044376
 72
     1
 10
341.769891954071
 20
274.9051237044376
 11
339.3056632864425
 21
274.9051237044376
 72
     1
 10
339.3056632864425
 20
274.9051237044376
 11
339.028876242258
 21
274.9736321251775
 72
     1
 10
339.028876242258
 20
274.9736321251775
 11
338.8321381663889
 21
275.0551237044376
 72
     1
 10
338.8321381663889
 20
275.0551237044376
 11
338.5879774016279
 21
275.2023989314516
 72
     1
 10
338.5879774016279
 20
275.2023989314516
 11
336.8455046003534
 21
276.944871732726
 72
     1
 10
336.8455046003534
 20
276.944871732726
 11
336.6982293733395
 21
277.189032497487
 72
     1
 10
336.6982293733395
 20
277.189032497487
 11
336.6167377940793
 21
277.3857705733561
 72
     1
 10
336.6167377940793
 20
277.3857705733561
 11
336.5482293733395
 21
277.6625576175406
 72
     1
 10
336.5482293733395
 20
277.6625576175406
 11
336.5482293733395
 21
280.1267862851691
 72
     1
 10
336.5482293733395
 20
280.1267862851691
 11
336.6167377940793
 21
280.4035733293538
 72
     1
 10
336.6167377940793
 20
280.4035733293538
 11
336.6982293733395
 21
280.6003114052228
 72
     1
 10
336.6982293733395
 20
280.6003114052228
 11
336.8455046003534
 21
280.8444721699838
 72
     1
 10
336.8455046003534
 20
280.8444721699838
 11
338.5879774016279
 21
282.5869449712583
 72
     1
 10
338.5879774016279
 20
282.5869449712583
 11
338.8321381663889
 21
282.7342201982722
 72
     1
 10
338.8321381663889
 20
282.7342201982722
 11
339.028876242258
 21
282.8157117775324
 72
     1
 10
339.028876242258
 20
282.8157117775324
 11
339.3056632864425
 21
282.8842201982723
 72
     1
 10
339.3056632864425
 20
282.8842201982723
 11
341.769891954071
 21
282.8842201982723
 72
     1
 10
341.769891954071
 20
282.8842201982723
 11
342.0466789982556
 21
282.8157117775324
 72
     1
 10
342.0466789982556
 20
282.8157117775324
 11
342.2434170741246
 21
282.7342201982722
 72
     1
 10
342.2434170741246
 20
282.7342201982722
 11
342.4875778388857
 21
282.5869449712583
 72
     1
 10
342.4875778388857
 20
282.5869449712583
 11
344.2300506401601
 21
280.8444721699838
 72
     1
 10
344.2300506401601
 20
280.8444721699838
 11
344.3773258671741
 21
280.6003114052228
 97
        0
 75
     0
 76
     1
 98
        1
 10
328.4445605680628
 20
270.2352879467811
1001
ACAD
1010
0.0
1020
0.0
1030
0.0
  0
LWPOLYLINE
  5
383
330
378
100
AcDbEntity
  8
AS-LOGO
 62
     7
420
 16777215
430
UNNAMED$255,255,255
370
    -3
100
AcDbPolyline
 90
        2
 70
     0
 43
0.0
 10
341.8990019849961
 20
275.8866152836977
 10
343.545834287914
 20
277.5334475866156
  0
LWPOLYLINE
  5
385
330
378
100
AcDbEntity
  8
AS-LOGO
 62
     7
420
 16777215
430
UNNAMED$255,255,255
370
    -3
100
AcDbPolyline
 90
        2
 70
     0
 43
0.0
 10
342.1163467787627
 20
275.5736299915745
 10
343.8588195800372
 20
277.3161027928489
  0
LWPOLYLINE
  5
386
330
378
100
AcDbEntity
  8
AS-LOGO
 62
     7
420
 16777215
430
UNNAMED$255,255,255
370
    -3
100
AcDbPolyline
 90
        2
 70
     0
 43
0.0
 10
343.8588195800372
 20
280.4732411098609
 10
342.1163467787628
 20
282.2157139111353
  0
LWPOLYLINE
  5
387
330
378
100
AcDbEntity
  8
AS-LOGO
 62
     7
420
 16777215
430
UNNAMED$255,255,255
370
    -3
100
AcDbPolyline
 90
        2
 70
     0
 43
0.0
 10
341.769891954071
 20
282.3592201982722
 10
339.3056632864425
 20
282.3592201982722
  0
LWPOLYLINE
  5
388
330
378
100
AcDbEntity
  8
AS-LOGO
 62
     7
420
 16777215
430
UNNAMED$255,255,255
370
    -3
100
AcDbPolyline
 90
        2
 70
     0
 43
0.0
 10
338.9592084617508
 20
282.2157139111353
 10
337.2167356604764
 20
280.4732411098609
  0
LWPOLYLINE
  5
389
330
378
100
AcDbEntity
  8
AS-LOGO
 62
     7
420
 16777215
430
UNNAMED$255,255,255
370
    -3
100
AcDbPolyline
 90
        2
 70
     0
 43
0.0
 10
337.0732293733395
 20
280.1267862851691
 10
337.0732293733395
 20
277.6625576175406
  0
LWPOLYLINE
  5
38A
330
378
100
AcDbEntity
  8
AS-LOGO
 62
     7
420
 16777215
430
UNNAMED$255,255,255
370
    -3
100
AcDbPolyline
 90
        2
 70
     0
 43
0.0
 10
337.2167356604764
 20
277.3161027928489
 10
338.9592084617508
 20
275.5736299915745
  0
LWPOLYLINE
  5
38B
330
378
100
AcDbEntity
  8
AS-LOGO
 62
     7
420
 16777215
430
UNNAMED$255,255,255
370
    -3
100
AcDbPolyline
 90
        2
 70
     0
 43
0.0
 10
339.3056632864425
 20
275.4301237044376
 10
341.769891954071
 20
275.4301237044376
  0
LWPOLYLINE
  5
38C
330
378
100
AcDbEntity
  8
AS-LOGO
 62
     7
420
 16777215
430
UNNAMED$255,255,255
370
    -3
100
AcDbPolyline
 90
        2
 70
     0
 43
0.0
 10
344.0023258671741
 20
277.6625576175406
 10
344.0023258671741
 20
280.1267862851691
  0
LWPOLYLINE
  5
38D
330
378
100
AcDbEntity
  8
AS-LOGO
 62
     7
420
 16777215
430
UNNAMED$255,255,255
370
    -3
100
AcDbPolyline
 90
        2
 70
     0
 43
0.0
 10
343.6273258671741
 20
277.7301856624846
 10
343.6273258671741
 20
280.0591582402251
  0
LWPOLYLINE
  5
38E
330
378
100
AcDbEntity
  8
AS-LOGO
 62
     7
420
 16777215
430
UNNAMED$255,255,255
370
    -3
100
AcDbPolyline
 90
        2
 70
     0
 43
0.0
 10
343.545834287914
 20
280.2558963160942
 10
341.8990019849961
 20
281.9027286190121
  0
LWPOLYLINE
  5
38F
330
378
100
AcDbEntity
  8
AS-LOGO
 62
     7
420
 16777215
430
UNNAMED$255,255,255
370
    -3
100
AcDbPolyline
 90
        2
 70
     0
 43
0.0
 10
341.7022639091271
 20
281.9842201982722
 10
339.3732913313866
 20
281.9842201982722
  0
LWPOLYLINE
  5
390
330
378
100
AcDbEntity
  8
AS-LOGO
 62
     7
420
 16777215
430
UNNAMED$255,255,255
370
    -3
100
AcDbPolyline
 90
        2
 70
     0
 43
0.0
 10
339.1765532555174
 20
281.9027286190121
 10
337.5297209525996
 20
280.2558963160942
  0
LWPOLYLINE
  5
391
330
378
100
AcDbEntity
  8
AS-LOGO
 62
     7
420
 16777215
430
UNNAMED$255,255,255
370
    -3
100
AcDbPolyline
 90
        2
 70
     0
 43
0.0
 10
337.4482293733395
 20
280.0591582402251
 10
337.4482293733395
 20
277.7301856624846
  0
LWPOLYLINE
  5
392
330
378
100
AcDbEntity
  8
AS-LOGO
 62
     7
420
 16777215
430
UNNAMED$255,255,255
370
    -3
100
AcDbPolyline
 90
        2
 70
     0
 43
0.0
 10
337.5297209525996
 20
277.5334475866156
 10
339.1765532555174
 20
275.8866152836977
  0
LWPOLYLINE
  5
393
330
378
100
AcDbEntity
  8
AS-LOGO
 62
     7
420
 16777215
430
UNNAMED$255,255,255
370
    -3
100
AcDbPolyline
 90
        2
 70
     0
 43
0.0
 10
339.3732913313866
 20
275.8051237044376
 10
341.7022639091271
 20
275.8051237044376
  0
LWPOLYLINE
  5
394
330
378
100
AcDbEntity
  8
AS-LOGO
 62
     7
420
 16777215
430
UNNAMED$255,255,255
370
    -3
100
AcDbPolyline
 90
        2
 70
     0
 43
0.0
 10
342.5023258671741
 20
278.2838779611003
 10
342.5023258671741
 20
279.5054659416095
  0
LWPOLYLINE
  5
395
330
378
100
AcDbEntity
  8
AS-LOGO
 62
     7
420
 16777215
430
UNNAMED$255,255,255
370
    -3
100
AcDbPolyline
 90
        2
 70
     0
 43
0.0
 10
341.5648258671741
 20
278.6722031758251
 10
341.5648258671741
 20
279.1171407268847
  0
LWPOLYLINE
  5
396
330
378
100
AcDbEntity
  8
AS-LOGO
 62
     7
420
 16777215
430
UNNAMED$255,255,255
370
    -3
100
AcDbPolyline
 90
        2
 70
     0
 43
0.0
 10
341.9398258671741
 20
278.5168730899351
 10
341.9398258671741
 20
279.2724708127747
  0
LWPOLYLINE
  5
397
330
378
100
AcDbEntity
  8
AS-LOGO
 62
     7
420
 16777215
430
UNNAMED$255,255,255
370
    -3
100
AcDbPolyline
 90
        2
 70
     0
 43
0.0
 10
342.3588195800372
 20
279.8519207663012
 10
341.4950264352032
 20
280.7157139111353
  0
LWPOLYLINE
  5
398
330
378
100
AcDbEntity
  8
AS-LOGO
 62
     7
420
 16777215
430
UNNAMED$255,255,255
370
    -3
100
AcDbPolyline
 90
        2
 70
     0
 43
0.0
 10
341.1485716105113
 20
280.8592201982722
 10
339.9269836300022
 20
280.8592201982722
  0
LWPOLYLINE
  5
399
330
378
100
AcDbEntity
  8
AS-LOGO
 62
     7
420
 16777215
430
UNNAMED$255,255,255
370
    -3
100
AcDbPolyline
 90
        2
 70
     0
 43
0.0
 10
340.7602463957866
 20
279.9217201982722
 10
340.3153088447269
 20
279.9217201982722
  0
LWPOLYLINE
  5
39A
330
378
100
AcDbEntity
  8
AS-LOGO
 62
     7
420
 16777215
430
UNNAMED$255,255,255
370
    -3
100
AcDbPolyline
 90
        2
 70
     0
 43
0.0
 10
340.9155764816766
 20
280.2967201982722
 10
340.159978758837
 20
280.2967201982722
  0
LWPOLYLINE
  5
39B
330
378
100
AcDbEntity
  8
AS-LOGO
 62
     7
420
 16777215
430
UNNAMED$255,255,255
370
    -3
100
AcDbPolyline
 90
        2
 70
     0
 43
0.0
 10
339.5805288053105
 20
280.7157139111353
 10
338.7167356604764
 20
279.8519207663012
  0
LWPOLYLINE
  5
39C
330
378
100
AcDbEntity
  8
AS-LOGO
 62
     7
420
 16777215
430
UNNAMED$255,255,255
370
    -3
100
AcDbPolyline
 90
        2
 70
     0
 43
0.0
 10
338.5732293733395
 20
279.5054659416095
 10
338.5732293733395
 20
278.2838779611003
  0
LWPOLYLINE
  5
39D
330
378
100
AcDbEntity
  8
AS-LOGO
 62
     7
420
 16777215
430
UNNAMED$255,255,255
370
    -3
100
AcDbPolyline
 90
        2
 70
     0
 43
0.0
 10
339.5107293733395
 20
279.1171407268847
 10
339.5107293733395
 20
278.6722031758251
  0
LWPOLYLINE
  5
39E
330
378
100
AcDbEntity
  8
AS-LOGO
 62
     7
420
 16777215
430
UNNAMED$255,255,255
370
    -3
100
AcDbPolyline
 90
        2
 70
     0
 43
0.0
 10
339.1357293733395
 20
279.2724708127747
 10
339.1357293733395
 20
278.5168730899351
  0
LWPOLYLINE
  5
39F
330
378
100
AcDbEntity
  8
AS-LOGO
 62
     7
420
 16777215
430
UNNAMED$255,255,255
370
    -3
100
AcDbPolyline
 90
        2
 70
     0
 43
0.0
 10
338.7167356604764
 20
277.9374231364085
 10
339.5805288053105
 20
277.0736299915745
  0
LWPOLYLINE
  5
3A0
330
378
100
AcDbEntity
  8
AS-LOGO
 62
     7
420
 16777215
430
UNNAMED$255,255,255
370
    -3
100
AcDbPolyline
 90
        2
 70
     0
 43
0.0
 10
339.9269836300022
 20
276.9301237044376
 10
341.1485716105113
 20
276.9301237044376
  0
LWPOLYLINE
  5
3A1
330
378
100
AcDbEntity
  8
AS-LOGO
 62
     7
420
 16777215
430
UNNAMED$255,255,255
370
    -3
100
AcDbPolyline
 90
        2
 70
     0
 43
0.0
 10
340.3153088447269
 20
277.8676237044376
 10
340.7602463957866
 20
277.8676237044376
  0
LWPOLYLINE
  5
3A2
330
378
100
AcDbEntity
  8
AS-LOGO
 62
     7
420
 16777215
430
UNNAMED$255,255,255
370
    -3
100
AcDbPolyline
 90
        2
 70
     0
 43
0.0
 10
340.159978758837
 20
277.4926237044376
 10
340.9155764816766
 20
277.4926237044376
  0
LWPOLYLINE
  5
3A3
330
378
100
AcDbEntity
  8
AS-LOGO
 62
     7
420
 16777215
430
UNNAMED$255,255,255
370
    -3
100
AcDbPolyline
 90
        2
 70
     0
 43
0.0
 10
341.4950264352032
 20
277.0736299915745
 10
342.3588195800372
 20
277.9374231364085
  0
LINE
  5
3A4
330
378
100
AcDbEntity
  8
AS-LOGO
 62
     7
420
 16777215
430
UNNAMED$255,255,255
370
    -3
100
AcDbLine
 10
339.9269836300022
 20
276.9301237044376
 30
0.0
 11
340.159978758837
 21
277.4926237044376
 31
0.0
  0
LINE
  5
3A5
330
378
100
AcDbEntity
  8
AS-LOGO
 62
     7
420
 16777215
430
UNNAMED$255,255,255
370
    -3
100
AcDbLine
 10
340.3153088447269
 20
277.8676237044376
 30
0.0
 11
340.3929738876719
 21
278.0551237044376
 31
0.0
  0
LINE
  5
3A6
330
378
100
AcDbEntity
  8
AS-LOGO
 62
     7
420
 16777215
430
UNNAMED$255,255,255
370
    -3
100
AcDbLine
 10
339.5805288053105
 20
277.0736299915745
 30
0.0
 11
340.0465190629801
 21
278.1986299915745
 31
0.0
  0
LINE
  5
3A7
330
378
100
AcDbEntity
  8
AS-LOGO
 62
     7
420
 16777215
430
UNNAMED$255,255,255
370
    -3
100
AcDbLine
 10
340.6825813528417
 20
278.0551237044376
 30
0.0
 11
340.7602463957866
 21
277.8676237044376
 31
0.0
  0
LINE
  5
3A8
330
378
100
AcDbEntity
  8
AS-LOGO
 62
     7
420
 16777215
430
UNNAMED$255,255,255
370
    -3
100
AcDbLine
 10
340.9155764816766
 20
277.4926237044376
 30
0.0
 11
341.1485716105113
 21
276.9301237044376
 31
0.0
  0
LINE
  5
3A9
330
378
100
AcDbEntity
  8
AS-LOGO
 62
     7
420
 16777215
430
UNNAMED$255,255,255
370
    -3
100
AcDbLine
 10
341.0290361775334
 20
278.1986299915745
 30
0.0
 11
341.4950264352032
 21
277.0736299915745
 31
0.0
  0
LINE
  5
3AA
330
378
100
AcDbEntity
  8
AS-LOGO
 62
     7
420
 16777215
430
UNNAMED$255,255,255
370
    -3
100
AcDbLine
 10
341.2338195800372
 20
278.4034133940783
 30
0.0
 11
342.3588195800372
 21
277.9374231364085
 31
0.0
  0
LINE
  5
3AB
330
378
100
AcDbEntity
  8
AS-LOGO
 62
     7
420
 16777215
430
UNNAMED$255,255,255
370
    -3
100
AcDbLine
 10
341.3773258671741
 20
278.74986821877
 30
0.0
 11
341.5648258671741
 21
278.6722031758251
 31
0.0
  0
LINE
  5
3AC
330
378
100
AcDbEntity
  8
AS-LOGO
 62
     7
420
 16777215
430
UNNAMED$255,255,255
370
    -3
100
AcDbLine
 10
341.9398258671741
 20
278.5168730899351
 30
0.0
 11
342.5023258671741
 21
278.2838779611003
 31
0.0
  0
LINE
  5
3AD
330
378
100
AcDbEntity
  8
AS-LOGO
 62
     7
420
 16777215
430
UNNAMED$255,255,255
370
    -3
100
AcDbLine
 10
341.2338195800372
 20
279.3859305086315
 30
0.0
 11
342.3588195800372
 21
279.8519207663012
 31
0.0
  0
LINE
  5
3AE
330
378
100
AcDbEntity
  8
AS-LOGO
 62
     7
420
 16777215
430
UNNAMED$255,255,255
370
    -3
100
AcDbLine
 10
341.3773258671741
 20
279.0394756839398
 30
0.0
 11
341.5648258671741
 21
279.1171407268847
 31
0.0
  0
LINE
  5
3AF
330
378
100
AcDbEntity
  8
AS-LOGO
 62
     7
420
 16777215
430
UNNAMED$255,255,255
370
    -3
100
AcDbLine
 10
341.9398258671741
 20
279.2724708127747
 30
0.0
 11
342.5023258671741
 21
279.5054659416095
 31
0.0
  0
LINE
  5
3B0
330
378
100
AcDbEntity
  8
AS-LOGO
 62
     7
420
 16777215
430
UNNAMED$255,255,255
370
    -3
100
AcDbLine
 10
340.6825813528417
 20
279.7342201982722
 30
0.0
 11
340.7602463957866
 21
279.9217201982722
 31
0.0
  0
LINE
  5
3B1
330
378
100
AcDbEntity
  8
AS-LOGO
 62
     7
420
 16777215
430
UNNAMED$255,255,255
370
    -3
100
AcDbLine
 10
340.9155764816766
 20
280.2967201982722
 30
0.0
 11
341.1485716105113
 21
280.8592201982722
 31
0.0
  0
LINE
  5
3B2
330
378
100
AcDbEntity
  8
AS-LOGO
 62
     7
420
 16777215
430
UNNAMED$255,255,255
370
    -3
100
AcDbLine
 10
341.0290361775334
 20
279.5907139111353
 30
0.0
 11
341.4950264352032
 21
280.7157139111353
 31
0.0
  0
LINE
  5
3B3
330
378
100
AcDbEntity
  8
AS-LOGO
 62
     7
420
 16777215
430
UNNAMED$255,255,255
370
    -3
100
AcDbLine
 10
340.0465190629801
 20
279.5907139111353
 30
0.0
 11
339.5805288053105
 21
280.7157139111353
 31
0.0
  0
LINE
  5
3B4
330
378
100
AcDbEntity
  8
AS-LOGO
 62
     7
420
 16777215
430
UNNAMED$255,255,255
370
    -3
100
AcDbLine
 10
340.3929738876719
 20
279.7342201982722
 30
0.0
 11
340.3153088447269
 21
279.9217201982722
 31
0.0
  0
LINE
  5
3B5
330
378
100
AcDbEntity
  8
AS-LOGO
 62
     7
420
 16777215
430
UNNAMED$255,255,255
370
    -3
100
AcDbLine
 10
340.159978758837
 20
280.2967201982722
 30
0.0
 11
339.9269836300022
 21
280.8592201982722
 31
0.0
  0
LINE
  5
3B6
330
378
100
AcDbEntity
  8
AS-LOGO
 62
     7
420
 16777215
430
UNNAMED$255,255,255
370
    -3
100
AcDbLine
 10
339.6982293733395
 20
279.0394756839398
 30
0.0
 11
339.5107293733395
 21
279.1171407268847
 31
0.0
  0
LINE
  5
3B7
330
378
100
AcDbEntity
  8
AS-LOGO
 62
     7
420
 16777215
430
UNNAMED$255,255,255
370
    -3
100
AcDbLine
 10
339.1357293733395
 20
279.2724708127747
 30
0.0
 11
338.5732293733395
 21
279.5054659416095
 31
0.0
  0
LINE
  5
3B8
330
378
100
AcDbEntity
  8
AS-LOGO
 62
     7
420
 16777215
430
UNNAMED$255,255,255
370
    -3
100
AcDbLine
 10
339.8417356604764
 20
279.3859305086315
 30
0.0
 11
338.7167356604764
 21
279.8519207663012
 31
0.0
  0
LINE
  5
3B9
330
378
100
AcDbEntity
  8
AS-LOGO
 62
     7
420
 16777215
430
UNNAMED$255,255,255
370
    -3
100
AcDbLine
 10
339.6982293733395
 20
278.74986821877
 30
0.0
 11
339.5107293733395
 21
278.6722031758251
 31
0.0
  0
LINE
  5
3BA
330
378
100
AcDbEntity
  8
AS-LOGO
 62
     7
420
 16777215
430
UNNAMED$255,255,255
370
    -3
100
AcDbLine
 10
339.1357293733395
 20
278.5168730899351
 30
0.0
 11
338.5732293733395
 21
278.2838779611003
 31
0.0
  0
LINE
  5
3BB
330
378
100
AcDbEntity
  8
AS-LOGO
 62
     7
420
 16777215
430
UNNAMED$255,255,255
370
    -3
100
AcDbLine
 10
339.2792356604764
 20
278.1704182652434
 30
0.0
 11
338.7167356604764
 21
277.9374231364085
 31
0.0
  0
LINE
  5
3BC
330
378
100
AcDbEntity
  8
AS-LOGO
 62
     7
420
 16777215
430
UNNAMED$255,255,255
370
    -3
100
AcDbLine
 10
339.8417356604764
 20
278.4034133940783
 30
0.0
 11
338.7167356604764
 21
277.9374231364085
 31
0.0
  0
LINE
  5
3BD
330
378
100
AcDbEntity
  8
AS-LOGO
 62
     7
420
 16777215
430
UNNAMED$255,255,255
370
    -3
100
AcDbLine
 10
343.8588195800372
 20
280.4732411098609
 30
0.0
 11
343.9305727236057
 21
280.5029622350698
 31
0.0
  0
LINE
  5
3BE
330
378
100
AcDbEntity
  8
AS-LOGO
 62
     7
420
 16777215
430
UNNAMED$255,255,255
370
    -3
100
AcDbLine
 10
344.0023258671741
 20
280.1267862851691
 30
0.0
 11
344.0740790107426
 21
280.1565074103781
 31
0.0
  0
LINE
  5
3BF
330
378
100
AcDbEntity
  8
AS-LOGO
 62
     7
420
 16777215
430
UNNAMED$255,255,255
370
    -3
100
AcDbLine
 10
343.9305727236057
 20
280.5029622350698
 30
0.0
 11
344.0740790107426
 21
280.1565074103781
 31
0.0
  0
LINE
  5
3C0
330
378
100
AcDbEntity
  8
AS-LOGO
 62
     7
420
 16777215
430
UNNAMED$255,255,255
370
    -3
100
AcDbLine
 10
343.545834287914
 20
280.2558963160942
 30
0.0
 11
343.6273258671741
 21
280.0591582402251
 31
0.0
  0
LINE
  5
3C1
330
378
100
AcDbEntity
  8
AS-LOGO
 62
     7
420
 16777215
430
UNNAMED$255,255,255
370
    -3
100
AcDbLine
 10
342.8407240242086
 20
279.9003464080197
 30
0.0
 11
342.8773258671741
 21
279.8119817423247
 31
0.0
  0
LINE
  5
3C2
330
378
100
AcDbEntity
  8
AS-LOGO
 62
     7
420
 16777215
430
UNNAMED$255,255,255
370
    -3
100
AcDbLine
 10
343.8588195800372
 20
277.3161027928489
 30
0.0
 11
343.9305727236057
 21
277.2863816676399
 31
0.0
  0
LINE
  5
3C3
330
378
100
AcDbEntity
  8
AS-LOGO
 62
     7
420
 16777215
430
UNNAMED$255,255,255
370
    -3
100
AcDbLine
 10
344.0023258671741
 20
277.6625576175406
 30
0.0
 11
344.0740790107426
 21
277.6328364923316
 31
0.0
  0
LINE
  5
3C4
330
378
100
AcDbEntity
  8
AS-LOGO
 62
     7
420
 16777215
430
UNNAMED$255,255,255
370
    -3
100
AcDbLine
 10
341.769891954071
 20
275.4301237044376
 30
0.0
 11
341.79961307928
 21
275.3583705608692
 31
0.0
  0
LINE
  5
3C5
330
378
100
AcDbEntity
  8
AS-LOGO
 62
     7
420
 16777215
430
UNNAMED$255,255,255
370
    -3
100
AcDbLine
 10
342.1163467787627
 20
275.5736299915745
 30
0.0
 11
342.1460679039717
 21
275.501876848006
 31
0.0
  0
LINE
  5
3C6
330
378
100
AcDbEntity
  8
AS-LOGO
 62
     7
420
 16777215
430
UNNAMED$255,255,255
370
    -3
100
AcDbLine
 10
338.9592084617508
 20
275.5736299915745
 30
0.0
 11
338.9294873365418
 21
275.501876848006
 31
0.0
  0
LINE
  5
3C7
330
378
100
AcDbEntity
  8
AS-LOGO
 62
     7
420
 16777215
430
UNNAMED$255,255,255
370
    -3
100
AcDbLine
 10
339.3056632864425
 20
275.4301237044376
 30
0.0
 11
339.2759421612335
 21
275.3583705608692
 31
0.0
  0
LINE
  5
3C8
330
378
100
AcDbEntity
  8
AS-LOGO
 62
     7
420
 16777215
430
UNNAMED$255,255,255
370
    -3
100
AcDbLine
 10
339.3056632864425
 20
275.4301237044376
 30
0.0
 11
339.2759421612335
 21
275.3583705608692
 31
0.0
  0
LINE
  5
3C9
330
378
100
AcDbEntity
  8
AS-LOGO
 62
     7
420
 16777215
430
UNNAMED$255,255,255
370
    -3
100
AcDbLine
 10
337.0732293733395
 20
277.6625576175406
 30
0.0
 11
337.001476229771
 21
277.6328364923316
 31
0.0
  0
LINE
  5
3CA
330
378
100
AcDbEntity
  8
AS-LOGO
 62
     7
420
 16777215
430
UNNAMED$255,255,255
370
    -3
100
AcDbLine
 10
337.2167356604764
 20
277.3161027928489
 30
0.0
 11
337.1449825169079
 21
277.2863816676399
 31
0.0
  0
LINE
  5
3CB
330
378
100
AcDbEntity
  8
AS-LOGO
 62
     7
420
 16777215
430
UNNAMED$255,255,255
370
    -3
100
AcDbLine
 10
337.001476229771
 20
280.1565074103781
 30
0.0
 11
337.0732293733395
 21
280.1267862851691
 31
0.0
  0
LINE
  5
3CC
330
378
100
AcDbEntity
  8
AS-LOGO
 62
     7
420
 16777215
430
UNNAMED$255,255,255
370
    -3
100
AcDbLine
 10
337.1449825169079
 20
280.5029622350698
 30
0.0
 11
337.2167356604764
 21
280.4732411098609
 31
0.0
  0
LINE
  5
3CD
330
378
100
AcDbEntity
  8
AS-LOGO
 62
     7
420
 16777215
430
UNNAMED$255,255,255
370
    -3
100
AcDbLine
 10
338.9294873365418
 20
282.2874670547038
 30
0.0
 11
338.9592084617508
 21
282.2157139111353
 31
0.0
  0
LINE
  5
3CE
330
378
100
AcDbEntity
  8
AS-LOGO
 62
     7
420
 16777215
430
UNNAMED$255,255,255
370
    -3
100
AcDbLine
 10
339.2759421612335
 20
282.4309733418407
 30
0.0
 11
339.3056632864425
 21
282.3592201982722
 31
0.0
  0
LINE
  5
3CF
330
378
100
AcDbEntity
  8
AS-LOGO
 62
     7
420
 16777215
430
UNNAMED$255,255,255
370
    -3
100
AcDbLine
 10
341.79961307928
 20
282.4309733418407
 30
0.0
 11
341.769891954071
 21
282.3592201982722
 31
0.0
  0
LINE
  5
3D0
330
378
100
AcDbEntity
  8
AS-LOGO
 62
     7
420
 16777215
430
UNNAMED$255,255,255
370
    -3
100
AcDbLine
 10
342.1460679039717
 20
282.2874670547038
 30
0.0
 11
342.1163467787628
 21
282.2157139111353
 31
0.0
  0
LINE
  5
3D1
330
378
100
AcDbEntity
  8
AS-LOGO
 62
     7
420
 16777215
430
UNNAMED$255,255,255
370
    -3
100
AcDbLine
 10
342.1460679039717
 20
275.501876848006
 30
0.0
 11
341.79961307928
 21
275.3583705608692
 31
0.0
  0
LINE
  5
3D2
330
378
100
AcDbEntity
  8
AS-LOGO
 62
     7
420
 16777215
430
UNNAMED$255,255,255
370
    -3
100
AcDbLine
 10
341.8990019849961
 20
275.8866152836977
 30
0.0
 11
341.7022639091271
 21
275.8051237044376
 31
0.0
  0
LINE
  5
3D3
330
378
100
AcDbEntity
  8
AS-LOGO
 62
     7
420
 16777215
430
UNNAMED$255,255,255
370
    -3
100
AcDbLine
 10
341.5434520769215
 20
276.591725547403
 30
0.0
 11
341.4550874112266
 21
276.5551237044376
 31
0.0
  0
LINE
  5
3D4
330
378
100
AcDbEntity
  8
AS-LOGO
 62
     7
420
 16777215
430
UNNAMED$255,255,255
370
    -3
100
AcDbLine
 10
339.2759421612335
 20
275.3583705608692
 30
0.0
 11
338.9294873365418
 21
275.501876848006
 31
0.0
  0
LINE
  5
3D5
330
378
100
AcDbEntity
  8
AS-LOGO
 62
     7
420
 16777215
430
UNNAMED$255,255,255
370
    -3
100
AcDbLine
 10
339.3732913313866
 20
275.8051237044376
 30
0.0
 11
339.1765532555174
 21
275.8866152836977
 31
0.0
  0
LINE
  5
3D6
330
378
100
AcDbEntity
  8
AS-LOGO
 62
     7
420
 16777215
430
UNNAMED$255,255,255
370
    -3
100
AcDbLine
 10
339.620467829287
 20
276.5551237044376
 30
0.0
 11
339.532103163592
 21
276.591725547403
 31
0.0
  0
LINE
  5
3D7
330
378
100
AcDbEntity
  8
AS-LOGO
 62
     7
420
 16777215
430
UNNAMED$255,255,255
370
    -3
100
AcDbLine
 10
337.001476229771
 20
277.6328364923316
 30
0.0
 11
337.1449825169079
 21
277.2863816676399
 31
0.0
  0
LINE
  5
3D8
330
378
100
AcDbEntity
  8
AS-LOGO
 62
     7
420
 16777215
430
UNNAMED$255,255,255
370
    -3
100
AcDbLine
 10
337.4482293733395
 20
277.7301856624846
 30
0.0
 11
337.5297209525996
 21
277.5334475866156
 31
0.0
  0
LINE
  5
3D9
330
378
100
AcDbEntity
  8
AS-LOGO
 62
     7
420
 16777215
430
UNNAMED$255,255,255
370
    -3
100
AcDbLine
 10
338.1982293733395
 20
277.9773621603852
 30
0.0
 11
338.2348312163049
 21
277.8889974946901
 31
0.0
  0
LINE
  5
3DA
330
378
100
AcDbEntity
  8
AS-LOGO
 62
     7
420
 16777215
430
UNNAMED$255,255,255
370
    -3
100
AcDbLine
 10
337.1449825169079
 20
280.5029622350698
 30
0.0
 11
337.001476229771
 21
280.1565074103781
 31
0.0
  0
LINE
  5
3DB
330
378
100
AcDbEntity
  8
AS-LOGO
 62
     7
420
 16777215
430
UNNAMED$255,255,255
370
    -3
100
AcDbLine
 10
337.5297209525996
 20
280.2558963160942
 30
0.0
 11
337.4482293733395
 21
280.0591582402251
 31
0.0
  0
LINE
  5
3DC
330
378
100
AcDbEntity
  8
AS-LOGO
 62
     7
420
 16777215
430
UNNAMED$255,255,255
370
    -3
100
AcDbLine
 10
338.2348312163049
 20
279.9003464080197
 30
0.0
 11
338.1982293733395
 21
279.8119817423247
 31
0.0
  0
LINE
  5
3DD
330
378
100
AcDbEntity
  8
AS-LOGO
 62
     7
420
 16777215
430
UNNAMED$255,255,255
370
    -3
100
AcDbLine
 10
339.2759421612335
 20
282.4309733418407
 30
0.0
 11
338.9294873365418
 21
282.2874670547038
 31
0.0
  0
LINE
  5
3DE
330
378
100
AcDbEntity
  8
AS-LOGO
 62
     7
420
 16777215
430
UNNAMED$255,255,255
370
    -3
100
AcDbLine
 10
339.3732913313866
 20
281.9842201982722
 30
0.0
 11
339.1765532555174
 21
281.9027286190121
 31
0.0
  0
LINE
  5
3DF
330
378
100
AcDbEntity
  8
AS-LOGO
 62
     7
420
 16777215
430
UNNAMED$255,255,255
370
    -3
100
AcDbLine
 10
339.620467829287
 20
281.2342201982722
 30
0.0
 11
339.532103163592
 21
281.1976183553068
 31
0.0
  0
LINE
  5
3E0
330
378
100
AcDbEntity
  8
AS-LOGO
 62
     7
420
 16777215
430
UNNAMED$255,255,255
370
    -3
100
AcDbLine
 10
341.79961307928
 20
282.4309733418407
 30
0.0
 11
342.1460679039717
 21
282.2874670547038
 31
0.0
  0
LINE
  5
3E1
330
378
100
AcDbEntity
  8
AS-LOGO
 62
     7
420
 16777215
430
UNNAMED$255,255,255
370
    -3
100
AcDbLine
 10
341.7022639091271
 20
281.9842201982722
 30
0.0
 11
341.8990019849961
 21
281.9027286190121
 31
0.0
  0
LINE
  5
3E2
330
378
100
AcDbEntity
  8
AS-LOGO
 62
     7
420
 16777215
430
UNNAMED$255,255,255
370
    -3
100
AcDbLine
 10
341.4550874112266
 20
281.2342201982722
 30
0.0
 11
341.5434520769215
 21
281.1976183553068
 31
0.0
  0
LINE
  5
3E3
330
378
100
AcDbEntity
  8
AS-LOGO
 62
     7
420
 16777215
430
UNNAMED$255,255,255
370
    -3
100
AcDbLine
 10
344.0740790107426
 20
277.6328364923316
 30
0.0
 11
343.9305727236057
 21
277.2863816676399
 31
0.0
  0
LINE
  5
3E4
330
378
100
AcDbEntity
  8
AS-LOGO
 62
     7
420
 16777215
430
UNNAMED$255,255,255
370
    -3
100
AcDbLine
 10
343.6273258671741
 20
277.7301856624846
 30
0.0
 11
343.545834287914
 21
277.5334475866156
 31
0.0
  0
LINE
  5
3E5
330
378
100
AcDbEntity
  8
AS-LOGO
 62
     7
420
 16777215
430
UNNAMED$255,255,255
370
    -3
100
AcDbLine
 10
342.8773258671741
 20
277.9773621603851
 30
0.0
 11
342.8407240242086
 21
277.8889974946901
 31
0.0
  0
LINE
  5
3E6
330
378
100
AcDbEntity
  8
AS-LOGO
 62
     7
420
 16777215
430
UNNAMED$255,255,255
370
    -3
100
AcDbLine
 10
340.6825813528417
 20
279.7342201982722
 30
0.0
 11
341.0290361775334
 21
279.5907139111353
 31
0.0
  0
LINE
  5
3E7
330
378
100
AcDbEntity
  8
AS-LOGO
 62
     7
420
 16777215
430
UNNAMED$255,255,255
370
    -3
100
AcDbLine
 10
341.2338195800372
 20
279.3859305086315
 30
0.0
 11
341.3773258671741
 21
279.0394756839398
 31
0.0
  0
LINE
  5
3E8
330
378
100
AcDbEntity
  8
AS-LOGO
 62
     7
420
 16777215
430
UNNAMED$255,255,255
370
    -3
100
AcDbLine
 10
340.3929738876719
 20
279.7342201982722
 30
0.0
 11
340.0465190629801
 21
279.5907139111353
 31
0.0
  0
LINE
  5
3E9
330
378
100
AcDbEntity
  8
AS-LOGO
 62
     7
420
 16777215
430
UNNAMED$255,255,255
370
    -3
100
AcDbLine
 10
339.8417356604764
 20
279.3859305086315
 30
0.0
 11
339.6982293733395
 21
279.0394756839398
 31
0.0
  0
LINE
  5
3EA
330
378
100
AcDbEntity
  8
AS-LOGO
 62
     7
420
 16777215
430
UNNAMED$255,255,255
370
    -3
100
AcDbLine
 10
339.6982293733395
 20
278.74986821877
 30
0.0
 11
339.8417356604764
 21
278.4034133940783
 31
0.0
  0
LINE
  5
3EB
330
378
100
AcDbEntity
  8
AS-LOGO
 62
     7
420
 16777215
430
UNNAMED$255,255,255
370
    -3
100
AcDbLine
 10
340.0465190629801
 20
278.1986299915745
 30
0.0
 11
340.3929738876719
 21
278.0551237044376
 31
0.0
  0
LINE
  5
3EC
330
378
100
AcDbEntity
  8
AS-LOGO
 62
     7
420
 16777215
430
UNNAMED$255,255,255
370
    -3
100
AcDbLine
 10
340.6825813528417
 20
278.0551237044376
 30
0.0
 11
341.0290361775334
 21
278.1986299915745
 31
0.0
  0
LINE
  5
3ED
330
378
100
AcDbEntity
  8
AS-LOGO
 62
     7
420
 16777215
430
UNNAMED$255,255,255
370
    -3
100
AcDbLine
 10
341.3773258671741
 20
278.74986821877
 30
0.0
 11
341.2338195800372
 21
278.4034133940783
 31
0.0
  0
HATCH
  5
3EE
330
378
100
AcDbEntity
  8
AS-LOGO
 62
   156
420
    17798
430
UNNAMED$0,69,134
370
    -3
100
AcDbHatch
 10
0.0
 20
0.0
 30
0.0
210
0.0
220
0.0
230
1.0
  2
SOLID
 70
     1
 71
     0
 91
        1
 92
        1
 93
       32
 72
     1
 10
341.2338195800372
 20
279.3859305086315
 11
341.3773258671741
 21
279.0394756839398
 72
     1
 10
341.3773258671741
 20
279.0394756839398
 11
341.5648258671741
 21
279.1171407268847
 72
     1
 10
341.5648258671741
 20
279.1171407268847
 11
341.5648258671741
 21
278.6722031758251
 72
     1
 10
341.5648258671741
 20
278.6722031758251
 11
341.3773258671741
 21
278.74986821877
 72
     1
 10
341.3773258671741
 20
278.74986821877
 11
341.2338195800372
 21
278.4034133940783
 72
     1
 10
341.2338195800372
 20
278.4034133940783
 11
342.3588195800372
 21
277.9374231364085
 72
     1
 10
342.3588195800372
 20
277.9374231364085
 11
341.4950264352032
 21
277.0736299915745
 72
     1
 10
341.4950264352032
 20
277.0736299915745
 11
341.0290361775334
 21
278.1986299915745
 72
     1
 10
341.0290361775334
 20
278.1986299915745
 11
340.6825813528417
 21
278.0551237044376
 72
     1
 10
340.6825813528417
 20
278.0551237044376
 11
340.7602463957866
 21
277.8676237044376
 72
     1
 10
340.7602463957866
 20
277.8676237044376
 11
340.3153088447269
 21
277.8676237044376
 72
     1
 10
340.3153088447269
 20
277.8676237044376
 11
340.3929738876719
 21
278.0551237044376
 72
     1
 10
340.3929738876719
 20
278.0551237044376
 11
340.0465190629801
 21
278.1986299915745
 72
     1
 10
340.0465190629801
 20
278.1986299915745
 11
339.5805288053105
 21
277.0736299915745
 72
     1
 10
339.5805288053105
 20
277.0736299915745
 11
338.7167356604764
 21
277.9374231364085
 72
     1
 10
338.7167356604764
 20
277.9374231364085
 11
339.8417356604764
 21
278.4034133940783
 72
     1
 10
339.8417356604764
 20
278.4034133940783
 11
339.6982293733395
 21
278.74986821877
 72
     1
 10
339.6982293733395
 20
278.74986821877
 11
339.5107293733395
 21
278.6722031758251
 72
     1
 10
339.5107293733395
 20
278.6722031758251
 11
339.5107293733395
 21
279.1171407268847
 72
     1
 10
339.5107293733395
 20
279.1171407268847
 11
339.6982293733395
 21
279.0394756839398
 72
     1
 10
339.6982293733395
 20
279.0394756839398
 11
339.8417356604764
 21
279.3859305086315
 72
     1
 10
339.8417356604764
 20
279.3859305086315
 11
338.7167356604764
 21
279.8519207663012
 72
     1
 10
338.7167356604764
 20
279.8519207663012
 11
339.5805288053105
 21
280.7157139111353
 72
     1
 10
339.5805288053105
 20
280.7157139111353
 11
340.0465190629801
 21
279.5907139111353
 72
     1
 10
340.0465190629801
 20
279.5907139111353
 11
340.3929738876719
 21
279.7342201982722
 72
     1
 10
340.3929738876719
 20
279.7342201982722
 11
340.3153088447269
 21
279.9217201982722
 72
     1
 10
340.3153088447269
 20
279.9217201982722
 11
340.7602463957866
 21
279.9217201982722
 72
     1
 10
340.7602463957866
 20
279.9217201982722
 11
340.6825813528417
 21
279.7342201982722
 72
     1
 10
340.6825813528417
 20
279.7342201982722
 11
341.0290361775334
 21
279.5907139111353
 72
     1
 10
341.0290361775334
 20
279.5907139111353
 11
341.4950264352032
 21
280.7157139111353
 72
     1
 10
341.4950264352032
 20
280.7157139111353
 11
342.3588195800372
 21
279.8519207663012
 72
     1
 10
342.3588195800372
 20
279.8519207663012
 11
341.2338195800372
 21
279.3859305086315
 97
        0
 75
     0
 76
     1
 98
        1
 10
328.4445605680628
 20
270.2352879467811
1001
ACAD
1010
0.0
1020
0.0
1030
0.0
  0
HATCH
  5
3EF
330
378
100
AcDbEntity
  8
AS-LOGO
 62
   156
420
    17798
430
UNNAMED$0,69,134
370
    -3
100
AcDbHatch
 10
0.0
 20
0.0
 30
0.0
210
0.0
220
0.0
230
1.0
  2
SOLID
 70
     1
 71
     0
 91
        1
 92
        1
 93
        4
 72
     1
 10
342.5023258671741
 20
278.2838779611003
 11
342.5023258671741
 21
279.5054659416095
 72
     1
 10
342.5023258671741
 20
279.5054659416095
 11
341.9398258671741
 21
279.2724708127747
 72
     1
 10
341.9398258671741
 20
279.2724708127747
 11
341.9398258671741
 21
278.5168730899351
 72
     1
 10
341.9398258671741
 20
278.5168730899351
 11
342.5023258671741
 21
278.2838779611003
 97
        0
 75
     0
 76
     1
 98
        1
 10
328.4445605680628
 20
270.2352879467811
1001
ACAD
1010
0.0
1020
0.0
1030
0.0
  0
HATCH
  5
3F0
330
378
100
AcDbEntity
  8
AS-LOGO
 62
   156
420
    17798
430
UNNAMED$0,69,134
370
    -3
100
AcDbHatch
 10
0.0
 20
0.0
 30
0.0
210
0.0
220
0.0
230
1.0
  2
SOLID
 70
     1
 71
     0
 91
        1
 92
        1
 93
        4
 72
     1
 10
340.159978758837
 20
280.2967201982722
 11
339.9269836300022
 21
280.8592201982722
 72
     1
 10
339.9269836300022
 20
280.8592201982722
 11
341.1485716105113
 21
280.8592201982722
 72
     1
 10
341.1485716105113
 20
280.8592201982722
 11
340.9155764816766
 21
280.2967201982722
 72
     1
 10
340.9155764816766
 20
280.2967201982722
 11
340.159978758837
 21
280.2967201982722
 97
        0
 75
     0
 76
     1
 98
        1
 10
328.4445605680628
 20
270.2352879467811
1001
ACAD
1010
0.0
1020
0.0
1030
0.0
  0
HATCH
  5
3F1
330
378
100
AcDbEntity
  8
AS-LOGO
 62
   156
420
    17798
430
UNNAMED$0,69,134
370
    -3
100
AcDbHatch
 10
0.0
 20
0.0
 30
0.0
210
0.0
220
0.0
230
1.0
  2
SOLID
 70
     1
 71
     0
 91
        1
 92
        1
 93
        4
 72
     1
 10
339.1357293733395
 20
278.5168730899351
 11
338.5732293733395
 21
278.2838779611003
 72
     1
 10
338.5732293733395
 20
278.2838779611003
 11
338.5732293733395
 21
279.5054659416095
 72
     1
 10
338.5732293733395
 20
279.5054659416095
 11
339.1357293733395
 21
279.2724708127747
 72
     1
 10
339.1357293733395
 20
279.2724708127747
 11
339.1357293733395
 21
278.5168730899351
 97
        0
 75
     0
 76
     1
 98
        1
 10
328.4445605680628
 20
270.2352879467811
1001
ACAD
1010
0.0
1020
0.0
1030
0.0
  0
HATCH
  5
3F2
330
378
100
AcDbEntity
  8
AS-LOGO
 62
   156
420
    17798
430
UNNAMED$0,69,134
370
    -3
100
AcDbHatch
 10
0.0
 20
0.0
 30
0.0
210
0.0
220
0.0
230
1.0
  2
SOLID
 70
     1
 71
     0
 91
        1
 92
        1
 93
        4
 72
     1
 10
340.159978758837
 20
277.4926237044376
 11
340.9155764816766
 21
277.4926237044376
 72
     1
 10
340.9155764816766
 20
277.4926237044376
 11
341.1485716105113
 21
276.9301237044376
 72
     1
 10
341.1485716105113
 20
276.9301237044376
 11
339.9269836300022
 21
276.9301237044376
 72
     1
 10
339.9269836300022
 20
276.9301237044376
 11
340.159978758837
 21
277.4926237044376
 97
        0
 75
     0
 76
     1
 98
        1
 10
328.4445605680628
 20
270.2352879467811
1001
ACAD
1010
0.0
1020
0.0
1030
0.0
  0
HATCH
  5
3F3
330
378
100
AcDbEntity
  8
AS-LOGO
 62
   156
420
    17798
430
UNNAMED$0,69,134
100
AcDbHatch
 10
0.0
 20
0.0
 30
0.0
210
0.0
220
0.0
230
1.0
  2
SOLID
 70
     1
 71
     0
 91
        2
 92
        1
 93
        4
 72
     1
 10
332.0
 20
273.7041523583131
 11
402.0
 21
273.7041523583131
 72
     1
 10
402.0
 20
273.7041523583131
 11
402.0
 21
284.0
 72
     1
 10
402.0
 20
284.0
 11
332.0
 21
284.0
 72
     1
 10
332.0
 20
284.0
 11
332.0
 21
273.7041523583131
 97
        0
 92
       16
 93
        1
 72
     2
 10
340.5174508220683
 20
279.0149863368565
 40
2.82646514927535
 50
0.0
 51
360.0
 73
     1
 97
        0
 75
     0
 76
     1
 98
        1
 10
0.0
 20
0.0
1001
ACAD
1010
0.0
1020
0.0
1030
0.0
  0
MTEXT
  5
3F4
330
378
100
AcDbEntity
  8
AS-LOGO
 62
     6
100
AcDbMText
 10
348.1037109809187
 20
283.0670166779666
 30
0.0
 40
1.0
 41
52.89675562752547
 46
8.396360757309083
 71
     1
 72
     1
  1
\fAgency FB|b1|i0|c0|p34;\C7;\c16777214;\H4.5;Archaeological Surveys \fAgency FB|b0|i0|c0|p34;\H4;\P\fArimo|b1|i0|c0|p34;\H1.5;Specialist Geophysical Surveyors
  7
Archaeological Surveys
 73
     1
 44
1.0
  0
ENDBLK
  5
3F5
330
378
100
AcDbEntity
  8
0
100
AcDbBlockEnd
  0
ENDSEC
  0
SECTION
  2
ENTITIES
  0
LWPOLYLINE
  5
1D3
330
1F
100
AcDbEntity
  8
Placemark2
 62
     8
100
AcDbPolyline
 90
       29
 70
     1
 43
0.0
 10
380979.575
 20
225898.81
 10
381003.989
 20
225882.032
 10
381005.369
 20
225883.251
 10
381038.42
 20
225859.433
 10
381070.234
 20
225835.843
 10
381101.918
 20
225814.033
 10
381122.901
 20
225799.049
 10
381119.892
 20
225785.268
 10
381113.403
 20
225760.267
 10
381107.016
 20
225744.163
 10
381104.675
 20
225743.282
 10
381086.8824465084
 20
225745.4917253174
 10
381062.2135173826
 20
225748.9102660577
 10
381052.803
 20
225736.139
 10
381040.433
 20
225719.835
 10
381004.905
 20
225743.218
 10
380976.304
 20
225762.124
 10
380958.807
 20
225771.646
 10
380950.093
 20
225776.573
 10
380946.617
 20
225784.372
 10
380947.782
 20
225801.497
 10
380949.997
 20
225823.4
 10
380949.202
 20
225831.3
 10
380949.798
 20
225843.31
 10
380954.957
 20
225861.754
 10
380957.691
 20
225875.647
 10
380965.594
 20
225892.635
 10
380968.711
 20
225898.74
 10
380970.096
 20
225901.293
  0
LWPOLYLINE
  5
1D6
330
1F
100
AcDbEntity
  8
AS-ABST MAG POS LINEAR UNCERTAIN
100
AcDbPolyline
 90
        6
 70
     0
 43
0.0
 10
380983.7278704729
 20
225819.2622938993
 10
380992.781876589
 20
225815.4366575122
 10
381006.1716039437
 20
225807.0202574606
 10
381014.7155252082
 20
225803.4496634994
 10
381031.2932828855
 20
225797.7112089188
 10
381047.1095633088
 20
225791.715672451
  0
LWPOLYLINE
  5
1D8
330
1F
100
AcDbEntity
  8
AS-ABST MAG POS LINEAR UNCERTAIN
100
AcDbPolyline
 90
       10
 70
     0
 43
0.0
 10
381019.3788594904
 20
225781.8563316338
 10
381018.0337245634
 20
225782.0556108823
 10
381016.2900311394
 20
225781.8563316338
 10
381014.4965179033
 20
225781.4079533248
 10
381013.1015631642
 20
225780.6606561431
 10
381011.9058876735
 20
225779.1660617797
 10
381011.0091310554
 20
225776.9241702347
 10
381010.7102121828
 20
225775.3299362471
 10
381011.1585904918
 20
225774.0346211321
 10
381012.3044461704
 20
225772.3407475203
  0
LWPOLYLINE
  5
1D9
330
1F
100
AcDbEntity
  8
AS-ABST MAG POS LINEAR UNCERTAIN
100
AcDbPolyline
 90
        3
 70
     0
 43
0.0
 10
381019.0958829577
 20
225751.0238463136
 10
381025.3133955094
 20
225751.1832697123
 10
381038.7049610054
 20
225753.8934674913
  0
LWPOLYLINE
  5
1DA
330
1F
100
AcDbEntity
  8
AS-ABST MAG POS DISCRETE UNCERTAIN
100
AcDbPolyline
 90
        2
 70
     1
 43
0.75
 10
381036.8479841799
 20
225748.4697507879
 42
1.0
 10
381036.0979841799
 20
225748.4697507879
 42
1.0
  0
LWPOLYLINE
  5
1DC
330
1F
100
AcDbEntity
  8
AS-ABST MAG POS DISCRETE UNCERTAIN
100
AcDbPolyline
 90
        2
 70
     1
 43
0.5
 10
381047.4058182346
 20
225749.3466998521
 42
1.0
 10
381046.9058182346
 20
225749.3466998521
 42
1.0
  0
LWPOLYLINE
  5
1DD
330
1F
100
AcDbEntity
  8
AS-ABST MAG POS DISCRETE UNCERTAIN
100
AcDbPolyline
 90
        2
 70
     1
 43
0.75
 10
381092.599024403
 20
225780.5531316079
 42
1.0
 10
381091.849024403
 20
225780.5531316079
 42
1.0
  0
LWPOLYLINE
  5
1DE
330
1F
100
AcDbEntity
  8
AS-ABST MAG POS DISCRETE UNCERTAIN
100
AcDbPolyline
 90
        2
 70
     1
 43
0.375
 10
381093.4578840818
 20
225777.6631858282
 42
1.0
 10
381093.0828840818
 20
225777.6631858282
 42
1.0
  0
LWPOLYLINE
  5
1DF
330
1F
100
AcDbEntity
  8
AS-ABST MAG POS DISCRETE UNCERTAIN
100
AcDbPolyline
 90
        2
 70
     1
 43
0.375
 10
381097.5934961459
 20
225773.5774004155
 42
1.0
 10
381097.2184961459
 20
225773.5774004155
 42
1.0
  0
LWPOLYLINE
  5
1E0
330
1F
100
AcDbEntity
  8
AS-ABST MAG POS DISCRETE UNCERTAIN
100
AcDbPolyline
 90
        2
 70
     1
 43
0.375
 10
381095.0523369258
 20
225775.8195997273
 42
1.0
 10
381094.6773369258
 20
225775.8195997273
 42
1.0
  0
LWPOLYLINE
  5
1E1
330
1F
100
AcDbEntity
  8
AS-ABST MAG POS DISCRETE UNCERTAIN
100
AcDbPolyline
 90
        2
 70
     1
 43
0.15
 10
381090.6578590733
 20
225778.1147398563
 42
1.0
 10
381090.5078590732
 20
225778.1147398563
 42
1.0
  0
LWPOLYLINE
  5
1E2
330
1F
100
AcDbEntity
  8
AS-ABST MAG POS DISCRETE UNCERTAIN
100
AcDbPolyline
 90
       15
 70
     1
 43
0.0
 10
381094.506707869
 20
225776.7756486006
 10
381094.4755662119
 20
225776.9936402004
 10
381094.5689911832
 20
225777.6787566567
 10
381094.9115494114
 20
225778.1458815134
 10
381095.0983993541
 20
225778.1458815134
 10
381095.2541076396
 20
225778.0524565421
 10
381095.3475326109
 20
225777.8656065994
 10
381095.2541076396
 20
225777.5230483712
 10
381095.2541076396
 20
225777.460765057
 10
381095.4409575823
 20
225777.4296233999
 10
381095.4720992394
 20
225777.2116318001
 10
381095.4720992394
 20
225777.0870651717
 10
381095.1295410112
 20
225776.9936402004
 10
381094.6624161545
 20
225776.6510819721
 10
381094.5378495261
 20
225776.6822236293
  0
LWPOLYLINE
  5
1E3
330
1F
100
AcDbEntity
  8
AS-ABST MAG POS DISCRETE UNCERTAIN
100
AcDbPolyline
 90
       23
 70
     1
 43
0.0
 10
381092.2956502142
 20
225772.6338082051
 10
381091.7039587292
 20
225772.8517998048
 10
381091.4236838152
 20
225773.2254996902
 10
381091.4236838152
 20
225773.5369162612
 10
381091.8285253576
 20
225774.0040411179
 10
381092.0153753003
 20
225774.4088826603
 10
381092.0776586145
 20
225774.907149174
 10
381092.1399419287
 20
225775.467699002
 10
381092.1399419287
 20
225775.747973916
 10
381092.3579335285
 20
225776.0905321442
 10
381093.0430499848
 20
225776.0905321442
 10
381093.9150163839
 20
225776.0905321442
 10
381094.1952912979
 20
225776.02824883
 10
381094.3821412406
 20
225775.9348238586
 10
381094.4444245548
 20
225775.6234072876
 10
381094.3509995834
 20
225775.2497074022
 10
381094.1330079837
 20
225775.0317158025
 10
381093.9772996982
 20
225774.4088826603
 10
381093.9772996982
 20
225774.035182775
 10
381093.7904497555
 20
225773.2254996902
 10
381093.3856082131
 20
225772.9452247762
 10
381092.793916728
 20
225772.6960915193
 10
381092.5759251282
 20
225772.6338082051
  0
LWPOLYLINE
  5
1E4
330
1F
100
AcDbEntity
  8
AS-ABST MAG POS DISCRETE UNCERTAIN
100
AcDbPolyline
 90
       10
 70
     1
 43
0.0
 10
381094.5375908811
 20
225772.2904483908
 10
381095.0359257968
 20
225771.8232594073
 10
381095.7834281705
 20
225771.511800085
 10
381095.8457200349
 20
225771.6675297462
 10
381095.8457200349
 20
225771.8855512718
 10
381095.6588444415
 20
225772.2904483908
 10
381095.2228013902
 20
225772.7264914422
 10
381094.786758339
 20
225772.9133670355
 10
381094.6310286778
 20
225772.8199292388
 10
381094.5998827455
 20
225772.8199292388
  0
LWPOLYLINE
  5
1E5
330
1F
100
AcDbEntity
  8
AS-ABST MAG POS DISCRETE UNCERTAIN
100
AcDbPolyline
 90
       19
 70
     1
 43
0.0
 10
381097.3095788499
 20
225770.8265895759
 10
381097.9013515624
 20
225770.3594005923
 10
381098.3996864781
 20
225770.2036709312
 10
381099.2717725807
 20
225769.8922116088
 10
381099.9881290221
 20
225769.8299197443
 10
381100.6733395312
 20
225769.7364819476
 10
381101.3585500404
 20
225769.6430441509
 10
381101.7323012272
 20
225769.6118982187
 10
381101.8880308884
 20
225769.8610656766
 10
381101.6700093627
 20
225770.2659627956
 10
381100.9847988536
 20
225770.6085680502
 10
381100.2995883445
 20
225770.8265895759
 10
381099.832399361
 20
225771.2003407626
 10
381099.178334784
 20
225771.6052378817
 10
381098.6799998683
 20
225771.6052378817
 10
381097.8702056301
 20
225771.5429460172
 10
381097.3095788499
 20
225771.5429460172
 10
381097.1538491888
 20
225771.4806541528
 10
381097.1538491888
 20
225771.2626326271
  0
LWPOLYLINE
  5
1E6
330
1F
100
AcDbEntity
  8
AS-ABST MAG POS DISCRETE UNCERTAIN
100
AcDbPolyline
 90
       20
 70
     1
 43
0.0
 10
381089.336220198
 20
225766.4038671986
 10
381089.6476795203
 20
225766.9644939788
 10
381090.1771603682
 20
225767.6185585557
 10
381090.9558086741
 20
225768.1480394037
 10
381091.3022306546
 20
225768.5181638513
 10
381091.7033110477
 20
225768.8332499129
 10
381091.7033110477
 20
225769.2381470319
 10
381091.5475813866
 20
225769.518460422
 10
381091.0803924031
 20
225769.6741900832
 10
381090.6212332302
 20
225769.6379342714
 10
381090.450467156
 20
225769.3577592998
 10
381089.9520823424
 20
225769.2364437387
 10
381089.4532607714
 20
225768.9201178645
 10
381089.306670458
 20
225768.4694916514
 10
381089.4526870577
 20
225767.8489211024
 10
381089.4405190077
 20
225767.483879603
 10
381089.2427824012
 20
225767.0267858432
 10
381089.08705274
 20
225766.6841805887
 10
381089.08705274
 20
225766.5284509275
 10
381089.1493446045
 20
225766.466159063
  0
LWPOLYLINE
  5
1E7
330
1F
100
AcDbEntity
  8
AS-ABST MAG POS DISCRETE UNCERTAIN
100
AcDbPolyline
 90
        2
 70
     1
 43
0.5
 10
381106.5580451037
 20
225784.4011834537
 42
1.0
 10
381106.0580451037
 20
225784.4011834537
 42
1.0
  0
LWPOLYLINE
  5
1E8
330
1F
100
AcDbEntity
  8
AS-ABST MAG POS DISCRETE UNCERTAIN
100
AcDbPolyline
 90
        2
 70
     1
 43
0.25
 10
381102.4452711202
 20
225781.1312087872
 42
1.0
 10
381102.1952711202
 20
225781.1312087872
 42
1.0
  0
LWPOLYLINE
  5
1E9
330
1F
100
AcDbEntity
  8
AS-ABST MAG POS DISCRETE UNCERTAIN
100
AcDbPolyline
 90
        2
 70
     1
 43
0.25
 10
381102.2060046812
 20
225780.0146320719
 42
1.0
 10
381101.9560046812
 20
225780.0146320719
 42
1.0
  0
LWPOLYLINE
  5
1EA
330
1F
100
AcDbEntity
  8
AS-ABST MAG POS DISCRETE UNCERTAIN
100
AcDbPolyline
 90
        2
 70
     1
 43
0.25
 10
381104.1998916729
 20
225777.4624567225
 42
1.0
 10
381103.9498916729
 20
225777.4624567225
 42
1.0
  0
LWPOLYLINE
  5
1EB
330
1F
100
AcDbEntity
  8
AS-ABST MAG POS DISCRETE UNCERTAIN
100
AcDbPolyline
 90
        2
 70
     1
 43
0.5
 10
381081.9933573655
 20
225798.1988814364
 42
1.0
 10
381081.4933573655
 20
225798.1988814364
 42
1.0
  0
LWPOLYLINE
  5
1EC
330
1F
100
AcDbEntity
  8
AS-ABST MAG POS DISCRETE UNCERTAIN
100
AcDbPolyline
 90
        2
 70
     1
 43
0.5
 10
381083.34920052
 20
225789.3460231932
 42
1.0
 10
381082.84920052
 20
225789.3460231932
 42
1.0
  0
LWPOLYLINE
  5
1ED
330
1F
100
AcDbEntity
  8
AS-ABST MAG POS DISCRETE UNCERTAIN
100
AcDbPolyline
 90
        2
 70
     1
 43
0.5
 10
381077.6865614635
 20
225788.7079793558
 42
1.0
 10
381077.1865614635
 20
225788.7079793558
 42
1.0
  0
LWPOLYLINE
  5
1EE
330
1F
100
AcDbEntity
  8
AS-ABST MAG POS DISCRETE UNCERTAIN
100
AcDbPolyline
 90
        8
 70
     1
 43
0.0
 10
381068.1849258217
 20
225828.1071863123
 10
381068.5039477404
 20
225829.861806865
 10
381069.1419915778
 20
225829.5427849463
 10
381070.5775902118
 20
225828.5857191903
 10
381070.0193018541
 20
225828.0274308326
 10
381069.1419915778
 20
225827.2298760359
 10
381068.5039477404
 20
225827.0703650766
 10
381068.3444367811
 20
225827.6286534343
  0
LWPOLYLINE
  5
1EF
330
1F
100
AcDbEntity
  8
AS-ABST MAG POS LINEAR UNCERTAIN
100
AcDbPolyline
 90
        4
 70
     0
 43
0.0
 10
381058.0740478295
 20
225831.9466996791
 10
381058.791945686
 20
225828.1179111112
 10
381059.589609971
 20
225821.9758961168
 10
381060.3075078274
 20
225818.7054725484
  0
LWPOLYLINE
  5
1F0
330
1F
100
AcDbEntity
  8
AS-ABST MAG POS LINEAR UNCERTAIN
100
AcDbPolyline
 90
        2
 70
     0
 43
0.0
 10
380965.443202695
 20
225799.7265281911
 10
380969.7517725509
 20
225800.8435648204
  0
LWPOLYLINE
  5
1F1
330
1F
100
AcDbEntity
  8
AS-ABST MAG POS LINEAR UNCERTAIN
100
AcDbPolyline
 90
        2
 70
     0
 43
0.0
 10
381052.004326591
 20
225746.3526855829
 10
381048.1739609588
 20
225751.6992376112
  0
LWPOLYLINE
  5
1F2
330
1F
100
AcDbEntity
  8
AS-ABST MAG POS LINEAR UNCERTAIN
100
AcDbPolyline
 90
        2
 70
     0
 43
0.0
 10
380991.6846857049
 20
225783.5360914151
 10
380982.4905461899
 20
225778.5559325111
  0
LWPOLYLINE
  5
1F3
330
1F
100
AcDbEntity
  8
AS-ABST MAG POS LINEAR UNCERTAIN
100
AcDbPolyline
 90
        4
 70
     0
 43
0.0
 10
381013.7761598174
 20
225755.1874945772
 10
381006.6251624168
 20
225761.0615281562
 10
381002.4111818058
 20
225766.0416870601
 10
380999.8572541627
 20
225770.127971289
  0
LWPOLYLINE
  5
1F4
330
1F
100
AcDbEntity
  8
AS-ABST MAG POS LINEAR UNCERTAIN
100
AcDbPolyline
 90
        2
 70
     0
 43
0.0
 10
381013.1376779066
 20
225821.4619169144
 10
381000.8083169421
 20
225805.6424046291
  0
LWPOLYLINE
  5
1F5
330
1F
100
AcDbEntity
  8
AS-ABST MAG POS LINEAR UNCERTAIN
100
AcDbPolyline
 90
        3
 70
     0
 43
0.0
 10
381056.9293655491
 20
225815.6315582958
 10
381050.7982561956
 20
225826.6164625543
 10
381047.2217757393
 20
225832.4921090182
  0
LWPOLYLINE
  5
1F6
330
1F
100
AcDbEntity
  8
AS-ABST MAG POS LINEAR UNCERTAIN
100
AcDbPolyline
 90
        3
 70
     0
 43
0.0
 10
380987.8753295962
 20
225790.943287637
 10
380997.4565030837
 20
225792.7317733547
 10
381007.4209235107
 20
225793.8815141732
  0
LWPOLYLINE
  5
1F7
330
1F
100
AcDbEntity
  8
AS-ABST MAG POS LINEAR UNCERTAIN
100
AcDbPolyline
 90
        4
 70
     0
 43
0.0
 10
381001.4068209126
 20
225832.5265386903
 10
380999.889801777
 20
225833.1652835895
 10
380999.4107431027
 20
225834.3629302755
 10
380998.2929395291
 20
225837.3171254341
  0
LWPOLYLINE
  5
1F8
330
1F
100
AcDbEntity
  8
AS-ABST MAG DEBRIS
 62
     7
420
 16711679
100
AcDbPolyline
 90
       30
 70
     1
 43
0.0
 10
381026.9203214283
 20
225857.6682075121
 10
381020.1742493197
 20
225862.7788682005
 10
381013.8370300661
 20
225867.6851024613
 10
381007.0909579576
 20
225871.5692045844
 10
381000.9581651316
 20
225874.2267481424
 10
380994.2120930229
 20
225876.4754388452
 10
380990.3279908998
 20
225878.7241295481
 10
380988.8970059071
 20
225883.6303638089
 10
380982.9686395086
 20
225887.1056130769
 10
380980.1066695232
 20
225890.580862345
 10
380981.7420809434
 20
225893.0339794754
 10
380983.9029321657
 20
225893.578584255
 10
380984.9410351181
 20
225893.4987301817
 10
380987.6560736087
 20
225891.9815027899
 10
380990.6905283924
 20
225889.9851509585
 10
380994.9227942749
 20
225886.9506961748
 10
380998.7557897912
 20
225884.3953658306
 10
381003.7865964063
 20
225881.1213488271
 10
381007.6195919225
 20
225878.0070399702
 10
381010.893608926
 20
225876.2502503586
 10
381014.8863125888
 20
225872.8165252086
 10
381017.5214970062
 20
225871.1395896703
 10
381020.8753680829
 20
225868.3446971063
 10
381025.2673421119
 20
225865.3900963959
 10
381030.3018594871
 20
225861.2358703155
 10
381034.6145714105
 20
225858.1211339264
 10
381034.6944364462
 20
225856.0446430003
 10
381033.5763259475
 20
225854.9265325016
 10
381031.2602399146
 20
225854.846667466
 10
381028.6246937391
 20
225856.6835632852
  0
LWPOLYLINE
  5
1FA
330
1F
100
AcDbEntity
  8
AS-ABST MAG DISTURBANCE
 62
     7
420
 16711679
100
AcDbPolyline
 90
       38
 70
     1
 43
0.0
 10
381046.779613636
 20
225848.0517502355
 10
381051.6354078017
 20
225843.1959560699
 10
381059.813587449
 20
225836.9345372774
 10
381070.4196641792
 20
225830.0341981999
 10
381082.1830862021
 20
225823.0039086051
 10
381092.1516109381
 20
225814.9524078567
 10
381103.0147468685
 20
225806.9009071084
 10
381108.382414034
 20
225801.4054383436
 10
381108.7658188315
 20
225798.5938031617
 10
381110.55504122
 20
225797.9547951658
 10
381111.7103726689
 20
225798.2626921826
 10
381112.1471945411
 20
225799.2923437385
 10
381112.1783961033
 20
225799.9475765468
 10
381111.3983570458
 20
225800.5404062305
 10
381112.0535898542
 20
225801.2268406011
 10
381112.6152179755
 20
225802.0068796586
 10
381112.6464195378
 20
225802.6309109046
 10
381108.9646351865
 20
225805.3142452624
 10
381103.6291680332
 20
225809.1520374252
 10
381102.4747102281
 20
225809.8072702335
 10
381098.9801352505
 20
225812.3033952175
 10
381095.1104112142
 20
225815.3315765748
 10
381092.8947961732
 20
225816.8606630116
 10
381091.6777681929
 20
225817.890455918
 10
381089.3997414605
 20
225819.3571306635
 10
381088.0890959433
 20
225820.1684826504
 10
381085.5302166
 20
225822.2280684632
 10
381082.1911911156
 20
225824.4748893499
 10
381078.5401071748
 20
225826.8153277736
 10
381075.325905073
 20
225828.8437077408
 10
381070.6762340713
 20
225832.6508209099
 10
381065.7769163044
 20
225835.8962288574
 10
381063.4676837263
 20
225837.4565211399
 10
381060.8151868461
 20
225839.5161069527
 10
381055.8222515424
 20
225843.0111616654
 10
381054.3867826425
 20
225844.3530130283
 10
381050.7356987016
 20
225846.599833915
 10
381047.3030556802
 20
225848.9714781843
  0
LWPOLYLINE
  5
1FC
330
1F
100
AcDbEntity
  8
AS-ABST MAG DISTURBANCE
 62
     7
420
 16711679
100
AcDbPolyline
 90
       19
 70
     1
 43
0.0
 10
380958.1568414352
 20
225826.9418763887
 10
380956.0794952099
 20
225822.3077963477
 10
380955.9196993464
 20
225815.5164721498
 10
380955.9196993464
 20
225810.6426983137
 10
380957.4377600495
 20
225806.0885162045
 10
380957.1181683225
 20
225800.6554568462
 10
380956.2392910734
 20
225794.4234181704
 10
380955.2805158925
 20
225795.1424995561
 10
380954.9609241656
 20
225796.0213768052
 10
380954.8011283021
 20
225803.4518844571
 10
380955.0408220973
 20
225807.6864748393
 10
380953.1232717356
 20
225810.5628003819
 10
380951.9248027594
 20
225812.7999424707
 10
380952.3242924181
 20
225815.9958597403
 10
380952.9634758721
 20
225820.6299397812
 10
380953.9222510529
 20
225826.54238673
 10
380955.9196993464
 20
225828.8594267504
 10
380956.6387807321
 20
225828.8594267504
 10
380957.277964186
 20
225828.6197329552
  0
LWPOLYLINE
  5
1FD
330
1F
100
AcDbEntity
  8
AS-ABST MAG DISTURBANCE
 62
     7
420
 16711679
100
AcDbPolyline
 90
       11
 70
     1
 43
0.0
 10
381053.5271599186
 20
225749.3657899871
 10
381053.7829035026
 20
225752.8183283717
 10
381057.3633136793
 20
225755.5036360042
 10
381064.2683904486
 20
225752.8183283717
 10
381069.7668775056
 20
225751.7953540355
 10
381078.2064157792
 20
225749.6215335711
 10
381091.2493385656
 20
225747.9592002748
 10
381092.5280564859
 20
225746.4247387705
 10
381076.0325953148
 20
225748.982174611
 10
381056.4682111351
 20
225751.0281232834
 10
381054.8058778388
 20
225747.9592002748
  0
LWPOLYLINE
  5
1FE
330
1F
100
AcDbEntity
  8
AS-ABST MAG DISTURBANCE
 62
     7
420
 16711679
100
AcDbPolyline
 90
       10
 70
     1
 43
0.0
 10
381100.7118511754
 20
225747.5755848987
 10
381102.5020562637
 20
225749.237918195
 10
381103.1414152239
 20
225752.9462001637
 10
381104.8037485202
 20
225755.7593795882
 10
381106.5939536085
 20
225756.1429949643
 10
381106.5939536085
 20
225754.7364052521
 10
381104.2922613521
 20
225746.5526105625
 10
381103.5250306
 20
225745.6575080184
 10
381101.3512101356
 20
225746.0411233944
 10
381099.9446204233
 20
225746.8083541466
  0
LWPOLYLINE
  5
1FF
330
1F
100
AcDbEntity
  8
AS-ABSTRACTION BOUNDARY
100
AcDbPolyline
 90
      104
 70
     1
 43
0.0
 10
380984.9410351181
 20
225893.4987301817
 10
380987.6560736087
 20
225891.9815027899
 10
380990.6905283924
 20
225889.9851509585
 10
380994.9227942749
 20
225886.9506961748
 10
381003.7865964063
 20
225881.1213488271
 10
381007.6195919225
 20
225878.0070399702
 10
381010.893608926
 20
225876.2502503586
 10
381014.8863125888
 20
225872.8165252086
 10
381017.5214970065
 20
225871.1395896701
 10
381020.8753680829
 20
225868.3446971063
 10
381025.2673421119
 20
225865.3900963959
 10
381034.6145714105
 20
225858.1211339264
 10
381037.8431696347
 20
225855.97709394
 10
381044.038660244
 20
225851.7301850546
 10
381047.3030556802
 20
225848.9714781843
 10
381054.3867826425
 20
225844.3530130283
 10
381060.8151868461
 20
225839.5161069527
 10
381065.7769163044
 20
225835.8962288574
 10
381075.325905073
 20
225828.8437077408
 10
381082.1911911156
 20
225824.4748893499
 10
381088.0890959429
 20
225820.1684826507
 10
381095.1104112142
 20
225815.3315765748
 10
381098.9801352505
 20
225812.3033952175
 10
381103.6291680332
 20
225809.1520374252
 10
381112.6464195378
 20
225802.6309109046
 10
381112.6464195258
 20
225802.6309109133
 10
381112.0535898545
 20
225801.2268406014
 10
381111.3983570458
 20
225800.5404062305
 10
381112.1783961033
 20
225799.9475765469
 10
381111.7103726689
 20
225798.2626921826
 10
381111.3396751692
 20
225797.8194240269
 10
381115.5366204207
 20
225795.2712786956
 10
381116.1361840281
 20
225796.3205150085
 10
381118.7842566272
 20
225794.971496892
 10
381116.7857112694
 20
225789.5754244258
 10
381113.6380023308
 20
225779.2829158329
 10
381112.6886932858
 20
225776.3850250641
 10
381111.6394569729
 20
225774.2365888044
 10
381111.4396024371
 20
225771.6384798392
 10
381109.4410570793
 20
225763.9940438454
 10
381107.2926208196
 20
225756.2996442177
 10
381106.5939536085
 20
225754.7364052521
 10
381103.5250306
 20
225745.6575080184
 10
381103.5250306
 20
225745.6575080184
 10
381101.3512101356
 20
225746.0411233944
 10
381099.9446204233
 20
225746.8083541466
 10
381097.3998212984
 20
225748.2554991524
 10
381096.6004031552
 20
225748.7051718579
 10
381095.7010577442
 20
225747.0563719377
 10
381095.3513123065
 20
225746.9564446698
 10
381094.1022214579
 20
225747.4061173753
 10
381094.00229419
 20
225746.3069174285
 10
381092.5280564859
 20
225746.4247387705
 10
381076.0325953148
 20
225748.982174611
 10
381056.4682111351
 20
225751.0281232834
 10
381054.8058778388
 20
225747.9592002748
 10
381050.6838235588
 20
225743.3090993917
 10
381045.1378601908
 20
225734.2656816475
 10
381039.7917513585
 20
225724.9724457336
 10
381039.0922604833
 20
225723.8232821528
 10
381037.0437514915
 20
225724.8225548317
 10
381036.1943697144
 20
225724.1230639565
 10
381033.846078919
 20
225725.2722275372
 10
381027.1509519702
 20
225729.9688091282
 10
381016.9084070112
 20
225737.3634269522
 10
381012.3617163221
 20
225740.7109904265
 10
381013.9605526084
 20
225744.008590267
 10
381012.8113890277
 20
225744.8080084101
 10
381009.713643723
 20
225742.0100449091
 10
381008.7643346781
 20
225742.5596448825
 10
381006.5159711505
 20
225744.7080811422
 10
380999.2212805944
 20
225750.0541899744
 10
380990.4776446539
 20
225755.4502624406
 10
380984.2321904105
 20
225759.8970258618
 10
380974.2894272553
 20
225766.7920073463
 10
380969.2930638608
 20
225770.0396435529
 10
380964.8463004396
 20
225772.5877888841
 10
380963.497282323
 20
225775.5856069209
 10
380956.9020826422
 20
225792.9729515341
 10
380956.5523372046
 20
225793.7723696772
 10
380955.2805158925
 20
225795.1424995561
 10
380954.9609241656
 20
225796.0213768052
 10
380954.8011283021
 20
225803.4518844571
 10
380955.0408220973
 20
225807.6864748392
 10
380953.1232717356
 20
225810.5628003819
 10
380951.9248027594
 20
225812.7999424707
 10
380952.9634758721
 20
225820.6299397812
 10
380953.9222510529
 20
225826.54238673
 10
380955.9196993464
 20
225828.8594267504
 10
380958.3010643927
 20
225832.2943314496
 10
380958.900628
 20
225833.3935313964
 10
380957.4516826156
 20
225838.5897493268
 10
380955.9527735971
 20
225841.8373855332
 10
380954.5537918467
 20
225845.9843671508
 10
380957.1019371779
 20
225851.3804396169
 10
380960.1996824826
 20
225858.8749847089
 10
380961.698591501
 20
225863.421675398
 10
380967.8441184763
 20
225874.2138203303
 10
380971.7912455581
 20
225880.6091654754
 10
380971.2916092186
 20
225887.8039287636
 10
380971.3915364865
 20
225889.9523650233
 10
380975.4385908361
 20
225891.2514195059
 10
380981.034517838
 20
225893.000146694
 10
380983.5826631693
 20
225893.5497466674
  0
LWPOLYLINE
  5
201
330
1F
100
AcDbEntity
  8
AS-ABST MAG STRONG DIPOLAR
100
AcDbPolyline
 90
        2
 70
     1
 43
0.75
 10
380983.8338939351
 20
225864.3939652643
 42
1.0
 10
380983.0838939351
 20
225864.3939652643
 42
1.0
  0
LWPOLYLINE
  5
203
330
1F
100
AcDbEntity
  8
AS-ABST MAG STRONG DIPOLAR
100
AcDbPolyline
 90
        2
 70
     1
 43
0.75
 10
380983.1143188366
 20
225869.1111797989
 42
1.0
 10
380982.3643188366
 20
225869.1111797989
 42
1.0
  0
LWPOLYLINE
  5
204
330
1F
100
AcDbEntity
  8
AS-ABST MAG STRONG DIPOLAR
100
AcDbPolyline
 90
        2
 70
     1
 43
0.75
 10
380970.9614949508
 20
225865.9930210387
 42
1.0
 10
380970.2114949508
 20
225865.9930210387
 42
1.0
  0
LWPOLYLINE
  5
205
330
1F
100
AcDbEntity
  8
AS-ABST MAG STRONG DIPOLAR
100
AcDbPolyline
 90
        2
 70
     1
 43
0.75
 10
381005.5010996789
 20
225865.5932570951
 42
1.0
 10
381004.7510996789
 20
225865.5932570951
 42
1.0
  0
LWPOLYLINE
  5
206
330
1F
100
AcDbEntity
  8
AS-ABST MAG STRONG DIPOLAR
100
AcDbPolyline
 90
        2
 70
     1
 43
0.75
 10
381010.937889312
 20
225865.0335875741
 42
1.0
 10
381010.187889312
 20
225865.0335875741
 42
1.0
  0
LWPOLYLINE
  5
207
330
1F
100
AcDbEntity
  8
AS-ABST MAG STRONG DIPOLAR
100
AcDbPolyline
 90
        2
 70
     1
 43
0.75
 10
380998.8650182149
 20
225855.839016871
 42
1.0
 10
380998.1150182149
 20
225855.839016871
 42
1.0
  0
LWPOLYLINE
  5
208
330
1F
100
AcDbEntity
  8
AS-ABST MAG STRONG DIPOLAR
100
AcDbPolyline
 90
        2
 70
     1
 43
0.75
 10
381040.2965533309
 20
225852.4490186292
 42
1.0
 10
381039.5465533309
 20
225852.4490186292
 42
1.0
  0
LWPOLYLINE
  5
209
330
1F
100
AcDbEntity
  8
AS-ABST MAG STRONG DIPOLAR
100
AcDbPolyline
 90
        2
 70
     1
 43
0.75
 10
380956.2432538281
 20
225825.8388251235
 42
1.0
 10
380955.4932538281
 20
225825.8388251235
 42
1.0
  0
LWPOLYLINE
  5
20A
330
1F
100
AcDbEntity
  8
AS-ABST MAG STRONG DIPOLAR
100
AcDbPolyline
 90
        2
 70
     1
 43
0.75
 10
381000.5111939315
 20
225796.2842177134
 42
1.0
 10
380999.7611939315
 20
225796.2842177134
 42
1.0
  0
LWPOLYLINE
  5
20B
330
1F
100
AcDbEntity
  8
AS-ABST MAG STRONG DIPOLAR
100
AcDbPolyline
 90
        2
 70
     1
 43
0.75
 10
380999.743541791
 20
225788.9915223784
 42
1.0
 10
380998.993541791
 20
225788.9915223784
 42
1.0
  0
LWPOLYLINE
  5
20C
330
1F
100
AcDbEntity
  8
AS-ABST MAG STRONG DIPOLAR
100
AcDbPolyline
 90
        2
 70
     1
 43
0.75
 10
380990.019948011
 20
225788.4797542848
 42
1.0
 10
380989.269948011
 20
225788.4797542848
 42
1.0
  0
LWPOLYLINE
  5
20D
330
1F
100
AcDbEntity
  8
AS-ABST MAG STRONG DIPOLAR
100
AcDbPolyline
 90
        2
 70
     1
 43
0.75
 10
381099.5383200589
 20
225781.8267690669
 42
1.0
 10
381098.7883200589
 20
225781.8267690669
 42
1.0
  0
LWPOLYLINE
  5
20E
330
1F
100
AcDbEntity
  8
AS-ABST MAG STRONG DIPOLAR
100
AcDbPolyline
 90
        2
 70
     1
 43
0.75
 10
381067.9366402741
 20
225758.413378781
 42
1.0
 10
381067.1866402741
 20
225758.413378781
 42
1.0
  0
LWPOLYLINE
  5
20F
330
1F
100
AcDbEntity
  8
AS-ABST MAG STRONG DIPOLAR
100
AcDbPolyline
 90
        2
 70
     1
 43
0.75
 10
381029.2981492011
 20
225759.8207410387
 42
1.0
 10
381028.5481492011
 20
225759.8207410387
 42
1.0
  0
LWPOLYLINE
  5
210
330
1F
100
AcDbEntity
  8
AS-ABST MAG STRONG DIPOLAR
100
AcDbPolyline
 90
        2
 70
     1
 43
0.75
 10
381034.6717141848
 20
225751.1206834461
 42
1.0
 10
381033.9217141848
 20
225751.1206834461
 42
1.0
  0
LWPOLYLINE
  5
211
330
1F
100
AcDbEntity
  8
AS-ABST MAG STRONG DIPOLAR
100
AcDbPolyline
 90
        2
 70
     1
 43
0.75
 10
381020.5980916086
 20
225760.0766250855
 42
1.0
 10
381019.8480916086
 20
225760.0766250855
 42
1.0
  0
LWPOLYLINE
  5
212
330
1F
100
AcDbEntity
  8
AS-ABST MAG STRONG DIPOLAR
100
AcDbPolyline
 90
        2
 70
     1
 43
0.75
 10
381050.1906656024
 20
225796.6784455549
 42
1.0
 10
381049.4406656024
 20
225796.6784455549
 42
1.0
  0
LWPOLYLINE
  5
213
330
1F
100
AcDbEntity
  8
AS-ABST MAG STRONG DIPOLAR
100
AcDbPolyline
 90
        2
 70
     1
 43
0.75
 10
381069.5998865786
 20
225804.7283912592
 42
1.0
 10
381068.8498865786
 20
225804.7283912592
 42
1.0
  0
LWPOLYLINE
  5
214
330
1F
100
AcDbEntity
  8
AS-ABST MAG STRONG DIPOLAR
100
AcDbPolyline
 90
        2
 70
     1
 43
0.75
 10
381113.3560585883
 20
225786.4326819101
 42
1.0
 10
381112.6060585883
 20
225786.4326819101
 42
1.0
  0
LWPOLYLINE
  5
215
330
1F
100
AcDbEntity
  8
AS-ABST MAG POS DISCRETE UNCERTAIN
100
AcDbPolyline
 90
        2
 70
     1
 43
0.75
 10
381081.4680683654
 20
225815.0974779314
 42
1.0
 10
381080.7180683654
 20
225815.0974779314
 42
1.0
  0
LWPOLYLINE
  5
216
330
1F
100
AcDbEntity
  8
AS-ABST MAG STRONG DIPOLAR
100
AcDbPolyline
 90
        2
 70
     1
 43
0.5
 10
381054.377727815
 20
225828.3976655919
 42
1.0
 10
381053.877727815
 20
225828.3976655919
 42
1.0
  0
LWPOLYLINE
  5
217
330
1F
100
AcDbEntity
  8
AS-ABST MAG STRONG DIPOLAR
100
AcDbPolyline
 90
        2
 70
     1
 43
0.5
 10
381049.1321048547
 20
225844.262476496
 42
1.0
 10
381048.6321048547
 20
225844.262476496
 42
1.0
  0
LWPOLYLINE
  5
218
330
1F
100
AcDbEntity
  8
AS-ABST MAG STRONG DIPOLAR
100
AcDbPolyline
 90
        2
 70
     1
 43
0.5
 10
381036.3379025126
 20
225844.3904185195
 42
1.0
 10
381035.8379025126
 20
225844.3904185195
 42
1.0
  0
LWPOLYLINE
  5
219
330
1F
100
AcDbEntity
  8
AS-ABST MAG STRONG DIPOLAR
100
AcDbPolyline
 90
        2
 70
     1
 43
0.5
 10
381034.6746562082
 20
225844.9021866132
 42
1.0
 10
381034.1746562082
 20
225844.9021866132
 42
1.0
  0
LWPOLYLINE
  5
21A
330
1F
100
AcDbEntity
  8
AS-ABST MAG STRONG DIPOLAR
100
AcDbPolyline
 90
        2
 70
     1
 43
0.5
 10
381030.964337529
 20
225842.0874620979
 42
1.0
 10
381030.464337529
 20
225842.0874620979
 42
1.0
  0
LWPOLYLINE
  5
21B
330
1F
100
AcDbEntity
  8
AS-ABST MAG STRONG DIPOLAR
100
AcDbPolyline
 90
        2
 70
     1
 43
0.5
 10
381028.9172651543
 20
225841.191867934
 42
1.0
 10
381028.4172651543
 20
225841.191867934
 42
1.0
  0
LWPOLYLINE
  5
21C
330
1F
100
AcDbEntity
  8
AS-ABST MAG STRONG DIPOLAR
100
AcDbPolyline
 90
        2
 70
     1
 43
0.5
 10
381028.0216709903
 20
225845.9257228005
 42
1.0
 10
381027.5216709903
 20
225845.9257228005
 42
1.0
  0
LWPOLYLINE
  5
21D
330
1F
100
AcDbEntity
  8
AS-ABST MAG STRONG DIPOLAR
100
AcDbPolyline
 90
        2
 70
     1
 43
0.5
 10
381022.6481060067
 20
225851.4272298076
 42
1.0
 10
381022.1481060067
 20
225851.4272298076
 42
1.0
  0
LWPOLYLINE
  5
21E
330
1F
100
AcDbEntity
  8
AS-ABST MAG STRONG DIPOLAR
100
AcDbPolyline
 90
        2
 70
     1
 43
0.5
 10
381017.1465989996
 20
225854.2419543228
 42
1.0
 10
381016.6465989996
 20
225854.2419543228
 42
1.0
  0
LWPOLYLINE
  5
21F
330
1F
100
AcDbEntity
  8
AS-ABST MAG STRONG DIPOLAR
100
AcDbPolyline
 90
        2
 70
     1
 43
0.5
 10
381007.4230052197
 20
225853.6022442057
 42
1.0
 10
381006.9230052197
 20
225853.6022442057
 42
1.0
  0
LWPOLYLINE
  5
220
330
1F
100
AcDbEntity
  8
AS-ABST MAG STRONG DIPOLAR
100
AcDbPolyline
 90
        2
 70
     1
 43
0.5
 10
381011.0053818754
 20
225854.3698963463
 42
1.0
 10
381010.5053818754
 20
225854.3698963463
 42
1.0
  0
LWPOLYLINE
  5
221
330
1F
100
AcDbEntity
  8
AS-ABST MAG STRONG DIPOLAR
100
AcDbPolyline
 90
        2
 70
     1
 43
0.5
 10
381018.9377873275
 20
225847.4610270816
 42
1.0
 10
381018.4377873275
 20
225847.4610270816
 42
1.0
  0
LWPOLYLINE
  5
222
330
1F
100
AcDbEntity
  8
AS-ABST MAG STRONG DIPOLAR
100
AcDbPolyline
 90
        2
 70
     1
 43
0.5
 10
381003.9685705873
 20
225862.9420119154
 42
1.0
 10
381003.4685705873
 20
225862.9420119154
 42
1.0
  0
LWPOLYLINE
  5
223
330
1F
100
AcDbEntity
  8
AS-ABST MAG STRONG DIPOLAR
100
AcDbPolyline
 90
        2
 70
     1
 43
0.5
 10
380993.2214406201
 20
225865.5008523838
 42
1.0
 10
380992.7214406201
 20
225865.5008523838
 42
1.0
  0
LWPOLYLINE
  5
224
330
1F
100
AcDbEntity
  8
AS-ABST MAG STRONG DIPOLAR
100
AcDbPolyline
 90
        2
 70
     1
 43
0.5
 10
380999.3626577443
 20
225867.9317508288
 42
1.0
 10
380998.8626577443
 20
225867.9317508288
 42
1.0
  0
LWPOLYLINE
  5
225
330
1F
100
AcDbEntity
  8
AS-ABST MAG STRONG DIPOLAR
100
AcDbPolyline
 90
        2
 70
     1
 43
0.5
 10
380979.5316441141
 20
225881.1097792411
 42
1.0
 10
380979.0316441141
 20
225881.1097792411
 42
1.0
  0
LWPOLYLINE
  5
226
330
1F
100
AcDbEntity
  8
AS-ABST MAG STRONG DIPOLAR
100
AcDbPolyline
 90
        2
 70
     1
 43
0.5
 10
380975.1816153178
 20
225882.005373405
 42
1.0
 10
380974.6816153178
 20
225882.005373405
 42
1.0
  0
LWPOLYLINE
  5
227
330
1F
100
AcDbEntity
  8
AS-ABST MAG STRONG DIPOLAR
100
AcDbPolyline
 90
        2
 70
     1
 43
0.5
 10
380976.2051515052
 20
225869.9788232035
 42
1.0
 10
380975.7051515052
 20
225869.9788232035
 42
1.0
  0
LWPOLYLINE
  5
228
330
1F
100
AcDbEntity
  8
AS-ABST MAG STRONG DIPOLAR
100
AcDbPolyline
 90
        2
 70
     1
 43
0.5
 10
380975.3095573412
 20
225862.814069892
 42
1.0
 10
380974.8095573412
 20
225862.814069892
 42
1.0
  0
LWPOLYLINE
  5
229
330
1F
100
AcDbEntity
  8
AS-ABST MAG STRONG DIPOLAR
100
AcDbPolyline
 90
        2
 70
     1
 43
0.5
 10
380969.9359923576
 20
225872.1538376017
 42
1.0
 10
380969.4359923576
 20
225872.1538376017
 42
1.0
  0
LWPOLYLINE
  5
22A
330
1F
100
AcDbEntity
  8
AS-ABST MAG STRONG DIPOLAR
100
AcDbPolyline
 90
        2
 70
     1
 43
0.5
 10
380966.6094997487
 20
225861.5346496578
 42
1.0
 10
380966.1094997487
 20
225861.5346496578
 42
1.0
  0
LWPOLYLINE
  5
22B
330
1F
100
AcDbEntity
  8
AS-ABST MAG STRONG DIPOLAR
100
AcDbPolyline
 90
        2
 70
     1
 43
0.5
 10
380961.8756448821
 20
225858.7199251425
 42
1.0
 10
380961.3756448821
 20
225858.7199251425
 42
1.0
  0
LWPOLYLINE
  5
22C
330
1F
100
AcDbEntity
  8
AS-ABST MAG STRONG DIPOLAR
100
AcDbPolyline
 90
        2
 70
     1
 43
0.5
 10
380962.2594709524
 20
225852.1948819481
 42
1.0
 10
380961.7594709524
 20
225852.1948819481
 42
1.0
  0
LWPOLYLINE
  5
22D
330
1F
100
AcDbEntity
  8
AS-ABST MAG STRONG DIPOLAR
100
AcDbPolyline
 90
        2
 70
     1
 43
0.5
 10
380960.4682826245
 20
225841.3198099574
 42
1.0
 10
380959.9682826245
 20
225841.3198099574
 42
1.0
  0
LWPOLYLINE
  5
22E
330
1F
100
AcDbEntity
  8
AS-ABST MAG STRONG DIPOLAR
100
AcDbPolyline
 90
        2
 70
     1
 43
0.5
 10
380962.6432970226
 20
225841.0639259105
 42
1.0
 10
380962.1432970226
 20
225841.0639259105
 42
1.0
  0
LWPOLYLINE
  5
22F
330
1F
100
AcDbEntity
  8
AS-ABST MAG STRONG DIPOLAR
100
AcDbPolyline
 90
        2
 70
     1
 43
0.5
 10
380975.5654413881
 20
225834.9227087864
 42
1.0
 10
380975.0654413881
 20
225834.9227087864
 42
1.0
  0
LWPOLYLINE
  5
230
330
1F
100
AcDbEntity
  8
AS-ABST MAG STRONG DIPOLAR
100
AcDbPolyline
 90
        2
 70
     1
 43
0.5
 10
380978.7639919736
 20
225835.9462449737
 42
1.0
 10
380978.2639919736
 20
225835.9462449737
 42
1.0
  0
LWPOLYLINE
  5
231
330
1F
100
AcDbEntity
  8
AS-ABST MAG STRONG DIPOLAR
100
AcDbPolyline
 90
        2
 70
     1
 43
0.5
 10
380984.1375569573
 20
225840.1683317466
 42
1.0
 10
380983.6375569573
 20
225840.1683317466
 42
1.0
  0
LWPOLYLINE
  5
232
330
1F
100
AcDbEntity
  8
AS-ABST MAG STRONG DIPOLAR
100
AcDbPolyline
 90
        2
 70
     1
 43
0.5
 10
380979.5316441141
 20
225844.7742445897
 42
1.0
 10
380979.0316441141
 20
225844.7742445897
 42
1.0
  0
LWPOLYLINE
  5
233
330
1F
100
AcDbEntity
  8
AS-ABST MAG STRONG DIPOLAR
100
AcDbPolyline
 90
        2
 70
     1
 43
0.5
 10
380984.3934410041
 20
225852.7066500418
 42
1.0
 10
380983.8934410041
 20
225852.7066500418
 42
1.0
  0
LWPOLYLINE
  5
234
330
1F
100
AcDbEntity
  8
AS-ABST MAG STRONG DIPOLAR
100
AcDbPolyline
 90
        2
 70
     1
 43
0.5
 10
380991.046426222
 20
225839.9124476998
 42
1.0
 10
380990.546426222
 20
225839.9124476998
 42
1.0
  0
LWPOLYLINE
  5
235
330
1F
100
AcDbEntity
  8
AS-ABST MAG STRONG DIPOLAR
100
AcDbPolyline
 90
        2
 70
     1
 43
0.5
 10
380997.0597013227
 20
225834.0271146224
 42
1.0
 10
380996.5597013227
 20
225834.0271146224
 42
1.0
  0
LWPOLYLINE
  5
236
330
1F
100
AcDbEntity
  8
AS-ABST MAG STRONG DIPOLAR
100
AcDbPolyline
 90
        2
 70
     1
 43
0.5
 10
380999.2347157208
 20
225831.468274154
 42
1.0
 10
380998.7347157208
 20
225831.468274154
 42
1.0
  0
LWPOLYLINE
  5
237
330
1F
100
AcDbEntity
  8
AS-ABST MAG STRONG DIPOLAR
100
AcDbPolyline
 90
        2
 70
     1
 43
0.5
 10
380987.8478756364
 20
225827.2461873812
 42
1.0
 10
380987.3478756364
 20
225827.2461873812
 42
1.0
  0
LWPOLYLINE
  5
238
330
1F
100
AcDbEntity
  8
AS-ABST MAG STRONG DIPOLAR
100
AcDbPolyline
 90
        2
 70
     1
 43
0.5
 10
380994.3729188309
 20
225826.9903033343
 42
1.0
 10
380993.8729188309
 20
225826.9903033343
 42
1.0
  0
LWPOLYLINE
  5
239
330
1F
100
AcDbEntity
  8
AS-ABST MAG STRONG DIPOLAR
100
AcDbPolyline
 90
        2
 70
     1
 43
0.5
 10
380981.5787164888
 20
225824.8152889362
 42
1.0
 10
380981.0787164888
 20
225824.8152889362
 42
1.0
  0
LWPOLYLINE
  5
23A
330
1F
100
AcDbEntity
  8
AS-ABST MAG STRONG DIPOLAR
100
AcDbPolyline
 90
        2
 70
     1
 43
0.5
 10
380979.5316441141
 20
225827.8858974983
 42
1.0
 10
380979.0316441141
 20
225827.8858974983
 42
1.0
  0
LWPOLYLINE
  5
23B
330
1F
100
AcDbEntity
  8
AS-ABST MAG STRONG DIPOLAR
100
AcDbPolyline
 90
        2
 70
     1
 43
0.5
 10
380982.6022526762
 20
225830.3167959432
 42
1.0
 10
380982.1022526762
 20
225830.3167959432
 42
1.0
  0
LWPOLYLINE
  5
23C
330
1F
100
AcDbEntity
  8
AS-ABST MAG STRONG DIPOLAR
100
AcDbPolyline
 90
        2
 70
     1
 43
0.5
 10
380984.5213830275
 20
225815.6034632499
 42
1.0
 10
380984.0213830275
 20
225815.6034632499
 42
1.0
  0
LWPOLYLINE
  5
23D
330
1F
100
AcDbEntity
  8
AS-ABST MAG STRONG DIPOLAR
100
AcDbPolyline
 90
        2
 70
     1
 43
0.5
 10
380985.8008032617
 20
225813.4284488517
 42
1.0
 10
380985.3008032617
 20
225813.4284488517
 42
1.0
  0
LWPOLYLINE
  5
23E
330
1F
100
AcDbEntity
  8
AS-ABST MAG STRONG DIPOLAR
100
AcDbPolyline
 90
        2
 70
     1
 43
0.5
 10
380973.1345429431
 20
225814.7078690859
 42
1.0
 10
380972.6345429431
 20
225814.7078690859
 42
1.0
  0
LWPOLYLINE
  5
23F
330
1F
100
AcDbEntity
  8
AS-ABST MAG STRONG DIPOLAR
100
AcDbPolyline
 90
        2
 70
     1
 43
0.5
 10
380968.0168620063
 20
225817.778477648
 42
1.0
 10
380967.5168620063
 20
225817.778477648
 42
1.0
  0
LWPOLYLINE
  5
240
330
1F
100
AcDbEntity
  8
AS-ABST MAG STRONG DIPOLAR
100
AcDbPolyline
 90
        2
 70
     1
 43
0.5
 10
380968.6565721234
 20
225819.6976079993
 42
1.0
 10
380968.1565721234
 20
225819.6976079993
 42
1.0
  0
LWPOLYLINE
  5
241
330
1F
100
AcDbEntity
  8
AS-ABST MAG STRONG DIPOLAR
100
AcDbPolyline
 90
        2
 70
     1
 43
0.5
 10
380966.097731655
 20
225829.2932597559
 42
1.0
 10
380965.597731655
 20
225829.2932597559
 42
1.0
  0
LWPOLYLINE
  5
242
330
1F
100
AcDbEntity
  8
AS-ABST MAG STRONG DIPOLAR
100
AcDbPolyline
 90
        2
 70
     1
 43
0.5
 10
380978.2522238799
 20
225808.950478032
 42
1.0
 10
380977.7522238799
 20
225808.950478032
 42
1.0
  0
LWPOLYLINE
  5
243
330
1F
100
AcDbEntity
  8
AS-ABST MAG STRONG DIPOLAR
100
AcDbPolyline
 90
        2
 70
     1
 43
0.5
 10
380979.6595861375
 20
225809.5901881491
 42
1.0
 10
380979.1595861375
 20
225809.5901881491
 42
1.0
  0
LWPOLYLINE
  5
244
330
1F
100
AcDbEntity
  8
AS-ABST MAG STRONG DIPOLAR
100
AcDbPolyline
 90
        2
 70
     1
 43
0.5
 10
380999.1067736974
 20
225808.4387099383
 42
1.0
 10
380998.6067736974
 20
225808.4387099383
 42
1.0
  0
LWPOLYLINE
  5
245
330
1F
100
AcDbEntity
  8
AS-ABST MAG STRONG DIPOLAR
100
AcDbPolyline
 90
        2
 70
     1
 43
0.5
 10
381001.6656141658
 20
225814.7078690859
 42
1.0
 10
381001.1656141658
 20
225814.7078690859
 42
1.0
  0
LWPOLYLINE
  5
246
330
1F
100
AcDbEntity
  8
AS-ABST MAG STRONG DIPOLAR
100
AcDbPolyline
 90
        2
 70
     1
 43
0.5
 10
381015.7392367421
 20
225820.8490862101
 42
1.0
 10
381015.2392367421
 20
225820.8490862101
 42
1.0
  0
LWPOLYLINE
  5
247
330
1F
100
AcDbEntity
  8
AS-ABST MAG STRONG DIPOLAR
100
AcDbPolyline
 90
        2
 70
     1
 43
0.5
 10
381019.9613235149
 20
225817.3946515778
 42
1.0
 10
381019.4613235149
 20
225817.3946515778
 42
1.0
  0
LWPOLYLINE
  5
248
330
1F
100
AcDbEntity
  8
AS-ABST MAG STRONG DIPOLAR
100
AcDbPolyline
 90
        2
 70
     1
 43
0.5
 10
381022.6481060068
 20
225815.4755212265
 42
1.0
 10
381022.1481060068
 20
225815.4755212265
 42
1.0
  0
LWPOLYLINE
  5
249
330
1F
100
AcDbEntity
  8
AS-ABST MAG STRONG DIPOLAR
100
AcDbPolyline
 90
        2
 70
     1
 43
0.5
 10
381043.5026558242
 20
225817.3946515778
 42
1.0
 10
381043.0026558242
 20
225817.3946515778
 42
1.0
  0
LWPOLYLINE
  5
24A
330
1F
100
AcDbEntity
  8
AS-ABST MAG STRONG DIPOLAR
100
AcDbPolyline
 90
        2
 70
     1
 43
0.5
 10
381046.189438316
 20
225824.8152889362
 42
1.0
 10
381045.689438316
 20
225824.8152889362
 42
1.0
  0
LWPOLYLINE
  5
24B
330
1F
100
AcDbEntity
  8
AS-ABST MAG STRONG DIPOLAR
100
AcDbPolyline
 90
        2
 70
     1
 43
0.5
 10
381045.0379601052
 20
225830.7006220135
 42
1.0
 10
381044.5379601052
 20
225830.7006220135
 42
1.0
  0
LWPOLYLINE
  5
24C
330
1F
100
AcDbEntity
  8
AS-ABST MAG STRONG DIPOLAR
100
AcDbPolyline
 90
        2
 70
     1
 43
0.5
 10
381040.4320472621
 20
225835.9462449737
 42
1.0
 10
381039.9320472621
 20
225835.9462449737
 42
1.0
  0
LWPOLYLINE
  5
24D
330
1F
100
AcDbEntity
  8
AS-ABST MAG STRONG DIPOLAR
100
AcDbPolyline
 90
        2
 70
     1
 43
0.5
 10
381051.4350612763
 20
225837.7374333016
 42
1.0
 10
381050.9350612763
 20
225837.7374333016
 42
1.0
  0
LWPOLYLINE
  5
24E
330
1F
100
AcDbEntity
  8
AS-ABST MAG STRONG DIPOLAR
100
AcDbPolyline
 90
        2
 70
     1
 43
0.5
 10
381051.4350612763
 20
225840.6800998403
 42
1.0
 10
381050.9350612763
 20
225840.6800998403
 42
1.0
  0
LWPOLYLINE
  5
24F
330
1F
100
AcDbEntity
  8
AS-ABST MAG STRONG DIPOLAR
100
AcDbPolyline
 90
        2
 70
     1
 43
0.5
 10
381025.5907725454
 20
225806.6475216105
 42
1.0
 10
381025.0907725454
 20
225806.6475216105
 42
1.0
  0
LWPOLYLINE
  5
250
330
1F
100
AcDbEntity
  8
AS-ABST MAG STRONG DIPOLAR
100
AcDbPolyline
 90
        2
 70
     1
 43
0.5
 10
381029.0452071777
 20
225814.9637531328
 42
1.0
 10
381028.5452071777
 20
225814.9637531328
 42
1.0
  0
LWPOLYLINE
  5
251
330
1F
100
AcDbEntity
  8
AS-ABST MAG STRONG DIPOLAR
100
AcDbPolyline
 90
        2
 70
     1
 43
0.5
 10
381028.7893231309
 20
225806.9034056573
 42
1.0
 10
381028.2893231309
 20
225806.9034056573
 42
1.0
  0
LWPOLYLINE
  5
252
330
1F
100
AcDbEntity
  8
AS-ABST MAG STRONG DIPOLAR
100
AcDbPolyline
 90
        2
 70
     1
 43
0.5
 10
381030.0687433651
 20
225810.6137243365
 42
1.0
 10
381029.5687433651
 20
225810.6137243365
 42
1.0
  0
LWPOLYLINE
  5
253
330
1F
100
AcDbEntity
  8
AS-ABST MAG STRONG DIPOLAR
100
AcDbPolyline
 90
        2
 70
     1
 43
0.5
 10
381039.2805690513
 20
225799.3548262755
 42
1.0
 10
381038.7805690513
 20
225799.3548262755
 42
1.0
  0
LWPOLYLINE
  5
254
330
1F
100
AcDbEntity
  8
AS-ABST MAG STRONG DIPOLAR
100
AcDbPolyline
 90
        2
 70
     1
 43
0.5
 10
381042.0952935666
 20
225804.4725072123
 42
1.0
 10
381041.5952935666
 20
225804.4725072123
 42
1.0
  0
LWPOLYLINE
  5
255
330
1F
100
AcDbEntity
  8
AS-ABST MAG STRONG DIPOLAR
100
AcDbPolyline
 90
        2
 70
     1
 43
0.5
 10
381026.8701927796
 20
225784.5135515588
 42
1.0
 10
381026.3701927796
 20
225784.5135515588
 42
1.0
  0
LWPOLYLINE
  5
256
330
1F
100
AcDbEntity
  8
AS-ABST MAG STRONG DIPOLAR
100
AcDbPolyline
 90
        2
 70
     1
 43
0.5
 10
381026.3584246859
 20
225785.5370877461
 42
1.0
 10
381025.8584246859
 20
225785.5370877461
 42
1.0
  0
LWPOLYLINE
  5
257
330
1F
100
AcDbEntity
  8
AS-ABST MAG STRONG DIPOLAR
100
AcDbPolyline
 90
        2
 70
     1
 43
0.5
 10
381022.9039900535
 20
225787.4562180974
 42
1.0
 10
381022.4039900535
 20
225787.4562180974
 42
1.0
  0
LWPOLYLINE
  5
258
330
1F
100
AcDbEntity
  8
AS-ABST MAG STRONG DIPOLAR
100
AcDbPolyline
 90
        2
 70
     1
 43
0.5
 10
381021.3686857725
 20
225792.0621309406
 42
1.0
 10
381020.8686857725
 20
225792.0621309406
 42
1.0
  0
LWPOLYLINE
  5
259
330
1F
100
AcDbEntity
  8
AS-ABST MAG STRONG DIPOLAR
100
AcDbPolyline
 90
        2
 70
     1
 43
0.5
 10
381011.773034016
 20
225791.8062468937
 42
1.0
 10
381011.273034016
 20
225791.8062468937
 42
1.0
  0
LWPOLYLINE
  5
25A
330
1F
100
AcDbEntity
  8
AS-ABST MAG STRONG DIPOLAR
100
AcDbPolyline
 90
        2
 70
     1
 43
0.5
 10
381024.567236358
 20
225780.931174903
 42
1.0
 10
381024.067236358
 20
225780.931174903
 42
1.0
  0
LWPOLYLINE
  5
25B
330
1F
100
AcDbEntity
  8
AS-ABST MAG STRONG DIPOLAR
100
AcDbPolyline
 90
        2
 70
     1
 43
0.5
 10
381026.1025406391
 20
225776.4532040833
 42
1.0
 10
381025.6025406391
 20
225776.4532040833
 42
1.0
  0
LWPOLYLINE
  5
25C
330
1F
100
AcDbEntity
  8
AS-ABST MAG STRONG DIPOLAR
100
AcDbPolyline
 90
        2
 70
     1
 43
0.5
 10
381003.8406285639
 20
225784.0017834651
 42
1.0
 10
381003.3406285639
 20
225784.0017834651
 42
1.0
  0
LWPOLYLINE
  5
25D
330
1F
100
AcDbEntity
  8
AS-ABST MAG STRONG DIPOLAR
100
AcDbPolyline
 90
        2
 70
     1
 43
0.5
 10
381006.7832951026
 20
225791.8062468937
 42
1.0
 10
381006.2832951026
 20
225791.8062468937
 42
1.0
  0
LWPOLYLINE
  5
25E
330
1F
100
AcDbEntity
  8
AS-ABST MAG STRONG DIPOLAR
100
AcDbPolyline
 90
        2
 70
     1
 43
0.5
 10
381003.5847445171
 20
225798.3312900882
 42
1.0
 10
381003.0847445171
 20
225798.3312900882
 42
1.0
  0
LWPOLYLINE
  5
25F
330
1F
100
AcDbEntity
  8
AS-ABST MAG STRONG DIPOLAR
100
AcDbPolyline
 90
        2
 70
     1
 43
0.5
 10
381007.0391791494
 20
225803.5769130484
 42
1.0
 10
381006.5391791494
 20
225803.5769130484
 42
1.0
  0
LWPOLYLINE
  5
260
330
1F
100
AcDbEntity
  8
AS-ABST MAG STRONG DIPOLAR
100
AcDbPolyline
 90
        2
 70
     1
 43
0.5
 10
380975.3095573412
 20
225800.7621885332
 42
1.0
 10
380974.8095573412
 20
225800.7621885332
 42
1.0
  0
LWPOLYLINE
  5
261
330
1F
100
AcDbEntity
  8
AS-ABST MAG STRONG DIPOLAR
100
AcDbPolyline
 90
        2
 70
     1
 43
0.5
 10
380971.0874705683
 20
225801.1460146034
 42
1.0
 10
380970.5874705683
 20
225801.1460146034
 42
1.0
  0
LWPOLYLINE
  5
262
330
1F
100
AcDbEntity
  8
AS-ABST MAG STRONG DIPOLAR
100
AcDbPolyline
 90
        2
 70
     1
 43
0.5
 10
380966.8653837954
 20
225803.8327970953
 42
1.0
 10
380966.3653837954
 20
225803.8327970953
 42
1.0
  0
LWPOLYLINE
  5
263
330
1F
100
AcDbEntity
  8
AS-ABST MAG STRONG DIPOLAR
100
AcDbPolyline
 90
        2
 70
     1
 43
0.5
 10
380959.3168044136
 20
225800.5063044863
 42
1.0
 10
380958.8168044136
 20
225800.5063044863
 42
1.0
  0
LWPOLYLINE
  5
264
330
1F
100
AcDbEntity
  8
AS-ABST MAG STRONG DIPOLAR
100
AcDbPolyline
 90
        2
 70
     1
 43
0.5
 10
380958.0373841794
 20
225807.415173751
 42
1.0
 10
380957.5373841794
 20
225807.415173751
 42
1.0
  0
LWPOLYLINE
  5
265
330
1F
100
AcDbEntity
  8
AS-ABST MAG STRONG DIPOLAR
100
AcDbPolyline
 90
        2
 70
     1
 43
0.5
 10
380956.5020798984
 20
225808.9504780321
 42
1.0
 10
380956.0020798984
 20
225808.9504780321
 42
1.0
  0
LWPOLYLINE
  5
266
330
1F
100
AcDbEntity
  8
AS-ABST MAG STRONG DIPOLAR
100
AcDbPolyline
 90
        2
 70
     1
 43
0.5
 10
380958.6770942965
 20
225813.4284488518
 42
1.0
 10
380958.1770942965
 20
225813.4284488518
 42
1.0
  0
LWPOLYLINE
  5
267
330
1F
100
AcDbEntity
  8
AS-ABST MAG STRONG DIPOLAR
100
AcDbPolyline
 90
        2
 70
     1
 43
0.5
 10
380958.8050363199
 20
225814.4519850391
 42
1.0
 10
380958.3050363199
 20
225814.4519850391
 42
1.0
  0
LWPOLYLINE
  5
268
330
1F
100
AcDbEntity
  8
AS-ABST MAG STRONG DIPOLAR
100
AcDbPolyline
 90
        2
 70
     1
 43
0.5
 10
380966.6094997486
 20
225789.759174519
 42
1.0
 10
380966.1094997486
 20
225789.759174519
 42
1.0
  0
LWPOLYLINE
  5
269
330
1F
100
AcDbEntity
  8
AS-ABST MAG STRONG DIPOLAR
100
AcDbPolyline
 90
        2
 70
     1
 43
0.5
 10
380969.8080503341
 20
225786.9444500038
 42
1.0
 10
380969.3080503341
 20
225786.9444500038
 42
1.0
  0
LWPOLYLINE
  5
26A
330
1F
100
AcDbEntity
  8
AS-ABST MAG STRONG DIPOLAR
100
AcDbPolyline
 90
        2
 70
     1
 43
0.5
 10
380963.6668332099
 20
225785.5370877461
 42
1.0
 10
380963.1668332099
 20
225785.5370877461
 42
1.0
  0
LWPOLYLINE
  5
26B
330
1F
100
AcDbEntity
  8
AS-ABST MAG STRONG DIPOLAR
100
AcDbPolyline
 90
        2
 70
     1
 43
0.5
 10
380958.1653262028
 20
225795.0047974793
 42
1.0
 10
380957.6653262028
 20
225795.0047974793
 42
1.0
  0
LWPOLYLINE
  5
26C
330
1F
100
AcDbEntity
  8
AS-ABST MAG STRONG DIPOLAR
100
AcDbPolyline
 90
        2
 70
     1
 43
0.5
 10
380973.9021950836
 20
225793.725377245
 42
1.0
 10
380973.4021950836
 20
225793.725377245
 42
1.0
  0
LWPOLYLINE
  5
26D
330
1F
100
AcDbEntity
  8
AS-ABST MAG STRONG DIPOLAR
100
AcDbPolyline
 90
        2
 70
     1
 43
0.5
 10
380973.3904269899
 20
225795.5165655729
 42
1.0
 10
380972.8904269899
 20
225795.5165655729
 42
1.0
  0
LWPOLYLINE
  5
26E
330
1F
100
AcDbEntity
  8
AS-ABST MAG STRONG DIPOLAR
100
AcDbPolyline
 90
        2
 70
     1
 43
0.5
 10
380985.0331511211
 20
225785.6650297696
 42
1.0
 10
380984.5331511211
 20
225785.6650297696
 42
1.0
  0
LWPOLYLINE
  5
26F
330
1F
100
AcDbEntity
  8
AS-ABST MAG STRONG DIPOLAR
100
AcDbPolyline
 90
        2
 70
     1
 43
0.5
 10
380978.3801659032
 20
225776.1973200365
 42
1.0
 10
380977.8801659032
 20
225776.1973200365
 42
1.0
  0
LWPOLYLINE
  5
270
330
1F
100
AcDbEntity
  8
AS-ABST MAG STRONG DIPOLAR
100
AcDbPolyline
 90
        2
 70
     1
 43
0.5
 10
380976.5889775754
 20
225778.1164503878
 42
1.0
 10
380976.0889775754
 20
225778.1164503878
 42
1.0
  0
LWPOLYLINE
  5
271
330
1F
100
AcDbEntity
  8
AS-ABST MAG STRONG DIPOLAR
100
AcDbPolyline
 90
        2
 70
     1
 43
0.5
 10
380978.8919339969
 20
225777.3487982473
 42
1.0
 10
380978.3919339969
 20
225777.3487982473
 42
1.0
  0
LWPOLYLINE
  5
272
330
1F
100
AcDbEntity
  8
AS-ABST MAG STRONG DIPOLAR
100
AcDbPolyline
 90
        2
 70
     1
 43
0.5
 10
380987.3361075427
 20
225775.8134939662
 42
1.0
 10
380986.8361075427
 20
225775.8134939662
 42
1.0
  0
LWPOLYLINE
  5
273
330
1F
100
AcDbEntity
  8
AS-ABST MAG STRONG DIPOLAR
100
AcDbPolyline
 90
        2
 70
     1
 43
0.5
 10
380999.1067736974
 20
225775.0458418257
 42
1.0
 10
380998.6067736974
 20
225775.0458418257
 42
1.0
  0
LWPOLYLINE
  5
274
330
1F
100
AcDbEntity
  8
AS-ABST MAG STRONG DIPOLAR
100
AcDbPolyline
 90
        2
 70
     1
 43
0.5
 10
380989.3831799174
 20
225771.3355231465
 42
1.0
 10
380988.8831799174
 20
225771.3355231465
 42
1.0
  0
LWPOLYLINE
  5
275
330
1F
100
AcDbEntity
  8
AS-ABST MAG STRONG DIPOLAR
100
AcDbPolyline
 90
        2
 70
     1
 43
0.5
 10
380986.3125713553
 20
225759.5648569918
 42
1.0
 10
380985.8125713553
 20
225759.5648569918
 42
1.0
  0
LWPOLYLINE
  5
276
330
1F
100
AcDbEntity
  8
AS-ABST MAG STRONG DIPOLAR
100
AcDbPolyline
 90
        2
 70
     1
 43
0.5
 10
380990.2787740813
 20
225758.9251468747
 42
1.0
 10
380989.7787740813
 20
225758.9251468747
 42
1.0
  0
LWPOLYLINE
  5
277
330
1F
100
AcDbEntity
  8
AS-ABST MAG STRONG DIPOLAR
100
AcDbPolyline
 90
        2
 70
     1
 43
0.5
 10
380989.5111219408
 20
225761.3560453197
 42
1.0
 10
380989.0111219408
 20
225761.3560453197
 42
1.0
  0
LWPOLYLINE
  5
278
330
1F
100
AcDbEntity
  8
AS-ABST MAG STRONG DIPOLAR
100
AcDbPolyline
 90
        2
 70
     1
 43
0.5
 10
380988.4875857534
 20
225766.7296103034
 42
1.0
 10
380987.9875857534
 20
225766.7296103034
 42
1.0
  0
LWPOLYLINE
  5
279
330
1F
100
AcDbEntity
  8
AS-ABST MAG STRONG DIPOLAR
100
AcDbPolyline
 90
        2
 70
     1
 43
0.5
 10
380997.3155853695
 20
225755.4707122424
 42
1.0
 10
380996.8155853695
 20
225755.4707122424
 42
1.0
  0
LWPOLYLINE
  5
27A
330
1F
100
AcDbEntity
  8
AS-ABST MAG STRONG DIPOLAR
100
AcDbPolyline
 90
        2
 70
     1
 43
0.5
 10
380997.0597013226
 20
225757.1339585468
 42
1.0
 10
380996.5597013226
 20
225757.1339585468
 42
1.0
  0
LWPOLYLINE
  5
27B
330
1F
100
AcDbEntity
  8
AS-ABST MAG STRONG DIPOLAR
100
AcDbPolyline
 90
        2
 70
     1
 43
0.5
 10
380998.2111795334
 20
225761.4839873431
 42
1.0
 10
380997.7111795334
 20
225761.4839873431
 42
1.0
  0
LWPOLYLINE
  5
27C
330
1F
100
AcDbEntity
  8
AS-ABST MAG STRONG DIPOLAR
100
AcDbPolyline
 90
        2
 70
     1
 43
0.5
 10
380999.4905997676
 20
225762.7634075773
 42
1.0
 10
380998.9905997676
 20
225762.7634075773
 42
1.0
  0
LWPOLYLINE
  5
27D
330
1F
100
AcDbEntity
  8
AS-ABST MAG STRONG DIPOLAR
100
AcDbPolyline
 90
        2
 70
     1
 43
0.5
 10
381004.8641647513
 20
225773.8943636149
 42
1.0
 10
381004.3641647513
 20
225773.8943636149
 42
1.0
  0
LWPOLYLINE
  5
27E
330
1F
100
AcDbEntity
  8
AS-ABST MAG STRONG DIPOLAR
100
AcDbPolyline
 90
        2
 70
     1
 43
0.5
 10
381013.6921643672
 20
225771.0796390997
 42
1.0
 10
381013.1921643672
 20
225771.0796390997
 42
1.0
  0
LWPOLYLINE
  5
27F
330
1F
100
AcDbEntity
  8
AS-ABST MAG STRONG DIPOLAR
100
AcDbPolyline
 90
        2
 70
     1
 43
0.5
 10
381013.8201063907
 20
225766.6016682799
 42
1.0
 10
381013.3201063907
 20
225766.6016682799
 42
1.0
  0
LWPOLYLINE
  5
280
330
1F
100
AcDbEntity
  8
AS-ABST MAG STRONG DIPOLAR
100
AcDbPolyline
 90
        2
 70
     1
 43
0.5
 10
381005.6318168918
 20
225768.6487406547
 42
1.0
 10
381005.1318168918
 20
225768.6487406547
 42
1.0
  0
LWPOLYLINE
  5
281
330
1F
100
AcDbEntity
  8
AS-ABST MAG STRONG DIPOLAR
100
AcDbPolyline
 90
        2
 70
     1
 43
0.5
 10
381014.8436425781
 20
225779.1399865751
 42
1.0
 10
381014.3436425781
 20
225779.1399865751
 42
1.0
  0
LWPOLYLINE
  5
282
330
1F
100
AcDbEntity
  8
AS-ABST MAG STRONG DIPOLAR
100
AcDbPolyline
 90
        2
 70
     1
 43
0.5
 10
381018.2980772104
 20
225771.5914071933
 42
1.0
 10
381017.7980772104
 20
225771.5914071933
 42
1.0
  0
LWPOLYLINE
  5
283
330
1F
100
AcDbEntity
  8
AS-ABST MAG STRONG DIPOLAR
100
AcDbPolyline
 90
        2
 70
     1
 43
0.5
 10
381023.7995842175
 20
225769.672276842
 42
1.0
 10
381023.2995842175
 20
225769.672276842
 42
1.0
  0
LWPOLYLINE
  5
284
330
1F
100
AcDbEntity
  8
AS-ABST MAG STRONG DIPOLAR
100
AcDbPolyline
 90
        2
 70
     1
 43
0.5
 10
381043.8864818945
 20
225772.7428854041
 42
1.0
 10
381043.3864818945
 20
225772.7428854041
 42
1.0
  0
LWPOLYLINE
  5
285
330
1F
100
AcDbEntity
  8
AS-ABST MAG STRONG DIPOLAR
100
AcDbPolyline
 90
        2
 70
     1
 43
0.5
 10
381046.189438316
 20
225764.9384219755
 42
1.0
 10
381045.689438316
 20
225764.9384219755
 42
1.0
  0
LWPOLYLINE
  5
286
330
1F
100
AcDbEntity
  8
AS-ABST MAG STRONG DIPOLAR
100
AcDbPolyline
 90
        2
 70
     1
 43
0.5
 10
381055.7850900725
 20
225778.2443924112
 42
1.0
 10
381055.2850900725
 20
225778.2443924112
 42
1.0
  0
LWPOLYLINE
  5
287
330
1F
100
AcDbEntity
  8
AS-ABST MAG STRONG DIPOLAR
100
AcDbPolyline
 90
        2
 70
     1
 43
0.5
 10
381057.4552708911
 20
225775.6751501716
 42
1.0
 10
381056.9552708911
 20
225775.6751501716
 42
1.0
  0
LWPOLYLINE
  5
288
330
1F
100
AcDbEntity
  8
AS-ABST MAG STRONG DIPOLAR
100
AcDbPolyline
 90
        2
 70
     1
 43
0.5
 10
381055.1453799555
 20
225775.5576099194
 42
1.0
 10
381054.6453799555
 20
225775.5576099194
 42
1.0
  0
LWPOLYLINE
  5
289
330
1F
100
AcDbEntity
  8
AS-ABST MAG STRONG DIPOLAR
100
AcDbPolyline
 90
        2
 70
     1
 43
0.5
 10
381023.5437001706
 20
225756.3663064063
 42
1.0
 10
381023.0437001706
 20
225756.3663064063
 42
1.0
  0
LWPOLYLINE
  5
28A
330
1F
100
AcDbEntity
  8
AS-ABST MAG STRONG DIPOLAR
100
AcDbPolyline
 90
        2
 70
     1
 43
0.5
 10
381024.3113523112
 20
225759.4369149684
 42
1.0
 10
381023.8113523112
 20
225759.4369149684
 42
1.0
  0
LWPOLYLINE
  5
28B
330
1F
100
AcDbEntity
  8
AS-ABST MAG STRONG DIPOLAR
100
AcDbPolyline
 90
        2
 70
     1
 43
0.5
 10
381022.0083958896
 20
225756.1104223595
 42
1.0
 10
381021.5083958896
 20
225756.1104223595
 42
1.0
  0
LWPOLYLINE
  5
28C
330
1F
100
AcDbEntity
  8
AS-ABST MAG STRONG DIPOLAR
100
AcDbPolyline
 90
        2
 70
     1
 43
0.5
 10
381019.8333814914
 20
225754.5751180784
 42
1.0
 10
381019.3333814914
 20
225754.5751180784
 42
1.0
  0
LWPOLYLINE
  5
28D
330
1F
100
AcDbEntity
  8
AS-ABST MAG STRONG DIPOLAR
100
AcDbPolyline
 90
        2
 70
     1
 43
0.5
 10
381015.739236742
 20
225749.585379165
 42
1.0
 10
381015.239236742
 20
225749.585379165
 42
1.0
  0
LWPOLYLINE
  5
28E
330
1F
100
AcDbEntity
  8
AS-ABST MAG STRONG DIPOLAR
100
AcDbPolyline
 90
        2
 70
     1
 43
0.5
 10
381011.6450919925
 20
225748.6897850011
 42
1.0
 10
381011.1450919925
 20
225748.6897850011
 42
1.0
  0
LWPOLYLINE
  5
28F
330
1F
100
AcDbEntity
  8
AS-ABST MAG STRONG DIPOLAR
100
AcDbPolyline
 90
        2
 70
     1
 43
0.5
 10
381021.8804538661
 20
225749.0736110714
 42
1.0
 10
381021.3804538661
 20
225749.0736110714
 42
1.0
  0
LWPOLYLINE
  5
290
330
1F
100
AcDbEntity
  8
AS-ABST MAG STRONG DIPOLAR
100
AcDbPolyline
 90
        2
 70
     1
 43
0.5
 10
381028.4054970606
 20
225734.9999884951
 42
1.0
 10
381027.9054970606
 20
225734.9999884951
 42
1.0
  0
LWPOLYLINE
  5
291
330
1F
100
AcDbEntity
  8
AS-ABST MAG STRONG DIPOLAR
100
AcDbPolyline
 90
        2
 70
     1
 43
0.5
 10
381026.2304826624
 20
225739.4779593149
 42
1.0
 10
381025.7304826624
 20
225739.4779593149
 42
1.0
  0
LWPOLYLINE
  5
292
330
1F
100
AcDbEntity
  8
AS-ABST MAG STRONG DIPOLAR
100
AcDbPolyline
 90
        2
 70
     1
 43
0.5
 10
381019.1936713743
 20
225741.9088577598
 42
1.0
 10
381018.6936713743
 20
225741.9088577598
 42
1.0
  0
LWPOLYLINE
  5
293
330
1F
100
AcDbEntity
  8
AS-ABST MAG STRONG DIPOLAR
100
AcDbPolyline
 90
        2
 70
     1
 43
0.5
 10
381044.0144239179
 20
225737.4308869401
 42
1.0
 10
381043.5144239179
 20
225737.4308869401
 42
1.0
  0
LWPOLYLINE
  5
294
330
1F
100
AcDbEntity
  8
AS-ABST MAG STRONG DIPOLAR
100
AcDbPolyline
 90
        2
 70
     1
 43
0.5
 10
381041.3276414261
 20
225740.5014955022
 42
1.0
 10
381040.8276414261
 20
225740.5014955022
 42
1.0
  0
LWPOLYLINE
  5
295
330
1F
100
AcDbEntity
  8
AS-ABST MAG STRONG DIPOLAR
100
AcDbPolyline
 90
        2
 70
     1
 43
0.5
 10
381036.7217285829
 20
225729.3705394646
 42
1.0
 10
381036.2217285829
 20
225729.3705394646
 42
1.0
  0
LWPOLYLINE
  5
296
330
1F
100
AcDbEntity
  8
AS-ABST MAG STRONG DIPOLAR
100
AcDbPolyline
 90
        2
 70
     1
 43
0.5
 10
381038.0011488171
 20
225729.2425974412
 42
1.0
 10
381037.5011488171
 20
225729.2425974412
 42
1.0
  0
LWPOLYLINE
  5
297
330
1F
100
AcDbEntity
  8
AS-ABST MAG STRONG DIPOLAR
100
AcDbPolyline
 90
        2
 70
     1
 43
0.5
 10
381039.6643951216
 20
225732.3132060033
 42
1.0
 10
381039.1643951216
 20
225732.3132060033
 42
1.0
  0
LWPOLYLINE
  5
298
330
1F
100
AcDbEntity
  8
AS-ABST MAG STRONG DIPOLAR
100
AcDbPolyline
 90
        2
 70
     1
 43
0.5
 10
381040.0482211919
 20
225727.963177207
 42
1.0
 10
381039.5482211919
 20
225727.963177207
 42
1.0
  0
LWPOLYLINE
  5
299
330
1F
100
AcDbEntity
  8
AS-ABST MAG STRONG DIPOLAR
100
AcDbPolyline
 90
        2
 70
     1
 43
0.5
 10
380998.5950056037
 20
225755.5986542658
 42
1.0
 10
380998.0950056037
 20
225755.5986542658
 42
1.0
  0
LWPOLYLINE
  5
29A
330
1F
100
AcDbEntity
  8
AS-ABST MAG STRONG DIPOLAR
100
AcDbPolyline
 90
        2
 70
     1
 43
0.5
 10
381038.7688009577
 20
225772.998769451
 42
1.0
 10
381038.2688009577
 20
225772.998769451
 42
1.0
  0
LWPOLYLINE
  5
29B
330
1F
100
AcDbEntity
  8
AS-ABST MAG STRONG DIPOLAR
100
AcDbPolyline
 90
        2
 70
     1
 43
0.5
 10
381075.104335609
 20
225760.844277226
 42
1.0
 10
381074.604335609
 20
225760.844277226
 42
1.0
  0
LWPOLYLINE
  5
29C
330
1F
100
AcDbEntity
  8
AS-ABST MAG STRONG DIPOLAR
100
AcDbPolyline
 90
        2
 70
     1
 43
0.5
 10
381084.6999873656
 20
225761.73987139
 42
1.0
 10
381084.1999873656
 20
225761.73987139
 42
1.0
  0
LWPOLYLINE
  5
29D
330
1F
100
AcDbEntity
  8
AS-ABST MAG STRONG DIPOLAR
100
AcDbPolyline
 90
        2
 70
     1
 43
0.5
 10
381091.9926827005
 20
225761.73987139
 42
1.0
 10
381091.4926827005
 20
225761.73987139
 42
1.0
  0
LWPOLYLINE
  5
29E
330
1F
100
AcDbEntity
  8
AS-ABST MAG STRONG DIPOLAR
100
AcDbPolyline
 90
        2
 70
     1
 43
0.5
 10
381080.3499585693
 20
225775.6855519428
 42
1.0
 10
381079.8499585693
 20
225775.6855519428
 42
1.0
  0
LWPOLYLINE
  5
29F
330
1F
100
AcDbEntity
  8
AS-ABST MAG STRONG DIPOLAR
100
AcDbPolyline
 90
        2
 70
     1
 43
0.5
 10
381089.5617842555
 20
225774.7899577788
 42
1.0
 10
381089.0617842555
 20
225774.7899577788
 42
1.0
  0
LWPOLYLINE
  5
2A0
330
1F
100
AcDbEntity
  8
AS-ABST MAG STRONG DIPOLAR
100
AcDbPolyline
 90
        2
 70
     1
 43
0.5
 10
381089.6897262789
 20
225776.4532040833
 42
1.0
 10
381089.1897262789
 20
225776.4532040833
 42
1.0
  0
LWPOLYLINE
  5
2A1
330
1F
100
AcDbEntity
  8
AS-ABST MAG STRONG DIPOLAR
100
AcDbPolyline
 90
        2
 70
     1
 43
0.5
 10
381087.258827834
 20
225778.1164503878
 42
1.0
 10
381086.758827834
 20
225778.1164503878
 42
1.0
  0
LWPOLYLINE
  5
2A2
330
1F
100
AcDbEntity
  8
AS-ABST MAG STRONG DIPOLAR
100
AcDbPolyline
 90
        2
 70
     1
 43
0.5
 10
381090.8412044897
 20
225778.8841025283
 42
1.0
 10
381090.3412044897
 20
225778.8841025283
 42
1.0
  0
LWPOLYLINE
  5
2A3
330
1F
100
AcDbEntity
  8
AS-ABST MAG STRONG DIPOLAR
100
AcDbPolyline
 90
        2
 70
     1
 43
0.5
 10
381074.3815845664
 20
225784.2542002549
 42
1.0
 10
381073.8815845664
 20
225784.2542002549
 42
1.0
  0
LWPOLYLINE
  5
2A4
330
1F
100
AcDbEntity
  8
AS-ABST MAG STRONG DIPOLAR
100
AcDbPolyline
 90
        2
 70
     1
 43
0.5
 10
381070.8822488362
 20
225782.5944212075
 42
1.0
 10
381070.3822488362
 20
225782.5944212075
 42
1.0
  0
LWPOLYLINE
  5
2A5
330
1F
100
AcDbEntity
  8
AS-ABST MAG STRONG DIPOLAR
100
AcDbPolyline
 90
        2
 70
     1
 43
0.5
 10
381065.5086838525
 20
225780.4194068093
 42
1.0
 10
381065.0086838525
 20
225780.4194068093
 42
1.0
  0
LWPOLYLINE
  5
2A6
330
1F
100
AcDbEntity
  8
AS-ABST MAG STRONG DIPOLAR
100
AcDbPolyline
 90
        2
 70
     1
 43
0.5
 10
381050.4115250889
 20
225788.9915223785
 42
1.0
 10
381049.9115250889
 20
225788.9915223785
 42
1.0
  0
LWPOLYLINE
  5
2A7
330
1F
100
AcDbEntity
  8
AS-ABST MAG STRONG DIPOLAR
100
AcDbPolyline
 90
        2
 70
     1
 43
0.5
 10
381046.3173803394
 20
225787.2003340506
 42
1.0
 10
381045.8173803394
 20
225787.2003340506
 42
1.0
  0
LWPOLYLINE
  5
2A8
330
1F
100
AcDbEntity
  8
AS-ABST MAG STRONG DIPOLAR
100
AcDbPolyline
 90
        2
 70
     1
 43
0.5
 10
381039.2805690513
 20
225788.9915223785
 42
1.0
 10
381038.7805690513
 20
225788.9915223785
 42
1.0
  0
LWPOLYLINE
  5
2A9
330
1F
100
AcDbEntity
  8
AS-ABST MAG STRONG DIPOLAR
100
AcDbPolyline
 90
        2
 70
     1
 43
0.5
 10
381070.6263647893
 20
225796.7959858072
 42
1.0
 10
381070.1263647893
 20
225796.7959858072
 42
1.0
  0
LWPOLYLINE
  5
2AA
330
1F
100
AcDbEntity
  8
AS-ABST MAG STRONG DIPOLAR
100
AcDbPolyline
 90
        2
 70
     1
 43
0.5
 10
381073.8249153748
 20
225801.7857247206
 42
1.0
 10
381073.3249153748
 20
225801.7857247206
 42
1.0
  0
LWPOLYLINE
  5
2AB
330
1F
100
AcDbEntity
  8
AS-ABST MAG STRONG DIPOLAR
100
AcDbPolyline
 90
        2
 70
     1
 43
0.5
 10
381074.9763935856
 20
225808.310767915
 42
1.0
 10
381074.4763935856
 20
225808.310767915
 42
1.0
  0
LWPOLYLINE
  5
2AC
330
1F
100
AcDbEntity
  8
AS-ABST MAG STRONG DIPOLAR
100
AcDbPolyline
 90
        2
 70
     1
 43
0.5
 10
381067.6836982506
 20
225813.172564805
 42
1.0
 10
381067.1836982506
 20
225813.172564805
 42
1.0
  0
LWPOLYLINE
  5
2AD
330
1F
100
AcDbEntity
  8
AS-ABST MAG STRONG DIPOLAR
100
AcDbPolyline
 90
        2
 70
     1
 43
0.5
 10
381059.6233507752
 20
225819.4417239526
 42
1.0
 10
381059.1233507752
 20
225819.4417239526
 42
1.0
  0
LWPOLYLINE
  5
2AE
330
1F
100
AcDbEntity
  8
AS-ABST MAG STRONG DIPOLAR
100
AcDbPolyline
 90
        2
 70
     1
 43
0.5
 10
381061.1586550562
 20
225818.1623037184
 42
1.0
 10
381060.6586550562
 20
225818.1623037184
 42
1.0
  0
LWPOLYLINE
  5
2AF
330
1F
100
AcDbEntity
  8
AS-ABST MAG STRONG DIPOLAR
100
AcDbPolyline
 90
        2
 70
     1
 43
0.5
 10
381055.6571480492
 20
225810.74166636
 42
1.0
 10
381055.1571480492
 20
225810.74166636
 42
1.0
  0
LWPOLYLINE
  5
2B0
330
1F
100
AcDbEntity
  8
AS-ABST MAG STRONG DIPOLAR
100
AcDbPolyline
 90
        2
 70
     1
 43
0.5
 10
381054.1218437681
 20
225803.7048550718
 42
1.0
 10
381053.6218437681
 20
225803.7048550718
 42
1.0
  0
LWPOLYLINE
  5
2B1
330
1F
100
AcDbEntity
  8
AS-ABST MAG STRONG DIPOLAR
100
AcDbPolyline
 90
        2
 70
     1
 43
0.5
 10
381083.2926251079
 20
225809.7181301726
 42
1.0
 10
381082.7926251079
 20
225809.7181301726
 42
1.0
  0
LWPOLYLINE
  5
2B2
330
1F
100
AcDbEntity
  8
AS-ABST MAG STRONG DIPOLAR
100
AcDbPolyline
 90
        2
 70
     1
 43
0.5
 10
381081.1176107098
 20
225806.0078114934
 42
1.0
 10
381080.6176107098
 20
225806.0078114934
 42
1.0
  0
LWPOLYLINE
  5
2B3
330
1F
100
AcDbEntity
  8
AS-ABST MAG STRONG DIPOLAR
100
AcDbPolyline
 90
        2
 70
     1
 43
0.5
 10
381080.9896686864
 20
225802.4254348377
 42
1.0
 10
381080.4896686864
 20
225802.4254348377
 42
1.0
  0
LWPOLYLINE
  5
2B4
330
1F
100
AcDbEntity
  8
AS-ABST MAG STRONG DIPOLAR
100
AcDbPolyline
 90
        2
 70
     1
 43
0.5
 10
381083.0367410611
 20
225813.9402169455
 42
1.0
 10
381082.5367410611
 20
225813.9402169455
 42
1.0
  0
LWPOLYLINE
  5
2B5
330
1F
100
AcDbEntity
  8
AS-ABST MAG STRONG DIPOLAR
100
AcDbPolyline
 90
        2
 70
     1
 43
0.5
 10
381085.5955815295
 20
225817.6505356247
 42
1.0
 10
381085.0955815295
 20
225817.6505356247
 42
1.0
  0
LWPOLYLINE
  5
2B6
330
1F
100
AcDbEntity
  8
AS-ABST MAG STRONG DIPOLAR
100
AcDbPolyline
 90
        2
 70
     1
 43
0.5
 10
381084.1882192719
 20
225803.9607391187
 42
1.0
 10
381083.6882192719
 20
225803.9607391187
 42
1.0
  0
LWPOLYLINE
  5
2B7
330
1F
100
AcDbEntity
  8
AS-ABST MAG STRONG DIPOLAR
100
AcDbPolyline
 90
        2
 70
     1
 43
0.5
 10
381109.2648558622
 20
225790.5268266596
 42
1.0
 10
381108.7648558622
 20
225790.5268266596
 42
1.0
  0
LWPOLYLINE
  5
2B8
330
1F
100
AcDbEntity
  8
AS-ABST MAG STRONG DIPOLAR
100
AcDbPolyline
 90
        2
 70
     1
 43
0.5
 10
381113.7428266819
 20
225789.5032904722
 42
1.0
 10
381113.2428266819
 20
225789.5032904722
 42
1.0
  0
LWPOLYLINE
  5
2B9
330
1F
100
AcDbEntity
  8
AS-ABST MAG STRONG DIPOLAR
100
AcDbPolyline
 90
        2
 70
     1
 43
0.5
 10
381109.1369138389
 20
225765.706074116
 42
1.0
 10
381108.6369138389
 20
225765.706074116
 42
1.0
  0
LWPOLYLINE
  5
2BA
330
1F
100
AcDbEntity
  8
AS-ABST MAG STRONG DIPOLAR
100
AcDbPolyline
 90
        2
 70
     1
 43
0.5
 10
381107.985435628
 20
225763.0192916242
 42
1.0
 10
381107.485435628
 20
225763.0192916242
 42
1.0
  0
LWPOLYLINE
  5
2BB
330
1F
100
AcDbEntity
  8
AS-ABST MAG STRONG DIPOLAR
100
AcDbPolyline
 90
        2
 70
     1
 43
0.5
 10
381101.0835008774
 20
225763.5759608157
 42
1.0
 10
381100.5835008774
 20
225763.5759608157
 42
1.0
  0
LWPOLYLINE
  5
2BC
330
1F
100
AcDbEntity
  8
AS-ABST MAG STRONG DIPOLAR
100
AcDbPolyline
 90
        2
 70
     1
 43
0.5
 10
381106.7060153938
 20
225760.3325091324
 42
1.0
 10
381106.2060153938
 20
225760.3325091324
 42
1.0
  0
LWPOLYLINE
  5
2BD
330
1F
100
AcDbEntity
  8
AS-ABST MAG STRONG DIPOLAR
100
AcDbPolyline
 90
        2
 70
     1
 43
0.5
 10
381103.8912908786
 20
225763.1472336476
 42
1.0
 10
381103.3912908786
 20
225763.1472336476
 42
1.0
  0
LWPOLYLINE
  5
2BE
330
1F
100
AcDbEntity
  8
AS-ABST MAG STRONG DIPOLAR
100
AcDbPolyline
 90
        2
 70
     1
 43
0.5
 10
381098.1338998247
 20
225758.4133787811
 42
1.0
 10
381097.6338998247
 20
225758.4133787811
 42
1.0
  0
LWPOLYLINE
  5
2BF
330
1F
100
AcDbEntity
  8
AS-ABST MAG STRONG DIPOLAR
100
AcDbPolyline
 90
        2
 70
     1
 43
0.5
 10
381102.9956967147
 20
225755.8545383126
 42
1.0
 10
381102.4956967147
 20
225755.8545383126
 42
1.0
  0
LWPOLYLINE
  5
2C0
330
1F
100
AcDbEntity
  8
AS-ABST MAG STRONG DIPOLAR
100
AcDbPolyline
 90
        2
 70
     1
 43
0.5
 10
381100.1809721994
 20
225751.8883355866
 42
1.0
 10
381099.6809721994
 20
225751.8883355866
 42
1.0
  0
LWPOLYLINE
  5
2C1
330
1F
100
AcDbEntity
  8
AS-ABST MAG STRONG DIPOLAR
100
AcDbPolyline
 90
        2
 70
     1
 43
0.5
 10
381100.053030176
 20
225748.945669048
 42
1.0
 10
381099.553030176
 20
225748.945669048
 42
1.0
  0
LWPOLYLINE
  5
2C2
330
1F
100
AcDbEntity
  8
AS-ABST MAG STRONG DIPOLAR
100
AcDbPolyline
 90
        2
 70
     1
 43
0.5
 10
381094.9353492392
 20
225754.447176055
 42
1.0
 10
381094.4353492392
 20
225754.447176055
 42
1.0
  0
LWPOLYLINE
  5
2C3
330
1F
100
AcDbEntity
  8
AS-ABST MAG STRONG DIPOLAR
100
AcDbPolyline
 90
        2
 70
     1
 43
0.5
 10
381094.4235811455
 20
225786.8165079804
 42
1.0
 10
381093.9235811455
 20
225786.8165079804
 42
1.0
  0
LWPOLYLINE
  5
2C4
330
1F
100
AcDbEntity
  8
AS-ABST MAG STRONG DIPOLAR
100
AcDbPolyline
 90
        2
 70
     1
 43
0.5
 10
381094.8074072158
 20
225792.4459570109
 42
1.0
 10
381094.3074072158
 20
225792.4459570109
 42
1.0
  0
LWPOLYLINE
  5
2C5
330
1F
100
AcDbEntity
  8
AS-ABST MAG STRONG DIPOLAR
100
AcDbPolyline
 90
        2
 70
     1
 43
0.5
 10
381094.2956391221
 20
225797.4356959243
 42
1.0
 10
381093.7956391221
 20
225797.4356959243
 42
1.0
  0
LWPOLYLINE
  5
2C6
330
1F
100
AcDbEntity
  8
AS-ABST MAG STRONG DIPOLAR
100
AcDbPolyline
 90
        2
 70
     1
 43
0.5
 10
381096.8544795905
 20
225800.3783624629
 42
1.0
 10
381096.3544795905
 20
225800.3783624629
 42
1.0
  0
LWPOLYLINE
  5
2C7
330
1F
100
AcDbEntity
  8
AS-ABST MAG STRONG DIPOLAR
100
AcDbPolyline
 90
        2
 70
     1
 43
0.5
 10
381093.2721029347
 20
225802.8092609079
 42
1.0
 10
381092.7721029347
 20
225802.8092609079
 42
1.0
  0
LWPOLYLINE
  5
2C8
330
1F
100
AcDbEntity
  8
AS-ABST MAG STRONG DIPOLAR
100
AcDbPolyline
 90
        2
 70
     1
 43
0.5
 10
381104.9148270659
 20
225802.2974928143
 42
1.0
 10
381104.4148270659
 20
225802.2974928143
 42
1.0
  0
LWPOLYLINE
  5
2C9
330
1F
100
AcDbEntity
  8
AS-ABST MAG STRONG DIPOLAR
100
AcDbPolyline
 90
        2
 70
     1
 43
0.5
 10
381097.622131731
 20
225806.5195795871
 42
1.0
 10
381097.122131731
 20
225806.5195795871
 42
1.0
  0
LWPOLYLINE
  5
2CA
330
1F
100
AcDbEntity
  8
AS-ABST MAG STRONG DIPOLAR
100
AcDbPolyline
 90
        2
 70
     1
 43
0.5
 10
381100.1809721994
 20
225809.7181301726
 42
1.0
 10
381099.6809721994
 20
225809.7181301726
 42
1.0
  0
LWPOLYLINE
  5
2CB
330
1F
100
AcDbEntity
  8
AS-ABST MAG STRONG DIPOLAR
100
AcDbPolyline
 90
        2
 70
     1
 43
0.5
 10
381090.7132624663
 20
225812.0210865942
 42
1.0
 10
381090.2132624663
 20
225812.0210865942
 42
1.0
  0
LWPOLYLINE
  5
2CC
330
1F
100
AcDbEntity
  8
AS-ABST MAG STRONG DIPOLAR
100
AcDbPolyline
 90
        2
 70
     1
 43
0.5
 10
381079.5823064288
 20
225752.7839297506
 42
1.0
 10
381079.0823064288
 20
225752.7839297506
 42
1.0
  0
LWPOLYLINE
  5
2CD
330
1F
100
AcDbEntity
  8
AS-ABST MAG STRONG DIPOLAR
100
AcDbPolyline
 90
        2
 70
     1
 43
0.5
 10
381080.3499585693
 20
225755.2148281955
 42
1.0
 10
381079.8499585693
 20
225755.2148281955
 42
1.0
  0
LWPOLYLINE
  5
2CE
330
1F
100
AcDbEntity
  8
AS-ABST MAG STRONG DIPOLAR
100
AcDbPolyline
 90
        2
 70
     1
 43
0.5
 10
381079.8381904756
 20
225760.9722192495
 42
1.0
 10
381079.3381904756
 20
225760.9722192495
 42
1.0
  0
LWPOLYLINE
  5
2CF
330
1F
100
AcDbEntity
  8
AS-ABST MAG STRONG DIPOLAR
100
AcDbPolyline
 90
        2
 70
     1
 43
0.5
 10
381066.0204519462
 20
225766.2178422097
 42
1.0
 10
381065.5204519462
 20
225766.2178422097
 42
1.0
  0
LWPOLYLINE
  5
2D0
330
1F
100
AcDbEntity
  8
AS-ABST MAG STRONG DIPOLAR
100
AcDbPolyline
 90
        2
 70
     1
 43
0.5
 10
381052.9703655573
 20
225771.0796390997
 42
1.0
 10
381052.4703655573
 20
225771.0796390997
 42
1.0
  0
LWPOLYLINE
  5
2D1
330
1F
100
AcDbEntity
  8
AS-ABST MAG STRONG DIPOLAR
100
AcDbPolyline
 90
        2
 70
     1
 43
0.5
 10
381051.9468293699
 20
225759.1810309216
 42
1.0
 10
381051.4468293699
 20
225759.1810309216
 42
1.0
  0
LWPOLYLINE
  5
2D2
330
1F
100
AcDbEntity
  8
AS-ABST MAG STRONG DIPOLAR
100
AcDbPolyline
 90
        2
 70
     1
 43
0.5
 10
381049.515930925
 20
225753.4236398677
 42
1.0
 10
381049.015930925
 20
225753.4236398677
 42
1.0
  0
LWPOLYLINE
  5
2D3
330
1F
100
AcDbEntity
  8
AS-ABST MAG STRONG DIPOLAR
100
AcDbPolyline
 90
        2
 70
     1
 43
0.5
 10
381043.5026558242
 20
225755.342770219
 42
1.0
 10
381043.0026558242
 20
225755.342770219
 42
1.0
  0
LWPOLYLINE
  5
2D4
330
1F
100
AcDbEntity
  8
AS-ABST MAG STRONG DIPOLAR
100
AcDbPolyline
 90
        2
 70
     1
 43
0.5
 10
381040.8158733324
 20
225754.447176055
 42
1.0
 10
381040.3158733324
 20
225754.447176055
 42
1.0
  0
LWPOLYLINE
  5
2D5
330
1F
100
AcDbEntity
  8
AS-ABST MAG STRONG DIPOLAR
100
AcDbPolyline
 90
        2
 70
     1
 43
0.5
 10
381040.0482211919
 20
225744.5956402517
 42
1.0
 10
381039.5482211919
 20
225744.5956402517
 42
1.0
  0
LWPOLYLINE
  5
2D6
330
1F
100
AcDbEntity
  8
AS-ABST MAG STRONG DIPOLAR
100
AcDbPolyline
 90
        2
 70
     1
 43
0.5
 10
381032.4996418101
 20
225748.8177270246
 42
1.0
 10
381031.9996418101
 20
225748.8177270246
 42
1.0
  0
LWPOLYLINE
  5
2D7
330
1F
100
AcDbEntity
  8
AS-ABST MAG STRONG DIPOLAR
100
AcDbPolyline
 90
        2
 70
     1
 43
0.5
 10
381037.8732067937
 20
225750.8647993993
 42
1.0
 10
381037.3732067937
 20
225750.8647993993
 42
1.0
  0
LWPOLYLINE
  5
2D8
330
1F
100
AcDbEntity
  8
AS-ABST MAG STRONG DIPOLAR
100
AcDbPolyline
 90
        2
 70
     1
 43
0.5
 10
381029.5569752714
 20
225746.8985966732
 42
1.0
 10
381029.0569752714
 20
225746.8985966732
 42
1.0
  0
LWPOLYLINE
  5
2D9
330
1F
100
AcDbEntity
  8
AS-ABST MAG STRONG DIPOLAR
100
AcDbPolyline
 90
        2
 70
     1
 43
0.5
 10
381024.1834102877
 20
225745.2353503688
 42
1.0
 10
381023.6834102877
 20
225745.2353503688
 42
1.0
  0
LWPOLYLINE
  5
2DA
330
1F
100
AcDbEntity
  8
AS-ABST MAG STRONG DIPOLAR
100
AcDbPolyline
 90
        2
 70
     1
 43
0.5
 10
381023.7995842175
 20
225737.1750028933
 42
1.0
 10
381023.2995842175
 20
225737.1750028933
 42
1.0
  0
LWPOLYLINE
  5
2DB
330
1F
100
AcDbEntity
  8
AS-ABST MAG STRONG DIPOLAR
100
AcDbPolyline
 90
        2
 70
     1
 43
0.5
 10
381026.1025406391
 20
225753.6795239145
 42
1.0
 10
381025.6025406391
 20
225753.6795239145
 42
1.0
  0
LWPOLYLINE
  5
2DC
330
1F
100
AcDbEntity
  8
AS-ABST MAG STRONG DIPOLAR
100
AcDbPolyline
 90
        2
 70
     1
 43
0.5
 10
381027.7657869435
 20
225755.2148281955
 42
1.0
 10
381027.2657869435
 20
225755.2148281955
 42
1.0
  0
LWPOLYLINE
  5
2DD
330
1F
100
AcDbEntity
  8
AS-ABST MAG STRONG DIPOLAR
100
AcDbPolyline
 90
        2
 70
     1
 43
0.5
 10
381019.5774974446
 20
225773.8943636149
 42
1.0
 10
381019.0774974446
 20
225773.8943636149
 42
1.0
  0
LWPOLYLINE
  5
2DE
330
1F
100
AcDbEntity
  8
AS-ABST MAG STRONG DIPOLAR
100
AcDbPolyline
 90
        2
 70
     1
 43
0.5
 10
381016.2510048356
 20
225775.6855519428
 42
1.0
 10
381015.7510048356
 20
225775.6855519428
 42
1.0
  0
LWPOLYLINE
  5
2DF
330
1F
100
AcDbEntity
  8
AS-ABST MAG STRONG DIPOLAR
100
AcDbPolyline
 90
        2
 70
     1
 43
0.5
 10
381015.3554106717
 20
225776.8370301536
 42
1.0
 10
381014.8554106717
 20
225776.8370301536
 42
1.0
  0
LWPOLYLINE
  5
2E0
330
1F
100
AcDbEntity
  8
AS-ABST MAG STRONG DIPOLAR
100
AcDbPolyline
 90
        2
 70
     1
 43
0.5
 10
381029.6849172948
 20
225775.6855519428
 42
1.0
 10
381029.1849172948
 20
225775.6855519428
 42
1.0
  0
LWPOLYLINE
  5
2E1
330
1F
100
AcDbEntity
  8
AS-ABST MAG STRONG DIPOLAR
100
AcDbPolyline
 90
        2
 70
     1
 43
0.5
 10
381031.3481635993
 20
225779.1399865751
 42
1.0
 10
381030.8481635993
 20
225779.1399865751
 42
1.0
  0
LWPOLYLINE
  5
2E2
330
1F
100
AcDbEntity
  8
AS-ABST MAG STRONG DIPOLAR
100
AcDbPolyline
 90
        2
 70
     1
 43
0.5
 10
381034.5467141848
 20
225783.1061893012
 42
1.0
 10
381034.0467141848
 20
225783.1061893012
 42
1.0
  0
LWPOLYLINE
  5
2E3
330
1F
100
AcDbEntity
  8
AS-ABST MAG STRONG DIPOLAR
100
AcDbPolyline
 90
        2
 70
     1
 43
0.5
 10
381044.5261920115
 20
225770.1840449357
 42
1.0
 10
381044.0261920115
 20
225770.1840449357
 42
1.0
  0
LWPOLYLINE
  5
2E4
330
1F
100
AcDbEntity
  8
AS-ABST MAG STRONG DIPOLAR
100
AcDbPolyline
 90
        2
 70
     1
 43
0.5
 10
381061.414539103
 20
225758.1574947342
 42
1.0
 10
381060.914539103
 20
225758.1574947342
 42
1.0
  0
LWPOLYLINE
  5
2E5
330
1F
100
AcDbEntity
  8
AS-ABST MAG STRONG DIPOLAR
100
AcDbPolyline
 90
        2
 70
     1
 43
0.5
 10
381059.3674667283
 20
225764.0428278116
 42
1.0
 10
381058.8674667283
 20
225764.0428278116
 42
1.0
  0
LWPOLYLINE
  5
2E6
330
1F
100
AcDbEntity
  8
AS-ABST MAG STRONG DIPOLAR
100
AcDbPolyline
 90
        2
 70
     1
 43
0.5
 10
381070.1145966956
 20
225775.0458418257
 42
1.0
 10
381069.6145966956
 20
225775.0458418257
 42
1.0
  0
LWPOLYLINE
  5
2E7
330
1F
100
AcDbEntity
  8
AS-ABST MAG STRONG DIPOLAR
100
AcDbPolyline
 90
        2
 70
     1
 43
0.5
 10
381111.8236963307
 20
225776.964972177
 42
1.0
 10
381111.3236963307
 20
225776.964972177
 42
1.0
  0
LWPOLYLINE
  5
2E8
330
1F
100
AcDbEntity
  8
AS-ABST MAG STRONG DIPOLAR
100
AcDbPolyline
 90
        2
 70
     1
 43
0.5
 10
381104.6589430191
 20
225773.3825955213
 42
1.0
 10
381104.1589430191
 20
225773.3825955213
 42
1.0
  0
LWPOLYLINE
  5
2E9
330
1F
100
AcDbEntity
  8
AS-ABST MAG POS LINEAR UNCERTAIN
100
AcDbPolyline
 90
        4
 70
     0
 43
0.0
 10
381087.6085560688
 20
225749.273520483
 10
381086.888882187
 20
225752.7119623624
 10
381086.2491720699
 20
225755.7505854186
 10
381084.4100054833
 20
225759.8287374152
  0
HATCH
  5
2EA
330
1F
100
AcDbEntity
  8
AS-ABST MAG POS DISCRETE UNCERTAIN
100
AcDbHatch
 10
0.0
 20
0.0
 30
0.0
210
0.0
220
0.0
230
1.0
  2
SOLID
 70
     1
 71
     0
 91
        1
 92
        1
 93
       15
 72
     1
 10
381094.506707869
 20
225776.7756486006
 11
381094.4755662119
 21
225776.9936402004
 72
     1
 10
381094.4755662119
 20
225776.9936402004
 11
381094.5689911832
 21
225777.6787566567
 72
     1
 10
381094.5689911832
 20
225777.6787566567
 11
381094.9115494114
 21
225778.1458815134
 72
     1
 10
381094.9115494114
 20
225778.1458815134
 11
381095.0983993541
 21
225778.1458815134
 72
     1
 10
381095.0983993541
 20
225778.1458815134
 11
381095.2541076396
 21
225778.0524565421
 72
     1
 10
381095.2541076396
 20
225778.0524565421
 11
381095.3475326109
 21
225777.8656065994
 72
     1
 10
381095.3475326109
 20
225777.8656065994
 11
381095.2541076396
 21
225777.5230483712
 72
     1
 10
381095.2541076396
 20
225777.5230483712
 11
381095.2541076396
 21
225777.460765057
 72
     1
 10
381095.2541076396
 20
225777.460765057
 11
381095.4409575823
 21
225777.4296233999
 72
     1
 10
381095.4409575823
 20
225777.4296233999
 11
381095.4720992394
 21
225777.2116318001
 72
     1
 10
381095.4720992394
 20
225777.2116318001
 11
381095.4720992394
 21
225777.0870651717
 72
     1
 10
381095.4720992394
 20
225777.0870651717
 11
381095.1295410112
 21
225776.9936402004
 72
     1
 10
381095.1295410112
 20
225776.9936402004
 11
381094.6624161545
 21
225776.6510819721
 72
     1
 10
381094.6624161545
 20
225776.6510819721
 11
381094.5378495261
 21
225776.6822236293
 72
     1
 10
381094.5378495261
 20
225776.6822236293
 11
381094.506707869
 21
225776.7756486006
 97
        0
 75
     0
 76
     1
 98
        1
 10
0.0
 20
0.0
1001
ACAD
1010
0.0
1020
0.0
1030
0.0
  0
HATCH
  5
2EB
330
1F
100
AcDbEntity
  8
AS-ABST MAG POS DISCRETE UNCERTAIN
100
AcDbHatch
 10
0.0
 20
0.0
 30
0.0
210
0.0
220
0.0
230
1.0
  2
SOLID
 70
     1
 71
     0
 91
        1
 92
        1
 93
       23
 72
     1
 10
381092.2956502142
 20
225772.6338082051
 11
381091.7039587292
 21
225772.8517998048
 72
     1
 10
381091.7039587292
 20
225772.8517998048
 11
381091.4236838152
 21
225773.2254996902
 72
     1
 10
381091.4236838152
 20
225773.2254996902
 11
381091.4236838152
 21
225773.5369162612
 72
     1
 10
381091.4236838152
 20
225773.5369162612
 11
381091.8285253576
 21
225774.0040411179
 72
     1
 10
381091.8285253576
 20
225774.0040411179
 11
381092.0153753003
 21
225774.4088826603
 72
     1
 10
381092.0153753003
 20
225774.4088826603
 11
381092.0776586145
 21
225774.907149174
 72
     1
 10
381092.0776586145
 20
225774.907149174
 11
381092.1399419287
 21
225775.467699002
 72
     1
 10
381092.1399419287
 20
225775.467699002
 11
381092.1399419287
 21
225775.747973916
 72
     1
 10
381092.1399419287
 20
225775.747973916
 11
381092.3579335285
 21
225776.0905321442
 72
     1
 10
381092.3579335285
 20
225776.0905321442
 11
381093.0430499848
 21
225776.0905321442
 72
     1
 10
381093.0430499848
 20
225776.0905321442
 11
381093.9150163839
 21
225776.0905321442
 72
     1
 10
381093.9150163839
 20
225776.0905321442
 11
381094.1952912979
 21
225776.02824883
 72
     1
 10
381094.1952912979
 20
225776.02824883
 11
381094.3821412406
 21
225775.9348238586
 72
     1
 10
381094.3821412406
 20
225775.9348238586
 11
381094.4444245548
 21
225775.6234072876
 72
     1
 10
381094.4444245548
 20
225775.6234072876
 11
381094.3509995834
 21
225775.2497074022
 72
     1
 10
381094.3509995834
 20
225775.2497074022
 11
381094.1330079837
 21
225775.0317158025
 72
     1
 10
381094.1330079837
 20
225775.0317158025
 11
381093.9772996982
 21
225774.4088826603
 72
     1
 10
381093.9772996982
 20
225774.4088826603
 11
381093.9772996982
 21
225774.035182775
 72
     1
 10
381093.9772996982
 20
225774.035182775
 11
381093.7904497555
 21
225773.2254996902
 72
     1
 10
381093.7904497555
 20
225773.2254996902
 11
381093.3856082131
 21
225772.9452247762
 72
     1
 10
381093.3856082131
 20
225772.9452247762
 11
381092.793916728
 21
225772.6960915193
 72
     1
 10
381092.793916728
 20
225772.6960915193
 11
381092.5759251282
 21
225772.6338082051
 72
     1
 10
381092.5759251282
 20
225772.6338082051
 11
381092.2956502142
 21
225772.6338082051
 97
        0
 75
     0
 76
     1
 98
        0
  0
HATCH
  5
2EC
330
1F
100
AcDbEntity
  8
AS-ABST MAG POS DISCRETE UNCERTAIN
100
AcDbHatch
 10
0.0
 20
0.0
 30
0.0
210
0.0
220
0.0
230
1.0
  2
SOLID
 70
     1
 71
     0
 91
        1
 92
        1
 93
       19
 72
     1
 10
381097.3095788499
 20
225770.8265895759
 11
381097.9013515624
 21
225770.3594005923
 72
     1
 10
381097.9013515624
 20
225770.3594005923
 11
381098.3996864781
 21
225770.2036709312
 72
     1
 10
381098.3996864781
 20
225770.2036709312
 11
381099.2717725807
 21
225769.8922116088
 72
     1
 10
381099.2717725807
 20
225769.8922116088
 11
381099.9881290221
 21
225769.8299197443
 72
     1
 10
381099.9881290221
 20
225769.8299197443
 11
381100.6733395312
 21
225769.7364819476
 72
     1
 10
381100.6733395312
 20
225769.7364819476
 11
381101.3585500404
 21
225769.6430441509
 72
     1
 10
381101.3585500404
 20
225769.6430441509
 11
381101.7323012272
 21
225769.6118982187
 72
     1
 10
381101.7323012272
 20
225769.6118982187
 11
381101.8880308884
 21
225769.8610656766
 72
     1
 10
381101.8880308884
 20
225769.8610656766
 11
381101.6700093627
 21
225770.2659627956
 72
     1
 10
381101.6700093627
 20
225770.2659627956
 11
381100.9847988536
 21
225770.6085680502
 72
     1
 10
381100.9847988536
 20
225770.6085680502
 11
381100.2995883445
 21
225770.8265895759
 72
     1
 10
381100.2995883445
 20
225770.8265895759
 11
381099.832399361
 21
225771.2003407626
 72
     1
 10
381099.832399361
 20
225771.2003407626
 11
381099.178334784
 21
225771.6052378817
 72
     1
 10
381099.178334784
 20
225771.6052378817
 11
381098.6799998683
 21
225771.6052378817
 72
     1
 10
381098.6799998683
 20
225771.6052378817
 11
381097.8702056301
 21
225771.5429460172
 72
     1
 10
381097.8702056301
 20
225771.5429460172
 11
381097.3095788499
 21
225771.5429460172
 72
     1
 10
381097.3095788499
 20
225771.5429460172
 11
381097.1538491888
 21
225771.4806541528
 72
     1
 10
381097.1538491888
 20
225771.4806541528
 11
381097.1538491888
 21
225771.2626326271
 72
     1
 10
381097.1538491888
 20
225771.2626326271
 11
381097.3095788499
 21
225770.8265895759
 97
        0
 75
     0
 76
     1
 98
        0
  0
HATCH
  5
2ED
330
1F
100
AcDbEntity
  8
AS-ABST MAG POS DISCRETE UNCERTAIN
100
AcDbHatch
 10
0.0
 20
0.0
 30
0.0
210
0.0
220
0.0
230
1.0
  2
SOLID
 70
     1
 71
     0
 91
        1
 92
        1
 93
       20
 72
     1
 10
381089.336220198
 20
225766.4038671986
 11
381089.6476795203
 21
225766.9644939788
 72
     1
 10
381089.6476795203
 20
225766.9644939788
 11
381090.1771603682
 21
225767.6185585557
 72
     1
 10
381090.1771603682
 20
225767.6185585557
 11
381090.9558086741
 21
225768.1480394037
 72
     1
 10
381090.9558086741
 20
225768.1480394037
 11
381091.3022306546
 21
225768.5181638513
 72
     1
 10
381091.3022306546
 20
225768.5181638513
 11
381091.7033110477
 21
225768.8332499129
 72
     1
 10
381091.7033110477
 20
225768.8332499129
 11
381091.7033110477
 21
225769.2381470319
 72
     1
 10
381091.7033110477
 20
225769.2381470319
 11
381091.5475813866
 21
225769.518460422
 72
     1
 10
381091.5475813866
 20
225769.518460422
 11
381091.0803924031
 21
225769.6741900832
 72
     1
 10
381091.0803924031
 20
225769.6741900832
 11
381090.6212332302
 21
225769.6379342714
 72
     1
 10
381090.6212332302
 20
225769.6379342714
 11
381090.450467156
 21
225769.3577592998
 72
     1
 10
381090.450467156
 20
225769.3577592998
 11
381089.9520823424
 21
225769.2364437387
 72
     1
 10
381089.9520823424
 20
225769.2364437387
 11
381089.4532607714
 21
225768.9201178645
 72
     1
 10
381089.4532607714
 20
225768.9201178645
 11
381089.306670458
 21
225768.4694916514
 72
     1
 10
381089.306670458
 20
225768.4694916514
 11
381089.4526870577
 21
225767.8489211024
 72
     1
 10
381089.4526870577
 20
225767.8489211024
 11
381089.4405190077
 21
225767.483879603
 72
     1
 10
381089.4405190077
 20
225767.483879603
 11
381089.2427824012
 21
225767.0267858432
 72
     1
 10
381089.2427824012
 20
225767.0267858432
 11
381089.08705274
 21
225766.6841805887
 72
     1
 10
381089.08705274
 20
225766.6841805887
 11
381089.08705274
 21
225766.5284509275
 72
     1
 10
381089.08705274
 20
225766.5284509275
 11
381089.1493446045
 21
225766.466159063
 72
     1
 10
381089.1493446045
 20
225766.466159063
 11
381089.336220198
 21
225766.4038671986
 97
        0
 75
     0
 76
     1
 98
        0
  0
HATCH
  5
2EE
330
1F
100
AcDbEntity
  8
AS-ABST MAG POS DISCRETE UNCERTAIN
100
AcDbHatch
 10
0.0
 20
0.0
 30
0.0
210
0.0
220
0.0
230
1.0
  2
SOLID
 70
     1
 71
     0
 91
        1
 92
        1
 93
        8
 72
     1
 10
381068.1849258217
 20
225828.1071863123
 11
381068.5039477404
 21
225829.861806865
 72
     1
 10
381068.5039477404
 20
225829.861806865
 11
381069.1419915778
 21
225829.5427849463
 72
     1
 10
381069.1419915778
 20
225829.5427849463
 11
381070.5775902118
 21
225828.5857191903
 72
     1
 10
381070.5775902118
 20
225828.5857191903
 11
381070.0193018541
 21
225828.0274308326
 72
     1
 10
381070.0193018541
 20
225828.0274308326
 11
381069.1419915778
 21
225827.2298760359
 72
     1
 10
381069.1419915778
 20
225827.2298760359
 11
381068.5039477404
 21
225827.0703650766
 72
     1
 10
381068.5039477404
 20
225827.0703650766
 11
381068.3444367811
 21
225827.6286534343
 72
     1
 10
381068.3444367811
 20
225827.6286534343
 11
381068.1849258217
 21
225828.1071863123
 97
        0
 75
     0
 76
     1
 98
        0
  0
HATCH
  5
2EF
330
1F
100
AcDbEntity
  8
AS-ABST MAG POS DISCRETE UNCERTAIN
100
AcDbHatch
 10
0.0
 20
0.0
 30
0.0
210
0.0
220
0.0
230
1.0
  2
SOLID
 70
     1
 71
     0
 91
        1
 92
        1
 93
       10
 72
     1
 10
381094.5375908811
 20
225772.2904483908
 11
381095.0359257968
 21
225771.8232594073
 72
     1
 10
381095.0359257968
 20
225771.8232594073
 11
381095.7834281705
 21
225771.511800085
 72
     1
 10
381095.7834281705
 20
225771.511800085
 11
381095.8457200349
 21
225771.6675297462
 72
     1
 10
381095.8457200349
 20
225771.6675297462
 11
381095.8457200349
 21
225771.8855512718
 72
     1
 10
381095.8457200349
 20
225771.8855512718
 11
381095.6588444415
 21
225772.2904483908
 72
     1
 10
381095.6588444415
 20
225772.2904483908
 11
381095.2228013902
 21
225772.7264914422
 72
     1
 10
381095.2228013902
 20
225772.7264914422
 11
381094.786758339
 21
225772.9133670355
 72
     1
 10
381094.786758339
 20
225772.9133670355
 11
381094.6310286778
 21
225772.8199292388
 72
     1
 10
381094.6310286778
 20
225772.8199292388
 11
381094.5998827455
 21
225772.8199292388
 72
     1
 10
381094.5998827455
 20
225772.8199292388
 11
381094.5375908811
 21
225772.2904483908
 97
        0
 75
     0
 76
     1
 98
        0
  0
HATCH
  5
2F0
102
{ACAD_XDICTIONARY
360
2F1
102
}
330
1F
100
AcDbEntity
  8
AS-ABST MAG DISTURBANCE
100
AcDbHatch
 10
0.0
 20
0.0
 30
0.0
210
0.0
220
0.0
230
1.0
  2
ANSI31
 70
     0
 71
     0
 91
        1
 92
        1
 93
       38
 72
     1
 10
381046.779613636
 20
225848.0517502355
 11
381051.6354078017
 21
225843.1959560699
 72
     1
 10
381051.6354078017
 20
225843.1959560699
 11
381059.813587449
 21
225836.9345372774
 72
     1
 10
381059.813587449
 20
225836.9345372774
 11
381070.4196641792
 21
225830.0341981999
 72
     1
 10
381070.4196641792
 20
225830.0341981999
 11
381082.1830862021
 21
225823.0039086051
 72
     1
 10
381082.1830862021
 20
225823.0039086051
 11
381092.1516109381
 21
225814.9524078567
 72
     1
 10
381092.1516109381
 20
225814.9524078567
 11
381103.0147468685
 21
225806.9009071084
 72
     1
 10
381103.0147468685
 20
225806.9009071084
 11
381108.382414034
 21
225801.4054383436
 72
     1
 10
381108.382414034
 20
225801.4054383436
 11
381108.7658188315
 21
225798.5938031617
 72
     1
 10
381108.7658188315
 20
225798.5938031617
 11
381110.55504122
 21
225797.9547951658
 72
     1
 10
381110.55504122
 20
225797.9547951658
 11
381111.7103726689
 21
225798.2626921826
 72
     1
 10
381111.7103726689
 20
225798.2626921826
 11
381112.1471945411
 21
225799.2923437385
 72
     1
 10
381112.1471945411
 20
225799.2923437385
 11
381112.1783961033
 21
225799.9475765468
 72
     1
 10
381112.1783961033
 20
225799.9475765468
 11
381111.3983570458
 21
225800.5404062305
 72
     1
 10
381111.3983570458
 20
225800.5404062305
 11
381112.0535898542
 21
225801.2268406011
 72
     1
 10
381112.0535898542
 20
225801.2268406011
 11
381112.6152179755
 21
225802.0068796586
 72
     1
 10
381112.6152179755
 20
225802.0068796586
 11
381112.6464195378
 21
225802.6309109046
 72
     1
 10
381112.6464195378
 20
225802.6309109046
 11
381108.9646351865
 21
225805.3142452624
 72
     1
 10
381108.9646351865
 20
225805.3142452624
 11
381103.6291680332
 21
225809.1520374252
 72
     1
 10
381103.6291680332
 20
225809.1520374252
 11
381102.4747102281
 21
225809.8072702335
 72
     1
 10
381102.4747102281
 20
225809.8072702335
 11
381098.9801352505
 21
225812.3033952175
 72
     1
 10
381098.9801352505
 20
225812.3033952175
 11
381095.1104112142
 21
225815.3315765748
 72
     1
 10
381095.1104112142
 20
225815.3315765748
 11
381092.8947961732
 21
225816.8606630116
 72
     1
 10
381092.8947961732
 20
225816.8606630116
 11
381091.6777681929
 21
225817.890455918
 72
     1
 10
381091.6777681929
 20
225817.890455918
 11
381089.3997414605
 21
225819.3571306635
 72
     1
 10
381089.3997414605
 20
225819.3571306635
 11
381088.0890959433
 21
225820.1684826504
 72
     1
 10
381088.0890959433
 20
225820.1684826504
 11
381085.5302166
 21
225822.2280684632
 72
     1
 10
381085.5302166
 20
225822.2280684632
 11
381082.1911911156
 21
225824.4748893499
 72
     1
 10
381082.1911911156
 20
225824.4748893499
 11
381078.5401071748
 21
225826.8153277736
 72
     1
 10
381078.5401071748
 20
225826.8153277736
 11
381075.325905073
 21
225828.8437077408
 72
     1
 10
381075.325905073
 20
225828.8437077408
 11
381070.6762340713
 21
225832.6508209099
 72
     1
 10
381070.6762340713
 20
225832.6508209099
 11
381065.7769163044
 21
225835.8962288574
 72
     1
 10
381065.7769163044
 20
225835.8962288574
 11
381063.4676837263
 21
225837.4565211399
 72
     1
 10
381063.4676837263
 20
225837.4565211399
 11
381060.8151868461
 21
225839.5161069527
 72
     1
 10
381060.8151868461
 20
225839.5161069527
 11
381055.8222515424
 21
225843.0111616654
 72
     1
 10
381055.8222515424
 20
225843.0111616654
 11
381054.3867826425
 21
225844.3530130283
 72
     1
 10
381054.3867826425
 20
225844.3530130283
 11
381050.7356987016
 21
225846.599833915
 72
     1
 10
381050.7356987016
 20
225846.599833915
 11
381047.3030556802
 21
225848.9714781843
 72
     1
 10
381047.3030556802
 20
225848.9714781843
 11
381046.779613636
 21
225848.0517502355
 97
        0
 75
     0
 76
     1
 52
0.0
 41
10.0
 77
     0
 78
     1
 53
45.0
 43
0.0
 44
0.0
 45
-0.8838834764831843
 46
0.8838834764831844
 79
     0
 98
        1
 10
0.0
 20
0.0
1001
ACAD
1010
0.0
1020
0.0
1030
0.0
1001
AcadAnnotative
1000
AnnotativeData
1002
{
1070
     1
1070
     0
1002
}
  0
HATCH
  5
2F5
330
1F
100
AcDbEntity
  8
AS-ABST MAG DISTURBANCE
100
AcDbHatch
 10
0.0
 20
0.0
 30
0.0
210
0.0
220
0.0
230
1.0
  2
ANSI31
 70
     0
 71
     0
 91
        1
 92
        1
 93
       19
 72
     1
 10
380958.1568414352
 20
225826.9418763887
 11
380956.0794952099
 21
225822.3077963477
 72
     1
 10
380956.0794952099
 20
225822.3077963477
 11
380955.9196993464
 21
225815.5164721498
 72
     1
 10
380955.9196993464
 20
225815.5164721498
 11
380955.9196993464
 21
225810.6426983137
 72
     1
 10
380955.9196993464
 20
225810.6426983137
 11
380957.4377600495
 21
225806.0885162045
 72
     1
 10
380957.4377600495
 20
225806.0885162045
 11
380957.1181683225
 21
225800.6554568462
 72
     1
 10
380957.1181683225
 20
225800.6554568462
 11
380956.2392910734
 21
225794.4234181704
 72
     1
 10
380956.2392910734
 20
225794.4234181704
 11
380955.2805158925
 21
225795.1424995561
 72
     1
 10
380955.2805158925
 20
225795.1424995561
 11
380954.9609241656
 21
225796.0213768052
 72
     1
 10
380954.9609241656
 20
225796.0213768052
 11
380954.8011283021
 21
225803.4518844571
 72
     1
 10
380954.8011283021
 20
225803.4518844571
 11
380955.0408220973
 21
225807.6864748393
 72
     1
 10
380955.0408220973
 20
225807.6864748393
 11
380953.1232717356
 21
225810.5628003819
 72
     1
 10
380953.1232717356
 20
225810.5628003819
 11
380951.9248027594
 21
225812.7999424707
 72
     1
 10
380951.9248027594
 20
225812.7999424707
 11
380952.3242924181
 21
225815.9958597403
 72
     1
 10
380952.3242924181
 20
225815.9958597403
 11
380952.9634758721
 21
225820.6299397812
 72
     1
 10
380952.9634758721
 20
225820.6299397812
 11
380953.9222510529
 21
225826.54238673
 72
     1
 10
380953.9222510529
 20
225826.54238673
 11
380955.9196993464
 21
225828.8594267504
 72
     1
 10
380955.9196993464
 20
225828.8594267504
 11
380956.6387807321
 21
225828.8594267504
 72
     1
 10
380956.6387807321
 20
225828.8594267504
 11
380957.277964186
 21
225828.6197329552
 72
     1
 10
380957.277964186
 20
225828.6197329552
 11
380958.1568414352
 21
225826.9418763887
 97
        0
 75
     0
 76
     1
 52
0.0
 41
10.0
 77
     0
 78
     1
 53
45.0
 43
0.0
 44
0.0
 45
-0.8838834764831843
 46
0.8838834764831844
 79
     0
 98
        1
 10
0.0
 20
0.0
1001
ACAD
1010
0.0
1020
0.0
1030
0.0
  0
HATCH
  5
2F6
330
1F
100
AcDbEntity
  8
AS-ABST MAG DISTURBANCE
100
AcDbHatch
 10
0.0
 20
0.0
 30
0.0
210
0.0
220
0.0
230
1.0
  2
ANSI31
 70
     0
 71
     0
 91
        1
 92
        1
 93
       11
 72
     1
 10
381053.5271599186
 20
225749.3657899871
 11
381053.7829035026
 21
225752.8183283717
 72
     1
 10
381053.7829035026
 20
225752.8183283717
 11
381057.3633136793
 21
225755.5036360042
 72
     1
 10
381057.3633136793
 20
225755.5036360042
 11
381064.2683904486
 21
225752.8183283717
 72
     1
 10
381064.2683904486
 20
225752.8183283717
 11
381069.7668775056
 21
225751.7953540355
 72
     1
 10
381069.7668775056
 20
225751.7953540355
 11
381078.2064157792
 21
225749.6215335711
 72
     1
 10
381078.2064157792
 20
225749.6215335711
 11
381091.2493385656
 21
225747.9592002748
 72
     1
 10
381091.2493385656
 20
225747.9592002748
 11
381092.5280564859
 21
225746.4247387705
 72
     1
 10
381092.5280564859
 20
225746.4247387705
 11
381076.0325953148
 21
225748.982174611
 72
     1
 10
381076.0325953148
 20
225748.982174611
 11
381056.4682111351
 21
225751.0281232834
 72
     1
 10
381056.4682111351
 20
225751.0281232834
 11
381054.8058778388
 21
225747.9592002748
 72
     1
 10
381054.8058778388
 20
225747.9592002748
 11
381053.5271599186
 21
225749.3657899871
 97
        0
 75
     0
 76
     1
 52
0.0
 41
10.0
 77
     0
 78
     1
 53
45.0
 43
0.0
 44
0.0
 45
-0.8838834764831843
 46
0.8838834764831844
 79
     0
 98
        0
  0
HATCH
  5
2F7
330
1F
100
AcDbEntity
  8
AS-ABST MAG DEBRIS
100
AcDbHatch
 10
0.0
 20
0.0
 30
0.0
210
0.0
220
0.0
230
1.0
  2
ANSI37
 70
     0
 71
     0
 91
        1
 92
        1
 93
       30
 72
     1
 10
381026.9203214283
 20
225857.6682075121
 11
381020.1742493197
 21
225862.7788682005
 72
     1
 10
381020.1742493197
 20
225862.7788682005
 11
381013.8370300661
 21
225867.6851024613
 72
     1
 10
381013.8370300661
 20
225867.6851024613
 11
381007.0909579576
 21
225871.5692045844
 72
     1
 10
381007.0909579576
 20
225871.5692045844
 11
381000.9581651316
 21
225874.2267481424
 72
     1
 10
381000.9581651316
 20
225874.2267481424
 11
380994.2120930229
 21
225876.4754388452
 72
     1
 10
380994.2120930229
 20
225876.4754388452
 11
380990.3279908998
 21
225878.7241295481
 72
     1
 10
380990.3279908998
 20
225878.7241295481
 11
380988.8970059071
 21
225883.6303638089
 72
     1
 10
380988.8970059071
 20
225883.6303638089
 11
380982.9686395086
 21
225887.1056130769
 72
     1
 10
380982.9686395086
 20
225887.1056130769
 11
380980.1066695232
 21
225890.580862345
 72
     1
 10
380980.1066695232
 20
225890.580862345
 11
380981.7420809434
 21
225893.0339794754
 72
     1
 10
380981.7420809434
 20
225893.0339794754
 11
380983.9029321657
 21
225893.578584255
 72
     1
 10
380983.9029321657
 20
225893.578584255
 11
380984.9410351181
 21
225893.4987301817
 72
     1
 10
380984.9410351181
 20
225893.4987301817
 11
380987.6560736087
 21
225891.9815027899
 72
     1
 10
380987.6560736087
 20
225891.9815027899
 11
380990.6905283924
 21
225889.9851509585
 72
     1
 10
380990.6905283924
 20
225889.9851509585
 11
380994.9227942749
 21
225886.9506961748
 72
     1
 10
380994.9227942749
 20
225886.9506961748
 11
380998.7557897912
 21
225884.3953658306
 72
     1
 10
380998.7557897912
 20
225884.3953658306
 11
381003.7865964063
 21
225881.1213488271
 72
     1
 10
381003.7865964063
 20
225881.1213488271
 11
381007.6195919225
 21
225878.0070399702
 72
     1
 10
381007.6195919225
 20
225878.0070399702
 11
381010.893608926
 21
225876.2502503586
 72
     1
 10
381010.893608926
 20
225876.2502503586
 11
381014.8863125888
 21
225872.8165252086
 72
     1
 10
381014.8863125888
 20
225872.8165252086
 11
381017.5214970062
 21
225871.1395896703
 72
     1
 10
381017.5214970062
 20
225871.1395896703
 11
381020.8753680829
 21
225868.3446971063
 72
     1
 10
381020.8753680829
 20
225868.3446971063
 11
381025.2673421119
 21
225865.3900963959
 72
     1
 10
381025.2673421119
 20
225865.3900963959
 11
381030.3018594871
 21
225861.2358703155
 72
     1
 10
381030.3018594871
 20
225861.2358703155
 11
381034.6145714105
 21
225858.1211339264
 72
     1
 10
381034.6145714105
 20
225858.1211339264
 11
381034.6944364462
 21
225856.0446430003
 72
     1
 10
381034.6944364462
 20
225856.0446430003
 11
381033.5763259475
 21
225854.9265325016
 72
     1
 10
381033.5763259475
 20
225854.9265325016
 11
381031.2602399146
 21
225854.846667466
 72
     1
 10
381031.2602399146
 20
225854.846667466
 11
381028.6246937391
 21
225856.6835632852
 72
     1
 10
381028.6246937391
 20
225856.6835632852
 11
381026.9203214283
 21
225857.6682075121
 97
        0
 75
     0
 76
     1
 52
0.0
 41
10.0
 77
     0
 78
     2
 53
45.0
 43
0.0
 44
0.0
 45
-0.8838834764831843
 46
0.8838834764831844
 79
     0
 53
135.0
 43
0.0
 44
0.0
 45
-0.8838834764831844
 46
-0.8838834764831843
 79
     0
 98
        1
 10
0.0
 20
0.0
1001
ACAD
1010
0.0
1020
0.0
1030
0.0
  0
TEXT
  5
2F8
330
1F
100
AcDbEntity
  8
AS-ANOMALY LABELS
100
AcDbText
 10
381095.2413908644
 20
225767.6211057366
 30
0.0
 40
3.0
  1
1
  7
Archaeological Surveys
100
AcDbText
  0
TEXT
  5
2FB
330
1F
100
AcDbEntity
  8
AS-ANOMALY LABELS
100
AcDbText
 10
381009.0532739707
 20
225778.4355842822
 30
0.0
 40
3.0
  1
2
  7
Archaeological Surveys
100
AcDbText
  0
TEXT
  5
2FC
330
1F
100
AcDbEntity
  8
AS-ANOMALY LABELS
100
AcDbText
 10
381033.6316343016
 20
225799.4091184312
 30
0.0
 40
3.0
  1
3
  7
Archaeological Surveys
100
AcDbText
  0
TEXT
  5
2FD
330
1F
100
AcDbEntity
  8
AS-ANOMALY LABELS
100
AcDbText
 10
380983.8194906977
 20
225882.6478320851
 30
0.0
 40
3.0
  1
5
  7
Archaeological Surveys
100
AcDbText
  0
TEXT
  5
2FE
330
1F
100
AcDbEntity
  8
AS-ANOMALY LABELS
100
AcDbText
 10
380977.9206842183
 20
225864.2959897048
 30
0.0
 40
3.0
  1
6
  7
Archaeological Surveys
100
AcDbText
  0
TEXT
  5
2FF
330
1F
100
AcDbEntity
  8
AS-ANOMALY LABELS
100
AcDbText
 10
381054.7088155658
 20
225822.9617247712
 30
0.0
 40
3.0
  1
4
  7
Archaeological Surveys
100
AcDbText
  0
LWPOLYLINE
  5
300
330
1F
100
AcDbEntity
  8
AS-ABST MAG STRONG DIPOLAR
100
AcDbPolyline
 90
        2
 70
     1
 43
0.25
 10
381100.3878421954
 20
225773.8192585879
 42
1.0
 10
381100.1378421954
 20
225773.8192585879
 42
1.0
  0
LWPOLYLINE
  5
301
330
1F
100
AcDbEntity
  8
AS-ABST MAG STRONG DIPOLAR
100
AcDbPolyline
 90
        2
 70
     1
 43
0.25
 10
381096.6535992047
 20
225775.5619053169
 42
1.0
 10
381096.4035992047
 20
225775.5619053169
 42
1.0
  0
LWPOLYLINE
  5
302
330
1F
100
AcDbEntity
  8
AS-ABST MAG STRONG DIPOLAR
100
AcDbPolyline
 90
        2
 70
     1
 43
0.25
 10
381089.12287584
 20
225773.5703090552
 42
1.0
 10
381088.87287584
 20
225773.5703090552
 42
1.0
  0
LWPOLYLINE
  5
303
330
1F
100
AcDbEntity
  8
AS-ABST MAG POS DISCRETE UNCERTAIN
100
AcDbPolyline
 90
        2
 70
     1
 43
0.25
 10
381098.0430788875
 20
225775.696082884
 42
1.0
 10
381097.7930788875
 20
225775.696082884
 42
1.0
  0
LWPOLYLINE
  5
304
330
1F
100
AcDbEntity
  8
AS-ABST MAG POS DISCRETE UNCERTAIN
100
AcDbPolyline
 90
        2
 70
     1
 43
0.25
 10
381099.5604069805
 20
225778.4583981303
 42
1.0
 10
381099.3104069805
 20
225778.4583981303
 42
1.0
  0
VIEWPORT
  5
30E
330
309
100
AcDbEntity
 67
     1
  8
0
100
AcDbViewport
 10
0.0
 20
0.0
 30
0.0
 40
528.6250347377737
 41
287.1886884628022
 68
     2
 69
     1
 12
231.9829337849868
 22
140.0840656873208
 13
0.0
 23
0.0
 14
10.0
 24
10.0
 15
10.0
 25
10.0
 16
0.0
 26
0.0
 36
1.0
 17
0.0
 27
0.0
 37
0.0
 42
50.0
 43
0.0
 44
0.0
 45
287.1886884628022
 50
0.0
 51
0.0
 72
   100
 90
    32816
  1

281
     0
 71
     1
 74
     0
110
0.0
120
0.0
130
0.0
111
1.0
121
0.0
131
0.0
112
0.0
122
1.0
132
0.0
 79
     0
146
0.0
170
     0
 61
     5
348
108
292
     1
282
     1
141
0.0
142
0.0
 63
   250
421
  3355443
361
310
  0
VIEWPORT
  5
311
330
309
100
AcDbEntity
 67
     1
  8
AS-TEMPLATE
100
AcDbViewport
 10
167.0
 20
143.5
 30
0.0
 40
330.0
 41
281.0
 68
     1
 69
     2
 12
381034.759
 22
225810.564
 13
0.0
 23
0.0
 14
10.0
 24
10.0
 15
10.0
 25
10.0
 16
0.0
 26
0.0
 36
1.0
 17
0.0
 27
0.0
 37
0.0
 42
50.0
 43
0.0
 44
0.0
 45
281.0
 50
0.0
 51
0.0
 72
   100
 90
    32864
  1

281
     0
 71
     1
 74
     0
110
0.0
120
0.0
130
0.0
111
1.0
121
0.0
131
0.0
112
0.0
122
1.0
132
0.0
 79
     0
146
0.0
170
     0
 61
     5
348
108
292
     1
282
     1
141
0.0
142
0.0
 63
   250
421
  3355443
361
40F
  0
LINE
  5
314
330
309
100
AcDbEntity
 67
     1
  8
AS-TEMPLATE
100
AcDbLine
 10
332.0
 20
284.0
 30
0.0
 11
332.0
 21
3.0
 31
0.0
  0
LINE
  5
315
330
309
100
AcDbEntity
 67
     1
  8
AS-TEMPLATE
100
AcDbLine
 10
402.0
 20
284.0
 30
0.0
 11
402.0
 21
3.0
 31
0.0
  0
LINE
  5
316
330
309
100
AcDbEntity
 67
     1
  8
AS-TEMPLATE
100
AcDbLine
 10
332.0
 20
3.0
 30
0.0
 11
402.0
 21
3.0
 31
0.0
  0
LINE
  5
317
330
309
100
AcDbEntity
 67
     1
  8
AS-TEMPLATE
100
AcDbLine
 10
2.0
 20
284.0
 30
0.0
 11
332.0
 21
284.0
 31
0.0
  0
LINE
  5
318
330
309
100
AcDbEntity
 67
     1
  8
AS-TEMPLATE
100
AcDbLine
 10
2.0
 20
284.0
 30
0.0
 11
2.0
 21
3.0
 31
0.0
  0
LINE
  5
319
330
309
100
AcDbEntity
 67
     1
  8
AS-TEMPLATE
100
AcDbLine
 10
2.0
 20
3.0
 30
0.0
 11
332.0
 21
3.0
 31
0.0
  0
HATCH
  5
31A
330
309
100
AcDbEntity
 67
     1
  8
AS-NORTH
100
AcDbHatch
 10
0.0
 20
0.0
 30
0.0
210
0.0
220
0.0
230
1.0
  2
SOLID
 70
     1
 71
     1
 91
        1
 92
        1
 93
        3
 72
     1
 10
289.9999999148397
 20
239.9999998160832
 11
292.504587070803
 21
248.3486236692942
 72
     1
 10
292.504587070803
 20
248.3486236692942
 11
292.504587070803
 21
241.3486236692942
 72
     1
 10
292.504587070803
 20
241.3486236692942
 11
289.9999999148397
 21
239.9999998160832
 97
        3
330
31F
330
31E
330
31D
 75
     0
 76
     1
 98
        1
 10
-48.4987778380688
 20
-33.33240220137611
  0
LINE
  5
31C
330
309
100
AcDbEntity
 67
     1
  8
AS-NORTH
100
AcDbLine
 10
292.504587070803
 20
241.3486236692942
 30
0.0
 11
295.0091742267663
 21
239.9999998160832
 31
0.0
  0
LINE
  5
31D
102
{ACAD_REACTORS
330
31A
102
}
330
309
100
AcDbEntity
 67
     1
  8
AS-NORTH
100
AcDbLine
 10
289.9999999148397
 20
239.9999998160832
 30
0.0
 11
292.504587070803
 21
241.3486236692942
 31
0.0
  0
LINE
  5
31E
102
{ACAD_REACTORS
330
31A
102
}
330
309
100
AcDbEntity
 67
     1
  8
AS-NORTH
100
AcDbLine
 10
292.504587070803
 20
248.3486236692942
 30
0.0
 11
292.504587070803
 21
241.3486236692942
 31
0.0
  0
LINE
  5
31F
102
{ACAD_REACTORS
330
31A
102
}
330
309
100
AcDbEntity
 67
     1
  8
AS-NORTH
100
AcDbLine
 10
289.9999999148397
 20
239.9999998160832
 30
0.0
 11
292.504587070803
 21
248.3486236692942
 31
0.0
  0
LWPOLYLINE
  5
320
330
309
100
AcDbEntity
 67
     1
  8
AS-NORTH
100
AcDbPolyline
 90
        3
 70
     0
 43
0.0
 10
295.0091742267663
 20
239.9999998160832
 10
292.504587070803
 20
248.3486236692942
 10
292.504587070803
 20
241.3486236692942
  0
LINE
  5
321
330
309
100
AcDbEntity
 67
     1
  8
AS-NORTH
100
AcDbLine
 10
292.504587070803
 20
248.3486236692942
 30
0.0
 11
295.0091742267663
 21
239.9999998160832
 31
0.0
  0
TEXT
  5
322
330
309
100
AcDbEntity
 67
     1
  8
AS-NORTH
100
AcDbText
 10
291.4673481662594
 20
250.2935444521947
 30
0.0
 40
2.0
  1
N
  7
Archaeological Surveys
100
AcDbText
  0
MTEXT
  5
336
330
309
100
AcDbEntity
 67
     1
  8
AS-FIGxx ABSTRACTION
 62
     0
370
    30
100
AcDbMText
 10
347.3986845026253
 20
200.2885920653889
 30
0.0
 40
2.0
 41
53.65251785860833
 46
0.0
 71
     1
 72
     5
  1
Positive linear anomaly - cut feature of {\C256;archaeological potential}
  7
Archaeological Surveys
 73
     1
 44
1.0
  0
MTEXT
  5
34A
330
309
100
AcDbEntity
 67
     1
  8
AS-FIGxx ABSTRACTION
100
AcDbMText
 10
367.0
 20
224.3722665204776
 30
0.0
 40
3.0
 41
70.0
 46
0.0
 71
     2
 72
     5
  1
\fArial|b1|i0|c0|p34;Abstraction and interpretation of magnetic anomalies
  7
Archaeological Surveys
 73
     1
 44
1.0
  0
LINE
  5
34B
330
309
100
AcDbEntity
 67
     1
  8
AS-TEMPLATE
 62
     0
100
AcDbLine
 10
332.0
 20
236.4293049048994
 30
0.0
 11
402.0
 21
236.4293049048994
 31
0.0
  0
LINE
  5
34C
330
309
100
AcDbEntity
 67
     1
  8
AS-TEMPLATE
 62
     0
100
AcDbLine
 10
332.0
 20
204.918016999939
 30
0.0
 11
402.0
 21
204.918016999939
 31
0.0
  0
MTEXT
  5
34F
330
309
100
AcDbEntity
 67
     1
  8
AS-TEMPLATE
100
AcDbMText
 10
391.3707313351932
 20
10.0
 30
0.0
 40
2.5
 41
32.0
 46
0.0
 71
     2
 72
     5
  1
\C0;FIG 05
  7
Archaeological Surveys
 73
     1
 44
1.0
  0
MTEXT
  5
350
330
309
100
AcDbEntity
 67
     1
  8
AS-TEMPLATE
100
AcDbMText
 10
340.3779840813959
 20
12.56185344144044
 30
0.0
 40
1.0
 41
70.0
 46
0.0
 71
     2
 72
     5
  1
DRAWN BY
  7
Archaeological Surveys
 73
     1
 44
1.0
  0
LINE
  5
353
330
309
100
AcDbEntity
 67
     1
  8
AS-TEMPLATE
 62
     0
100
AcDbLine
 10
332.0
 20
14.30985509598385
 30
0.0
 11
402.0
 21
14.30985509598385
 31
0.0
  0
LINE
  5
354
330
309
100
AcDbEntity
 67
     1
  8
AS-TEMPLATE
 62
     0
100
AcDbLine
 10
332.0
 20
43.93394802882565
 30
0.0
 11
402.0
 21
43.93394802882565
 31
0.0
  0
LINE
  5
355
330
309
100
AcDbEntity
 67
     1
  8
AS-TEMPLATE
370
    -3
100
AcDbLine
 10
357.0
 20
14.30985509598383
 30
0.0
 11
357.0
 21
3.0
 31
0.0
  0
LINE
  5
356
330
309
100
AcDbEntity
 67
     1
  8
AS-TEMPLATE
370
    -3
100
AcDbLine
 10
382.0
 20
14.30985509598383
 30
0.0
 11
382.0
 21
3.0
 31
0.0
  0
MTEXT
  5
357
330
309
100
AcDbEntity
 67
     1
  8
AS-TEMPLATE
100
AcDbMText
 10
362.704965887398
 20
12.56185344144044
 30
0.0
 40
1.0
 41
70.0
 46
0.0
 71
     2
 72
     5
  1
CHECKED BY
  7
Archaeological Surveys
 73
     1
 44
1.0
  0
MTEXT
  5
358
330
309
100
AcDbEntity
 67
     1
  8
AS-TEMPLATE
100
AcDbMText
 10
367.0
 20
22.40602323321046
 30
0.0
 40
1.0
 41
70.0
 46
0.0
 71
     2
 72
     5
  1
SCALE TRUE AT A3
  7
Archaeological Surveys
 73
     1
 44
1.0
  0
HATCH
  5
359
330
309
100
AcDbEntity
 67
     1
  8
AS-1-1000 SCALEBAR
 62
     7
370
    15
100
AcDbHatch
 10
0.0
 20
0.0
 30
0.0
210
0.0
220
0.0
230
1.0
  2
SOLID
 70
     1
 71
     0
 91
        7
 92
        7
 72
     0
 73
     1
 93
        4
 10
343.0758041455602
 20
28.63944057605789
 10
342.0758041455602
 20
28.63944057605789
 10
342.0758041455602
 20
27.13944057605789
 10
343.0758041455602
 20
27.13944057605789
 97
        0
 92
        7
 72
     0
 73
     1
 93
        4
 10
345.0758041455602
 20
28.63944057605789
 10
344.0758041455602
 20
28.63944057605789
 10
344.0758041455602
 20
27.13944057605789
 10
345.0758041455602
 20
27.13944057605789
 97
        0
 92
        7
 72
     0
 73
     1
 93
        4
 10
347.0758041455602
 20
28.63944057605789
 10
346.0758041455602
 20
28.63944057605789
 10
346.0758041455602
 20
27.13944057605789
 10
347.0758041455602
 20
27.13944057605789
 97
        0
 92
        7
 72
     0
 73
     1
 93
        4
 10
349.0758041455602
 20
28.63944057605789
 10
348.0758041455602
 20
28.63944057605792
 10
348.0758041455602
 20
27.13944057605786
 10
349.0758041455602
 20
27.13944057605786
 97
        0
 92
        7
 72
     0
 73
     1
 93
        4
 10
351.0758041455602
 20
28.63944057605789
 10
350.0758041455602
 20
28.63944057605792
 10
350.0758041455602
 20
27.13944057605786
 10
351.0758041455602
 20
27.13944057605786
 97
        0
 92
        7
 72
     0
 73
     1
 93
        4
 10
362.0758041455602
 20
28.63944057605789
 10
352.0758041455602
 20
28.63944057605789
 10
352.0758041455602
 20
27.13944057605789
 10
362.0758041455602
 20
27.13944057605789
 97
        0
 92
        7
 72
     0
 73
     1
 93
        4
 10
382.0758041455602
 20
28.63944057605789
 10
372.0758041455602
 20
28.63944057605789
 10
372.0758041455602
 20
27.13944057605789
 10
382.0758041455602
 20
27.13944057605789
 97
        0
 75
     0
 76
     1
 47
0.0725200711473089
 98
        7
 10
342.5770145432073
 20
27.7077301230982
 10
344.6809771391045
 20
27.56269000696494
 10
346.8574900494362
 20
27.78025018116494
 10
348.6712502284964
 20
27.78025018116494
 10
350.6301121955246
 20
27.78025018116494
 10
356.8694485096829
 20
27.7077301230982
 10
376.8208174339393
 20
27.99781035536483
  0
TEXT
  5
35B
330
309
100
AcDbEntity
 67
     1
  8
AS-1-1000 SCALEBAR
370
    15
100
AcDbText
 10
380.8342041455602
 20
30.86289512151244
 30
0.0
 40
1.6
  1
40
  7
Archaeological Surveys
 72
     1
 11
382.0758041455602
 21
30.38944057605789
 31
0.0
100
AcDbText
 73
     1
  0
LWPOLYLINE
  5
35C
102
{ACAD_REACTORS
330
35E
102
}
330
309
100
AcDbEntity
 67
     1
  8
AS-1-1000 SCALEBAR
370
    15
100
AcDbPolyline
 90
        2
 70
     0
 43
0.0
 10
342.0758041455602
 20
28.63944057605789
 10
392.0758041455602
 20
28.63944057605789
  0
LWPOLYLINE
  5
35D
102
{ACAD_REACTORS
330
35E
102
}
330
309
100
AcDbEntity
 67
     1
  8
AS-1-1000 SCALEBAR
370
    15
100
AcDbPolyline
 90
        2
 70
     0
 43
0.0
 10
342.0758041455602
 20
27.13944057605789
 10
392.0758041455602
 20
27.13944057605789
  0
HATCH
  5
35E
330
309
100
AcDbEntity
 67
     1
  8
AS-1-1000 SCALEBAR
 62
     8
370
    15
100
AcDbHatch
 10
0.0
 20
0.0
 30
0.0
210
0.0
220
0.0
230
1.0
  2
SOLID
 70
     1
 71
     0
 91
        5
 92
        7
 72
     0
 73
     1
 93
        4
 10
352.0758041455602
 20
27.13944057605789
 10
352.0758041455602
 20
28.63944057605789
 10
351.0758041455602
 20
28.63944057605789
 10
351.0758041455602
 20
27.13944057605789
 97
        0
 92
        7
 72
     0
 73
     1
 93
        4
 10
350.0758041455602
 20
27.13944057605789
 10
350.0758041455602
 20
28.63944057605789
 10
349.0758041455602
 20
28.63944057605789
 10
349.0758041455602
 20
27.13944057605789
 97
        0
 92
        7
 72
     0
 73
     1
 93
        4
 10
348.0758041455602
 20
27.13944057605789
 10
348.0758041455602
 20
28.63944057605789
 10
347.0758041455602
 20
28.63944057605789
 10
347.0758041455602
 20
27.13944057605789
 97
        0
 92
        7
 72
     0
 73
     1
 93
        4
 10
346.0758041455602
 20
27.13944057605789
 10
346.0758041455602
 20
28.63944057605789
 10
345.0758041455602
 20
28.63944057605789
 10
345.0758041455602
 20
27.13944057605789
 97
        0
 92
        7
 72
     0
 73
     1
 93
        4
 10
344.0758041455602
 20
27.13944057605789
 10
344.0758041455602
 20
28.63944057605789
 10
343.0758041455602
 20
28.63944057605789
 10
343.0758041455602
 20
27.13944057605789
 97
        0
 75
     0
 76
     1
 47
0.0673216266466392
 98
        5
 10
343.5243467702903
 20
27.74465913102239
 10
345.7472902096006
 20
28.21591106742284
 10
347.7007858171601
 20
27.74465913102239
 10
349.7216445552913
 20
27.94662404493141
 10
351.6077793775471
 20
28.01394615351381
  0
LINE
  5
35F
102
{ACAD_REACTORS
330
35E
102
}
330
309
100
AcDbEntity
 67
     1
  8
AS-1-1000 SCALEBAR
370
    15
100
AcDbLine
 10
343.0758041455602
 20
27.13944057605789
 30
0.0
 11
343.0758041455602
 21
29.33944057605794
 31
0.0
  0
LINE
  5
360
102
{ACAD_REACTORS
330
35E
102
}
330
309
100
AcDbEntity
 67
     1
  8
AS-1-1000 SCALEBAR
370
    15
100
AcDbLine
 10
344.0758041455602
 20
27.13944057605789
 30
0.0
 11
344.0758041455602
 21
29.33944057605794
 31
0.0
  0
LINE
  5
361
102
{ACAD_REACTORS
330
35E
102
}
330
309
100
AcDbEntity
 67
     1
  8
AS-1-1000 SCALEBAR
370
    15
100
AcDbLine
 10
345.0758041455602
 20
27.13944057605789
 30
0.0
 11
345.0758041455602
 21
29.33944057605794
 31
0.0
  0
LINE
  5
362
102
{ACAD_REACTORS
330
35E
102
}
330
309
100
AcDbEntity
 67
     1
  8
AS-1-1000 SCALEBAR
370
    15
100
AcDbLine
 10
346.0758041455602
 20
27.13944057605789
 30
0.0
 11
346.0758041455602
 21
29.33944057605794
 31
0.0
  0
LINE
  5
363
102
{ACAD_REACTORS
330
35E
102
}
330
309
100
AcDbEntity
 67
     1
  8
AS-1-1000 SCALEBAR
370
    15
100
AcDbLine
 10
347.0758041455602
 20
27.13944057605789
 30
0.0
 11
347.0758041455602
 21
29.73944057605792
 31
0.0
  0
LINE
  5
364
102
{ACAD_REACTORS
330
35E
102
}
330
309
100
AcDbEntity
 67
     1
  8
AS-1-1000 SCALEBAR
370
    15
100
AcDbLine
 10
348.0758041455602
 20
27.13944057605789
 30
0.0
 11
348.0758041455602
 21
29.33944057605794
 31
0.0
  0
LINE
  5
365
330
309
100
AcDbEntity
 67
     1
  8
AS-1-1000 SCALEBAR
370
    15
100
AcDbLine
 10
342.0758041455602
 20
27.13944057605789
 30
0.0
 11
342.0758041455602
 21
30.13944057605789
 31
0.0
  0
TEXT
  5
366
330
309
100
AcDbEntity
 67
     1
  8
AS-1-1000 SCALEBAR
370
    15
100
AcDbText
 10
340.5246041455602
 20
30.86289512151244
 30
0.0
 40
1.6
  1
0m
  7
Archaeological Surveys
 72
     1
 11
342.0758041455602
 21
30.38944057605789
 31
0.0
100
AcDbText
 73
     1
  0
LINE
  5
367
330
309
100
AcDbEntity
 67
     1
  8
AS-1-1000 SCALEBAR
370
    15
100
AcDbLine
 10
362.0758041455602
 20
27.13944057605789
 30
0.0
 11
362.0758041455602
 21
30.13944057605789
 31
0.0
  0
LINE
  5
368
102
{ACAD_REACTORS
330
35E
102
}
330
309
100
AcDbEntity
 67
     1
  8
AS-1-1000 SCALEBAR
370
    15
100
AcDbLine
 10
349.0758041455602
 20
27.13944057605789
 30
0.0
 11
349.0758041455602
 21
29.33944057605794
 31
0.0
  0
LINE
  5
369
102
{ACAD_REACTORS
330
35E
102
}
330
309
100
AcDbEntity
 67
     1
  8
AS-1-1000 SCALEBAR
370
    15
100
AcDbLine
 10
350.0758041455602
 20
27.13944057605789
 30
0.0
 11
350.0758041455602
 21
29.33944057605794
 31
0.0
  0
LINE
  5
36A
102
{ACAD_REACTORS
330
35E
102
}
330
309
100
AcDbEntity
 67
     1
  8
AS-1-1000 SCALEBAR
370
    15
100
AcDbLine
 10
351.0758041455602
 20
27.13944057605789
 30
0.0
 11
351.0758041455602
 21
29.33944057605794
 31
0.0
  0
LINE
  5
36B
102
{ACAD_REACTORS
330
35E
102
}
330
309
100
AcDbEntity
 67
     1
  8
AS-1-1000 SCALEBAR
370
    15
100
AcDbLine
 10
352.0758041455602
 20
27.13944057605789
 30
0.0
 11
352.0758041455602
 21
30.13944057605789
 31
0.0
  0
TEXT
  5
36C
330
309
100
AcDbEntity
 67
     1
  8
AS-1-1000 SCALEBAR
370
    15
100
AcDbText
 10
350.8342041455602
 20
30.86289512151244
 30
0.0
 40
1.6
  1
10
  7
Archaeological Surveys
 72
     1
 11
352.0758041455602
 21
30.38944057605789
 31
0.0
100
AcDbText
 73
     1
  0
TEXT
  5
36D
330
309
100
AcDbEntity
 67
     1
  8
AS-1-1000 SCALEBAR
370
    15
100
AcDbText
 10
360.8342041455602
 20
30.86289512151244
 30
0.0
 40
1.6
  1
20
  7
Archaeological Surveys
 72
     1
 11
362.0758041455602
 21
30.38944057605789
 31
0.0
100
AcDbText
 73
     1
  0
LINE
  5
36E
330
309
100
AcDbEntity
 67
     1
  8
AS-1-1000 SCALEBAR
370
    15
100
AcDbLine
 10
372.0758041455602
 20
27.13944057605789
 30
0.0
 11
372.0758041455602
 21
30.13944057605789
 31
0.0
  0
TEXT
  5
36F
330
309
100
AcDbEntity
 67
     1
  8
AS-1-1000 SCALEBAR
370
    15
100
AcDbText
 10
370.8342041455602
 20
30.86289512151244
 30
0.0
 40
1.6
  1
30
  7
Archaeological Surveys
 72
     1
 11
372.0758041455602
 21
30.38944057605789
 31
0.0
100
AcDbText
 73
     1
  0
LINE
  5
370
330
309
100
AcDbEntity
 67
     1
  8
AS-1-1000 SCALEBAR
370
    15
100
AcDbLine
 10
392.0758041455602
 20
27.13944057605789
 30
0.0
 11
392.0758041455602
 21
30.13944057605789
 31
0.0
  0
LINE
  5
371
330
309
100
AcDbEntity
 67
     1
  8
AS-1-1000 SCALEBAR
370
    15
100
AcDbLine
 10
382.0758041455602
 20
27.13944057605789
 30
0.0
 11
382.0758041455602
 21
30.13944057605789
 31
0.0
  0
TEXT
  5
372
330
309
100
AcDbEntity
 67
     1
  8
AS-1-1000 SCALEBAR
370
    15
100
AcDbText
 10
389.9038041455602
 20
30.86289512151244
 30
0.0
 40
1.6
  1
50m
  7
Archaeological Surveys
 72
     1
 11
392.0758041455602
 21
30.38944057605789
 31
0.0
100
AcDbText
 73
     1
  0
LINE
  5
374
330
309
100
AcDbEntity
 67
     1
  8
AS-TEMPLATE
100
AcDbLine
 10
332.0
 20
284.0
 30
0.0
 11
402.0
 21
284.0
 31
0.0
  0
LINE
  5
375
330
309
100
AcDbEntity
 67
     1
  8
AS-TEMPLATE
 62
     0
100
AcDbLine
 10
332.0
 20
273.7041523583131
 30
0.0
 11
402.0
 21
273.7041523583131
 31
0.0
  0
INSERT
  5
376
330
309
100
AcDbEntity
 67
     1
  8
AS-LOGO
100
AcDbBlockReference
  2
AS logo block 2019 v2
 10
0.0
 20
0.0
 30
0.0
  0
HATCH
  5
3FB
330
309
100
AcDbEntity
 67
     1
  8
AS-FIG05 ABSTRACTION
 62
   252
370
    60
100
AcDbHatch
 10
0.0
 20
0.0
 30
0.0
210
0.0
220
0.0
230
1.0
  2
ANSI31
 70
     0
 71
     0
 91
        1
 92
        1
 93
        4
 72
     1
 10
337.9971493799218
 20
160.0310799115598
 11
344.0131516652924
 21
160.0310799115598
 72
     1
 10
344.0131516652924
 20
160.0310799115598
 11
344.0056781912964
 21
155.9878169222585
 72
     1
 10
344.0056781912964
 20
155.9878169222585
 11
338.0087026431728
 21
155.9694935579031
 72
     1
 10
338.0087026431728
 20
155.9694935579031
 11
337.9971493799218
 21
160.0310799115598
 97
        0
 75
     0
 76
     1
 52
0.0
 41
0.45
 77
     0
 78
     1
 53
45.0
 43
-24.70807217922959
 44
63.03455910914033
 45
-1.01027881362028
 46
1.01027881362028
 79
     0
 98
        1
 10
-24.70807217922959
 20
63.03455910914033
  0
MTEXT
  5
400
330
309
100
AcDbEntity
 67
     1
  8
AS-FIG05 ABSTRACTION
 62
     0
370
    30
100
AcDbMText
 10
347.3986845026253
 20
159.4687697512518
 30
0.0
 40
2.0
 41
53.23785295883349
 46
0.0
 71
     1
 72
     5
  1
Magnetic disturbance from ferrous material
  7
Archaeological Surveys
 73
     1
 44
1.0
  0
MTEXT
  5
402
330
309
100
AcDbEntity
 67
     1
  8
AS-FIG05 ABSTRACTION
 62
     0
370
    30
100
AcDbMText
 10
347.3986845026253
 20
149.2885920653889
 30
0.0
 40
2.0
 41
53.44518264572466
 46
0.0
 71
     1
 72
     5
  1
Strong dipolar anomaly - ferrous object 
  7
Archaeological Surveys
 73
     1
 44
1.0
  0
LWPOLYLINE
  5
403
330
309
100
AcDbEntity
 67
     1
  8
AS-FIG05 ABSTRACTION
 62
   252
370
    30
100
AcDbPolyline
 90
        2
 70
     1
 43
1.0
 10
340.6060270724603
 20
148.0063767609016
 42
1.0
 10
341.6060270724603
 20
148.0063767609016
 42
1.0
  0
HATCH
  5
404
330
309
100
AcDbEntity
 67
     1
  8
AS-FIG05 ABSTRACTION
 62
   252
370
    60
100
AcDbHatch
 10
0.0
 20
0.0
 30
0.0
210
0.0
220
0.0
230
1.0
  2
ANSI37
 70
     0
 71
     0
 91
        1
 92
        1
 93
        4
 72
     1
 10
337.9971493799218
 20
170.0310799115598
 11
344.0131516652924
 21
170.0310799115598
 72
     1
 10
344.0131516652924
 20
170.0310799115598
 11
344.0056781912964
 21
165.9878169222585
 72
     1
 10
344.0056781912964
 20
165.9878169222585
 11
338.0087026431728
 21
165.9694935579031
 72
     1
 10
338.0087026431728
 20
165.9694935579031
 11
337.9971493799218
 21
170.0310799115598
 97
        0
 75
     0
 76
     1
 52
0.0
 41
0.45
 77
     0
 78
     2
 53
45.0
 43
-24.70807217922959
 44
73.03455910914033
 45
-1.01027881362028
 46
1.01027881362028
 79
     0
 53
135.0
 43
-24.70807217922959
 44
73.03455910914033
 45
-1.01027881362028
 46
-1.01027881362028
 79
     0
 98
        1
 10
-24.70807217922959
 20
73.03455910914033
  0
MTEXT
  5
405
330
309
100
AcDbEntity
 67
     1
  8
AS-FIG05 ABSTRACTION
 62
     0
370
    30
100
AcDbMText
 10
347.3986845026253
 20
170.2885920653889
 30
0.0
 40
2.0
 41
53.65
 46
0.0
 71
     1
 72
     5
  1
Magnetic debris - spread of magnetically thermoremnant/ferrous material
  7
Archaeological Surveys
 73
     1
 44
1.0
  0
MTEXT
  5
406
330
309
100
AcDbEntity
 67
     1
  8
AS-FIG05 ABSTRACTION
 62
     0
370
    30
100
AcDbMText
 10
347.3986845026253
 20
189.7085285667122
 30
0.0
 40
2.0
 41
53.65251785860833
 46
0.0
 71
     1
 72
     5
  1
Positive linear anomaly - of uncertain origin
  7
Archaeological Surveys
 73
     1
 44
1.0
  0
LINE
  5
407
330
309
100
AcDbEntity
 67
     1
  8
AS-FIG05 ABSTRACTION
 62
    30
370
   100
100
AcDbLine
 10
338.4875161037618
 20
188.0053341214519
 30
0.0
 11
343.4875161037618
 21
188.0053341214519
 31
0.0
  0
MTEXT
  5
408
330
309
100
AcDbEntity
 67
     1
  8
AS-FIG05 ABSTRACTION
 62
     0
370
    30
100
AcDbMText
 10
347.3986845026253
 20
180.2885920653889
 30
0.0
 40
2.0
 41
53.85984754549859
 46
0.0
 71
     1
 72
     5
  1
Discrete positive response - possible pit-like feature
  7
Archaeological Surveys
 73
     1
 44
1.0
  0
LWPOLYLINE
  5
409
330
309
100
AcDbEntity
 67
     1
  8
AS-FIG05 ABSTRACTION
 62
    30
370
    30
100
AcDbPolyline
 90
        2
 70
     1
 43
1.0
 10
340.6060270724603
 20
178.0063767609016
 42
1.0
 10
341.6060270724603
 20
178.0063767609016
 42
1.0
  0
MTEXT
  5
40A
330
309
100
AcDbEntity
 67
     1
  8
AS-TEMPLATE
100
AcDbMText
 10
367.0
 20
264.908321225381
 30
0.0
 40
3.0
 41
68.43797309734236
 46
0.0
 71
     2
 72
     5
  1
\fArial|b1|i0|c0|p34;Geophysical Survey\PLand at Ashleworth\PTewkesbury\PGloucestershire
  7
Archaeological Surveys
 73
     1
 44
1.0
  0
MTEXT
  5
40C
330
309
100
AcDbEntity
 67
     1
  8
AS-TEMPLATE
100
AcDbMText
 10
367.0
 20
40.0
 30
0.0
 40
3.0
 41
70.0
 46
0.0
 71
     2
 72
     5
  1
SCALE      1:1000
  7
Archaeological Surveys
 73
     1
 44
1.0
  0
MTEXT
  5
40D
330
309
100
AcDbEntity
 67
     1
  8
AS-TEMPLATE
100
AcDbMText
 10
344.0484130562174
 20
10.0
 30
0.0
 40
2.5
 41
32.0
 46
0.0
 71
     2
 72
     5
  1
\C0;KTD
  7
Archaeological Surveys
 73
     1
 44
1.0
  0
MTEXT
  5
40E
330
309
100
AcDbEntity
 67
     1
  8
AS-TEMPLATE
100
AcDbMText
 10
368.8259172555613
 20
10.0
 30
0.0
 40
2.5
 41
32.0
 46
0.0
 71
     2
 72
     5
  1
\C0;DJS
  7
Archaeological Surveys
 73
     1
 44
1.0
  0
ENDSEC
  0
SECTION
  2
OBJECTS
  0
DICTIONARY
  5
C
330
0
100
AcDbDictionary
281
     1
  3
ACAD_CIP_PREVIOUS_PRODUCT_INFO
350
17B
  3
ACAD_COLOR
350
6C
  3
ACAD_DETAILVIEWSTYLE
350
176
  3
ACAD_GROUP
350
D
  3
ACAD_LAYOUT
350
1A
  3
ACAD_MATERIAL
350
6B
  3
ACAD_MLEADERSTYLE
350
FF
  3
ACAD_MLINESTYLE
350
17
  3
ACAD_PLOTSETTINGS
350
19
  3
ACAD_PLOTSTYLENAME
350
E
  3
ACAD_SCALELIST
350
99
  3
ACAD_SECTIONVIEWSTYLE
350
174
  3
ACAD_TABLESTYLE
350
92
  3
ACAD_VISUALSTYLE
350
103
  3
ACDB_RECOMPOSE_DATA
350
41C
  3
AcDbVariableDictionary
350
59
  0
SUN
  5
114
330
97
100
AcDbSun
 90
        1
290
     0
 63
     7
421
 16777215
 40
1.0
291
     1
 91
  2455826
 92
 54000000
292
     0
 70
     2
 71
   256
280
     1
  0
DICTIONARY
  5
13D
330
2
100
AcDbDictionary
280
     1
281
     1
  3
ACAD_LAYERSTATES
360
13E
  0
DICTIONARY
  5
30A
330
309
100
AcDbDictionary
280
     1
281
     1
  3
ACAD_SORTENTS
360
30B
  0
DICTIONARY
  5
379
330
378
100
AcDbDictionary
280
     1
281
     1
  3
ACAD_SORTENTS
360
37A
  0
SUN
  5
306
330
305
100
AcDbSun
 90
        1
290
     0
 63
     7
421
 16777215
 40
1.0
291
     1
 91
  2455826
 92
 54000000
292
     0
 70
     2
 71
   256
280
     1
  0
SUN
  5
308
330
307
100
AcDbSun
 90
        1
290
     0
 63
     7
421
 16777215
 40
1.0
291
     1
 91
  2455826
 92
 54000000
292
     0
 70
     2
 71
   256
280
     1
  0
DICTIONARY
  5
2F1
330
2F0
100
AcDbDictionary
280
     1
281
     1
  3
AcDbContextDataManager
360
2F2
  0
SUN
  5
310
330
30E
100
AcDbSun
 90
        1
290
     0
 63
     7
421
 16777215
 40
1.0
291
     1
 91
  2455826
 92
 54000000
292
     0
 70
     2
 71
   256
280
     1
  0
SUN
  5
40F
330
311
100
AcDbSun
 90
        1
290
     0
 63
     7
421
 16777215
 40
1.0
291
     1
 91
  2455826
 92
 54000000
292
     0
 70
     2
 71
   256
280
     1
  0
XRECORD
  5
17B
102
{ACAD_REACTORS
330
C
102
}
330
C
100
AcDbXrecord
280
     1
300
ACD
300
2015
300
ACD_F_S
  0
DICTIONARY
  5
6C
102
{ACAD_REACTORS
330
C
102
}
330
C
100
AcDbDictionary
281
     1
  3
UNNAMED$0,69,134
350
37D
  3
UNNAMED$255,255,255
350
384
  0
DICTIONARY
  5
176
102
{ACAD_REACTORS
330
C
102
}
330
C
100
AcDbDictionary
281
     1
  3
Metric50
350
177
  0
DICTIONARY
  5
D
102
{ACAD_REACTORS
330
C
102
}
330
C
100
AcDbDictionary
281
     1
  0
DICTIONARY
  5
1A
102
{ACAD_REACTORS
330
C
102
}
330
C
100
AcDbDictionary
281
     1
  3
Figxx Magnetometry abstraction
350
3F7
  3
Layout1
350
161
  3
Layout2
350
165
  3
Model
350
22
  0
DICTIONARY
  5
6B
102
{ACAD_REACTORS
330
C
102
}
330
C
100
AcDbDictionary
281
     1
  3
ByBlock
350
101
  3
ByLayer
350
100
  3
Global
350
102
  0
DICTIONARY
  5
FF
102
{ACAD_REACTORS
330
C
102
}
330
C
100
AcDbDictionary
281
     1
  3
Standard
350
173
  0
DICTIONARY
  5
17
102
{ACAD_REACTORS
330
C
102
}
330
C
100
AcDbDictionary
281
     1
  3
Standard
350
18
  0
DICTIONARY
  5
19
102
{ACAD_REACTORS
330
C
102
}
330
C
100
AcDbDictionary
281
     1
  0
ACDBDICTIONARYWDFLT
  5
E
102
{ACAD_REACTORS
330
C
102
}
330
C
100
AcDbDictionary
281
     1
  3
Normal
350
F
100
AcDbDictionaryWithDefault
340
F
  0
DICTIONARY
  5
99
102
{ACAD_REACTORS
330
C
102
}
330
C
100
AcDbDictionary
281
     1
  3
A0
350
D5
  3
A1
350
D6
  3
A2
350
D7
  3
A3
350
D8
  3
A4
350
D9
  3
A5
350
DA
  3
A6
350
DB
  3
A7
350
DC
  3
A8
350
DD
  3
A9
350
DE
  3
B0
350
DF
  3
B1
350
E0
  3
B2
350
E1
  3
B3
350
E2
  3
B4
350
E3
  3
B5
350
E4
  3
B6
350
E5
  3
B7
350
E6
  3
B8
350
E7
  3
B9
350
E8
  3
C0
350
E9
  3
C1
350
EA
  3
C2
350
EB
  3
C3
350
EC
  3
C4
350
ED
  3
C5
350
EE
  3
C6
350
EF
  3
C7
350
F0
  3
C8
350
F1
  3
C9
350
F2
  3
D0
350
F3
  3
D1
350
F4
  3
D2
350
F5
  0
DICTIONARY
  5
174
102
{ACAD_REACTORS
330
C
102
}
330
C
100
AcDbDictionary
281
     1
  3
Metric50
350
175
  0
DICTIONARY
  5
92
102
{ACAD_REACTORS
330
C
102
}
330
C
100
AcDbDictionary
281
     1
  3
Standard
350
FA
  0
DICTIONARY
  5
103
102
{ACAD_REACTORS
330
C
102
}
330
C
100
AcDbDictionary
281
     1
  3
2dWireframe
350
108
  3
3D Hidden
350
10A
  3
3dWireframe
350
109
  3
Basic
350
10B
  3
Brighten
350
10F
  3
ColorChange
350
113
  3
Conceptual
350
10D
  3
Dim
350
10E
  3
EdgeColorOff
350
172
  3
Facepattern
350
112
  3
Flat
350
104
  3
FlatWithEdges
350
105
  3
Gouraud
350
106
  3
GouraudWithEdges
350
107
  3
Hidden
350
16A
  3
JitterOff
350
170
  3
Linepattern
350
111
  3
OverhangOff
350
171
  3
Realistic
350
10C
  3
Shaded
350
16F
  3
Shaded with edges
350
16E
  3
Shades of Gray
350
16B
  3
Sketchy
350
16C
  3
Thicken
350
110
  3
Wireframe
350
169
  3
X-Ray
350
16D
  0
XRECORD
  5
41C
102
{ACAD_REACTORS
330
C
102
}
330
C
100
AcDbXrecord
280
     1
 90
        1
330
FA
  0
DICTIONARY
  5
59
102
{ACAD_REACTORS
330
C
102
}
330
C
100
AcDbDictionary
281
     1
  3
CANNOSCALE
350
413
  3
CMLEADERSTYLE
350
417
  3
CTABLESTYLE
350
416
  3
DWFFRAME
350
418
  3
XCLIPFRAME
350
419
  0
DICTIONARY
  5
13E
102
{ACAD_REACTORS
330
13D
102
}
330
13D
100
AcDbDictionary
281
     1
  0
SORTENTSTABLE
  5
30B
102
{ACAD_REACTORS
330
30A
102
}
330
30A
100
AcDbSortentsTable
330
309
  0
SORTENTSTABLE
  5
37A
102
{ACAD_REACTORS
330
379
102
}
330
379
100
AcDbSortentsTable
330
378
  0
DICTIONARY
  5
2F2
102
{ACAD_REACTORS
330
2F1
102
}
330
2F1
100
AcDbDictionary
281
     1
  3
ACDB_ANNOTATIONSCALES
350
2F3
  0
DBCOLOR
  5
37D
102
{ACAD_REACTORS
330
6C
102
}
330
6C
100
AcDbColor
 62
   156
420
    17798
430
UNNAMED$0,69,134
  0
DBCOLOR
  5
384
102
{ACAD_REACTORS
330
6C
102
}
330
6C
100
AcDbColor
 62
     7
420
 16777215
430
UNNAMED$255,255,255
  0
ACDBDETAILVIEWSTYLE
  5
177
102
{ACAD_REACTORS
330
176
102
}
102
{ACAD_XDICTIONARY
360
193
102
}
330
176
100
AcDbModelDocViewStyle
 70
     0
  3
Metric50
290
     0
300
Metric50
 90
        0
100
AcDbDetailViewStyle
 70
     0
 71
     0
 90
        3
 71
     1
340
11
 62
   256
 40
5.0
340
0
 62
   256
 40
5.0
300

 40
0.0
280
     1
 71
     2
340
16
 90
       25
 62
   256
 71
     3
340
11
 62
   256
 40
5.0
 90
        0
 40
15.0
 90
        1
300
%<\AcVar ViewDetailId>% (%<\AcVar ViewScale \f "%sn">%)
 71
     4
340
16
 90
       25
 62
   256
340
16
 90
       25
 62
   256
280
     0
  0
LAYOUT
  5
3F7
102
{ACAD_REACTORS
330
1A
102
}
330
1A
100
AcDbPlotSettings
  1

  2
HP DeskJet 1220C Printer
  4
A3
  6

 40
6.043083190917969
 41
13.49375152587891
 42
6.043060302734375
 43
3.67242431640625
 44
297.0106506347656
 45
419.9466552734375
 46
0.0
 47
0.0
 48
0.0
 49
0.0
140
0.0
141
0.0
142
1.0
143
1.0
 70
   688
 72
     1
 73
     1
 74
     5
  7

 75
    16
 76
     0
 77
     2
 78
   300
147
1.0
148
0.0
149
0.0
100
AcDbLayout
  1
Figxx Magnetometry abstraction
 70
     1
 71
     3
 10
-3.67242431640625
 20
-6.043083190917969
 11
416.2742309570312
 21
290.9675674438477
 12
0.0
 22
0.0
 32
0.0
 14
2.0
 24
3.0
 34
0.0
 15
402.0
 25
284.0
 35
0.0
146
0.0
 13
0.0
 23
0.0
 33
0.0
 16
1.0
 26
0.0
 36
0.0
 17
0.0
 27
1.0
 37
0.0
 76
     0
330
309
331
311
  0
LAYOUT
  5
161
102
{ACAD_REACTORS
330
1A
102
}
330
1A
100
AcDbPlotSettings
  1

  2
none_device
  4
ISO_A4_(210.00_x_297.00_MM)
  6

 40
7.5
 41
20.0
 42
7.5
 43
20.0
 44
210.0
 45
297.0
 46
0.0
 47
0.0
 48
0.0
 49
0.0
140
0.0
141
0.0
142
1.0
143
1.0
 70
   688
 72
     1
 73
     1
 74
     5
  7

 75
    16
 76
     0
 77
     2
 78
   300
147
1.0
148
0.0
149
0.0
100
AcDbLayout
  1
Layout1
 70
     1
 71
     1
 10
-20.0
 20
-7.5
 11
277.0
 21
202.5
 12
0.0
 22
0.0
 32
0.0
 14
0.0
 24
0.0
 34
0.0
 15
0.0
 25
0.0
 35
0.0
146
0.0
 13
0.0
 23
0.0
 33
0.0
 16
1.0
 26
0.0
 36
0.0
 17
0.0
 27
1.0
 37
0.0
 76
     0
330
160
331
305
  0
LAYOUT
  5
165
102
{ACAD_REACTORS
330
1A
102
}
330
1A
100
AcDbPlotSettings
  1

  2
HP Photosmart C4600 series (reindirizzamento 3)
  4

  6

 40
0.0
 41
0.0
 42
0.0
 43
0.0
 44
0.0
 45
0.0
 46
0.0
 47
0.0
 48
0.0
 49
0.0
140
0.0
141
0.0
142
1.0
143
1.0
 70
   688
 72
     0
 73
     1
 74
     5
  7

 75
    16
 76
     0
 77
     2
 78
   300
147
1.0
148
0.0
149
0.0
100
AcDbLayout
  1
Layout2
 70
     1
 71
     2
 10
0.0
 20
0.0
 11
0.0
 21
0.0
 12
0.0
 22
0.0
 32
0.0
 14
0.0
 24
0.0
 34
0.0
 15
0.0
 25
0.0
 35
0.0
146
0.0
 13
0.0
 23
0.0
 33
0.0
 16
1.0
 26
0.0
 36
0.0
 17
0.0
 27
1.0
 37
0.0
 76
     0
330
164
  0
LAYOUT
  5
22
102
{ACAD_REACTORS
330
1A
102
}
330
1A
100
AcDbPlotSettings
  1

  2
none_device
  4
none_user_media
  6

 40
3.174999952316284
 41
3.174999952316284
 42
3.175003051757812
 43
3.17498779296875
 44
210.0
 45
297.0
 46
8.006187377633836
 47
0.0
 48
0.0
 49
0.0
140
0.0
141
0.0
142
1.0
143
2.295684667352719
 70
 11956
 72
     1
 73
     1
 74
     0
  7

 75
     0
 76
     0
 77
     2
 78
   300
147
0.4355998949773686
148
24.85186676244314
149
28.43217197662366
100
AcDbLayout
  1
Model
 70
     1
 71
     0
 10
0.0
 20
0.0
 11
420.0
 21
297.0
 12
0.0
 22
0.0
 32
0.0
 14
0.0
 24
0.0
 34
0.0
 15
0.0
 25
0.0
 35
0.0
146
0.0
 13
0.0
 23
0.0
 33
0.0
 16
1.0
 26
0.0
 36
0.0
 17
0.0
 27
1.0
 37
0.0
 76
     0
330
1F
331
97
1001
PROGE_PRINT_SETTINGS
1070
    73
1070
     1
1001
ACAD_PSEXT
1000
Nessuna
1000
Nessuna
1000
Non applicabile
1000
Il layout non viene stampato a meno che non venga selezionato un nuovo nome di configurazione della stampante.
1070
     0
  0
MATERIAL
  5
101
102
{ACAD_REACTORS
330
6B
102
}
330
6B
100
AcDbMaterial
  1
ByBlock
 72
     1
 94
      127
  0
MATERIAL
  5
100
102
{ACAD_REACTORS
330
6B
102
}
330
6B
100
AcDbMaterial
  1
ByLayer
 72
     1
 94
      127
  0
MATERIAL
  5
102
102
{ACAD_REACTORS
330
6B
102
}
102
{ACAD_XDICTIONARY
360
185
102
}
330
6B
100
AcDbMaterial
  1
Global
 72
     1
 94
      127
  0
MLEADERSTYLE
  5
173
102
{ACAD_REACTORS
330
FF
102
}
330
FF
100
AcDbMLeaderStyle
179
     2
170
     2
171
     1
172
     0
 90
        2
 40
0.0
 41
0.0
173
     1
 91
-1056964608
340
14
 92
       -2
290
     1
 42
2.0
291
     1
 43
0.36
  3
Standard
341
0
 44
4.0
300

342
11
174
     1
178
     6
175
     1
176
     0
 93
-1056964608
 45
4.0
292
     0
297
     0
 46
4.0
343
0
 94
-1056964608
 47
1.0
 49
1.0
140
1.0
293
     1
141
0.0
294
     1
177
     0
142
1.0
295
     1
296
     0
143
0.125
271
     0
272
     9
273
     9
298
     1
  0
MLINESTYLE
  5
18
102
{ACAD_REACTORS
330
17
102
}
330
17
100
AcDbMlineStyle
  2
STANDARD
 70
     0
  3

 62
   256
 51
90.0
 52
90.0
 71
     2
 49
0.5
 62
   256
  6
BYLAYER
 49
-0.5
 62
   256
  6
BYLAYER
  0
ACDBPLACEHOLDER
  5
F
102
{ACAD_REACTORS
330
E
102
}
330
E
  0
SCALE
  5
D5
102
{ACAD_REACTORS
330
99
102
}
330
99
100
AcDbScale
 70
     0
300
1:1
140
1.0
141
1.0
290
     1
  0
SCALE
  5
D6
102
{ACAD_REACTORS
330
99
102
}
330
99
100
AcDbScale
 70
     0
300
1:2
140
1.0
141
2.0
290
     0
  0
SCALE
  5
D7
102
{ACAD_REACTORS
330
99
102
}
330
99
100
AcDbScale
 70
     0
300
1:4
140
1.0
141
4.0
290
     0
  0
SCALE
  5
D8
102
{ACAD_REACTORS
330
99
102
}
330
99
100
AcDbScale
 70
     0
300
1:5
140
1.0
141
5.0
290
     0
  0
SCALE
  5
D9
102
{ACAD_REACTORS
330
99
102
}
330
99
100
AcDbScale
 70
     0
300
1:8
140
1.0
141
8.0
290
     0
  0
SCALE
  5
DA
102
{ACAD_REACTORS
330
99
102
}
330
99
100
AcDbScale
 70
     0
300
1:10
140
1.0
141
10.0
290
     0
  0
SCALE
  5
DB
102
{ACAD_REACTORS
330
99
102
}
330
99
100
AcDbScale
 70
     0
300
1:16
140
1.0
141
16.0
290
     0
  0
SCALE
  5
DC
102
{ACAD_REACTORS
330
99
102
}
330
99
100
AcDbScale
 70
     0
300
1:20
140
1.0
141
20.0
290
     0
  0
SCALE
  5
DD
102
{ACAD_REACTORS
330
99
102
}
330
99
100
AcDbScale
 70
     0
300
1:30
140
1.0
141
30.0
290
     0
  0
SCALE
  5
DE
102
{ACAD_REACTORS
330
99
102
}
330
99
100
AcDbScale
 70
     0
300
1:40
140
1.0
141
40.0
290
     0
  0
SCALE
  5
DF
102
{ACAD_REACTORS
330
99
102
}
330
99
100
AcDbScale
 70
     0
300
1:50
140
1.0
141
50.0
290
     0
  0
SCALE
  5
E0
102
{ACAD_REACTORS
330
99
102
}
330
99
100
AcDbScale
 70
     0
300
1:100
140
1.0
141
100.0
290
     0
  0
SCALE
  5
E1
102
{ACAD_REACTORS
330
99
102
}
330
99
100
AcDbScale
 70
     0
300
2:1
140
2.0
141
1.0
290
     0
  0
SCALE
  5
E2
102
{ACAD_REACTORS
330
99
102
}
330
99
100
AcDbScale
 70
     0
300
4:1
140
4.0
141
1.0
290
     0
  0
SCALE
  5
E3
102
{ACAD_REACTORS
330
99
102
}
330
99
100
AcDbScale
 70
     0
300
8:1
140
8.0
141
1.0
290
     0
  0
SCALE
  5
E4
102
{ACAD_REACTORS
330
99
102
}
330
99
100
AcDbScale
 70
     0
300
10:1
140
10.0
141
1.0
290
     0
  0
SCALE
  5
E5
102
{ACAD_REACTORS
330
99
102
}
330
99
100
AcDbScale
 70
     0
300
100:1
140
100.0
141
1.0
290
     0
  0
SCALE
  5
E6
102
{ACAD_REACTORS
330
99
102
}
330
99
100
AcDbScale
 70
     0
300
1/128" = 1'-0"
140
0.0078125
141
12.0
290
     0
  0
SCALE
  5
E7
102
{ACAD_REACTORS
330
99
102
}
330
99
100
AcDbScale
 70
     0
300
1/64" = 1'-0"
140
0.015625
141
12.0
290
     0
  0
SCALE
  5
E8
102
{ACAD_REACTORS
330
99
102
}
330
99
100
AcDbScale
 70
     0
300
1/32" = 1'-0"
140
0.03125
141
12.0
290
     0
  0
SCALE
  5
E9
102
{ACAD_REACTORS
330
99
102
}
330
99
100
AcDbScale
 70
     0
300
1/16" = 1'-0"
140
0.0625
141
12.0
290
     0
  0
SCALE
  5
EA
102
{ACAD_REACTORS
330
99
102
}
330
99
100
AcDbScale
 70
     0
300
3/32" = 1'-0"
140
0.09375
141
12.0
290
     0
  0
SCALE
  5
EB
102
{ACAD_REACTORS
330
99
102
}
330
99
100
AcDbScale
 70
     0
300
1/8" = 1'-0"
140
0.125
141
12.0
290
     0
  0
SCALE
  5
EC
102
{ACAD_REACTORS
330
99
102
}
330
99
100
AcDbScale
 70
     0
300
3/16" = 1'-0"
140
0.1875
141
12.0
290
     0
  0
SCALE
  5
ED
102
{ACAD_REACTORS
330
99
102
}
330
99
100
AcDbScale
 70
     0
300
1/4" = 1'-0"
140
0.25
141
12.0
290
     0
  0
SCALE
  5
EE
102
{ACAD_REACTORS
330
99
102
}
330
99
100
AcDbScale
 70
     0
300
3/8" = 1'-0"
140
0.375
141
12.0
290
     0
  0
SCALE
  5
EF
102
{ACAD_REACTORS
330
99
102
}
330
99
100
AcDbScale
 70
     0
300
1/2" = 1'-0"
140
0.5
141
12.0
290
     0
  0
SCALE
  5
F0
102
{ACAD_REACTORS
330
99
102
}
330
99
100
AcDbScale
 70
     0
300
3/4" = 1'-0"
140
0.75
141
12.0
290
     0
  0
SCALE
  5
F1
102
{ACAD_REACTORS
330
99
102
}
330
99
100
AcDbScale
 70
     0
300
1" = 1'-0"
140
1.0
141
12.0
290
     0
  0
SCALE
  5
F2
102
{ACAD_REACTORS
330
99
102
}
330
99
100
AcDbScale
 70
     0
300
1-1/2" = 1'-0"
140
1.5
141
12.0
290
     0
  0
SCALE
  5
F3
102
{ACAD_REACTORS
330
99
102
}
330
99
100
AcDbScale
 70
     0
300
3" = 1'-0"
140
3.0
141
12.0
290
     0
  0
SCALE
  5
F4
102
{ACAD_REACTORS
330
99
102
}
330
99
100
AcDbScale
 70
     0
300
6" = 1'-0"
140
6.0
141
12.0
290
     0
  0
SCALE
  5
F5
102
{ACAD_REACTORS
330
99
102
}
330
99
100
AcDbScale
 70
     0
300
1'-0" = 1'-0"
140
12.0
141
12.0
290
     0
  0
ACDBSECTIONVIEWSTYLE
  5
175
102
{ACAD_REACTORS
330
174
102
}
102
{ACAD_XDICTIONARY
360
191
102
}
330
174
100
AcDbModelDocViewStyle
 70
     0
  3
Metric50
290
     0
300
Metric50
 90
        0
100
AcDbSectionViewStyle
 70
     0
 71
     0
 90
      102
 71
     1
340
11
 62
   256
 40
5.0
340
0
340
0
 62
   256
 40
5.0
300
I, O, Q, S, X, Z
 40
10.0
 90
        0
 40
2.5
 90
        0
 71
     2
340
16
 90
       25
 62
   256
340
16
 90
       50
 62
   256
 40
5.0
 40
2.5
 40
5.0
 71
     3
340
11
 62
   256
 40
5.0
 90
        0
 40
15.0
 90
        1
300
%<\AcVar ViewSectionStartId>%-%<\AcVar ViewSectionEndId>% (%<\AcVar ViewScale \f "%sn">%)
 71
     4
 62
   256
 62
   257
300
ANSI31
 40
1.0
 90
        0
290
     0
290
     0
 90
        6
 40
0.0
 40
1.570796326794897
 40
0.2617993877991494
 40
1.308996938995747
 40
-0.2617993877991494
 40
1.832595714594046
  0
TABLESTYLE
  5
FA
102
{ACAD_REACTORS
330
92
102
}
102
{ACAD_XDICTIONARY
360
41A
102
}
330
92
100
AcDbTableStyle
  3
Standard
 70
     0
 71
     0
 40
0.06
 41
0.06
280
     0
281
     0
  7
Standard
140
0.18
170
     2
 62
     0
 63
   257
283
     0
 90
      512
 91
        0
  1

274
    -2
284
     1
 64
     0
275
    -2
285
     1
 65
     0
276
    -2
286
     1
 66
     0
277
    -2
287
     1
 67
     0
278
    -2
288
     1
 68
     0
279
    -2
289
     1
 69
     0
  7
Standard
140
0.25
170
     5
 62
     0
 63
   257
283
     0
 90
      512
 91
        0
  1

274
    -2
284
     1
 64
     0
275
    -2
285
     1
 65
     0
276
    -2
286
     1
 66
     0
277
    -2
287
     1
 67
     0
278
    -2
288
     1
 68
     0
279
    -2
289
     1
 69
     0
  7
Standard
140
0.18
170
     5
 62
     0
 63
   257
283
     0
 90
      512
 91
        0
  1

274
    -2
284
     1
 64
     0
275
    -2
285
     1
 65
     0
276
    -2
286
     1
 66
     0
277
    -2
287
     1
 67
     0
278
    -2
288
     1
 68
     0
279
    -2
289
     1
 69
     0
  0
VISUALSTYLE
  5
108
102
{ACAD_REACTORS
330
103
102
}
330
103
100
AcDbVisualStyle
  2
2dWireframe
 70
     4
177
     3
291
     0
 70
    58
 90
        0
176
     1
 90
        2
176
     1
 90
        0
176
     1
 90
        0
176
     1
 40
0.6
176
     1
 40
30.0
176
     1
 62
     7
420
 16777215
176
     1
 90
        1
176
     1
 90
        4
176
     1
 62
     7
176
     1
 62
   257
176
     1
 90
        1
176
     1
 90
        1
176
     1
 40
1.0
176
     1
 90
        0
176
     1
 62
   257
176
     1
 40
1.0
176
     1
 90
        1
176
     1
 90
        6
176
     1
 90
        2
176
     1
 62
     7
176
     1
 90
        5
176
     1
 90
        0
176
     1
 90
        0
176
     1
290
     0
176
     1
 90
        1
176
     1
 40
0.0
176
     1
 90
        0
176
     1
290
     1
176
     1
290
     1
176
     1
290
     0
176
     1
290
     0
176
     1
290
     0
176
     1
290
     0
176
     1
290
     0
176
     1
290
     0
176
     1
290
     0
176
     1
 90
       50
176
     1
 40
0.0
176
     1
 40
1.0
176
     1
 90
        0
176
     1
 62
    18
420
        0
176
     1
 90
       50
176
     1
 90
        3
176
     1
 62
     5
420
      255
176
     1
290
     0
176
     1
 90
       50
176
     1
 90
       50
176
     1
 90
       50
176
     1
290
     0
176
     1
 90
       50
176
     1
 62
   256
176
     0
 40
1.0
176
     0
 90
        2
176
     1
  1
strokes_ogs.tif
176
     1
290
     0
176
     1
 40
1.0
176
     1
 40
1.0
176
     1
  0
VISUALSTYLE
  5
10A
102
{ACAD_REACTORS
330
103
102
}
330
103
100
AcDbVisualStyle
  2
3D Hidden
 70
     6
177
     3
291
     0
 70
    58
 90
        1
176
     1
 90
        2
176
     1
 90
        2
176
     1
 90
        0
176
     1
 40
0.6
176
     1
 40
30.0
176
     1
 62
     7
420
 16777215
176
     1
 90
        2
176
     1
 90
        2
176
     1
 62
     7
176
     1
 62
   257
176
     1
 90
        2
176
     1
 90
        1
176
     1
 40
40.0
176
     1
 90
        0
176
     1
 62
   257
176
     1
 40
1.0
176
     1
 90
        1
176
     1
 90
        6
176
     1
 90
        2
176
     1
 62
     7
176
     1
 90
        3
176
     1
 90
        0
176
     1
 90
        0
176
     1
290
     0
176
     1
 90
        1
176
     1
 40
0.0
176
     1
 90
        0
176
     1
290
     0
176
     1
290
     1
176
     1
290
     1
176
     1
290
     0
176
     1
290
     0
176
     1
290
     0
176
     1
290
     0
176
     1
290
     0
176
     1
290
     0
176
     1
 90
       50
176
     1
 40
0.0
176
     1
 40
1.0
176
     1
 90
        0
176
     1
 62
    18
420
        0
176
     1
 90
       50
176
     1
 90
        3
176
     1
 62
     5
420
      255
176
     1
290
     0
176
     1
 90
       50
176
     1
 90
       50
176
     1
 90
       50
176
     1
290
     0
176
     1
 90
       50
176
     1
 62
   256
176
     0
 40
1.0
176
     0
 90
        2
176
     1
  1
strokes_ogs.tif
176
     1
290
     0
176
     1
 40
1.0
176
     1
 40
1.0
176
     1
  0
VISUALSTYLE
  5
109
102
{ACAD_REACTORS
330
103
102
}
330
103
100
AcDbVisualStyle
  2
3dWireframe
 70
     5
177
     3
291
     0
 70
    58
 90
        0
176
     1
 90
        2
176
     1
 90
        0
176
     1
 90
        0
176
     1
 40
0.6
176
     1
 40
30.0
176
     1
 62
     7
420
 16777215
176
     1
 90
        1
176
     1
 90
        4
176
     1
 62
     7
176
     1
 62
   257
176
     1
 90
        1
176
     1
 90
        1
176
     1
 40
1.0
176
     1
 90
        0
176
     1
 62
   257
176
     1
 40
1.0
176
     1
 90
        1
176
     1
 90
        6
176
     1
 90
        2
176
     1
 62
     7
176
     1
 90
        5
176
     1
 90
        0
176
     1
 90
        0
176
     1
290
     0
176
     1
 90
        1
176
     1
 40
0.0
176
     1
 90
        0
176
     1
290
     0
176
     1
290
     1
176
     1
290
     1
176
     1
290
     0
176
     1
290
     0
176
     1
290
     0
176
     1
290
     0
176
     1
290
     0
176
     1
290
     0
176
     1
 90
       50
176
     1
 40
0.0
176
     1
 40
1.0
176
     1
 90
        0
176
     1
 62
    18
420
        0
176
     1
 90
       50
176
     1
 90
        3
176
     1
 62
     5
420
      255
176
     1
290
     0
176
     1
 90
       50
176
     1
 90
       50
176
     1
 90
       50
176
     1
290
     0
176
     1
 90
       50
176
     1
 62
   256
176
     0
 40
1.0
176
     0
 90
        2
176
     1
  1
strokes_ogs.tif
176
     1
290
     0
176
     1
 40
1.0
176
     1
 40
1.0
176
     1
  0
VISUALSTYLE
  5
10B
102
{ACAD_REACTORS
330
103
102
}
330
103
100
AcDbVisualStyle
  2
Basic
 70
     7
177
     3
291
     1
 70
    58
 90
        1
176
     1
 90
        0
176
     1
 90
        1
176
     1
 90
        0
176
     1
 40
0.6
176
     1
 40
30.0
176
     1
 62
     7
420
 16777215
176
     1
 90
        0
176
     1
 90
        4
176
     1
 62
     7
176
     1
 62
   257
176
     1
 90
        1
176
     1
 90
        1
176
     1
 40
1.0
176
     1
 90
        8
176
     1
 62
     7
176
     1
 40
1.0
176
     1
 90
        1
176
     1
 90
        6
176
     1
 90
        2
176
     1
 62
     7
176
     1
 90
        5
176
     1
 90
        0
176
     1
 90
        0
176
     1
290
     0
176
     1
 90
        1
176
     1
 40
0.0
176
     1
 90
        0
176
     1
290
     0
176
     1
290
     1
176
     1
290
     1
176
     1
290
     0
176
     1
290
     0
176
     1
290
     0
176
     1
290
     0
176
     1
290
     0
176
     1
290
     0
176
     1
 90
       50
176
     1
 40
0.0
176
     1
 40
1.0
176
     1
 90
        0
176
     1
 62
    18
420
        0
176
     1
 90
       50
176
     1
 90
        3
176
     1
 62
     5
420
      255
176
     1
290
     0
176
     1
 90
       50
176
     1
 90
       50
176
     1
 90
       50
176
     1
290
     0
176
     1
 90
       50
176
     1
 62
   256
176
     0
 40
1.0
176
     0
 90
        2
176
     1
  1
strokes_ogs.tif
176
     1
290
     0
176
     1
 40
1.0
176
     1
 40
1.0
176
     1
  0
VISUALSTYLE
  5
10F
102
{ACAD_REACTORS
330
103
102
}
330
103
100
AcDbVisualStyle
  2
Brighten
 70
    12
177
     3
291
     1
 70
    58
 90
        2
176
     1
 90
        2
176
     1
 90
        0
176
     1
 90
        0
176
     1
 40
0.6
176
     1
 40
30.0
176
     1
 62
     7
420
 16777215
176
     1
 90
        1
176
     1
 90
        4
176
     1
 62
     7
176
     1
 62
   257
176
     1
 90
        1
176
     1
 90
        1
176
     1
 40
1.0
176
     1
 90
        8
176
     1
 62
     7
176
     1
 40
1.0
176
     1
 90
        1
176
     1
 90
        6
176
     1
 90
        2
176
     1
 62
     7
176
     1
 90
        5
176
     1
 90
        0
176
     1
 90
        0
176
     1
290
     0
176
     1
 90
        1
176
     1
 40
50.0
176
     1
 90
        0
176
     1
290
     0
176
     1
290
     1
176
     1
290
     1
176
     1
290
     0
176
     1
290
     0
176
     1
290
     0
176
     1
290
     0
176
     1
290
     0
176
     1
290
     0
176
     1
 90
       50
176
     1
 40
0.0
176
     1
 40
1.0
176
     1
 90
        0
176
     1
 62
    18
420
        0
176
     1
 90
       50
176
     1
 90
        3
176
     1
 62
     5
420
      255
176
     1
290
     0
176
     1
 90
       50
176
     1
 90
       50
176
     1
 90
       50
176
     1
290
     0
176
     1
 90
       50
176
     1
 62
   256
176
     0
 40
1.0
176
     0
 90
        2
176
     1
  1
strokes_ogs.tif
176
     1
290
     0
176
     1
 40
1.0
176
     1
 40
1.0
176
     1
  0
VISUALSTYLE
  5
113
102
{ACAD_REACTORS
330
103
102
}
330
103
100
AcDbVisualStyle
  2
ColorChange
 70
    16
177
     3
291
     1
 70
    58
 90
        2
176
     1
 90
        2
176
     1
 90
        3
176
     1
 90
        0
176
     1
 40
0.6
176
     1
 40
30.0
176
     1
 62
     8
420
  8421504
176
     1
 90
        1
176
     1
 90
        4
176
     1
 62
     7
176
     1
 62
   257
176
     1
 90
        1
176
     1
 90
        1
176
     1
 40
1.0
176
     1
 90
        8
176
     1
 62
     8
420
  8421504
176
     1
 40
1.0
176
     1
 90
        1
176
     1
 90
        6
176
     1
 90
        2
176
     1
 62
     7
176
     1
 90
        5
176
     1
 90
        0
176
     1
 90
        0
176
     1
290
     0
176
     1
 90
        1
176
     1
 40
0.0
176
     1
 90
        0
176
     1
290
     0
176
     1
290
     1
176
     1
290
     1
176
     1
290
     0
176
     1
290
     0
176
     1
290
     0
176
     1
290
     0
176
     1
290
     0
176
     1
290
     0
176
     1
 90
       50
176
     1
 40
0.0
176
     1
 40
1.0
176
     1
 90
        0
176
     1
 62
    18
420
        0
176
     1
 90
       50
176
     1
 90
        3
176
     1
 62
     5
420
      255
176
     1
290
     0
176
     1
 90
       50
176
     1
 90
       50
176
     1
 90
       50
176
     1
290
     0
176
     1
 90
       50
176
     1
 62
   256
176
     0
 40
1.0
176
     0
 90
        2
176
     1
  1
strokes_ogs.tif
176
     1
290
     0
176
     1
 40
1.0
176
     1
 40
1.0
176
     1
  0
VISUALSTYLE
  5
10D
102
{ACAD_REACTORS
330
103
102
}
330
103
100
AcDbVisualStyle
  2
Conceptual
 70
     9
177
     3
291
     0
 70
    58
 90
        3
176
     1
 90
        2
176
     1
 90
        0
176
     1
 90
        0
176
     1
 40
0.6
176
     1
 40
30.0
176
     1
 62
     7
420
 16777215
176
     1
 90
        2
176
     1
 90
        2
176
     1
 62
     7
176
     1
 62
   257
176
     1
 90
        1
176
     1
 90
        1
176
     1
 40
40.0
176
     1
 90
        8
176
     1
 62
     7
176
     1
 40
1.0
176
     1
 90
        1
176
     1
 90
        6
176
     1
 90
        2
176
     1
 62
     7
176
     1
 90
        3
176
     1
 90
        0
176
     1
 90
        0
176
     1
290
     0
176
     1
 90
        1
176
     1
 40
0.0
176
     1
 90
        0
176
     1
290
     0
176
     1
290
     1
176
     1
290
     1
176
     1
290
     0
176
     1
290
     0
176
     1
290
     0
176
     1
290
     0
176
     1
290
     0
176
     1
290
     0
176
     1
 90
       50
176
     1
 40
0.0
176
     1
 40
1.0
176
     1
 90
        0
176
     1
 62
    18
420
        0
176
     1
 90
       50
176
     1
 90
        3
176
     1
 62
     5
420
      255
176
     1
290
     0
176
     1
 90
       50
176
     1
 90
       50
176
     1
 90
       50
176
     1
290
     0
176
     1
 90
       50
176
     1
 62
   256
176
     0
 40
1.0
176
     0
 90
        2
176
     1
  1
strokes_ogs.tif
176
     1
290
     0
176
     1
 40
1.0
176
     1
 40
1.0
176
     1
  0
VISUALSTYLE
  5
10E
102
{ACAD_REACTORS
330
103
102
}
330
103
100
AcDbVisualStyle
  2
Dim
 70
    11
177
     3
291
     1
 70
    58
 90
        2
176
     1
 90
        2
176
     1
 90
        0
176
     1
 90
        0
176
     1
 40
0.6
176
     1
 40
30.0
176
     1
 62
     7
420
 16777215
176
     1
 90
        1
176
     1
 90
        4
176
     1
 62
     7
176
     1
 62
   257
176
     1
 90
        1
176
     1
 90
        1
176
     1
 40
1.0
176
     1
 90
        8
176
     1
 62
     7
176
     1
 40
1.0
176
     1
 90
        1
176
     1
 90
        6
176
     1
 90
        2
176
     1
 62
     7
176
     1
 90
        5
176
     1
 90
        0
176
     1
 90
        0
176
     1
290
     0
176
     1
 90
        1
176
     1
 40
-50.0
176
     1
 90
        0
176
     1
290
     0
176
     1
290
     1
176
     1
290
     1
176
     1
290
     0
176
     1
290
     0
176
     1
290
     0
176
     1
290
     0
176
     1
290
     0
176
     1
290
     0
176
     1
 90
       50
176
     1
 40
0.0
176
     1
 40
1.0
176
     1
 90
        0
176
     1
 62
    18
420
        0
176
     1
 90
       50
176
     1
 90
        3
176
     1
 62
     5
420
      255
176
     1
290
     0
176
     1
 90
       50
176
     1
 90
       50
176
     1
 90
       50
176
     1
290
     0
176
     1
 90
       50
176
     1
 62
   256
176
     0
 40
1.0
176
     0
 90
        2
176
     1
  1
strokes_ogs.tif
176
     1
290
     0
176
     1
 40
1.0
176
     1
 40
1.0
176
     1
  0
VISUALSTYLE
  5
172
102
{ACAD_REACTORS
330
103
102
}
330
103
100
AcDbVisualStyle
  2
EdgeColorOff
 70
    22
177
     3
291
     1
 70
    58
 90
        2
176
     0
 90
        2
176
     0
 90
        0
176
     0
 90
        0
176
     0
 40
0.6
176
     0
 40
30.0
176
     0
 62
     7
420
 16777215
176
     0
 90
        1
176
     0
 90
        4
176
     0
 62
     7
176
     0
 62
   257
176
     0
 90
        1
176
     0
 90
        1
176
     0
 40
1.0
176
     0
 90
        8
176
     2
 62
     7
176
     0
 40
1.0
176
     0
 90
        1
176
     0
 90
        6
176
     0
 90
        2
176
     0
 62
     7
176
     0
 90
        5
176
     0
 90
        0
176
     0
 90
        0
176
     0
290
     0
176
     0
 90
        1
176
     0
 40
0.0
176
     0
 90
        0
176
     0
290
     0
176
     1
290
     1
176
     1
290
     1
176
     1
290
     0
176
     1
290
     0
176
     1
290
     0
176
     1
290
     0
176
     1
290
     0
176
     1
290
     0
176
     1
 90
       50
176
     1
 40
0.0
176
     1
 40
1.0
176
     1
 90
        0
176
     1
 62
    18
420
        0
176
     1
 90
       50
176
     1
 90
        3
176
     1
 62
     5
420
      255
176
     1
290
     0
176
     1
 90
       50
176
     1
 90
       50
176
     1
 90
       50
176
     1
290
     0
176
     1
 90
       50
176
     1
 62
   256
176
     0
 40
1.0
176
     0
 90
        2
176
     1
  1
strokes_ogs.tif
176
     1
290
     0
176
     1
 40
1.0
176
     1
 40
1.0
176
     1
  0
VISUALSTYLE
  5
112
102
{ACAD_REACTORS
330
103
102
}
330
103
100
AcDbVisualStyle
  2
Facepattern
 70
    15
177
     3
291
     1
 70
    58
 90
        2
176
     1
 90
        2
176
     1
 90
        0
176
     1
 90
        0
176
     1
 40
0.6
176
     1
 40
30.0
176
     1
 62
     7
420
 16777215
176
     1
 90
        1
176
     1
 90
        4
176
     1
 62
     7
176
     1
 62
   257
176
     1
 90
        1
176
     1
 90
        1
176
     1
 40
1.0
176
     1
 90
        8
176
     1
 62
     7
176
     1
 40
1.0
176
     1
 90
        1
176
     1
 90
        6
176
     1
 90
        2
176
     1
 62
     7
176
     1
 90
        5
176
     1
 90
        0
176
     1
 90
        0
176
     1
290
     0
176
     1
 90
        1
176
     1
 40
0.0
176
     1
 90
        0
176
     1
290
     0
176
     1
290
     1
176
     1
290
     1
176
     1
290
     0
176
     1
290
     0
176
     1
290
     0
176
     1
290
     0
176
     1
290
     0
176
     1
290
     0
176
     1
 90
       50
176
     1
 40
0.0
176
     1
 40
1.0
176
     1
 90
        0
176
     1
 62
    18
420
        0
176
     1
 90
       50
176
     1
 90
        3
176
     1
 62
     5
420
      255
176
     1
290
     0
176
     1
 90
       50
176
     1
 90
       50
176
     1
 90
       50
176
     1
290
     0
176
     1
 90
       50
176
     1
 62
   256
176
     0
 40
1.0
176
     0
 90
        2
176
     1
  1
strokes_ogs.tif
176
     1
290
     0
176
     1
 40
1.0
176
     1
 40
1.0
176
     1
  0
VISUALSTYLE
  5
104
102
{ACAD_REACTORS
330
103
102
}
330
103
100
AcDbVisualStyle
  2
Flat
 70
     0
177
     3
291
     1
 70
    58
 90
        2
176
     1
 90
        1
176
     1
 90
        1
176
     1
 90
        2
176
     1
 40
0.6
176
     1
 40
30.0
176
     1
 62
     7
420
 16777215
176
     1
 90
        0
176
     1
 90
        4
176
     1
 62
     7
176
     1
 62
   257
176
     1
 90
        1
176
     1
 90
        1
176
     1
 40
1.0
176
     1
 90
        8
176
     1
 62
     7
176
     1
 40
1.0
176
     1
 90
        1
176
     1
 90
        6
176
     1
 90
        2
176
     1
 62
     7
176
     1
 90
        5
176
     1
 90
        0
176
     1
 90
        0
176
     1
290
     0
176
     1
 90
       13
176
     1
 40
0.0
176
     1
 90
        0
176
     1
290
     0
176
     1
290
     1
176
     1
290
     1
176
     1
290
     0
176
     1
290
     0
176
     1
290
     0
176
     1
290
     0
176
     1
290
     0
176
     1
290
     0
176
     1
 90
       50
176
     1
 40
0.0
176
     1
 40
1.0
176
     1
 90
        0
176
     1
 62
    18
420
        0
176
     1
 90
       50
176
     1
 90
        3
176
     1
 62
     5
420
      255
176
     1
290
     0
176
     1
 90
       50
176
     1
 90
       50
176
     1
 90
       50
176
     1
290
     0
176
     1
 90
       50
176
     1
 62
   256
176
     0
 40
1.0
176
     0
 90
        2
176
     1
  1
strokes_ogs.tif
176
     1
290
     0
176
     1
 40
1.0
176
     1
 40
1.0
176
     1
  0
VISUALSTYLE
  5
105
102
{ACAD_REACTORS
330
103
102
}
330
103
100
AcDbVisualStyle
  2
FlatWithEdges
 70
     1
177
     3
291
     1
 70
    58
 90
        2
176
     1
 90
        1
176
     1
 90
        1
176
     1
 90
        2
176
     1
 40
0.6
176
     1
 40
30.0
176
     1
 62
     7
420
 16777215
176
     1
 90
        1
176
     1
 90
        4
176
     1
 62
     7
176
     1
 62
   257
176
     1
 90
        1
176
     1
 90
        1
176
     1
 40
1.0
176
     1
 90
        0
176
     1
 62
   257
176
     1
 40
1.0
176
     1
 90
        1
176
     1
 90
        6
176
     1
 90
        2
176
     1
 62
     7
176
     1
 90
        5
176
     1
 90
        0
176
     1
 90
        0
176
     1
290
     0
176
     1
 90
       13
176
     1
 40
0.0
176
     1
 90
        0
176
     1
290
     0
176
     1
290
     1
176
     1
290
     1
176
     1
290
     0
176
     1
290
     0
176
     1
290
     0
176
     1
290
     0
176
     1
290
     0
176
     1
290
     0
176
     1
 90
       50
176
     1
 40
0.0
176
     1
 40
1.0
176
     1
 90
        0
176
     1
 62
    18
420
        0
176
     1
 90
       50
176
     1
 90
        3
176
     1
 62
     5
420
      255
176
     1
290
     0
176
     1
 90
       50
176
     1
 90
       50
176
     1
 90
       50
176
     1
290
     0
176
     1
 90
       50
176
     1
 62
   256
176
     0
 40
1.0
176
     0
 90
        2
176
     1
  1
strokes_ogs.tif
176
     1
290
     0
176
     1
 40
1.0
176
     1
 40
1.0
176
     1
  0
VISUALSTYLE
  5
106
102
{ACAD_REACTORS
330
103
102
}
330
103
100
AcDbVisualStyle
  2
Gouraud
 70
     2
177
     3
291
     1
 70
    58
 90
        2
176
     1
 90
        2
176
     1
 90
        1
176
     1
 90
        2
176
     1
 40
0.6
176
     1
 40
30.0
176
     1
 62
     7
420
 16777215
176
     1
 90
        0
176
     1
 90
        4
176
     1
 62
     7
176
     1
 62
   257
176
     1
 90
        1
176
     1
 90
        1
176
     1
 40
1.0
176
     1
 90
        0
176
     1
 62
     7
176
     1
 40
1.0
176
     1
 90
        1
176
     1
 90
        6
176
     1
 90
        2
176
     1
 62
     7
176
     1
 90
        5
176
     1
 90
        0
176
     1
 90
        0
176
     1
290
     0
176
     1
 90
       13
176
     1
 40
0.0
176
     1
 90
        0
176
     1
290
     0
176
     1
290
     1
176
     1
290
     1
176
     1
290
     0
176
     1
290
     0
176
     1
290
     0
176
     1
290
     0
176
     1
290
     0
176
     1
290
     0
176
     1
 90
       50
176
     1
 40
0.0
176
     1
 40
1.0
176
     1
 90
        0
176
     1
 62
    18
420
        0
176
     1
 90
       50
176
     1
 90
        3
176
     1
 62
     5
420
      255
176
     1
290
     0
176
     1
 90
       50
176
     1
 90
       50
176
     1
 90
       50
176
     1
290
     0
176
     1
 90
       50
176
     1
 62
   256
176
     0
 40
1.0
176
     0
 90
        2
176
     1
  1
strokes_ogs.tif
176
     1
290
     0
176
     1
 40
1.0
176
     1
 40
1.0
176
     1
  0
VISUALSTYLE
  5
107
102
{ACAD_REACTORS
330
103
102
}
330
103
100
AcDbVisualStyle
  2
GouraudWithEdges
 70
     3
177
     3
291
     1
 70
    58
 90
        2
176
     1
 90
        2
176
     1
 90
        1
176
     1
 90
        2
176
     1
 40
0.6
176
     1
 40
30.0
176
     1
 62
     7
420
 16777215
176
     1
 90
        1
176
     1
 90
        4
176
     1
 62
     7
176
     1
 62
   257
176
     1
 90
        1
176
     1
 90
        1
176
     1
 40
1.0
176
     1
 90
        0
176
     1
 62
   257
176
     1
 40
1.0
176
     1
 90
        1
176
     1
 90
        6
176
     1
 90
        2
176
     1
 62
     7
176
     1
 90
        5
176
     1
 90
        0
176
     1
 90
        0
176
     1
290
     0
176
     1
 90
       13
176
     1
 40
0.0
176
     1
 90
        0
176
     1
290
     0
176
     1
290
     1
176
     1
290
     1
176
     1
290
     0
176
     1
290
     0
176
     1
290
     0
176
     1
290
     0
176
     1
290
     0
176
     1
290
     0
176
     1
 90
       50
176
     1
 40
0.0
176
     1
 40
1.0
176
     1
 90
        0
176
     1
 62
    18
420
        0
176
     1
 90
       50
176
     1
 90
        3
176
     1
 62
     5
420
      255
176
     1
290
     0
176
     1
 90
       50
176
     1
 90
       50
176
     1
 90
       50
176
     1
290
     0
176
     1
 90
       50
176
     1
 62
   256
176
     0
 40
1.0
176
     0
 90
        2
176
     1
  1
strokes_ogs.tif
176
     1
290
     0
176
     1
 40
1.0
176
     1
 40
1.0
176
     1
  0
VISUALSTYLE
  5
16A
102
{ACAD_REACTORS
330
103
102
}
330
103
100
AcDbVisualStyle
  2
Hidden
 70
     6
177
     3
291
     0
 70
    58
 90
        1
176
     1
 90
        2
176
     1
 90
        2
176
     1
 90
        0
176
     1
 40
0.6
176
     1
 40
30.0
176
     1
 62
     7
420
 16777215
176
     1
 90
        2
176
     1
 90
        2
176
     1
 62
     7
176
     1
 62
   257
176
     1
 90
        2
176
     1
 90
        1
176
     1
 40
40.0
176
     1
 90
        0
176
     1
 62
   257
176
     1
 40
1.0
176
     1
 90
        1
176
     1
 90
        6
176
     1
 90
        2
176
     1
 62
     7
176
     1
 90
        3
176
     1
 90
        0
176
     1
 90
        0
176
     1
290
     0
176
     1
 90
        1
176
     1
 40
0.0
176
     1
 90
        0
176
     1
290
     0
176
     1
290
     1
176
     1
290
     1
176
     1
290
     0
176
     1
290
     0
176
     1
290
     0
176
     1
290
     0
176
     1
290
     0
176
     1
290
     0
176
     1
 90
       50
176
     1
 40
0.0
176
     1
 40
1.0
176
     1
 90
        0
176
     1
 62
    18
420
        0
176
     1
 90
       50
176
     1
 90
        3
176
     1
 62
     5
420
      255
176
     1
290
     0
176
     1
 90
       50
176
     1
 90
       50
176
     1
 90
       50
176
     1
290
     0
176
     1
 90
       50
176
     1
 62
   256
176
     0
 40
1.0
176
     0
 90
        2
176
     1
  1
strokes_ogs.tif
176
     1
290
     0
176
     1
 40
1.0
176
     1
 40
1.0
176
     1
  0
VISUALSTYLE
  5
170
102
{ACAD_REACTORS
330
103
102
}
330
103
100
AcDbVisualStyle
  2
JitterOff
 70
    20
177
     3
291
     1
 70
    58
 90
        2
176
     0
 90
        2
176
     0
 90
        0
176
     0
 90
        0
176
     0
 40
0.6
176
     0
 40
30.0
176
     0
 62
     7
420
 16777215
176
     0
 90
        1
176
     0
 90
        4
176
     0
 62
     7
176
     0
 62
   257
176
     0
 90
        1
176
     0
 90
        1
176
     0
 40
1.0
176
     0
 90
       10
176
     2
 62
     7
176
     0
 40
1.0
176
     0
 90
        1
176
     0
 90
        6
176
     0
 90
        2
176
     0
 62
     7
176
     0
 90
        5
176
     0
 90
        0
176
     0
 90
        0
176
     0
290
     0
176
     0
 90
        1
176
     0
 40
0.0
176
     0
 90
        0
176
     0
290
     0
176
     1
290
     1
176
     1
290
     1
176
     1
290
     0
176
     1
290
     0
176
     1
290
     0
176
     1
290
     0
176
     1
290
     0
176
     1
290
     0
176
     1
 90
       50
176
     1
 40
0.0
176
     1
 40
1.0
176
     1
 90
        0
176
     1
 62
    18
420
        0
176
     1
 90
       50
176
     1
 90
        3
176
     1
 62
     5
420
      255
176
     1
290
     0
176
     1
 90
       50
176
     1
 90
       50
176
     1
 90
       50
176
     1
290
     0
176
     1
 90
       50
176
     1
 62
   256
176
     0
 40
1.0
176
     0
 90
        2
176
     1
  1
strokes_ogs.tif
176
     1
290
     0
176
     1
 40
1.0
176
     1
 40
1.0
176
     1
  0
VISUALSTYLE
  5
111
102
{ACAD_REACTORS
330
103
102
}
330
103
100
AcDbVisualStyle
  2
Linepattern
 70
    14
177
     3
291
     1
 70
    58
 90
        2
176
     1
 90
        2
176
     1
 90
        0
176
     1
 90
        0
176
     1
 40
0.6
176
     1
 40
30.0
176
     1
 62
     7
420
 16777215
176
     1
 90
        1
176
     1
 90
        4
176
     1
 62
     7
176
     1
 62
   257
176
     1
 90
        7
176
     1
 90
        7
176
     1
 40
1.0
176
     1
 90
        8
176
     1
 62
     7
176
     1
 40
1.0
176
     1
 90
        1
176
     1
 90
        6
176
     1
 90
        2
176
     1
 62
     7
176
     1
 90
        5
176
     1
 90
        0
176
     1
 90
        0
176
     1
290
     0
176
     1
 90
        1
176
     1
 40
0.0
176
     1
 90
        0
176
     1
290
     0
176
     1
290
     1
176
     1
290
     1
176
     1
290
     0
176
     1
290
     0
176
     1
290
     0
176
     1
290
     0
176
     1
290
     0
176
     1
290
     0
176
     1
 90
       50
176
     1
 40
0.0
176
     1
 40
1.0
176
     1
 90
        0
176
     1
 62
    18
420
        0
176
     1
 90
       50
176
     1
 90
        3
176
     1
 62
     5
420
      255
176
     1
290
     0
176
     1
 90
       50
176
     1
 90
       50
176
     1
 90
       50
176
     1
290
     0
176
     1
 90
       50
176
     1
 62
   256
176
     0
 40
1.0
176
     0
 90
        2
176
     1
  1
strokes_ogs.tif
176
     1
290
     0
176
     1
 40
1.0
176
     1
 40
1.0
176
     1
  0
VISUALSTYLE
  5
171
102
{ACAD_REACTORS
330
103
102
}
330
103
100
AcDbVisualStyle
  2
OverhangOff
 70
    21
177
     3
291
     1
 70
    58
 90
        2
176
     0
 90
        2
176
     0
 90
        0
176
     0
 90
        0
176
     0
 40
0.6
176
     0
 40
30.0
176
     0
 62
     7
420
 16777215
176
     0
 90
        1
176
     0
 90
        4
176
     0
 62
     7
176
     0
 62
   257
176
     0
 90
        1
176
     0
 90
        1
176
     0
 40
1.0
176
     0
 90
        9
176
     2
 62
     7
176
     0
 40
1.0
176
     0
 90
        1
176
     0
 90
        6
176
     0
 90
        2
176
     0
 62
     7
176
     0
 90
        5
176
     0
 90
        0
176
     0
 90
        0
176
     0
290
     0
176
     0
 90
        1
176
     0
 40
0.0
176
     0
 90
        0
176
     0
290
     0
176
     1
290
     1
176
     1
290
     1
176
     1
290
     0
176
     1
290
     0
176
     1
290
     0
176
     1
290
     0
176
     1
290
     0
176
     1
290
     0
176
     1
 90
       50
176
     1
 40
0.0
176
     1
 40
1.0
176
     1
 90
        0
176
     1
 62
    18
420
        0
176
     1
 90
       50
176
     1
 90
        3
176
     1
 62
     5
420
      255
176
     1
290
     0
176
     1
 90
       50
176
     1
 90
       50
176
     1
 90
       50
176
     1
290
     0
176
     1
 90
       50
176
     1
 62
   256
176
     0
 40
1.0
176
     0
 90
        2
176
     1
  1
strokes_ogs.tif
176
     1
290
     0
176
     1
 40
1.0
176
     1
 40
1.0
176
     1
  0
VISUALSTYLE
  5
10C
102
{ACAD_REACTORS
330
103
102
}
330
103
100
AcDbVisualStyle
  2
Realistic
 70
     8
177
     3
291
     0
 70
    58
 90
        2
176
     1
 90
        2
176
     1
 90
        0
176
     1
 90
        0
176
     1
 40
0.6
176
     1
 40
30.0
176
     1
 62
     7
420
 16777215
176
     1
 90
        1
176
     1
 90
        0
176
     1
 62
     7
176
     1
 62
   257
176
     1
 90
        1
176
     1
 90
        1
176
     1
 40
1.0
176
     1
 90
        8
176
     1
 62
     8
420
  7895160
176
     1
 40
1.0
176
     1
 90
        1
176
     1
 90
        6
176
     1
 90
        2
176
     1
 62
     7
176
     1
 90
        5
176
     1
 90
        0
176
     1
 90
        0
176
     1
290
     0
176
     1
 90
       13
176
     1
 40
0.0
176
     1
 90
        0
176
     1
290
     0
176
     1
290
     1
176
     1
290
     1
176
     1
290
     0
176
     1
290
     0
176
     1
290
     0
176
     1
290
     0
176
     1
290
     0
176
     1
290
     0
176
     1
 90
       50
176
     1
 40
0.0
176
     1
 40
1.0
176
     1
 90
        0
176
     1
 62
    18
420
        0
176
     1
 90
       50
176
     1
 90
        3
176
     1
 62
     5
420
      255
176
     1
290
     0
176
     1
 90
       50
176
     1
 90
       50
176
     1
 90
       50
176
     1
290
     0
176
     1
 90
       50
176
     1
 62
   256
176
     0
 40
1.0
176
     0
 90
        2
176
     1
  1
strokes_ogs.tif
176
     1
290
     0
176
     1
 40
1.0
176
     1
 40
1.0
176
     1
  0
VISUALSTYLE
  5
16F
102
{ACAD_REACTORS
330
103
102
}
330
103
100
AcDbVisualStyle
  2
Shaded
 70
    27
177
     3
291
     0
 70
    58
 90
        2
176
     1
 90
        2
176
     1
 90
        1
176
     1
 90
        2
176
     1
 40
0.6
176
     1
 40
30.0
176
     1
 62
     7
420
 16777215
176
     1
 90
        0
176
     1
 90
        4
176
     1
 62
     7
176
     1
 62
   257
176
     1
 90
        1
176
     1
 90
        1
176
     1
 40
1.0
176
     1
 90
        8
176
     1
 62
   257
176
     1
 40
1.0
176
     1
 90
        1
176
     1
 90
        6
176
     1
 90
        2
176
     1
 62
     8
420
  7895160
176
     1
 90
        3
176
     1
 90
        0
176
     1
 90
        0
176
     1
290
     0
176
     1
 90
        5
176
     1
 40
0.0
176
     1
 90
        0
176
     1
290
     0
176
     1
290
     1
176
     1
290
     1
176
     1
290
     0
176
     1
290
     0
176
     1
290
     0
176
     1
290
     0
176
     1
290
     0
176
     1
290
     0
176
     1
 90
       50
176
     1
 40
0.0
176
     1
 40
1.0
176
     1
 90
        0
176
     1
 62
    18
420
        0
176
     1
 90
       50
176
     1
 90
        3
176
     1
 62
     5
420
      255
176
     1
290
     0
176
     1
 90
       50
176
     1
 90
       50
176
     1
 90
       50
176
     1
290
     0
176
     1
 90
       50
176
     1
 62
   256
176
     0
 40
1.0
176
     0
 90
        2
176
     1
  1
strokes_ogs.tif
176
     1
290
     0
176
     1
 40
1.0
176
     1
 40
1.0
176
     1
  0
VISUALSTYLE
  5
16E
102
{ACAD_REACTORS
330
103
102
}
330
103
100
AcDbVisualStyle
  2
Shaded with edges
 70
    26
177
     3
291
     0
 70
    58
 90
        2
176
     1
 90
        2
176
     1
 90
        1
176
     1
 90
        2
176
     1
 40
0.6
176
     1
 40
30.0
176
     1
 62
     7
420
 16777215
176
     1
 90
        1
176
     1
 90
       10
176
     1
 62
     7
176
     1
 62
   257
176
     1
 90
        2
176
     1
 90
        1
176
     1
 40
1.0
176
     1
 90
        8
176
     1
 62
   257
176
     1
 40
1.0
176
     1
 90
        1
176
     1
 90
        6
176
     1
 90
        2
176
     1
 62
     7
176
     1
 90
        3
176
     1
 90
        0
176
     1
 90
        0
176
     1
290
     0
176
     1
 90
        5
176
     1
 40
0.0
176
     1
 90
        0
176
     1
290
     0
176
     1
290
     1
176
     1
290
     1
176
     1
290
     0
176
     1
290
     0
176
     1
290
     0
176
     1
290
     0
176
     1
290
     0
176
     1
290
     0
176
     1
 90
       50
176
     1
 40
0.0
176
     1
 40
1.0
176
     1
 90
        0
176
     1
 62
    18
420
        0
176
     1
 90
       50
176
     1
 90
        3
176
     1
 62
     5
420
      255
176
     1
290
     0
176
     1
 90
       50
176
     1
 90
       50
176
     1
 90
       50
176
     1
290
     0
176
     1
 90
       50
176
     1
 62
   256
176
     0
 40
1.0
176
     0
 90
        2
176
     1
  1
strokes_ogs.tif
176
     1
290
     0
176
     1
 40
1.0
176
     1
 40
1.0
176
     1
  0
VISUALSTYLE
  5
16B
102
{ACAD_REACTORS
330
103
102
}
330
103
100
AcDbVisualStyle
  2
Shades of Gray
 70
    23
177
     3
291
     0
 70
    58
 90
        2
176
     1
 90
        2
176
     1
 90
        3
176
     1
 90
        0
176
     1
 40
0.6
176
     1
 40
30.0
176
     1
 62
     7
420
 16777215
176
     1
 90
        2
176
     1
 90
        2
176
     1
 62
     7
176
     1
 62
     7
176
     1
 90
        1
176
     1
 90
        1
176
     1
 40
40.0
176
     1
 90
        8
176
     1
 62
     7
176
     1
 40
1.0
176
     1
 90
        1
176
     1
 90
        6
176
     1
 90
        2
176
     1
 62
     7
176
     1
 90
        3
176
     1
 90
        0
176
     1
 90
        0
176
     1
290
     0
176
     1
 90
        1
176
     1
 40
0.0
176
     1
 90
        0
176
     1
290
     0
176
     1
290
     1
176
     1
290
     1
176
     1
290
     0
176
     1
290
     0
176
     1
290
     0
176
     1
290
     0
176
     1
290
     0
176
     1
290
     0
176
     1
 90
       50
176
     1
 40
0.0
176
     1
 40
1.0
176
     1
 90
        0
176
     1
 62
    18
420
        0
176
     1
 90
       50
176
     1
 90
        3
176
     1
 62
     5
420
      255
176
     1
290
     0
176
     1
 90
       50
176
     1
 90
       50
176
     1
 90
       50
176
     1
290
     0
176
     1
 90
       50
176
     1
 62
   256
176
     0
 40
1.0
176
     0
 90
        2
176
     1
  1
strokes_ogs.tif
176
     1
290
     0
176
     1
 40
1.0
176
     1
 40
1.0
176
     1
  0
VISUALSTYLE
  5
16C
102
{ACAD_REACTORS
330
103
102
}
330
103
100
AcDbVisualStyle
  2
Sketchy
 70
    24
177
     3
291
     0
 70
    58
 90
        1
176
     1
 90
        2
176
     1
 90
        2
176
     1
 90
        0
176
     1
 40
0.6
176
     1
 40
30.0
176
     1
 62
     7
420
 16777215
176
     1
 90
        2
176
     1
 90
        2
176
     1
 62
     7
176
     1
 62
     7
176
     1
 90
        1
176
     1
 90
        1
176
     1
 40
40.0
176
     1
 90
       11
176
     1
 62
     7
176
     1
 40
1.0
176
     1
 90
        1
176
     1
 90
        6
176
     1
 90
        2
176
     1
 62
     7
176
     1
 90
        6
176
     1
 90
        0
176
     1
 90
        0
176
     1
290
     0
176
     1
 90
        1
176
     1
 40
0.0
176
     1
 90
        0
176
     1
290
     0
176
     1
290
     1
176
     1
290
     1
176
     1
290
     0
176
     1
290
     0
176
     1
290
     0
176
     1
290
     0
176
     1
290
     0
176
     1
290
     0
176
     1
 90
       50
176
     1
 40
0.0
176
     1
 40
1.0
176
     1
 90
        0
176
     1
 62
    18
420
        0
176
     1
 90
       50
176
     1
 90
        3
176
     1
 62
     5
420
      255
176
     1
290
     0
176
     1
 90
       50
176
     1
 90
       50
176
     1
 90
       50
176
     1
290
     0
176
     1
 90
       50
176
     1
 62
   256
176
     0
 40
1.0
176
     0
 90
        2
176
     1
  1
strokes_ogs.tif
176
     1
290
     0
176
     1
 40
1.0
176
     1
 40
1.0
176
     1
  0
VISUALSTYLE
  5
110
102
{ACAD_REACTORS
330
103
102
}
330
103
100
AcDbVisualStyle
  2
Thicken
 70
    13
177
     3
291
     1
 70
    58
 90
        2
176
     1
 90
        2
176
     1
 90
        0
176
     1
 90
        0
176
     1
 40
0.6
176
     1
 40
30.0
176
     1
 62
     7
420
 16777215
176
     1
 90
        1
176
     1
 90
        4
176
     1
 62
     7
176
     1
 62
   257
176
     1
 90
        1
176
     1
 90
        1
176
     1
 40
1.0
176
     1
 90
       12
176
     1
 62
     7
176
     1
 40
1.0
176
     1
 90
        1
176
     1
 90
        6
176
     1
 90
        2
176
     1
 62
     7
176
     1
 90
        5
176
     1
 90
        0
176
     1
 90
        0
176
     1
290
     0
176
     1
 90
        1
176
     1
 40
0.0
176
     1
 90
        0
176
     1
290
     0
176
     1
290
     1
176
     1
290
     1
176
     1
290
     0
176
     1
290
     0
176
     1
290
     0
176
     1
290
     0
176
     1
290
     0
176
     1
290
     0
176
     1
 90
       50
176
     1
 40
0.0
176
     1
 40
1.0
176
     1
 90
        0
176
     1
 62
    18
420
        0
176
     1
 90
       50
176
     1
 90
        3
176
     1
 62
     5
420
      255
176
     1
290
     0
176
     1
 90
       50
176
     1
 90
       50
176
     1
 90
       50
176
     1
290
     0
176
     1
 90
       50
176
     1
 62
   256
176
     0
 40
1.0
176
     0
 90
        2
176
     1
  1
strokes_ogs.tif
176
     1
290
     0
176
     1
 40
1.0
176
     1
 40
1.0
176
     1
  0
VISUALSTYLE
  5
169
102
{ACAD_REACTORS
330
103
102
}
330
103
100
AcDbVisualStyle
  2
Wireframe
 70
     5
177
     3
291
     0
 70
    58
 90
        0
176
     1
 90
        2
176
     1
 90
        0
176
     1
 90
        0
176
     1
 40
0.6
176
     1
 40
30.0
176
     1
 62
     7
420
 16777215
176
     1
 90
        1
176
     1
 90
        4
176
     1
 62
     7
176
     1
 62
   257
176
     1
 90
        1
176
     1
 90
        1
176
     1
 40
1.0
176
     1
 90
        0
176
     1
 62
   257
176
     1
 40
1.0
176
     1
 90
        1
176
     1
 90
        6
176
     1
 90
        2
176
     1
 62
     7
176
     1
 90
        3
176
     1
 90
        0
176
     1
 90
        0
176
     1
290
     0
176
     1
 90
        1
176
     1
 40
0.0
176
     1
 90
        0
176
     1
290
     0
176
     1
290
     1
176
     1
290
     1
176
     1
290
     0
176
     1
290
     0
176
     1
290
     0
176
     1
290
     0
176
     1
290
     0
176
     1
290
     0
176
     1
 90
       50
176
     1
 40
0.0
176
     1
 40
1.0
176
     1
 90
        0
176
     1
 62
    18
420
        0
176
     1
 90
       50
176
     1
 90
        3
176
     1
 62
     5
420
      255
176
     1
290
     0
176
     1
 90
       50
176
     1
 90
       50
176
     1
 90
       50
176
     1
290
     0
176
     1
 90
       50
176
     1
 62
   256
176
     0
 40
1.0
176
     0
 90
        2
176
     1
  1
strokes_ogs.tif
176
     1
290
     0
176
     1
 40
1.0
176
     1
 40
1.0
176
     1
  0
VISUALSTYLE
  5
16D
102
{ACAD_REACTORS
330
103
102
}
330
103
100
AcDbVisualStyle
  2
X-Ray
 70
    25
177
     3
291
     0
 70
    58
 90
        2
176
     1
 90
        2
176
     1
 90
        1
176
     1
 90
        1
176
     1
 40
0.5
176
     1
 40
30.0
176
     1
 62
     7
420
 16777215
176
     1
 90
        1
176
     1
 90
        0
176
     1
 62
     7
176
     1
 62
   257
176
     1
 90
        1
176
     1
 90
        1
176
     1
 40
1.0
176
     1
 90
        8
176
     1
 62
     7
176
     1
 40
1.0
176
     1
 90
        1
176
     1
 90
        6
176
     1
 90
        2
176
     1
 62
     7
176
     1
 90
        3
176
     1
 90
        0
176
     1
 90
        0
176
     1
290
     0
176
     1
 90
       13
176
     1
 40
0.0
176
     1
 90
        0
176
     1
290
     0
176
     1
290
     1
176
     1
290
     1
176
     1
290
     0
176
     1
290
     0
176
     1
290
     0
176
     1
290
     0
176
     1
290
     0
176
     1
290
     0
176
     1
 90
       50
176
     1
 40
0.0
176
     1
 40
1.0
176
     1
 90
        0
176
     1
 62
    18
420
        0
176
     1
 90
       50
176
     1
 90
        3
176
     1
 62
     5
420
      255
176
     1
290
     0
176
     1
 90
       50
176
     1
 90
       50
176
     1
 90
       50
176
     1
290
     0
176
     1
 90
       50
176
     1
 62
   256
176
     0
 40
1.0
176
     0
 90
        2
176
     1
  1
strokes_ogs.tif
176
     1
290
     0
176
     1
 40
1.0
176
     1
 40
1.0
176
     1
  0
DICTIONARYVAR
  5
413
102
{ACAD_REACTORS
330
59
102
}
330
59
100
DictionaryVariables
280
     0
  1
1:1
  0
DICTIONARYVAR
  5
417
102
{ACAD_REACTORS
330
59
102
}
330
59
100
DictionaryVariables
280
     0
  1
Standard
  0
DICTIONARYVAR
  5
416
102
{ACAD_REACTORS
330
59
102
}
330
59
100
DictionaryVariables
280
     0
  1
Standard
  0
DICTIONARYVAR
  5
418
102
{ACAD_REACTORS
330
59
102
}
330
59
100
DictionaryVariables
280
     0
  1
0
  0
DICTIONARYVAR
  5
419
102
{ACAD_REACTORS
330
59
102
}
330
59
100
DictionaryVariables
280
     0
  1
0
  0
DICTIONARY
  5
2F3
102
{ACAD_REACTORS
330
2F2
102
}
330
2F2
100
AcDbDictionary
281
     1
  0
DICTIONARY
  5
193
330
177
100
AcDbDictionary
280
     1
281
     1
  0
DICTIONARY
  5
185
330
102
100
AcDbDictionary
280
     1
281
     1
  3
FBXASSET
360
186
  0
DICTIONARY
  5
191
330
175
100
AcDbDictionary
280
     1
281
     1
  0
DICTIONARY
  5
41A
330
FA
100
AcDbDictionary
280
     1
281
     1
  3
ACAD_ROUNDTRIP_2008_TABLESTYLE_CELLSTYLEMAP
360
41B
  0
XRECORD
  5
186
102
{ACAD_REACTORS
330
185
102
}
330
185
100
AcDbXrecord
280
     1
 70
     1
 90
-1625056298
 71
     1
  1
EAC861EC-8FF7-4A6C-BCAA-DC8C66095144
311
504B0304140006080800DB8A4D4644760473D4000000200100004F00000036353931373044432D433031352D343331422D394342452D3738343842373346383230342F4173736574446174612F446566696E6974696F6E4974657261746F7250726F706572746965732E62696E454E4B4EC33010352C402C5870032E606C53
311
C77190104A26092B367000340D431BC949AA3A115B96DC1AC66A51477AF3E6FFE64708F17B340EC519E39BFD35F3338DB4EFBBB76E4B038A8B5409D31AC3E5A977CE614A6BFAC425CC69EBA58F1D8580234D4BBC398DDE0E38F3390C7769E98AF15F88E9C2E62096F4BF18E9A5C4F8B17B78C218697E542E2B4CAE6B90A04D
311
26EDCA54B280AA91B9B7BECA57ADBFD756BD529C967D4751352578671A90BE6D73694B07B282B2943578704E1799B156CDDB65588FD807A5D5F185F7DDB861E583FD01504B0304140006080800DB8A4D46B2BD1FE8F9000000300200004500000036353931373044432D433031352D343331422D394342452D373834384237
311
3346383230342F4173736574446174612F496E7374616E636550726F706572746965732E62696EEB606060F80F0540260323103700495E20ED9E9A975A94991C9C9C919A9BA80214707574B630337475D6B5707333D735713473D675727674D47571B670363333B034353431614768046931363471713532B5D435353131D6
311
35313332D475727372D13534373670367376B67474B5042A03DBCBA019D37FE8ABC6157B20CD04146B0062181F4C03F940F0C11EA29A8141C08141002C0426541C106CAC2CA046088033B02A030AC2157C6006F21A8018AAF50194E6010A610250382264E08660284CD9E98021862280A91564B406929A0FF62C401E28B6F8
311
8038B83CB1243943D7A928312F25350524432CF80354380588598046FDA827AC0B00504B0304140006080800DB8A4D4688E57597CD3F0000904100006B00000036353931373044432D433031352D343331422D394342452D3738343842373346383230342F5265736F75726365732F45414338363145432D384646372D3441
311
36432D424341412D4443384336363039353134342F7468756D626E61696C2F302F67656E657269635F706E67355B773CD4FF1FBF73E71C0E67EF7576C9DEF3EC995D46C6A1EC5046649CBDF79E192942562825CE965D8A868C2842C8DE9FDFD1F7E7F138F7078FCF6B3F5FCFD7EBFDFEC41B196891913091804020321D6D75
311
13FC77D8C5070EC3FFEE51B21F068154CC75D455CC028A3EA68992803810109FDDE5D5CEC5521B28A1B422BF80741695D5B529DA1C2D058AD2388BDA9F476F7C2CADC939304173DBF48A452BF8A700C0C70C3D121C1AA15A5270C22E2B9E28763651F7DA0D12CE11077B2ECD0D560B5E3DE2368B1E65C5E1C87384A4CC5F2D
311
9FB8BE39E9B77C753783A37998F5CEF1B4FEE553463245C9712270880DF339E0B882A6BA713D865F6F384C842D440934EF264F4A304F8DE4EEFA1E2BF5E2D91F5ADD9613D6E31DDB33ED31DB1D7916CAF091286EA3D31B9CFECB78BB0060245B943C4C040119FF780A74DD308BA9D028678674EB5504ECF284EE814DAED074
311
40BAF649BE4B55DA2890F4D73E2D489A59EE54FDB0A85B59F2F52C4858A02705C4815A792B0C4A996A2023ECB195073E115E3E3647F64243A8338F2000BCB58DA5692C7E7C3D413F963FEDF3CF00FBB0F831A9D51360FECA43819F527B89FA260EB63C5DA676830AA3626A3693B23F1A17A0DFFCE3EE164E31B5365EDF0C89
311
EF64D8E38AB0BA9A1117D7C3A0EC44F44F4023095E80BA610DE336D0F99593A88BFC5306E72DF98F7FD132ED95878DF2964EA7E43071359FD83B2BDF9C6B5BDF768F0F3C0FC351199526F53D9460A34511F75D1B63E488178569472C91A94497807A3FD4A390C6558F26D416365C3656DE6E769DA9D8FC73774E1709812842
311
DD8EF96AED1960F79D21B395CDDFE6F92CB4EB962A4668C76990E2EF29798C8941D67DA50F4A5F947872460F1F6FDB794E8A29FD7AC0C0D6E0714339CE258FB17AE8535221E3464A10F29A0BE5EEECEFC5675926A89F49EB14E5711894F6586DB5754EB4D5DA9C6437EBA57DB97A24F8B8A8DB295FFD73266CF57E82694DF5
311
166DDF93573AFE9C9C5EB05F8FEF8E89E0A8917B0B3724DB7BEBB53252581EFC3E38166BA131A3A5B42FE2AD00A769BBFA4458D2DE7822F8C4F63D0B8E21B285AE13325F3410A435C648C9D91FDEB109E73CEDA7BC796961AF79175E1A3CE4C5E8B0D009B0C9E29EFD98BC8E97554E3D8D838424E270F7685226E5AC268E02
311
1EDE3522D583E8F20C0BDE2959EF5BBFEEDAB32FE9A3ED0E39F211A86AA9DEBFC68182EDED132AB8BB794442D2D7EA9F4D8BFF52BC4D55BB165124EE90A42D101E67BBBB292FFB4F66DE5BF2300E44546757DA7CEF8932BFC9F92A0707953491A55C5A5ACEDABD9FA1AEA01BAC3DC5A24E22E7C47213493996EFBC369D086E
311
D9397C9BA6C7F9855C7BD5E15BFC8C53DB3D2A4C5901A57ACD2FBDF4D1676E95338B2C2BCE65FDA4C64F5FEFDC7D9CA5AA1FCF11E193F2FDABF0F4916BF13FB916A224380E6462A9815F2300DC49CC4DF8D055CEF76462F4B7A7ACA7365C2707891370BC1D0AA6203C44CCAB47084FEC057F27FFCD57F89B8B9852459798A6
311
75C66BD7CE572CAF71FF7E6D7ECF7BF62CAB7B3F1107DCD04DC55A3F9961700286141C94A4F771FEB2BCDA2DDEE0CB0BAE402FF1DB0100F8E475DFFFC074DDB4498AB7D186A7654DDB1CB680D703D47CEB4E72F8CB13D86A4AA68116E26387B93FD6738779B34FEDB8E517EDF2BAF28D9BE93A1D3A164320E07D42E514725C
311
29515FF361754213EDE06B079A2E99EB1CA82A02019EADEEB87B9AF005BD04BBCECB14AACD6B24EFBE482194A97DD32400685FF1FEF1544D1B14EFB1E7F08E6D2CD2AF52DE757F35F5E62332EE88EA26417AD5C3E0E319D68F25414E6D672BD4522B278C57D18F0113921C71D96527E091F00CEB15AE23D24667369BD3CEFA
311
10C7549D930890BA4366F4EBC55F01F746109F98ABCDD5A3EE06619C6AD78AB33E48E4C9BD21BF7478B385EC05C4F8987E2C1BFA0A60EBEDAA0AE0B015C2720ECE180FB6F2DEFBEB822D96338C9B63822183BBF52FB664A7AE57003AABCE512BF77E7E31BDA2E739AC4C131657DDFE5225E900FB56CC01CDE808FA4A9C9DA1
311
6AC679656BB64796283D89812B8F91136AE18EE5EBBAF47A73BE3C153EB5D4CD491B4BFB4FE690A4CF9ABA08C0D8AA64220C438C96EA6CA80B58FE5761E697B3A292EB9FBDA502FA863E49FE694ADDFFF9D62C520BDD1A22014147A0903A05B9B729F54272EF83931FEEC057BFF8C8055C279EAC5C0011804828734024F6CF
311
A319C9CC6867C727184465CD9BB7ED386AFFD96B294A85E3802FAE47244602D8273615952B98C4F23F7EAE4463D9D638EEE374A20959E0FE519C4CFB0FBFE5DD80C2AA3F9DB961D1BDE57E67C9BB47B77FDD74EE3094F5DBBE3EBC1FBDB7393F5116263009E2EFE1AF9A221B2AE234C902BF70E9F280ED23E7390836156596
311
4333A3F01D0B006AF32FB21AA1316744B489D5A198E85299241735BE559675130955C902A8ED761FC0DBE337A9F91919AF5CE32AF902ADF9AB2615E00E8A94586BA1A90839B61832FF1BFB76D2EFADE6DB1BA04CCAD3DA649E7E2A0219F592E22F2AD54847EEA8E42271011E9074F8F3DD9FBA6CDF88FFC9FC7E811AD1CA8F
311
4557CE4AFC7BBEDCF0114A48689F20A584520C74DA8127124B767E2FB91A6B186246727BE63C9445BAE02088D58B8EFDC0F1072407CD9B89A13F6303B4A928F593AD489B58E6869325790ADC406036C591729FE14021F94B7796BB11848D463536A092A26F077F94639F7CEEE2A724C66EC885F4A24F8B8A0AC321F8FD149B
311
A529460FAA34E4663C02D41FDF80BCA222D42F0ABFF8490F4FA74C673807C2051D8E467B47B616072860069A9A303ABA9B319D58404461401B0A0F9BE5E1E151C14BC33B32ABE03DDE91708DFAEB15E7C0D593C86BB7D7EC17BE56E57975F077BFD5525F3A1A361D584A75E08CF29FC7B44B2B3085014F3A5A14517377C3F6
311
B8F37E59514C3B12F8AACDEDDA4DFC49BE5710101534CD6FB6DE15B50F11A09472AABA727F0C49D9CB906B158030065F48EB3625E010CEC1D511D0053474B11E6A4F01C0D6EF1BED3A944FDEC70E0DDCDC756C86545910E0DAE3BE3AA9A404574C2995CD5CAF9549226BC94B4F4F0F5F9086F418F6B32346464610D8BC7391
311
D3C3A3CCF04CFC1FB2A3A3170E369511868F14EEA4E5E438CC73DB1F3248AA94B6B2FF33B222FF3D1E7BF146CAD229770158063BCE4F5391964DF62F7E52A7BE0EEA829C9E13C4C147D6F93FE59E111DAB5E4594D6F3CD1AD375EE039930EFE5AF2BB2D41C83C7DABD8C659BAFBE8FAB392CA634F3D15C1D945DB4588D2B08
311
24A4EC928AAC565557CA2F0DAA588CA5BE30B3A8004F7BF005E96CBF891D7F18112A3619FDF530DC8AA64954258E1811789B5189B49B4EB53F5F89F7D37523894F3EB57B373763C91E502F52CC99EB7BDDF933FC324C4FFC2561DFFA7339FAFDD0A4BFBE6D3A8FF9ED1FC49898139864602458968913181918F719CCF5A68B
311
2EE9C1FF050E34E63107003B8120FA982C21B30A874E4F5E4B38D5A8290C4B8D9BE48A0BE31EA995BDC37AC6DE90BA17D259DEF53605D55922FEB1855D915B659FBEB350EE0DFB2F9F766E1C84CC8964B75D08667445EAB966015F63A18A9E0A325C1B3DC628C0D3CB60F767FA93CC65F25458BD23C3B312716E5F40E5858A
311
C06EBA9AB14F95DB99147B832069201541D09A0D856E12C629CF32683760EE855537D1901988D5EBC156676C7DD51D7207CF3267AF1D76C2AD867315E44618015313A98B19941C696FED3461CAA9B5415F918556D7802EDACEFD6B2E45853A9735DFC9DBF7E440F9319F8B6805A973BCCDC76C069A9144E51F187EDCC12FC3
311
1B5DEAAF0A76137199B106EC84ADA6B6EE697D4E6A96E007417F4E880E8B1E89B4BCE9D81EF611E2ED8F0C1A6C25F620FAFAAB656A7C42D464880E8AFAB0E0FC8EA38CA9A8AEEAEE3E4648BA4680270A89743CDD3E6C6CBF34B7B640EFA285ABC7EA0A1E28F3CC963D114A80123EE66D0AF7D5380EB41909B605AB4765B709
311
B808590458157E69BA1378FEC4B48CAF6A730E3BE3C5EF2DD1A5EAF94B1DDE50CEB55DDFD7EE9A16747FA4B223359FB1FCC69E1194892BABB93A1D5C4E807AC0EA2E30180811E77A2291F6E7F7FAA5E0F60215BC6024E48DE436C511F0628B8CA189982D4D83CCA17D305A7E923C37941CFDFDCD93ACAF735EF5F0E61BBD3E
311
6C41A59B242790D3A3BAC7064DCD89AA2E37214EC839820949D5CAA31E240D2948E48F690298974A96BA9A8432BC90F5071D6537C9666EA4564796B7AFFFA548077BEEA75F63083435074BA182F3699557397F71548383FDA8CA34D99B981E72835ECDA5DDDC151315173D05A21F651AAF8524E88209E2E7A737ED1045800C
311
E3390050BCFB8BE588DF111617874C62575039CA588EEFDEFEFE319B739DE2EDC147092A262611E159650E787917885EF08F1F51B8F2D8A71D60B58B190FEF9541A1BE94BC19FEA50784DA1419FE4B0FB51B8D36B5FF8E1286FD8AF42B91E59A5F1CC4D60174E764045FD8C57B18209B217F89A62252BD20BE0E63E12B8E8F
311
029FE19E0E8D0870F58721A557082250D5424F7909369376E41666C0EE77CD87CB283F661D5FB6D0DA023CB67320A20DC7BE661E9E1BFE5463085C557DA1FF9BE835733766C3D139F2CF9E2208873AD0EB4814DE9E6BF2CAF81614D4D43906ED1C05A3265CABBFE192770FC2F64F940CB6B17B5F166F133C9AEEAD2641807C
311
3E69515171DD74C4A85311513D6EC9530B3B601B6BA3EBFF3B5C3D2F7D69765141E345F75433953D013ADDF8F6AA7DC3F4A7563FE5C7D367937E2900D7EAD0F9FC9A4A1A9B5BDF1FEF08532660C01C5D6DE22199AA774383E306DAB87E301ABB7D213887F9869D4942D0D71E94B27EDF216A318BD488D45DF84529EF575AF3
311
C3938C0AAA0215B01994153E2054A0B894DA5C784980633AAD48576957CF4AEAEAFADC7C587368551C73DBE1E57C58AC713303A8BFC258BD04B51724459FF9E24C03A81E0E0679CEB9B348C0DC998FEB9C6D6EFA77D247CC8F92D3848599ED89A23218D0636465AD1CEEB7DC140D7426F83491C4E8E8281C2FB35240918FFE
311
CE880CA2A42D70E8B20B34DF5221C7DB0CF90ECCB9C745B37A47E9B716FF7A97B7A252C1F3814DC7B1E1A7F72B8751D524EF7CAE45B0C73B3BE7D08ED39781B380DDFC9AA4A4749C9493DB5BAD07A6EA6C092FBD0E85DB004DF06B8C9D3089C5320187E4CE1846158C7EA7DDAE8AD9AFFF21AA3A1026BB06A259845E8232DE
311
E62811A4DA9CEAB3A4887320B76E2AE5615EAB7BDF738CBDD01F1E64064BC13D9EC53576751CA8CACD58B3CEB0E6CA585BD089B2A59B9FC101403387AADBDBE70586B93D64BF3AD4453EF9C3B6A93817E8346991798601344F79A83C51F3D50F7BF2683A3605F51A72449489E0EE6169C749C60B1035651103AEE24D24E51A
311
759C840DD3FC6504DA6FE107510E447B43461C79D22970B75DE5E1BD3007D1AFC619A4A4A69B5626AF5E9B8374E20677F77E2F8E73DF868E8BEC7EBA7B6A75EEF7205E1AB9486CB642741D6E03FF13FCCEDB1C4AC129886268B01CDF4B124AF797CF784F3C6DEC97A17D4B558070A0F1C04DA4FF9BDBF34159AEFE95847982
311
4B3F58EBD1E19088A2AFDE501B6F2052368A3FD0E650A179EFAB1561E1D27527077136E652676C3670F42DCB3352F48F6BC86D2C3B0051727E41A0A4DC6CE2BE9D47F5CAA2935A3C0539AF080665997194ABECD723B08129CC5B6B21D2E7D54CD4D12610E7E9FB8306771A89576C7A982002775ED44F3F744CF21EEBB27A63
311
1671D921938AAEE3EB0D19CD1E083727F607823E817BF599DCED5394E37EEBC2E88782E638920CA641EF74D4CDFCDEF06F4278ECB18E31E7E9876F2D783C8BF429C75395F57E98C2B495A3DA077EB3AC3C158608B6B57FE3EA48484D9A480096FCEE0DE880950E7E5A5714131C5C41AAA29FD19AE81AC145FA1B9E85C7169A
311
5AB837B213493DF7E9AA4B5FBF9CDEB36EBD21EF1181B7CF7366AB2A951D01E37AF4EB835D1BE8C117CFBE7625D2EBCDB0B20C5A4B45CED0BCDE3EE8DA9DA78C2E21DEAAFFD1197E463C33CC6A80FB785669B856EFF7A8CCCA2841B5A5369173320B1170C368B2748D81062EA0296E5E2D95D7667A4A46D98A6FF475C76AAB
311
0A8C8D45E226FAFC9FE0133EA9F60111F99CA81ACE03A1D14C89E8B0D69079C91464FA1D99E651D0EAF606F345C42A8A1AA9BA391031582B96D5B4176A77AADB01F12FD298A75DEEBB2C82F0B8650E880722F8DDD90C56A7A058E5FDEF1AC93545BA27367C76F5D8F9690CB6F8DAE141EDD7971F0FB548A2AE435F224D6E59
311
54CA155512F7332029D5A1230854B79F258EC5FFDB09F5F6343A8EB193229B7F7E79B3E48F8E183860B38C8269D1B53738FF1E0BACF6AADA6D4869E9DE708E79B5DADCC09B1BC76F649731CFAF59A83FD8BAE4C749D66FA87A3810D4D62FFE826FA400C0F325D2BC0F3CA35F5847B82A2ACC7961745C823E4D863D54460AF7
311
92CE6F79B5C7A33B25C3AEA6CDE15A919B6367D781E9D44F61BF828672594A3E1D9EDD6DF179A81F27EAC05B936575D73E05C209DDD2115CFB705DF9BBF3C911589B3640735E9E618FC9C36A7326C82B2205E244C55D56FDB9D5DC93CE958D4BF8174D2B3DA54CB3C09F2C2A6DFF73D23B2197355761AD421EC581284A7EF8
311
DE2CE3497C0C804D49B41DFD6A7360844E5BEFFB495CFCDB97A4595911CDBA623274CE852B5E278AF0BEB1770E9D37CD977B2766A7DED0E94B840E1E95E8C77DE5CB6354AF7871427C28ADBEEF7BA0A28E19DE9ACD75F379FE373EAE6DDDAE3834692F9C2B03B4FCA8FCA9ABE8EEEBEBB725B88A7C90941E850682CA04061A
311
7DF0CE82ED49BFAFFD42C309818FAE14755CAAE78B0F73243ECCCAD7DF58FCB9CDFAE7A4D3E6671A613639130D056C8383C8F4FCF4808C331E544DD26E4755D09EA05253B3049A1E32587CC25D72E073E2CD96D04A71BBCB0038FEC3F53D254199C3CDC67CD66640269431860225392B2CB3ECD0B4498AAE78BA1994246AE1
311
EE78F2EDFB79F6C6CB6B5E279C4D373FBC21CB2698C9ACBBEB6A4BB6B39E16AB0E421CCBFC7654D81ED86022F9BB522146F9F4772E2D0E4FA70120C95A85A417BF5078B232F4754363EB1750B2AC2148EB46B1EA72AD9B4D23ADCBC589D70106C3EC2ABEEED84DFE28E718C6C83502C28E9FDD3B09DA0A6F6F7B72B706A31C
311
9E2A331EE70DA56A083D2177BFD63C55B11D8D949FAFCF90B23A1E24B9B5018B9A17E99F2890EC302F330FE7936E2C23F0D237EC8916F5166AB84B62A21BB0B950146962D754F92CC2C8877BED8FC7B7B25726DD19545392570B3A2C66B58F027BEF412E552D12A588C4A3CC5C3193FCB3485EFFF700D0B9EEC077754A33DC
311
1FB9E25AF814628F91DDFECB667D3F7690803F38D13F8AE39353523BB08FC6760144AFA2CE28236F65EDBB3D5F59A57D612B99E3D7E5F8A851666BF9B5A6658EFC96EEB37A378ABB0EB3FDDF1303AF32C41BD1C8560745D7BD81066B0D6313359CF488563D3BA3F8E2185D1FAA3EBA1397C9D0E3DD232180A4DCADB6AF25DB
311
3AC3CC26589C8239E66E81547BC7E2F328F9884764CA37EB5DBE390DFC03A5246B456A7C3684C4377D0EEF9A350680FA9A077E8B2957B489E09AB1AD41316944C2254B5984830F691C93CAA767EECF976FA5647538830B5E63236A6F0365C1E0F3E327F24FE35EDDBD7360B0F7374837409F7A6311BECC12B7026D4FA1AE20
311
4FA3F5FE904B1F420C7A9044AE58E403E7C4848E7DA25DC9EDAC79DD756FAA26B9EA83ACE8A214A2612A22AFA19DAE7DBAC5F8CDE1292A485F98DAC731A29FE01A3966E96BCB9FB5A4C8830E1B9AF0C54B87FBE221A097036E5D28D1F869F810C06A9BB0AC0612F69AEBAF893C6E7AD59460208BAB3A6B09CA4F6BDDAB8CF0
311
D1F84B72487498395A70DCD754796E271099A567A55CF242BBED64696378BB6CF25EF0FCDB589F3A82F1116D010A9AB9FA4358809EE0C973A2B4229BAA876A70B03AB49CBA7FBE71DB1832FFD32F9BF2C8E98075CACAFB36921235D0F552B6A67E94E094097A5D7DF681B40623DA535ADA7A9AD8E9A62407D7C9A5AE51D62A
311
17A83A23728DE86BB56115804D3F2675F2C6B87541A0FC497BF0CA86420F558C9859EBE9FAD62747E323E3AADC03FDCDDFE7407B09DA90B44E3185723C5381EAEF589765E2F7A099BA46695BAD60CEF3491B8A171F5F56444F7CE9455312C3498C74173AEA0214EC029833B34B650CBB5A5508D5091665309642791708ECF2
311
7CF11DB3D797D6CFE474453BD4BFADB768094B2147814D81C7CBAF8228DCAF5564B5891F5EF6A860EB2E323CB82AB868D8EA048880D63B0DE5341F1B3D53297B928A11E15F25E5148990F710747C3509ED14909C552EBE3973246FCE55D00564D8310BC3EBC5085D08D806799B77D6C57FDF5E55837F9E934F09C03C729271
311
B64F12D0A9F9E938107CAF7BF1EC8CF1BB9B42363D33070F4CACB425E605DDB0A34A12BB936DE286B9887A4E2E558F0886498BFF49C311D96C277CF6A9FC0D75AD0ECC5226D7E0E3572012E56D7FDE4410CEC7A6D0F997F225A2055B8B92E3956E875AE4993CB3D4C9063AF98FD45E1BAB165640A43439A2C9181A7C355B29
311
7C0A0CCFFAE19B6FA3C2BA238A885FBC98B8F6DAF4B94B97304878DF4D8BFF6A4AEDF79E90ED4E68F00CD7299F4E0D83E35601AF0CBEF18C1E870E74758FA91F5131075004DB3CFCF09AE1DABC11957FD9808C92E8A678CE9DBE40DDA0E0D1D505AAFBCBA208232BFB6FB3704E8985E61ADE53DE74152F5C7DE74B1DEDCD37
311
DC3E8FB30D7EBA8B9EFFC3606BF90B8D438279CB7709FC7C00D327F41817EEA71CD9E49FE9C8C9A81C70915D9F0F15958EC5AA4C3BBFAF46986B90F188BDB24B89DE3C6F29EC3E6F66D84856EE96A35E657CA41B41EFD8DBFA16AD6E91439EA92B40B21C053249F51AE50EB0B24C770FFAF40DF12C8436366819C48E36547D
311
4E7B72FE2BBF10828583057814A668BDF183F6B2E58DFB151103E56303E63D00F39C27C4661605DB644D19175D02E3F0241E8FC3458D17AAAADB117CE9EEA690D0DB01E634878C04C2C9310B69FCAB831151E3AD293BEF6E46B0ABCECB50F5939B39C613D41E81FAE8D34CAE3C4566B761D37185FE864AC32FCB71AEF39DAA
311
5BAB88609BB980CD2F07A8F941653B529567726E2B2A58D079DD57E1E5E31426CF184A04D7B03B985F276D47406AF276FE32E3328BA866EB1FD39BEF57863A317634AA5FE467409B3873F5069EF0D71AF00AD189D17BA1974ECDB2D623E9E14086386A6AAB5807825C37B015BFE892AFD154920EC437EB945D958E18622E1E
311
0FE2FA06557CE4BB9BBD05A2D40E774DA2B65473791E314B7D6C886820B2FCFE4AA272B3B8B15E7344A145E8AF919B5454D89D36D413E87211186BF6F645E5EC94DCCE8E1C799022E4EC9BC86D7A0F2AFB1FC4B2CE48F84B3F49ECE65BAD24CADCC07EFF39AB06BE9E6B27A059938EA7208838455383DDBCFCD967DDE4650E
311
F92A14FF933C975DB20BD7FEEBC4487576485963D757D16340D9599FEB362F775F38CA4185A86F74B629C81B133644A3B18FD056E997E0734F9BE26D11C0AAFC669E2AC9FC41D281F8B2E1C35AE27BCE05F3DA295488096688719D974DF1B5D182DB7792288697F8763CFB43562C1CDEE11C4AABD5C22B6E33F6F389CFC347
311
7C5919DC0D533F8A7A1846B7ADB60ABDC26C43D0CFC8910B7C15EE22675BD02702ED39DB77A87A192CA7A543E6205B979B9F5A6B512A3CA799E198B2D5797C0AF8D1D872CA455D4D431A7879D4DD76110B5FF7F4176B54477A9EB5E4A5D11214FDA585F0382751D8E2582BA5D2075053298FEB8F1537304E32CB22C2E2B693
311
DC0A760B1DFCA751BDC445AFDCBB12820ED85F6D5298933C7EF1211E9E057684056CDA3FEF3BB6052355E162DF27C59E965A8DDB7F9437EB72CDDA3A090DE65A5B2F50326247B7EC67B73ACC7047FC9B353D6EE990F772207C6EC52B39DC2F3C0754821DAB559F7C1809C7D0DD5B0499D0442E0A6E391B3D5DB46D11E731E6
311
794EC77523FBDAA242ED67F9FA1FB684255671F63C9BCFE6E7E896D51001A6113EF2298BA494E0B0980D1FA5B9D60796554C02256B1E0345FB7C6186B6A19D2DCA270416262845FA4F42DB5D9B0A0B6F07FCA2E56C242522E001E0CEB734AF310FC8BFB57E38E03AACE93B3326A2197891E68452B26A6307FDABFEE0223D3C
311
03C3C73D2D5BC054C8311F12004CAE488E5C29287F8156A2CAA4AD0D7BE6B97264E4139F437CE73ADF52E5134C52B819777C18B323A5924E4F67AFD13B1CDC3A61793A79FAF5C0CEB718E441071E797C6DCCB9EFCF7E4A1E9F3DF3C2F9C9E8294E9586868788C972857FB0556D7A26941A7EEB9B580AD78EC40B85DC906B41
311
20A563CA3B87797ED612D3B035962BB75F6515A393F4CB057F564CDF54F2E5A024514E6A1F901DB80C7E70B1FC05E356A7E72FABF4775B3E3FB8F70A2A8E7B6A94542BB304157978CCC999E707A29CC795E67A59CC546A5D47B368954CA7B6E75EC9E1F6FC73CE3B4F71F8CB1A6B15923D61EAAEB14626AAA9D04A26EB9C66
311
CD1BE86CA31A5D8703DE04CD1EBCE4F5CCB62F93909AD11E55799A781A956ED27D3E738F4538CB04ADABC7DAEF20BC35BA6A90BCC1DC61BA05F20D8832FFB9BC9B15E2DB838A0AFBB7E0C82A562127E0446894F427794C3037186F622BF24DE1B00AA10A23BFA47B2A180D6DA5AD6F7326FEB8C100C2D7142EB2A0B2A9D100
311
8A09BA343D70E054AB69E2A7EDB783CBD92537FAF4A44D1296AC2792729104B3276C276C951D0CF3CF3F1E6B017720A7B8505A5FF9589365979678C36F1BAF759EAF57C60F1FF5FE9DCF5F8E764FF25A2D06CF25117A8FED51884C13B2B750DB0E4F5E3D64124FCF11F0AD8F1CC3B3DA4B38ED22BF1CB2585EE6BFEBBA63FB
311
FD44F9537B9B37BDD6B358720F98A8125AED4349CCFEB0E135F19E208A04CA7E2B10711185D72E381F448036EF57C9F874E54A971CA37A639E986AC0226DC5AA00D5B14FEA9192234B3DE617814FC221C92F33F1D392F297731B567FD98FD91D989379AF567A65B8ADF177591DB90FBEA99BF4ED11B16E50A0AB1DBF1156D0
311
34BBE04D69D08F939D8E92BF525A1DDAFF80ECBC95D8F45D3FDD289FD23F7D8B452F8EBB34EC082DEEE68E18EDDF072060FAD2AB1504DD4879BF67099FC58F6E9DEFBF645D16334A3E9A127C6F1AF6132CF287E433B43A0EE93812B4AA0B194E03EE3FF91EF9C6ED0074A2F6EB18A96A7C9890B1FCDA1F2095E944DB911ED5
311
4C60DF16FB74C8CE9BDC7C54C4F14078CF73C2FFF1F1BBCCD7CF64F71407EA1683DBC410D226627F66E509060D5C0AFD611DE681D509DB8DD12FB1265B03C6F5C55FF4C30BD94187FF692B4F152982502F193098A789526A038AB529A52BC0DC4FB6285CBAC10A8B8DB75DCD9BDABBB221E27D1F8DA9F5EE5926A1C8AA9BA9
311
BC09239C6A7F12914EA3B59EFF7AAEC3FFCCE56F1C5C2980AD072793527565E774F4631DB178CEEC691B1F367BEA0CF2907E1D6B854D527065979DDEF002D8B2ACEA7CE21AE297737EDE1D45B31233B73FEA35BCFDD0B09721FDBAF6432681F2FD10C3E9EFB246FD6E854B344ACC9D8A0EEF876A7314B49B6A499FC650B099
311
D650DBFEC7638ADFD245E2B7839DA5AC5F7D5623FC0ECEEC8653FC9B2BDD1AD4D00A566FBA7186DD3C9CD26512551637498CADB950FEC71ADB9A5524285DE328B8EC7EC75D2345AEC6A27C42AF6D9B92155315C80DBFCABBB7DA0FAE425C4FB896B15C9BFAC4FE67DF5A23D30C93DA4D8F36FB15D100050DA6062E22AEC5F4
311
DAC4F6FEEF97AE05DE63C6D38F9E068A20BC5E3B6BCD75320C5090924E7F93640A7735B1A43451C2D91EE62C6238B797349E59890AF3A520DF4A87095F3ABEC2E61F0593416CE46CDCBE0E00E2523FCCD04408588B5B6C9DB6459C786CE378770B54F51DA3A5E1DF2A3349BEAAC234A6CF8993B598B3B25B4B113E353A4D75
311
0FA7534749430F3EBF2512E7EA3FD43C6AB9A1F765A58463B306721A15D224FAFE8C6F5E3432D57EE697DA0DD5A9D4866A8BCCAAA9DFF1F06047851408FEC060471D0E3EB86BFAF46E4B5E60311DC3E3CEA147C75CF971BE74689507154FF2D2E92F15CDB2B9182B11459FD8ACAC5A85F174BC94A7F4EE4C4F5CAFA7C02E37
311
BF0BC77B7DCD0C047BC316F562A01A441AFA7931CC84A28CB9F4AA367EB515778F29BFE61195FA671F4352E5E46E3A64773F1F76EE5EB36D7BCE9BCEAD837A4D77F8DB8C92AEEF6711920D7C7D0F76B0FD0EB7AB83724CD35BCA7D36DDDF5FBB7FF6F04A91F3E2BB3B8F1A43CD659639507FF6331C5F697BCC782AE57D757A
311
27D97F1AB9E0AEDB43F92F1B2AACDF5FEC8ADBAF9F814E2027003BA2F9E144B1938A7A04050AE5D953B82C45619165C813A10E76DD6906B3C16438064D14CDA713AEC420034613E1AC7241904A49FBF87409AFB1FCB9B72FE7933A87D8FBEDACECE4EDCF6A4FE9FB94D5DEB74FAB7CFEAE17EE965DF980DCCA2D04134994F9
311
A2E94D2265DA4FE6AA7B7AC15FACAC2B5ABBCD7DFF542C5314FDAB2E1B9D8B65220B8E2B638BE008E8DCA22678C820C5053664D15E89F2D735B51A84955E81A443545E9FF787BE0FA700A76D136C27DA179A7C6E8939E01BE756E19CB292798063D8B97F44E8A27BCF3A614FEB8BE974A718E86F7EC99B53CA35FA24F61F2B
311
07266684623A3D4CF073E511F3A10A8FDAFAF0078C577F4DF9D339FE7862E5FA47CF4344209E5BF76D783B1B48E152AD281B15FCB934DCDA49CEC5706B1EE8B460F435324A5CAD154725E21AB8044B75A557A79F6C807B9340AA3D92503E866F4274412926C8C504E4D5EF8C0E68DD0B028781A6B4054F11CF18941F101C57
311
CCC796773ABC8DED9CD91FE5788806C05E548895354AEAC96546D55B0E94A59F148D061F42AA398D822CDECA4CDE79E13469BDCC44FDC990F366BA5978C15F97ED80CBFD73B0CD9B8B83A4F6845BDFBFAF034019473FB9A63BD55D3A4A7284757071574029A4D016DCCBE95DD679EF3C4880BF169422F8C89B68A988D2B137
311
93CAED4F74DE7486C72DC94DF46B8E93D8E02EFCB1FF9B3BA10C8AE7F653DF94F4AF466CDDCEF5776687F7C4C14B63E4EED1719DC2EC482D7DBCC7AE518CDE3D5FF86D39000EC3673C0044E1D308BF05F74D1B5F033A7D1BE7F74BC55BBE3E4A20F920946CA0271EB17BD2B80E5660ACB8A29A79F5E4BBA49D4D945B6EEF4A
311
7EFEAA65E5555BBB57A7E15D2F83C69F30BBB978D2B39F1F26FC097424D39BB33CA3D87ABF64E307938B685BAD44F71556A30B7E712CA4FE600613C3E554B69ADE949A7CFE214DF1FFF05CB82151EC6FC31950239F94CF7AD39DC473F6EA356E5EC2C4EFA04383CEFE985A127484366FBEE3C0EC4FEA363E4F6632AE781392
311
FD45D67B63FB8DF70E82734F431FD3443172A0E30A83D60982D55FA6A2CF86DBA8382502ACC6CDEF3B907982EED1160E14863FA242F9757347E1544275CCDCF71ECD5F8621CBEA326B8BA884AD7F825781923E66971F04010D574C541D8427A438A37EEF8AF88240EED7362C953F5A81DE2D56109CDE2524EA0F5D2F87308C
311
0C47BD97AD605878AB8589E17CA83930CB5E0DCCD75853D68B1AB136594926DE426C367428E9334AFAFF90ECE221BB5DC9E5BB53D2CDEF954EAA9CD814F0E5725F1965DD458E5F8487683AD86B9D0076BE3EE91EB1CECC5331A67A3F79D8B27587C12EC2A6A70474749F27B4C0BBAFB94B34189E88DC18964BE4121B9137FD
311
516C7755356E50D6714E31ACD222621EBBCD1CFF81D87479056A9DA0E0B8EA19D24CF937DA89F78E8650CCBDC110AAB6C4E46DCBFD0446BA9E2060E81F314AC2031E88135E5476AC0160EF5C0DD2EEF1B8B5CB2D198BE9A554A9093B5F7D7E4B5407DDFCA1D9C152FD97F55BFFFDFE802954DFEC8995B983E28AC92F1971E2
311
8F531DC407A1280EB125F64A72E617EFB27DFBCEDCDA2D6F2BDADA36873EE46B9BE1782998C63DA7182BC383FB6FD15DA472B175D7E8B4FC88F38D6E07FEAA3FA3CBB8F6B449ECF14D2175E5C5CCA3A42ABF24CA6C9395AF74535F4DDB38CB84F56614B0FD32D7E19CA5CF988DB4449C40E23DF2B16772594554579094450F
311
56F253CD25EA7F77366FB1CFE79696C428BB64D5A41E986189427E5E4D7E2DAE3D5BB4972B3DC44EAABDDDD63A2264ECFA5C786EB0EE1FDC5BE34FA0F08376869FD1E61EA06CAE15191135445EE8F0394161C3266A596AA035572BB0C8876180D8B9C77D307DF9DCDF7365ABDA6F3A2366436457A4DFC1F259666569A9E4A7
311
9C817BDD5610E5200FCE894A358EC72858D50EF67545DA81C6FACE3D457BAF70367E1E6BDD9A952FB4F56247F58F523B97E640246051A72F79BE42FFA0B3187F63097F91C48B868586F714B0EBD5A00A8412C1236E1298F60C72BE6C96B82B404CADAA304AE9F303176B14BA53FBC2D5E86377E35542019E24D97B96A49B2C
311
0E5006E7795954DEAF5DA58958839043C6C70BD3B1B33B6DC5C31316D8A6923F142E26F6711A2258AF977DDF1F970ECC4F1F2B434B96D81BEB6E89BF3BBB3C7C8CC80505070723D6D7D7D3C8CA27CA164A26024FED94B12A86031867241DA53D929636DA600F050BC40CE48B8BA03D69224720DEE2ED2127390BDF5E6EA645
311
27BBD4C4C63FA76BB801FEEC0E61218EC98A8A86CD8313781617877E66692839B9468CF4DB8E50A73986E558E309C0D6F676F921BE02F1185454DC75B111572FF9D27D85EA14C05AD7271225B391C4275659CA4A43759D0BA44639BE4C30A84DB7F67A41399FB95CBF923B1B1672ABC807C1590557FB18D811983FA97F5E60
311
9516D62281D38B1281F68FC75528C35E4CD7DF0F7DBB5E5DD69C414EBEA2F4A5B241B996BA77AE6C772E367408C633EA3E438B68563EA8BE7667F3A4C4FDEEA52ABD78A2820F443B7914A15F180018D231E64519C56A12F6CA7C8DAE18F06F6B769DBF92329EF6A5D18FBCE600F36BD8E8198DE5CDAA96181F3A756EBA5501
311
CEE58F497EA4F418A2B82565B9BCC611713C0B708CCA1F398B78C5F7D03B3437CC18F13061F55C7BEDADD5ACB1DB0E36D3CE47FF6EA1A563A57E9649EA5D14D1A50EAA457463381C073777EF1600607BAF6428A7DDC079D47A204EF1E1F1F0589FB054D45E02CE623B3823C317C601E589E22B1E88B448524B86A82828E323
311
45EC18AE17214B42F8C41C6D428016D9BA31DDCB47572561E5A402E5BA4FCE55F78AF7268524AA04130F3A20BA5D1E9F9948EA48FC8F5314FDB35E21898198060034ACE5E3E2BBCA34092518F275190AF65F45867FF0900AA4B81F25427414C372BF51DC29AA855C5428EE1EEDD6B849AD60F6E73475C2D2523F8A2772C840
311
A478DED18A8C5C91B085F255DC4F54EA7AA8947354FD17ECF8FB3B4A0DE7B483CAF3A1165EE05BBA413E5C1FEF3DE1D6B8F2F3F3251C17D9FCAB48A9AAF63AC773A0E413BBC46A9ADF84A566FC920E4D8C52C9769EE3301CADEEEDD92B312E02E2A7E35B7F1E7D203FE5A7D75578B06E99D0E46FFADB8FDA17ED8880390DA2
311
9094202D6F645F76F6F96409CDA05495A96E84B04A00D1A6C6C81D7F3DE9376E828CCF144EE50E364ACCE7237EA0BFB5607ED1AC3CFE73794E5B61739D14DF1743441B1AC98F00ECEDE9E7301FA29755FBEFA68C91EF2B314CF510537EF1ABFC9A762496280B546F5EDAAF8A5B387D469FC9A878A92828C88608453ACEC609
311
4DCA54111E7AD5B2663DFE2DD151B7F123B9F4FEF8EE36AB125FD7AD52A59B1B765B3E3F73E3F73DEA93875004D2AFFE3CDE9493B87A9904DD052028949041A91DC0E1BA47BA714343FD5B25E0A6A09503AFC17C790058A836A324FE31D7893512E28230332F153181C1E018E1124EBE1BA262AA428A518237D1EA7275E48C
311
5C561BD19ED6912EDD8367DA0F31E40EEAE9683DA9257525AEA7B632B97119E17145A90231768A4F3B9120FF32E8319B015E3CBE26F1A754177D8185345817C096B0CE443A955D13AC15E1FB5DEEA0239EC32A3C92241A237B0B02FFCB4F93CF2B02570C8D192E2F2A68CEEB42F12E6F8CEEFF46C251E22B4341C56FB08CCE
311
550E7A9D6F4D6564B9EA52A83D5BF2C6E03FA19D2775E15A8A7ACF30A13C259EE7F5EF2AC3BA354F1500E1A07FC63FB4686E2F12EC69719F9ECF5FE3F35598DF2CE944008CE78F0911BA5BE5D0A34E0098FF038669C26030BA9B300303039852A8F6F496341737CA7E0D2E3AAA36DE0A70AA7D9CA0D54D9AD84B18A44C9E62
311
5475E1C97B93BEBB38DCE7D227E67A2D00F531436136355F243D1FC0D712C5765754FA22FCFFAE97919161F46D6E61ACB37D83777B385889770B50765B127768443A5C4D3A4E35A3151111F146B7CA116F918A049F1C272F2CD7976C69A0068773451659A97E0F4A08FE604C3FF6CE7385DB19F4D3ABC8A0D80DA8A42096AC
311
377DB49382B36E270B6FA7570188B4B7D1DDDDA82ACA487CCA5D38BD3BD039ADBAFA4ACFF27809239B722081E2EB9F145320553D183F28471C388BC8814E5045676767AB58A8E72D1CED2CA731379515D2E533E4CF0B39DFC625F97AC4836831A4DE330E87A8126FA17EBE583D614E71E22A8DBF2825599743E0640037303E
311
8E1B1E8EA4E1ABFA4F62907B5E4E0E5DCFDAB417C36C6848A2B8D15F1E505434C0707E16B1CFC2A1C36A42BBF55734F8F4301DDC2A5110CEE8C0747F69519265012A2174BF4E955ECD4FDE095A3ABC70536B7AD0B9D7892F81287D667C108703C9B66A221E9A0929D030008F77FF6F5D2108EF5706FC87A3069B976F7C9FC3
311
239D13D283CDEA83597461079FEEE049B0F392889898B7D87D31F8D60ED7B56B91823A8E4EDDB36C6172ECEE42BD42B12CD67994FA0F0DFAE9389356F4CD4425A4B8AA55CBF7ECD585C6A2C2316791E43D5C06841ADBB226A87FD61515FFBB0167B74E56BD7F3E90A57A97FEDCBDF483A0D6699A8C0849CAEB4947FAA90D8E
311
332D9DEBD9F4738C37DA0CAF9CF3DAA68BCB67C420459C7A64498D6E848E5CADE92BB6901F607AA331104A67F7CD650EE169B1DAE94D2C31C2F993632259B6957E246EFE4C5481107B07118607700040E5812A2A2A38DA0076875258C753F60E0F2662C748EDD5F3F3686B8FC3BD6FE631ECCAA1E8B1C1E565AD117E54893E
311
79F4672E32F9E46B2A183DFDCF3EECB4D4D077DBEA0DA254D256045109670050129E9B9B1A9E4A11344D61497A992778095151510C4BB7EF2009B63AA4360635312E4CF668B7E0D3D85A8688E2BD83B569439892ADB63461930D428E0DE42E4AC57CE48DA5CC1449530D8BD3D6A0F08DF20C8E8F570F2CFFFCEA286E30969B
311
4654D498A58D9DA782E19FE3F002181838925592C4A1EF0B332D88B61A92C644547BED490D3A42CFFAB70E36D961F694F6307F72FF15A1C79D5B1B5CEFD353D9E2B52566DEC8F8F09CB3E8359C0F68EBBB7898243E34E12A015B2685AB303C04D3A9E00671FF3DFF0A184E4A2ABEB2B666AF5B3A209C73D8EF29DCDB069C9F
311
391EEE9DD0F74C7BCDE16F8F02E3B8816122BBEB50665775B600549D8BB33A54A6BF940C028118BC6878C79958D6784F9DEAA6E26748386FFAF8D0D0101E2847B6563F5D8DC1D78F787BE00E2C941AE12148D4A81599FE8F68D4DA5CDED75530ADE138240300EE13B0FC13A1687FED6774662C05A2B7DFB186732F0D7A9354
311
5D8B0A6390AE5054D9CB582DA846D7A061B3358B45E2B52DDE63E114397EDB7E09233A579155D795BE76102CF277F4DF8B188C4F2879BEAE3C08347124BF9ED23B128259FE107D31E34A652F090B30B39E0D9AF917B76A2806135621A8A60681F16AF216514BBD02711585B5B1AE823F4B2D0369EA5B6BCB863072727FFC87
311
1CA6C9AB79A814D989057E9470A3D238BC87CBB4A0EA49AFE2B86F22E499793CAA9047080450166BDC357524561E258C77CB697F1ABB32562CF87C3B7AA12F911EF19FB3E5C02222E887D08202A60A17151F5E053A86B437771088B4FEE14D652C43E8D939995D34545E12E2FF93D4E366EAD25F10CB7DED141563C3D0C447
311
AF06078A91135FD4B9611583CB4BF3BD167F2399CEAB0E0100F8FFC305F00F1711717173138B4B48C83022295DE657EFEDD97F238ECA80F528AFB4F8D67AD4E2594B9A3AA86D7487EFC313BA95745C186F0CDD84CC12DC9CB0424B42203D351FD9C0A3AF10CC7F388E0329279087386421F194F4A29464C1DEF7EF8BE515E4
311
A199DCD5B909342598D8FE6A231F71336248D5CEC5454455C7BE383B3BC7B260FED27F703FDC39A170F3827239102F59D4DEE7FEF82EAA1A5E4BA94DCC4CC44E7E2EDE20F24244E4454369D2E87C3F823F193FD4FD27E1C23984B01898D15ABC20711A8A558054951A6AE280096BA36CBA439603B7B0B4C45F248C14B2383B
311
4B5CD8ECECE4FF859AD4A6CA2326D020EF090F4041D28DB66E5256B56232CC52829DE8060BAE6BBF37D4B7469B822454FE93210A3E8D15E69FFCF01123222611C51C4FD0A041A0CFA2471CF6BE38D2B20FA4C3525B5B8B586759475CF80ADFE67A284AC24651E52B8E683D24C2622642F27E7C3C22783BCF63648BC398BD6C
311
D0D9C97E7E7E3EACB6126DB7A6C1FD9F1031302EE67ED96F22B77C7CA0239BB324207559B105E4693EB26EC46182A92C9C0DBD24F29B31C5C5AC1F84300E0E17CEEAC15F5736FA4A98971E2F1423BFCD68D4BBD5F86E74B40A369F39507C88FCDB35D2DD8DEBEA4AF999E23CF2816D204200DF6E611781B9884C1AC8888B4D
311
E397320472959434323A5A36B22A8E1F721A270DF3BD65E4A31C11FF048AFB0D8B7B6881423793963A23CFCE935FC189ED36FAE35C46DA3574C979E4394BE52084F3081837BE033396D2EBD80F1F691B273F660D2B32FA27A33B1DE4ADA5F0FA4651511102DFA410DDA86E065272CA314D5249DF91B06BB92807B28EFD54F0
311
8F7B525252782CD276DD02E6B0319B13DF87B1F6361AD6B28FC0D711CF445429B9E5A433CD493051C49A9E03DDB1B147D880253514A5DED88009018620EE229101C041950E2D8AA8E1F5F5438E0C0C0C60EEDEE9E3E0C051948C69F84BB7B2A48A1F3C8EB9E6864687F4F4F6F6E2FA87608ADAF9C5E117B7C1A737E710769D
311
A1D15ECE6A84502AA855398712D5FB51BE92E4EF824969CE18278798AC303C2C7980DD2500ADF8FB1E6D6C2FAAFF9987178923334A244758BAA01A9A1B70FA5097D01E1CC2A58DAD0EC94CE6430AA9B0C10D75E3C6BAC670EFBADEE1607739CE0FC18A2587E3EC3058562014C64219C69BC269082D5C2F4A659278D5857559
311
12176D78A1B641719C2A394CED495A1AC5D583FD2F5EDD93308EA7EAE8A6DD396598BDBD3D4CFED62D18A5BDFDE0DD5C80D1A89BA62697B131AE7CE9A6594138582F1B37D68F1749AC7CB67A70695D48A4A056AC1FBD4E82358CEAE38F54B95A9016F9000F9879C0D9D131768635CA798895F27D6F1614F11F2838A83611AA
311
51C9A3DDB539D42979C29F10465655C17BEC3E2760B80DCBF609198C7B171A531905F3EC218D696025975E986C6B4C666666787271F202805577DD5A3EF0CAFAF91B62DC4B2DB4217A7606282F31D8DDBC290593BAA93EA6353AFA9939B877978481E15CFC9F2755CDC00C538F63A4BA3E80AE009B73CA0185687D339A507D
311
165B74290D6EE46D5C58148F020C3668ABE9EF2F7549170DC80DB41FFC1D678FF19AEB10C7133832B104B80F691B3138F97A92D26E551F1F110400D45AC71A9B9AC41A1A1B1DAEED0B0810638EFFB511D46B121C6FEA0F38CD00E03CFFEB9713FE1F9C263E4DDEC160D0497FA9A132BA608584057FB15380825DE6C7FC3C66
311
7EE947D488A09898D8E939C4953BF4EC9836344D2CC6B2971B2A21A572B06096F4982D2CC7232D46E8EA69DC83722E267754D777F97F96D5DA74E1E75178084D0E70F12AD33E5F71EF2AFA599B2BEBF60A5BE475F444F240CBFE8143C334E7ED9150FEEFEF7EB020C4DBED388DD1D6A167A76F3CBF119B578AE8CFA7736ACA
311
FA4440A1C47185638A0D2F3EB5BDDEFDA958FB13CE4AA4923D5BF840392D45544329525749734866684BF7F8D9D54D892E19BCA9F829A0F8BFCBEEA6CFDFC61D74EA1A645ED7A1FF241739F15694BD835B66FEC5677E40FE69BD3F91AE402F036537218A401CB0828604AD189E575015C6F3F6BBC8AC79CF6C70653847254B
311
31551EFCBEB5978B9DB85D58D0FA41A9DFE9C624834AA04949D24B5AE6D299E072D152D12097920F14AA92C31C3B97E28B6C2E6E9C23D63043ECBBC0A60FDF5BD0C33C127EA8A3308B8B6AFFEB28B4455BF6E7AF4FC6222728357EB8E46E85053E6A8843AB23295BF838ABDA94658FEF3F832F147046B4ACD6F7D48E8FCC96
311
18582961C898D1C7A253C91BFECBDA6BA18A1FCF70755DCCEE2222F41B76D23CA98D0CB3D95F0CF66D57FFF65E2A90F5DF40FC3187621E981BD0BC1D992787212688976B94A8F0C6EF646624B570B78E068826F87CE27041A95C9A4871FF65CC17FCB1639629AD6A9517000D63AC231F3D741CB8430777E7ECF80CE7A3F73C
311
0F162F7E56AA71F4DA80A33CD6ACEE78E2C11FAC03DAFCE929B106F8F6B3ED2DC71FF994BD9CEF4E9A94896EF1B6E2B7B4978168BCF0847A3D2A4F1B0500B926E634B174548E9FBAD27153FB5FC36799B1E6C7C38A94E1F9E996796D7B485E635D5287A2AE76FBD11A341DB3F8F810385BB7296391973DC6C37C452A9305AE
311
BBE0CDB6C566DB59FE60C8E94B1FD090354BF51439FFD1B48D725228FFA88C84F686F547107A7A235665A4593B7C34D748C1AC8D56DD5DA861EEFBADDECBBD65117E65851F90351AEB65F0EFCFF4BCFEF24CB7A5879699FAC437A7AF9099186CF006BB923A59E37D7A36A29FD8D2CBB914A5E9D0A8FD212FBF796AE9A67958
311
FF1D5D8B85F78F96219D4714EB919929241B6C018AAE0C02069F8D919961EC5DDFBFB7573E3AC8E08BFB7C8534BE6DE045B3CD63DBD71F7638BA2309CAE398EA3A7D8F98BBBC7AEB367EFA5CFA27A9F8F2F52FE878058E6209C026453F8E7E8A237DFC389E9590F6059B397CFD65183BBF936E86896612A5B5FEE49DAC8455
311
D026218AFEBEC12B3523A45B57B82C9C97E02ACFA1184DB18E48CF615DBF39C3CC6F0B4AE6BBEEA2E39D944E290302FA3DE33FA7E40296E2EF7BF1CD855BBECFAD0FD622BEE9746FC4FDFDE545AE6E3BC234CADF83A0FB76DFB145BF3828AE3436368AC24989454F8FF70A177672C711CAA1A76107218CF948CA01F873520E
311
7A2B118EBB161ABAD432932029628B6761590C98AB590C8C8C79798CE9F715BA696E839E9131A4BB68BE923F1747FBFF165331FFDD4D05997ACD168F12CA75348DAC04C7F509FE83898A8B421181AF492861CE81E4A2DD0A30850CFA95E05F097FF70F9E777310D584A75BA7018922E271DAB1D785671157685B7D383D3E07
311
4DDB4F1E44EF04B07BAAC75A062077C54B9752C738C9D804D402E02851F3F89605AF189738C18C021D2139EAF72513824E10DDD3047BACC8521ED7E98B257D1166903B1B08FA6F918FD7E162913FEC7D0EF4787E29C35FBA8C6E2C9C20E9AB30AE42CA2A01A090E7D010C1B5BF9CEE2A304BF3A987FB40D836979B79E18D70
311
F257DA61E808472DD85B82761825779D6B90CAEB0F23360C6F80A7D7D77545E95B3DFF0CF96A827F9B5BCECD2C9698718417EF80FEEDEE938AFF55859D0D540B7FE09435583A6F04874A0C7E8CF234DF4879722000167F5872CEC6BF3EF7E5A8CC8121E6A359227C8A29C95212F9F735BC72A887D56B8F309FC525BFB4FD76
311
7AAEC4AEFF249CFBBD2DE1AB9969A6155C7D8DABC307E47324C1F916C7BCFF40ABA5644E9FFB9238D19ADADA49D9610F01ABBA57E4DFCBDCCBB2B93C8953206C91DE01B0E2651A6D6C31721915B31F7B7CBCE55466F6D70402788FA91D73BE4ADCBA99A35F17D6B83383704917D6833F0FA3CD45C926ADB8BC17999A4A0AFB
311
CE2541F7B8CF4C2F5FBA611B3E626D64407CB32C122DFF4EF8674D6EDBB86C8F7C6A16D50FA685E2CCA34F8F7D1D8265BB0042E9D7F1F666F7BE5FAA5184DF58E12122A42EF02F461B3F369AC746F96528AD208512AB56844CF75B97F352DF7995024FB02855385854F3798670D01CAC771AC3E1889EC25F61A20C1F8CAB46
311
898817F9C47E2CDA1F286BF2F358298709FE567C91133E2638C8B53975E753EA8BFD3578B5F7186B7BF084EBA3F77BAC3132A5779902EC22AF2D2E79F42D324E083386DAEE9810D1B44A5DAA54513C7A71E52A4AB9257D975B621308FE4D2141CC3DCFE946C154A3C1DFCCA7629EC69ACFA831634ADDA93C0388D2A9A2DDAF
311
CF957C6995BCE7FBB6DC4EBAE79E63EB08E9A25F52F67076F7093CA545CA3053B5BF576DEAD4E0017143C5F759F32B2D6F145B52B67B48909B7C7FCA6586EE385A2189C16932CB6DDFD9152AE317C430492A578ED27B72D85D40C7C93C097939E1B50F4D67F05334FE9DC362C30B7FF561B95259138ECFD9274C8D695C31B1
311
4D4EAA9F3D7FA8DDF652F8C5DEFA23284C799B7D94416DEE81E05A866302DC70192A5368EA65E1CED8BF107A1E2D3119A71E85DC1A7B0C1E93274CE04DD0F2ABC8AC7C987FDB002B6F81757B43502EF7A0D92E416494FAEEA4C9C090CD9557AA4D532F4996A272B94355C5A0E4974EEA9627476F30809B94D8D8D860062E02
311
204643BEC7D0438AF800FC7E2B26955D595421E83C69E1A07E0E3122285835F014AD538188CF9737CE76D464A353FA55A001AB2526B84E985083693BC76FE211CA1D000679C889E3C009832C87E1AC2EDD05C302557422DF0800E316FCAC86978A371F025A6C7DAA9F333E7BD160403A1A06EA75AA9888FF01504B03041400
311
06080800DB8A4D4628BB58AF800100009E0500003D00000036353931373044432D433031352D343331422D394342452D3738343842373346383230342F536368656D61732F436F6D6D6F6E536368656D612E786D6CBD544D4FC23018BEFB2B96DE15493C78601010A34B880709DEDFB52FD0D8B54BD70DF6EFED3AC0B12E64
311
42E2716BFB3CEFF3D18E26FB440405EA8C2B1992E1C323095052C5B8DC842437EBFB673219DF8DA659866649B798C078B48AE6410122242F2A4994AC7F93815DF85C049C8564CA0A901499DD886B2EB9B1E02448F358701A9235880C49A0119892A20C89D1B9FD768815CAD268CB5E0355B40B1E47F3E37A2020464BED06AA
311
57CE8FCC20C3C3446D46761A2632A8C1283D07031EFF2AE7CCB1BFEEE916E406DFAC8E36FFD99A9D60A6944090EEDC3B670C7DC13DE86B6B2C5C240D6E503BB85ACD579D513F1B9F9A69DC9CC22AFA80C426D40AF0B21EA168559156B6276F0F726A6BFF04DCD513A87A62CAD41FB24FCB2858B3952E3D852084DA25B9303C
311
15687973CC8E8AAE11DF2836C38C6A9E765E8C1BA1BFB1DC29CDFE518C8B5A7655A4ED7E77291ABEB80DBD82EC866ADE1B8D05AF9E35CF09D7A061F38A986D9EC412B8F0F65E5D81534D9B231D1E5A8FE577A241F3A5FD01504B0304140006080800DB8A4D462CCEBD668A040000E01200003E00000036353931373044432D
311
433031352D343331422D394342452D3738343842373346383230342F536368656D61732F47656E65726963536368656D612E786D6CD5586D6FDB380CFE7EBF42F0F7A649B70E1B90744856B4970F450FCD7A5F05459613EDE4174872DADCAF3F522F8ED3B88D2F1D06AC4050DBA2493EE4438AF2F8EB73AEC8466823CB6292
311
8C06C384888297A92C5693A4B6D9D9E7E4EBD51FE3A931C22EF85AE4EC6AFC38BF261BA626C9AD288496DC3F4FCEAFC63366845F7A10452AF41DB320C0D44EC26EAB20918735565582695670811A6A49643A49A6E9069FA4604A64B29016DC4B48552F95E4932463CA888468C1D2B250DB4962750DF7CE273069CE8363F1FF
311
4EDB00E0A21999574AE4A2B00C353B93F3BD4777B8A61ED8F604ABFEDD79CE56A2B7BDFBDBC50996E0ADDE16FED26223C5D30956C29BDF4A55EA686E5E58B112DA45CE67F76F4FA27EFA3FB672FD7372FC388FAECDCA5209E693CAD167BADCD272F943701B3812F8A3D852008B1D2E32DB927B2F833C6EA95879925356D254
311
582695095A3CE982924720BE5774A3CB9CDCDB350427D2DF20DA1B5532EBE2D5D6288D75D4F7E4FD9890A0EF8E3D93EBB8F8BA4758158EF6FB90A6F9520281C93DE7AAC6D24607DA296BB96018123F821A7D6A5C5884050C475DA4865442732C8B95684A50165CBB3A32F25F783A4A480ED59AD7F924B968AEA50131F46303
311
223E6A397B0E52976030DC1DCA81D7E7C1EDEEA42C19FF27635C505E2BD5198A599020DF50A2330FCB3AAF28CB0124108429553EF1B228802E2265D8F7CC2401042B155BCC7070F1E5C55F13B4A9577362CCCE46C32174E010C3C378C44841A4BDA00FE3A12006CE11EE6AEC59894D3526DDE1CD59D503ECC324017F8061B7
311
F162162FA62EDD81AE3308617770796DCBDAD2B2625C5AE8A63DE20B2C8AA5E95E76E5730823955956E33E705425A2187C185D36489A1B44D3DCEC2172F6BA2105C3546287A7194B2331768EBBE64F6E70A9930ABE0ADEA89E9E2C38523B810287AD67A54A039C1606EAFE68F8304610BB9093DBDDABC0B2AE4E290DCDA153
311
76D7E39F72B556F0B32EAB5D3D498B4C41ABADEC3A1434C422D87E8025A84BDCB2B1417ED750FAE4DA8976863974C577C7F902D3F156AD354DEA3540DE6BEAE2BEA52F7A2EB4CA43802ECE5BF2CE2EDC9347179FFB023CE412E60BE16DA0BE29B374988A553F561DC04615DD35F7D2C8979F60E5955CE93DF29DED8AFA1EE6
311
642D53418086C03C47C377910F75F7E8F5EF665F70B60FFB22AEDF897D119E8423C773E819A3C1E55E550599EE6EDCA34D0C86FD72057DF2CD46F16A470682471C164E4346D5306BF12D7D12D82CFF673D41636C347443FEB51B50D72EA171A8E4A58623A4A16E0FA2B8B10A0D23268D87C33896EE8FB73305A74BF224EDBA
311
DFA0BD674AB354D63DB7BD5D83426761C077DE767728235446A552754EB93B755891C3C4CC6CADE37CF0E912A7BB38DBA010F9DE1282EDF470CA69A9CDA482E334C4A6EA4107987980B17E72F31730EBF88BBD39E7C629F56797A3C0009C2C5AE7951D9A05A02773440F02EEB4DE396A3B6A570C72CCFBCD823B0B8ED3F1D5
311
CEDDFED772FA70236C83FB7D86C385D570B87107535572A60A96035F8F7C6A7192F13007246BBE0521855E6AC46F3E27689CEE7D186A6FD679D98CDCAD13333E04EBE7ED6F55FF01504B0304140006080800DB8A4D466180134D5F0100006B0300004500000036353931373044432D433031352D343331422D394342452D37
311
38343842373346383230342F536368656D61732F52656E6465724D6174657269616C536368656D612E786D6CA5934D6FC2300C86EFFB1551EEE343DBA41D1A103009551ADAD40EAE28A4A68D9426284961FCFBE5A340113B2071746D3F765EBF4DC6BFB5407BD0862B49F0B037C0082453059725C18DDD3EBFE3F1E8299918
311
03366715D474942CD30FB4A782E00C64017A412D684E454CE3FE28995203B162A6EA5AC94B66997D225E109CD63B0135484BAD1B3C07E9080CA35DB3119C11BCA5C200461A68A1A438126C75E3E230D40FF81FB3F03C91D1E3A3A0AF79FE28E25BC39EC3E17E4C2A2D94A0833A51AF55BCCA7D88572FCBAC529C4140B020FC
311
3AAFA886621DCED7EAD7664CC86024E806DC297DA1BB393E4156543457A4537DB8817349A70F8ACBF09B3EEE2CB2F33E91B65D60786E4E3B39B77E3FEEEF5650424525DA657FB8B46BE6BF064646F0A0F7327C0BC1BC1B4CBBC1C419FA3CCB23500007872A2580CAAE5461865565294E4EDB4617B62FF579DF9A5B2F54E834
311
076A597573A020912FED777F9B3F504B0304140006080800DB8A4D4696BDA92951000000570000004700000036353931373044432D433031352D343331422D394342452D3738343842373346383230342F4173736574446174612F41737365745461626C654F66436F6E74656E74732E62696E53616060707574B630337475
311
D6B5707333D735713473D675727674D47571B670363333B0343534311102AACB4D2C492DCA4CCC492C28484D2C4ACC4B4E050A82012F90744FCD03CA26072767A4E6260200504B0304140006080800DB8A4D46F865834058000000680000004500000036353931373044432D433031352D343331422D394342452D37383438
311
42373346383230342F4173736574446174612F53747265616D56657273696F6E5461626C652E696E66558CBD0A80300C06F73E4B117FB66E451741D041DC5BF98480A492E4FDD18EAEC7DD4555D89EF28DF51A0B1BD8340C4DE7DD848B988C0ACF0649566493F2408C508DDEBB99D5129FF8F1AF8CF5B9503E20FAE5A16B5A
311
F702504B0304140006080800DB8A4D46B9CB99D5350100009A0400003600000036353931373044432D433031352D343331422D394342452D3738343842373346383230342F4173736574446174612F636E782E786D6CCD94314FC3301085FF4AE43D7612A84095E30AC1D209242A06B6AB7369AD3A76645F10FC7BEC3603A8
311
88A943D7F3BBF3F327BF93ABCFC1161F18A2F1AE6535AF58814EFBCEB85DCB26EACB7B56AC940CDED30F192B1C0CD8B25C664AEE829FC6B9D4610F93CD556BDC612E3EC488B481ADC5E7FED13B42479115DA428C2D8B7A8F037098C877180FBC03025EF380D14F41639A4466C079920E08841D534D552FCAAA29EB9B4D7DB7
311
6C9AE5E2F65D8AAC5472EBBD9DF5265D16FC58E8D3AD4C5552E46325A760664D7E0B537F79E45BE3A4484A252385C464EEA0AF3175C0385AA381123AE13521954984304871122B2932835F249EB037CEE496753206E4C34BB287810C5E1D91FFBC5E9ECCDA4502A7F17A799C3BBC3C85D7E30F7A3B05F298986BCBC9B9436E
311
5C7F819488E31A49A1C95B457D03504B0304140006080800DB8A4D46D01B7DB5E40000005E0100006700000036353931373044432D433031352D343331422D394342452D3738343842373346383230342F5265736F75726365732F45414338363145432D384646372D344136432D424341412D444338433636303935313434
311
2F7468756D626E61696C2F302F636E782E786D6C4D90C16EC4200C447F05714F48D2AE5AAD1CF627F6D44B458937454B300253B57F5F6839ECC9D6CC93E519B87C1F5E7C61CA8EC22AE771920283A5CD857D95856FC3AB14170D89881F3029823970954D961AF644257669C39B29BEA9DE857B17770C989C7D8F6197C27A93
311
F32AB3FDC4C38CA6306D98EFE366D88CF39830534916EB017607F60336A161DCA45EA6F9344CCB303F5DE797F3B29C4FCF6FA01AA9E183C877DE05C6445158AA4BA8DF4CA09AADA124D7991641EA87D740555343E654D377887F62854C8CDE59C3B524459691870AA13940FDC31A544B5BC75F1575B666F42F504B03041400
311
06080800DB8A4D46A233C2345D000000800000006500000036353931373044432D433031352D343331422D394342452D3738343842373346383230342F5265736F75726365732F45414338363145432D384646372D344136432D424341412D4443384336363039353134342F7468756D626E61696C2F636E782E786D6C4D8B
311
490E80201004BF42E6EE76F3C0F216234B883063108CCF170C074F95AE5473F5C4C06E932E4F28601967600677D21E9D8092EDB002539227A2FCCB80E1168D80A6417297A89C5D6963B7129A0D1E8F2EE73AA7B62BBEB8B27DE50B504B0304140006080800DB8A4D46BE89762363000000880000005B000000363539313730
311
44432D433031352D343331422D394342452D3738343842373346383230342F5265736F75726365732F45414338363145432D384646372D344136432D424341412D4443384336363039353134342F636E782E786D6C4DCC3B0E80201004D0AB90EDFD75167CCE820A4A845D83603CBE602CAC26799919AEEEE0D965E2E90805
311
0C6D0FCCE04C8BC355404EB6198129C92351FAD580A10E464065907C8D948F8F166375F655BDC3FDC3B4E530A176BE7057BDC43B2A593FE403504B0304140006080800DB8A4D46EB04BD767E000000A30000003600000036353931373044432D433031352D343331422D394342452D3738343842373346383230342F526573
311
6F75726365732F636E782E786D6C4D8CD10AC22018465F45FE7B6B03330375D8DFF61EA3B921390D9BD1E3A7B18BAE3E387CE7C8EEB37AF2B6E9E56250D01E1A2036DCE3E4C2A2206F3315403A2D538CDBDF0D481857ABA062D07249313F7734D979CCBE52EFC26387BD41C1DB1EA9188633658623BDA231F48602396F2EA7
311
96B1621CAB52E6D72B5BF3FA0B504B0304140006080800DB8A4D468F613288090100004F0300003400000036353931373044432D433031352D343331422D394342452D3738343842373346383230342F536368656D61732F636E782E786D6CCD93BD4E042114855F65423F3033BAD16C18B6B0B0B2512B3B84BBBB64813BE1
311
C7E8DB0B23C56E62A7C57670F842CE395CF8EED3D9EE034234E86732D28174E0156AE30F33C969DFDF936E2778404C6718E9BC7430932A13C10F01F3D2240D7B996D55ADF1A7263EA073E85FD4119C249DB232C699C4754B654EA8219EA89649D29106889883827243320EDA0D2A804CA089988671D30F533FDEBC8E77DB69
311
DA6E6EDF38ABA4E0EF88B6F1C62708B8740ACBC2173B0367F558F01C4C636A0622CEBDD1D2066785103CA6503A6864FA5A0A2997C51A2553A98AADE00F2338AB512F023F828760D47526BE30F76F919FC16B084FE5958291F63A93FFE6F16F05B075F6CB08D4AF20BE01504B0304140006080800DB8A4D46E3603EBE7A0000
311
00C20000002C00000036353931373044432D433031352D343331422D394342452D3738343842373346383230342F636E782E786D6C6DCD410EC2201085E1AB90D9DBEACE05D09878023D01A1D34A8419C380F1F82DA68B9AB8FDFEC93C3D7C52546FCC12980C9CBA232824CF63A0D9402DD3E10C6AB03A3397DD192872090D
311
3406ABE7CCF5B5D18893ABB1690CF4DCF02282E5EA8A5BB96FFE536F285CB347F95BEFFE81C9ED5AFF9D5B1FB575BB00504B0304140006080800DB8A4D465801A65A7E000000A300000007000000636E782E786D6C4D8CD10AC22018465F45FE7B4B9B4B07D38156EF319A1B92D3B0193D7E1ABBE8EA83C3774E3F7C568FDE
311
36BD5C0C12E88100B2E11E27171609799BB10034A83EC5B8FDDD008571B5122A06D52F29E6E78E263B8FD957EA5D78ECF0DC7694938BC186D016B3866ADC197DC55C30A179731327C28A71AC4A995FAF6CCDAB2F504B0304140006080800DB8A4D46CA1DF9C9A900000073010000130000005B436F6E74656E745F54797065
311
735D2E786D6CA590410EC2300C04BF12E5DEBA70400835E500FC800F84E0B411AD13252E2ABF27A55740421CEDDDD9B55CEFA7A117778CC979527255565220197F75D42A39B22DB652EC9BFAFC089844F65252B2630E3B80643A1C742A7D40CA8AF571D09CC7D842D0E6A65B8475556DC07862242E78CE904D7D44ABC79EC5
311
69CAEBA537E3521C16DF5CA5A40EA17746733E0B6615DE7217475F386F18B9481C510F1F021CD9FF027EA0E1F5C4E609504B0304140006080800DB8A4D463DEE336E64000000790000001B0000006175746F6465736B2D64657369676E2D7061636B6167652E786D6C35CBC10E83200C00D05F21DCA56CA76D41FC96062B12
311
0735B69A7DBE268BB7777961F8D5AF396893C2ADB70FE7ADA196782C2DF776D7A97B5933C430F15651E5469C55D70F80A4992A3ADC954792C525AE70A1E4D6AD9816CC044FEFDF01FE3FDE907802504B0304140006080800DB8A4D460C349AADF9000000960100003700000036353931373044432D433031352D343331422D
311
394342452D3738343842373346383230342F4173736574446174612F636F72652E786D6C8550CB6EC32010FC156BEFD8806D9A4698C869D32FE8A9378489831283C5A3EAE71712576A4F3DED6A76667677F8E16BB9559FDA07E3EC00A4C65069ABDC64EC3C408A67B483EA20B8772EFEA24165E5A2072830083E7B97D60D52
311
CE466D0B6ADDA4375086A02354EA969B0182BAE845D632C5CC08D77A95EA2A675D93FAC1133C25336D523365377336DA83C0DDF8F276C20CB17624A87BC647B4636C44C7965136F6A4ED4F8C37452C7834CBCF76E5B58C7A024131E911A688B4EFE4694FE9BEEF3E7853988287E8F3CFDBD2F21D88B15CFD2AA3E4CD63FAC7
311
35ADD3FFAEC9D8D8D2CDF5A10820483EF23E10BC2929E5728F30D792A8F806504B0304140006080800DB8A4D467DEE6729F20000008E0100006800000036353931373044432D433031352D343331422D394342452D3738343842373346383230342F5265736F75726365732F45414338363145432D384646372D344136432D
311
424341412D4443384336363039353134342F7468756D626E61696C2F302F636F72652E786D6C8550CB6EC32010FC156BEFD8806D9A4698C8A9D22FE8A93784898B1283C5A3EAE71762576A4F3D2D1AE6B13BFCF4B5DCAB4FED837176005263A8B4556E32761E20C52B3A407512DC3B177FD1A0B272D1031418049FBD4BEB0E
311
2967A3B605B56ED23B2843D0112A75CF8F0182FAD08BAC658A99116EF52AD54DCEBA26F5C6133C2533ED523365377335DA83C0DDF8F27AC10CB17624A87BC66774606C44E7965136F6A4ED2F8C37452C7834CB4FBAF25A463D81A098F4085344DA37F274A4F4D877EFBC294CC143F4F9E63DB45C97E378B3A17FDCD23AFDEF
311
968C8D2DDDDD36450041F2728F0FC19BD24E1E8FEAF22C4D8A6F504B0304140006080800DB8A4D466CFAABAFFA000000960100006600000036353931373044432D433031352D343331422D394342452D3738343842373346383230342F5265736F75726365732F45414338363145432D384646372D344136432D424341412D
311
4443384336363039353134342F7468756D626E61696C2F636F72652E786D6C8550416EC32010FC8AB5776C836D9A4698C8A9D217F4D41B05E2A0D86019A8FAFC42EC4AEDA9A75DCDCECCEE0E3B7DCD53F1A9576F9CED01973514DA4AA78C1D7B88E18A0E509C385B9D0BBF68505831EB1E320C9C8DAB8BCB0E496783B619B5
311
4EE91D14DEEB00859C52D38397373D8B52C49018FE5E2E42DEC5A84B5C6E3CCE62346A971A95DCCCD5E81578DD0E2FAF979A22DA0C18B5CFF5191D281DD0B9A1840E1D6EBA0B6555167316CCFCB35DAE5A04AD80931A77A82608376FF8E948C8B16BDF5995999CF9B0A69FF7A5F93BE0E116E70F2BCCC4AA6DFAC7352EEA7F
311
D7686C68C8EEBA293C709C8E7C0C38AB724AA93C224C3527CABF01504B0304140006080800DB8A4D4624B38E320E010000B10100005C00000036353931373044432D433031352D343331422D394342452D3738343842373346383230342F5265736F75726365732F45414338363145432D384646372D344136432D42434141
311
2D4443384336363039353134342F636F72652E786D6C8590CD6EC32010845FC5DA3B36F887B8112622D479829E7A4336495162880C547DFC42E24AEDA9A745C30C1F3BECF0B5DC8A4FBD7AE3EC00A4C450683BB9D9D8CB00319C510FC581B3D5B9F0CB0685558B1E20CBC0D96575F1BE4993B341DBAC5A37EB4D54DEEB00C5
311
744B8701FCF4A11755AA1892C35FCBBB9AAEEAA24B523E7D9CC568E62D6AE6F49A391BBD02C7AD90A71153441B4150FB828FA8A754A063436B2A3AD2742365550E7316CCF2439F56AD829E81D7987408D788346F64B7AFEB7DD7BEB32A3B39F3614D3B6FD0BC1DF051C89E9251A2FE74DAA15650898E5208F42A7B49297EE9
311
48DBB2EA19FC038CF7F97F60343634F5067C263C7092FEFFB8E0ACCA05A6F16837CD5C36FF06504B0304140006080800DB8A4D469868FDF0FA000000960100003700000036353931373044432D433031352D343331422D394342452D3738343842373346383230342F5265736F75726365732F636F72652E786D6C8550CB4E
311
C33010FC9568EF4EE23C4CA91C57292A1F803871B39C6D6AB5B1233F109F8FDD06094E9C76353B33BB3BFCF0B5DC8A4F745E5B33002D6B28D0283B69330F10C399ECA03808EEAC0DBF685018B9E0001906C16767E3BA41CA9A8026A3C64EB881D27B0C50A85B6A06F0EA828B2C650C89E1AFE52AD555CE58D2F2C1133C463D
311
6D523D25377DD6E840D4DDF8F27AAA1961ED4849F75C1FC98EB1911C5BD6B0B1A76D7F62BCCA62C1835E7EB62B8732E004A2A9694FEA86D0F69D3EED9B66DF771FBCCA4CC17D70E9E76D69FE0EC41B7A1B9D42CFABC7F48F6B5CA7FF5DA336A16D36D787C283A0E9C8FB40F02AA794CA3DC25473A2E21B504B030414000608
311
0800DB8A4D46160A94CBF7000000940100003500000036353931373044432D433031352D343331422D394342452D3738343842373346383230342F536368656D61732F636F72652E786D6C8550416EC32010FC8AB5776C836D9A4698C8A9D20FB4A7DE1010072506CB40D5E7176C576A4F3DED6A76667677D8E96B7A149F7A
311
F1C6D91E705943A1AD74CAD8B18718AEE800C589B3C5B9F08B06851593EE21C3C0D9B8B838EF907436689B51EB94DE41E1BD0E50C8476A7AF0F2A627518A1812C3DFCB59C8BB187589CB8DC7598C46ED52A3929BB91ABD00AFDBE1E5F55253449B01A3F6B93EA303A5033A3794D0A1C34D77A1ACCA62CE82997EB6CB458BA0
311
157052E30ED504E1E61D3F1D093976ED07AB3293331F96F4F3BE347F07FC6DBDD3B36A9BFDF18CB3FADF331A1B1AB27B6E0A0F1CA713D7016755CE289535C054739EFC1B504B0304140006080800DB8A4D461224E54D01010000D70100002D00000036353931373044432D433031352D343331422D394342452D3738343842
311
373346383230342F636F72652E786D6C9591DD4EC42010855FA599FBFE405BDBDD5036E9AA4FE0957758662BD92D34FC181F5FB035EA9D5E410EDF99E1CCB0D3FB72CBDED03A65F400A4A820433D19A9F43C40F097BC87ECC49935C6FFC020D362C101920C9CCDD684759726A33DEAA46A2371178573E8219B6EF132809B5E
311
711185083E12EE5AAC62BA8A190B526C1C675E2D5FD6C9A2F02881D38AB4794573523F91EE48E9B16D9E599948CE82D2BEA67B335C5E506666F53112F09695DB6BA482923BA364FCA3BA28B4C0EFDA03E9AAFB737E4E1D9A9A8CF9E13C3EE45DDFF463573FF6B46A629168E6CC791B27B3174933F8AB7D33FE4A1656F9CF64
311
9BC30127DFA1CA3466CECACF1DC433AD847F00504B0304140006080800DB8A4D463577252907010000B201000008000000636F72652E786D6C8D50CB6EC32010FC15B4776CF083A6112672AAF40B7AEA8D0271506CB00C8EDABF2F24AED4DE7A5A3433BB330C3F7C4E23BA992558EF3AA00501649CF2DABAA183359EF10ED0
311
41F0C5FBF84B06C8C9C9749061107C58FC3A6F90F22E1A9751E7B5D94019828980D4981E1D047531932CE41A93225C8B59AAAB1C4C418B874EF068A79F55B518198D065111DA6252615ABFD1A77D55EDDBE69D975929F8BA5ABD59599DDCEDD99A050469FA97D7136198D53DC5CD3339E21D633D3ED6AC627D4BEBF6C47899
311
97050F71497FDE8EA49C110579CBBEBC7C50827F783F6E82144A23EFC6AF64C2CB4CFC09BDCEFA1FA1AD8B75B51D7C6C04103405BA13C9383798C6BDDE3473DBE21B504B01021400140006080800DB8A4D4644760473D4000000200100004F000000000000000000000000000000000036353931373044432D433031352D34
311
3331422D394342452D3738343842373346383230342F4173736574446174612F446566696E6974696F6E4974657261746F7250726F706572746965732E62696E504B01021400140006080800DB8A4D46B2BD1FE8F90000003002000045000000000000000000000000004101000036353931373044432D433031352D343331
311
422D394342452D3738343842373346383230342F4173736574446174612F496E7374616E636550726F706572746965732E62696E504B01021400140006080800DB8A4D4688E57597CD3F0000904100006B000000000000000000000000009D02000036353931373044432D433031352D343331422D394342452D3738343842
311
373346383230342F5265736F75726365732F45414338363145432D384646372D344136432D424341412D4443384336363039353134342F7468756D626E61696C2F302F67656E657269635F706E67504B01021400140006080800DB8A4D4628BB58AF800100009E0500003D00000000000000000000000000F3420000363539
311
31373044432D433031352D343331422D394342452D3738343842373346383230342F536368656D61732F436F6D6D6F6E536368656D612E786D6C504B01021400140006080800DB8A4D462CCEBD668A040000E01200003E00000000000000000000000000CE44000036353931373044432D433031352D343331422D39434245
311
2D3738343842373346383230342F536368656D61732F47656E65726963536368656D612E786D6C504B01021400140006080800DB8A4D466180134D5F0100006B0300004500000000000000000000000000B449000036353931373044432D433031352D343331422D394342452D3738343842373346383230342F536368656D
311
61732F52656E6465724D6174657269616C536368656D612E786D6C504B01021400140006080800DB8A4D4696BDA92951000000570000004700000000000000000000000000764B000036353931373044432D433031352D343331422D394342452D3738343842373346383230342F4173736574446174612F41737365745461
311
626C654F66436F6E74656E74732E62696E504B01021400140006080800DB8A4D46F8658340580000006800000045000000000000000000000000002C4C000036353931373044432D433031352D343331422D394342452D3738343842373346383230342F4173736574446174612F53747265616D56657273696F6E5461626C
311
652E696E66504B01021400140006080800DB8A4D46B9CB99D5350100009A0400003600000000000000000000000000E74C000036353931373044432D433031352D343331422D394342452D3738343842373346383230342F4173736574446174612F636E782E786D6C504B01021400140006080800DB8A4D46D01B7DB5E400
311
00005E0100006700000000000000000000000000704E000036353931373044432D433031352D343331422D394342452D3738343842373346383230342F5265736F75726365732F45414338363145432D384646372D344136432D424341412D4443384336363039353134342F7468756D626E61696C2F302F636E782E786D6C
311
504B01021400140006080800DB8A4D46A233C2345D000000800000006500000000000000000000000000D94F000036353931373044432D433031352D343331422D394342452D3738343842373346383230342F5265736F75726365732F45414338363145432D384646372D344136432D424341412D44433843363630393531
311
34342F7468756D626E61696C2F636E782E786D6C504B01021400140006080800DB8A4D46BE89762363000000880000005B00000000000000000000000000B950000036353931373044432D433031352D343331422D394342452D3738343842373346383230342F5265736F75726365732F45414338363145432D384646372D
311
344136432D424341412D4443384336363039353134342F636E782E786D6C504B01021400140006080800DB8A4D46EB04BD767E000000A300000036000000000000000000000000009551000036353931373044432D433031352D343331422D394342452D3738343842373346383230342F5265736F75726365732F636E782E
311
786D6C504B01021400140006080800DB8A4D468F613288090100004F03000034000000000000000000000000006752000036353931373044432D433031352D343331422D394342452D3738343842373346383230342F536368656D61732F636E782E786D6C504B01021400140006080800DB8A4D46E3603EBE7A000000C200
311
00002C00000000000000000000000000C253000036353931373044432D433031352D343331422D394342452D3738343842373346383230342F636E782E786D6C504B01021400140006080800DB8A4D465801A65A7E000000A3000000070000000000000000000000000086540000636E782E786D6C504B0102140014000608
311
0800DB8A4D46CA1DF9C9A9000000730100001300000000000000000000000000295500005B436F6E74656E745F54797065735D2E786D6C504B01021400140006080800DB8A4D463DEE336E64000000790000001B00000000000000000000000000035600006175746F6465736B2D64657369676E2D7061636B6167652E786D
311
6C504B01021400140006080800DB8A4D460C349AADF9000000960100003700000000000000000000000000A056000036353931373044432D433031352D343331422D394342452D3738343842373346383230342F4173736574446174612F636F72652E786D6C504B01021400140006080800DB8A4D467DEE6729F20000008E
311
0100006800000000000000000000000000EE57000036353931373044432D433031352D343331422D394342452D3738343842373346383230342F5265736F75726365732F45414338363145432D384646372D344136432D424341412D4443384336363039353134342F7468756D626E61696C2F302F636F72652E786D6C504B
311
01021400140006080800DB8A4D466CFAABAFFA0000009601000066000000000000000000000000006659000036353931373044432D433031352D343331422D394342452D3738343842373346383230342F5265736F75726365732F45414338363145432D384646372D344136432D424341412D444338433636303935313434
311
2F7468756D626E61696C2F636F72652E786D6C504B01021400140006080800DB8A4D4624B38E320E010000B10100005C00000000000000000000000000E45A000036353931373044432D433031352D343331422D394342452D3738343842373346383230342F5265736F75726365732F45414338363145432D384646372D34
311
4136432D424341412D4443384336363039353134342F636F72652E786D6C504B01021400140006080800DB8A4D469868FDF0FA0000009601000037000000000000000000000000006C5C000036353931373044432D433031352D343331422D394342452D3738343842373346383230342F5265736F75726365732F636F7265
311
2E786D6C504B01021400140006080800DB8A4D46160A94CBF7000000940100003500000000000000000000000000BB5D000036353931373044432D433031352D343331422D394342452D3738343842373346383230342F536368656D61732F636F72652E786D6C504B01021400140006080800DB8A4D461224E54D01010000
311
D70100002D00000000000000000000000000055F000036353931373044432D433031352D343331422D394342452D3738343842373346383230342F636F72652E786D6C504B01021400140006080800DB8A4D463577252907010000B2010000080000000000000000000000000051600000636F72652E786D6C504B05060000
311
00001A001A00210B00007E6100000000
310
504B0304140006080800DB8A4D46000000000000000000000000370000006662782F38384443313042362D443931462D344341322D383634392D4435343430313042303132462F617474726962757465732E62696E504B0304140006080800DB8A4D46000000000000000000000000350000006662782F3838444331304236
310
2D443931462D344341322D383634392D4435343430313042303132462F76657274696365732E62696E504B0304140006080800DB8A4D46F270F1330600000004000000360000006662782F38384443313042362D443931462D344341322D383634392D4435343430313042303132462F747269616E676C65732E62696E6366
310
60600000504B0304140006080800DB8A4D4688E57597CD3F000090410000420000006662782F38384443313042362D443931462D344341322D383634392D4435343430313042303132462F7265736F75726365732F322F305F67656E657269632E706E67355B773CD4FF1FBF73E71C0E67EF7576C9DEF3EC995D46C6A1EC50
310
46649CBDF79E192942562825CE965D8A868C2842C8DE9FDFD1F7E7F138F7078FCF6B3F5FCFD7EBFDFEC41B196891913091804020321D6D7513FC77D8C5070EC3FFEE51B21F068154CC75D455CC028A3EA68992803810109FDDE5D5CEC5521B28A1B422BF80741695D5B529DA1C2D058AD2388BDA9F476F7C2CADC939304173
310
DBF48A452BF8A700C0C70C3D121C1AA15A5270C22E2B9E28763651F7DA0D12CE11077B2ECD0D560B5E3DE2368B1E65C5E1C87384A4CC5F2D9FB8BE39E9B77C753783A37998F5CEF1B4FEE553463245C9712270880DF339E0B882A6BA713D865F6F384C842D440934EF264F4A304F8DE4EEFA1E2BF5E2D91F5ADD9613D6E31D
310
DB33ED31DB1D7916CAF091286EA3D31B9CFECB78BB0060245B943C4C040119FF780A74DD308BA9D028678674EB5504ECF284EE814DAED07440BAF649BE4B55DA2890F4D73E2D489A59EE54FDB0A85B59F2F52C4858A02705C4815A792B0C4A996A2023ECB195073E115E3E3647F64243A8338F2000BCB58DA5692C7E7C3D41
310
3F963FEDF3CF00FBB0F831A9D51360FECA43819F527B89FA260EB63C5DA676830AA3626A3693B23F1A17A0DFFCE3EE164E31B5365EDF0C89EF64D8E38AB0BA9A1117D7C3A0EC44F44F4023095E80BA610DE336D0F99593A88BFC5306E72DF98F7FD132ED95878DF2964EA7E43071359FD83B2BDF9C6B5BDF768F0F3C0FC351
310
199526F53D9460A34511F75D1B63E488178569472C91A94497807A3FD4A390C6558F26D416365C3656DE6E769DA9D8FC73774E1709812842DD8EF96AED1960F79D21B395CDDFE6F92CB4EB962A4668C76990E2EF29798C8941D67DA50F4A5F947872460F1F6FDB794E8A29FD7AC0C0D6E0714339CE258FB17AE8535221E346
310
4A10F29A0BE5EEECEFC5675926A89F49EB14E5711894F6586DB5754EB4D5DA9C6437EBA57DB97A24F8B8A8DB295FFD73266CF57E82694DF5166DDF93573AFE9C9C5EB05F8FEF8E89E0A8917B0B3724DB7BEBB53252581EFC3E38166BA131A3A5B42FE2AD00A769BBFA4458D2DE7822F8C4F63D0B8E21B285AE13325F3410A4
310
35C648C9D91FDEB109E73CEDA7BC796961AF79175E1A3CE4C5E8B0D009B0C9E29EFD98BC8E97554E3D8D838424E270F7685226E5AC268E021EDE3522D583E8F20C0BDE2959EF5BBFEEDAB32FE9A3ED0E39F211A86AA9DEBFC68182EDED132AB8BB794442D2D7EA9F4D8BFF52BC4D55BB165124EE90A42D101E67BBBB292FFB
310
4F66DE5BF2300E44546757DA7CEF8932BFC9F92A0707953491A55C5A5ACEDABD9FA1AEA01BAC3DC5A24E22E7C47213493996EFBC369D086ED9397C9BA6C7F9855C7BD5E15BFC8C53DB3D2A4C5901A57ACD2FBDF4D1676E95338B2C2BCE65FDA4C64F5FEFDC7D9CA5AA1FCF11E193F2FDABF0F4916BF13FB916A224380E6462
310
A9815F2300DC49CC4DF8D055CEF76462F4B7A7ACA7365C2707891370BC1D0AA6203C44CCAB47084FEC057F27FFCD57F89B8B9852459798A675C66BD7CE572CAF71FF7E6D7ECF7BF62CAB7B3F1107DCD04DC55A3F9961700286141C94A4F771FEB2BCDA2DDEE0CB0BAE402FF1DB0100F8E475DFFFC074DDB4498AB7D186A765
310
4DDB1CB680D703D47CEB4E72F8CB13D86A4AA68116E26387B93FD6738779B34FEDB8E517EDF2BAF28D9BE93A1D3A164320E07D42E514725C29515FF361754213EDE06B079A2E99EB1CA82A02019EADEEB87B9AF005BD04BBCECB14AACD6B24EFBE482194A97DD32400685FF1FEF1544D1B14EFB1E7F08E6D2CD2AF52DE757F
310
35F5E62332EE88EA26417AD5C3E0E319D68F25414E6D672BD4522B278C57D18F0113921C71D96527E091F00CEB15AE23D24667369BD3CEFA10C7549D930890BA4366F4EBC55F01F746109F98ABCDD5A3EE06619C6AD78AB33E48E4C9BD21BF7478B385EC05C4F8987E2C1BFA0A60EBEDAA0AE0B015C2720ECE180FB6F2DEFB
310
EB822D96338C9B63822183BBF52FB664A7AE57003AABCE512BF77E7E31BDA2E739AC4C131657DDFE5225E900FB56CC01CDE808FA4A9C9DA16AC679656BB64796283D89812B8F91136AE18EE5EBBAF47A73BE3C153EB5D4CD491B4BFB4FE690A4CF9ABA08C0D8AA64220C438C96EA6CA80B58FE5761E697B3A292EB9FBDA502
310
FA863E49FE694ADDFFF9D62C520BDD1A22014147A0903A05B9B729F54272EF83931FEEC057BFF8C8055C279EAC5C0011804828734024F6CFA319C9CC6867C727184465CD9BB7ED386AFFD96B294A85E3802FAE47244602D8273615952B98C4F23F7EAE4463D9D638EEE374A20959E0FE519C4CFB0FBFE5DD80C2AA3F9DB961
310
D1BDE57E67C9BB47B77FDD74EE3094F5DBBE3EBC1FBDB7393F5116263009E2EFE1AF9A221B2AE234C902BF70E9F280ED23E73908361565964333A3F01D0B006AF32FB21AA1316744B489D5A198E85299241735BE559675130955C902A8ED761FC0DBE337A9F91919AF5CE32AF902ADF9AB2615E00E8A94586BA1A90839B618
310
32FF1BFB76D2EFADE6DB1BA04CCAD3DA649E7E2A0219F592E22F2AD54847EEA8E42271011E9074F8F3DD9FBA6CDF88FFC9FC7E811AD1CA8F4557CE4AFC7BBEDCF0114A48689F20A584520C74DA8127124B767E2FB91A6B186246727BE63C9445BAE02088D58B8EFDC0F1072407CD9B89A13F6303B4A928F593AD489B58E686
310
9325790ADC406036C591729FE14021F94B7796BB11848D463536A092A26F077F94639F7CEEE2A724C66EC885F4A24F8B8A0AC321F8FD149BA529460FAA34E4663C02D41FDF80BCA222D42F0ABFF8490F4FA74C673807C2051D8E467B47B616072860069A9A303ABA9B319D58404461401B0A0F9BE5E1E151C14BC33B32ABE0
310
3DDE91708DFAEB15E7C0D593C86BB7D7EC17BE56E57975F077BFD5525F3A1A361D584A75E08CF29FC7B44B2B3085014F3A5A14517377C3F6B8F37E59514C3B12F8AACDEDDA4DFC49BE5710101534CD6FB6DE15B50F11A09472AABA727F0C49D9CB906B158030065F48EB3625E010CEC1D511D0053474B11E6A4F01C0D6EF1B
310
ED3A944FDEC70E0DDCDC756C86545910E0DAE3BE3AA9A404574C2995CD5CAF9549226BC94B4F4F0F5F9086F418F6B32346464610D8BC7391D3C3A3CCF04CFC1FB2A3A3170E369511868F14EEA4E5E438CC73DB1F3248AA94B6B2FF33B222FF3D1E7BF146CAD229770158063BCE4F5391964DF62F7E52A7BE0EEA829C9E13C4
310
C147D6F93FE59E111DAB5E4594D6F3CD1AD375EE039930EFE5AF2BB2D41C83C7DABD8C659BAFBE8FAB392CA634F3D15C1D945DB4588D2B0824A4EC928AAC565557CA2F0DAA588CA5BE30B3A8004F7BF005E96CBF891D7F18112A3619FDF530DC8AA64954258E1811789B5189B49B4EB53F5F89F7D37523894F3EB57B373763
310
C91E502F52CC99EB7BDDF933FC324C4FFC2561DFFA7339FAFDD0A4BFBE6D3A8FF9ED1FC49898139864602458968913181918F719CCF5A68B2EE9C1FF050E34E63107003B8120FA982C21B30A874E4F5E4B38D5A8290C4B8D9BE48A0BE31EA995BDC37AC6DE90BA17D259DEF53605D55922FEB1855D915B659FBEB350EE0DFB
310
2F9F766E1C84CC8964B75D08667445EAB966015F63A18A9E0A325C1B3DC628C0D3CB60F767FA93CC65F25458BD23C3B312716E5F40E5858AC06EBA9AB14F95DB99147B832069201541D09A0D856E12C629CF32683760EE855537D1901988D5EBC156676C7DD51D7207CF3267AF1D76C2AD867315E44618015313A98B19941C
310
696FED3461CAA9B5415F918556D7802EDACEFD6B2E45853A9735DFC9DBF7E440F9319F8B6805A973BCCDC76C069A9144E51F187EDCC12FC31B5DEAAF0A76137199B106EC84ADA6B6EE697D4E6A96E007417F4E880E8B1E89B4BCE9D81EF611E2ED8F0C1A6C25F620FAFAAB656A7C42D464880E8AFAB0E0FC8EA38CA9A8AEEA
310
EE3E4648BA4680270A89743CDD3E6C6CBF34B7B640EFA285ABC7EA0A1E28F3CC963D114A80123EE66D0AF7D5380EB41909B605AB4765B709B808590458157E69BA1378FEC4B48CAF6A730E3BE3C5EF2DD1A5EAF94B1DDE50CEB55DDFD7EE9A16747FA4B223359FB1FCC69E1194892BABB93A1D5C4E807AC0EA2E30180811E7
310
7A2291F6E7F7FAA5E0F60215BC6024E48DE436C511F0628B8CA189982D4D83CCA17D305A7E923C37941CFDFDCD93ACAF735EF5F0E61BBD3E6C41A59B242790D3A3BAC7064DCD89AA2E37214EC839820949D5CAA31E240D2948E48F690298974A96BA9A8432BC90F5071D6537C9666EA4564796B7AFFFA548077BEEA75F6308
310
3435074BA182F3699557397F71548383FDA8CA34D99B981E72835ECDA5DDDC151315173D05A21F651AAF8524E88209E2E7A737ED1045800CE3390050BCFB8BE588DF111617874C62575039CA588EEFDEFEFE319B739DE2EDC147092A262611E159650E787917885EF08F1F51B8F2D8A71D60B58B190FEF9541A1BE94BC19FE
310
A50784DA1419FE4B0FB51B8D36B5FF8E1286FD8AF42B91E59A5F1CC4D60174E764045FD8C57B18209B217F89A62252BD20BE0E63E12B8E8F029FE19E0E8D0870F58721A557082250D5424F7909369376E41666C0EE77CD87CB283F661D5FB6D0DA023CB67320A20DC7BE661E9E1BFE5463085C557DA1FF9BE835733766C3D1
310
39F2CF9E2208873AD0EB4814DE9E6BF2CAF81614D4D43906ED1C05A3265CABBFE192770FC2F64F940CB6B17B5F166F133C9AEEAD2641807C3E69515171DD74C4A85311513D6EC9530B3B601B6BA3EBFF3B5C3D2F7D69765141E345F75433953D013ADDF8F6AA7DC3F4A7563FE5C7D367937E2900D7EAD0F9FC9A4A1A9B5BDF
310
1FEF08532660C01C5D6DE22199AA774383E306DAB87E301ABB7D213887F9869D4942D0D71E94B27EDF216A318BD488D45DF84529EF575AF3C3938C0AAA0215B01994153E2054A0B894DA5C784980633AAD48576957CF4AEAEAFADC7C587368551C73DBE1E57C58AC713303A8BFC258BD04B51724459FF9E24C03A81E0E0679
310
CEB9B348C0DC998FEB9C6D6EFA77D247CC8F92D3848599ED89A23218D0636465AD1CEEB7DC140D7426F83491C4E8E8281C2FB35240918FFECE880CA2A42D70E8B20B34DF5221C7DB0CF90ECCB9C745B37A47E9B716FF7A97B7A252C1F3814DC7B1E1A7F72B8751D524EF7CAE45B0C73B3BE7D08ED39781B380DDFC9AA4A474
310
9C9493DB5BAD07A6EA6C092FBD0E85DB004DF06B8C9D3089C5320187E4CE1846158C7EA7DDAE8AD9AFFF21AA3A1026BB06A259845E8232DEE62811A4DA9CEAB3A4887320B76E2AE5615EAB7BDF738CBDD01F1E64064BC13D9EC53576751CA8CACD58B3CEB0E6CA585BD089B2A59B9FC101403387AADBDBE70586B93D64BF3A
310
D4453EF9C3B6A93817E8346991798601344F79A83C51F3D50F7BF2683A3605F51A72449489E0EE6169C749C60B1035651103AEE24D24E51A759C840DD3FC6504DA6FE107510E447B43461C79D22970B75DE5E1BD3007D1AFC619A4A4A69B5626AF5E9B8374E20677F77E2F8E73DF868E8BEC7EBA7B6A75EEF7205E1AB9486C
310
B642741D6E03FF13FCCEDB1C4AC129886268B01CDF4B124AF797CF784F3C6DEC97A17D4B558070A0F1C04DA4FF9BDBF34159AEFE958479824B3F58EBD1E19088A2AFDE501B6F2052368A3FD0E650A179EFAB1561E1D27527077136E652676C3670F42DCB3352F48F6BC86D2C3B0051727E41A0A4DC6CE2BE9D47F5CAA2935A
310
3C0539AF080665997194ABECD723B08129CC5B6B21D2E7D54CD4D12610E7E9FB8306771A89576C7A982002775ED44F3F744CF21EEBB27A631671D921938AAEE3EB0D19CD1E083727F607823E817BF599DCED5394E37EEBC2E88782E638920CA641EF74D4CDFCDEF06F4278ECB18E31E7E9876F2D783C8BF429C75395F57E98
310
C2B495A3DA077EB3AC3C158608B6B57FE3EA48484D9A480096FCEE0DE880950E7E5A5714131C5C41AAA29FD19AE81AC145FA1B9E85C7169A5AB837B213493DF7E9AA4B5FBF9CDEB36EBD21EF1181B7CF7366AB2A951D01E37AF4EB835D1BE8C117CFBE7625D2EBCDB0B20C5A4B45CED0BCDE3EE8DA9DA78C2E21DEAAFFD119
310
7E463C33CC6A80FB785669B856EFF7A8CCCA2841B5A5369173320B1170C368B2748D81062EA0296E5E2D95D7667A4A46D98A6FF475C76AAB0A8C8D45E226FAFC9FE0133EA9F60111F99CA81ACE03A1D14C89E8B0D69079C91464FA1D99E651D0EAF606F345C42A8A1AA9BA391031582B96D5B4176A77AADB01F12FD298A75D
310
EEBB2C82F0B8650E880722F8DDD90C56A7A058E5FDEF1AC93545BA27367C76F5D8F9690CB6F8DAE141EDD7971F0FB548A2AE435F224D6E5954CA155512F7332029D5A1230854B79F258EC5FFDB09F5F6343A8EB193229B7F7E79B3E48F8E183860B38C8269D1B53738FF1E0BACF6AADA6D4869E9DE708E79B5DADCC09B1BC7
310
6F649731CFAF59A83FD8BAE4C749D66FA87A3810D4D62FFE826FA400C0F325D2BC0F3CA35F5847B82A2ACC7961745C823E4D863D54460AF792CE6F79B5C7A33B25C3AEA6CDE15A919B6367D781E9D44F61BF828672594A3E1D9EDD6DF179A81F27EAC05B936575D73E05C209DDD2115CFB705DF9BBF3C911589B3640735E9E
310
618FC9C36A7326C82B2205E244C55D56FDB9D5DC93CE958D4BF8174D2B3DA54CB3C09F2C2A6DFF73D23B2197355761AD421EC581284A7EF8DE2CE3497C0C804D49B41DFD6A7360844E5BEFFB495CFCDB97A4595911CDBA623274CE852B5E278AF0BEB1770E9D37CD977B2766A7DED0E94B840E1E95E8C77DE5CB6354AF7871
310
427C28ADBEEF7BA0A28E19DE9ACD75F379FE373EAE6DDDAE3834692F9C2B03B4FCA8FCA9ABE8EEEBEBB725B88A7C90941E850682CA04061A7DF0CE82ED49BFAFFD42C309818FAE14755CAAE78B0F73243ECCCAD7DF58FCB9CDFAE7A4D3E6671A613639130D056C8383C8F4FCF4808C331E544DD26E4755D09EA05253B3049A
310
1E32587CC25D72E073E2CD96D04A71BBCB0038FEC3F53D254199C3CDC67CD66640269431860225392B2CB3ECD0B4498AAE78BA1994246AE1EE78F2EDFB79F6C6CB6B5E279C4D373FBC21CB2698C9ACBBEB6A4BB6B39E16AB0E421CCBFC7654D81ED86022F9BB522146F9F4772E2D0E4FA70120C95A85A417BF5078B232F475
310
4363EB1750B2AC2148EB46B1EA72AD9B4D23ADCBC589D70106C3EC2ABEEED84DFE28E718C6C83502C28E9FDD3B09DA0A6F6F7B72B706A31C9E2A331EE70DA56A083D2177BFD63C55B11D8D949FAFCF90B23A1E24B9B5018B9A17E99F2890EC302F330FE7936E2C23F0D237EC8916F5166AB84B62A21BB0B950146962D754F9
310
2CC2C8877BED8FC7B7B25726DD19545392570B3A2C66B58F027BEF412E552D12A588C4A3CC5C3193FCB3485EFFF700D0B9EEC077754A33DC1FB9E25AF814628F91DDFECB667D3F7690803F38D13F8AE39353523BB08FC6760144AFA2CE28236F65EDBB3D5F59A57D612B99E3D7E5F8A851666BF9B5A6658EFC96EEB37A378A
310
BB0EB3FDDF1303AF32C41BD1C8560745D7BD81066B0D6313359CF488563D3BA3F8E2185D1FAA3EBA1397C9D0E3DD232180A4DCADB6AF25DB3AC3CC26589C8239E66E81547BC7E2F328F9884764CA37EB5DBE390DFC03A5246B456A7C3684C4377D0EEF9A350680FA9A077E8B2957B489E09AB1AD41316944C2254B5984830F
310
691C93CAA767EECF976FA5647538830B5E63236A6F0365C1E0F3E327F24FE35EDDBD7360B0F7374837409F7A6311BECC12B7026D4FA1AE204FA3F5FE904B1F420C7A9044AE58E403E7C4848E7DA25DC9EDAC79DD756FAA26B9EA83ACE8A214A2612A22AFA19DAE7DBAC5F8CDE1292A485F98DAC731A29FE01A3966E96BCB9F
310
B5A4C8830E1B9AF0C54B87FBE221A097036E5D28D1F869F810C06A9BB0AC0612F69AEBAF893C6E7AD59460208BAB3A6B09CA4F6BDDAB8CF0D1F84B72487498395A70DCD754796E271099A567A55CF242BBED64696378BB6CF25EF0FCDB589F3A82F1116D010A9AB9FA4358809EE0C973A2B4229BAA876A70B03AB49CBA7FBE
310
71DB1832FFD32F9BF2C8E98075CACAFB36921235D0F552B6A67E94E094097A5D7DF681B40623DA535ADA7A9AD8E9A62407D7C9A5AE51D62A17A83A23728DE86BB56115804D3F2675F2C6B87541A0FC497BF0CA86420F558C9859EBE9FAD62747E323E3AADC03FDCDDFE7407B09DA90B44E3185723C5381EAEF589765E2F7A0
310
99BA46695BAD60CEF3491B8A171F5F56444F7CE9455312C3498C74173AEA0214EC029833B34B650CBB5A5508D5091665309642791708ECF27CF11DB3D797D6CFE474453BD4BFADB768094B2147814D81C7CBAF8228DCAF5564B5891F5EF6A860EB2E323CB82AB868D8EA048880D63B0DE5341F1B3D53297B928A11E15F25E5
310
148990F710747C3509ED14909C552EBE3973246FCE55D00564D8310BC3EBC5085D08D806799B77D6C57FDF5E55837F9E934F09C03C729271B64F12D0A9F9E938107CAF7BF1EC8CF1BB9B42363D33070F4CACB425E605DDB0A34A12BB936DE286B9887A4E2E558F0886498BFF49C311D96C277CF6A9FC0D75AD0ECC5226D7E0
310
E3572012E56D7FDE4410CEC7A6D0F997F225A2055B8B92E3956E875AE4993CB3D4C9063AF98FD45E1BAB165640A43439A2C9181A7C355B297C0A0CCFFAE19B6FA3C2BA238A885FBC98B8F6DAF4B94B97304878DF4D8BFF6A4AEDF79E90ED4E68F00CD7299F4E0D83E35601AF0CBEF18C1E870E74758FA91F5131075004DB3C
310
FCF09AE1DABC11957FD9808C92E8A678CE9DBE40DDA0E0D1D505AAFBCBA208232BFB6FB3704E8985E61ADE53DE74152F5C7DE74B1DEDCD37DC3E8FB30D7EBA8B9EFFC3606BF90B8D438279CB7709FC7C00D327F41817EEA71CD9E49FE9C8C9A81C70915D9F0F15958EC5AA4C3BBFAF46986B90F188BDB24B89DE3C6F29EC3E
310
6F66D84856EE96A35E657CA41B41EFD8DBFA16AD6E91439EA92B40B21C053249F51AE50EB0B24C770FFAF40DF12C8436366819C48E36547D4E7B72FE2BBF10828583057814A668BDF183F6B2E58DFB151103E56303E63D00F39C27C4661605DB644D19175D02E3F0241E8FC3458D17AAAADB117CE9EEA690D0DB01E634878C
310
04C2C9310B69FCAB831151E3AD293BEF6E46B0ABCECB50F5939B39C613D41E81FAE8D34CAE3C4566B761D37185FE864AC32FCB71AEF39DAA5BAB88609BB980CD2F07A8F941653B529567726E2B2A58D079DD57E1E5E31426CF184A04D7B03B985F276D47406AF276FE32E3328BA866EB1FD39BEF57863A317634AA5FE46740
310
9B3873F5069EF0D71AF00AD189D17BA1974ECDB2D623E9E14086386A6AAB5807825C37B015BFE892AFD154920EC437EB945D958E18622E1E0FE2FA06557CE4BB9BBD05A2D40E774DA2B65473791E314B7D6C886820B2FCFE4AA272B3B8B15E7344A145E8AF919B5454D89D36D413E87211186BF6F645E5EC94DCCE8E1C7990
310
22E4EC9BC86D7A0F2AFB1FC4B2CE48F84B3F49ECE65BAD24CADCC07EFF39AB06BE9E6B27A059938EA7208838455383DDBCFCD967DDE4650EF92A14FF933C975DB20BD7FEEBC4487576485963D757D16340D9599FEB362F775F38CA4185A86F74B629C81B133644A3B18FD056E997E0734F9BE26D11C0AAFC669E2AC9FC41D2
310
81F8B2E1C35AE27BCE05F3DA295488096688719D974DF1B5D182DB7792288697F8763CFB43562C1CDEE11C4AABD5C22B6E33F6F389CFC3477C5919DC0D533F8A7A1846B7ADB60ABDC26C43D0CFC8910B7C15EE22675BD02702ED39DB77A87A192CA7A543E6205B979B9F5A6B512A3CA799E198B2D5797C0AF8D1D872CA455D
310
4D431A7879D4DD76110B5FF7F4176B54477A9EB5E4A5D11214FDA585F0382751D8E2582BA5D2075053298FEB8F1537304E32CB22C2E2B693DC0A760B1DFCA751BDC445AFDCBB12820ED85F6D5298933C7EF1211E9E057684056CDA3FEF3BB6052355E162DF27C59E965A8DDB7F9437EB72CDDA3A090DE65A5B2F50326247B7
310
EC67B73ACC7047FC9B353D6EE990F772207C6EC52B39DC2F3C0754821DAB559F7C1809C7D0DD5B0499D0442E0A6E391B3D5DB46D11E731E6794EC77523FBDAA242ED67F9FA1FB684255671F63C9BCFE6E7E896D51001A6113EF2298BA494E0B0980D1FA5B9D60796554C02256B1E0345FB7C6186B6A19D2DCA270416262845
310
FA4F42DB5D9B0A0B6F07FCA2E56C242522E001E0CEB734AF310FC8BFB57E38E03AACE93B3326A2197891E68452B26A6307FDABFEE0223D3C03C3C73D2D5BC054C8311F12004CAE488E5C29287F8156A2CAA4AD0D7BE6B97264E4139F437CE73ADF52E5134C52B819777C18B323A5924E4F67AFD13B1CDC3A61793A79FAF5C0
310
CEB718E441071E797C6DCCB9EFCF7E4A1E9F3DF3C2F9C9E8294E9586868788C972857FB0556D7A26941A7EEB9B580AD78EC40B85DC906B4120A563CA3B87797ED612D3B035962BB75F6515A393F4CB057F564CDF54F2E5A024514E6A1F901DB80C7E70B1FC05E356A7E72FABF4775B3E3FB8F70A2A8E7B6A94542BB3041579
310
78CCC999E707A29CC795E67A59CC546A5D47B368954CA7B6E75EC9E1F6FC73CE3B4F71F8CB1A6B15923D61EAAEB14626AAA9D04A26EB9C66CD1BE86CA31A5D8703DE04CD1EBCE4F5CCB62F93909AD11E55799A781A956ED27D3E738F4538CB04ADABC7DAEF20BC35BA6A90BCC1DC61BA05F20D8832FFB9BC9B15E2DB838A0A
310
FBB7E0C82A562127E0446894F427794C3037186F622BF24DE1B00AA10A23BFA47B2A180D6DA5AD6F7326FEB8C100C2D7142EB2A0B2A9D1008A09BA343D70E054AB69E2A7EDB783CBD92537FAF4A44D1296AC2792729104B3276C276C951D0CF3CF3F1E6B017720A7B8505A5FF9589365979678C36F1BAF759EAF57C60F1FF5
310
FE9DCF5F8E764FF25A2D06CF25117A8FED51884C13B2B750DB0E4F5E3D64124FCF11F0AD8F1CC3B3DA4B38ED22BF1CB2585EE6BFEBBA63FBFD44F9537B9B37BDD6B358720F98A8125AED4349CCFEB0E135F19E208A04CA7E2B10711185D72E381F448036EF57C9F874E54A971CA37A639E986AC0226DC5AA00D5B14FEA9192
310
234B3DE617814FC221C92F33F1D392F297731B567FD98FD91D989379AF567A65B8ADF177591DB90FBEA99BF4ED11B16E50A0AB1DBF1156D034BBE04D69D08F939D8E92BF525A1DDAFF80ECBC95D8F45D3FDD289FD23F7D8B452F8EBB34EC082DEEE68E18EDDF072060FAD2AB1504DD4879BF67099FC58F6E9DEFBF645D1633
310
4A3E9A127C6F1AF6132CF287E433B43A0EE93812B4AA0B194E03EE3FF91EF9C6ED0074A2F6EB18A96A7C9890B1FCDA1F2095E944DB911ED54C60DF16FB74C8CE9BDC7C54C4F14078CF73C2FFF1F1BBCCD7CF64F71407EA1683DBC410D226627F66E509060D5C0AFD611DE681D509DB8DD12FB1265B03C6F5C55FF4C30BD941
310
87FF692B4F152982502F193098A789526A038AB529A52BC0DC4FB6285CBAC10A8B8DB75DCD9BDABBB221E27D1F8DA9F5EE5926A1C8AA9BA9BC09239C6A7F12914EA3B59EFF7AAEC3FFCCE56F1C5C2980AD072793527565E774F4631DB178CEEC691B1F367BEA0CF2907E1D6B854D527065979DDEF002D8B2ACEA7CE21AE297
310
737EDE1D45B31233B73FEA35BCFDD0B09721FDBAF6432681F2FD10C3E9EFB246FD6E854B344ACC9D8A0EEF876A7314B49B6A499FC650B099D650DBFEC7638ADFD245E2B7839DA5AC5F7D5623FC0ECEEC8653FC9B2BDD1AD4D00A566FBA7186DD3C9CD26512551637498CADB950FEC71ADB9A5524285DE328B8EC7EC75D2345
310
AEC6A27C42AF6D9B92155315C80DBFCABBB7DA0FAE425C4FB896B15C9BFAC4FE67DF5A23D30C93DA4D8F36FB15D100050DA6062E22AEC5F4DAC4F6FEEF97AE05DE63C6D38F9E068A20BC5E3B6BCD75320C5090924E7F93640A7735B1A43451C2D91EE62C6238B797349E59890AF3A520DF4A87095F3ABEC2E61F0593416CE4
310
6CDCBE0E00E2523FCCD04408588B5B6C9DB6459C786CE378770B54F51DA3A5E1DF2A3349BEAAC234A6CF8993B598B3B25B4B113E353A4D750FA7534749430F3EBF2512E7EA3FD43C6AB9A1F765A58463B306721A15D224FAFE8C6F5E3432D57EE697DA0DD5A9D4866A8BCCAAA9DFF1F06047851408FEC060471D0E3EB86BFA
310
F46E4B5E60311DC3E3CEA147C75CF971BE74689507154FF2D2E92F15CDB2B9182B11459FD8ACAC5A85F174BC94A7F4EE4C4F5CAFA7C02E37BF0BC77B7DCD0C047BC316F562A01A441AFA7931CC84A28CB9F4AA367EB515778F29BFE61195FA671F4352E5E46E3A64773F1F76EE5EB36D7BCE9BCEAD837A4D77F8DB8C92AEEF
310
6711920D7C7D0F76B0FD0EB7AB83724CD35BCA7D36DDDF5FBB7FF6F04A91F3E2BB3B8F1A43CD659639507FF6331C5F697BCC782AE57D757A27D97F1AB9E0AEDB43F92F1B2AACDF5FEC8ADBAF9F814E2027003BA2F9E144B1938A7A04050AE5D953B82C45619165C813A10E76DD6906B3C16438064D14CDA713AEC420034613
310
E1AC7241904A49FBF87409AFB1FCB9B72FE7933A87D8FBEDACECE4EDCF6A4FE9FB94D5DEB74FAB7CFEAE17EE965DF980DCCA2D04134994F9A2E94D2265DA4FE6AA7B7AC15FACAC2B5ABBCD7DFF542C5314FDAB2E1B9D8B65220B8E2B638BE008E8DCA22678C820C5053664D15E89F2D735B51A84955E81A443545E9FF787BE
310
0FA700A76D136C27DA179A7C6E8939E01BE756E19CB292798063D8B97F44E8A27BCF3A614FEB8BE974A718E86F7EC99B53CA35FA24F61F2B07266684623A3D4CF073E511F3A10A8FDAFAF0078C577F4DF9D339FE7862E5FA47CF4344209E5BF76D783B1B48E152AD281B15FCB934DCDA49CEC5706B1EE8B460F435324A5CAD
310
154725E21AB8044B75A557A79F6C807B9340AA3D92503E866F4274412926C8C504E4D5EF8C0E68DD0B028781A6B4054F11CF18941F101C57CCC796773ABC8DED9CD91FE5788806C05E548895354AEAC96546D55B0E94A59F148D061F42AA398D822CDECA4CDE79E13469BDCC44FDC990F366BA5978C15F97ED80CBFD73B0CD
310
9B8B83A4F6845BDFBFAF034019473FB9A63BD55D3A4A7284757071574029A4D016DCCBE95DD679EF3C4880BF169422F8C89B68A988D2B13793CAED4F74DE7486C72DC94DF46B8E93D8E02EFCB1FF9B3BA10C8AE7F653DF94F4AF466CDDCEF5776687F7C4C14B63E4EED1719DC2EC482D7DBCC7AE518CDE3D5FF86D39000EC3
310
673C0044E1D308BF05F74D1B5F033A7D1BE7F74BC55BBE3E4A20F920946CA0271EB17BD2B80E5660ACB8A29A79F5E4BBA49D4D945B6EEF4A7EFEAA65E5555BBB57A7E15D2F83C69F30BBB978D2B39F1F26FC097424D39BB33CA3D87ABF64E307938B685BAD44F71556A30B7E712CA4FE600613C3E554B69ADE949A7CFE214D
310
F1FFF05CB82151EC6FC31950239F94CF7AD39DC473F6EA356E5EC2C4EFA04383CEFE985A127484366FBEE3C0EC4FEA363E4F6632AE781392FD45D67B63FB8DF70E82734F431FD3443172A0E30A83D60982D55FA6A2CF86DBA8382502ACC6CDEF3B907982EED1160E14863FA242F9757347E1544275CCDCF71ECD5F8621CBEA
310
326B8BA884AD7F825781923E66971F04010D574C541D8427A438A37EEF8AF88240EED7362C953F5A81DE2D56109CDE2524EA0F5D2F87308C0C47BD97AD605878AB8589E17CA83930CB5E0DCCD75853D68B1AB136594926DE426C367428E9334AFAFF90ECE221BB5DC9E5BB53D2CDEF954EAA9CD814F0E5725F1965DD458E5F
310
8487683AD86B9D0076BE3EE91EB1CECC5331A67A3F79D8B27587C12EC2A6A70474749F27B4C0BBAFB94B34189E88DC18964BE4121B9137FD516C7755356E50D6714E31ACD222621EBBCD1CFF81D87479056A9DA0E0B8EA19D24CF937DA89F78E8650CCBDC110AAB6C4E46DCBFD0446BA9E2060E81F314AC2031E88135E5476
310
AC0160EF5C0DD2EEF1B8B5CB2D198BE9A554A9093B5F7D7E4B5407DDFCA1D9C152FD97F55BFFFDFE802954DFEC8995B983E28AC92F1971E28F531DC407A1280EB125F64A72E617EFB27DFBCEDCDA2D6F2BDADA36873EE46B9BE1782998C63DA7182BC383FB6FD15DA472B175D7E8B4FC88F38D6E07FEAA3FA3CBB8F6B449EC
310
F14D2175E5C5CCA3A42ABF24CA6C9395AF74535F4DDB38CB84F56614B0FD32D7E19CA5CF988DB4449C40E23DF2B16772594554579094450F56F253CD25EA7F77366FB1CFE79696C428BB64D5A41E986189427E5E4D7E2DAE3D5BB4972B3DC44EAABDDDD63A2264ECFA5C786EB0EE1FDC5BE34FA0F08376869FD1E61EA06CAE
310
15191135445EE8F0394161C3266A596AA035572BB0C8876180D8B9C77D307DF9DCDF7365ABDA6F3A2366436457A4DFC1F259666569A9E4A79C817BDD5610E5200FCE894A358EC72858D50EF67545DA81C6FACE3D457BAF70367E1E6BDD9A952FB4F56247F58F523B97E640246051A72F79BE42FFA0B3187F63097F91C48B86
310
8586F714B0EBD5A00A8412C1236E1298F60C72BE6C96B82B404CADAA304AE9F303176B14BA53FBC2D5E86377E35542019E24D97B96A49B2C0E5006E7795954DEAF5DA58958839043C6C70BD3B1B33B6DC5C31316D8A6923F142E26F6711A2258AF977DDF1F970ECC4F1F2B434B96D81BEB6E89BF3BBB3C7C8CC80505070723
310
D6D7D7D3C8CA27CA164A26024FED94B12A86031867241DA53D929636DA600F050BC40CE48B8BA03D69224720DEE2ED2127390BDF5E6EA64527BBD4C4C63FA76BB801FEEC0E61218EC98A8A86CD8313781617877E66692839B9468CF4DB8E50A73986E558E309C0D6F676F921BE02F1185454DC75B111572FF9D27D85EA14C0
310
5AD7271225B391C4275659CA4A43759D0BA44639BE4C30A84DB7F67A41399FB95CBF923B1B1672ABC807C1590557FB18D811983FA97F5E609516D62281D38B1281F68FC75528C35E4CD7DF0F7DBB5E5DD69C414EBEA2F4A5B241B996BA77AE6C772E367408C633EA3E438B68563EA8BE7667F3A4C4FDEEA52ABD78A2820F44
310
3B7914A15F180018D231E64519C56A12F6CA7C8DAE18F06F6B769DBF92329EF6A5D18FBCE600F36BD8E8198DE5CDAA96181F3A756EBA5501CEE58F497EA4F418A2B82565B9BCC611713C0B708CCA1F398B78C5F7D03B3437CC18F13061F55C7BEDADD5ACB1DB0E36D3CE47FF6EA1A563A57E9649EA5D14D1A50EAA45746338
310
1C073777EF1600607BAF6428A7DDC079D47A204EF1E1F1F0589FB054D45E02CE623B3823C317C601E589E22B1E88B448524B86A82828E32345EC18AE17214B42F8C41C6D428016D9BA31DDCB47572561E5A402E5BA4FCE55F78AF7268524AA04130F3A20BA5D1E9F9948EA48FC8F5314FDB35E21898198060034ACE5E3E2BB
310
CA34092518F275190AF65F45867FF0900AA4B81F25427414C372BF51DC29AA855C5428EE1EEDD6B849AD60F6E73475C2D2523F8A2772C840A478DED18A8C5C91B085F255DC4F54EA7AA8947354FD17ECF8FB3B4A0DE7B483CAF3A1165EE05BBA413E5C1FEF3DE1D6B8F2F3F3251C17D9FCAB48A9AAF63AC773A0E413BBC46A
310
9ADF84A566FC920E4D8C52C9769EE3301CADEEEDD92B312E02E2A7E35B7F1E7D203FE5A7D75578B06E99D0E46FFADB8FDA17ED8880390DA29094202D6F645F76F6F96409CDA05495A96E84B04A00D1A6C6C81D7F3DE9376E828CCF144EE50E364ACCE7237EA0BFB5607ED1AC3CFE73794E5B61739D14DF1743441B1AC98F00
310
ECEDE9E7301FA29755FBEFA68C91EF2B314CF510537EF1ABFC9A762496280B546F5EDAAF8A5B387D469FC9A878A92828C88608453ACEC6094DCA54111E7AD5B2663DFE2DD151B7F123B9F4FEF8EE36AB125FD7AD52A59B1B765B3E3F73E3F73DEA93875004D2AFFE3CDE9493B87A9904DD052028949041A91DC0E1BA47BA71
310
4343FD5B25E0A6A09503AFC17C790058A836A324FE31D7893512E28230332F153181C1E018E1124EBE1BA262AA428A518237D1EA7275E48C5C561BD19ED6912EDD8367DA0F31E40EEAE9683DA9257525AEA7B632B97119E17145A90231768A4F3B9120FF32E8319B015E3CBE26F1A754177D8185345817C096B0CE443A955D
310
13AC15E1FB5DEEA0239EC32A3C92241A237B0B02FFCB4F93CF2B02570C8D192E2F2A68CEEB42F12E6F8CEEFF46C251E22B4341C56FB08CCE550E7A9D6F4D6564B9EA52A83D5BF2C6E03FA19D2775E15A8A7ACF30A13C259EE7F5EF2AC3BA354F1500E1A07FC63FB4686E2F12EC69719F9ECF5FE3F35598DF2CE944008CE78F
310
0911BA5BE5D0A34E0098FF038669C26030BA9B300303039852A8F6F496341737CA7E0D2E3AAA36DE0A70AA7D9CA0D54D9AD84B18A44C9E625475E1C97B93BEBB38DCE7D227E67A2D00F531436136355F243D1FC0D712C5765754FA22FCFFAE97919161F46D6E61ACB37D83777B385889770B50765B127768443A5C4D3A4E35
310
A3151111F146B7CA116F918A049F1C272F2CD7976C69A0068773451659A97E0F4A08FE604C3FF6CE7385DB19F4D3ABC8A0D80DA8A42096AC377DB49382B36E270B6FA7570188B4B7D1DDDDA82ACA487CCA5D38BD3BD039ADBAFA4ACFF27809239B722081E2EB9F145320553D183F28471C388BC8814E5045676767AB58A8E7
310
2D1CED2CA731379515D2E533E4CF0B39DFC625F97AC4836831A4DE330E87A8126FA17EBE583D614E71E22A8DBF2825599743E0640037303E8E1B1E8EA4E1ABFA4F62907B5E4E0E5DCFDAB417C36C6848A2B8D15F1E505434C0707E16B1CFC2A1C36A42BBF55734F8F4301DDC2A5110CEE8C0747F69519265012A2174BF4E95
310
5ECD4FDE095A3ABC70536B7AD0B9D7892F81287D667C108703C9B66A221E9A0929D030008F77FF6F5D2108EF5706FC87A3069B976F7C9FC3239D13D283CDEA83597461079FEEE049B0F392889898B7D87D31F8D60ED7B56B91823A8E4EDDB36C6172ECEE42BD42B12CD67994FA0F0DFAE9389356F4CD4425A4B8AA55CBF7EC
310
D585C6A2C2316791E43D5C06841ADBB226A87FD61515FFBB0167B74E56BD7F3E90A57A97FEDCBDF483A0D6699A8C0849CAEB4947FAA90D8E332D9DEBD9F4738C37DA0CAF9CF3DAA68BCB67C420459C7A64498D6E848E5CADE92BB6901F607AA331104A67F7CD650EE169B1DAE94D2C31C2F993632259B6957E246EFE4C5481
310
107B07118607700040E5812A2A2A38DA0076875258C753F60E0F2662C748EDD5F3F3686B8FC3BD6FE631ECCAA1E8B1C1E565AD117E54893E79F4672E32F9E46B2A183DFDCF3EECB4D4D077DBEA0DA254D256045109670050129E9B9B1A9E4A11344D61497A992778095151510C4BB7EF2009B63AA4360635312E4CF668B7E0
310
D3D85A8688E2BD83B569439892ADB63461930D428E0DE42E4AC57CE48DA5CC1449530D8BD3D6A0F08DF20C8E8F570F2CFFFCEA286E30969B4654D498A58D9DA782E19FE3F002181838925592C4A1EF0B332D88B61A92C644547BED490D3A42CFFAB70E36D961F694F6307F72FF15A1C79D5B1B5CEFD353D9E2B52566DEC8F8
310
F09CB3E8359C0F68EBBB7898243E34E12A015B2685AB303C04D3A9E00671FF3DFF0A184E4A2ABEB2B666AF5B3A209C73D8EF29DCDB069C9F391EEE9DD0F74C7BCDE16F8F02E3B8816122BBEB50665775B600549D8BB33A54A6BF940C028118BC6878C79958D6784F9DEAA6E26748386FFAF8D0D0101E2847B6563F5D8DC1D7
310
8F787BE00E2C941AE12148D4A81599FE8F68D4DA5CDED75530ADE138240300EE13B0FC13A1687FED6774662C05A2B7DFB186732F0D7A93545D8B0A6390AE5054D9CB582DA846D7A061B3358B45E2B52DDE63E114397EDB7E09233A579155D795BE76102CF277F4DF8B188C4F2879BEAE3C08347124BF9ED23B128259FE107D
310
31E34A652F090B30B39E0D9AF917B76A2806135621A8A60681F16AF216514BBD02711585B5B1AE823F4B2D0369EA5B6BCB863072727FFC871CA6C9AB79A814D989057E9470A3D238BC87CBB4A0EA49AFE2B86F22E499793CAA9047080450166BDC357524561E258C77CB697F1ABB32562CF87C3B7AA12F911EF19FB3E5C022
310
22E887D08202A60A17151F5E053A86B437771088B4FEE14D652C43E8D939995D34545E12E2FF93D4E366EAD25F10CB7DED141563C3D0C447AF06078A91135FD4B9611583CB4BF3BD167F2399CEAB0E0100F8FFC305F00F1711717173138B4B48C83022295DE657EFEDD97F238ECA80F528AFB4F8D67AD4E2594B9A3AA86D74
310
87EFC313BA95745C186F0CDD84CC12DC9CB0424B42203D351FD9C0A3AF10CC7F388E0329279087386421F194F4A29464C1DEF7EF8BE515E4A199DCD5B909342598D8FE6A231F71336248D5CEC5454455C7BE383B3BC7B260FED27F703FDC39A170F3827239102F59D4DEE7FEF82EAA1A5E4BA94DCC4CC44E7E2EDE20F24244
310
E4454369D2E87C3F823F193FD4FD27E1C23984B01898D15ABC20711A8A558054951A6AE280096BA36CBA439603B7B0B4C45F248C14B2383B4B5CD8ECECE4FF859AD4A6CA2326D020EF090F4041D28DB66E5256B56232CC52829DE8060BAE6BBF37D4B7469B822454FE93210A3E8D15E69FFCF01123222611C51C4FD0A041A0
310
CFA2471CF6BE38D2B20FA4C3525B5B8B586759475CF80ADFE67A284AC24651E52B8E683D24C2622642F27E7C3C22783BCF63648BC398BD6CD0D9C97E7E7E3EACB6126DB7A6C1FD9F1031302EE67ED96F22B77C7CA0239BB324207559B105E4693EB26EC46182A92C9C0DBD24F29B31C5C5AC1F84300E0E17CEEAC15F5736FA
310
4A98971E2F1423BFCD68D4BBD5F86E74B40A369F39507C88FCDB35D2DD8DEBEA4AF999E23CF2816D204200DF6E611781B9884C1AC8888B4DE397320472959434323A5A36B22A8E1F721A270DF3BD65E4A31C11FF048AFB0D8B7B6881423793963A23CFCE935FC189ED36FAE35C46DA3574C979E4394BE52084F3081837BE03
310
3396D2EBD80F1F691B273F660D2B32FA27A33B1DE4ADA5F0FA4651511102DFA410DDA86E065272CA314D5249DF91B06BB92807B28EFD54F08F7B525252782CD276DD02E6B0319B13DF87B1F6361AD6B28FC0D711CF445429B9E5A433CD493051C49A9E03DDB1B147D880253514A5DED88009018620EE229101C041950E2D8A
310
A8E1F5F5438E0C0C0C60EEDEE9E3E0C051948C69F84BB7B2A48A1F3C8EB9E6864687F4F4F6F6E2FA87608ADAF9C5E117B7C1A737E710769DA1D15ECE6A84502AA855398712D5FB51BE92E4EF824969CE18278798AC303C2C7980DD2500ADF8FB1E6D6C2FAAFF9987178923334A244758BAA01A9A1B70FA5097D01E1CC2A58D
310
AD0EC94CE6430AA9B0C10D75E3C6BAC670EFBADEE1607739CE0FC18A2587E3EC3058562014C64219C69BC269082D5C2F4A659278D585755912176D78A1B641719C2A394CED495A1AC5D583FD2F5EDD93308EA7EAE8A6DD396598BDBD3D4CFED62D18A5BDFDE0DD5C80D1A89BA62697B131AE7CE9A6594138582F1B37D68F17
310
49AC7CB67A70695D48A4A056AC1FBD4E82358CEAE38F54B95A9016F9000F9879C0D9D131768635CA798895F27D6F1614F11F2838A83611AA51C9A3DDB539D42979C29F10465655C17BEC3E2760B80DCBF609198C7B171A531905F3EC218D696025975E986C6B4C666666787271F202805577DD5A3EF0CAFAF91B62DC4B2DB4
310
217A7606282F31D8DDBC290593BAA93EA6353AFA9939B877978481E15CFC9F2755CDC00C538F63A4BA3E80AE009B73CA0185687D339A507D165B74290D6EE46D5C58148F020C3668ABE9EF2F7549170DC80DB41FFC1D678FF19AEB10C7133832B104B80F691B3138F97A92D26E551F1F110400D45AC71A9B9AC41A1A1B1DAE
310
ED0B0810638EFFB511D46B121C6FEA0F38CD00E03CFFEB9713FE1F9C263E4DDEC160D0497FA9A132BA608584057FB15380825DE6C7FC3C667EE947D488A09898D8E939C4953BF4EC9836344D2CC6B2971B2A21A572B06096F4982D2CC7232D46E8EA69DC83722E267754D777F97F96D5DA74E1E75178084D0E70F12AD33E5F
310
71EF2AFA599B2BEBF60A5BE475F444F240CBFE8143C334E7ED9150FEEFEF7EB020C4DBED388DD1D6A167A76F3CBF119B578AE8CFA7736ACAFA4440A1C47185638A0D2F3EB5BDDEFDA958FB13CE4AA4923D5BF840392D45544329525749734866684BF7F8D9D54D892E19BCA9F829A0F8BFCBEEA6CFDFC61D74EA1A645ED7A1
310
FF241739F15694BD835B66FEC5677E40FE69BD3F91AE402F036537218A401CB0828604AD189E575015C6F3F6BBC8AC79CF6C70653847254B31551EFCBEB5978B9DB85D58D0FA41A9DFE9C624834AA04949D24B5AE6D299E072D152D12097920F14AA92C31C3B97E28B6C2E6E9C23D63043ECBBC0A60FDF5BD0C33C127EA8A3
310
308B8B6AFFEB28B4455BF6E7AF4FC6222728357EB8E46E85053E6A8843AB23295BF838ABDA94658FEF3F832F147046B4ACD6F7D48E8FCC9618582961C898D1C7A253C91BFECBDA6BA18A1FCF70755DCCEE2222F41B76D23CA98D0CB3D95F0CF66D57FFF65E2A90F5DF40FC3187621E981BD0BC1D992787212688976B94A8F0
310
C6EF646624B570B78E068826F87CE27041A95C9A4871FF65CC17FCB1639629AD6A9517000D63AC231F3D741CB8430777E7ECF80CE7A3F73C0F162F7E56AA71F4DA80A33CD6ACEE78E2C11FAC03DAFCE929B106F8F6B3ED2DC71FF994BD9CEF4E9A94896EF1B6E2B7B4978168BCF0847A3D2A4F1B0500B926E634B174548E9F
310
BAD27153FB5FC36799B1E6C7C38A94E1F9E996796D7B485E635D5287A2AE76FBD11A341DB3F8F810385BB7296391973DC6C37C452A9305AEBBE0CDB6C566DB59FE60C8E94B1FD090354BF51439FFD1B48D725228FFA88C84F686F547107A7A235665A4593B7C34D748C1AC8D56DD5DA861EEFBADDECBBD65117E65851F9035
310
1AEB65F0EFCFF4BCFEF24CB7A5879699FAC437A7AF9099186CF006BB923A59E37D7A36A29FD8D2CBB914A5E9D0A8FD212FBF796AE9A67958FF1D5D8B85F78F96219D4714EB919929241B6C018AAE0C02069F8D919961EC5DDFBFB7573E3AC8E08BFB7C8534BE6DE045B3CD63DBD71F7638BA2309CAE398EA3A7D8F98BBBC7A
310
EB367EFA5CFA27A9F8F2F52FE878058E6209C026453F8E7E8A237DFC389E9590F6059B397CFD65183BBF936E86896612A5B5FEE49DAC8455D026218AFEBEC12B3523A45B57B82C9C97E02ACFA1184DB18E48CF615DBF39C3CC6F0B4AE6BBEEA2E39D944E290302FA3DE33FA7E40296E2EF7BF1CD855BBECFAD0FD622BEE974
310
6FC4FDFDE545AE6E3BC234CADF83A0FB76DFB145BF3828AE3436368AC24989454F8FF70A177672C711CAA1A76107218CF948CA01F873520E7A2B118EBB161ABAD432932029628B6761590C98AB590C8C8C79798CE9F715BA696E839E9131A4BB68BE923F1747FBFF165331FFDD4D05997ACD168F12CA75348DAC04C7F509FE
310
83898A8B421181AF492861CE81E4A2DD0A30850CFA95E05F097FF70F9E777310D584A75BA7018922E271DAB1D785671157685B7D383D3E074DDB4F1E44EF04B07BAAC75A062077C54B9752C738C9D804D402E02851F3F89605AF189738C18C021D2139EAF72513824E10DDD3047BACC8521ED7E98B257D1166903B1B08FA6F
310
918FD7E162913FEC7D0EF4787E29C35FBA8C6E2C9C20E9AB30AE42CA2A01A090E7D010C1B5BF9CEE2A304BF3A987FB40D836979B79E18D70F257DA61E808472DD85B82761825779D6B90CAEB0F23360C6F80A7D7D77545E95B3DFF0CF96A827F9B5BCECD2C9698718417EF80FEEDEE938AFF55859D0D540B7FE09435583A6F
310
04874A0C7E8CF234DF4879722000167F5872CEC6BF3EF7E5A8CC8121E6A359227C8A29C95212F9F735BC72A887D56B8F309FC525BFB4FD767AAEC4AEFF249CFBBD2DE1AB9969A6155C7D8DABC307E47324C1F916C7BCFF40ABA5644E9FFB9238D19ADADA49D9610F01ABBA57E4DFCBDCCBB2B93C8953206C91DE01B0E2651A
310
6D6C31721915B31F7B7CBCE55466F6D70402788FA91D73BE4ADCBA99A35F17D6B83383704917D6833F0FA3CD45C926ADB8BC17999A4A0AFBCE2541F7B8CF4C2F5FBA611B3E626D64407CB32C122DFF4EF8674D6EDBB86C8F7C6A16D50FA685E2CCA34F8F7D1D8265BB0042E9D7F1F666F7BE5FAA5184DF58E12122A42EF02F
310
461B3F369AC746F96528AD208512AB56844CF75B97F352DF7995024FB02855385854F3798670D01CAC771AC3E1889EC25F61A20C1F8CAB46898817F9C47E2CDA1F286BF2F358298709FE567C91133E2638C8B53975E753EA8BFD3578B5F7186B7BF084EBA3F77BAC3132A5779902EC22AF2D2E79F42D324E083386DAEE9810
310
D1B44A5DAA54513C7A71E52A4AB9257D975B621308FE4D2141CC3DCFE946C154A3C1DFCCA7629EC69ACFA831634ADDA93C0388D2A9A2DDAFCF957C6995BCE7FBB6DC4EBAE79E63EB08E9A25F52F67076F7093CA545CA3053B5BF576DEAD4E0017143C5F759F32B2D6F145B52B67B48909B7C7FCA6586EE385A2189C16932CB
310
6DDFD9152AE317C430492A578ED27B72D85D40C7C93C097939E1B50F4D67F05334FE9DC362C30B7FF561B95259138ECFD9274C8D695C31B14D4EAA9F3D7FA8DDF652F8C5DEFA23284C799B7D94416DEE81E05A866302DC70192A5368EA65E1CED8BF107A1E2D3119A71E85DC1A7B0C1E93274CE04DD0F2ABC8AC7C987FDB00
310
2B6F81757B43502EF7A0D92E416494FAEEA4C9C090CD9557AA4D532F4996A272B94355C5A0E4974EEA9627476F30809B94D8D8D860062E02204643BEC7D0438AF800FC7E2B26955D595421E83C69E1A07E0E3122285835F014AD538188CF9737CE76D464A353FA55A001AB2526B84E985083693BC76FE211CA1D000679C889
310
E3C009832C87E1AC2EDD05C302557422DF0800E316FCAC86978A371F025A6C7DAA9F333E7BD160403A1A06EA75AA9888FF01504B0304140006080800DB8A4D4651464CB48900000043010000360000006662782F38384443313042362D443931462D344341322D383634392D4435343430313042303132462F646972656374
310
6F72792E786D6C9D8F310EC2300C45AF127987122606C71DD918B841D4B851A43646695A717C52A85029031293A5A76FBF6FACEF7DA7264E43906840EF0FA03836E242F406C6DCEE4EA06AC22492573150D1F66C60C640E8938CB705396EEDD86DE9B5042FE27813D640EA63BB001C722AF6E55CB61E4863F58284D5D3F53D
310
D715CE1C3985E63FD7F1B7EBDD617E9F1E504B0304140006080800DB8A4D467C3F143736070000201C0000340000006662782F38384443313042362D443931462D344341322D383634392D4435343430313042303132462F6F626A656374732E786D6CDD59DB6EDB3810FD1542FBB2FBA09B6FB50BC78523C78551A42D6A74
310
B16F022DD30E37BA81941267BF7E8714294BB26C2BD9162836051A87A686336766CE0C47D30F8728444F84719AC437866B39062271906C69BCBF31F26C678E0DF46186A62C49B2CA3E03C538223786583666D33D4BF2542D6DC90EE761737579FB17E2018989818210737E63F0E08144D8C279966C097FB4B638C3D67E77B0
310
5CABD85817BB67387D681C956246E20C5485F518A4280DDCFA9F60923D9BDA62436D5BAFDBB6FE856DB634BCAE288D7986E3E044AB869C5E37ADFAEE6071D71B4ECCE160D03707A39E6BDE2E6F17A6FBAEEF7823CF9BCCEF26069A4D374912960E4849BC052FBE1833776A8B6F4AF3150A6D7A07491C9340A1D9B6614B945C
310
4A7813931AB0AE34ADE290C2D6CA42BFA3F167B67502A5A6520D6D6D9CFE5D8DDE64F33780C0BB4429E3444439CF18F85A615FE48333B58BD59A5F284711CE08A3384421DD30CCC041B0B570504D8CC816210A09CCA417B5BCAAAE10D8D773A94DCB5D1E86227F8D99CC341FF291645C6A46FF21ECA87DF534D009ACCD699C
310
8D95B1D94B0A2226535B2E16DFF57BEACB0248B40BF11EA205CC149BFABD065E9EE082D5C2987D5A6E0E6BC10FED87A72C4909CB44E4C9645679A73D58092D08BE0EA014B8D67D7744E51B40FF19902F754153F01CA387C161A06D6738E6BB8445E01DE420D381FF1C243E9E7C9ADAE5C333846A5C790E5348DB1F8469CD8C
310
DAD9154867D32708FA84F59571EB008710D3F73416790E8182C2049680EF779B83315B0199C2223C8543B01EFE4D6DF111C1AF420EF04DC3436DF4DBC1513A619A7976F4D54788194683D255351BCFE13BFC21F8CE17EB4FEB9CED7040EE55622FC88EC6348362DAAE500DF45ACA7F5F7D961979624F6D5700E7EC13411C2D
310
7E592BBF20E9185045D4E1C23572E59E42BA87218E499273B5DE4654411226CCDFBCF8450EB79EF5A70E82E230C86F1101AD6406D53D603415A01833655EC984D61127C1832A00F78553FD0D0E1E05BC7E008CF5163D206A316B0ACDA3D4C75192C782BE4FC3BB699AD577E48FEB4E7ACEA4379E8CB4B15C8AD7D9A3A9A154
310
5E9C13E1F4CC215ECD5B8A35B4E4228F06C0966D1604D033E5999FA438A0597B2C348C50190A605F54794B77BB9C03A9B7C2D2D0D8EABB43E454FE2F0FB9ACBD3AC4A711DE137F8745856B3DAF0650295C5BD08ACC3E4C38A731E1B2433961AE062A8E054450C4AD96DA128494FB11C9F05BE24F96BC46F831B20B7DE8A532
310
D1CD5E8F3EADA0AA9EE7248ACE2D897D69FF8BCF7194864597760D03B7D738A11557A1B438E209E2CDC799EF6C896CBAAF492F7941E3DB49FAE4CDE2CFC0C3F04F87471F41A1F5861A79DDB3AE357427E2670CA4321ABAFD77DA11D7B0D24765A2070973E89A8217FF99D0FD433742EB740E27E1CEA76198477E510F321241
310
0B86B39C75CAD7D1D03971BEE2854642544EDAD1101AE4CEA4297B0FDD7D8055B2F938479A9563C0281AC31DAD93212756B486B0F485BC8F8A6BD775EFBF5EEA7FE6CBEA3DE591BC3C276CDBAA69BD8DD01D986E18045DAA0A57C691943C9B56932F921797EB380CB410C56FC52D414508234F540C26E40DA8F5FEC09F7116
310
0091AEE56FF31632624BB6C79EA2264E8D398C191CAAA5E93EB57AD301B213E5A3D678AD04A146306DC08267EFC587F01B065743E7C76DD5D5D8C5FA4A14360B062B473D2EC8FAF271DD90022B9D9FFE2A3022CF0D096AD5138DDC0551DF57C77EB5214159F47D75E1F1EC218F3631A6A2328AB0C0DBF4FD077997BCB1E1A2
310
608FC70BCF756E47E662E22ECD8137EF99E3D160622E6096E1C0178EDB5BDA8CF0246701E176CF767CDD3BA5F15E0746015D971B054C15AE5FFD743C371DFC3FBE5184C9069F8BC55FF54251B67BA2216BE462D70B452B516F5ED7FDBB2744DD5EC45ED53917B3021DE097CB169091AEF7DD5B0B2D5A7712ED3A572AE22B0B
310
EFD9DBCA4FAF3135426FAD0FB51D6D945FE762983DB554297DBB95BC7637F7C623F7CE33C7CBE53B73301F79E6AD379F9B0B6FEC8D46CE64E80ECA32D664AB6B75E597E0505D042B63349806F324A43094275BB42709DC8060EAD0815F5944B8BCD94003A0CAB87E23D0E1E9A762A69AE14DA89F0E1E300CA6435591F30086
310
A270EBB831D43AFA0DC6A06212298753D623141E15ED06CA19BD312004320AF5C5DAC0384B0E0FA5F4C6B8120217C77B71672A9E2AFF3E3E26D0815839DA55EEE9828BB2AC169D301C48E57B02603BDD90BCDD74AD0EC2197CDCE45969CC71E1688D0241BF10288C83A9DFA382F700C473D92ED7927B6A90749ACC5F8C8342
310
AA9961B697E3F50ADEF3C5575B4CC6575F501AE67BE1CE4BF5BE26C9147D46981743A82904863233C5E21EEEBDB7BFB2045E314568492108D0EF87F1E80FDB4BA228898B257BAE5E54A1F503BC76DADA7AE4078D8BE30E6DD9F7A8B13ECCAD38B1F0963FC202B89651311B2D20AE0540494F9500D01E11BE80C76AFB570BA4
310
8A40A585AD528C8047CEF4112492789723D2A6BAA13280845C00ADE497C70F7A616A331882CFFE05504B0304140006080800DB8A4D469B98D413DF000000530100003C0000006662782F38384443313042362D443931462D344341322D383634392D4435343430313042303132462F7265736F75726365732F322F636E782E
310
786D6C4D90CD6E03210C845F05715F60B78D5A452C79899C728928385B14C02B7EAAF4ED0B29957AB235F3C99AB13C3D82275F90B2C3B8D299094A201AB42E6E2BADE536BD5372523221967F18255107586997A9925BC2BA0FC9C24D57DF55EFE27D88E2BA4184E4CC758F1B25C6EB9C579ACD2704CD742D6821DF99D545B3
310
9925C858938176A2B800E38449A00B58AA16311F26B14CF3CB797E3B2ECBF1F07A91BC934A7E20FAC1BB5820E14E0CB625B63C42F26E2B59931B4C2FD18CBF70AC8593BCD94AE692DA070656BEF786B9A037E04FE4D75592F78A6D3CFBB7D9DFA17E00504B0304140006080800DB8A4D46FF15A4A45D000000800000003A00
310
00006662782F38384443313042362D443931462D344341322D383634392D4435343430313042303132462F7265736F75726365732F636E782E786D6C4D8B3B0E80201005AF42B6F75B59F0390B113044D83508C6E30BC6C26AF226F3B8BA6360974DA7271430F523308B2B198F9B80925DB700539227A2FCCB80A18E5640D3
310
20F996A81C9F32D6E9129A0D1EF74FCE750E6D57BC7165FBCA07504B0304140006080800DB8A4D460A160BBE3F01000046050000300000006662782F38384443313042362D443931462D344341322D383634392D4435343430313042303132462F636E782E786D6CCD94414EC3301045AF62791F3B0954A0CA7125169C8005
310
62E738D3E036B1237B8CE8EDB14B5A40A88845A576678DFF48FFCD7C8D58BD8F0379031F8CB30DAD58490958ED3A63FB86465C17F794ACA4F0CEE1371925568DD0D05CA652F4DEC5692E75B05671C8D5C1D8ED5C5488DEB4112150A207154243837E85513115D17510B6AC53A858C53C0417BD86D48F6684B95F7B50081D95
310
75592D8AB22EAA9BA7EA6E59D7CBC5ED8BE0592945EBDC30EB8D45F06E22DAA5874D664AC1F3B714D19B599309A8FC72C65A63054FFF5284E4D6F6B30E7753D64DD360B4C23426EE34021649046A14FC532C05CFBC3FA81F1F9E0F0E48673C68747E77A10154A7067034C65212FEC7BF17FE8DEDDA4DC2BDD4B64FC2CEB6CE
310
867A486B4871FDBDFF942265FBE1FA427F3476FECCA75382465F1FF2C1D79988F9FEE4A5A5E70B283F00504B0304140006080800DB8A4D465D7DA6747E000000A30000000B0000006662782F636E782E786D6C4D8C410AC3201444AF227F6FABC106036A6823B947684C909A6FB1B1F4F8D5924557036F669EEA3F5B206F97
310
5E3EA2067E62401CDEE3EC71D590F7854A20BD5129C6FD6F0604A7CD69A8188C5A53CCCF03CD6E9972A834787C1C504A3B70766BA9EDF848C5706DA86C4547ED4508560AC69BB13CCEF552E2E72B59F5E60B504B0304140006080800DB8A4D46A6D797065F0000008200000007000000636E782E786D6C4DCB3B0E80201045
310
D1AD90E9FD7516806B51190811670C8A61F982B1B0BAC9C97B72CA7B1037C6D3332918DA1E04D2CAC69353902EDB8C20262D23F3F59B81A079470595414B17391D1F19B4730A5583A7ED43BBE4025D9592775E5ADFFA01504B0304140006080800DB8A4D46ECFD112DA800000026010000130000005B436F6E74656E745F54
310
797065735D2E786D6C7D4F4B0EC22010BD0A61DF525D18634ABB506FE00510A79458060253536F2FD89D5197F3FED3F68B9BD80362B21E25DFD40D6780DADF2C1AC9671AAA3D677DD75E9E0112CB5A4C928F44E12044D22338956A1F003333F8E814E5331A1194BE2B0362DB343BA13D122055543278D79E6050F344ECBC64
310
78EDCD76CE8EABAE5449AE4298AC56946789C28AAFBEABC53F3EAF09A84A1441B91F0101CD4780756578C173A578FFDDBD00504B0304140006080800DB8A4D463DEE336E64000000790000001B0000006175746F6465736B2D64657369676E2D7061636B6167652E786D6C35CBC10E83200C00D05F21DCA56CA76D41FC9606
310
2B120735B69A7DBE268BB7777961F8D5AF396893C2ADB70FE7ADA196782C2DF776D7A97B5933C430F15651E5469C55D70F80A4992A3ADC954792C525AE70A1E4D6AD9816CC044FEFDF01FE3FDE907802504B0304140006080800DB8A4D469F2FDCA7F20000008E0100003D0000006662782F38384443313042362D44393146
310
2D344341322D383634392D4435343430313042303132462F7265736F75726365732F322F636F72652E786D6C8550CB6EC32010FC158B3B76C0B6EC469848D4ED17F4D41B828D8B1283C5A3EAE71762576A4F3DED6A76667677D8E56BBD579FE083717642A43EA10AAC72DAD86542295EF188AA0B67DEB9F88B862A2B579850
310
8111678B77693B20E56C045B50EB341CA00C0122AAD43D37130AEA035659CB143323DCEA4DAA9B5CA026F5CEE32C25A30FA9D1D9CD5C0D78C4A968453F5381BB717EC25D2F2816C3ABC02D7921CF3319FB791E5853C49C45B3FE6C571E64049DF527D2E313C5A47D23C399D273DFBDB3A630390BD1E79F8FA5E5BB4C67CD8E
310
FE714B9BFEDF2D191B5B7AB8ED8A8038C9C73D069C35259D5C1ED1E55A92E4DF504B0304140006080800DB8A4D463F31620EF8000000960100003B0000006662782F38384443313042362D443931462D344341322D383634392D4435343430313042303132462F7265736F75726365732F636F72652E786D6C8550CB6EC320
310
10FC158B3B76C0B6EC469848D4ED17F4D41B828D8B1283C5A3EAE71762576A4F3DED6A76667677D8E56BBD579FE083717642A43EA10AAC72DAD86542295EF188AA0B67DEB9F88B862A2B5798508111678B77693B20E56C045B50EB341CA00C0122AAD43D37130AEA035659CB143323DCEA4DAA9B5CA026F5CEE32C25A30FA9
310
D1D9CD5C0D78C4A968453F5381BB717EC25D2F2816C3ABC02D7921CF3319FB791E5853C49C45B3FE6C571E64049DF527D2E313C5A47D23C399D273DFBDB3A630390BD1E79F8FA5E53BC43D0497BC82C09A7DFAC7356DFA7FD7646C6CE9E1BA2B02E2241FF91870D69494727944986B49947F03504B0304140006080800DB8A
310
4D465385463CF1000000B1010000310000006662782F38384443313042362D443931462D344341322D383634392D4435343430313042303132462F636F72652E786D6C8D50CB6EC32010FC156BEFD840ECD48930511B2B5FD0536F08888B1283C5A3EAE71762576A6F392D9A9D6166879DBEE77BF5A57D30CE0E406A0C95B6
310
D22963A70152BCA21EAA1367DEB9F887069515B31EA0C0C0D9E45D5A36483A1BB52DA8754A6FA0084147A8E43D3F0608F253CFA216296646B8D58B903731E99AD42B8FB368E65FA9F45A44AD80534C3A842922BB77F272A4F4D8B51FAC294CCE52326AB3322ABB9BABD11E78DF8F6782DFF6683C900B6ACFAF14F5FBF680C6
310
AE6D715E60422FAC2962CE42F4F9E6ED9372DDB3F255F82F735AD413998D8D3BBA19AE8A009CE43C8F05674D29308F47BB7996B2F90F504B0304140006080800DB8A4D46B0E780CC53010000DD0200000C0000006662782F636F72652E786D6C8D525D6F832014FD2B86775450D3AE419A38B75FB0A7BD51A48E54C12098FE
310
FC811FE97C58B7982039F79E73CF3D819CEF7D174DC28C52AB12A0380591505C3752B52570F60A8F203A5362B4B63FDA40A4582F4A106040496BB41B56886B65850AA8D28D5841368EC2828877FE5282917F899EC5CC59DF31DEE281F11B6B458CE2A58F12E764B35265E3D5E4550A0328AEB2AAA87105F363FD02F3A2C2B0
310
3ABC5730436FE8B546C7A2AE0F2409644AACECB7E9DC086645E3F9292A608A21CA3ED0E184F1A9C83F49123A2919ADF13BAF43C376805E2F77922CF84ECF0DCDDF7A4E2A9BE1556F618C80226F6F2E5092847CFC6F0E6F9FA11FECF3B3ECD26D2BDC3C34096EB5C97DA5D1EE519A58E784974EA3F923C952F5CAB3C06F3AF8
310
89CE730D1F1453ADB7C6ACBF5E9C0DD3F79E0661E064EF91D2A667DDC3DC62F1713E06ED56DAE85C77DAFC87BDADBA8599848749BF01504B0304140006080800DB8A4D46F88FDEAC05010000B201000008000000636F72652E786D6C8D50CB6E842014FD15C21E15D46827C824D4F60BBAEA8E0AE39051300293F6EF0B234D
310
DA5D57979CC73D874BCF9FEB02EE6A77DA9A01E2A2824099C94A6DE601067F413D046746776BFD2F190446AC6A8009868CCEBB0D5B86266BBC32093556AA0C0AE79487605AE263806EBAAA551422F8A870B76213D34DCCAAC0C5A163D4EBF5C73AED4A78252123156E514510AEDF707722E4D436EFB44C4A4643D032476919
310
D3F545AB3D5A78CDDB9170D4F4E3136A5A4E10EF5E39AAF10B7E1E71DF8E6347CB6466D4F93DFE392F893D3D70E29E726979508C7E58BB64412C258135CB1764152D13F1A774D8E43F4A6BE36B92171E0E07198E851E440C4E178CE371DE38D3B5D937504B01021400140006080800DB8A4D46000000000000000000000000
310
3700000000000000000000000000000000006662782F38384443313042362D443931462D344341322D383634392D4435343430313042303132462F617474726962757465732E62696E504B01021400140006080800DB8A4D460000000000000000000000003500000000000000000000000000550000006662782F38384443
310
313042362D443931462D344341322D383634392D4435343430313042303132462F76657274696365732E62696E504B01021400140006080800DB8A4D46F270F13306000000040000003600000000000000000000000000A80000006662782F38384443313042362D443931462D344341322D383634392D4435343430313042
310
303132462F747269616E676C65732E62696E504B01021400140006080800DB8A4D4688E57597CD3F0000904100004200000000000000000000000000020100006662782F38384443313042362D443931462D344341322D383634392D4435343430313042303132462F7265736F75726365732F322F305F67656E657269632E
310
706E67504B01021400140006080800DB8A4D4651464CB4890000004301000036000000000000000000000000002F4100006662782F38384443313042362D443931462D344341322D383634392D4435343430313042303132462F6469726563746F72792E786D6C504B01021400140006080800DB8A4D467C3F143736070000
310
201C000034000000000000000000000000000C4200006662782F38384443313042362D443931462D344341322D383634392D4435343430313042303132462F6F626A656374732E786D6C504B01021400140006080800DB8A4D469B98D413DF000000530100003C00000000000000000000000000944900006662782F383844
310
43313042362D443931462D344341322D383634392D4435343430313042303132462F7265736F75726365732F322F636E782E786D6C504B01021400140006080800DB8A4D46FF15A4A45D000000800000003A00000000000000000000000000CD4A00006662782F38384443313042362D443931462D344341322D383634392D
310
4435343430313042303132462F7265736F75726365732F636E782E786D6C504B01021400140006080800DB8A4D460A160BBE3F010000460500003000000000000000000000000000824B00006662782F38384443313042362D443931462D344341322D383634392D4435343430313042303132462F636E782E786D6C504B01
310
021400140006080800DB8A4D465D7DA6747E000000A30000000B000000000000000000000000000F4D00006662782F636E782E786D6C504B01021400140006080800DB8A4D46A6D797065F000000820000000700000000000000000000000000B64D0000636E782E786D6C504B01021400140006080800DB8A4D46ECFD112D
310
A80000002601000013000000000000000000000000003A4E00005B436F6E74656E745F54797065735D2E786D6C504B01021400140006080800DB8A4D463DEE336E64000000790000001B00000000000000000000000000134F00006175746F6465736B2D64657369676E2D7061636B6167652E786D6C504B01021400140006
310
080800DB8A4D469F2FDCA7F20000008E0100003D00000000000000000000000000B04F00006662782F38384443313042362D443931462D344341322D383634392D4435343430313042303132462F7265736F75726365732F322F636F72652E786D6C504B01021400140006080800DB8A4D463F31620EF8000000960100003B
310
00000000000000000000000000FD5000006662782F38384443313042362D443931462D344341322D383634392D4435343430313042303132462F7265736F75726365732F636F72652E786D6C504B01021400140006080800DB8A4D465385463CF1000000B101000031000000000000000000000000004E5200006662782F38
310
384443313042362D443931462D344341322D383634392D4435343430313042303132462F636F72652E786D6C504B01021400140006080800DB8A4D46B0E780CC53010000DD0200000C000000000000000000000000008E5300006662782F636F72652E786D6C504B01021400140006080800DB8A4D46F88FDEAC05010000B2
310
01000008000000000000000000000000000B550000636F72652E786D6C504B050600000000120012002D060000365600000000
  0
CELLSTYLEMAP
  5
41B
102
{ACAD_REACTORS
330
41A
102
}
330
41A
100
AcDbCellStyleMap
 90
        3
300
CELLSTYLE
  1
TABLEFORMAT_BEGIN
 90
        5
170
     1
 91
        0
 92
    32768
 62
   257
 93
        1
300
CONTENTFORMAT
  1
CONTENTFORMAT_BEGIN
 90
        0
 91
        0
 92
      512
 93
        0
300

 40
0.0
140
1.0
 94
        5
 62
     0
340
11
144
0.25
309
CONTENTFORMAT_END
171
     1
301
MARGIN
  1
CELLMARGIN_BEGIN
 40
0.06
 40
0.06
 40
0.06
 40
0.06
 40
0.18
 40
0.18
309
CELLMARGIN_END
 94
        6
 95
        1
302
GRIDFORMAT
  1
GRIDFORMAT_BEGIN
 90
        0
 91
        1
 62
     0
 92
       -2
340
0
 93
        0
 40
0.045
309
GRIDFORMAT_END
 95
        2
302
GRIDFORMAT
  1
GRIDFORMAT_BEGIN
 90
        0
 91
        1
 62
     0
 92
       -2
340
0
 93
        0
 40
0.045
309
GRIDFORMAT_END
 95
        4
302
GRIDFORMAT
  1
GRIDFORMAT_BEGIN
 90
        0
 91
        1
 62
     0
 92
       -2
340
0
 93
        0
 40
0.045
309
GRIDFORMAT_END
 95
        8
302
GRIDFORMAT
  1
GRIDFORMAT_BEGIN
 90
        0
 91
        1
 62
     0
 92
       -2
340
0
 93
        0
 40
0.045
309
GRIDFORMAT_END
 95
       16
302
GRIDFORMAT
  1
GRIDFORMAT_BEGIN
 90
        0
 91
        1
 62
     0
 92
       -2
340
0
 93
        0
 40
0.045
309
GRIDFORMAT_END
 95
       32
302
GRIDFORMAT
  1
GRIDFORMAT_BEGIN
 90
        0
 91
        1
 62
     0
 92
       -2
340
0
 93
        0
 40
0.045
309
GRIDFORMAT_END
309
TABLEFORMAT_END
  1
CELLSTYLE_BEGIN
 90
        1
 91
        1
300
_TITLE
309
CELLSTYLE_END
300
CELLSTYLE
  1
TABLEFORMAT_BEGIN
 90
        5
170
     1
 91
        0
 92
        0
 62
   257
 93
        1
300
CONTENTFORMAT
  1
CONTENTFORMAT_BEGIN
 90
        0
 91
        0
 92
      512
 93
        0
300

 40
0.0
140
1.0
 94
        5
 62
     0
340
11
144
0.18
309
CONTENTFORMAT_END
171
     1
301
MARGIN
  1
CELLMARGIN_BEGIN
 40
0.06
 40
0.06
 40
0.06
 40
0.06
 40
0.18
 40
0.18
309
CELLMARGIN_END
 94
        6
 95
        1
302
GRIDFORMAT
  1
GRIDFORMAT_BEGIN
 90
        0
 91
        1
 62
     0
 92
       -2
340
0
 93
        0
 40
0.045
309
GRIDFORMAT_END
 95
        2
302
GRIDFORMAT
  1
GRIDFORMAT_BEGIN
 90
        0
 91
        1
 62
     0
 92
       -2
340
0
 93
        0
 40
0.045
309
GRIDFORMAT_END
 95
        4
302
GRIDFORMAT
  1
GRIDFORMAT_BEGIN
 90
        0
 91
        1
 62
     0
 92
       -2
340
0
 93
        0
 40
0.045
309
GRIDFORMAT_END
 95
        8
302
GRIDFORMAT
  1
GRIDFORMAT_BEGIN
 90
        0
 91
        1
 62
     0
 92
       -2
340
0
 93
        0
 40
0.045
309
GRIDFORMAT_END
 95
       16
302
GRIDFORMAT
  1
GRIDFORMAT_BEGIN
 90
        0
 91
        1
 62
     0
 92
       -2
340
0
 93
        0
 40
0.045
309
GRIDFORMAT_END
 95
       32
302
GRIDFORMAT
  1
GRIDFORMAT_BEGIN
 90
        0
 91
        1
 62
     0
 92
       -2
340
0
 93
        0
 40
0.045
309
GRIDFORMAT_END
309
TABLEFORMAT_END
  1
CELLSTYLE_BEGIN
 90
        2
 91
        1
300
_HEADER
309
CELLSTYLE_END
300
CELLSTYLE
  1
TABLEFORMAT_BEGIN
 90
        5
170
     1
 91
        0
 92
        0
 62
   257
 93
        1
300
CONTENTFORMAT
  1
CONTENTFORMAT_BEGIN
 90
        0
 91
        0
 92
      512
 93
        0
300

 40
0.0
140
1.0
 94
        2
 62
     0
340
11
144
0.18
309
CONTENTFORMAT_END
171
     1
301
MARGIN
  1
CELLMARGIN_BEGIN
 40
0.06
 40
0.06
 40
0.06
 40
0.06
 40
0.18
 40
0.18
309
CELLMARGIN_END
 94
        6
 95
        1
302
GRIDFORMAT
  1
GRIDFORMAT_BEGIN
 90
        0
 91
        1
 62
     0
 92
       -2
340
0
 93
        0
 40
0.045
309
GRIDFORMAT_END
 95
        2
302
GRIDFORMAT
  1
GRIDFORMAT_BEGIN
 90
        0
 91
        1
 62
     0
 92
       -2
340
0
 93
        0
 40
0.045
309
GRIDFORMAT_END
 95
        4
302
GRIDFORMAT
  1
GRIDFORMAT_BEGIN
 90
        0
 91
        1
 62
     0
 92
       -2
340
0
 93
        0
 40
0.045
309
GRIDFORMAT_END
 95
        8
302
GRIDFORMAT
  1
GRIDFORMAT_BEGIN
 90
        0
 91
        1
 62
     0
 92
       -2
340
0
 93
        0
 40
0.045
309
GRIDFORMAT_END
 95
       16
302
GRIDFORMAT
  1
GRIDFORMAT_BEGIN
 90
        0
 91
        1
 62
     0
 92
       -2
340
0
 93
        0
 40
0.045
309
GRIDFORMAT_END
 95
       32
302
GRIDFORMAT
  1
GRIDFORMAT_BEGIN
 90
        0
 91
        1
 62
     0
 92
       -2
340
0
 93
        0
 40
0.045
309
GRIDFORMAT_END
309
TABLEFORMAT_END
  1
CELLSTYLE_BEGIN
 90
        3
 91
        2
300
_DATA
309
CELLSTYLE_END
  0
ENDSEC
  0
EOF
