  0
SECTION
  2
HEADER
  9
$ACADVER
  1
AC1024
  9
$ACADMAINTVER
 70
     6
  9
$DWGCODEPAGE
  3
ANSI_1252
  9
$INSBASE
 10
0.0
 20
0.0
 30
0.0
  9
$EXTMIN
 10
-36155.46180525261
 20
-23.82775612930865
 30
0.0
  9
$EXTMAX
 10
12551.82314596736
 20
87546.888600564
 30
0.0
  9
$LIMMIN
 10
0.0
 20
0.0
  9
$LIMMAX
 10
12.0
 20
9.0
  9
$ORTHOMODE
 70
     1
  9
$REGENMODE
 70
     1
  9
$FILLMODE
 70
     1
  9
$QTEXTMODE
 70
     0
  9
$MIRRTEXT
 70
     0
  9
$LTSCALE
 40
1.0
  9
$ATTMODE
 70
     1
  9
$TEXTSIZE
 40
200.0
  9
$TRACEWID
 40
0.05
  9
$TEXTSTYLE
  7
Standard
  9
$CLAYER
  8
Plan
  9
$CELTYPE
  6
ByLayer
  9
$CECOLOR
 62
   256
  9
$CELTSCALE
 40
1.0
  9
$DISPSILH
 70
     0
  9
$DIMSCALE
 40
1.0
  9
$DIMASZ
 40
0.18
  9
$DIMEXO
 40
0.0625
  9
$DIMDLI
 40
0.38
  9
$DIMRND
 40
0.0
  9
$DIMDLE
 40
0.0
  9
$DIMEXE
 40
0.18
  9
$DIMTP
 40
0.0
  9
$DIMTM
 40
0.0
  9
$DIMTXT
 40
0.18
  9
$DIMCEN
 40
0.09
  9
$DIMTSZ
 40
0.0
  9
$DIMTOL
 70
     0
  9
$DIMLIM
 70
     0
  9
$DIMTIH
 70
     1
  9
$DIMTOH
 70
     1
  9
$DIMSE1
 70
     0
  9
$DIMSE2
 70
     0
  9
$DIMTAD
 70
     0
  9
$DIMZIN
 70
     0
  9
$DIMBLK
  1

  9
$DIMASO
 70
     1
  9
$DIMSHO
 70
     1
  9
$DIMPOST
  1

  9
$DIMAPOST
  1

  9
$DIMALT
 70
     0
  9
$DIMALTD
 70
     2
  9
$DIMALTF
 40
25.4
  9
$DIMLFAC
 40
1.0
  9
$DIMTOFL
 70
     0
  9
$DIMTVP
 40
0.0
  9
$DIMTIX
 70
     0
  9
$DIMSOXD
 70
     0
  9
$DIMSAH
 70
     0
  9
$DIMBLK1
  1

  9
$DIMBLK2
  1

  9
$DIMSTYLE
  2
Standard
  9
$DIMCLRD
 70
     0
  9
$DIMCLRE
 70
     0
  9
$DIMCLRT
 70
     0
  9
$DIMTFAC
 40
1.0
  9
$DIMGAP
 40
0.09
  9
$DIMJUST
 70
     0
  9
$DIMSD1
 70
     0
  9
$DIMSD2
 70
     0
  9
$DIMTOLJ
 70
     1
  9
$DIMTZIN
 70
     0
  9
$DIMALTZ
 70
     0
  9
$DIMALTTZ
 70
     0
  9
$DIMUPT
 70
     0
  9
$DIMDEC
 70
     4
  9
$DIMTDEC
 70
     4
  9
$DIMALTU
 70
     2
  9
$DIMALTTD
 70
     2
  9
$DIMTXSTY
  7
Standard
  9
$DIMAUNIT
 70
     0
  9
$DIMADEC
 70
     0
  9
$DIMALTRND
 40
0.0
  9
$DIMAZIN
 70
     0
  9
$DIMDSEP
 70
    46
  9
$DIMATFIT
 70
     3
  9
$DIMFRAC
 70
     0
  9
$DIMLDRBLK
  1

  9
$DIMLUNIT
 70
     2
  9
$DIMLWD
 70
    -2
  9
$DIMLWE
 70
    -2
  9
$DIMTMOVE
 70
     0
  9
$DIMFXL
 40
1.0
  9
$DIMFXLON
 70
     0
  9
$DIMJOGANG
 40
0.7853981633974483
  9
$DIMTFILL
 70
     0
  9
$DIMTFILLCLR
 70
     0
  9
$DIMARCSYM
 70
     0
  9
$DIMLTYPE
  6

  9
$DIMLTEX1
  6

  9
$DIMLTEX2
  6

  9
$DIMTXTDIRECTION
 70
     0
  9
$LUNITS
 70
     2
  9
$LUPREC
 70
     4
  9
$SKETCHINC
 40
0.1
  9
$FILLETRAD
 40
0.0
  9
$AUNITS
 70
     0
  9
$AUPREC
 70
     0
  9
$MENU
  1
.
  9
$ELEVATION
 40
0.0
  9
$PELEVATION
 40
0.0
  9
$THICKNESS
 40
0.0
  9
$LIMCHECK
 70
     0
  9
$CHAMFERA
 40
0.0
  9
$CHAMFERB
 40
0.0
  9
$CHAMFERC
 40
0.0
  9
$CHAMFERD
 40
0.0
  9
$SKPOLY
 70
     0
  9
$TDCREATE
 40
2453924.403411088
  9
$TDUCREATE
 40
2453924.361744421
  9
$TDUPDATE
 40
2457227.574306204
  9
$TDUUPDATE
 40
2457227.532639537
  9
$TDINDWG
 40
0.065257338
  9
$TDUSRTIMER
 40
0.065257338
  9
$USRTIMER
 70
     1
  9
$ANGBASE
 50
0.0
  9
$ANGDIR
 70
     0
  9
$PDMODE
 70
    35
  9
$PDSIZE
 40
50.0
  9
$PLINEWID
 40
0.0
  9
$SPLFRAME
 70
     0
  9
$SPLINETYPE
 70
     6
  9
$SPLINESEGS
 70
     8
  9
$HANDSEED
  5
2AF
  9
$SURFTAB1
 70
     6
  9
$SURFTAB2
 70
     6
  9
$SURFTYPE
 70
     6
  9
$SURFU
 70
     6
  9
$SURFV
 70
     6
  9
$UCSBASE
  2

  9
$UCSNAME
  2

  9
$UCSORG
 10
0.0
 20
0.0
 30
0.0
  9
$UCSXDIR
 10
1.0
 20
0.0
 30
0.0
  9
$UCSYDIR
 10
0.0
 20
1.0
 30
0.0
  9
$UCSORTHOREF
  2

  9
$UCSORTHOVIEW
 70
     0
  9
$UCSORGTOP
 10
0.0
 20
0.0
 30
0.0
  9
$UCSORGBOTTOM
 10
0.0
 20
0.0
 30
0.0
  9
$UCSORGLEFT
 10
0.0
 20
0.0
 30
0.0
  9
$UCSORGRIGHT
 10
0.0
 20
0.0
 30
0.0
  9
$UCSORGFRONT
 10
0.0
 20
0.0
 30
0.0
  9
$UCSORGBACK
 10
0.0
 20
0.0
 30
0.0
  9
$PUCSBASE
  2

  9
$PUCSNAME
  2

  9
$PUCSORG
 10
0.0
 20
0.0
 30
0.0
  9
$PUCSXDIR
 10
1.0
 20
0.0
 30
0.0
  9
$PUCSYDIR
 10
0.0
 20
1.0
 30
0.0
  9
$PUCSORTHOREF
  2

  9
$PUCSORTHOVIEW
 70
     0
  9
$PUCSORGTOP
 10
0.0
 20
0.0
 30
0.0
  9
$PUCSORGBOTTOM
 10
0.0
 20
0.0
 30
0.0
  9
$PUCSORGLEFT
 10
0.0
 20
0.0
 30
0.0
  9
$PUCSORGRIGHT
 10
0.0
 20
0.0
 30
0.0
  9
$PUCSORGFRONT
 10
0.0
 20
0.0
 30
0.0
  9
$PUCSORGBACK
 10
0.0
 20
0.0
 30
0.0
  9
$USERI1
 70
     0
  9
$USERI2
 70
     0
  9
$USERI3
 70
     0
  9
$USERI4
 70
     0
  9
$USERI5
 70
     0
  9
$USERR1
 40
0.0
  9
$USERR2
 40
0.0
  9
$USERR3
 40
0.0
  9
$USERR4
 40
0.0
  9
$USERR5
 40
0.0
  9
$WORLDVIEW
 70
     1
  9
$SHADEDGE
 70
     3
  9
$SHADEDIF
 70
    70
  9
$TILEMODE
 70
     0
  9
$MAXACTVP
 70
    64
  9
$PINSBASE
 10
0.0
 20
0.0
 30
0.0
  9
$PLIMCHECK
 70
     0
  9
$PEXTMIN
 10
9.936183203095993
 20
3.599104739196093
 30
-0.0015258207003583
  9
$PEXTMAX
 10
286.7236281961747
 20
192.4271563823388
 30
0.0000000349246037
  9
$PLIMMIN
 10
-3.630096435546875
 20
-3.96875
  9
$PLIMMAX
 10
293.4229125976562
 20
205.9199066162109
  9
$UNITMODE
 70
     0
  9
$VISRETAIN
 70
     1
  9
$PLINEGEN
 70
     0
  9
$PSLTSCALE
 70
     1
  9
$TREEDEPTH
 70
  3020
  9
$CMLSTYLE
  2
Standard
  9
$CMLJUST
 70
     0
  9
$CMLSCALE
 40
1.0
  9
$PROXYGRAPHICS
 70
     1
  9
$MEASUREMENT
 70
     0
  9
$CELWEIGHT
370
    -1
  9
$ENDCAPS
280
     0
  9
$JOINSTYLE
280
     0
  9
$LWDISPLAY
290
     0
  9
$INSUNITS
 70
     1
  9
$HYPERLINKBASE
  1

  9
$STYLESHEET
  1

  9
$XEDIT
290
     1
  9
$CEPSNTYPE
380
     0
  9
$PSTYLEMODE
290
     1
  9
$FINGERPRINTGUID
  2
{11CAA978-FB8B-49D1-8EB2-29F1B4BF34FE}
  9
$VERSIONGUID
  2
{0E160961-DFF9-4BC4-993F-6EE4AAA2328C}
  9
$EXTNAMES
290
     1
  9
$PSVPSCALE
 40
0.0
  9
$OLESTARTUP
290
     0
  9
$SORTENTS
280
   127
  9
$INDEXCTL
280
     0
  9
$HIDETEXT
280
     1
  9
$XCLIPFRAME
280
     0
  9
$HALOGAP
280
     0
  9
$OBSCOLOR
 70
   257
  9
$OBSLTYPE
280
     0
  9
$INTERSECTIONDISPLAY
280
     0
  9
$INTERSECTIONCOLOR
 70
   257
  9
$DIMASSOC
280
     2
  9
$PROJECTNAME
  1

  9
$CAMERADISPLAY
290
     0
  9
$LENSLENGTH
 40
50.0
  9
$CAMERAHEIGHT
 40
0.0
  9
$STEPSPERSEC
 40
2.0
  9
$STEPSIZE
 40
6.0
  9
$3DDWFPREC
 40
2.0
  9
$PSOLWIDTH
 40
0.25
  9
$PSOLHEIGHT
 40
4.0
  9
$LOFTANG1
 40
1.570796326794897
  9
$LOFTANG2
 40
1.570796326794897
  9
$LOFTMAG1
 40
0.0
  9
$LOFTMAG2
 40
0.0
  9
$LOFTPARAM
 70
     7
  9
$LOFTNORMALS
280
     1
  9
$LATITUDE
 40
37.795
  9
$LONGITUDE
 40
-122.394
  9
$NORTHDIRECTION
 40
0.0
  9
$TIMEZONE
 70
 -8000
  9
$LIGHTGLYPHDISPLAY
280
     1
  9
$TILEMODELIGHTSYNCH
280
     1
  9
$SOLIDHIST
280
     0
  9
$SHOWHIST
280
     1
  9
$DWFFRAME
280
     2
  9
$DGNFRAME
280
     2
  9
$REALWORLDSCALE
290
     1
  9
$INTERFERECOLOR
 62
   256
  9
$CSHADOW
280
     0
  9
$SHADOWPLANELOCATION
 40
0.0
  0
ENDSEC
  0
SECTION
  2
CLASSES
  0
CLASS
  1
ACDBDICTIONARYWDFLT
  2
AcDbDictionaryWithDefault
  3
ObjectDBX Classes
 90
        0
 91
        4
280
     0
281
     0
  0
CLASS
  1
ACDBPLACEHOLDER
  2
AcDbPlaceHolder
  3
ObjectDBX Classes
 90
        0
 91
        1
280
     0
281
     0
  0
CLASS
  1
LAYOUT
  2
AcDbLayout
  3
ObjectDBX Classes
 90
        0
 91
        1
280
     0
281
     0
  0
CLASS
  1
DICTIONARYVAR
  2
AcDbDictionaryVar
  3
ObjectDBX Classes
 90
        0
 91
        4
280
     0
281
     0
  0
CLASS
  1
TABLESTYLE
  2
AcDbTableStyle
  3
ObjectDBX Classes
 90
     4095
 91
        4
280
     0
281
     0
  0
CLASS
  1
SORTENTSTABLE
  2
AcDbSortentsTable
  3
ObjectDBX Classes
 90
        0
 91
        4
280
     0
281
     0
  0
CLASS
  1
VISUALSTYLE
  2
AcDbVisualStyle
  3
ObjectDBX Classes
 90
     4095
 91
        4
280
     0
281
     0
  0
CLASS
  1
SCALE
  2
AcDbScale
  3
ObjectDBX Classes
 90
     1153
 91
        4
280
     0
281
     0
  0
CLASS
  1
MATERIAL
  2
AcDbMaterial
  3
ObjectDBX Classes
 90
     1153
 91
        4
280
     0
281
     0
  0
CLASS
  1
MLEADERSTYLE
  2
AcDbMLeaderStyle
  3
ACDB_MLEADERSTYLE_CLASS
 90
     4095
 91
        4
280
     0
281
     0
  0
CLASS
  1
CELLSTYLEMAP
  2
AcDbCellStyleMap
  3
ObjectDBX Classes
 90
     1152
 91
        4
280
     0
281
     0
  0
ENDSEC
  0
SECTION
  2
TABLES
  0
TABLE
  2
VPORT
  5
8
330
0
100
AcDbSymbolTable
 70
     1
  0
VPORT
  5
13A
330
8
100
AcDbSymbolTableRecord
100
AcDbViewportTableRecord
  2
*Active
 70
     0
 10
0.0
 20
0.0
 11
1.0
 21
1.0
 12
-35093.11993599903
 22
20743.60265034191
 13
0.0
 23
0.0
 14
0.5
 24
0.5
 15
0.5
 25
0.5
 16
0.0
 26
0.0
 36
1.0
 17
0.0
 27
0.0
 37
0.0
 40
2532.520770669187
 41
1.213783403656821
 42
50.0
 43
0.0
 44
0.0
 50
0.0
 51
0.0
 71
     0
 72
  1000
 73
     1
 74
     3
 75
     0
 76
     0
 77
     0
 78
     0
281
     0
 65
     1
110
0.0
120
0.0
130
0.0
111
1.0
121
0.0
131
0.0
112
0.0
122
1.0
132
0.0
 79
     0
146
0.0
348
230
 60
     3
 61
     5
292
     1
282
     1
141
0.0
142
0.0
 63
   256
  0
ENDTAB
  0
TABLE
  2
LTYPE
  5
5
330
0
100
AcDbSymbolTable
 70
     4
  0
LTYPE
  5
14
330
5
100
AcDbSymbolTableRecord
100
AcDbLinetypeTableRecord
  2
ByBlock
 70
     0
  3

 72
    65
 73
     0
 40
0.0
  0
LTYPE
  5
15
330
5
100
AcDbSymbolTableRecord
100
AcDbLinetypeTableRecord
  2
ByLayer
 70
     0
  3

 72
    65
 73
     0
 40
0.0
  0
LTYPE
  5
16
330
5
100
AcDbSymbolTableRecord
100
AcDbLinetypeTableRecord
  2
Continuous
 70
     0
  3
Solid line
 72
    65
 73
     0
 40
0.0
  0
LTYPE
  5
A7
330
5
100
AcDbSymbolTableRecord
100
AcDbLinetypeTableRecord
  2
ACAD_ISO03W100
 70
     0
  3
ISO dash space __    __    __    __    __    __
 72
    65
 73
     2
 40
30.0
 49
12.0
 74
     0
 49
-18.0
 74
     0
  0
LTYPE
  5
A8
330
5
100
AcDbSymbolTableRecord
100
AcDbLinetypeTableRecord
  2
DASHDOTX2
 70
     0
  3
Dash dot (2x) ____  .  ____  .  ____  .  ___
 72
    65
 73
     4
 40
2.0
 49
1.0
 74
     0
 49
-0.5
 74
     0
 49
0.0
 74
     0
 49
-0.5
 74
     0
  0
LTYPE
  5
D4
330
5
100
AcDbSymbolTableRecord
100
AcDbLinetypeTableRecord
  2
DIVIDE
 70
     0
  3
Divide ____ . . ____ . . ____ . . ____ . . ____
 72
    65
 73
     6
 40
1.25
 49
0.5
 74
     0
 49
-0.25
 74
     0
 49
0.0
 74
     0
 49
-0.25
 74
     0
 49
0.0
 74
     0
 49
-0.25
 74
     0
  0
ENDTAB
  0
TABLE
  2
LAYER
  5
2
102
{ACAD_XDICTIONARY
360
9A
102
}
330
0
100
AcDbSymbolTable
 70
     7
  0
LAYER
  5
10
330
2
100
AcDbSymbolTableRecord
100
AcDbLayerTableRecord
  2
0
 70
     0
 62
     7
  6
Continuous
370
    -3
390
F
347
268
  0
LAYER
  5
98
330
2
100
AcDbSymbolTableRecord
100
AcDbLayerTableRecord
  2
Plan
 70
     0
 62
     7
  6
Continuous
370
    -3
390
F
347
268
1001
AcAecLayerStandard
1000

1000

  0
LAYER
  5
15D
330
2
100
AcDbSymbolTableRecord
100
AcDbLayerTableRecord
  2
vports_text
 70
     0
 62
     7
  6
Continuous
370
    20
390
F
347
268
1001
RAK
1000
{LAYER_STATE1
1070
     0
1070
     7
1000
CONTINUOUS
1071
       -3
1071
        1
1005
F
1000
LAYER_STATE1}
  0
LAYER
  5
15E
330
2
100
AcDbSymbolTableRecord
100
AcDbLayerTableRecord
  2
text
 70
     0
 62
     7
  6
Continuous
370
    20
390
F
347
268
  0
LAYER
  5
177
330
2
100
AcDbSymbolTableRecord
100
AcDbLayerTableRecord
  2
AOC_PAGE
 70
     0
 62
     7
  6
Continuous
370
    20
390
F
347
268
  0
LAYER
  5
178
330
2
100
AcDbSymbolTableRecord
100
AcDbLayerTableRecord
  2
tr plans
 70
     0
 62
     7
  6
Continuous
370
    -3
390
F
347
268
1001
AcAecLayerStandard
1000

1000

  0
LAYER
  5
19A
330
2
100
AcDbSymbolTableRecord
100
AcDbLayerTableRecord
  2
vports
 70
     0
 62
     1
  6
Continuous
290
     0
370
    -3
390
F
347
268
1001
AcAecLayerStandard
1000

1000

  0
ENDTAB
  0
TABLE
  2
STYLE
  5
3
330
0
100
AcDbSymbolTable
 70
     6
  0
STYLE
  5
11
330
3
100
AcDbSymbolTableRecord
100
AcDbTextStyleTableRecord
  2
Standard
 70
     0
 40
200.0
 41
1.0
 50
0.0
 71
     0
 42
200.0
  3
TIMES.TTF
  4

1001
ACAD
1000
Times New Roman
1071
       18
  0
STYLE
  5
A6
330
3
100
AcDbSymbolTableRecord
100
AcDbTextStyleTableRecord
  2

 70
     1
 40
0.0
 41
1.0
 50
0.0
 71
     0
 42
0.2
  3
ltypeshp.shx
  4

  0
STYLE
  5
15F
330
3
100
AcDbSymbolTableRecord
100
AcDbTextStyleTableRecord
  2
TNR-Regular
 70
     0
 40
2.0
 41
1.0
 50
0.0
 71
     0
 42
2.0
  3
TIMES.TTF
  4

1001
ACAD
1000
Times New Roman
1071
       18
  0
STYLE
  5
179
330
3
100
AcDbSymbolTableRecord
100
AcDbTextStyleTableRecord
  2
TNR-Italic
 70
     0
 40
2.5
 41
1.0
 50
0.0
 71
     0
 42
2.0
  3
TIMESI.TTF
  4

1001
ACAD
1000
Times New Roman
1071
 16777234
  0
STYLE
  5
17A
330
3
100
AcDbSymbolTableRecord
100
AcDbTextStyleTableRecord
  2
TNR-Bold
 70
     0
 40
1.5
 41
1.0
 50
0.0
 71
     0
 42
1.5
  3
TIMESBD.TTF
  4

1001
ACAD
1000
Times New Roman
1071
 33554450
  0
STYLE
  5
17B
330
3
100
AcDbSymbolTableRecord
100
AcDbTextStyleTableRecord
  2
ROMANT
 70
     0
 40
5.0
 41
1.0
 50
0.0
 71
     0
 42
5.0
  3
romant
  4

  0
ENDTAB
  0
TABLE
  2
VIEW
  5
6
330
0
100
AcDbSymbolTable
 70
     0
  0
ENDTAB
  0
TABLE
  2
UCS
  5
7
330
0
100
AcDbSymbolTable
 70
     0
  0
ENDTAB
  0
TABLE
  2
APPID
  5
9
330
0
100
AcDbSymbolTable
 70
     4
  0
APPID
  5
12
330
9
100
AcDbSymbolTableRecord
100
AcDbRegAppTableRecord
  2
ACAD
 70
     0
  0
APPID
  5
99
330
9
100
AcDbSymbolTableRecord
100
AcDbRegAppTableRecord
  2
AcAecLayerStandard
 70
     0
  0
APPID
  5
13E
330
9
100
AcDbSymbolTableRecord
100
AcDbRegAppTableRecord
  2
ACAD_PSEXT
 70
     0
  0
APPID
  5
161
330
9
100
AcDbSymbolTableRecord
100
AcDbRegAppTableRecord
  2
RAK
 70
     0
  0
ENDTAB
  0
TABLE
  2
DIMSTYLE
  5
A
330
0
100
AcDbSymbolTable
 70
     2
100
AcDbDimStyleTable
  0
DIMSTYLE
105
27
330
A
100
AcDbSymbolTableRecord
100
AcDbDimStyleTableRecord
  2
Standard
 70
     0
178
     0
340
11
  0
DIMSTYLE
105
160
330
A
100
AcDbSymbolTableRecord
100
AcDbDimStyleTableRecord
  2
ISO-25
 70
     0
 41
2.5
 42
0.625
 43
3.75
 44
1.25
 73
     0
 74
     0
 77
     1
 78
     8
140
2.5
141
2.5
143
0.03937007874016
147
0.625
171
     3
172
     1
178
     0
271
     2
272
     2
274
     3
278
    44
283
     0
284
     8
340
11
  0
ENDTAB
  0
TABLE
  2
BLOCK_RECORD
  5
1
330
0
100
AcDbSymbolTable
 70
     4
  0
BLOCK_RECORD
  5
1F
102
{ACAD_XDICTIONARY
360
8D
102
}
330
1
100
AcDbSymbolTableRecord
100
AcDbBlockTableRecord
  2
*Model_Space
340
22
 70
     0
280
     1
281
     0
  0
BLOCK_RECORD
  5
58
330
1
100
AcDbSymbolTableRecord
100
AcDbBlockTableRecord
  2
*Paper_Space
340
59
 70
     0
280
     1
281
     0
  0
BLOCK_RECORD
  5
5D
330
1
100
AcDbSymbolTableRecord
100
AcDbBlockTableRecord
  2
*Paper_Space0
340
5E
 70
     0
280
     1
281
     0
  0
BLOCK_RECORD
  5
14A
330
1
100
AcDbSymbolTableRecord
100
AcDbBlockTableRecord
  2
1 to 1250 small
340
0
310
2800000020000000200000000100080000000000000400000000000000000000000000000000000000000000000080000080000000808000800000008000800080800000C0C0C000C0DCC000F0CAA6000020400000206000002080000020A0000020C0000020E00000400000004020000040400000406000004080000040A0
310
000040C0000040E00000600000006020000060400000606000006080000060A0000060C0000060E00000800000008020000080400000806000008080000080A0000080C0000080E00000A0000000A0200000A0400000A0600000A0800000A0A00000A0C00000A0E00000C0000000C0200000C0400000C0600000C0800000C0
310
A00000C0C00000C0E00000E0000000E0200000E0400000E0600000E0800000E0A00000E0C00000E0E00040000000400020004000400040006000400080004000A0004000C0004000E00040200000402020004020400040206000402080004020A0004020C0004020E000404000004040200040404000404060004040800040
310
40A0004040C0004040E00040600000406020004060400040606000406080004060A0004060C0004060E00040800000408020004080400040806000408080004080A0004080C0004080E00040A0000040A0200040A0400040A0600040A0800040A0A00040A0C00040A0E00040C0000040C0200040C0400040C0600040C08000
310
40C0A00040C0C00040C0E00040E0000040E0200040E0400040E0600040E0800040E0A00040E0C00040E0E00080000000800020008000400080006000800080008000A0008000C0008000E00080200000802020008020400080206000802080008020A0008020C0008020E00080400000804020008040400080406000804080
310
008040A0008040C0008040E00080600000806020008060400080606000806080008060A0008060C0008060E00080800000808020008080400080806000808080008080A0008080C0008080E00080A0000080A0200080A0400080A0600080A0800080A0A00080A0C00080A0E00080C0000080C0200080C0400080C0600080C0
310
800080C0A00080C0C00080C0E00080E0000080E0200080E0400080E0600080E0800080E0A00080E0C00080E0E000C0000000C0002000C0004000C0006000C0008000C000A000C000C000C000E000C0200000C0202000C0204000C0206000C0208000C020A000C020C000C020E000C0400000C0402000C0404000C0406000C0
310
408000C040A000C040C000C040E000C0600000C0602000C0604000C0606000C0608000C060A000C060C000C060E000C0800000C0802000C0804000C0806000C0808000C080A000C080C000C080E000C0A00000C0A02000C0A04000C0A06000C0A08000C0A0A000C0A0C000C0A0E000C0C00000C0C02000C0C04000C0C06000
310
C0C08000C0C0A000F0FBFF00A4A0A000808080000000FF0000FF000000FFFF00FF000000FF00FF00FFFF0000FFFFFF00FFFFFFFFFFFFFFFFFFFFFFFFFFFFFFFFFFFFFFFFFFFFFFFFFFFFFFFFFFFFFFFFFFFFFFFFFFFFFFFFFFFFFFFFFFFFFFFFFFFFFFFFFFFFFFFFFFFFFFFFFFFFFFFFFFFFFFFFFFFFFFFFFFFFFFFFFFFFFF
310
FFFFFFFFFFFFFFFFFFFFFFFFFFFFFFFFFFFFFFFFFFFFFFFFFFFFFFFFFFFFFFFFFFFFFFFFFFFFFFFFFFFFFFFFFFFFFFFFFFFFFFFFFFFFFFFFFFFFFFFFFFFFFFFFFFFFFFFFFFFFFFFFFFFFFFFFFFFFFFFFFFFFFFFFFFFFFFFFFFFFFFFFFFFFFFFFFFFFFFFFFFFFFFFFFFFFFFFFFFFFFFFFFFFFFFFFFFFFFFFFFFFFFFFFFFFFFF
310
FFFFFFFFFFFFFFFFFFFFFFFFFFFFFFFFFFFFFFFFFFFFFFFFFFFFFFFFFFFFFFFFFFFFFFFFFFFFFFFFFFFFFFFFFFFFFFFFFFFFFFFFFFFFFFFFFFFFFFFFFFFFFFFFFFFFFFFFFFFFFFFFFFFFFFFFFFFFFFFFFFFFFFFFFFFFFFFFFFFFFFFFFFFFFFFFFFFFFFFFFFFFFFFFFFFFFFFFFFFFFFFFFFFFFFFFFFFFFFFFFFFFFFFFFFFFFF
310
FFFFFFFFFFFFFFFFFFFFFFFFFFFFFFFFFFFFFFFFFFFFFFFFFFFFFFFFFFFFFFFFFFFFFFFFFFFFFFFFFFFFFFFFFFFFFFFFFFFFFFFFFFFFFFFFFFFFFFFFFFFFFFFFFFFFFFFFFFFFFFFFFFFFFFFFFFFFFFFFFFFFFFFFFFFFFFFFFFFFFFFFFFFFFFFFFF00000000FFFFFFFFFFFFFFFFFFFFFFFFFFFFFFFFFFFFFFFFFFFFFFFFFFFF
310
FFFF00000000FFFFFFFFFFFFFFFFFFFFFFFFFFFFFFFFFF0000000000000000000000000000000000000000000000000000FFFFFFFFFFFF0000000000000000000000000000000000000000000000000000FFFFFFFF00000000FFFFFFFFFFFF00FFFFFFFFFFFFFFFFFFFFFFFFFFFFFF000000FFFFFF000000FFFFFFFFFFFFFF
310
00FFFFFFFFFFFFFFFFFFFFFFFFFFFFFFFF00FFFFFFFFFFFFFFFFFFFFFFFFFFFFFFFFFFFFFFFFFFFFFFFFFFFFFFFFFFFFFFFFFFFFFFFFFFFFFFFFFFFFFFFFFFFFFFFFFFFFFFFFFFFFFFFFFFFFFFFFFFFFFFFFFFFFFFFFFFFFFFFFFFFFFFFFFFFFFFFFFFFFFFFFFFFFFFFFFFFFFFFFFFFFFFFFFFFFFFFFFFFFFFFFFFFFFFFFFF
310
FFFFFFFFFFFFFFFFFFFFFFFFFFFFFFFFFFFFFFFFFFFFFFFFFFFFFFFFFFFFFFFFFFFFFFFFFFFFFFFFFFFFFFFFFFFFFFFFFFFFFFFFFFFFFFFFFFFFFFFFFFFFFFFFFFFFFFFFFFFFFFFFFFFFFFFFFFFFFFFFFFFFFFFFFFFFFFFFFFFFFFFFFFFFFFFFFFFFFFFFFFFFFFFFFFFFFFFFFFFFFFFFFFFFFFFFFFFFFFFFFFFFFFFFFFFFFF
310
FFFFFFFFFFFFFFFFFFFFFFFFFFFFFFFFFFFFFFFFFFFFFFFFFFFFFFFFFFFFFFFFFFFFFFFFFFFFFFFFFFFFFFFFFFFFFFFFFFFFFFFFFFFFFFFFFFFFFFFFFFFFFFFFFFFFFFFFFFFFFFFFFFFFFFFFFFFFFFFFFFFFFFFFFFFFFFFFFFFFFFFFFFFFFFFFFFFFFFFFFFFFFFFFFFFFFFFFFFFFFFFFFFFFFFFFFFFFFFFFFFFFFFFFFFFFFF
310
FFFFFFFFFFFFFFFFFFFFFFFFFFFFFFFFFFFFFFFFFFFFFFFFFFFFFFFFFFFFFFFFFFFFFFFFFFFFFFFFFFFFFFFFFFFFFFFFFFFFFFFFFFFFFFFF
102
{BLKREFS
331
164
102
}
 70
     4
280
     1
281
     0
1001
ACAD
1000
DesignCenter Data
1002
{
1070
     1
1070
     4
1002
}
  0
BLOCK_RECORD
  5
163
330
1
100
AcDbSymbolTableRecord
100
AcDbBlockTableRecord
  2
A$C6BF52BD5
340
0
 70
     0
280
     1
281
     0
  0
BLOCK_RECORD
  5
167
330
1
100
AcDbSymbolTableRecord
100
AcDbBlockTableRecord
  2
aoc
340
0
310
2800000020000000200000000100080000000000000400000000000000000000000000000000000000000000000080000080000000808000800000008000800080800000C0C0C000C0DCC000F0CAA6000020400000206000002080000020A0000020C0000020E00000400000004020000040400000406000004080000040A0
310
000040C0000040E00000600000006020000060400000606000006080000060A0000060C0000060E00000800000008020000080400000806000008080000080A0000080C0000080E00000A0000000A0200000A0400000A0600000A0800000A0A00000A0C00000A0E00000C0000000C0200000C0400000C0600000C0800000C0
310
A00000C0C00000C0E00000E0000000E0200000E0400000E0600000E0800000E0A00000E0C00000E0E00040000000400020004000400040006000400080004000A0004000C0004000E00040200000402020004020400040206000402080004020A0004020C0004020E000404000004040200040404000404060004040800040
310
40A0004040C0004040E00040600000406020004060400040606000406080004060A0004060C0004060E00040800000408020004080400040806000408080004080A0004080C0004080E00040A0000040A0200040A0400040A0600040A0800040A0A00040A0C00040A0E00040C0000040C0200040C0400040C0600040C08000
310
40C0A00040C0C00040C0E00040E0000040E0200040E0400040E0600040E0800040E0A00040E0C00040E0E00080000000800020008000400080006000800080008000A0008000C0008000E00080200000802020008020400080206000802080008020A0008020C0008020E00080400000804020008040400080406000804080
310
008040A0008040C0008040E00080600000806020008060400080606000806080008060A0008060C0008060E00080800000808020008080400080806000808080008080A0008080C0008080E00080A0000080A0200080A0400080A0600080A0800080A0A00080A0C00080A0E00080C0000080C0200080C0400080C0600080C0
310
800080C0A00080C0C00080C0E00080E0000080E0200080E0400080E0600080E0800080E0A00080E0C00080E0E000C0000000C0002000C0004000C0006000C0008000C000A000C000C000C000E000C0200000C0202000C0204000C0206000C0208000C020A000C020C000C020E000C0400000C0402000C0404000C0406000C0
310
408000C040A000C040C000C040E000C0600000C0602000C0604000C0606000C0608000C060A000C060C000C060E000C0800000C0802000C0804000C0806000C0808000C080A000C080C000C080E000C0A00000C0A02000C0A04000C0A06000C0A08000C0A0A000C0A0C000C0A0E000C0C00000C0C02000C0C04000C0C06000
310
C0C08000C0C0A000F0FBFF00A4A0A000808080000000FF0000FF000000FFFF00FF000000FF00FF00FFFF0000FFFFFF00FFFFFFFFFFFFFFFFFFFFFFFFFFFFFFFFFFFFFFFFFFFFFFFFFFFFFFFFFFFFFFFFFFFFFFFFFFFFFFFFFFFFFFFFFFFFFFFFFFFFFFFFFFFFFFFFFFFFFFFFFFFFFFFFFFFFFFFFFFFFFFFFFFFFFFFFFFFFFF
310
FFFFFFFFFFFFFFFFFFFFFFFFFFFFFFFFFFFFFFFFFFFFFFFFFFFFFFFFFFFFFFFFFFFFFFFFFFFFFFFFFFFFFFFFFFFFFFFFFFFFFFFFFFFFFFFFFFFFFFFFFFFFFFFFFFFFFFFFFFFFFFFFFFFFFFFFFFFFFFFFFFFFFFFFFFFFFFFFFFFFFFFFFFFFFFFFFFFFFFFFFFFFFFFFFFFFFFFFFFFFFFFFFFFFFFFFFFFFFFFFFFFFFFFFFFFFFF
310
FFFFFFFFFFFFFFFFFFFFFFFFFFFFFFFFFFFFFFFFFFFFFFFFFFFFFFFFFFFFFFFFFFFFFFFFFFFFFFFFFFFFFFFFFFFFFFFFFFFFFFFFFFFFFFFFFFFFFFFFFFFFFFFFFFFFFFFFFFFFFFFFFFFFFFFFFFFFFFFFFFFFFFFFFFFFFFFFFFFFFFFFFFFFFFFFFFFFFFFFFFFFE0E0FFFFFFFFFFFFFFFFFFFFFFFFFFFFFFFFFFFFFFFFFFFFFF
310
FFFFFFFFFFFFE0E0E0E0E0FFFFFFFFFFFFFFFFFFFFFFFFFFFFFFFFFF000000000000FFFFFFFFE0E0E0E0E0E0FFFFFFFFFFFFFFFFFFFFFFFFFFFFFFFF00000000000000FFFFFFE0E0E0E0E0E0FFFFFFFFFFFFFFFF000000000000000000000000000000FFFFFFE0E0E0E0FFE0FFFFFFFFFFFFFFFFFFE0E0E0E0E0E0E0E0E0E0
310
E0E0E0E0FFFFFFFFFFE0E0E0E0E0FFE0E0E0FFFFFFFFE0E0E0E0E0E0E0E0E0E0E0E0E0E0FFFFFFFFE0E0E0E0E0E0E0E0E0E0E0FFFF000000000000000000000000000000FFFFFFE0E0E0E0E0E0E0E0E0E0E0E0FFFFFF000000000000000000FF00000000FFFFFFE0E0E0E0E0E0FFE0E0E0E0FFFFFFFFFF000000FF00FFFF00
310
FF00FFFF00FFFFE0E0E0E0E0E0E0E0E0E0E0E0FFFFFFFFFF00FF00FF00FFFF00FF00FFFFFFFFFFE0E0E0E0E0FFFFFFFFFFFFFFFFFFFFFFFFFF00FFFF00FFFF00FF00FFFF00FFFFE0E0E0E0E0FFFFFFFFFFFFFFFFFFFFFFFFFF00FFFF00000000FF00000000FFFFE0E0E0E0E0FFFFFFFFFFFFFFFFFFFFFFFFFFFFFFFFFFFFFF
310
FFFFFFFFFFFFFFFFFFFFE0E0FFFFFFFFFFFFFFFFFFFFFFFFFFFFFFFFFFFFFFFFFFFFFFFFFFFFFFFFFFFFFFFFFFFFFFFFFFFFFFFFFFFFFFFFFFFFFFFFFFFFFFFFFFFFFFFFFFFFFFFFFFFFFFFFFFFFFFFFFFFFFFFFFFFFFFFFFFFFFFFFFFFFFFFFFFFFFFFFFFFFFFFFFFFFFFFFFFFFFFFFFFFFFFFFFFFFFFFFFFFFFFFFFFFFFF
310
FFFFFFFFFFFFFFFFFFFFFFFFFFFFFFFFFFFFFFFFFFFFFFFFFFFFFFFFFFFFFFFFFFFFFFFFFFFFFFFFFFFFFFFFFFFFFFFFFFFFFFFFFFFFFFFFFFFFFFFFFFFFFFFFFFFFFFFFFFFFFFFFFFFFFFFFFFFFFFFFFFFFFFFFFFFFFFFFFFFFFFFFFFFFFFFFFFFFFFFFFFFFFFFFFFFFFFFFFFFFFFFFFFFFFFFFFFFFFFFFFFFFFFFFFFFFFF
310
FFFFFFFFFFFFFFFFFFFFFFFFFFFFFFFFFFFFFFFFFFFFFFFFFFFFFFFFFFFFFFFFFFFFFFFFFFFFFFFFFFFFFFFFFFFFFFFFFFFFFFFFFFFFFFFF
102
{BLKREFS
331
199
102
}
 70
     4
280
     1
281
     0
1001
ACAD
1000
DesignCenter Data
1002
{
1070
     1
1070
     4
1002
}
  0
ENDTAB
  0
ENDSEC
  0
SECTION
  2
BLOCKS
  0
BLOCK
  5
20
330
1F
100
AcDbEntity
  8
0
100
AcDbBlockBegin
  2
*Model_Space
 70
     0
 10
0.0
 20
0.0
 30
0.0
  3
*Model_Space
  1

  0
ENDBLK
  5
21
330
1F
100
AcDbEntity
  8
0
100
AcDbBlockEnd
  0
BLOCK
  5
5A
330
58
100
AcDbEntity
 67
     1
  8
0
100
AcDbBlockBegin
  2
*Paper_Space
 70
     0
 10
0.0
 20
0.0
 30
0.0
  3
*Paper_Space
  1

  0
ENDBLK
  5
5B
330
58
100
AcDbEntity
 67
     1
  8
0
100
AcDbBlockEnd
  0
BLOCK
  5
5F
330
5D
100
AcDbEntity
  8
0
100
AcDbBlockBegin
  2
*Paper_Space0
 70
     0
 10
0.0
 20
0.0
 30
0.0
  3
*Paper_Space0
  1

  0
ENDBLK
  5
60
330
5D
100
AcDbEntity
  8
0
100
AcDbBlockEnd
  0
BLOCK
  5
14B
330
14A
100
AcDbEntity
  8
0
100
AcDbBlockBegin
  2
1 to 1250 small
 70
     0
 10
0.0
 20
0.0
 30
0.0
  3
1 to 1250 small
  1

  0
LINE
  5
14C
102
{ACAD_REACTORS
330
14E
102
}
330
14A
100
AcDbEntity
  8
vports_text
100
AcDbLine
 10
-9.999999861953825
 20
1.500000081827437
 30
0.0
 11
30.0000002623293
 21
1.500000081827437
 31
0.0
  0
LINE
  5
14D
102
{ACAD_REACTORS
330
14E
102
}
330
14A
100
AcDbEntity
  8
vports_text
100
AcDbLine
 10
-30.0000002623293
 20
0.0000000818274373
 30
0.0
 11
30.0000002623293
 21
-0.0000000818274373
 31
0.0
  0
HATCH
  5
14E
330
14A
100
AcDbEntity
  8
vports_text
100
AcDbHatch
 10
0.0
 20
0.0
 30
0.0
210
0.0
220
0.0
230
1.0
  2
SOLID
 70
     1
 71
     1
 91
        3
 92
        7
 72
     0
 73
     1
 93
        4
 10
10.00000013804617
 20
-0.0000000272758126
 10
10.00000013804617
 20
1.500000081827437
 10
-9.999999861953825
 20
1.500000081827437
 10
-9.999999861953823
 20
0.0000000272758118
 97
        4
330
14C
330
157
330
14D
330
159
 92
        7
 72
     0
 73
     1
 93
        4
 10
-18.00000026232933
 20
1.500000081827436
 10
-18.00000026232931
 20
0.0000000490964627
 10
-14.0000002623293
 20
0.0000000381861378
 10
-14.00000026232933
 20
1.500000081827437
 97
        4
330
14F
330
156
330
14D
330
155
 92
        7
 72
     0
 73
     1
 93
        4
 10
-22.00000026232931
 20
1.500000081827437
 10
-26.00000026232933
 20
1.500000081827437
 10
-26.0000002623293
 20
0.0000000709171124
 10
-22.0000002623293
 20
0.0000000600067875
 97
        4
330
14F
330
151
330
14D
330
154
 75
     0
 76
     1
 47
0.0781288109040394
 98
        3
 10
-1.745953840577044
 20
0.5838051642456322
 10
-17.06580988240659
 20
0.8963199537016635
 10
-24.33492398407577
 20
1.208835729883503
  0
LINE
  5
14F
102
{ACAD_REACTORS
330
14E
102
}
330
14A
100
AcDbEntity
  8
vports_text
100
AcDbLine
 10
-30.0000002623293
 20
1.500000081827437
 30
0.0
 11
-9.999999861953825
 21
1.500000081827437
 31
0.0
  0
LINE
  5
150
330
14A
100
AcDbEntity
  8
vports_text
100
AcDbLine
 10
-30.0000002623293
 20
0.0000000818274373
 30
0.0
 11
-30.0000002623293
 21
3.000000081827437
 31
0.0
  0
LINE
  5
151
102
{ACAD_REACTORS
330
14E
102
}
330
14A
100
AcDbEntity
  8
vports_text
100
AcDbLine
 10
-26.0000002623293
 20
0.0000000818274373
 30
0.0
 11
-26.00000026232933
 21
1.500000081827437
 31
0.0
  0
TEXT
  5
152
330
14A
100
AcDbEntity
  8
vports_text
100
AcDbText
 10
-32.62509026061286
 20
4.328808372655061
 30
0.0
 40
2.0
  1
25m
  7
TNR-Regular
 72
     1
 11
-30.00000013804618
 21
4.328808372655061
 31
0.0
100
AcDbText
  0
TEXT
  5
153
330
14A
100
AcDbEntity
  8
vports_text
100
AcDbText
 10
-4.101658193085542
 20
-4.180051210200986
 30
0.0
 40
2.0
  1
1:1250
  7
TNR-Regular
 72
     1
 11
0.0000000621415666
 21
-4.180051210200986
 31
0.0
100
AcDbText
  0
LINE
  5
154
102
{ACAD_REACTORS
330
14E
102
}
330
14A
100
AcDbEntity
  8
vports_text
100
AcDbLine
 10
-22.0000002623293
 20
0.0000000818274373
 30
0.0
 11
-22.0000002623293
 21
1.500000081827437
 31
0.0
  0
LINE
  5
155
102
{ACAD_REACTORS
330
14E
102
}
330
14A
100
AcDbEntity
  8
vports_text
100
AcDbLine
 10
-14.0000002623293
 20
0.0000000818274373
 30
0.0
 11
-14.00000026232933
 21
1.500000081827437
 31
0.0
  0
LINE
  5
156
102
{ACAD_REACTORS
330
14E
102
}
330
14A
100
AcDbEntity
  8
vports_text
100
AcDbLine
 10
-18.00000026232931
 20
0.0000000818274373
 30
0.0
 11
-18.00000026232933
 21
1.500000081827437
 31
0.0
  0
LINE
  5
157
102
{ACAD_REACTORS
330
14E
102
}
330
14A
100
AcDbEntity
  8
vports_text
100
AcDbLine
 10
-9.999999861953825
 20
0.0000000818274373
 30
0.0
 11
-9.999999861953825
 21
3.000000081827437
 31
0.0
  0
TEXT
  5
158
330
14A
100
AcDbEntity
  8
vports_text
100
AcDbText
 10
-10.73828340362536
 20
4.328808155844967
 30
0.0
 40
2.0
  1
0
  7
TNR-Regular
 72
     1
 11
-9.99999933729515
 21
4.328808155844967
 31
0.0
100
AcDbText
  0
LINE
  5
159
102
{ACAD_REACTORS
330
14E
102
}
330
14A
100
AcDbEntity
  8
vports_text
100
AcDbLine
 10
10.00000013804617
 20
0.0000000818274373
 30
0.0
 11
10.00000013804617
 21
1.500000081827408
 31
0.0
  0
LINE
  5
15A
330
14A
100
AcDbEntity
  8
vports_text
100
AcDbLine
 10
30.0000002623293
 20
-0.0000000818274373
 30
0.0
 11
30.0000002623293
 21
2.999999918172562
 31
0.0
  0
TEXT
  5
15B
330
14A
100
AcDbEntity
  8
vports_text
100
AcDbText
 10
27.37491054013816
 20
4.328808372655061
 30
0.0
 40
2.0
  1
50m
  7
TNR-Regular
 72
     1
 11
30.00000066270485
 21
4.328808372655061
 31
0.0
100
AcDbText
  0
ENDBLK
  5
15C
330
14A
100
AcDbEntity
  8
0
100
AcDbBlockEnd
  0
BLOCK
  5
165
330
163
100
AcDbEntity
  8
0
100
AcDbBlockBegin
  2
A$C6BF52BD5
 70
     0
 10
0.0
 20
0.0
 30
0.0
  3
A$C6BF52BD5
  1

  0
INSERT
  5
164
330
163
100
AcDbEntity
  8
text
100
AcDbBlockReference
  2
1 to 1250 small
 10
32.73009420491769
 20
4.95400963778016
 30
0.0
  0
ENDBLK
  5
166
330
163
100
AcDbEntity
  8
0
100
AcDbBlockEnd
  0
BLOCK
  5
168
330
167
100
AcDbEntity
  8
0
100
AcDbBlockBegin
  2
aoc
 70
     0
 10
0.0
 20
0.0
 30
0.0
  3
aoc
  1

  0
LWPOLYLINE
  5
169
330
167
100
AcDbEntity
  8
AOC_PAGE
 62
   150
100
AcDbPolyline
 90
       71
 70
     0
 43
0.0
 10
28.03722397494261
 20
-2.155385721392804
 10
27.78249854613364
 20
-2.031058557894312
 10
27.53134820847433
 20
-2.082952588188604
 10
27.39492210126397
 20
-2.248431979581937
 10
27.34654327411587
 20
-2.577048898742532
 10
27.43567141431475
 20
-2.843789528328216
 10
27.55443165997008
 20
-3.054096560222874
 10
27.68546675576883
 20
-3.199516545963192
 10
27.89798054377297
 20
-3.292279299854044
 10
28.14021650891161
 20
-3.337242047872209
 10
28.35205475933162
 20
-3.365252863126884
 10
28.56357775887773
 20
-3.363046107016984
 10
28.77024353244786
 20
-3.309082835837216
 10
28.88607644857026
 20
-3.23879813363942
 10
29.06639108829606
 20
-3.141937118401756
 10
29.18968666442379
 20
-2.959325650889014
 10
29.35165326037756
 20
-2.759041677188634
 10
29.46500920535706
 20
-2.451333199989662
 10
29.51829029431971
 20
-2.178789591808709
 10
29.56221721804121
 20
-1.83726732076002
 10
29.49543202201878
 20
-1.229229599319979
 10
29.35697265742257
 20
-0.7859957316895674
 10
29.21756754020748
 20
-0.2521091499670547
 10
29.06175092029753
 20
0.1995781661257894
 10
28.85826940203012
 20
0.6680372716266447
 10
28.58072681572361
 20
1.200482706502044
 10
28.41331088325433
 20
1.522531037804129
 10
28.24526444903947
 20
1.90501451183512
 10
27.85017758473026
 20
2.531213489058246
 10
27.65677080512774
 20
2.861625197145941
 10
27.41061672199857
 20
3.28214918925643
 10
27.08658016914976
 20
3.719129719902639
 10
26.68699636557449
 20
4.362550844923589
 10
26.26623390500475
 20
4.96689562756842
 10
25.95361652135756
 20
5.550782326640501
 10
25.69356629788211
 20
6.061823925326067
 10
25.32892218413116
 20
6.666754173876825
 10
25.06387962716187
 20
7.242502675359674
 10
24.85509052452878
 20
7.805886255022173
 10
24.63326096249031
 20
8.377768318986227
 10
24.49844285621859
 20
8.885799161092095
 10
24.46101955061931
 20
9.576171255678446
 10
24.54285188490482
 20
10.00875156336907
 10
24.59896358709096
 20
10.42379447239001
 10
24.72454934637423
 20
10.80070679165192
 10
24.92316034940083
 20
11.21291908744909
 10
25.21237903067913
 20
11.63039393177428
 10
25.70529776478793
 20
11.9722831341669
 10
26.12591182857682
 20
12.2098036254781
 10
26.42655632368994
 20
12.35972719511599
 10
26.92132152719631
 20
12.52462776523453
 10
27.43007294272613
 20
12.59037713696034
 10
27.81035630527933
 20
12.55548912760834
 10
28.16491903573316
 20
12.50306371958506
 10
28.49457177918973
 20
12.35539858652805
 10
28.97248176624203
 20
12.06681040699436
 10
29.32934132448392
 20
11.7942284076064
 10
29.61304053146543
 20
11.4992968194108
 10
29.86108611983127
 20
10.89746739911723
 10
30.07181176354104
 20
10.14846159536249
 10
30.03094727686857
 20
9.513397202493934
 10
29.95041433728147
 20
9.370087256552779
 10
29.85486600600663
 20
9.010757371799855
 10
29.75814674291831
 20
8.763664180684145
 10
29.60904046301377
 20
8.572148906319399
 10
29.37404862331681
 20
8.336564956083507
 10
29.15542325047676
 20
8.187497067385948
 10
28.76439625630607
 20
8.010726969675261
 10
28.40277618839761
 20
7.911974449201125
 10
28.18635092703582
 20
7.965841004071521
 10
27.54242776315385
 20
8.02819939861071
  0
LWPOLYLINE
  5
16A
330
167
100
AcDbEntity
  8
AOC_PAGE
 62
   150
100
AcDbPolyline
 90
      241
 70
     0
 43
0.0
 10
28.79717051329473
 20
2.343530146317107
 10
28.66686265665402
 20
2.462022936259714
 10
27.78436988790142
 20
3.873196586725967
 10
27.00242442854866
 20
5.164535776032608
 10
26.36698645970407
 20
6.068849516205105
 10
25.96942262425111
 20
6.932472268430274
 10
25.54604808502063
 20
7.787191213803013
 10
25.34899340246284
 20
8.467263390528146
 10
25.14446941526737
 20
9.449466245052932
 10
25.43893735580986
 20
10.60524829735321
 10
25.95442421328923
 20
11.26685061205421
 10
26.48574375219027
 20
11.65231309608885
 10
27.0967021585306
 20
11.85296400113249
 10
27.51052909989949
 20
11.91340578849234
 10
28.07706518828917
 20
11.82001917748767
 10
28.52408206639393
 20
11.59586768571829
 10
28.96876372550378
 20
11.18173213810906
 10
29.32535971334343
 20
10.5205934710618
 10
29.41741518307478
 20
9.973261107384147
 10
29.29776750990368
 20
9.440989171232573
 10
29.04730992012898
 20
9.03255324127646
 10
28.88075631323201
 20
8.858125007191774
 10
28.42783485260446
 20
8.658879948450263
 10
27.91177406146923
 20
8.627835352059023
 10
27.61688086447973
 20
8.75427679228234
 10
27.38197245182911
 20
8.924516693342653
 10
27.20246181257332
 20
9.164410794855272
 10
27.12677945433097
 20
9.383801776957853
 10
27.18087118839546
 20
9.578643058774318
 10
27.27453465906586
 20
9.704820928595808
 10
27.37714697242723
 20
9.800871298731863
 10
27.49334017526161
 20
9.836621633657387
 10
27.64878986382837
 20
9.833926127951145
 10
27.83949449309256
 20
9.762522174410634
 10
27.97277473620738
 20
9.815719836328071
 10
28.03599545631931
 20
9.96316643482281
 10
28.08599557366958
 20
10.13637870125467
 10
28.04956970115947
 20
10.31732384272618
 10
27.90113231420833
 20
10.47551407283801
 10
27.74055518463069
 20
10.55586686906962
 10
27.4599184146991
 20
10.55725633544559
 10
27.01699979794122
 20
10.38857939948522
 10
26.81141488450632
 20
10.23101302648682
 10
26.67031169467461
 20
10.10002296652715
 10
26.53847259840697
 20
9.908687835518307
 10
26.46774418245127
 20
9.653231267617457
 10
26.47624931138418
 20
9.25181428390917
 10
26.58282477857483
 20
8.967986614042502
 10
26.76678732125762
 20
8.71518716064179
 10
27.05084681495006
 20
8.385721205172558
 10
27.31660330071071
 20
8.155361412257662
 10
28.22300197873983
 20
7.763311883054953
 10
28.78998842552002
 20
7.626757312959185
 10
29.20111986118238
 20
7.531749411751221
 10
29.66387270439847
 20
7.454549124247478
 10
30.47219439953778
 20
7.359367724316598
 10
31.05995418076188
 20
7.300740659779862
 10
31.97111336845816
 20
7.280025650438787
 10
33.07576276280153
 20
7.334722784305995
 10
33.68407069927522
 20
7.375607204873162
 10
34.45587645022738
 20
7.470004538231493
 10
35.41843186628236
 20
7.488681122139738
 10
36.39847964516773
 20
7.485953869858349
 10
37.31004415541472
 20
7.4263876973355
 10
38.12286278981969
 20
7.31398414960654
 10
38.75914315033992
 20
7.156566173389137
 10
39.48702197757092
 20
6.90944123569831
 10
39.93813047238928
 20
6.706918759313581
 10
40.29044805552707
 20
6.455875703631804
 10
40.75783959015661
 20
5.934045437489416
 10
40.94584871371353
 20
5.707191795382187
 10
41.09073491401881
 20
5.475570998976082
 10
41.2274378808952
 20
5.200692171801165
 10
41.38302932161147
 20
4.770588835253207
 10
41.44675208058351
 20
4.456093235633489
 10
41.46483655395397
 20
3.964113609511514
 10
41.47406225631011
 20
3.493627891256679
 10
41.19653960390062
 20
2.782700996789799
 10
40.958762186819
 20
2.400300949805342
 10
40.70223140341568
 20
2.160175024466085
 10
40.43639149060886
 20
1.984710966085231
 10
40.10283391842626
 20
1.679022457007932
 10
39.88762462471593
 20
1.616335522331852
 10
39.3926792778536
 20
1.468702135849085
 10
38.90092483092644
 20
1.429033682933323
 10
38.36123527060926
 20
1.432037794880884
 10
37.87568248019576
 20
1.625566392735195
 10
37.38113581125228
 20
1.853539286184969
 10
37.07630298311477
 20
2.105077736094913
 10
36.84881219462972
 20
2.391961198379462
 10
36.68989474646193
 20
2.727049989087163
 10
36.58646514336687
 20
3.123159388429244
 10
36.56636070187525
 20
3.394937387347909
 10
36.61087309150386
 20
3.680341311578331
 10
36.70714199620303
 20
3.970602461785134
 10
36.88430412720047
 20
4.369639190660351
 10
37.46661457190902
 20
4.833344431126292
 10
37.85755149440158
 20
5.018748120655815
 10
38.12887913493068
 20
5.082020521238277
 10
38.42624265843028
 20
5.132612749127262
 10
38.66856869524733
 20
5.07901640929164
 10
38.95896495297163
 20
4.969797116864825
 10
39.14616343142708
 20
4.820645801121827
 10
39.38565885502157
 20
4.624550160446006
 10
39.48328547952082
 20
4.370849990265469
 10
39.52056703297168
 20
4.107885726521303
 10
39.37956055944932
 20
3.553804631629873
 10
39.26013142084182
 20
3.414406159046635
 10
39.13593512793406
 20
3.318130609715595
 10
39.05013963981969
 20
3.265428342027022
 10
38.88659678950148
 20
3.216232225145845
 10
38.76122956478181
 20
3.232193369452716
 10
38.62695853320992
 20
3.273965217535746
 10
38.54390358663977
 20
3.372395842504829
 10
38.52492504112271
 20
3.536253943695343
 10
38.54079611375093
 20
3.670254760234002
 10
38.60464733560843
 20
3.757266216000758
 10
38.60464733560843
 20
3.757266216000758
 10
38.28853044578585
 20
3.848948109756506
 10
38.12476241627286
 20
3.821335972420698
 10
38.01837373707025
 20
3.673439015536346
 10
37.96859879891483
 20
3.478642769558746
 10
37.97916893180806
 20
3.293110617144535
 10
38.02895051459652
 20
3.073449420008956
 10
38.15180237696609
 20
2.884771403498917
 10
38.37380543772838
 20
2.710079599012261
 10
38.64252764422938
 20
2.609268719209695
 10
39.10383934059786
 20
2.670205900798223
 10
39.51235869759961
 20
2.825572162319077
 10
39.87662923537476
 20
3.084091167269193
 10
40.10069065546642
 20
3.539741637192023
 10
40.12244813373576
 20
3.937157075864206
 10
40.11079714070658
 20
4.226292330096626
 10
40.05130110596562
 20
4.549466557374444
 10
39.94899739884499
 20
4.837656058988841
 10
39.75118375165607
 20
5.176656323055099
 10
39.50192884026998
 20
5.480581789780885
 10
39.21953567261878
 20
5.65032629661232
 10
38.78668514989383
 20
5.758059406352245
 10
38.32883456849407
 20
5.779186382876574
 10
37.92373129062182
 20
5.710201075376517
 10
37.44178136732552
 20
5.558386000501983
 10
37.07683529196512
 20
5.364618934188442
 10
36.68207696779172
 20
5.131685453820197
 10
36.33534382868672
 20
4.847445816771156
 10
35.98838551038739
 20
4.584790159267413
 10
35.72362645771588
 20
4.305722999068166
 10
35.43768874804977
 20
3.987579496492117
 10
35.14343269743858
 20
3.639128350873762
 10
34.94320040420982
 20
3.382320707804652
 10
34.71666201297461
 20
3.164094012883211
 10
34.43126473337654
 20
2.794148959397262
 10
34.17954614011086
 20
2.506583314896488
 10
34.02270698516759
 20
2.228642050671397
 10
33.67598049069443
 20
1.529944970508268
 10
33.57058259994866
 20
1.287078503623661
 10
33.35074790408902
 20
0.8401066613589592
 10
33.18154382732473
 20
0.5059119427976526
 10
32.96202438233757
 20
0.0287225291692721
 10
32.80563558578362
 20
-0.2923866941478082
 10
32.61156655786178
 20
-0.7261379336512164
 10
32.45589833473167
 20
-1.116315891513963
 10
32.30396144160409
 20
-1.450330466718697
 10
31.99810607843457
 20
-1.928420597127555
 10
31.76869203813791
 20
-2.284829796978542
 10
31.59881242378967
 20
-2.554272576902576
 10
31.36903809678137
 20
-2.876147409481504
 10
31.04442936728896
 20
-3.21196341824475
 10
30.78394207468818
 20
-3.486668746696751
 10
30.39903330998521
 20
-3.8360656449331
 10
29.99195509982991
 20
-4.129569375546211
 10
29.61477921016646
 20
-4.392540283922472
 10
29.29264080718553
 20
-4.551322624573231
 10
28.93097570343861
 20
-4.645758349138077
 10
28.46997925794196
 20
-4.736913102090057
 10
28.07274396262591
 20
-4.732422807456715
 10
27.60967586853732
 20
-4.625004948589762
 10
27.24539868612962
 20
-4.469066510426046
 10
26.82778873428788
 20
-4.166897441419906
 10
26.45231091724096
 20
-3.764991708114621
 10
26.28080336805738
 20
-3.464572392196033
 10
26.15309427971053
 20
-3.224137860615883
 10
26.06162427588626
 20
-2.73292384375624
 10
26.04615188117643
 20
-2.491318380362586
 10
26.09102455751668
 20
-2.240448823405117
 10
26.18302170214471
 20
-1.954549504946499
 10
26.34386240212459
 20
-1.646345633518436
 10
26.61208256976462
 20
-1.285214315207213
 10
26.92976906931858
 20
-1.113526622667209
 10
27.12739592851969
 20
-1.020802259983398
 10
27.48838549468243
 20
-0.8616145967819051
 10
27.78565894650453
 20
-0.8023887770748246
 10
28.09655832363953
 20
-0.8077797884868829
 10
28.39518285063031
 20
-0.8780578460527977
 10
28.58651798163987
 20
-1.00989694232112
 10
28.83532253463676
 20
-1.270654449955373
 10
28.95089188035692
 20
-1.588926415416836
 10
28.88673205225882
 20
-2.060177742933988
 10
28.82944941825937
 20
-2.362983958317486
 10
28.68124385513391
 20
-2.640835150864405
 10
28.51392463897531
 20
-2.741877854493865
 10
28.33662075582879
 20
-2.713506752528247
 10
28.15913672932646
 20
-2.667868466925711
 10
28.07621689027383
 20
-2.582388229684042
 10
28.00134517713283
 20
-2.440699573945722
 10
27.97845515825722
 20
-2.315737671776333
 10
28.03722397494261
 20
-2.155385721392804
 10
28.14078204092263
 20
-2.149988065348467
 10
28.31151733621135
 20
-1.962564407698437
 10
28.32271132621892
 20
-1.794074259725676
 10
28.17741980336288
 20
-1.523602300137327
 10
27.96040907609375
 20
-1.413617398448878
 10
27.64982494983269
 20
-1.438443958400725
 10
27.31941324174568
 20
-1.631850738002186
 10
27.08819776789028
 20
-1.815588101488856
 10
26.88355860707358
 20
-2.063807188579403
 10
26.74048048495933
 20
-2.419315671651916
 10
26.69587802365368
 20
-2.696086004063758
 10
26.75505880752161
 20
-2.989042659977031
 10
26.89576331943454
 20
-3.233658879949644
 10
27.12788615470183
 20
-3.55071487775831
 10
27.43321437706706
 20
-3.849738082669106
 10
27.78953350524102
 20
-4.0705185311474
 10
28.30795433688533
 20
-4.103965393652985
 10
28.71773469737897
 20
-4.069469417587015
 10
29.22581057532463
 20
-3.938968107224355
 10
29.56921770697772
 20
-3.749743016014691
 10
29.86356382926667
 20
-3.409925462214687
 10
30.02921671938452
 20
-3.149161309948127
 10
30.15974977632209
 20
-2.832639097574642
 10
30.20268591158649
 20
-2.396147316525898
 10
30.18276161345051
 20
-2.141636501243511
 10
30.13859622127026
 20
-1.632659906518711
 10
30.04321474408653
 20
-1.180342088679936
 10
29.88681265826924
 20
-0.6725364257681576
 10
29.72941978399444
 20
-0.0697612528561109
 10
29.46230557843361
 20
0.7045598604461247
 10
29.32070034974066
 20
1.035511998600896
 10
29.12711342678332
 20
1.383190890324386
 10
28.92376701603322
 20
1.838699608098509
 10
28.68458968196998
 20
2.304832951565231
  0
LWPOLYLINE
  5
16B
330
167
100
AcDbEntity
  8
AOC_PAGE
 62
   150
100
AcDbPolyline
 90
       52
 70
     0
 43
0.0
 10
36.87940186538412
 20
4.425712501639964
 10
36.46054419931554
 20
4.019836969873054
 10
36.20432866678468
 20
3.749493473169878
 10
35.97770020387196
 20
3.539900370067016
 10
35.78574121574951
 20
3.317717165948579
 10
35.58492345661372
 20
3.117027869697495
 10
35.30312239950104
 20
2.816196586596774
 10
34.94910674374631
 20
2.402363000596083
 10
34.74091639628335
 20
2.080713347212622
 10
34.52849932458952
 20
1.750385066171035
 10
34.33820666250875
 20
1.368480413415242
 10
34.13473843350513
 20
1.008024632688588
 10
33.84354481994359
 20
0.366031365250592
 10
33.64138263027095
 20
-0.1196114968406476
 10
33.42676544709951
 20
-0.6528742214500056
 10
33.25760640617497
 20
-0.9913857359192662
 10
32.98295940282628
 20
-1.564130125455677
 10
32.77148808375043
 20
-1.985111120587817
 10
32.52516714652936
 20
-2.376234831069041
 10
32.21485987993333
 20
-2.841419609588684
 10
31.77896020942282
 20
-3.269059264256384
 10
31.40439639841927
 20
-3.782404335362358
 10
30.92128218794252
 20
-4.236440159713311
 10
30.51487951537177
 20
-4.59469582896304
 10
30.03477606147337
 20
-4.923499536111422
 10
29.44657256649134
 20
-5.236161955597268
 10
28.76654542560527
 20
-5.43753343406479
 10
28.20077494647717
 20
-5.417532353515071
 10
27.59529762322697
 20
-5.315917473242962
 10
27.25287463539868
 20
-5.185654631338835
 10
26.78463406446096
 20
-4.996262686037198
 10
26.41522944104275
 20
-4.762666957348742
 10
26.00993937518248
 20
-4.399927638098234
 10
25.75232108701198
 20
-4.121993018504782
 10
25.55891430740982
 20
-3.791581310417769
 10
25.36748246009091
 20
-3.236651179217461
 10
25.31656833669737
 20
-2.494612641239442
 10
25.37281514640037
 20
-2.092520119945902
 10
25.44763517907035
 20
-1.815434536661328
 10
25.59916674964776
 20
-1.442568798274365
 10
25.78559297420904
 20
-1.103877140449185
 10
26.05457875111091
 20
-0.8161313525922651
 10
26.37181489227552
 20
-0.6012757009621055
 10
26.70182127781183
 20
-0.3690177581779608
 10
27.03709021187586
 20
-0.227367493646625
 10
27.44093248625742
 20
-0.0375119006919107
 10
27.79891129584098
 20
-0.0035563546930462
 10
28.09722057195992
 20
-0.0436168408959787
 10
28.41369774849406
 20
-0.1698331019244819
 10
28.72608330831437
 20
-0.3176783783374049
 10
28.98226044963803
 20
-0.4574755288388275
 10
29.41929930538663
 20
-0.9666706581265316
  0
LWPOLYLINE
  5
16C
330
167
100
AcDbEntity
  8
AOC_PAGE
100
AcDbPolyline
 90
        2
 70
     0
 43
0.0
 10
0.0
 20
0.0
 10
20.65349481491353
 20
0.0
  0
TEXT
  5
16D
330
167
100
AcDbEntity
  8
AOC_PAGE
 62
     7
100
AcDbText
 10
10.77030453271396
 20
-2.792763825342405
 30
0.0
 40
1.725342001593539
  1
GROUP
  7
ROMANT
100
AcDbText
  0
LWPOLYLINE
  5
16E
330
167
100
AcDbEntity
  8
AOC_PAGE
 62
   150
100
AcDbPolyline
 90
       76
 70
     0
 43
0.0
 10
27.83949449309256
 20
9.762522174410634
 10
27.81166382119409
 20
9.533416740354596
 10
27.89098743776094
 20
9.378822732727926
 10
28.04810345236999
 20
9.216405778384143
 10
28.20488651361188
 20
9.141342406696566
 10
28.38526389167052
 20
9.176750614732782
 10
28.55577400776491
 20
9.385758251929019
 10
28.76778575690761
 20
9.754937696152425
 10
28.78882266175424
 20
10.22142186937117
 10
28.64177474117878
 20
10.66024886941453
 10
28.31926940685386
 20
10.9504583391506
 10
27.94563805920455
 20
11.17537544018229
 10
27.48288521598917
 20
11.25257572768578
 10
27.07418571563036
 20
11.11447664980075
 10
26.63639453988361
 20
10.8681424233157
 10
26.26412091203517
 20
10.54909820396006
 10
25.99113359009672
 20
10.23108980890015
 10
25.82588602253009
 20
9.931474493452015
 10
25.78609575136167
 20
9.607264441878456
 10
25.84694286127225
 20
9.154586337327814
 10
25.94560531006778
 20
8.801599861237719
 10
26.07012349847986
 20
8.453200396090779
 10
26.37239592842772
 20
8.033261869886019
 10
26.81208525404367
 20
7.683833225075233
 10
27.28113647008351
 20
7.416738953409308
 10
27.75823581203437
 20
7.205853100240574
 10
28.60648953049187
 20
7.007473921040628
 10
29.04783853751786
 20
6.912781270705864
 10
29.64472730478928
 20
6.806759522847173
 10
30.22853057681527
 20
6.713553055197949
 10
30.77707890814571
 20
6.689055035383262
 10
31.39393036475957
 20
6.73866311944721
 10
32.70232484777193
 20
6.71345781547349
 10
33.42691605875822
 20
6.781458979147587
 10
33.95320487295811
 20
6.821487718774989
 10
34.72105411471327
 20
6.881305649020774
 10
35.55370033094385
 20
6.937482320942294
 10
36.43050529472197
 20
6.899139841252918
 10
37.40709195863994
 20
6.814348430859155
 10
38.06891280790293
 20
6.691735036948089
 10
38.84805275597569
 20
6.49695208023445
 10
39.29452920401218
 20
6.324602139374534
 10
39.73376817123832
 20
6.018341453654784
 10
40.00375138123059
 20
5.796660288396424
 10
40.21320937681656
 20
5.582982213211366
 10
40.36668413310053
 20
5.355768284392298
 10
40.52479093616694
 20
5.098381820048644
 10
40.67903130171382
 20
4.797782360774363
 10
40.78542662554878
 20
4.531221874544585
 10
40.82464472007473
 20
4.082635386708262
 10
40.77874286407064
 20
3.516594692546278
 10
40.66556706244683
 20
3.191619031710403
 10
40.34163387053923
 20
2.791051084309871
 10
39.93918770716618
 20
2.46737481817263
 10
39.52253015257497
 20
2.264433729973248
 10
39.24270402774431
 20
2.188120869985141
 10
38.81664727207294
 20
2.058475240563212
 10
38.30245316465903
 20
2.100600730725773
 10
37.87715537361757
 20
2.312027013962521
 10
37.57209736628579
 20
2.585149443418018
 10
37.33552262759258
 20
2.915110793115218
 10
37.211274654215
 20
3.237609482808239
 10
37.17862514754637
 20
3.470401211027593
 10
37.28748415326092
 20
3.795331836024616
 10
37.45313704337781
 20
4.056095988291204
 10
37.70984797013736
 20
4.278954729993998
 10
38.01489933283798
 20
4.42028974365256
 10
38.44154155441626
 20
4.493817026256465
 10
38.61484389252675
 20
4.435183317087194
 10
38.73638971556602
 20
4.371692381942012
 10
38.83216987066811
 20
4.294980844035763
 10
38.90258968038324
 20
4.166197540185308
 10
38.95614762901297
 20
3.998382929797344
 10
38.87997652117292
 20
3.850801223785993
 10
38.69952677393096
 20
3.766890596275985
 10
38.60464733560843
 20
3.757266216000758
  0
LWPOLYLINE
  5
16F
330
167
100
AcDbEntity
  8
AOC_PAGE
 62
   150
100
AcDbPolyline
 90
       40
 70
     0
 43
0.0
 10
31.45445705575023
 20
3.833774723485703
 10
31.49667926222264
 20
3.924877795966722
 10
31.56462210079508
 20
4.033518267118097
 10
31.67600311349088
 20
4.116708321204669
 10
31.79705354230188
 20
4.100702141059173
 10
31.93159478890786
 20
4.033029517521769
 10
32.07526502156108
 20
3.917962210661486
 10
32.21596953347398
 20
3.673345990689327
 10
32.24452742342802
 20
3.418925247084871
 10
32.18647918016583
 20
3.189504562156131
 10
32.04596145624072
 20
3.002396155378847
 10
31.81515130493608
 20
2.77980762870925
 10
31.55785491226993
 20
2.613067233824694
 10
31.29979291034098
 20
2.519712369394924
 10
31.01942635544398
 20
2.495201060316276
 10
30.60397812387234
 20
2.590163925685147
 10
30.26865750933777
 20
2.86728790017672
 10
29.96157288925198
 20
3.334666145542528
 10
29.82468977901928
 20
3.626812156354148
 10
29.70327241886432
 20
4.091810146886701
 10
29.68685427153628
 20
4.424068324371319
 10
29.76050337239323
 20
4.813390601293335
 10
30.03650145091112
 20
5.256631113555855
 10
30.40472849788398
 20
5.549729521618033
 10
30.86419372485463
 20
5.787655335479926
 10
31.52627814451986
 20
6.053598609228388
 10
32.11448828413376
 20
5.951803585599677
 10
32.54706859182531
 20
5.869971251314624
 10
32.91080534416432
 20
5.765834364060538
 10
33.34482679870302
 20
5.54586456068364
 10
33.71567256896807
 20
5.17413136290314
 10
33.86132437853527
 20
4.869125036041623
 10
33.99002425533916
 20
4.533720994461191
 10
34.05878438364493
 20
4.150201696134232
 10
34.14634291411127
 20
3.620091480253677
 10
34.15880455224169
 20
3.253253899657025
 10
34.12270057523637
 20
2.989524026650088
 10
34.12531265389768
 20
2.739149863921284
 10
34.09081280073633
 20
2.505291855928803
 10
34.02270698516759
 20
2.228642050671397
  0
LWPOLYLINE
  5
170
330
167
100
AcDbEntity
  8
AOC_PAGE
 62
   150
100
AcDbPolyline
 90
       40
 70
     0
 43
0.0
 10
31.43359364962811
 20
3.764480809745692
 10
31.22220575759863
 20
3.74932366590815
 10
31.11356528644657
 20
3.817266504479903
 10
31.02619354396842
 20
3.915652093610333
 10
30.98581116226111
 20
4.062017831969342
 10
30.98859673964577
 20
4.208833928718377
 10
31.10726026899167
 20
4.421617931756145
 10
31.35214670399768
 20
4.536421668214189
 10
31.68372934389771
 20
4.617591754179102
 10
31.98563484250207
 20
4.646645038361129
 10
32.35368839075088
 20
4.542553186946165
 10
32.65856625472742
 20
4.2866979411274
 10
32.83065926981811
 20
3.930160278390062
 10
32.85607129567501
 20
3.563457805310463
 10
32.74878854432467
 20
3.087439323494664
 10
32.60890132214575
 20
2.839895773988914
 10
32.43088351020737
 20
2.522878167386821
 10
32.15263363974142
 20
2.295477450579938
 10
31.76232721899461
 20
2.049638618323343
 10
31.38416054087267
 20
1.881637219947379
 10
31.08643673066078
 20
1.865579359331377
 10
30.58865412594398
 20
1.989904115123181
 10
30.31116322010797
 20
2.103575310975216
 10
29.93326011238833
 20
2.324130580258739
 10
29.56327002306418
 20
2.613844655766343
 10
29.36541134003619
 20
2.957161715742131
 10
29.20204198844269
 20
3.305155858338594
 10
29.04091778416452
 20
3.851767648593281
 10
28.96757064491746
 20
4.261142686535763
 10
28.96760903612403
 20
4.671283333740348
 10
29.07619782680396
 20
5.022114734191518
 10
29.28875000601531
 20
5.339492627505479
 10
29.50953045449407
 20
5.695811755679415
 10
29.86017506695768
 20
6.018947591749352
 10
30.27233568228439
 20
6.239110827746131
 10
30.58152369753768
 20
6.397758060880079
 10
30.90388727971342
 20
6.534956421985953
 10
31.20511724073253
 20
6.628761644805067
 10
31.44186547814977
 20
6.695990554584796
 10
31.64741899855761
 20
6.733779838333461
  0
LWPOLYLINE
  5
171
330
167
100
AcDbEntity
  8
AOC_PAGE
 62
   150
100
AcDbPolyline
 90
       37
 70
     0
 43
0.0
 10
31.42932188955749
 20
3.760118977997081
 10
31.49915623336594
 20
3.687454020966015
 10
31.53531189084217
 20
3.532409654949575
 10
31.51139269230151
 20
3.34220041991378
 10
31.43063457351968
 20
3.220474453518605
 10
31.25877338225672
 20
3.140970693596046
 10
31.03411985162731
 20
3.155896013606039
 10
30.76539764512626
 20
3.25670689340815
 10
30.54744116523918
 20
3.457344509188488
 10
30.39329087137045
 20
3.749310376644431
 10
30.33901234931767
 20
3.98619372157782
 10
30.31131014030458
 20
4.158595342908711
 10
30.33014693367247
 20
4.422145072559729
 10
30.46544714490958
 20
4.695544361680945
 10
30.71289397810457
 20
4.978748174433562
 10
31.07325304252183
 20
5.198370980362384
 10
31.45654716165376
 20
5.288715088213621
 10
31.87496111396507
 20
5.323301135957095
 10
32.32485364113126
 20
5.237332149118842
 10
32.74120258948182
 20
5.056033365568069
 10
33.16389494649522
 20
4.680523801945824
 10
33.45393756213977
 20
4.191381433678785
 10
33.53871051522171
 20
3.514455121048741
 10
33.40256126767713
 20
2.908617511086959
 10
33.15295935884316
 20
2.418162458857765
 10
32.87160866012022
 20
2.074163216665525
 10
32.53418465041767
 20
1.725261712658025
 10
32.08834534875857
 20
1.422719067675857
 10
31.73131229179256
 20
1.298110807586468
 10
31.36506017710303
 20
1.229530822637358
 10
31.02421344363842
 20
1.208705807722481
 10
30.60076212199482
 20
1.243143458685381
 10
30.07617802504294
 20
1.453533917625933
 10
29.62034741176467
 20
1.694862521352889
 10
29.27666342044583
 20
1.94599564871281
 10
28.97196569982498
 20
2.184583710894913
 10
28.79717051329473
 20
2.343530146317107
  0
TEXT
  5
172
330
167
100
AcDbEntity
  8
AOC_PAGE
 62
   150
100
AcDbText
 10
0.6030457213456089
 20
1.463404457900822
 30
0.0
 40
1.725342001593539
  1
ARCHAEOLOGY
  7
ROMANT
100
AcDbText
  0
TEXT
  5
173
330
167
100
AcDbEntity
  8
AOC_PAGE
 62
     7
100
AcDbText
 10
0.4235025131220596
 20
5.156338672515588
 30
0.0
 40
6.7660470650727
  1
AOC
  7
ROMANT
100
AcDbText
  0
LWPOLYLINE
  5
174
330
167
100
AcDbEntity
  8
AOC_PAGE
100
AcDbPolyline
 90
        2
 70
     0
 43
0.0
 10
0.0399039682049533
 20
4.451517299077054
 10
20.71871409266646
 20
4.451517299077054
  0
LWPOLYLINE
  5
175
330
167
100
AcDbEntity
  8
AOC_PAGE
 62
   150
100
AcDbPolyline
 90
        3
 70
     0
 43
0.0
 10
28.68458968196998
 20
2.304832951565231
 10
28.60206568217856
 20
2.465664194584178
 10
28.50178048393673
 20
2.72600199710746
  0
ENDBLK
  5
176
330
167
100
AcDbEntity
  8
0
100
AcDbBlockEnd
  0
ENDSEC
  0
SECTION
  2
ENTITIES
  0
POINT
  5
8F
330
1F
100
AcDbEntity
  8
0
100
AcDbPoint
 10
16.46496762064764
 20
11.53042221734294
 30
0.0
  0
POINT
  5
91
330
1F
100
AcDbEntity
  8
0
100
AcDbPoint
 10
12516.46496762065
 20
11.53042221734294
 30
0.0
  0
POINT
  5
95
330
1F
100
AcDbEntity
  8
0
100
AcDbPoint
 10
16.46496762065553
 20
12511.53042221734
 30
0.0
  0
POINT
  5
96
330
1F
100
AcDbEntity
  8
0
100
AcDbPoint
 10
12516.46496762066
 20
12511.53042221734
 30
0.0
  0
LWPOLYLINE
  5
9D
330
1F
100
AcDbEntity
  8
Plan
  6
DASHDOTX2
 48
200.0
100
AcDbPolyline
 90
      192
 70
     0
 43
0.0
 10
10024.48551054964
 20
211.057415821007
 10
10172.01410302462
 20
207.5253239023596
 10
10540.53869182335
 20
185.6925221982069
 10
10792.67624138088
 20
204.2900343231945
 10
11054.18845852158
 20
187.3438454085922
 10
11418.30909852944
 20
192.5344644779034
 10
11688.83992850505
 20
180.057059816686
 10
11966.33660853315
 20
157.5517702875163
 10
12230.04206529171
 20
194.1126676944596
 10
12204.52732971111
 20
469.7817080738555
 10
12203.31256528162
 20
826.8860704472663
 10
12200.82072233922
 20
1246.012396453141
 10
12190.34241110534
 20
1530.629811249725
 10
12177.88931974256
 20
1961.295228695516
 10
12144.95362518237
 20
2259.497293774154
 10
12115.93957561139
 20
2952.295727914169
 10
12125.07147040718
 20
3404.889579371312
 10
12119.58062712675
 20
3824.526844841453
 10
12108.44477624394
 20
4343.212165794498
 10
12123.01330466956
 20
4777.781398477317
 10
12110.76066294503
 20
5403.00056935537
 10
12081.20811883823
 20
5946.259070894586
 10
12044.17518324452
 20
6495.546189856033
 10
11996.50617012483
 20
7007.861246519129
 10
11988.85144328319
 20
7521.03249148435
 10
11989.48827160383
 20
7975.657493903071
 10
11995.14624629872
 20
8435.765955563435
 10
11985.88972333611
 20
8781.896195513285
 10
11978.08731571876
 20
9254.056489062901
 10
11965.77470119141
 20
9723.7323237089
 10
11963.54147970502
 20
10492.45560582524
 10
11965.26682340177
 20
10971.58355041242
 10
11949.285782386
 20
11394.75957144597
 10
11931.99704611115
 20
11871.45528569655
 10
11893.53646965271
 20
12163.17542541091
 10
11874.30194910858
 20
12377.304625861
 10
11860.76646571893
 20
12507.38977744365
 10
11849.41205342802
 20
12782.24465988403
 10
11870.37664380431
 20
13174.81913011399
 10
11852.50111171799
 20
13638.01096780034
 10
11889.40480659394
 20
14003.53789140039
 10
11876.8491069835
 20
14392.19289690921
 10
11888.26432359158
 20
14765.78459312347
 10
11893.64957754101
 20
15127.88732597835
 10
11907.68887767109
 20
15551.98878255213
 10
11945.36496219882
 20
16029.04951233942
 10
11941.72333361023
 20
16586.23669781253
 10
11933.21772152848
 20
16994.8882199931
 10
11919.66537009661
 20
17385.04613826445
 10
11938.35135596523
 20
17868.65529939049
 10
11975.09304814054
 20
18372.7269525906
 10
11986.65109529518
 20
18804.8370261791
 10
12002.09808782341
 20
19190.92288299151
 10
11986.58295209621
 20
19596.59055357727
 10
11980.28794141196
 20
20091.26420897307
 10
11959.31624653182
 20
20515.45111972001
 10
11955.92695791263
 20
20971.10519888958
 10
11931.46148817489
 20
21398.30159748329
 10
11912.38909734715
 20
21780.97058819394
 10
11892.73109527469
 20
22128.62980466826
 10
11868.00962324582
 20
22655.85883835079
 10
11856.96940436531
 20
23255.57768651628
 10
11851.50502025179
 20
23680.7270674154
 10
11850.42485548781
 20
24057.85038247825
 10
11839.34277006625
 20
24435.49827009071
 10
11832.75477364545
 20
24810.13422830861
 10
11865.31905757786
 20
25037.12740927372
 10
11828.81473621848
 20
25381.64675614674
 10
11845.33294398033
 20
25737.73155577033
 10
11835.84517041069
 20
26100.31895625739
 10
11809.85125487007
 20
26408.39393400868
 10
11830.37364440212
 20
26844.99789806447
 10
11820.88577078447
 20
27205.0846984115
 10
11832.924708762
 20
28106.30050864843
 10
11864.94743777618
 20
28482.38948909458
 10
11858.46152492197
 20
28873.48361112038
 10
11836.47215132442
 20
29271.07991380797
 10
11831.98751896637
 20
29682.17875691561
 10
11827.99764406262
 20
29959.24541250795
 10
11830.51299128038
 20
30327.8337731006
 10
11821.02451737462
 20
30672.91697260744
 10
11826.0427658368
 20
31099.0190363728
 10
11805.05369232407
 20
31498.1156591252
 10
11756.05763711814
 20
31890.71184205131
 10
11739.06820319563
 20
32256.80038287847
 10
11741.58150943384
 20
32574.37650061447
 10
11754.59835674995
 20
32917.45831957713
 10
11772.1161442509
 20
33257.03911825731
 10
11768.12797016344
 20
33576.61597623019
 10
11758.63993646896
 20
33932.70181635317
 10
11746.65564471839
 20
34397.31380260154
 10
11758.17199188326
 20
34736.89484139696
 10
11759.68871982288
 20
35145.99296427733
 10
11770.70790838105
 20
35559.5917872273
 10
11790.72917740492
 20
35971.18976989238
 10
11827.25446738181
 20
36384.28745232456
 10
11893.78635875098
 20
36782.38033334035
 10
11937.30910709364
 20
37089.95240972875
 10
11969.83343684648
 20
37503.05025223776
 10
11988.34039909275
 20
37566.06463541124
 10
11955.76952773752
 20
37844.32102095978
 10
11989.38169123412
 20
38259.1484567705
 10
11940.99308952625
 20
38705.22033901719
 10
11960.80235433598
 20
39201.16477936904
 10
11959.29475082796
 20
39775.74327763642
 10
11967.06052210814
 20
40451.89924259605
 10
11994.07864870066
 20
41025.40249872304
 10
12002.7268780491
 20
41656.01062144946
 10
12038.13852655171
 20
42377.64018072263
 10
12002.61315147847
 20
43535.39029681391
 10
11981.0153234215
 20
44082.99405492497
 10
12001.63119518586
 20
44696.55401361707
 10
12015.86405044943
 20
45549.87032450428
 10
12016.42617032714
 20
46150.46946213022
 10
12031.51442976111
 20
46755.53529849205
 10
12028.45874209792
 20
47119.90761559708
 10
11991.39109444756
 20
47685.0691530184
 10
11987.57278746366
 20
48141.03504651005
 10
11977.60653229145
 20
48542.4623861131
 10
11970.70027336617
 20
49158.09597597616
 10
11951.95562953695
 20
49648.13475082497
 10
11981.09588391733
 20
50075.48633775051
 10
12021.81906815589
 20
50311.19532560201
 10
12020.91459150881
 20
50603.34909069222
 10
12017.50167720397
 20
50892.00615471069
 10
12020.24808129216
 20
51257.19044787879
 10
11998.08062538418
 20
51670.95082488489
 10
12000.94649318517
 20
52094.66531004686
 10
11985.00982968642
 20
52619.97097978867
 10
11981.89812730701
 20
53056.20416891987
 10
11981.60316185023
 20
53401.88452443427
 10
11994.88970096496
 20
53784.05614913932
 10
12033.87625419192
 20
54257.7229232933
 10
12073.85821823446
 20
54728.88636507638
 10
12076.28100719718
 20
55180.61632216459
 10
12103.1306718507
 20
55590.27457113816
 10
12132.55310077658
 20
56034.94577841094
 10
12146.65023932215
 20
56324.06736347254
 10
12157.56822563941
 20
56771.27764012431
 10
12191.60120910803
 20
57268.96701131105
 10
12202.29864703243
 20
57608.12154889723
 10
12197.46664316385
 20
57936.80232018619
 10
12197.73319920075
 20
58312.497137717
 10
12192.10591176195
 20
58741.73181941786
 10
12184.8052914732
 20
59086.42595363304
 10
12154.30702844795
 20
59585.24755732353
 10
12136.4683152474
 20
59913.95487610422
 10
12097.68206945242
 20
60273.72107847088
 10
12065.28584095486
 20
60577.94536340518
 10
12072.06289905937
 20
60957.12871354872
 10
12060.84087789336
 20
61341.35140227004
 10
12056.54384802673
 20
61687.03992624344
 10
12053.77311874816
 20
62045.23183832545
 10
12031.78122464637
 20
62299.90913398316
 10
12032.18454230923
 20
62497.51106421885
 10
12028.22434125174
 20
62518.02981277826
 10
12004.94639221131
 20
63152.01771531552
 10
11992.69842048318
 20
63539.99145396841
 10
11979.47477092547
 20
63885.41184105867
 10
11982.27128096371
 20
64230.34123140873
 10
11977.59848128762
 20
64508.68357223154
 10
11971.88444131144
 20
64853.60784991187
 10
11974.71433407549
 20
65142.96835487369
 10
11990.40006492275
 20
65699.16745319411
 10
12001.1839484905
 20
66081.64819964986
 10
11994.99846021717
 20
66378.01197944384
 10
11970.77108229379
 20
66706.90527069823
 10
11960.06918188872
 20
67021.28868499171
 10
11956.86937243323
 20
67347.69150460236
 10
11969.15632074934
 20
67728.1706709376
 10
11987.42244607836
 20
68155.71178159001
 10
11990.19820469244
 20
68535.18399258681
 10
11979.48096627821
 20
68875.09905692354
 10
11998.29432771433
 20
69225.04427701331
 10
12004.62736162086
 20
69516.4093695484
 10
12000.43984452469
 20
69820.28366115974
 10
11723.61440273301
 20
69790.58073426531
 10
11381.69565305884
 20
69781.8647752263
 10
10918.65799833537
 20
69721.01149456545
 10
10739.41447452885
 20
69756.44788958099
 10
10577.20678726975
 20
69767.36410107088
 10
10399.98108382871
 20
69777.27004902429
 10
10246.27071379182
 20
69810.21867910356
 10
10108.07928127123
 20
69843.67725287552
 10
9968.895629930805
 20
69862.11660748444
 10
9790.683121084923
 20
69847.99216567128
 10
9668.56267411219
 20
69796.35486314796
 10
9505.372692627418
 20
69775.73137603505
 10
9361.709320079113
 20
69751.1146532753
 10
9185.998410452263
 20
69739.49481813396
 10
9008.784736822327
 20
69729.37594252403
 10
8835.552569773405
 20
69758.30787882481
  0
LWPOLYLINE
  5
A0
330
1F
100
AcDbEntity
  8
Plan
100
AcDbPolyline
 90
       35
 70
     0
 43
0.0
 10
11982.65035066588
 20
19905.62169305161
 10
11937.81939873414
 20
19904.80816628354
 10
11860.28162412715
 20
19899.49565845107
 10
11660.16263989781
 20
19876.97674271956
 10
11469.51978300254
 20
19843.43117670926
 10
11302.39285388859
 20
19813.32933382658
 10
11139.18172717408
 20
19748.20672974245
 10
11016.52727111759
 20
19700.99089754893
 10
10922.36101498451
 20
19645.2028110262
 10
10849.16595341439
 20
19574.85889692392
 10
10781.95690664245
 20
19497.99829160434
 10
10740.17163712155
 20
19386.5645888771
 10
10694.78638541354
 20
19234.62670876964
 10
10688.46709934005
 20
19104.60051944707
 10
10711.44710737827
 20
18888.47528815344
 10
10736.09849497752
 20
18742.36838455855
 10
10815.54986269538
 20
18507.09923709413
 10
10864.83712806154
 20
18413.44900809336
 10
10917.57422042482
 20
18298.78363666913
 10
11002.2285865523
 20
18146.0281982755
 10
11087.0025885222
 20
18042.28815289617
 10
11173.79675116084
 20
17946.54573756643
 10
11261.08862932325
 20
17849.80178731963
 10
11320.34363367773
 20
17741.62258776515
 10
11345.1598257538
 20
17663.03688883282
 10
11358.92128975134
 20
17563.47144992022
 10
11333.15325425984
 20
17457.00025314385
 10
11321.87146223548
 20
17342.99129785069
 10
11349.65807739344
 20
17251.89434748559
 10
11434.40522233749
 20
17137.15084653162
 10
11518.88415725141
 20
17117.43840995073
 10
11626.41182377043
 20
17114.67515820386
 10
11735.01183009284
 20
17141.41873213209
 10
11852.70988406797
 20
17207.1525837129
 10
11924.81215142318
 20
17236.87572678506
  0
LWPOLYLINE
  5
A1
330
1F
100
AcDbEntity
  8
Plan
  6
DASHDOTX2
 48
0.1
100
AcDbPolyline
 90
        2
 70
   128
 43
0.0
 10
11981.15599807615
 20
18599.39688288141
 10
10782.15589970931
 20
18605.98449769898
  0
LWPOLYLINE
  5
A3
330
1F
100
AcDbEntity
  8
Plan
  6
ACAD_ISO03W100
100
AcDbPolyline
 90
       11
 70
   128
 43
0.0
 10
11596.87513916645
 20
19562.53054143693
 10
11478.23048509987
 20
19518.80604255321
 10
11359.06125848367
 20
19465.0796230119
 10
11267.88007471931
 20
19402.7821699153
 10
11185.1917949805
 20
19336.46270708975
 10
11106.83157899174
 20
19199.1099531355
 10
11079.13005777857
 20
19120.15227839134
 10
11078.89200686763
 20
19022.6216494343
 10
11080.70219442517
 20
18944.59226317306
 10
11092.47279632762
 20
18849.03296392866
 10
11097.83169356837
 20
18790.5011580415
  0
LWPOLYLINE
  5
A4
330
1F
100
AcDbEntity
  8
Plan
  6
ACAD_ISO03W100
100
AcDbPolyline
 90
       19
 70
   128
 43
0.0
 10
11836.5119016278
 20
18600.19159473701
 10
11833.82607278911
 20
18691.67370697187
 10
11821.07346835205
 20
18794.73780383769
 10
11807.80483678267
 20
18891.30107954694
 10
11776.07067910382
 20
19004.41470725254
 10
11743.23488304792
 20
19076.01773956526
 10
11702.90161401402
 20
19149.63971177281
 10
11667.4844615227
 20
19188.23848123111
 10
11627.53049294405
 20
19212.34368257888
 10
11587.03608175504
 20
19219.94492133859
 10
11542.47937529832
 20
19202.54807271078
 10
11490.34828710775
 20
19155.66026846861
 10
11465.75635720134
 20
19121.20924845117
 10
11446.12205015018
 20
19068.74036611803
 10
11436.40543035737
 20
18981.23607329662
 10
11425.16636541959
 20
18884.73261550858
 10
11405.89670953686
 20
18776.74507745676
 10
11401.16212807735
 20
18681.22606375113
 10
11405.36204672135
 20
18602.56044289361
  0
MTEXT
  5
A9
330
1F
100
AcDbEntity
  8
Plan
100
AcDbMText
 10
9925.618228059226
 20
17942.47447352486
 30
0.0
 40
200.0
 41
852.4020655229324
 46
0.0
 71
     1
 72
     5
  1
21/002
 73
     1
 44
1.0
  0
LWPOLYLINE
  5
AC
330
1F
100
AcDbEntity
  8
Plan
100
AcDbPolyline
 90
        2
 70
     0
 43
0.0
 10
10778.02029358216
 20
17887.11033822939
 10
11130.39966984152
 20
17994.4169452313
  0
MTEXT
  5
AE
330
1F
100
AcDbEntity
  8
Plan
100
AcDbMText
 10
11047.09823154411
 20
18493.24335772495
 30
0.0
 40
200.0
 41
682.3727852555294
 46
0.0
 71
     1
 72
     5
  1
21/001
 73
     1
 44
1.0
  0
POINT
  5
B0
330
1F
100
AcDbEntity
  8
0
100
AcDbPoint
 10
16.46496762066342
 20
25011.53042221734
 30
0.0
  0
POINT
  5
B1
330
1F
100
AcDbEntity
  8
0
100
AcDbPoint
 10
12516.46496762066
 20
25011.53042221734
 30
0.0
  0
POINT
  5
B2
330
1F
100
AcDbEntity
  8
0
100
AcDbPoint
 10
16.46496762067131
 20
37511.53042221734
 30
0.0
  0
POINT
  5
B3
330
1F
100
AcDbEntity
  8
0
100
AcDbPoint
 10
12516.46496762067
 20
37511.53042221734
 30
0.0
  0
LWPOLYLINE
  5
B6
330
1F
100
AcDbEntity
  8
Plan
100
AcDbPolyline
 90
       71
 70
     0
 43
0.0
 10
11830.27008293022
 20
30292.23900911451
 10
11787.50036776744
 20
30270.32169070576
 10
11691.47432094971
 20
30195.30752834867
 10
11516.92830919719
 20
30092.28978593096
 10
11380.89143955315
 20
29986.76990263376
 10
11255.35961170726
 20
29944.26472266368
 10
11046.80761909709
 20
29895.76142395169
 10
10873.26532907158
 20
29879.76452638788
 10
10725.23004089695
 20
29885.77188956657
 10
10595.19997416269
 20
29914.28393365982
 10
10412.65872516962
 20
29978.30660074988
 10
10314.13744078557
 20
30037.3247059465
 10
10161.10473414592
 20
30137.85495451443
 10
10114.59477211754
 20
30167.86401708792
 10
10001.57028705576
 20
30233.88438295513
 10
9947.55828449204
 20
30257.89230533661
 10
9877.541980811238
 20
30270.39810738125
 10
9775.516814771428
 20
30253.39810838813
 10
9701.498190213544
 20
30231.89590860517
 10
9609.974924464163
 20
30199.39176854218
 10
9510.948297545618
 20
30127.87856643875
 10
9416.421730389353
 20
30030.85906282057
 10
9325.895683245868
 20
29922.83675850942
 10
9244.872236788156
 20
29822.81599446391
 10
9155.347890401732
 20
29751.30241217801
 10
9008.306879421289
 20
29608.27396699161
 10
8908.781112945308
 20
29561.26666627009
 10
8709.227519033802
 20
29418.74044212006
 10
8672.216595981783
 20
29367.72967997407
 10
8663.710753681024
 20
29272.70721481612
 10
8661.706691849986
 20
29183.1858098414
 10
8692.708610935833
 20
29045.15144151623
 10
8724.711050212141
 20
28914.11871356396
 10
8759.21326923474
 20
28762.5809644154
 10
8821.723430411505
 20
28641.54941643744
 10
8871.231991589962
 20
28558.52751083764
 10
8912.738252137855
 20
28466.00364485939
 10
9009.759936802811
 20
28425.99016075582
 10
9133.789723757987
 20
28426.48531840217
 10
9266.322051429353
 20
28439.48313658543
 10
9296.828452695983
 20
28416.47639471133
 10
9325.834673965024
 20
28397.9707931181
 10
9389.349257204916
 20
28381.46429097425
 10
9564.393107890648
 20
28427.46833018964
 10
9598.902510360878
 20
28455.47367109536
 10
9698.926816106195
 20
28462.97146959477
 10
9820.456843324682
 20
28484.47176846541
 10
9897.978369067767
 20
28557.4861910658
 10
10043.0172191295
 20
28658.50463393809
 10
10167.05012758281
 20
28737.01851595343
 10
10233.06649152933
 20
28750.01899541395
 10
10354.59461783549
 20
28724.00789162399
 10
10436.61246154502
 20
28677.99356747244
 10
10558.13738631463
 20
28571.96325920146
 10
10647.65813097244
 20
28553.45523644621
 10
10722.67439433789
 20
28509.94179256915
 10
10750.67829455216
 20
28439.42374808247
 10
10854.70013887935
 20
28361.40086171596
 10
10944.72056335388
 20
28331.89017833497
 10
11068.74806921427
 20
28275.37165278861
 10
11178.27407521321
 20
28268.36559029337
 10
11296.80408259978
 20
28307.37021020185
 10
11411.33274957983
 20
28336.87270965504
 10
11518.86113684004
 20
28401.38389120312
 10
11590.88148234227
 20
28477.8993741052
 10
11657.40020739239
 20
28546.91327669282
 10
11709.91625198484
 20
28632.93182050155
 10
11742.42815577396
 20
28735.45512561862
 10
11801.94752154598
 20
28862.48323158943
 10
11851.96258581594
 20
28938.99959491405
 10
11854.62947913471
 20
28942.77195305458
  0
LWPOLYLINE
  5
B8
330
1F
100
AcDbEntity
  8
Plan
  6
DASHDOTX2
100
AcDbPolyline
 90
        2
 70
     0
 43
0.0
 10
10627.71722051592
 20
29907.15378918555
 10
10627.71722051592
 20
28557.57793254197
  0
LWPOLYLINE
  5
B9
330
1F
100
AcDbEntity
  8
Plan
  6
ACAD_ISO03W100
100
AcDbPolyline
 90
       14
 70
   128
 43
0.0
 10
11841.07394192146
 20
29187.87359058046
 10
11682.92929984544
 20
29121.05004835432
 10
11627.91037401817
 20
28978.01792140088
 10
11572.89272880551
 20
28866.99347623986
 10
11525.87864482843
 20
28796.97855322169
 10
11431.35119724962
 20
28677.95376837123
 10
11362.3319921171
 20
28611.94068599966
 10
11248.80274479931
 20
28561.93322537901
 10
11095.26481568278
 20
28534.93288681492
 10
10908.22236638003
 20
28595.95501382337
 10
10846.70910365551
 20
28633.46647710507
 10
10771.19368072301
 20
28700.98570233604
 10
10674.67353676791
 20
28776.50768841846
 10
10627.71722051592
 20
28822.61394332245
  0
LWPOLYLINE
  5
BA
330
1F
100
AcDbEntity
  8
Plan
  6
ACAD_ISO03W100
100
AcDbPolyline
 90
       10
 70
   128
 43
0.0
 10
10627.71722051592
 20
29744.05273257208
 10
10720.7219973029
 20
29711.73029990679
 10
10899.26360670575
 20
29680.71571474198
 10
11085.80817705608
 20
29675.70705087984
 10
11273.35480833633
 20
29716.20926954706
 10
11392.3854960198
 20
29769.21723023012
 10
11540.92562648885
 20
29881.23817365132
 10
11659.9573746813
 20
29960.75249581872
 10
11766.98352089554
 20
29972.25097440773
 10
11828.19393548341
 20
29988.00912849768
  0
MTEXT
  5
BB
330
1F
100
AcDbEntity
  8
Plan
100
AcDbMText
 10
10799.33222348208
 20
30679.32435546067
 30
0.0
 40
200.0
 41
1119.173582237854
 46
0.0
 71
     1
 72
     5
  1
21/013
 73
     1
 44
1.0
  0
LWPOLYLINE
  5
BF
330
1F
100
AcDbEntity
  8
Plan
100
AcDbPolyline
 90
        2
 70
     0
 43
0.0
 10
11181.45848290806
 20
30427.43389946934
 10
11255.35961170726
 20
29944.26472266368
  0
POINT
  5
C2
330
1F
100
AcDbEntity
  8
0
100
AcDbPoint
 10
16.4649676206792
 20
50011.53042221734
 30
0.0
  0
POINT
  5
C3
330
1F
100
AcDbEntity
  8
0
100
AcDbPoint
 10
12516.46496762068
 20
50011.53042221734
 30
0.0
  0
POINT
  5
C4
330
1F
100
AcDbEntity
  8
0
100
AcDbPoint
 10
16.46496762068709
 20
62511.53042221734
 30
0.0
  0
POINT
  5
C5
330
1F
100
AcDbEntity
  8
0
100
AcDbPoint
 10
12516.46496762069
 20
62511.53042221734
 30
0.0
  0
POINT
  5
C6
330
1F
100
AcDbEntity
  8
0
100
AcDbPoint
 10
16.46496762069498
 20
75011.53042221734
 30
0.0
  0
POINT
  5
C7
330
1F
100
AcDbEntity
  8
0
100
AcDbPoint
 10
12516.4649676207
 20
75011.53042221734
 30
0.0
  0
POINT
  5
C8
330
1F
100
AcDbEntity
  8
0
100
AcDbPoint
 10
16.46496762070288
 20
87511.53042221734
 30
0.0
  0
POINT
  5
C9
330
1F
100
AcDbEntity
  8
0
100
AcDbPoint
 10
12516.4649676207
 20
87511.53042221734
 30
0.0
  0
LWPOLYLINE
  5
CB
330
1F
100
AcDbEntity
  8
Plan
100
AcDbPolyline
 90
       46
 70
     0
 43
0.0
 10
12197.73244127191
 20
58311.4288822788
 10
12142.11878669482
 20
58270.58879878226
 10
12118.97111570747
 20
58204.10144660795
 10
12099.80100375297
 20
58125.59973274513
 10
12088.20521552575
 20
58081.60050855653
 10
12027.01240621059
 20
58002.68430546192
 10
11967.37040286047
 20
57948.27768370544
 10
11933.74386028903
 20
57894.81848306796
 10
11870.02117111124
 20
57801.9001598258
 10
11744.9463876679
 20
57552.02537749721
 10
11663.63604527925
 20
57420.62292131847
 10
11590.84438456475
 20
57296.20671988158
 10
11494.96733736273
 20
57135.81890739538
 10
11388.67370307646
 20
57018.97498757101
 10
11301.77985859172
 20
56848.06337697625
 10
11117.13556687183
 20
56579.30029452848
 10
10996.86635992973
 20
56477.99296389872
 10
10870.09277726428
 20
56376.19864896359
 10
10795.42669545928
 20
56313.81853010867
 10
10701.77224991241
 20
56261.9826305098
 10
10547.0281218452
 20
56181.7565909905
 10
10417.33875969181
 20
56121.9900787029
 10
10226.58626250981
 20
56046.84013582686
 10
10073.86562990975
 20
55977.61568920512
 10
10027.31508365366
 20
55964.70393820896
 10
9877.371426800819
 20
56030.54406013234
 10
9697.028429363649
 20
56153.47588439573
 10
9435.188296100525
 20
56298.58549526524
 10
9007.896506396444
 20
56509.56688083673
 10
8736.6055862008
 20
56681.20956851153
 10
8449.268629242953
 20
56834.3753821268
 10
8192.37287622179
 20
56950.96007350248
 10
7944.065236776223
 20
57108.54856710362
 10
7688.88467995736
 20
57330.1843860654
 10
7566.990189924103
 20
57412.97610251762
 10
7389.11070362023
 20
57517.39327359865
 10
7206.226594689313
 20
57620.82013915095
 10
7045.31197666015
 20
57703.69149807837
 10
6910.871214108554
 20
57766.998676967
 10
6768.929643960641
 20
57831.82194586993
 10
6632.467428056641
 20
57885.12804796346
 10
6427.022696066422
 20
57964.58847463859
 10
6183.560394297503
 20
58045.12701777663
 10
5969.10080681141
 20
58119.60324297221
 10
5762.658621890854
 20
58200.56648591578
 10
5617.699166517572
 20
58257.39175234328
  0
LWPOLYLINE
  5
CC
330
1F
100
AcDbEntity
  8
Plan
  6
DIVIDE
100
AcDbPolyline
 90
        2
 70
     0
 43
0.0
 10
5617.699166517572
 20
58257.39175234328
 10
4903.637827444789
 20
57674.04509721432
  0
LWPOLYLINE
  5
CD
330
1F
100
AcDbEntity
  8
Plan
100
AcDbPolyline
 90
       79
 70
     0
 43
0.0
 10
4903.637827444789
 20
57674.04509721432
 10
5050.066404193156
 20
57601.70876802658
 10
5208.557332326622
 20
57556.86212627948
 10
5349.049181189564
 20
57517.05482311015
 10
5456.534209245099
 20
57482.31749023982
 10
5637.958386317301
 20
57398.90400990882
 10
5773.908091481579
 20
57339.59583225791
 10
5862.856003092509
 20
57291.38931112723
 10
5903.325852373391
 20
57266.29370291843
 10
5865.240892807984
 20
57234.35478800019
 10
5815.128297808205
 20
57191.93495938311
 10
5726.428443077039
 20
57116.5767208027
 10
5675.800274165416
 20
57066.65404247455
 10
5685.214303032462
 20
57022.111675825
 10
5685.554255075918
 20
56943.57014072458
 10
5666.954854131482
 20
56899.58521133922
 10
5656.24726569554
 20
56800.55555940062
 10
5682.023799048631
 20
56684.4425965319
 10
5710.801880709101
 20
56568.32350731891
 10
5767.431044058532
 20
56372.10595069623
 10
5771.632154594168
 20
56224.52063606714
 10
5881.273415575521
 20
56265.81844275421
 10
6062.055467683658
 20
56357.99758051955
 10
6211.249788548128
 20
56415.2229813134
 10
6361.964283656398
 20
56481.95022190848
 10
6577.876715661785
 20
56629.08627129288
 10
6748.680154237065
 20
56734.29253953767
 10
6880.399138201852
 20
56808.0621930302
 10
7008.114015642053
 20
56880.83949887926
 10
7081.229291482025
 20
56918.71003639606
 10
7301.654196460024
 20
56825.71201061649
 10
7479.595967263731
 20
56751.81058066048
 10
7679.560323952661
 20
56683.36706274351
 10
7836.507593522714
 20
56617.5126460169
 10
8025.446872994478
 20
56539.58668838881
 10
8219.934938611614
 20
56484.16111143493
 10
8331.92126807084
 20
56448.91433099701
 10
8495.309607807045
 20
56352.53089939951
 10
8700.662444633572
 20
56228.04724811372
 10
8884.571575043934
 20
56136.62453367617
 10
9064.052920181555
 20
56081.72984649475
 10
9191.029633202304
 20
56037.9480474647
 10
9417.974229764277
 20
55952.94087675895
 10
9632.380722266907
 20
55852.45123289943
 10
9866.790389417098
 20
55748.41894038634
 10
10051.17731461645
 20
55645.98952776437
 10
10234.07061306374
 20
55547.06498467312
 10
10414.97717410935
 20
55455.1481385286
 10
10486.45179093535
 20
55424.48638619906
 10
10611.03953001113
 20
55435.73807809113
 10
10646.59256759915
 20
55452.67435675936
 10
10716.10188922834
 20
55439.52572045236
 10
10740.64924968932
 20
55456.48446238282
 10
10756.19094417078
 20
55472.96132529479
 10
10767.26809531404
 20
55507.95692561863
 10
10722.82477122981
 20
55547.06792772085
 10
10646.97750622928
 20
55641.27164207292
 10
10574.0337680282
 20
55687.4444571627
 10
10492.13235354421
 20
55756.64752164177
 10
10430.21675573241
 20
55813.80355059636
 10
10343.18819173645
 20
55821.98534339917
 10
10246.7394725292
 20
55871.70795454415
 10
10244.75477724227
 20
55879.71616759332
 10
10314.86339948799
 20
55915.09154119821
 10
10485.60251144869
 20
55988.78155221554
 10
10646.33646238479
 20
56062.49198438037
 10
10798.56296327787
 20
56134.71900036685
 10
10947.80935806843
 20
56217.45756177341
 10
11061.01062567873
 20
56287.26292997896
 10
11170.82138218422
 20
56411.60357317014
 10
11283.18141864246
 20
56559.45123948225
 10
11390.01411116018
 20
56695.30394419597
 10
11513.84230367385
 20
56824.61857829297
 10
11624.67706060141
 20
56960.46311454769
 10
11875.13690880549
 20
57122.03619445891
 10
11987.79911818434
 20
57172.8327777751
 10
12067.94353317588
 20
57223.19547176939
 10
12169.09163891745
 20
57270.01347499536
 10
12191.91395806125
 20
57278.88249082673
  0
LWPOLYLINE
  5
CF
330
1F
100
AcDbEntity
  8
Plan
  6
DASHDOTX2
100
AcDbPolyline
 90
        2
 70
   128
 43
0.0
 10
7486.038396131953
 20
57460.4956758948
 10
7385.567731599155
 20
56790.86167608607
  0
LWPOLYLINE
  5
D0
330
1F
100
AcDbEntity
  8
Plan
  6
ACAD_ISO03W100
100
AcDbPolyline
 90
        8
 70
   128
 43
0.0
 10
7465.02231885822
 20
57320.42414406469
 10
7435.754106035183
 20
57330.70104109681
 10
7312.784562711142
 20
57376.97596192402
 10
7105.349009089749
 20
57461.44305334095
 10
6819.944673492742
 20
57581.08749329434
 10
6699.043552160327
 20
57660.37536127321
 10
6591.12361372552
 20
57727.1302304796
 10
6501.84789086076
 20
57781.98647035187
  0
LWPOLYLINE
  5
D1
330
1F
100
AcDbEntity
  8
Plan
  6
ACAD_ISO03W100
100
AcDbPolyline
 90
       12
 70
   128
 43
0.0
 10
6502.030362611683
 20
57137.53098477187
 10
6533.42228007083
 20
57152.94936715133
 10
6693.576330480506
 20
57187.64069237761
 10
6838.722639353293
 20
57222.36264932512
 10
6961.826962250747
 20
57242.12179126022
 10
7033.960101020997
 20
57288.9990158139
 10
6916.409669555786
 20
57294.24154480916
 10
6734.86500771341
 20
57318.62457509507
 10
6638.830777737943
 20
57326.32448887939
 10
6548.814960237845
 20
57341.51602074366
 10
6489.33530501024
 20
57366.65042913269
 10
6458.572920948332
 20
57376.63437209599
  0
LWPOLYLINE
  5
D2
330
1F
100
AcDbEntity
  8
Plan
  6
ACAD_ISO03W100
100
AcDbPolyline
 90
        7
 70
   128
 43
0.0
 10
6535.03934131783
 20
57039.40825961893
 10
6585.763543007806
 20
57061.79519080324
 10
6851.081037314752
 20
57149.79970546247
 10
6986.264048515295
 20
57205.05266365789
 10
7053.356827650399
 20
57233.43055088981
 10
7096.916036172852
 20
57251.35100874251
 10
7222.159053888437
 20
57310.05631082779
  0
LWPOLYLINE
  5
D3
330
1F
100
AcDbEntity
  8
Plan
  6
DASHDOTX2
100
AcDbPolyline
 90
        5
 70
   128
 43
0.0
 10
6489.432315503163
 20
57174.98002931511
 10
6441.426872570677
 20
57178.65040232092
 10
6292.909452683198
 20
57207.96862333242
 10
6123.40365790631
 20
57248.33540588069
 10
5903.325852373391
 20
57266.29370291843
  0
LWPOLYLINE
  5
DD
330
1F
100
AcDbEntity
  8
Plan
  6
ACAD_ISO03W100
100
AcDbPolyline
 90
        8
 70
   128
 43
0.0
 10
7429.598677444141
 20
57084.32662447321
 10
7392.707348190253
 20
57073.65519264162
 10
7277.606133055098
 20
57053.3794557373
 10
7178.517259788787
 20
57035.07207720193
 10
7087.403925735669
 20
57002.74113631414
 10
6951.703298508533
 20
56938.98481230519
 10
6880.513496627778
 20
56864.09109476791
 10
6863.294238105614
 20
56798.48253704484
  0
LWPOLYLINE
  5
DE
330
1F
100
AcDbEntity
  8
Plan
  6
DASHDOTX2
100
AcDbPolyline
 90
        3
 70
   128
 43
0.0
 10
6656.7338566948
 20
56677.6582766444
 10
6449.664823529074
 20
57293.19315913451
 10
6517.602134397633
 20
57929.55481498683
  0
LWPOLYLINE
  5
DF
330
1F
100
AcDbEntity
  8
Plan
  6
ACAD_ISO03W100
100
AcDbPolyline
 90
        5
 70
   128
 43
0.0
 10
7109.974276402168
 20
56906.58242836146
 10
7138.285256813931
 20
56931.60034518735
 10
7212.377564436751
 20
56957.96290541111
 10
7318.475155707149
 20
56978.7572793994
 10
7415.275786520538
 20
56988.8649811906
  0
LWPOLYLINE
  5
E0
330
1F
100
AcDbEntity
  8
Plan
  6
ACAD_ISO03W100
100
AcDbPolyline
 90
        9
 70
   128
 43
0.0
 10
6471.451390111792
 20
57497.26564020075
 10
6574.090274544533
 20
57470.03128704095
 10
6663.584391788538
 20
57444.33535715823
 10
6822.583746432229
 20
57403.48975876359
 10
6966.085312061545
 20
57367.67839365985
 10
7128.093362414233
 20
57330.32847527957
 10
7285.105979656244
 20
57296.49057383164
 10
7391.567007289708
 20
57250.24934789779
 10
7451.606890158737
 20
57231.01070959643
  0
MTEXT
  5
E2
330
1F
100
AcDbEntity
  8
Plan
100
AcDbMText
 10
5754.273850256053
 20
56977.12718864752
 30
0.0
 40
200.0
 41
772.5590441487147
 46
0.0
 71
     1
 72
     5
  1
21/005
 73
     1
 44
1.0
  0
MTEXT
  5
E3
330
1F
100
AcDbEntity
  8
Plan
100
AcDbMText
 10
5419.812116732064
 20
57890.78207704902
 30
0.0
 40
200.0
 41
989.2526834187447
 46
0.0
 71
     1
 72
     5
  1
21/007
 73
     1
 44
1.0
  0
MTEXT
  5
E4
330
1F
100
AcDbEntity
  8
Plan
100
AcDbMText
 10
7115.254550133424
 20
58527.89083425066
 30
0.0
 40
200.0
 41
1082.207253771252
 46
0.0
 71
     1
 72
     5
  1
21/008
 73
     1
 44
1.0
  0
LWPOLYLINE
  5
E5
330
1F
100
AcDbEntity
  8
Plan
100
AcDbPolyline
 90
        2
 70
     0
 43
0.0
 10
7200.093575078819
 20
58264.23926326187
 10
6978.091595384352
 20
57735.34508752268
  0
LWPOLYLINE
  5
E7
330
1F
100
AcDbEntity
  8
Plan
100
AcDbPolyline
 90
       38
 70
     0
 43
0.0
 10
1991.667146292334
 20
58603.7694760212
 10
1872.495919500318
 20
58592.80178975113
 10
1737.288625717187
 20
58547.79286016723
 10
1571.042689537268
 20
58514.81318699926
 10
1330.684997558033
 20
58461.83516083943
 10
1192.981419470974
 20
58434.85246649859
 10
1045.264023924321
 20
58408.37448428171
 10
899.0350929228509
 20
58347.84823911087
 10
687.2211629644985
 20
58304.37209808541
 10
550.519387801806
 20
58278.39040442435
 10
390.2754444776581
 20
58229.38589568945
 10
229.5430344823801
 20
58210.92434247896
 10
88.32913493712022
 20
58170.42412773814
 10
-52.38606931856305
 20
58124.91670342581
 10
-151.5364802703569
 20
58095.91576227257
 10
-255.1998178493027
 20
58050.39349643543
 10
-342.8451389402767
 20
57993.8493928188
 10
-411.9647272540282
 20
57936.79716753874
 10
-434.0218404097844
 20
57871.21417419332
 10
-425.5468283430231
 20
57779.08179886303
 10
-396.5392686719705
 20
57696.45451764546
 10
-293.4121313169073
 20
57653.35292456019
 10
-199.7844723624718
 20
57644.80350430826
 10
-83.13620450680344
 20
57607.20420598346
 10
2.979938126347179
 20
57596.15428964353
 10
114.6336317626985
 20
57589.60045279449
 10
286.9020180352834
 20
57657.62678230129
 10
422.0888545815196
 20
57651.56421997942
 10
582.3279844381632
 20
57688.55190708943
 10
743.0642050952154
 20
57716.52677741963
 10
895.2947278301654
 20
57760.02678522146
 10
1065.046372561927
 20
57795.00785806555
 10
1235.290896310032
 20
57810.46139520805
 10
1406.536821860211
 20
57825.91453122826
 10
1537.221963203473
 20
57831.36989468055
 10
1733.002634026756
 20
57847.81460500668
 10
1920.773293800324
 20
57867.26672971736
 10
2006.396557417132
 20
57875.74434907902
  0
LWPOLYLINE
  5
E8
330
1F
100
AcDbEntity
  8
Plan
  6
DASHDOTX2
100
AcDbPolyline
 90
        2
 70
   128
 43
0.0
 10
2006.396557417132
 20
57875.74434907902
 10
1991.667146292334
 20
58603.7694760212
  0
LWPOLYLINE
  5
E9
330
1F
100
AcDbEntity
  8
Plan
  6
DASHDOTX2
100
AcDbPolyline
 90
        2
 70
   128
 43
0.0
 10
1375.202793793437
 20
58471.64747412184
 10
1486.161671689027
 20
57829.23841710531
  0
LWPOLYLINE
  5
EA
330
1F
100
AcDbEntity
  8
Plan
  6
ACAD_ISO03W100
100
AcDbPolyline
 90
        7
 70
   128
 43
0.0
 10
2002.544198216716
 20
58066.15347488499
 10
1920.343792106124
 20
58045.01575014665
 10
1735.074029542843
 20
58019.05351091675
 10
1630.927439882564
 20
58017.09242403097
 10
1528.272122623511
 20
57988.09288680576
 10
1466.678089911266
 20
57968.59022068628
 10
1462.118585129129
 20
57968.43860421647
  0
LWPOLYLINE
  5
EB
330
1F
100
AcDbEntity
  8
Plan
  6
ACAD_ISO03W100
100
AcDbPolyline
 90
        7
 70
   128
 43
0.0
 10
1408.791069907159
 20
58277.18432530259
 10
1555.449762398284
 20
58337.07058452666
 10
1676.133922195297
 20
58375.07551776928
 10
1763.264101982721
 20
58395.56935707239
 10
1854.39587775552
 20
58406.0475738656
 10
1923.494607710086
 20
58411.02690543781
 10
1995.469773112589
 20
58415.81845407783
  0
MTEXT
  5
EC
330
1F
100
AcDbEntity
  8
Plan
100
AcDbMText
 10
-10.09955642110435
 20
58033.03247078593
 30
0.0
 40
200.0
 41
763.4516218035715
 46
0.0
 71
     1
 72
     5
  1
21/003
 73
     1
 44
1.0
  0
MTEXT
  5
EF
330
1F
100
AcDbEntity
  8
Plan
100
AcDbMText
 10
1462.622236525174
 20
57499.26981516162
 30
0.0
 40
200.0
 41
696.4743361252476
 46
0.0
 71
     1
 72
     5
  1
21/004
 73
     1
 44
1.0
  0
LWPOLYLINE
  5
F0
330
1F
100
AcDbEntity
  8
Plan
100
AcDbPolyline
 90
        2
 70
     0
 43
0.0
 10
1765.793503576133
 20
57540.22873056598
 10
1733.002634026756
 20
57847.81460500668
  0
POINT
  5
F4
330
1F
100
AcDbEntity
  8
0
100
AcDbPoint
 10
-34767.64420045314
 20
25011.53042221734
 30
0.0
  0
POINT
  5
F8
330
1F
100
AcDbEntity
  8
0
100
AcDbPoint
 10
-32267.64420045314
 20
25011.53042221734
 30
0.0
  0
LWPOLYLINE
  5
F9
330
1F
100
AcDbEntity
  8
Plan
100
AcDbPolyline
 90
       61
 70
     0
 43
0.0
 10
-33460.63617238234
 20
24807.52631022251
 10
-33491.0521345318
 20
24806.84037242756
 10
-33500.66074040211
 20
24805.67598845669
 10
-33523.97141972992
 20
24805.56358715439
 10
-33551.27665301845
 20
24807.36704835448
 10
-33561.5769016223
 20
24808.50627855051
 10
-33569.73981199913
 20
24792.73002954397
 10
-33579.81218734021
 20
24774.65995084062
 10
-33593.50754698576
 20
24750.90099145076
 10
-33603.77398632198
 20
24734.43234705913
 10
-33619.2633389713
 20
24712.48092840088
 10
-33629.32066128144
 20
24698.41255384796
 10
-33654.25014595853
 20
24666.89241985139
 10
-33666.90556536026
 20
24653.63417059867
 10
-33688.20378656585
 20
24630.00385457135
 10
-33703.06766976578
 20
24614.75303241043
 10
-33718.71909871951
 20
24602.90666938356
 10
-33744.09310020092
 20
24586.19472237245
 10
-33768.93452464701
 20
24578.08455765589
 10
-33781.45941905733
 20
24572.92938298202
 10
-33800.81731658526
 20
24559.79639015988
 10
-33823.30250130814
 20
24539.77212377723
 10
-33842.46520586359
 20
24525.33782445465
 10
-33875.56318575213
 20
24503.15251132126
 10
-33912.63765596427
 20
24487.68510567077
 10
-33957.71816875768
 20
24471.54750785583
 10
-33988.76524524313
 20
24462.66033450715
 10
-34030.14719230359
 20
24445.70847180851
 10
-34057.10004855031
 20
24434.80501702789
 10
-34096.73128007095
 20
24404.54071416515
 10
-34152.24902404976
 20
24353.12683877734
 10
-34161.1949642711
 20
24341.95556014997
 10
-34177.66479769204
 20
24325.31016274878
 10
-34185.40495810741
 20
24315.53496466478
 10
-34194.6841428081
 20
24295.56106588379
 10
-34206.55577971377
 20
24277.89793145941
 10
-34218.52219066238
 20
24261.63576981346
 10
-34228.48774953578
 20
24245.36608165203
 10
-34250.38923697012
 20
24220.93768274926
 10
-34272.66492834115
 20
24203.41372880909
 10
-34292.31542716488
 20
24192.28271703948
 10
-34315.15750483885
 20
24183.76485539241
 10
-34345.71302379829
 20
24172.57482052836
 10
-34364.21714223629
 20
24173.64486683406
 10
-34390.50350952431
 20
24180.3466523607
 10
-34411.58239285595
 20
24188.42946539976
 10
-34435.85548931824
 20
24198.42513033504
 10
-34463.9535369214
 20
24202.23245421653
 10
-34484.85190398573
 20
24205.11229920849
 10
-34499.23771733552
 20
24210.56879072295
 10
-34515.29038562962
 20
24225.03551411403
 10
-34537.49451505169
 20
24253.13136381453
 10
-34558.18257606064
 20
24285.32331538261
 10
-34572.18471727742
 20
24312.98813595465
 10
-34584.89909972162
 20
24337.24661576375
 10
-34597.00193677004
 20
24364.50411573104
 10
-34613.60631466192
 20
24391.8785929619
 10
-34628.9202995008
 20
24416.54702765616
 10
-34640.94906042383
 20
24436.90121163819
 10
-34654.58226626478
 20
24456.26099079498
 10
-34669.02710270901
 20
24472.62250244513
  0
LWPOLYLINE
  5
FA
330
1F
100
AcDbEntity
  8
Plan
  6
DASHDOTX2
 48
200.0
100
AcDbPolyline
 90
        2
 70
   128
 43
0.0
 10
-34669.02710270901
 20
24472.62250244513
 10
-34669.02710270901
 20
24663.4973928825
  0
LWPOLYLINE
  5
FC
330
1F
100
AcDbEntity
  8
Plan
100
AcDbPolyline
 90
        2
 70
     0
 43
0.0
 10
-34669.02710270901
 20
24663.4973928825
 10
-33657.4908068748
 20
24663.4973928825
  0
MTEXT
  5
FD
330
1F
100
AcDbEntity
  8
Plan
100
AcDbMText
 10
-34049.99875443499
 20
24343.17286472383
 30
0.0
 40
50.0
 41
559.7374600384501
 46
0.0
 71
     1
 72
     5
  1
21/002
 73
     1
 44
1.0
  0
LWPOLYLINE
  5
FE
330
1F
100
AcDbEntity
  8
Plan
100
AcDbPolyline
 90
        2
 70
     0
 43
0.0
 10
-34062.24573704629
 20
24311.58382241803
 10
-34152.24902404976
 20
24353.12683877734
  0
MTEXT
  5
FF
330
1F
100
AcDbEntity
  8
Plan
100
AcDbMText
 10
-34458.83189111802
 20
24472.09950484583
 30
0.0
 40
50.0
 41
391.4348266687011
 46
0.0
 71
     1
 72
     5
  1
21/001
 73
     1
 44
1.0
  0
LWPOLYLINE
  5
101
330
1F
100
AcDbEntity
  8
Plan
100
AcDbPolyline
 90
        2
 70
     0
 43
0.0
 10
-33280.12315986358
 20
24807.52631022251
 10
-33099.61014734482
 20
24807.52631022251
  0
MTEXT
  5
102
330
1F
100
AcDbEntity
  8
Plan
100
AcDbMText
 10
-33284.04911062185
 20
24874.88150878044
 30
0.0
 40
50.0
 41
586.5392337713274
 46
0.0
 71
     1
 72
     5
  1
114.25m OD
 73
     1
 44
1.0
  0
MTEXT
  5
104
330
1F
100
AcDbEntity
  8
Plan
100
AcDbMText
 10
-34648.4512325871
 20
25166.61782419786
 30
0.0
 40
50.0
 41
653.6614275518223
 46
0.0
 71
     1
 72
     5
  1
E facnig Section
 73
     1
 44
1.0
  0
MTEXT
  5
105
330
1F
100
AcDbEntity
  8
Plan
100
AcDbMText
 10
-33284.04911062185
 20
25025.18633785324
 30
0.0
 40
50.0
 41
586.5392337713274
 46
0.0
 71
     1
 72
     5
  1
N
 73
     1
 44
1.0
  0
MTEXT
  5
106
330
1F
100
AcDbEntity
  8
Plan
100
AcDbMText
 10
-34667.2436346297
 20
25025.18633785324
 30
0.0
 40
50.0
 41
586.5392337713274
 46
0.0
 71
     1
 72
     5
  1
S
 73
     1
 44
1.0
  0
POINT
  5
108
330
1F
100
AcDbEntity
  8
0
100
AcDbPoint
 10
-34767.64420045314
 20
23248.01163044015
 30
0.0
  0
POINT
  5
109
330
1F
100
AcDbEntity
  8
0
100
AcDbPoint
 10
-32267.64420045314
 20
23248.01163044015
 30
0.0
  0
LWPOLYLINE
  5
10B
330
1F
100
AcDbEntity
  8
Plan
100
AcDbPolyline
 90
       16
 70
     0
 43
0.0
 10
-35230.17487845092
 20
21288.50558318244
 10
-35255.47101680586
 20
21286.28952957983
 10
-35298.55487515609
 20
21285.43122229043
 10
-35426.60633545144
 20
21283.05227781577
 10
-35506.36677672676
 20
21284.41329321638
 10
-35582.71924634125
 20
21288.66185994736
 10
-35664.29001869848
 20
21286.63030596445
 10
-35741.24877214318
 20
21288.88174004476
 10
-35816.60333084839
 20
21292.62725497075
 10
-35909.66400625352
 20
21292.13271158517
 10
-35965.64008625309
 20
21291.91640830102
 10
-36003.42207231704
 20
21292.34014677038
 10
-36059.9071028661
 20
21289.326743568
 10
-36099.68589387269
 20
21290.45672081252
 10
-36133.77610113435
 20
21288.86923518601
 10
-36153.86573423556
 20
21289.33492427938
  0
LWPOLYLINE
  5
10D
330
1F
100
AcDbEntity
  8
Plan
100
AcDbPolyline
 90
       53
 70
     0
 43
0.0
 10
-36119.16707271012
 20
21289.54953678884
 10
-36116.80506151604
 20
21282.31645340005
 10
-36105.519979982
 20
21248.79418812933
 10
-36100.44881814379
 20
21210.19453856432
 10
-36096.87206485929
 20
21173.09912879384
 10
-36094.91130380327
 20
21130.91126015978
 10
-36088.35753090035
 20
21087.2089927823
 10
-36082.87802887365
 20
21051.20686095366
 10
-36080.29033838167
 20
21017.31328650161
 10
-36078.19455762173
 20
20985.82026926829
 10
-36069.91140151623
 20
20951.308285789
 10
-36063.04596628947
 20
20911.20341330535
 10
-36060.87906889105
 20
20870.91403320913
 10
-36052.8118803688
 20
20831.50491284373
 10
-36046.48325087391
 20
20780.10677012179
 10
-36045.62461587648
 20
20737.12286671649
 10
-36039.25469517007
 20
20698.31904705723
 10
-36029.6816243167
 20
20630.41752405495
 10
-36019.59108650155
 20
20598.3985154547
 10
-36001.41337397089
 20
20563.55422404582
 10
-35974.82010729503
 20
20504.09316099887
 10
-35946.42273998623
 20
20476.61210929684
 10
-35921.40253978364
 20
20455.63927108898
 10
-35903.05408737401
 20
20442.38492007952
 10
-35863.92450994928
 20
20426.16371239695
 10
-35829.26242820034
 20
20419.25306145522
 10
-35785.90819873779
 20
20411.11444057577
 10
-35746.74945529857
 20
20403.78922299303
 10
-35715.97152495717
 20
20401.18941529689
 10
-35682.17856086611
 20
20403.57752360701
 10
-35635.16729364866
 20
20413.31904038315
 10
-35599.24971448765
 20
20423.49675253016
 10
-35565.73957441396
 20
20431.08350110134
 10
-35535.2028491704
 20
20446.37661167389
 10
-35501.43348405378
 20
20472.0545498635
 10
-35467.65199374014
 20
20501.43082101597
 10
-35441.17999502034
 20
20526.93277200173
 10
-35424.50849652527
 20
20550.9675142001
 10
-35405.00024544059
 20
20586.58785418694
 10
-35393.35140399916
 20
20633.52899188643
 10
-35393.50478334552
 20
20678.20983539954
 10
-35391.25662234906
 20
20723.68245347951
 10
-35380.83640626142
 20
20761.7315335755
 10
-35370.3109919004
 20
20801.37956508253
 10
-35357.25360540501
 20
20851.114853328
 10
-35347.09261835674
 20
20901.55932972086
 10
-35342.04735744203
 20
20946.52299725135
 10
-35334.54976144018
 20
21007.77145581469
 10
-35327.34744236077
 20
21070.42026673131
 10
-35322.04328411117
 20
21133.37516893528
 10
-35307.38400482536
 20
21244.87802524244
 10
-35305.27741769337
 20
21277.65669302283
 10
-35304.87528317453
 20
21285.31380153085
  0
LWPOLYLINE
  5
10E
330
1F
100
AcDbEntity
  8
Plan
100
AcDbPolyline
 90
        2
 70
     0
 43
0.0
 10
-35004.62367682089
 20
21288.50558318244
 10
-34892.64393144617
 20
21288.50558318244
  0
MTEXT
  5
10F
330
1F
100
AcDbEntity
  8
Plan
100
AcDbMText
 10
-35039.80745010316
 20
21362.33438530234
 30
0.0
 40
50.0
 41
506.0204761584755
 46
0.0
 71
     1
 72
     5
  1
114.67m OD
 73
     1
 44
1.0
  0
MTEXT
  5
110
330
1F
100
AcDbEntity
  8
Plan
100
AcDbMText
 10
-35808.59611685358
 20
20867.43241049357
 30
0.0
 40
50.0
 41
238.8403699116898
 46
0.0
 71
     1
 72
     5
  1
21/003
 73
     1
 44
1.0
  0
MTEXT
  5
112
330
1F
100
AcDbEntity
  8
Plan
100
AcDbMText
 10
-35213.27731964125
 20
20867.43241049357
 30
0.0
 40
50.0
 41
238.8403699116898
 46
0.0
 71
     1
 72
     5
  1
21/004
 73
     1
 44
1.0
  0
LWPOLYLINE
  5
113
330
1F
100
AcDbEntity
  8
Plan
100
AcDbPolyline
 90
        2
 70
     0
 43
0.0
 10
-35225.76500878989
 20
20837.73934156207
 10
-35360.76518104602
 20
20837.73934156207
  0
MTEXT
  5
114
330
1F
100
AcDbEntity
  8
Plan
100
AcDbMText
 10
-35039.80745010316
 20
21490.27519854179
 30
0.0
 40
50.0
 41
506.0204761584755
 46
0.0
 71
     1
 72
     5
  1
W
 73
     1
 44
1.0
  0
MTEXT
  5
115
330
1F
100
AcDbEntity
  8
Plan
100
AcDbMText
 10
-36153.9477461322
 20
21490.27519854179
 30
0.0
 40
50.0
 41
506.0204761584755
 46
0.0
 71
     1
 72
     5
  1
E
 73
     1
 44
1.0
  0
POINT
  5
117
330
1F
100
AcDbEntity
  8
0
100
AcDbPoint
 10
-34767.64420045314
 20
21801.92509569704
 30
0.0
  0
POINT
  5
118
330
1F
100
AcDbEntity
  8
0
100
AcDbPoint
 10
-32267.64420045314
 20
21801.92509569704
 30
0.0
  0
LWPOLYLINE
  5
119
330
1F
100
AcDbEntity
  8
Plan
100
AcDbPolyline
 90
       19
 70
     0
 43
0.0
 10
-33615.42372651709
 20
21306.72322549755
 10
-33636.90299188058
 20
21301.21023196035
 10
-33672.77985935834
 20
21306.37760326418
 10
-33697.76277490751
 20
21308.755809495
 10
-33734.83705286337
 20
21311.82381838588
 10
-33784.70096300566
 20
21314.08221087947
 10
-33826.06901719356
 20
21313.4495972225
 10
-33860.64040259363
 20
21310.52416344386
 10
-33892.31814585305
 20
21312.79709382216
 10
-33932.38654909284
 20
21311.36612663463
 10
-33957.1663416363
 20
21309.6476088741
 10
-33997.532440017
 20
21305.6183782107
 10
-34032.00701668422
 20
21306.59006007115
 10
-34083.86389508811
 20
21301.95209941853
 10
-34129.42915641064
 20
21301.81575083439
 10
-34174.7954484088
 20
21302.77872593972
 10
-34224.95641466411
 20
21301.63946300654
 10
-34254.53663271579
 20
21305.01323476556
 10
-34266.82864189509
 20
21306.70211760726
  0
LWPOLYLINE
  5
11B
330
1F
100
AcDbEntity
  8
Plan
100
AcDbPolyline
 90
       65
 70
     0
 43
0.0
 10
-34266.82864189509
 20
21306.70211760726
 10
-34265.59576536856
 20
21264.43522674554
 10
-34268.05967722248
 20
21221.66576041047
 10
-34265.13352453745
 20
21186.19505906564
 10
-34260.41760647501
 20
21161.81735885225
 10
-34256.09427520263
 20
21128.5461036712
 10
-34258.7668216779
 20
21096.76811690397
 10
-34259.73778463197
 20
21061.39422429199
 10
-34257.91159466429
 20
21026.92188422242
 10
-34259.98563559671
 20
20996.44338864631
 10
-34259.36180857336
 20
20966.06697378322
 10
-34255.73379157667
 20
20927.59911177195
 10
-34253.91239431823
 20
20899.12221133409
 10
-34252.18381186829
 20
20861.75199556403
 10
-34251.85320679055
 20
20823.18157356881
 10
-34250.72728356477
 20
20789.70791428845
 10
-34249.19830946709
 20
20752.03776677983
 10
-34246.777288367
 20
20723.46142161903
 10
-34246.4673718175
 20
20710.77131403404
 10
-34246.85173112336
 20
20691.58558769861
 10
-34244.04211715758
 20
20676.89899719856
 10
-34240.63431716291
 20
20663.91159386509
 10
-34229.41934557507
 20
20634.54288606029
 10
-34218.80168135276
 20
20602.37582715644
 10
-34202.61335531923
 20
20601.58937552051
 10
-34176.22998616474
 20
20597.31373170513
 10
-34160.64256202868
 20
20598.22550869393
 10
-34135.75813266059
 20
20594.0485906951
 10
-34108.97259129754
 20
20586.67562258395
 10
-34075.3952537344
 20
20583.1051979767
 10
-34026.92820266551
 20
20578.24766334388
 10
-34001.34454497586
 20
20574.37107647605
 10
-33969.96912980961
 20
20575.29547426586
 10
-33927.69409134218
 20
20566.33610341848
 10
-33887.51729698886
 20
20557.17520713514
 10
-33860.83631257194
 20
20555.59775078949
 10
-33835.35713194993
 20
20557.4167516933
 10
-33799.58985376301
 20
20564.34010376827
 10
-33768.52123988525
 20
20574.05757338247
 10
-33746.63908340682
 20
20575.57392667915
 10
-33723.45679670935
 20
20575.69238248209
 10
-33697.3848617956
 20
20586.00540213509
 10
-33674.8117044798
 20
20598.11425793053
 10
-33641.55993964969
 20
20626.81904370521
 10
-33631.38047283377
 20
20642.81503032883
 10
-33616.90874747709
 20
20664.41019538367
 10
-33602.7303239445
 20
20677.91127730024
 10
-33586.94576768929
 20
20682.22062983732
 10
-33575.06024415687
 20
20689.02496695993
 10
-33556.40081720555
 20
20722.0148222115
 10
-33533.44098410775
 20
20750.41160852038
 10
-33518.98235882301
 20
20788.39430856857
 10
-33511.30514553498
 20
20809.58434591082
 10
-33503.63504143233
 20
20839.66761870678
 10
-33497.55030164558
 20
20852.96238247814
 10
-33494.7623347499
 20
20865.35519431466
 10
-33488.30090399209
 20
20907.42838783219
 10
-33483.02410315439
 20
20931.41437991888
 10
-33484.73942577543
 20
20952.19721270786
 10
-33485.9618382201
 20
20981.37406037368
 10
-33485.27834596056
 20
21001.35941829547
 10
-33478.89567139744
 20
21016.95267356111
 10
-33472.02887329157
 20
21051.93158302841
 10
-33469.76025635159
 20
21089.00522195637
 10
-33469.95245253984
 20
21108.27537186518
  0
LWPOLYLINE
  5
11C
330
1F
100
AcDbEntity
  8
Plan
100
AcDbPolyline
 90
       32
 70
     0
 43
0.0
 10
-32919.9945626964
 20
21108.27537186518
 10
-32920.1851596612
 20
21098.0380171094
 10
-32921.36355905929
 20
21072.15674415732
 10
-32919.54296058574
 20
21044.67908365808
 10
-32924.62151100545
 20
21022.69173120561
 10
-32937.07486674153
 20
20976.2170892489
 10
-32940.24391792509
 20
20940.54166732862
 10
-32947.72200213178
 20
20920.2511056881
 10
-32947.70187275295
 20
20895.07025923491
 10
-32951.96545491672
 20
20853.59836700727
 10
-32957.54194785752
 20
20829.51221129126
 10
-32966.8238560554
 20
20815.71527143899
 10
-32977.81070267096
 20
20809.71104517366
 10
-33001.18476962893
 20
20799.50010623369
 10
-33029.06228586059
 20
20797.87903623391
 10
-33041.35309686258
 20
20798.06905916767
 10
-33068.9266874313
 20
20791.25218112253
 10
-33104.18907366874
 20
20777.73424484512
 10
-33127.16959529479
 20
20775.21777294646
 10
-33152.05098928035
 20
20775.59757917853
 10
-33183.03150118039
 20
20780.66894053439
 10
-33217.90521467364
 20
20780.94083492385
 10
-33245.28502801969
 20
20781.71834016919
 10
-33279.76958949785
 20
20795.18052126238
 10
-33303.26450861338
 20
20811.14958883573
 10
-33332.95671231053
 20
20829.61180378941
 10
-33373.04836019017
 20
20857.25871881569
 10
-33390.5477597955
 20
20873.13265510442
 10
-33420.135486425
 20
20885.89928228646
 10
-33453.92401472108
 20
20903.65875426512
 10
-33479.21133520411
 20
20911.83231250447
 10
-33486.52571359838
 20
20915.4976146318
  0
LWPOLYLINE
  5
11D
330
1F
100
AcDbEntity
  8
Plan
100
AcDbPolyline
 90
        3
 70
     0
 43
0.0
 10
-33615.42372651709
 20
21306.72322549755
 10
-33615.42372651709
 20
21108.27537186518
 10
-32760.81397790781
 20
21108.27537186518
  0
LWPOLYLINE
  5
11E
330
1F
100
AcDbEntity
  8
Plan
100
AcDbPolyline
 90
        9
 70
     0
 43
0.0
 10
-32760.81397790781
 20
21108.27537186518
 10
-32766.3191353654
 20
20869.33492427938
 10
-32798.99236427453
 20
20866.9106281613
 10
-32824.9734014635
 20
20867.88909969319
 10
-32857.35093219391
 20
20870.56116689753
 10
-32885.03211509129
 20
20873.33691238464
 10
-32904.81906283813
 20
20875.81919629068
 10
-32933.79510397438
 20
20873.39785567663
 10
-32950.07097128681
 20
20872.02602194833
  0
LWPOLYLINE
  5
11F
330
1F
100
AcDbEntity
  8
Plan
  6
ACAD_ISO03W100
 48
0.05
100
AcDbPolyline
 90
        2
 70
   128
 43
0.0
 10
-32766.3191353654
 20
20869.33492427938
 10
-32421.17773454689
 20
20869.33492427938
  0
MTEXT
  5
121
330
1F
100
AcDbEntity
  8
Plan
100
AcDbMText
 10
-34032.56516846258
 20
21042.1909372301
 30
0.0
 40
50.0
 41
265.7372503941879
 46
0.0
 71
     1
 72
     5
  1
21/005
 73
     1
 44
1.0
  0
MTEXT
  5
123
330
1F
100
AcDbEntity
  8
Plan
100
AcDbMText
 10
-34032.56516846258
 20
20471.77842719728
 30
0.0
 40
50.0
 41
265.7372503941879
 46
0.0
 71
     1
 72
     5
  1
21/006
 73
     1
 44
1.0
  0
LWPOLYLINE
  5
124
330
1F
100
AcDbEntity
  8
Plan
100
AcDbPolyline
 90
        2
 70
     0
 43
0.0
 10
-33933.27960116882
 20
20479.42683715647
 10
-33933.27960116882
 20
20567.51984341548
  0
MTEXT
  5
126
330
1F
100
AcDbEntity
  8
Plan
100
AcDbMText
 10
-33285.07868441701
 20
21042.1909372301
 30
0.0
 40
50.0
 41
265.7372503941879
 46
0.0
 71
     1
 72
     5
  1
21/007
 73
     1
 44
1.0
  0
MTEXT
  5
127
330
1F
100
AcDbEntity
  8
Plan
100
AcDbMText
 10
-32710.33441681421
 20
21042.1909372301
 30
0.0
 40
50.0
 41
265.7372503941879
 46
0.0
 71
     1
 72
     5
  1
21/011
 73
     1
 44
1.0
  0
MTEXT
  5
128
330
1F
100
AcDbEntity
  8
Plan
100
AcDbMText
 10
-32416.67935821047
 20
20938.37506767065
 30
0.0
 40
50.0
 41
401.5697477526846
 46
0.0
 71
     1
 72
     5
  1
114.25m OD
 73
     1
 44
1.0
  0
MTEXT
  5
129
330
1F
100
AcDbEntity
  8
Plan
100
AcDbMText
 10
-33285.07868441701
 20
20682.98439927053
 30
0.0
 40
50.0
 41
265.7372503941879
 46
0.0
 71
     1
 72
     5
  1
21/008
 73
     1
 44
1.0
  0
LWPOLYLINE
  5
12B
330
1F
100
AcDbEntity
  8
Plan
100
AcDbPolyline
 90
        2
 70
     0
 43
0.0
 10
-32714.69238100387
 20
21010.7807085182
 10
-32786.48552664102
 20
21010.7807085182
  0
LWPOLYLINE
  5
12C
330
1F
100
AcDbEntity
  8
Plan
100
AcDbPolyline
 90
        2
 70
     0
 43
0.0
 10
-33191.71325290605
 20
20696.07041440142
 10
-33191.71325290605
 20
20780.73662818071
  0
LWPOLYLINE
  5
1C1
330
1F
100
AcDbEntity
  8
Plan
100
AcDbPolyline
 90
        3
 70
     0
 43
0.0
 10
-34892.64393144617
 20
21191.52827897862
 10
-34948.63380413353
 20
21288.50558318244
 10
-35004.62367682089
 20
21191.52827897862
  0
LWPOLYLINE
  5
1C4
330
1F
100
AcDbEntity
  8
Plan
100
AcDbPolyline
 90
        2
 70
     0
 43
0.0
 10
-32362.56178761512
 20
20869.33492427938
 10
-32250.58204224041
 20
20869.33492427938
  0
LWPOLYLINE
  5
1C5
330
1F
100
AcDbEntity
  8
Plan
100
AcDbPolyline
 90
        3
 70
     0
 43
0.0
 10
-32250.58204224041
 20
20772.35762007557
 10
-32306.57191492776
 20
20869.33492427938
 10
-32362.56178761512
 20
20772.35762007557
  0
MTEXT
  5
1CA
330
1F
100
AcDbEntity
  8
Plan
100
AcDbMText
 10
-32330.85857085004
 20
21490.27519854179
 30
0.0
 40
50.0
 41
506.0204761584755
 46
0.0
 71
     1
 72
     5
  1
E
 73
     1
 44
1.0
  0
MTEXT
  5
1CB
330
1F
100
AcDbEntity
  8
Plan
100
AcDbMText
 10
-34253.19328467949
 20
21490.27519854179
 30
0.0
 40
50.0
 41
506.0204761584755
 46
0.0
 71
     1
 72
     5
  1
W
 73
     1
 44
1.0
  0
VIEWPORT
  5
13D
330
58
100
AcDbEntity
 67
     1
  8
0
100
AcDbViewport
 10
176.3216592064624
 20
86.15493479659688
 30
0.0
 40
641.7974470423326
 41
365.0688629113102
 68
     1
 69
     1
 12
176.3216592064624
 22
86.15493479659688
 13
0.0
 23
0.0
 14
10.0
 24
10.0
 15
10.0
 25
10.0
 16
0.0
 26
0.0
 36
1.0
 17
0.0
 27
0.0
 37
0.0
 42
50.0
 43
0.0
 44
0.0
 45
365.0688629113102
 50
0.0
 51
0.0
 72
  1000
 90
    32800
  1

281
     0
 71
     1
 74
     0
110
0.0
120
0.0
130
0.0
111
1.0
121
0.0
131
0.0
112
0.0
122
1.0
132
0.0
 79
     0
146
0.0
170
     0
 61
     5
348
230
292
     1
282
     1
141
0.0
142
0.0
 63
   256
  0
VIEWPORT
  5
149
330
58
100
AcDbEntity
 67
     1
  8
vports
100
AcDbViewport
 10
149.8347302355212
 20
98.9754347007559
 30
0.0
 40
241.710899861225
 41
64.004587597968
 68
     2
 69
     2
 12
-34358.19198413609
 22
20923.67368722088
 13
0.0
 23
0.0
 14
0.5
 24
0.5
 15
0.5
 25
0.5
 16
0.0
 26
0.0
 36
1.0
 17
0.0
 27
0.0
 37
0.0
 42
50.0
 43
0.0
 44
0.0
 45
1280.09175195936
 50
0.0
 51
0.0
 72
  1000
 90
    49248
  1

281
     0
 71
     1
 74
     0
110
0.0
120
0.0
130
0.0
111
1.0
121
0.0
131
0.0
112
0.0
122
1.0
132
0.0
 79
     0
146
0.0
170
     0
 61
     5
348
230
292
     1
282
     1
141
0.0
142
0.0
 63
   256
  0
TEXT
  5
190
330
58
100
AcDbEntity
 67
     1
  8
vports_text
100
AcDbText
 10
10.01838437180595
 20
189.7865829163037
 30
0.0
 40
2.0
  1
HEATH ROAD, LINTON, KENT: AN ARCHAEOLOGICAL WATCHING BRIEF FINAL REPORT
  7
TNR-Italic
100
AcDbText
  0
MTEXT
  5
197
330
58
100
AcDbEntity
 67
     1
  8
vports_text
100
AcDbMText
 10
15.49263453092584
 20
53.19027689955999
 30
0.0
 40
2.5
 41
121.6447999999999
 46
0.0
 71
     1
 72
     5
  1
Figure 4:       {\fTimes New Roman|b0|i0|c0|p18;Ditch Sections [21/004] & [21/008]}
  7
TNR-Bold
 73
     1
 44
1.0
  0
TEXT
  5
198
330
58
100
AcDbEntity
 67
     1
  8
vports_text
100
AcDbText
 10
120.8409572057753
 20
6.906954175737837
 30
0.0
 40
2.0
  1
© AOC ARCHAEOLOGY GROUP - MAY 2007
  7
TNR-Italic
100
AcDbText
  0
INSERT
  5
199
330
58
100
AcDbEntity
 67
     1
  8
text
100
AcDbBlockReference
  2
aoc
 10
245.2455490056151
 20
9.045785305758471
 30
0.0
  0
LINE
  5
1B1
102
{ACAD_REACTORS
330
1B4
102
}
330
58
100
AcDbEntity
 67
     1
  8
vports_text
100
AcDbLine
 10
111.2667818035673
 20
31.2379116299339
 30
0.0
 11
186.2667823282259
 21
31.23791145458941
 31
0.0
  0
LINE
  5
1B2
102
{ACAD_REACTORS
330
1B4
102
}
330
58
100
AcDbEntity
 67
     1
  8
vports_text
100
AcDbLine
 10
136.2667822039427
 20
32.73791161824428
 30
0.0
 11
186.2667823282259
 21
32.73791161824428
 31
0.0
  0
LINE
  5
1B3
102
{ACAD_REACTORS
330
1B4
102
}
330
58
100
AcDbEntity
 67
     1
  8
vports_text
100
AcDbLine
 10
111.2667818035673
 20
32.73791161824428
 30
0.0
 11
136.2667822039427
 21
32.73791161824428
 31
0.0
  0
HATCH
  5
1B4
330
58
100
AcDbEntity
 67
     1
  8
vports_text
100
AcDbHatch
 10
0.0
 20
0.0
 30
0.0
210
0.0
220
0.0
230
1.0
  2
SOLID
 70
     1
 71
     1
 91
        3
 92
        7
 72
     0
 73
     1
 93
        4
 10
136.2667822039427
 20
32.73791161824425
 10
136.2667822039427
 20
31.23791157148574
 10
161.2667822660843
 20
31.2379115130376
 10
161.2667822660843
 20
32.73791161824428
 97
        4
330
1B2
330
1BA
330
1B1
330
1BE
 92
        7
 72
     0
 73
     1
 93
        4
 10
126.2667818035673
 20
32.73791161824425
 10
126.2667818035672
 20
31.23791159486501
 10
131.2667818035673
 20
31.23791158317542
 10
131.2667818035673
 20
32.73791161824428
 97
        4
330
1B3
330
1B8
330
1B1
330
1BB
 92
        7
 72
     0
 73
     1
 93
        4
 10
121.2667818035673
 20
31.23791160655463
 10
121.2667818035673
 20
32.73791161824425
 10
116.2667818035673
 20
32.73791161824428
 10
116.2667818035673
 20
31.23791161824428
 97
        4
330
1B3
330
1B6
330
1B1
330
1B9
 75
     0
 76
     1
 47
0.1183187555646994
 98
        3
 10
152.3953529102873
 20
32.1272715697223
 10
127.8943742455476
 20
32.00895228551778
 10
120.2008306290558
 20
31.77231499465503
  0
TEXT
  5
1B5
330
58
100
AcDbEntity
 67
     1
  8
vports_text
100
AcDbText
 10
108.2725505728696
 20
35.56671969226178
 30
0.0
 40
2.0
  1
0.5m
  7
TNR-Regular
 72
     1
 11
111.2667827286014
 21
35.56671969226178
 31
0.0
100
AcDbText
  0
LINE
  5
1B6
102
{ACAD_REACTORS
330
1B4
102
}
330
58
100
AcDbEntity
 67
     1
  8
vports_text
100
AcDbLine
 10
116.2667818035673
 20
31.23791161824428
 30
0.0
 11
116.2667818035673
 21
32.73791161824423
 31
0.0
  0
LINE
  5
1B7
330
58
100
AcDbEntity
 67
     1
  8
vports_text
100
AcDbLine
 10
111.2667818035673
 20
31.23791161824428
 30
0.0
 11
111.2667818035673
 21
34.23791161824428
 31
0.0
  0
LINE
  5
1B8
102
{ACAD_REACTORS
330
1B4
102
}
330
58
100
AcDbEntity
 67
     1
  8
vports_text
100
AcDbLine
 10
126.2667818035673
 20
31.23791161824428
 30
0.0
 11
126.2667818035673
 21
32.73791161824423
 31
0.0
  0
LINE
  5
1B9
102
{ACAD_REACTORS
330
1B4
102
}
330
58
100
AcDbEntity
 67
     1
  8
vports_text
100
AcDbLine
 10
121.2667818035673
 20
31.23791161824428
 30
0.0
 11
121.2667818035673
 21
32.73791161824423
 31
0.0
  0
LINE
  5
1BA
102
{ACAD_REACTORS
330
1B4
102
}
330
58
100
AcDbEntity
 67
     1
  8
vports_text
100
AcDbLine
 10
136.2667822039427
 20
31.23791161824428
 30
0.0
 11
136.2667822039427
 21
34.23791161824428
 31
0.0
  0
LINE
  5
1BB
102
{ACAD_REACTORS
330
1B4
102
}
330
58
100
AcDbEntity
 67
     1
  8
vports_text
100
AcDbLine
 10
131.2667818035673
 20
31.23791161824428
 30
0.0
 11
131.2667818035673
 21
32.73791161824423
 31
0.0
  0
TEXT
  5
1BC
330
58
100
AcDbEntity
 67
     1
  8
vports_text
100
AcDbText
 10
135.5284986622712
 20
35.56671969226178
 30
0.0
 40
2.0
  1
0
  7
TNR-Regular
 72
     1
 11
136.2667827286014
 21
35.56671969226178
 31
0.0
100
AcDbText
  0
TEXT
  5
1BD
330
58
100
AcDbEntity
 67
     1
  8
vports_text
100
AcDbText
 10
143.6416920054714
 20
27.05786032621583
 30
0.0
 40
2.0
  1
1:20
  7
TNR-Regular
 72
     1
 11
146.2667821280381
 21
27.05786032621583
 31
0.0
100
AcDbText
  0
LINE
  5
1BE
102
{ACAD_REACTORS
330
1B4
102
}
330
58
100
AcDbEntity
 67
     1
  8
vports_text
100
AcDbLine
 10
161.2667822660843
 20
31.23791161824428
 30
0.0
 11
161.2667822660843
 21
32.73791161824428
 31
0.0
  0
TEXT
  5
1BF
330
58
100
AcDbEntity
 67
     1
  8
vports_text
100
AcDbText
 10
184.3799766723649
 20
35.56671990907191
 30
0.0
 40
2.0
  1
1m
  7
TNR-Regular
 72
     1
 11
186.2667827286014
 21
35.56671990907191
 31
0.0
100
AcDbText
  0
LINE
  5
1C0
330
58
100
AcDbEntity
 67
     1
  8
vports_text
100
AcDbLine
 10
186.2667823282259
 20
31.23791145458941
 30
0.0
 11
186.2667823282259
 21
34.23791145458941
 31
0.0
  0
MTEXT
  5
1C8
330
58
100
AcDbEntity
 67
     1
  8
vports_text
100
AcDbMText
 10
59.31354715371759
 20
67.86242881638339
 30
0.0
 40
2.5
 41
121.6447999999999
 46
0.0
 71
     1
 72
     5
  1
Section A
  7
TNR-Bold
 73
     1
 44
1.0
  0
MTEXT
  5
1C9
330
58
100
AcDbEntity
 67
     1
  8
vports_text
100
AcDbMText
 10
155.105519174921
 20
67.86242881638339
 30
0.0
 40
2.5
 41
121.6447999999999
 46
0.0
 71
     1
 72
     5
  1
Section B
  7
TNR-Bold
 73
     1
 44
1.0
  0
ENDSEC
  0
SECTION
  2
OBJECTS
  0
DICTIONARY
  5
C
330
0
100
AcDbDictionary
281
     1
  3
ACAD_COLOR
350
73
  3
ACAD_DETAILVIEWSTYLE
350
2AD
  3
ACAD_GROUP
350
D
  3
ACAD_LAYOUT
350
1A
  3
ACAD_MATERIAL
350
72
  3
ACAD_MLEADERSTYLE
350
269
  3
ACAD_MLINESTYLE
350
17
  3
ACAD_PLOTSETTINGS
350
19
  3
ACAD_PLOTSTYLENAME
350
E
  3
ACAD_SCALELIST
350
244
  3
ACAD_SECTIONVIEWSTYLE
350
2AE
  3
ACAD_TABLESTYLE
350
86
  3
ACAD_VISUALSTYLE
350
22B
  3
ACDB_RECOMPOSE_DATA
350
2A0
  3
AcDbVariableDictionary
350
66
  3
AcDsDecomposeData
350
2A1
  0
DICTIONARY
  5
9A
330
2
100
AcDbDictionary
280
     1
281
     1
  3
ACAD_LAYERFILTERS
360
19C
  3
ACAD_LAYERSTATES
360
162
  3
ACLYDICTIONARY
360
19B
  0
DICTIONARY
  5
8D
330
1F
100
AcDbDictionary
280
     1
281
     1
  3
ACAD_SORTENTS
360
8E
  0
DICTIONARY
  5
73
102
{ACAD_REACTORS
330
C
102
}
330
C
100
AcDbDictionary
281
     1
  0
DICTIONARY
  5
2AD
102
{ACAD_REACTORS
330
C
102
}
330
C
100
AcDbDictionary
281
     1
  0
DICTIONARY
  5
D
102
{ACAD_REACTORS
330
C
102
}
330
C
100
AcDbDictionary
281
     1
  0
DICTIONARY
  5
1A
102
{ACAD_REACTORS
330
C
102
}
330
C
100
AcDbDictionary
281
     1
  3
Layout1
350
59
  3
Layout2
350
5E
  3
Model
350
22
  0
DICTIONARY
  5
72
102
{ACAD_REACTORS
330
C
102
}
330
C
100
AcDbDictionary
281
     1
  3
ByBlock
350
267
  3
ByLayer
350
266
  3
Global
350
268
  0
DICTIONARY
  5
269
102
{ACAD_REACTORS
330
C
102
}
330
C
100
AcDbDictionary
281
     1
  3
Standard
350
26A
  0
DICTIONARY
  5
17
102
{ACAD_REACTORS
330
C
102
}
330
C
100
AcDbDictionary
281
     1
  3
Standard
350
18
  0
DICTIONARY
  5
19
102
{ACAD_REACTORS
330
C
102
}
330
C
100
AcDbDictionary
281
     1
  0
ACDBDICTIONARYWDFLT
  5
E
102
{ACAD_REACTORS
330
C
102
}
330
C
100
AcDbDictionary
281
     1
  3
Normal
350
F
100
AcDbDictionaryWithDefault
340
F
  0
DICTIONARY
  5
244
102
{ACAD_REACTORS
330
C
102
}
330
C
100
AcDbDictionary
281
     1
  3
A0
350
245
  3
A1
350
246
  3
A2
350
247
  3
A3
350
248
  3
A4
350
249
  3
A5
350
24A
  3
A6
350
24B
  3
A7
350
24C
  3
A8
350
24D
  3
A9
350
24E
  3
B0
350
24F
  3
B1
350
250
  3
B2
350
251
  3
B3
350
252
  3
B4
350
253
  3
B5
350
254
  3
B6
350
255
  3
B7
350
256
  3
B8
350
257
  3
B9
350
258
  3
C0
350
259
  3
C1
350
25A
  3
C2
350
25B
  3
C3
350
25C
  3
C4
350
25D
  3
C5
350
25E
  3
C6
350
25F
  3
C7
350
260
  3
C8
350
261
  3
C9
350
262
  3
D0
350
263
  3
D1
350
264
  3
D2
350
265
  0
DICTIONARY
  5
2AE
102
{ACAD_REACTORS
330
C
102
}
330
C
100
AcDbDictionary
281
     1
  0
DICTIONARY
  5
86
102
{ACAD_REACTORS
330
C
102
}
330
C
100
AcDbDictionary
281
     1
  3
Standard
350
87
  0
DICTIONARY
  5
22B
102
{ACAD_REACTORS
330
C
102
}
330
C
100
AcDbDictionary
281
     1
  3
2dWireframe
350
230
  3
Basic
350
233
  3
Brighten
350
237
  3
ColorChange
350
23B
  3
Conceptual
350
235
  3
Dim
350
236
  3
EdgeColorOff
350
23E
  3
Facepattern
350
23A
  3
Flat
350
22C
  3
FlatWithEdges
350
22D
  3
Gouraud
350
22E
  3
GouraudWithEdges
350
22F
  3
Hidden
350
232
  3
JitterOff
350
23C
  3
Linepattern
350
239
  3
OverhangOff
350
23D
  3
Realistic
350
234
  3
Shaded
350
243
  3
Shaded with edges
350
242
  3
Shades of Gray
350
23F
  3
Sketchy
350
240
  3
Thicken
350
238
  3
Wireframe
350
231
  3
X-Ray
350
241
  0
XRECORD
  5
2A0
102
{ACAD_REACTORS
330
C
102
}
330
C
100
AcDbXrecord
280
     1
 90
        1
330
87
  0
DICTIONARY
  5
66
102
{ACAD_REACTORS
330
C
102
}
330
C
100
AcDbDictionary
281
     1
  3
CANNOSCALE
350
26B
  3
CMLEADERSTYLE
350
2AA
  3
CTABLESTYLE
350
93
  3
DIMASSOC
350
67
  3
HIDETEXT
350
6B
  3
MSLTSCALE
350
2AB
  3
XCLIPFRAME
350
2AC
  0
DICTIONARY
  5
2A1
102
{ACAD_REACTORS
330
C
102
}
330
C
100
AcDbDictionary
281
     1
  3
AcDsRecords
350
2A2
  3
AcDsSchemas
350
2A3
1001
ACAD
1070
     2
  0
DICTIONARY
  5
19C
102
{ACAD_REACTORS
330
9A
102
}
330
9A
100
AcDbDictionary
281
     1
  0
DICTIONARY
  5
162
102
{ACAD_REACTORS
330
9A
102
}
330
9A
100
AcDbDictionary
281
     1
  0
DICTIONARY
  5
19B
102
{ACAD_REACTORS
330
9A
102
}
330
9A
100
AcDbDictionary
281
     1
1001
ACAD
1000
<All
  0
SORTENTSTABLE
  5
8E
102
{ACAD_REACTORS
330
8D
102
}
330
8D
100
AcDbSortentsTable
330
1F
331
8F
  5
91
331
91
  5
94
331
95
  5
95
331
96
  5
96
331
9D
  5
9D
331
A0
  5
A0
331
A1
  5
A1
331
A3
  5
A3
331
A4
  5
A4
331
A9
  5
A9
331
AC
  5
AC
331
AE
  5
AE
331
B0
  5
B0
331
B1
  5
B1
331
B2
  5
B2
331
B3
  5
B3
331
B6
  5
B6
331
B8
  5
BA
331
B9
  5
B8
331
BA
  5
B9
331
BB
  5
BB
331
BF
  5
BF
331
C2
  5
C2
331
C3
  5
C3
331
C4
  5
C4
331
C5
  5
C5
331
C6
  5
C6
331
C7
  5
C7
331
C8
  5
C8
331
C9
  5
C9
331
CB
  5
CB
331
CC
  5
CC
331
CD
  5
CD
331
CF
  5
CF
331
D0
  5
D1
331
D1
  5
DE
331
D2
  5
DF
331
D3
  5
E0
331
DD
  5
D3
331
DE
  5
D0
331
DF
  5
DD
331
E0
  5
D2
331
E2
  5
E2
331
E3
  5
E3
331
E4
  5
E4
331
E5
  5
E5
331
E7
  5
E7
331
E8
  5
E8
331
E9
  5
E9
331
EA
  5
EA
331
EB
  5
EB
331
EC
  5
EC
331
EF
  5
EF
331
F0
  5
F0
331
F4
  5
F4
331
F8
  5
F8
331
F9
  5
F9
331
FA
  5
FA
331
FC
  5
FC
331
FD
  5
FD
331
FE
  5
FE
331
FF
  5
FF
331
101
  5
101
331
102
  5
102
331
104
  5
104
331
105
  5
105
331
106
  5
106
331
108
  5
108
331
109
  5
109
331
10B
  5
10B
331
10D
  5
10D
331
10E
  5
10E
331
10F
  5
10F
331
110
  5
110
331
112
  5
112
331
113
  5
113
331
114
  5
114
331
115
  5
115
331
117
  5
117
331
118
  5
118
331
119
  5
119
331
11B
  5
11B
331
11C
  5
11C
331
11D
  5
11D
331
11E
  5
11E
331
11F
  5
11F
331
121
  5
121
331
123
  5
123
331
124
  5
124
331
126
  5
126
331
127
  5
127
331
128
  5
128
331
129
  5
129
331
12B
  5
12B
331
12C
  5
12C
  0
LAYOUT
  5
59
102
{ACAD_REACTORS
330
1A
102
}
102
{ACAD_XDICTIONARY
360
26C
102
}
330
1A
100
AcDbPlotSettings
  1

  2
\\ml350\CLC2620
  4
A4
  6

 40
3.96875
 41
3.630109548568726
 42
3.587738037109375
 43
3.630096435546875
 44
209.8886566162109
 45
297.0530090332031
 46
0.0
 47
0.0
 48
0.0
 49
0.0
140
0.0
141
0.0
142
1.0
143
1.0
 70
   688
 72
     1
 73
     1
 74
     5
  7

 75
    16
 76
     0
 77
     2
 78
   300
147
1.0
148
0.0
149
0.0
100
AcDbLayout
  1
Layout1
 70
     1
 71
     1
 10
-3.630096435546875
 20
-3.96875
 11
293.4229125976562
 21
205.9199066162109
 12
0.0
 22
0.0
 32
0.0
 14
9.936183203095993
 24
3.599104739196093
 34
-0.0015258207003583
 15
286.7236281961747
 25
192.4271563823388
 35
0.0000000349246037
146
0.0
 13
0.0
 23
0.0
 33
0.0
 16
1.0
 26
0.0
 36
0.0
 17
0.0
 27
1.0
 37
0.0
 76
     0
330
58
331
13D
1001
ACAD_PSEXT
1000
\\ml350\CLC2620
1000
Canon CLC-iR C2620-C1 PS Ver2.1
1000
Print Room
1000

1070
     0
  0
LAYOUT
  5
5E
102
{ACAD_REACTORS
330
1A
102
}
330
1A
100
AcDbPlotSettings
  1

  2
None
  4

  6

 40
0.0
 41
0.0
 42
0.0
 43
0.0
 44
0.0
 45
0.0
 46
0.0
 47
0.0
 48
0.0
 49
0.0
140
0.0
141
0.0
142
1.0
143
1.0
 70
   688
 72
     0
 73
     0
 74
     5
  7

 75
    16
 76
     0
 77
     2
 78
   300
147
1.0
148
0.0
149
0.0
100
AcDbLayout
  1
Layout2
 70
     1
 71
     2
 10
0.0
 20
0.0
 11
12.0
 21
9.0
 12
0.0
 22
0.0
 32
0.0
 14
0.0
 24
0.0
 34
0.0
 15
0.0
 25
0.0
 35
0.0
146
0.0
 13
0.0
 23
0.0
 33
0.0
 16
1.0
 26
0.0
 36
0.0
 17
0.0
 27
1.0
 37
0.0
 76
     0
330
5D
  0
LAYOUT
  5
22
102
{ACAD_REACTORS
330
1A
102
}
330
1A
100
AcDbPlotSettings
  1

  2
none_device
  4
ANSI_A_(8.50_x_11.00_Inches)
  6

 40
6.349999904632568
 41
19.04999923706055
 42
6.350006103515625
 43
19.04998779296875
 44
215.8999938964844
 45
279.3999938964844
 46
0.0
 47
0.0
 48
0.0
 49
0.0
140
0.0
141
0.0
142
1.0
143
2.584895464708374
 70
 11952
 72
     0
 73
     1
 74
     0
  7

 75
     0
 76
     0
 77
     2
 78
   300
147
0.3868628397755418
148
0.0
149
0.0
100
AcDbLayout
  1
Model
 70
     1
 71
     0
 10
0.0
 20
0.0
 11
12.0
 21
9.0
 12
0.0
 22
0.0
 32
0.0
 14
0.0
 24
0.0
 34
0.0
 15
0.0
 25
0.0
 35
0.0
146
0.0
 13
0.0
 23
0.0
 33
0.0
 16
1.0
 26
0.0
 36
0.0
 17
0.0
 27
1.0
 37
0.0
 76
     0
330
1F
331
13A
  0
MATERIAL
  5
267
102
{ACAD_REACTORS
330
72
102
}
330
72
100
AcDbMaterial
  1
ByBlock
 72
     1
 94
      127
  0
MATERIAL
  5
266
102
{ACAD_REACTORS
330
72
102
}
330
72
100
AcDbMaterial
  1
ByLayer
 72
     1
 94
      127
  0
MATERIAL
  5
268
102
{ACAD_REACTORS
330
72
102
}
330
72
100
AcDbMaterial
  1
Global
 72
     1
 94
      127
  0
MLEADERSTYLE
  5
26A
102
{ACAD_REACTORS
330
269
102
}
330
269
100
AcDbMLeaderStyle
179
     2
170
     2
171
     1
172
     0
 90
        2
 40
0.0
 41
0.0
173
     1
 91
-1056964608
340
14
 92
       -2
290
     1
 42
0.09
291
     1
 43
0.36
  3
Standard
341
0
 44
0.18
300

342
11
174
     1
178
     6
175
     1
176
     0
 93
-1056964608
 45
0.18
292
     0
297
     0
 46
0.18
343
0
 94
-1056964608
 47
1.0
 49
1.0
140
1.0
293
     1
141
0.0
294
     1
177
     0
142
1.0
295
     0
296
     0
143
0.125
271
     0
272
     9
273
     9
  0
MLINESTYLE
  5
18
102
{ACAD_REACTORS
330
17
102
}
330
17
100
AcDbMlineStyle
  2
STANDARD
 70
     0
  3

 62
   256
 51
90.0
 52
90.0
 71
     2
 49
0.5
 62
   256
  6
BYLAYER
 49
-0.5
 62
   256
  6
BYLAYER
  0
ACDBPLACEHOLDER
  5
F
102
{ACAD_REACTORS
330
E
102
}
330
E
  0
SCALE
  5
245
102
{ACAD_REACTORS
330
244
102
}
330
244
100
AcDbScale
 70
     0
300
1:1
140
1.0
141
1.0
290
     1
  0
SCALE
  5
246
102
{ACAD_REACTORS
330
244
102
}
330
244
100
AcDbScale
 70
     0
300
1:2
140
1.0
141
2.0
290
     0
  0
SCALE
  5
247
102
{ACAD_REACTORS
330
244
102
}
330
244
100
AcDbScale
 70
     0
300
1:4
140
1.0
141
4.0
290
     0
  0
SCALE
  5
248
102
{ACAD_REACTORS
330
244
102
}
330
244
100
AcDbScale
 70
     0
300
1:5
140
1.0
141
5.0
290
     0
  0
SCALE
  5
249
102
{ACAD_REACTORS
330
244
102
}
330
244
100
AcDbScale
 70
     0
300
1:8
140
1.0
141
8.0
290
     0
  0
SCALE
  5
24A
102
{ACAD_REACTORS
330
244
102
}
330
244
100
AcDbScale
 70
     0
300
1:10
140
1.0
141
10.0
290
     0
  0
SCALE
  5
24B
102
{ACAD_REACTORS
330
244
102
}
330
244
100
AcDbScale
 70
     0
300
1:16
140
1.0
141
16.0
290
     0
  0
SCALE
  5
24C
102
{ACAD_REACTORS
330
244
102
}
330
244
100
AcDbScale
 70
     0
300
1:20
140
1.0
141
20.0
290
     0
  0
SCALE
  5
24D
102
{ACAD_REACTORS
330
244
102
}
330
244
100
AcDbScale
 70
     0
300
1:30
140
1.0
141
30.0
290
     0
  0
SCALE
  5
24E
102
{ACAD_REACTORS
330
244
102
}
330
244
100
AcDbScale
 70
     0
300
1:40
140
1.0
141
40.0
290
     0
  0
SCALE
  5
24F
102
{ACAD_REACTORS
330
244
102
}
330
244
100
AcDbScale
 70
     0
300
1:50
140
1.0
141
50.0
290
     0
  0
SCALE
  5
250
102
{ACAD_REACTORS
330
244
102
}
330
244
100
AcDbScale
 70
     0
300
1:100
140
1.0
141
100.0
290
     0
  0
SCALE
  5
251
102
{ACAD_REACTORS
330
244
102
}
330
244
100
AcDbScale
 70
     0
300
2:1
140
2.0
141
1.0
290
     0
  0
SCALE
  5
252
102
{ACAD_REACTORS
330
244
102
}
330
244
100
AcDbScale
 70
     0
300
4:1
140
4.0
141
1.0
290
     0
  0
SCALE
  5
253
102
{ACAD_REACTORS
330
244
102
}
330
244
100
AcDbScale
 70
     0
300
8:1
140
8.0
141
1.0
290
     0
  0
SCALE
  5
254
102
{ACAD_REACTORS
330
244
102
}
330
244
100
AcDbScale
 70
     0
300
10:1
140
10.0
141
1.0
290
     0
  0
SCALE
  5
255
102
{ACAD_REACTORS
330
244
102
}
330
244
100
AcDbScale
 70
     0
300
100:1
140
100.0
141
1.0
290
     0
  0
SCALE
  5
256
102
{ACAD_REACTORS
330
244
102
}
330
244
100
AcDbScale
 70
     0
300
1/128" = 1'-0"
140
0.0078125
141
12.0
290
     0
  0
SCALE
  5
257
102
{ACAD_REACTORS
330
244
102
}
330
244
100
AcDbScale
 70
     0
300
1/64" = 1'-0"
140
0.015625
141
12.0
290
     0
  0
SCALE
  5
258
102
{ACAD_REACTORS
330
244
102
}
330
244
100
AcDbScale
 70
     0
300
1/32" = 1'-0"
140
0.03125
141
12.0
290
     0
  0
SCALE
  5
259
102
{ACAD_REACTORS
330
244
102
}
330
244
100
AcDbScale
 70
     0
300
1/16" = 1'-0"
140
0.0625
141
12.0
290
     0
  0
SCALE
  5
25A
102
{ACAD_REACTORS
330
244
102
}
330
244
100
AcDbScale
 70
     0
300
3/32" = 1'-0"
140
0.09375
141
12.0
290
     0
  0
SCALE
  5
25B
102
{ACAD_REACTORS
330
244
102
}
330
244
100
AcDbScale
 70
     0
300
1/8" = 1'-0"
140
0.125
141
12.0
290
     0
  0
SCALE
  5
25C
102
{ACAD_REACTORS
330
244
102
}
330
244
100
AcDbScale
 70
     0
300
3/16" = 1'-0"
140
0.1875
141
12.0
290
     0
  0
SCALE
  5
25D
102
{ACAD_REACTORS
330
244
102
}
330
244
100
AcDbScale
 70
     0
300
1/4" = 1'-0"
140
0.25
141
12.0
290
     0
  0
SCALE
  5
25E
102
{ACAD_REACTORS
330
244
102
}
330
244
100
AcDbScale
 70
     0
300
3/8" = 1'-0"
140
0.375
141
12.0
290
     0
  0
SCALE
  5
25F
102
{ACAD_REACTORS
330
244
102
}
330
244
100
AcDbScale
 70
     0
300
1/2" = 1'-0"
140
0.5
141
12.0
290
     0
  0
SCALE
  5
260
102
{ACAD_REACTORS
330
244
102
}
330
244
100
AcDbScale
 70
     0
300
3/4" = 1'-0"
140
0.75
141
12.0
290
     0
  0
SCALE
  5
261
102
{ACAD_REACTORS
330
244
102
}
330
244
100
AcDbScale
 70
     0
300
1" = 1'-0"
140
1.0
141
12.0
290
     0
  0
SCALE
  5
262
102
{ACAD_REACTORS
330
244
102
}
330
244
100
AcDbScale
 70
     0
300
1-1/2" = 1'-0"
140
1.5
141
12.0
290
     0
  0
SCALE
  5
263
102
{ACAD_REACTORS
330
244
102
}
330
244
100
AcDbScale
 70
     0
300
3" = 1'-0"
140
3.0
141
12.0
290
     0
  0
SCALE
  5
264
102
{ACAD_REACTORS
330
244
102
}
330
244
100
AcDbScale
 70
     0
300
6" = 1'-0"
140
6.0
141
12.0
290
     0
  0
SCALE
  5
265
102
{ACAD_REACTORS
330
244
102
}
330
244
100
AcDbScale
 70
     0
300
1'-0" = 1'-0"
140
12.0
141
12.0
290
     0
  0
TABLESTYLE
  5
87
102
{ACAD_REACTORS
330
86
102
}
102
{ACAD_XDICTIONARY
360
26E
102
}
330
86
100
AcDbTableStyle
  3
Standard
 70
     0
 71
     0
 40
0.06
 41
0.06
280
     0
281
     0
  7
Standard
140
0.18
170
     2
 62
     0
 63
   257
283
     0
 90
        4
 91
        0
  1

274
    -2
284
     1
 64
     0
275
    -2
285
     1
 65
     0
276
    -2
286
     1
 66
     0
277
    -2
287
     1
 67
     0
278
    -2
288
     1
 68
     0
279
    -2
289
     1
 69
     0
  7
Standard
140
0.25
170
     5
 62
     0
 63
   257
283
     0
 90
        4
 91
        0
  1

274
    -2
284
     1
 64
     0
275
    -2
285
     1
 65
     0
276
    -2
286
     1
 66
     0
277
    -2
287
     1
 67
     0
278
    -2
288
     1
 68
     0
279
    -2
289
     1
 69
     0
  7
Standard
140
0.18
170
     5
 62
     0
 63
   257
283
     0
 90
        4
 91
        0
  1

274
    -2
284
     1
 64
     0
275
    -2
285
     1
 65
     0
276
    -2
286
     1
 66
     0
277
    -2
287
     1
 67
     0
278
    -2
288
     1
 68
     0
279
    -2
289
     1
 69
     0
  0
VISUALSTYLE
  5
230
102
{ACAD_REACTORS
330
22B
102
}
102
{ACAD_XDICTIONARY
360
278
102
}
330
22B
100
AcDbVisualStyle
  2
2dWireframe
 70
     4
177
     2
291
     0
 71
     0
176
     1
 72
     2
176
     1
 73
     0
176
     1
 90
        0
176
     1
 40
0.6
176
     1
 41
30.0
176
     1
 62
     5
 63
     7
421
 16777215
176
     1
 74
     1
176
     1
 91
        4
176
     1
 64
     7
176
     1
 65
   257
176
     1
 75
     1
176
     1
175
     1
176
     1
 42
1.0
176
     1
 92
        0
176
     1
 66
   257
176
     1
 43
1.0
176
     1
 76
     1
176
     1
 77
     6
176
     1
 78
     2
176
     1
 67
     7
176
     1
 79
     5
176
     1
170
     0
176
     1
171
     0
176
     1
290
     0
176
     1
 93
        1
176
     1
 44
0.0
176
     1
173
     0
176
     1
  0
VISUALSTYLE
  5
233
102
{ACAD_REACTORS
330
22B
102
}
102
{ACAD_XDICTIONARY
360
27E
102
}
330
22B
100
AcDbVisualStyle
  2
Basic
 70
     7
177
     2
291
     1
 71
     1
176
     1
 72
     0
176
     1
 73
     1
176
     1
 90
        0
176
     1
 40
0.6
176
     1
 41
30.0
176
     1
 62
     5
 63
     7
421
 16777215
176
     1
 74
     0
176
     1
 91
        4
176
     1
 64
     7
176
     1
 65
   257
176
     1
 75
     1
176
     1
175
     1
176
     1
 42
1.0
176
     1
 92
        8
176
     1
 66
     7
176
     1
 43
1.0
176
     1
 76
     1
176
     1
 77
     6
176
     1
 78
     2
176
     1
 67
     7
176
     1
 79
     5
176
     1
170
     0
176
     1
171
     0
176
     1
290
     0
176
     1
 93
        1
176
     1
 44
0.0
176
     1
173
     0
176
     1
  0
VISUALSTYLE
  5
237
102
{ACAD_REACTORS
330
22B
102
}
102
{ACAD_XDICTIONARY
360
286
102
}
330
22B
100
AcDbVisualStyle
  2
Brighten
 70
    12
177
     2
291
     1
 71
     2
176
     1
 72
     2
176
     1
 73
     0
176
     1
 90
        0
176
     1
 40
0.6
176
     1
 41
30.0
176
     1
 62
     5
 63
     7
421
 16777215
176
     1
 74
     1
176
     1
 91
        4
176
     1
 64
     7
176
     1
 65
   257
176
     1
 75
     1
176
     1
175
     1
176
     1
 42
1.0
176
     1
 92
        8
176
     1
 66
     7
176
     1
 43
1.0
176
     1
 76
     1
176
     1
 77
     6
176
     1
 78
     2
176
     1
 67
     7
176
     1
 79
     5
176
     1
170
     0
176
     1
171
     0
176
     1
290
     0
176
     1
 93
        1
176
     1
 44
50.0
176
     1
173
     0
176
     1
  0
VISUALSTYLE
  5
23B
102
{ACAD_REACTORS
330
22B
102
}
102
{ACAD_XDICTIONARY
360
28E
102
}
330
22B
100
AcDbVisualStyle
  2
ColorChange
 70
    16
177
     2
291
     1
 71
     2
176
     1
 72
     2
176
     1
 73
     3
176
     1
 90
        0
176
     1
 40
0.6
176
     1
 41
30.0
176
     1
 62
     5
 63
     8
421
  8421504
176
     1
 74
     1
176
     1
 91
        4
176
     1
 64
     7
176
     1
 65
   257
176
     1
 75
     1
176
     1
175
     1
176
     1
 42
1.0
176
     1
 92
        8
176
     1
 66
     8
424
  8421504
176
     1
 43
1.0
176
     1
 76
     1
176
     1
 77
     6
176
     1
 78
     2
176
     1
 67
     7
176
     1
 79
     5
176
     1
170
     0
176
     1
171
     0
176
     1
290
     0
176
     1
 93
        1
176
     1
 44
0.0
176
     1
173
     0
176
     1
  0
VISUALSTYLE
  5
235
102
{ACAD_REACTORS
330
22B
102
}
102
{ACAD_XDICTIONARY
360
282
102
}
330
22B
100
AcDbVisualStyle
  2
Conceptual
 70
     9
177
     2
291
     0
 71
     3
176
     1
 72
     2
176
     1
 73
     0
176
     1
 90
        0
176
     1
 40
0.6
176
     1
 41
30.0
176
     1
 62
     5
 63
     7
421
 16777215
176
     1
 74
     2
176
     1
 91
        2
176
     1
 64
     7
176
     1
 65
   257
176
     1
 75
     1
176
     1
175
     1
176
     1
 42
179.0
176
     1
 92
        8
176
     1
 66
     7
176
     1
 43
1.0
176
     1
 76
     1
176
     1
 77
     6
176
     1
 78
     2
176
     1
 67
     7
176
     1
 79
     3
176
     1
170
     0
176
     1
171
     0
176
     1
290
     0
176
     1
 93
        1
176
     1
 44
0.0
176
     1
173
     0
176
     1
  0
VISUALSTYLE
  5
236
102
{ACAD_REACTORS
330
22B
102
}
102
{ACAD_XDICTIONARY
360
284
102
}
330
22B
100
AcDbVisualStyle
  2
Dim
 70
    11
177
     2
291
     1
 71
     2
176
     1
 72
     2
176
     1
 73
     0
176
     1
 90
        0
176
     1
 40
0.6
176
     1
 41
30.0
176
     1
 62
     5
 63
     7
421
 16777215
176
     1
 74
     1
176
     1
 91
        4
176
     1
 64
     7
176
     1
 65
   257
176
     1
 75
     1
176
     1
175
     1
176
     1
 42
1.0
176
     1
 92
        8
176
     1
 66
     7
176
     1
 43
1.0
176
     1
 76
     1
176
     1
 77
     6
176
     1
 78
     2
176
     1
 67
     7
176
     1
 79
     5
176
     1
170
     0
176
     1
171
     0
176
     1
290
     0
176
     1
 93
        1
176
     1
 44
-50.0
176
     1
173
     0
176
     1
  0
VISUALSTYLE
  5
23E
102
{ACAD_REACTORS
330
22B
102
}
102
{ACAD_XDICTIONARY
360
294
102
}
330
22B
100
AcDbVisualStyle
  2
EdgeColorOff
 70
    22
177
     2
291
     1
 71
     2
176
     0
 72
     2
176
     0
 73
     0
176
     0
 90
        0
176
     0
 40
0.6
176
     0
 41
30.0
176
     0
 62
     5
 63
     7
421
 16777215
176
     0
 74
     1
176
     0
 91
        4
176
     0
 64
     7
176
     0
 65
   257
176
     0
 75
     1
176
     0
175
     1
176
     0
 42
1.0
176
     0
 92
        8
176
     2
 66
     7
176
     0
 43
1.0
176
     0
 76
     1
176
     0
 77
     6
176
     0
 78
     2
176
     0
 67
     7
176
     0
 79
     5
176
     0
170
     0
176
     0
171
     0
176
     0
290
     0
176
     0
 93
        1
176
     0
 44
0.0
176
     0
173
     0
176
     0
  0
VISUALSTYLE
  5
23A
102
{ACAD_REACTORS
330
22B
102
}
102
{ACAD_XDICTIONARY
360
28C
102
}
330
22B
100
AcDbVisualStyle
  2
Facepattern
 70
    15
177
     2
291
     1
 71
     2
176
     1
 72
     2
176
     1
 73
     0
176
     1
 90
        0
176
     1
 40
0.6
176
     1
 41
30.0
176
     1
 62
     5
 63
     7
421
 16777215
176
     1
 74
     1
176
     1
 91
        4
176
     1
 64
     7
176
     1
 65
   257
176
     1
 75
     1
176
     1
175
     1
176
     1
 42
1.0
176
     1
 92
        8
176
     1
 66
     7
176
     1
 43
1.0
176
     1
 76
     1
176
     1
 77
     6
176
     1
 78
     2
176
     1
 67
     7
176
     1
 79
     5
176
     1
170
     0
176
     1
171
     0
176
     1
290
     0
176
     1
 93
        1
176
     1
 44
0.0
176
     1
173
     0
176
     1
  0
VISUALSTYLE
  5
22C
102
{ACAD_REACTORS
330
22B
102
}
102
{ACAD_XDICTIONARY
360
270
102
}
330
22B
100
AcDbVisualStyle
  2
Flat
 70
     0
177
     2
291
     1
 71
     2
176
     1
 72
     1
176
     1
 73
     1
176
     1
 90
        2
176
     1
 40
0.6
176
     1
 41
30.0
176
     1
 62
     5
 63
     7
421
 16777215
176
     1
 74
     0
176
     1
 91
        0
176
     1
 64
     7
176
     1
 65
   257
176
     1
 75
     1
176
     1
175
     1
176
     1
 42
1.0
176
     1
 92
        8
176
     1
 66
     7
176
     1
 43
1.0
176
     1
 76
     1
176
     1
 77
     6
176
     1
 78
     2
176
     1
 67
     7
176
     1
 79
     5
176
     1
170
     0
176
     1
171
     0
176
     1
290
     0
176
     1
 93
       13
176
     1
 44
0.0
176
     1
173
     0
176
     1
  0
VISUALSTYLE
  5
22D
102
{ACAD_REACTORS
330
22B
102
}
102
{ACAD_XDICTIONARY
360
272
102
}
330
22B
100
AcDbVisualStyle
  2
FlatWithEdges
 70
     1
177
     2
291
     1
 71
     2
176
     1
 72
     1
176
     1
 73
     1
176
     1
 90
        2
176
     1
 40
0.6
176
     1
 41
30.0
176
     1
 62
     5
 63
     7
421
 16777215
176
     1
 74
     1
176
     1
 91
        0
176
     1
 64
     7
176
     1
 65
   257
176
     1
 75
     1
176
     1
175
     1
176
     1
 42
1.0
176
     1
 92
        0
176
     1
 66
   257
176
     1
 43
1.0
176
     1
 76
     1
176
     1
 77
     6
176
     1
 78
     2
176
     1
 67
     7
176
     1
 79
     5
176
     1
170
     0
176
     1
171
     0
176
     1
290
     0
176
     1
 93
       13
176
     1
 44
0.0
176
     1
173
     0
176
     1
  0
VISUALSTYLE
  5
22E
102
{ACAD_REACTORS
330
22B
102
}
102
{ACAD_XDICTIONARY
360
274
102
}
330
22B
100
AcDbVisualStyle
  2
Gouraud
 70
     2
177
     2
291
     1
 71
     2
176
     1
 72
     2
176
     1
 73
     1
176
     1
 90
        2
176
     1
 40
0.6
176
     1
 41
30.0
176
     1
 62
     5
 63
     7
421
 16777215
176
     1
 74
     0
176
     1
 91
        0
176
     1
 64
     7
176
     1
 65
   257
176
     1
 75
     1
176
     1
175
     1
176
     1
 42
1.0
176
     1
 92
        0
176
     1
 66
     7
176
     1
 43
1.0
176
     1
 76
     1
176
     1
 77
     6
176
     1
 78
     2
176
     1
 67
     7
176
     1
 79
     5
176
     1
170
     0
176
     1
171
     0
176
     1
290
     0
176
     1
 93
       13
176
     1
 44
0.0
176
     1
173
     0
176
     1
  0
VISUALSTYLE
  5
22F
102
{ACAD_REACTORS
330
22B
102
}
102
{ACAD_XDICTIONARY
360
276
102
}
330
22B
100
AcDbVisualStyle
  2
GouraudWithEdges
 70
     3
177
     2
291
     1
 71
     2
176
     1
 72
     2
176
     1
 73
     1
176
     1
 90
        2
176
     1
 40
0.6
176
     1
 41
30.0
176
     1
 62
     5
 63
     7
421
 16777215
176
     1
 74
     1
176
     1
 91
        0
176
     1
 64
     7
176
     1
 65
   257
176
     1
 75
     1
176
     1
175
     1
176
     1
 42
1.0
176
     1
 92
        0
176
     1
 66
   257
176
     1
 43
1.0
176
     1
 76
     1
176
     1
 77
     6
176
     1
 78
     2
176
     1
 67
     7
176
     1
 79
     5
176
     1
170
     0
176
     1
171
     0
176
     1
290
     0
176
     1
 93
       13
176
     1
 44
0.0
176
     1
173
     0
176
     1
  0
VISUALSTYLE
  5
232
102
{ACAD_REACTORS
330
22B
102
}
102
{ACAD_XDICTIONARY
360
27C
102
}
330
22B
100
AcDbVisualStyle
  2
Hidden
 70
     6
177
     2
291
     0
 71
     1
176
     1
 72
     2
176
     1
 73
     2
176
     1
 90
        0
176
     1
 40
0.6
176
     1
 41
30.0
176
     1
 62
     5
 63
     7
421
 16777215
176
     1
 74
     2
176
     1
 91
        2
176
     1
 64
     7
176
     1
 65
   257
176
     1
 75
     2
176
     1
175
     1
176
     1
 42
40.0
176
     1
 92
        0
176
     1
 66
   257
176
     1
 43
1.0
176
     1
 76
     1
176
     1
 77
     6
176
     1
 78
     2
176
     1
 67
     7
176
     1
 79
     3
176
     1
170
     0
176
     1
171
     0
176
     1
290
     0
176
     1
 93
        1
176
     1
 44
0.0
176
     1
173
     0
176
     1
  0
VISUALSTYLE
  5
23C
102
{ACAD_REACTORS
330
22B
102
}
102
{ACAD_XDICTIONARY
360
290
102
}
330
22B
100
AcDbVisualStyle
  2
JitterOff
 70
    20
177
     2
291
     1
 71
     2
176
     0
 72
     2
176
     0
 73
     0
176
     0
 90
        0
176
     0
 40
0.6
176
     0
 41
30.0
176
     0
 62
     5
 63
     7
421
 16777215
176
     0
 74
     1
176
     0
 91
        4
176
     0
 64
     7
176
     0
 65
   257
176
     0
 75
     1
176
     0
175
     1
176
     0
 42
1.0
176
     0
 92
       10
176
     2
 66
     7
176
     0
 43
1.0
176
     0
 76
     1
176
     0
 77
     6
176
     0
 78
     2
176
     0
 67
     7
176
     0
 79
     5
176
     0
170
     0
176
     0
171
     0
176
     0
290
     0
176
     0
 93
        1
176
     0
 44
0.0
176
     0
173
     0
176
     0
  0
VISUALSTYLE
  5
239
102
{ACAD_REACTORS
330
22B
102
}
102
{ACAD_XDICTIONARY
360
28A
102
}
330
22B
100
AcDbVisualStyle
  2
Linepattern
 70
    14
177
     2
291
     1
 71
     2
176
     1
 72
     2
176
     1
 73
     0
176
     1
 90
        0
176
     1
 40
0.6
176
     1
 41
30.0
176
     1
 62
     5
 63
     7
421
 16777215
176
     1
 74
     1
176
     1
 91
        4
176
     1
 64
     7
176
     1
 65
   257
176
     1
 75
     7
176
     1
175
     7
176
     1
 42
1.0
176
     1
 92
        8
176
     1
 66
     7
176
     1
 43
1.0
176
     1
 76
     1
176
     1
 77
     6
176
     1
 78
     2
176
     1
 67
     7
176
     1
 79
     5
176
     1
170
     0
176
     1
171
     0
176
     1
290
     0
176
     1
 93
        1
176
     1
 44
0.0
176
     1
173
     0
176
     1
  0
VISUALSTYLE
  5
23D
102
{ACAD_REACTORS
330
22B
102
}
102
{ACAD_XDICTIONARY
360
292
102
}
330
22B
100
AcDbVisualStyle
  2
OverhangOff
 70
    21
177
     2
291
     1
 71
     2
176
     0
 72
     2
176
     0
 73
     0
176
     0
 90
        0
176
     0
 40
0.6
176
     0
 41
30.0
176
     0
 62
     5
 63
     7
421
 16777215
176
     0
 74
     1
176
     0
 91
        4
176
     0
 64
     7
176
     0
 65
   257
176
     0
 75
     1
176
     0
175
     1
176
     0
 42
1.0
176
     0
 92
        9
176
     2
 66
     7
176
     0
 43
1.0
176
     0
 76
     1
176
     0
 77
     6
176
     0
 78
     2
176
     0
 67
     7
176
     0
 79
     5
176
     0
170
     0
176
     0
171
     0
176
     0
290
     0
176
     0
 93
        1
176
     0
 44
0.0
176
     0
173
     0
176
     0
  0
VISUALSTYLE
  5
234
102
{ACAD_REACTORS
330
22B
102
}
102
{ACAD_XDICTIONARY
360
280
102
}
330
22B
100
AcDbVisualStyle
  2
Realistic
 70
     8
177
     2
291
     0
 71
     2
176
     1
 72
     3
176
     1
 73
     0
176
     1
 90
        2
176
     1
 40
0.6
176
     1
 41
30.0
176
     1
 62
     5
 63
     7
421
 16777215
176
     1
 74
     0
176
     1
 91
        0
176
     1
 64
     7
176
     1
 65
   257
176
     1
 75
     1
176
     1
175
     1
176
     1
 42
1.0
176
     1
 92
        8
176
     1
 66
   257
176
     1
 43
1.0
176
     1
 76
     1
176
     1
 77
     6
176
     1
 78
     2
176
     1
 67
     7
176
     1
 79
     3
176
     1
170
     0
176
     1
171
     0
176
     1
290
     0
176
     1
 93
       13
176
     1
 44
0.0
176
     1
173
     0
176
     1
  0
VISUALSTYLE
  5
243
102
{ACAD_REACTORS
330
22B
102
}
102
{ACAD_XDICTIONARY
360
29E
102
}
330
22B
100
AcDbVisualStyle
  2
Shaded
 70
    27
177
     2
291
     0
 71
     2
176
     1
 72
     2
176
     1
 73
     1
176
     1
 90
        2
176
     1
 40
0.6
176
     1
 41
30.0
176
     1
 62
     5
 63
     7
421
 16777215
176
     1
 74
     0
176
     1
 91
        4
176
     1
 64
     7
176
     1
 65
   257
176
     1
 75
     1
176
     1
175
     1
176
     1
 42
1.0
176
     1
 92
        8
176
     1
 66
   257
176
     1
 43
1.0
176
     1
 76
     1
176
     1
 77
     6
176
     1
 78
     2
176
     1
 67
     8
425
  7895160
176
     1
 79
     3
176
     1
170
     0
176
     1
171
     0
176
     1
290
     0
176
     1
 93
        5
176
     1
 44
0.0
176
     1
173
     0
176
     1
  0
VISUALSTYLE
  5
242
102
{ACAD_REACTORS
330
22B
102
}
102
{ACAD_XDICTIONARY
360
29C
102
}
330
22B
100
AcDbVisualStyle
  2
Shaded with edges
 70
    26
177
     2
291
     0
 71
     2
176
     1
 72
     2
176
     1
 73
     1
176
     1
 90
        2
176
     1
 40
0.6
176
     1
 41
30.0
176
     1
 62
     5
 63
     7
421
 16777215
176
     1
 74
     1
176
     1
 91
       10
176
     1
 64
     7
176
     1
 65
   257
176
     1
 75
     2
176
     1
175
     1
176
     1
 42
1.0
176
     1
 92
        8
176
     1
 66
   257
176
     1
 43
1.0
176
     1
 76
     1
176
     1
 77
     6
176
     1
 78
     2
176
     1
 67
     7
176
     1
 79
     3
176
     1
170
     0
176
     1
171
     0
176
     1
290
     0
176
     1
 93
        5
176
     1
 44
0.0
176
     1
173
     0
176
     1
  0
VISUALSTYLE
  5
23F
102
{ACAD_REACTORS
330
22B
102
}
102
{ACAD_XDICTIONARY
360
296
102
}
330
22B
100
AcDbVisualStyle
  2
Shades of Gray
 70
    23
177
     2
291
     0
 71
     2
176
     1
 72
     2
176
     1
 73
     3
176
     1
 90
        0
176
     1
 40
0.6
176
     1
 41
30.0
176
     1
 62
     5
 63
     7
421
 16777215
176
     1
 74
     2
176
     1
 91
        2
176
     1
 64
     7
176
     1
 65
     7
176
     1
 75
     1
176
     1
175
     1
176
     1
 42
40.0
176
     1
 92
        8
176
     1
 66
     7
176
     1
 43
1.0
176
     1
 76
     1
176
     1
 77
     6
176
     1
 78
     2
176
     1
 67
     7
176
     1
 79
     3
176
     1
170
     0
176
     1
171
     0
176
     1
290
     0
176
     1
 93
        1
176
     1
 44
0.0
176
     1
173
     0
176
     1
  0
VISUALSTYLE
  5
240
102
{ACAD_REACTORS
330
22B
102
}
102
{ACAD_XDICTIONARY
360
298
102
}
330
22B
100
AcDbVisualStyle
  2
Sketchy
 70
    24
177
     2
291
     0
 71
     1
176
     1
 72
     2
176
     1
 73
     2
176
     1
 90
        0
176
     1
 40
0.6
176
     1
 41
30.0
176
     1
 62
     5
 63
     7
421
 16777215
176
     1
 74
     2
176
     1
 91
        2
176
     1
 64
     7
176
     1
 65
     7
176
     1
 75
     1
176
     1
175
     1
176
     1
 42
40.0
176
     1
 92
       11
176
     1
 66
     7
176
     1
 43
1.0
176
     1
 76
     1
176
     1
 77
     6
176
     1
 78
     2
176
     1
 67
     7
176
     1
 79
     6
176
     1
170
     0
176
     1
171
     0
176
     1
290
     0
176
     1
 93
        1
176
     1
 44
0.0
176
     1
173
     0
176
     1
  0
VISUALSTYLE
  5
238
102
{ACAD_REACTORS
330
22B
102
}
102
{ACAD_XDICTIONARY
360
288
102
}
330
22B
100
AcDbVisualStyle
  2
Thicken
 70
    13
177
     2
291
     1
 71
     2
176
     1
 72
     2
176
     1
 73
     0
176
     1
 90
        0
176
     1
 40
0.6
176
     1
 41
30.0
176
     1
 62
     5
 63
     7
421
 16777215
176
     1
 74
     1
176
     1
 91
        4
176
     1
 64
     7
176
     1
 65
   257
176
     1
 75
     1
176
     1
175
     1
176
     1
 42
1.0
176
     1
 92
       12
176
     1
 66
     7
176
     1
 43
1.0
176
     1
 76
     1
176
     1
 77
     6
176
     1
 78
     2
176
     1
 67
     7
176
     1
 79
     5
176
     1
170
     0
176
     1
171
     0
176
     1
290
     0
176
     1
 93
        1
176
     1
 44
0.0
176
     1
173
     0
176
     1
  0
VISUALSTYLE
  5
231
102
{ACAD_REACTORS
330
22B
102
}
102
{ACAD_XDICTIONARY
360
27A
102
}
330
22B
100
AcDbVisualStyle
  2
Wireframe
 70
     5
177
     2
291
     0
 71
     0
176
     1
 72
     2
176
     1
 73
     0
176
     1
 90
        0
176
     1
 40
0.6
176
     1
 41
30.0
176
     1
 62
     5
 63
     7
421
 16777215
176
     1
 74
     1
176
     1
 91
        4
176
     1
 64
     7
176
     1
 65
   257
176
     1
 75
     1
176
     1
175
     1
176
     1
 42
1.0
176
     1
 92
        0
176
     1
 66
   257
176
     1
 43
1.0
176
     1
 76
     1
176
     1
 77
     6
176
     1
 78
     2
176
     1
 67
     7
176
     1
 79
     3
176
     1
170
     0
176
     1
171
     0
176
     1
290
     0
176
     1
 93
        1
176
     1
 44
0.0
176
     1
173
     0
176
     1
  0
VISUALSTYLE
  5
241
102
{ACAD_REACTORS
330
22B
102
}
102
{ACAD_XDICTIONARY
360
29A
102
}
330
22B
100
AcDbVisualStyle
  2
X-Ray
 70
    25
177
     2
291
     0
 71
     2
176
     1
 72
     2
176
     1
 73
     1
176
     1
 90
        1
176
     1
 40
0.5
176
     1
 41
30.0
176
     1
 62
     5
 63
     7
421
 16777215
176
     1
 74
     1
176
     1
 91
        0
176
     1
 64
     7
176
     1
 65
   257
176
     1
 75
     1
176
     1
175
     1
176
     1
 42
1.0
176
     1
 92
        8
176
     1
 66
     7
176
     1
 43
1.0
176
     1
 76
     1
176
     1
 77
     6
176
     1
 78
     2
176
     1
 67
     7
176
     1
 79
     3
176
     1
170
     0
176
     1
171
     0
176
     1
290
     0
176
     1
 93
       13
176
     1
 44
0.0
176
     1
173
     0
176
     1
  0
DICTIONARYVAR
  5
26B
102
{ACAD_REACTORS
330
66
102
}
330
66
100
DictionaryVariables
280
     0
  1
1:1
  0
DICTIONARYVAR
  5
2AA
102
{ACAD_REACTORS
330
66
102
}
330
66
100
DictionaryVariables
280
     0
  1
Standard
  0
DICTIONARYVAR
  5
93
102
{ACAD_REACTORS
330
66
102
}
330
66
100
DictionaryVariables
280
     0
  1
Standard
  0
DICTIONARYVAR
  5
67
102
{ACAD_REACTORS
330
66
102
}
330
66
100
DictionaryVariables
280
     0
  1
2
  0
DICTIONARYVAR
  5
6B
102
{ACAD_REACTORS
330
66
102
}
330
66
100
DictionaryVariables
280
     0
  1
1
  0
DICTIONARYVAR
  5
2AB
102
{ACAD_REACTORS
330
66
102
}
330
66
100
DictionaryVariables
280
     0
  1
0
  0
DICTIONARYVAR
  5
2AC
102
{ACAD_REACTORS
330
66
102
}
330
66
100
DictionaryVariables
280
     0
  1
0
  0
DICTIONARY
  5
2A2
102
{ACAD_REACTORS
330
2A1
102
}
330
2A1
100
AcDbDictionary
281
     1
  0
DICTIONARY
  5
2A3
102
{ACAD_REACTORS
330
2A1
102
}
330
2A1
100
AcDbDictionary
281
     1
  3
8796087840864
350
2A4
  3
8796087840880
350
2A5
  3
8796087840896
350
2A6
  3
8796087840912
350
2A7
  3
8796087840928
350
2A8
  3
8796087840944
350
2A9
  0
DICTIONARY
  5
26C
330
59
100
AcDbDictionary
280
     1
281
     1
  3
ADSK_XREC_LAYOUTTHUMBNAIL
360
26D
  0
DICTIONARY
  5
26E
330
87
100
AcDbDictionary
280
     1
281
     1
  3
ACAD_ROUNDTRIP_2008_TABLESTYLE_CELLSTYLEMAP
360
26F
  0
DICTIONARY
  5
278
330
230
100
AcDbDictionary
280
     1
281
     1
  3
ACAD_XREC_ROUNDTRIP
360
279
  0
DICTIONARY
  5
27E
330
233
100
AcDbDictionary
280
     1
281
     1
  3
ACAD_XREC_ROUNDTRIP
360
27F
  0
DICTIONARY
  5
286
330
237
100
AcDbDictionary
280
     1
281
     1
  3
ACAD_XREC_ROUNDTRIP
360
287
  0
DICTIONARY
  5
28E
330
23B
100
AcDbDictionary
280
     1
281
     1
  3
ACAD_XREC_ROUNDTRIP
360
28F
  0
DICTIONARY
  5
282
330
235
100
AcDbDictionary
280
     1
281
     1
  3
ACAD_XREC_ROUNDTRIP
360
283
  0
DICTIONARY
  5
284
330
236
100
AcDbDictionary
280
     1
281
     1
  3
ACAD_XREC_ROUNDTRIP
360
285
  0
DICTIONARY
  5
294
330
23E
100
AcDbDictionary
280
     1
281
     1
  3
ACAD_XREC_ROUNDTRIP
360
295
  0
DICTIONARY
  5
28C
330
23A
100
AcDbDictionary
280
     1
281
     1
  3
ACAD_XREC_ROUNDTRIP
360
28D
  0
DICTIONARY
  5
270
330
22C
100
AcDbDictionary
280
     1
281
     1
  3
ACAD_XREC_ROUNDTRIP
360
271
  0
DICTIONARY
  5
272
330
22D
100
AcDbDictionary
280
     1
281
     1
  3
ACAD_XREC_ROUNDTRIP
360
273
  0
DICTIONARY
  5
274
330
22E
100
AcDbDictionary
280
     1
281
     1
  3
ACAD_XREC_ROUNDTRIP
360
275
  0
DICTIONARY
  5
276
330
22F
100
AcDbDictionary
280
     1
281
     1
  3
ACAD_XREC_ROUNDTRIP
360
277
  0
DICTIONARY
  5
27C
330
232
100
AcDbDictionary
280
     1
281
     1
  3
ACAD_XREC_ROUNDTRIP
360
27D
  0
DICTIONARY
  5
290
330
23C
100
AcDbDictionary
280
     1
281
     1
  3
ACAD_XREC_ROUNDTRIP
360
291
  0
DICTIONARY
  5
28A
330
239
100
AcDbDictionary
280
     1
281
     1
  3
ACAD_XREC_ROUNDTRIP
360
28B
  0
DICTIONARY
  5
292
330
23D
100
AcDbDictionary
280
     1
281
     1
  3
ACAD_XREC_ROUNDTRIP
360
293
  0
DICTIONARY
  5
280
330
234
100
AcDbDictionary
280
     1
281
     1
  3
ACAD_XREC_ROUNDTRIP
360
281
  0
DICTIONARY
  5
29E
330
243
100
AcDbDictionary
280
     1
281
     1
  3
ACAD_XREC_ROUNDTRIP
360
29F
  0
DICTIONARY
  5
29C
330
242
100
AcDbDictionary
280
     1
281
     1
  3
ACAD_XREC_ROUNDTRIP
360
29D
  0
DICTIONARY
  5
296
330
23F
100
AcDbDictionary
280
     1
281
     1
  3
ACAD_XREC_ROUNDTRIP
360
297
  0
DICTIONARY
  5
298
330
240
100
AcDbDictionary
280
     1
281
     1
  3
ACAD_XREC_ROUNDTRIP
360
299
  0
DICTIONARY
  5
288
330
238
100
AcDbDictionary
280
     1
281
     1
  3
ACAD_XREC_ROUNDTRIP
360
289
  0
DICTIONARY
  5
27A
330
231
100
AcDbDictionary
280
     1
281
     1
  3
ACAD_XREC_ROUNDTRIP
360
27B
  0
DICTIONARY
  5
29A
330
241
100
AcDbDictionary
280
     1
281
     1
  3
ACAD_XREC_ROUNDTRIP
360
29B
  0
XRECORD
  5
2A4
102
{ACAD_REACTORS
330
2A3
102
}
330
2A3
100
AcDbXrecord
280
     1
  1
AcDb_Thumbnail_Schema
102
{ATTRRECORD
341
2A6
  2
AcDbDs::TreatedAsObjectData
280
     1
291
     1
102
ATTRRECORD}
102
{ATTRRECORD
341
2A7
  2
AcDbDs::Legacy
280
     1
291
     1
102
ATTRRECORD}
  2
AcDbDs::ID
280
    10
 91
        8
102
{ATTRRECORD
341
2A8
  2
AcDs:Indexable
280
     1
291
     1
102
ATTRRECORD}
102
{ATTRRECORD
341
2A9
  2
AcDbDs::HandleAttribute
280
     7
282
     1
102
ATTRRECORD}
  2
Thumbnail_Data
280
    15
 91
        0
  0
XRECORD
  5
2A5
102
{ACAD_REACTORS
330
2A3
102
}
330
2A3
100
AcDbXrecord
280
     1
  1
AcDb3DSolid_ASM_Data
102
{ATTRRECORD
341
2A6
  2
AcDbDs::TreatedAsObjectData
280
     1
291
     1
102
ATTRRECORD}
102
{ATTRRECORD
341
2A7
  2
AcDbDs::Legacy
280
     1
291
     1
102
ATTRRECORD}
  2
AcDbDs::ID
280
    10
 91
        8
102
{ATTRRECORD
341
2A8
  2
AcDs:Indexable
280
     1
291
     1
102
ATTRRECORD}
102
{ATTRRECORD
341
2A9
  2
AcDbDs::HandleAttribute
280
     7
282
     1
102
ATTRRECORD}
  2
ASM_Data
280
    15
 91
        0
  0
XRECORD
  5
2A6
102
{ACAD_REACTORS
330
2A3
102
}
330
2A3
100
AcDbXrecord
280
     1
  1
AcDbDs::TreatedAsObjectDataSchema
  2
AcDbDs::TreatedAsObjectData
280
     1
 91
        0
  0
XRECORD
  5
2A7
102
{ACAD_REACTORS
330
2A3
102
}
330
2A3
100
AcDbXrecord
280
     1
  1
AcDbDs::LegacySchema
  2
AcDbDs::Legacy
280
     1
 91
        0
  0
XRECORD
  5
2A8
102
{ACAD_REACTORS
330
2A3
102
}
330
2A3
100
AcDbXrecord
280
     1
  1
AcDbDs::IndexedPropertySchema
  2
AcDs:Indexable
280
     1
 91
        0
  0
XRECORD
  5
2A9
102
{ACAD_REACTORS
330
2A3
102
}
330
2A3
100
AcDbXrecord
280
     1
  1
AcDbDs::HandleAttributeSchema
  2
AcDbDs::HandleAttribute
280
     7
 91
        1
284
     1
  0
XRECORD
  5
26D
102
{ACAD_REACTORS
330
26C
102
}
330
26C
100
AcDbXrecord
280
     1
310
28000000B40000007F00000001000800000000004C59000000000000000000000001000000000000FFFFFF0000000000FFFFFF000000000000000000000000000000000000000000000000000000000000000000330000006600000099000000CC000000FF00000000330000333300006633000099330000CC330000FF3300
310
0000660000336600006666000099660000CC660000FF66000000990000339900006699000099990000CC990000FF99000000CC000033CC000066CC000099CC0000CCCC0000FFCC000000FF000033FF000066FF000099FF0000CCFF0000FFFF000000003300330033006600330099003300CC003300FF003300003333003333
310
33006633330099333300CC333300FF33330000663300336633006666330099663300CC663300FF66330000993300339933006699330099993300CC993300FF99330000CC330033CC330066CC330099CC3300CCCC3300FFCC330000FF330033FF330066FF330099FF3300CCFF3300FFFF330000006600330066006600660099
310
006600CC006600FF00660000336600333366006633660099336600CC336600FF33660000666600336666006666660099666600CC666600FF66660000996600339966006699660099996600CC996600FF99660000CC660033CC660066CC660099CC6600CCCC6600FFCC660000FF660033FF660066FF660099FF6600CCFF6600
310
FFFF660000009900330099006600990099009900CC009900FF00990000339900333399006633990099339900CC339900FF33990000669900336699006666990099669900CC669900FF66990000999900339999006699990099999900CC999900FF99990000CC990033CC990066CC990099CC9900CCCC9900FFCC990000FF99
310
0033FF990066FF990099FF9900CCFF9900FFFF99000000CC003300CC006600CC009900CC00CC00CC00FF00CC000033CC003333CC006633CC009933CC00CC33CC00FF33CC000066CC003366CC006666CC009966CC00CC66CC00FF66CC000099CC003399CC006699CC009999CC00CC99CC00FF99CC0000CCCC0033CCCC0066CC
310
CC0099CCCC00CCCCCC00FFCCCC0000FFCC0033FFCC0066FFCC0099FFCC00CCFFCC00FFFFCC000000FF003300FF006600FF009900FF00CC00FF00FF00FF000033FF003333FF006633FF009933FF00CC33FF00FF33FF000066FF003366FF006666FF009966FF00CC66FF00FF66FF000099FF003399FF006699FF009999FF00CC
310
99FF00FF99FF0000CCFF0033CCFF0066CCFF0099CCFF00CCCCFF00FFCCFF0000FFFF0033FFFF0066FFFF0099FFFF00CCFFFF00FFFFFF00000000000D0D0D001A1A1A00282828003535350043434300505050005D5D5D006B6B6B00787878008686860093939300A1A1A100AEAEAE00BBBBBB00C9C9C900D6D6D600E4E4E400
310
F1F1F100FFFFFF0000000000000000000000000000000000000000000000000000000000000000000000000000000000E2E2E2E2E2E2E2E2E2E2E2E2E2E2E2E2E2E2E2E2E2E2E2E2E2E2E2E2E2E2E2E2E2E2E2E2E2E2E2E2E2E2E2E2E2E2E2E2E2E2E2E2E2E2E2E2E2E2E2E2E2E2E2E2E2E2E2E2E2E2E2E2E2E2E2E2E2E2E2
310
E2E2E2E2E2E2E2E2E2E2E2E2E2E2E2E2E2E2E2E2E2E2E2E2E2E2E2E2E2E2E2E2E2E2E2E2E2E2E2E2E2E2E2E2E2E2E2E2E2E2E2E2E2E2E2E2E2E2E2E2E2E2E2E2E2E2E2E2E2E2E2E2E2E2E2E2E2E2E2E2E2E2E2E2E2E2E2E2E2E2E2E2E2E2E2E2E2E2E2E2E2E2F5F5F5F5F5F5F5F5F5F5F5F5F5F5F5F5F5F5F5F5F5F5F5F5F5
310
F5F5F5F5F5F5F5F5F5F5F5F5F5F5F5F5F5F5F5F5F5F5F5F5F5F5F5F5F5F5F5F5F5F5F5F5F5F5F5F5F5F5F5F5F5F5F5F5F5F5F5F5F5F5F5F5F5F5F5F5F5F5F5F5F5F5F5F5F5F5F5F5F5F5F5F5F5F5F5F5F5F5F5F5F5F5F5F5F5F5F5F5F5F5F5F5F5F5F5F5F5F5F5F5F5F5F5F5F5F5F5F5F5F5F5F5F5F5F5F5F5F5F5F5F5F5F5
310
F5F5F5F5F5F5F5F5F5F5F5F5F5F5F5F5F5F5F5F5F5F5F5F5F5F5E2E2F5F5F5F5F5F5F5F5F5F5F5F5F5F5F5F5F5F5F5F5F5F5F5F5F5F5F5F5F5F5F5F5F5F5F5F5F5F5F5F5F5F5F5F5F5F5F5F5F5F5F5F5F5F5F5F5F5F5F5F5F5F5F5F5F5F5F5F5F5F5F5F5F5F5F5F5F5F5F5F5F5F5F5F5F5F5F5F5F5F5F5F5F5F5F5F5F5F5F5
310
F5F5F5F5F5F5F5F5F5F5F5F5F5F5F5F5F5F5F5F5F5F5F5F5F5F5F5F5F5F5F5F5F5F5F5F5F5F5F5F5F5F5F5F5F5F5F5F5F5F5F5F5F5F5F5F5F5F5F5F5F5F5F5F5F5F5F5F5F5F5F5F5F5F5F5F5F5F5F5E2E2F5F5E2E2E2E2E2E2E2E2F5F5F5F5F5F5F5F5F5E2E2E2E2E2E2E2E2E2E2E2E2E2E2E2E2F5F5F5F5F5F5F5F5F5E2E2
310
E2E2E2E2E2E2E2E2E2E2E2E2E2E2F5F5F5F5F5F5F5F5F5E2E2E2E2E2E2E2E2E2E2E2E2E2E2E2E2F5F5F5F5F5F5F5F5E2E2E2E2E2E2E2E2E2E2E2E2E2E2E2E2F5F5F5F5F5F5F5F5F5E2E2E2E2E2E2E2E2E2E2E2E2E2E2E2E2F5F5F5F5F5F5F5F5F5E2E2E2E2E2E2E2E2E2E2E2E2E2E2E2E2F5F5F5F5F5F5F5F5F5E2E2E2E2E2
310
E2E2E2F5F5E2E2F5F5E2F5F5F5F5F5F5F5F5F5F5F5F5F5F5F5F5F5F5F5F5F5F5F5F5F5F5F5F5F5F5F5F5F5F5F5F5F5F5F5F5F5F5F5F5F5F5F5F5F5F5F5F5F5F5F5F5F5F5F5F5F5F5F5F5F5F5F5F5F5F5F5F5F5F5F5F5F5F5F5F5F5F5F5F5F5F5F5F5F5F5F5F5F5F5F5F5F5F5F5F5F5F5F5F5F5F5F5F5F5F5F5F5F5F5F5F5F5
310
F5F5F5F5F5F5F5F5F5F5F5F5F5F5F5F5F5F5F5F5F5F5F5F5F5F5F5F5F5F5F5F5F5F5F5F5F5F5F5F5F5F5F5F5F5F5F5F5F5F5F5F5F5F5F5E2F5F5E2E2F5F5E2F5F5F5F5F5F5F5F5F5F5F5F5F5F5F5F5F5F5F5F5F5F5F5F5F5F5F5F5F5F5F5F5F5F5F5F5F5F5F5F5F5F5F5F5F5F5F5F5F5F5F5F5F5F5F5F5F5F5F5F5F5F5F5F5
310
F5F5F5F5F5F5F5F5F5F5F5F5F5F5F5F5F5F5F5F5F5F5F5F5F5F5F5F5F5F5F5F5F5F5F5F5F5F5F5F5F5F5F5F5F5F5F5F5F5F5F5F5F5F5F5F5F5F5F5F5F5F5F5F5F5F5F5F5F5F5F5F5F5F5F5F5F5F5F5F5F5F5F5F5F5F5F5F5F5F5F5F5F5F5F5F5F51B1B1B1BF5F5F5F5F5F5F5E2F5F5E2E2F5F5E2F5F5F5F5F5F5F5F5F5F5F5
310
F5F5F5F5F5F5F5F5F5F5F5F5F5F5F5F5F5F5F5F5F5F5F5F5F5F5F5F5F5F5F5F5F5F5F5F5F5F5F5F5F5F5F5F5F5F5F5F5F5F5F5F5F5F5F5F5F5F5F5F5E2E2E2E2E2E2E2E2E2E2E2E2E2E2E2E2E2E2E2E2E2E2E2E2E2E2E2E2E2E2E2E2E2E2F5F5F5F5F5F5F5F5F5F5F5F5F5F5F5F5F5F5F5F5F5F5F5F5F5F5F5F5F5F5F5F5F5
310
F5F5F5F5F5F5F5F5F5F5F5F5F5F5E2E2E2E2E2E2F5F5F51B1B1B1B1BF5F5F5F5F5F5E2F5F5E2E2F5F5E2F5F5F5F5F5F5F5F5F5F5F5F5F5F5F5F5F5F5F5F5F5F5F5F5F5F5F5F5F5F5F5F5F5F5F5F5F5F5F5F5F5F5F5F5F5F5F5F5F5F5F5F5F5F5F5F5F5F5F5F5F5F5F5F5F5F5F5F5F5F5F5E2E2E2E2E2E2E2E2E2E2E2E2E2E2
310
E2E2E2E2E2E2E2E2E2E2E2E2E2E2E2E2E2E2E2E2F5F5F5F5F5F5F5F5F5F5F5F5F5F5F5F5F5F5F5F5F5F5F5F5F5F5F5F5F5F5F5F5F5F5F5F5F5F5F5F5F5F5F5F5F5F5F5E2E2E2E2E2E2E2F5F51B1B1B1B1B1BF5F5F5F5F5E2F5F5E2E2F5F5E2F5F5F5F5F5F5F5F5F5F5F5F5F5F5F5F5F5F5F5F5F5F5F5F5F5F5F5F5F5F5F5F5
310
F5F5F5F5F5F5F5F5F5F5F5F5F5F5F5F5F5F5F5F5F5F5F5F5F5F5F5F5F5F5F5F5F5F5F5F5F5F5F5F5F5F5F5F5F5F5F5F5F5F5F5F5F5F5F5F5F5F5F5F5F5F5F5F5F5F5F5F5F5F5F5F5F5F5F5F5F5F5F5F5F5F5F5F5F5F5F5F5F5F5F5F5F5F5F5F5F5F5F5F5F5F5F5F5F5F5F5F5F5F5F5F5F5F5E2E2E2E2E2E2E2E2E2E2E2E2E2
310
F5F51B1B1B1B1B1BF5F5F5F5F5E2F5F5E2E2F5F5E2F5F5F5F5F5F5F5F5F5F5F5F5F5F5F5F5F5F5F5F5F5F5F5F5F5F5F5F5F5F5F5F5F5F5F5F5F5F5F5F5F5F5F5F5F5F5F5F5F5F5F5F5F5F5F5F5F5F5F5F5F5F5F5F5F5F5F5F5F5F5F5F5F5F5F5F5F5F5F5F5F5F5F5F5F5F5F5F5F5F5F5F5F5F5F5F5F5F5F5F5F5F5F5F5F5F5
310
F5F5F5F5F5F5F5F5F5F5F5F5F5F5F5F5F5F5F5F5F5F5F5F5F5F5F5F5F5F5F5F5F5F5F5F5F5F5F5F51B1B1B1B1B1B1B1B1B1B1B1BF5F5F5F51B1B1B1B1B1B1B1B1BF5E2F5F5E2E2F5F5E2F5F5F5F5F5F5F5F5F5F5F5F5F5F5F5F5F5F5F5F5F5F5F5F5F5F5F5F5F5F5F5F5F5F5F5F5F5F5F5F5F5F5F5F5F5F5F5F5F5F5F5F5F5
310
F5F5F5F5F5F5F5F5F5F5F5F5F5F5F5F5F5F5F5F5F5F5F5F5F5F5F5F5F5F5F5F5F5F5F5F5F5F5F5F5F5F5F5F5F5F5F5F5F5F5F5F5F5F5F5F5F5F5F5F5F5F5F5F5F5F5F5F5F5F5F5F5F5F5F5F5F5F5F5F5F5F5F5F5F5F5F5F5F5F5F5F5F51B1B1B1B1B1B1B1B1B1B1B1B1BF5F5F51B1B1B1B1B1B1B1B1B1BE2F5F5E2E2F5F5F5
310
F5F5F5F5F5F5F5F5F5F5F5F5F5F5F5F5F5F5F5F5F5F5F5F5F5F5F5F5F5F5F5F5F5F5F5F5F5F5F5F5F5F5F5F5F5F5F5F5F5F5F5F5F5F5F5F5F5F5F5F5F5F5F5F5F5F5F5F5F5F5F5F5F5F5F5F5F5F5F5F5F5F5F5F5F5F5F5F5F5F5F5F5F5F5F5F5F5F5F5F5F5F5F5F5F5F5F5F5F5F5F5F5F5F5F5F5F5F5F5F5F5F5F5F5F5F5F5
310
F5F5F5F5F5F5F5F5F5F5F5F5F5F5F5F5F5F5F5E2E2E2E2E2E2E2E2E2E2E2E2E2F5F51B1B1B1B1B1B1B1B1B1BF5F5F5F5E2E2F5F5F5F5F5F5F5F5F5F5F5F5F5F5F5F5F5F5F5F5F5F5F5F5F5F5F5F5F5F5F5F5F5F5F5F5F5F5F5F5F5F5F5F5F5F5F5F5F5F5F5F5F5F5F5F5F5F5F5F5F5F5F5F5F5F5F5F5F5F5F5F5F5F5F5F5F5
310
F5F5F5F5F5F5F5F5F5F5F5F5F5F5F5F5F5F5F5F5F5F5F5F5F5F5F5F5F5F5F5F5F5F5F5F5F5F5F5F5F5F5F5F5F5F5F5F5F5F5F5F5F5F5F5F5F5F5F5F5F5F5F5F5F5F5F5F5F5F5F5F5F5E2E2E2F5E2F5E2F5E2F5E2F5F5F51B1B1B1B1B1B1B1B1B1BF5F5F5F5E2E2F5F5F5F5F5F5F5F5F5F5F5F5F5F5F5F5F5F5F5F5F5F5F5F5
310
F5F5F5F5F5F5F5F5F5F5F5F5F5F5F5F5F5F5F5F5F5F5F5F5F5F5F5F5F5F5F5F5F5F5F5F5F5F5F5F5F5F5F5F5F5F5F5F5F5F5F5F5F5F5F5F5F5F5F5F5F5F5F5F5F5F5F5F5F5F5F5F5F5F5F5F5F5F5F5F5F5F5F5F5F5F5F5F5F5F5F5F5F5F5F5F5F5F5F5F5F5F5F5F5F5F5F5F5F5F5F5F5F5F5F5F5F5F5F5F5F5F5F5F5F5F5E2
310
E2E2E2E2F5E2F5E2F5F5F5F51B1B1B1B1BF5F5F5F5F5F5F5F5F5F5E2E2F5F5F5F5F5F5F5F5F5F5F5F5F5F5F5F5F5F5F5F5F5F5F5F5F5F5F5F5F5F5F5F5F5F5F5F5F5F5F5F5F5F5F5F5F5F5F5F5F5F5F5F5F5F5F5F5F5F5F5F5F5F5F5F5F5F5F5F5F5F5F5F5F5F5F5F5F5F5F5F5F5F5F5F5F5F5F5F5F5F5F5F5F5F5F5F5F5F5
310
F5F5F5F5F5F5F5F5F5F5F5F5F5F5F5F5F5F5F5F5F5F5F5F5F5F5F5F5F5F5F5F5F5F5F5F5F5F5F5F5F5F5F5F5F5F5F5F5F5F5F5F5F5E2F5F5E2F5E2F5E2F5E2F5F51B1B1B1B1BF5F5F5F5F5F5F5F5F5F5E2E2F5F5F5F5F5F5F5F5F5F5F5F5F5F5F5F5F5F5F5F5F5F5F5F5F5F5F5F5F5F5F5F5F5F5F5F5F5F5F5F5F5F5F5F5F5
310
F5F5F5F5F5F5F5F5F5F5F5F5F5F5F5F5F5F5F5F5F5F5F5F5F5F5F5F5F5F5F5F5F5F5F5F5F5F5F5F5F5F5F5F5F5F5F5F5F5F5F5F5F5F5F5F5F5F5F5F5F5F5F5F5F5F5F5F5F5F5F5F5F5F5F5F5F5F5F5F5F5F5F5F5F5F5F5F5F5F5F5F5F5F5F5F5F5F5F5F5F5F5F5F5F5F5E2F5F5E2E2E2F5E2E2E2F5F5F51B1B1BF5F5F5F5F5
310
F5F5F5F5F5F5E2E2F5F5F5F5F5F5F5F5F5F5F5F5F5F5F5F5F5F5F5F5F5F5F5F5F5F5F5F5F5F5F5F5F5F5F5F5F5F5F5F5F5F5F5F5F5F5F5F5F5F5F5F5F5F5F5F5F5F5F5F5F5F5F5F5F5F5F5F5F5F5F5F5F5F5F5F5F5F5F5F5F5F5F5F5F5F5F5F5F5F5F5F5F5F5F5F5F5F5F5F5F5F5F5F5F5F5F5F5F5F5F5F5F5F5F5F5F5F5F5
310
F5F5F5F5F5F5F5F5F5F5F5F5F5F5F5F5F5F5F5F5F5F5F5F5F5F5F5F5F5F5F5F5F5F5F5F5F5F5F5F5F5F5F5F5F5F5F5F5F5F5F5F5F5F5F5F5F5F5F5E2E2F5F5F5F5F5F5F5F5F5F5F5F5F5F5F5F5F5F5F5F5F5F5F5F5F5F5F5F5F5F5F5F5F5F5F5F5F5F5F5F5F5F5F5F5F5F5F5F5F5F5F5F5F5F5F5F5F5F5F5F5F5F5F5F5F5F5
310
F5F5F5F5F5F5F5F5F5F5F5F5F5F5F5F5F5F5F5F5F5F5F5F5F5F5F5F5F5F5F5F5F5F5F5F5F5F5F5F5F5F5F5F5F5F5F5F5F5F5F5F5F5F5F5F5F5F5F5F5F5F5F5F5F5F5F5F5F5F5F5F5F5F5F5F5F5F5F5F5F5F5F5F5F5F5F5F5F5F5F5F5F5F5F5F5F5F5F5F5F5F5F5F5F5F5F5F5F5F5F5F5E2E2F5F5F5F5F5F5F5F5F5F5F5F5F5
310
F5F5F5F5F5F5F5F5F5F5F5F5F5F5F5F5F5F5F5F5F5F5F5F5F5F5F5F5F5F5F5F5F5F5F5F5F5F5F5F5F5F5F5F5F5F5F5F5F5F5F5F5F5F5F5F5F5F5F5F5F5F5F5F5F5F5F5F5F5F5F5F5F5F5F5E2E2E2F5F5F5F5F5F5F5F5F5F5F5F5F5F5F5F5F5F5F5F5F5F5F5F5F5F5F5F5F5F5F5F5F5F5F5F5F5F5F5F5F5F5F5F5F5F5F5F5F5
310
F5F5F5F5F5F5F5F5F5F5F5F5F5F5F5F5F5F5F5F5F5F5F5F5F5F5F5F5F5F5F5F5F5F5F5F5F5F5E2E2F5F5F5F5F5F5F5F5F5F5F5F5F5F5F5F5F5F5F5F5F5F5F5F5F5F5F5F5F5F5F5F5F5F5F5F5F5F5F5F5F5F5F5F5F5F5F5F5F5F5F5F5F5F5F5F5F5F5F5F5F5F5F5F5F5F5F5F5F5F5F5F5F5F5F5F5F5F5F5F5F5F5F5F5F5F5F5
310
F5E2E2E2F5F5F5F5F5F5F5F5F5F5F5F5F5F5F5F5F5F5F5F5F5F5F5F5F5F5F5F5F5F5F5F5F5F5F5F5F5F5F5F5F5F5F5F5F5F5F5F5F5F5F5F5F5F5F5F5F5F5F5F5F5F5F5F5F5F5F5F5F5F5F5F5F5F5F5F5F5F5F5F5F5F5F5F5F5F5F5E2E2F5F5E2F5F5F5F5F5F5F5F5F5F5F5F5F5F5F5F5F5F5F5F5F5F5F5F5F5F5F5F5F5F5F5
310
F5F5F5F5F5F5F5F5F5F5F5F5F5F5F5F5F5F5F5F5F5F5F5F5F5F5F5F5F5F5F5F5F5F5F5F5F5F5F5F5F5F5F5F5F5F5F5F5F5F5F5F5F5F5F5F5F5F5F5F5F5F5F5F5F5F5F5F5F5F5F5F5F5F5F5F5F5F5F5F5F5F5F5F5F5F5F5F5F5F5F5F5F5F5F5F5F5F5F5F5F5F5F5F5F5F5F5F5F5F5F5F5F5F5F5F5F5F5F5F5F5F5F5F5F5F5F5
310
F5F5F5F5F5F5F5F5F5F5F5F5F5F5E2F5F5E2E2F5F5E2F5F5F5F5F5F5F5F5F5F5F5F5F5F5F5F5F5F5F5F5F5F5F5F5F5F5F5F5F5F5F5F5F5F5F5F5F5F5F5F5F5F5F5F5F5F5F5F5F5F5F5F5F5F5F5F5F5F5F5F5F5F5F5F5F5E2E2E2E2E2E2E2E2E2E2E2E2E2E2E2E2E2E2E2E2E2E2E2E2E2E2E2E2E2E2E2E2E2E2E2E2E2E2E2E2
310
E2E2E2E2E2E2F5F5F5F5F5F5F5F5F5F5F5F5F5F5F5F5F5F5F5F5F5F5F5F5F5F5F5F5F5F5F5F5F5F5F5F5F5F5F5F5F5F5F5F5F5F5F5F5F5F5F5F5F5F5F5F5F5F5F5F5F5E2F5F5E2E2F5F5E2F5F5F5F5F5F5F5F5F5F5F5F5F5F5F5F5F5F5F5F5F5F5F5F5F5F5F5F5F5F5F5F5F5F5F5F5F5F5F5F5F5F5F5F5F5F5F5F5F5F5F5F5
310
F5F5F5F5F5F5F5F5F5F5F5F5F5E2E2E2E2E2E2E2E2E2E2E2E2E2E2E2E2E2E2E2E2E2E2E2E2E2E2E2E2E2E2E2E2E2E2E2E2E2E2E2E2E2E2E2E2E2E2F5F5F5F5F5F5F5F5F5F5F5F5F5F5F5F5F5F5F5F5F5F5F5F5F5F5F5F5F5F5F5F5F5F5F5F5F5F5F5F5F5F5F5F5F5F5F5F5F5F5F5F5F5F5F5F5F5F5F5F5F5E2F5F5E2E2F5F5
310
E2F5F5F5F5F5F5F5F5F5F5F5F5F5F5F5F5F5F5F5F5F5F5F5F5F5F5F5F5F5F5F5F5F5F5F5F5F5F5F5F5F5F5F5F5F5F5F5F5F5F5F5F5F5F5F5F5F5F5F5F5F5F5F5F5E2E2E2F5F5F5F5F5F5F5F5F5F5F5F5F5E2E2F5F5F5F5F5F5F5F5F5F5F5F5F5F5F5F5F5F5F5F5F5F5F5F5F5F5F5E2E2F5F5F5F5F5F5F5F5F5F5F5F5F5F5F5
310
F5F5F5F5F5F5F5F5F5F5F5F5F5F5F5F5F5F5F5F5F5F5F5F5F5F5F5F5F5F5F5F5F5F5F5F5F5F5F5F5F5F5F5F5F5F5E2F5F5E2E2F5F5E2F5F5F5F5F5F5F5F5F5F5F5F5F5F5F5F5F5F5F5F5F5F5F5F5F5F5F5F5F5F5F5F5F5F5F5F5F5F5F5F5F5F5F5F5F5F5F5F5F5F5F5F5F5F5F5F5F5F5F5F5F5F5F5F5E2E2E2F5F5F5F5F5F5
310
F5F5F5F5F5F5F5E2E2F5F5F5F5F5F5F5F5F5F5F5F5F5F5F5F5F5F5F5F5F5F5F5F5F5F5F5E2E2F5F5F5F5F5F5F5F5F5F5F5F5F5F5F5F5F5F5F5F5F5F5F5F5F5F5F5F5F5F5F5F5F5F5F5F5F5F5F5F5F5F5F5F5F5F5F5F5F5F5F5F5F5F5F5F5F5F5F5F5F5E2F5F5E2E2F5F5E2F5F5F5F5F5F5F5F5F5F5F5F5F5F5F5F5F5F5F5F5
310
F5F5F5F5F5F5F5F5F5F5F5F5F5F5F5F5F5F5F5F5F5F5F5F5F5F5F5F5F5F5F5F5F5F5F5F5F5F5F5F5F5F5F5F5F5F5F5F5F5F5F5F5F5F5F5F5F5F5F5F5F5F5F5F5F5F5F5F5F5F5F5F5F5F5F5F5F5F5F5F5F5F5F5F5F5F5F5F5F5F5F5F5F5F5F5F5F5F5F5F5F5F5F5F5F5F5F5F5F5F5F5F5F5F5F5F5F5F5F5F5F5F5F5F5F5F5F5
310
F5F5F5F5F5F5F5F5F5F5F5F5F5F5F5F5F5F5F5F5F5F5F5F5F5E2F5F5E2E2F5F5E2F5F5F5F5F5F5F5F5F5F5F5F5F5F5F5F5F5F5F5F5F5F5F5F5F5F5F5F5F5F5F5F5F5F5F5F5F5F5F5F5F5F5F5F5F5F5F5F5F5F5F5F5F5F5F5F5F5F5F5F5F5F5F5F5F5F5F5F5F5F5F5F5F5F5F5F5F5F5F5F5F5F5F5F5F5F5F5F5F5F5F5F5F5F5
310
F5F5F5F5F5F5F5F5F5F5F5F5F5F5F5F5F5F5F5F5F5F5F5F5F5F5F5F5F5F5F5F5F5F5F5F5F5F5F5F5F5F5F5F5F5F5F5F5F5F5F5F5F5F5F5F5F5F5F5F5F5F5F5F5F5F5F5F5F5F5F5F5F5F5F5F5F5F5E2F5F5E2E2F5F5E2F5F5F5F5F5F5F5F5F5F5F5F5F5F5F5F5F5F5F5F5F5F5F5F5F5F5F5F5F5F5F5F5F5F5F5F5F5F5F5F5F5
310
F5F5F5F5F5F5F5F5F5F5F5F5F5F5F5F5F5F5F5F5F5F5F5F5F5F5F5F5F5F5F5F5F5F5F5F5F5F5F5F5F5F5F5F5F5F5F5F5F5F5F5F5F5F5F5F5F5F5F5F5F5F5F5F5F5F5F5F5F5F5F5F5F5F5F5F5F5F5F5F5F5F5F5F5F5F5F5F5F5F5F5F5F5F5F5F5F5F5F5F5F5F5F5F5F5F5F5F5F5F5F5F5F5F5F5F5F5F5F5F5F5F5F5F5F5F5F5
310
F5F5F5F5E2F5F5E2E2F5F5E2F5F5F5F5F5F5F5F5F5F5F5F5F5F5F5F5F5F5F5F5F5F5F5F5F5F5F5F5F5F5F5F5F5F5F5F5F5F5F5F5F5F5F5F5F5F5F5F5F5F5F5F5F5F5F5F5F5F5F5F5F5F5F5F5F5F5F5F5F5F5F5F5F5F5F5F5F5F5F5F5F5F5F5F5F5F5F5F5F5F5F5F5F5F5F5F5F5F5F5F5F5F5F5F5F5F5F5F5F5F5F5F5F5F5F5
310
F5F5F5F5F5F5F5F5F5F5F5F5F5F5F5F5F5F5F5F5F5F5F5F5F5F5F5F5F5F5F5F5F5F5F5F5F5F5F5F5F5F5F5F5F5F5F5F5F5F5F5F5F5F5F5F5F5E2F5F5E2E2F5F5E2F5F5F5F5F5F5F5F5F5F5F5F5F5F5F5F5F5F5F5F5F5F5F5F5F5F5F5F5F5F5F5F5F5F5F5F5F5F5F5F5F5F5F5F5F5F5F5F5F5F5F5F5F5F5F5F5F5F5F5F5F5F5
310
F5F5F5F5F5F5F5F5F5F5F5F5F5F5F5F5F5F5F5F5F5F5F5F5F5F5F5F5F5F5F5F5F5F5F5F5F5F5F5F5F5F5F5F5F5F5F5F5F5F5F5F5F5F5F5F5F5F5F5F5F5F5F5F5F5F5F5F5F5F5F5F5F5F5F5F5F5F5F5F5F5F5F5F5F5F5F5F5F5F5F5F5F5F5F5F5F5F5F5F5F5F5F5F5F5F5F5F5F5F5E2F5F5E2E2F5F5E2F5F5F5F5F5F5F5F5F5
310
F5F5F5F5F5F5F5F5F5F5F5F5F5F5F5F5F5F5F5F5F5F5F5F5F5F5F5F5F5F5F5F5F5F5F5F5F5F5F5F5F5F5F5F5F5F5F5F5F5F5F5F5F5F5F5F5F5F5F5F5F5F5F5F5F5F5F5F5F5F5F5F5F5F5F5F5F5F5F5F5F5F5F5F5F5F5F5F5F5F5F5F5F5F5F5F5F5F5F5F5F5F5F5F5F5F5F5F5F5F5F5F5F5F5F5F5F5F5F5F5F5F5F5F5F5F5F5
310
F5F5F5F5F5F5F5F5F5F5F5F5F5F5F5F5F5F5F5F5F5F5F5F5F5F5F5F5F5F5F5F5F5F5F5F5E2F5F5E2E2F5F5E2F5F5F5F5F5F5F5F5F5F5F5F5F5F5F5F5F5F5F5F5F5F5F5F5F5F5F5F5F5F5F5F5F5F5F5F5F5F5F5F5F5F5F5F5F5F5F5F5F5F5F5F5F5F5F5F5F5F5F5F5F5F5F5F5F5F5F5F5F5F5F5F5F5F5F5F5F5F5F5F5F5F5F5
310
F5F5F5F5F5F5F5F5F5F5F5F5F5F5F5F5F5F5F5F5F5F5F5F5F5F5F5F5F5F5F5F5F5F5F5F5F5F5F5F5F5F5F5F5F5F5F5F5F5F5F5F5F5F5F5F5F5F5F5F5F5F5F5F5F5F5F5F5F5F5F5F5F5F5F5F5F5F5F5F5F5F5F5F5F5F5F5F5F5E2F5F5E2E2F5F5E2F5F5F5F5F5F5F5F5E2E2E2E2E2E2E2E2E2E2E2E2E2E2E2E2E2E2E2E2E2E2
310
E2E2E2E2E2E2E2E2E2E2E2E2E2E2E2E2E2E2E2E2E2E2E2E2E2E2E2E2E2E2E2E2E2E2E2E2E2E2E2E2E2E2E2E2E2E2E2F5F5F5F5F5F5F5F5F5F5F5F5F5F5F5F5F5F5F5F5F5F5F5F5F5F5F5F5F5F5F5F5F5F5F5F5F5F5F5F5F5F5F5F5F5F5F5F5F5F5F5F5F5F5F5F5F5F5F5F5F5F5F5F5F5F5F5F5F5F5F5F5F5F5F5F5F5F5F5F5
310
F5F5F5F5F5F5F5F5F5F5F5F5F5F5F5E2F5F5E2E2F5F5E2F5F5F5F5F5F5F5F5E2E2E2E2E2E2E2E2E2E2E2E2E2E2E2E2E2E2E2E2E2E2E2E2E2E2E2E2E2E2E2E2E2E2E2E2E2E2E2E2E2E2E2E2E2E2E2E2E2E2E2E2E2E2E2E2E2E2E2E2E2E2E2E2E2E2E2E2E2F5F5F5F5F5F5F5F5F5F5F5F5F5F5F5F5F5F5F5F5F5F5F5F5F5F5F5
310
F5F5F5F5F5F5F5F5F5F5F5F5F5F5F5F5F5F5F5F5F5F5F5F5F5F5F5F5F5F5F5F5F5F5F5F5F5F5F5F5F5F5F5F5F5F5F5F5F5F5F5F5F5F5F5F5F5F5F5F5F5F5F5F5F5F5F5F5E2F5F5E2E2F5F5E2F5F5F5F5F5F5F5F5E2E2E2E2E2E2E2E2E2E2E2E2E2E2E2E2E2E2E2E2E2E2E2E2E2E2E2E2E2E2E2E2E2E2E2E2E2E2E2E2E2E2E2
310
E2E2E2E2E2E2E2E2E2E2E2E2E2E2E2E2E2E2E2E2E2E2E2E2E2E2F5F5F5F5F5F5F5F5F5F5F5F5F5F5F5F5F5F5F5F5F5F5F5F5F5F5F5F5F5F5F5F5F5F5F5F5F5F5F5F5F5F5F5F5F5F5F5F5F5F5F5F5F5F5F5F5F5F5F5F5F5F5F5F5F5F5F5F5F5F5F5F5F5F5F5F5F5F5F5F5F5F5F5F5F5F5F5F5F5F5F5F5F5F5F5E2F5F5E2E2F5
310
F5F5F5F5F5F5F5F5F5F5F5F5F5F5F5F5F5F5F5F5F5F5F5F5F5F5F5F5F5F5F5F5F5F5F5F5F5F5F5F5F5F5F5F5F5F5F5F5F5F5F5F5F5F5F5F5F5F5F5F5F5F5F5F5F5F5F5F5F5F5F5F5F5F5F5F5F5F5F5F5F5F5F5F5F5F5F5F5F5F5F5F5F5F5F5F5F5F5F5F5F5F5F5F5F5F5F5F5F5F5F5F5F5F5F5F5F5F5F5F5F5F5F5F5F5F5F5
310
F5F5F5F5F5F5F5F5F5F5F5F5F5F5F5F5F5F5F5F5F5F5F5F5F5F5F5F5F5F5F5F5F5F5F5F5F5F5F5F5F5F5F5F5F5F5F5F5F5F5E2E2F5F5F5F5F5F5F5F5F5F5F5F5F5F5F5F5F5F5F5F5F5F5F5F5F5F5F5F5F5F5F5F5F5F5F5F5F5F5F5F5F5F5F5F5F5F5F5F5F5F5F5F5F5F5F5F5F5F5F5F5F5F5F5F5F5F5F5F5F5F5F5F5F5F5F5
310
F5F5F5F5F5F5F5F5F5F5F5F5F5F5F5F5F5F5F5F5F5F5F5F5F5F5F5F5F5F5F5F5F5F5F5F5F5F5F5F5F5F5F5F5F5F5F5F5F5F5F5F5F5F5F5F5F5F5F5F5F5F5F5F5F5F5F5F5F5F5F5F5F5F5F5F5F5F5F5F5F5F5F5F5F5F5F5F5F5F5F5F5F5F5F5F5F5F5F5F5F5F5F5E2E2F5F5F5F5F5F5F5F5F5F5F5F5F5F5F5F5F5F5F5F5F5F5
310
F5F5F5F5F5F5F5F5F5F5F5F5F5F5F5F5F5F5F5F5F5F5F5F5F5F5F5F5F5F5F5F5F5F5F5F5F5F5F5F5F5F5F5F5F5F5F5F5F5F5F5F5F5F5F5F5F5F5F5F5F5F5F5F5F5F5F5F5F5F5F5F5F5F5F5F5F5F5F5F5F5F5F5F5F5F5F5F5F5F5F5F5F5F5F5F5F5F5F5F5F5F5F5F5F5F5F5F5F5F5F5F5F5F5F5F5F5F5F5F5F5F5F5F5F5F5F5
310
F5F5F5F5F5F5F5F5F5F5F5F5F5F5F5F5F5F5F5F5F5F5F5F5F5F5F5F5F5E2E2F5F5F5F5F5F5F5F5F5F5F5F5F5F5F5F5F5F5F5F5F5F5F5F5F5F5F5F5F5F5F5F5F5F5F5F5F5F5F5F5F5F5F5F5F5F5F5F5F5F5F5F5F5F5F5F5F5F5F5F5F5F5F5F5F5F5F5F5F5F5F5F5F5F5F5F5F5F5F5F5F5F5F5F5F5F5F5F5F5F5F5F5F5F5F5F5
310
F5F5F5F5F5F5F5F5F5F5F5F5F5F5F5F5F5F5F5F5F5F5F5F5F5F5F5F5F5F5F5F5F5F5F5F5F5F5F5F5F5F5F5F5F5F5F5F5F5F5F5F5F5F5F5F5F5F5F5F5F5F5F5F5F5F5F5F5F5F5F5F5F5F5F5F5F5F5F5F5F5F5E2E2F5F5F5F5F5F5F5F5F5F5F5F5F5F5F5F5F5F5F5F5F5F5F5F5F5F5F5F5F5F5F5F5F5F5F5F5F5F5F5F5F5F5F5
310
F5F5F5F5F5F5F5F5F5F5F5F5F5F5F5F5F5F5F5F5F5F5F5F5F5F5F5F5F5F5F5F5F5F5F5F5F5F5F5F5F5F5F5F5F5F5F5F5F5F5F5F5F5F5F5F5F5F5F5F5F5F5F5F5F5F5F5F5F5F5F5F5F5F5F5F5F5F5F5F5F5F5F5F5F5F5F5F5F5F5F5F5F5F5F5F5F5F5F5F5F5F5F5F5F5F5F5F5F5F5F5F5F5F5F5F5F5F5F5F5F5F5F5F5F5F5F5
310
F5F5F5F5F5F5F5F5E2E2F5F5F5F5F5F5F5F5F5F5F5F5F5F5F5F5F5F5F5F5F5F5F5F5F5F5F5F5F5F5F5F5F5F5F5F5F5F5F5F5F5F5F5F5F5F5F5F5F5F5F5F5F5F5F5F5F5F5F5F5F5F5F5F5F5F5F5F5F5F5F5F5F5F5F5F5F5F5F5F5F5F5F5F5F5F5F5F5F5F5F5F5F5F5F5F5F5F5F5F5F5F5F5F5F5F5F5F5F5F5F5F5F5F5F5F5F5
310
F5F5F5F5F5F5F5F5F5F5F5F5F5F5F5F5F5F5F5F5F5F5F5F5F5F5F5F5F5F5F5F5F5F5F5F5F5F5F5F5F5F5F5F5F5F5F5F5F5F5F5F5F5F5F5F5F5F5F5F5F5E2E2F5F5F5F5F5F5F5F5F5F5F5F5F5F5F5F5F5F5F5F5F5F5F5F5F5F5F5F5F5F5F5F5F5F5F5F5F5E2E2E2E2E2E2E2E2E2F5F5F5F5F5F5F5F5F5F5F5F5F5F5F5F5F5F5
310
F5F5F5F5F5F5F5F5F5F5F5F5F5F5F5F5F5F5F5F5F5F5F5F5F5F5F5F5F5F5F5E2E2E2E2E2E2E2E2F5F5F5F5F5F5F5F5F5F5F5F5F5F5F5F5F5F5F5F5F5F5F5F5F5F5F5F5F5F5F5F5F5F5F5F5F5F5F5F5F5F5F5F5F5F5F5F5F5F5F5F5F5F5F5F5F5F5F5F5F5F5F5F5F5F5F5F5F5F5F5F5F5F5F5E2E2F5F5F5F5F5F5F5F5F5F5F5
310
F5F5F5F5F5F5F5F5F5F5F5F5F5F5F5F5F5F5F5F5F5F5F5F5F5F5E2E2E2E2E2E2E2E2E2F5F5F5F5F5F5F5F5F5F5F5F5F5F5F5F5F5F5F5F5F5F5F5F5F5F5F5F5F5F5F5F5F5F5F5F5F5F5F5F5F5F5F5F5F5F5F5F5F5E2E2E2E2E2E2E2E2F5F5F5F5F5F5F5F5F5F5F5F5F5F5F5F5F5F5F5F5F5F5F5F5F5F5F5F5F5F5F5F5F5F5F5
310
F5F5F5F5F5F5F5F5F5F5F5F5F5F5F5F5F5F5F5F5F5F5F5F5F5F5F5F5F5F5F5F5F5F5F5F5F5F5F5F5E2E2F5F5F5F5F5F5F5F5F5F5F5F5F5F5F5F5F5F5F5BEBEBEBEBEBEBEBEBEBEBEBEBEBEBEBEBEBEE2E2E2E2E2E2E2E2E2BEBEBEBEBEBEBEBEBEBEBEBEBEBEBEBEBEBEBEBEBEBEBEBEBEBEBEBEBEBEBEBEBEBEBEBEBEBEBE
310
BEBEBEBEBEBEBEBEBEBEE2E2E2E2E2E2E2E2BEBEBEBEBEBEBEBEBEBEBEBEBEBEBEBEBEBEBEBEBEBEBEBEBEBEBEBEBEBEBEBEBEBEBEBEBEBEBEBEBEBEBEBEBEBEBEBEBEBEBEBEBEBEBEBEBEBEBEBEBEBEF5F5F5F5F5F5F5F5F5F5F5F5F5E2E2F5F5E2F5F5F5F5F5F5F5F5F5F5F5F5F5F5F5F5BEF5F5F5F5F5F5F5F5F5F5F5F5
310
F5F5F5F5F5F5F5F5F5F5F5F5F5F5F5F5F5F5F5F5F5F5F5F5F5F5F5F5F5F5F5F5F5F5F5F5F5F5F5F5F5F5F5F5F5F5F5F5F5F5F5F5F5F5F5F5F5F5F5F5F5F5F5F5F5F5F5F5F5F5F5F5F5F5F5F5F5F5F5F5F5F5F5F5F5F5F5F5F5F5F5F5F5F5F5F5F5F5F5F5F5F5F5F5F5F5F5F5F5F5F5F5F5F5F5F5F5F5F5F5F5F5F5F5F5F5F5
310
F5F5F5F5F5BEF5F5F5F5F5F5F5F5F5F5E2F5F5E2E2F5F5E2F5F5F5F5F5F5F5F5F5F5F5F5F5F5F5F5BEF5F5F5F5F5F5F5F5F5F5F5F5F5F5F5F5F5F5F5F5F5F5F5F5F5F5F5F5F5F5F5F5F5F5F5F5F5F5F5F5F5F5F5F5F5F5F5F5F5F5F5F5F5F5F5F5F5F5F5F5F5F5F5F5F5F5F5F5F5F5F5F5F5F5F5F5F5F5F5F5F5F5F5F5F5F5
310
F5F5F5F5F5F5F5F5F5F5F5F5F5F5F5F5F5F5F5F5F5F5F5F5F5F5F5F5F5F5F5F5F5F5F5F5F5F5F5F5F5F5F5F5F5F5F5F5F5F5F5F5F5F5F5F5F5F5BEF5F5F5F5F5F5F5F5F5F5E2F5F5E2E2F5F5E2F5F5F5F5F5F5F5F5F5F5F5F5F5F5F5F5BEF5F5F5F5F5F5F5F5F5F5F5F5F5F5F5F5F5F5F5F5F5F5F5F5F5F5F5F5F5F5E2E2E2
310
F5F5F5F5F5F5F5F5F5F5F5F5F5F5F5F5F5F5F5F5F5F5F5F5F5F5F5F5F5F5F5F5F5F5F5F5F5F5F5F5F5F5F5F5F5F5F5F5E2E2E2E2E2E2F5F5F5F5F5F5F5F5F5F5F5F5F5F5F5F5F5F5F5F5F5F5F5F5F5F5F5F5F5F5F5F5F5F5F5F5F5F5F5F5F5F5F5F5F5F5F5F5F5F5F5F5F5F5F5F5F5BEF5F5F5F5F5F5F5F5F5F5E2F5F5E2E2
310
F5F5E2F5F5F5F5F5F5F5F5F5F5F5F5F5F5F5F5BEF5F5F5F5F5F5F5F5F5F5F5F5F5F5F5F5F5F5F5F5F5F5F5F5F5F5E2E2E2E2F5F5F5E2E2E2F5F5F5F5F5F5F5F5F5F5F5F5F5F5F5F5F5F5F5F5F5F5F5F5F5F5F5F5F5F5F5F5F5F5F5F5F5F5F5F5F5F5F5F5F5E2E2E2E2E2E2F5F5F5F5F5F5F5F5F5F5F5F5F5F5F5F5F5F5F5F5
310
F5F5F5F5F5F5F5F5F5F5F5F5F5F5F5F5F5F5F5F5F5F5F5F5F5F5F5F5F5F5F5F5F5F5F5F5F5BEF5F5F5F5F5F5F5F5F5F5E2F5F5E2E2F5F5E2F5F5F5F5F5F5F5F5F5F5F5F5F5F5F5F5BEF5F5F5F5F5F5F5F5F5F5F5F5F5F5F5F5F5F5F5F5F5F5F5F5E2E2F5F5F5F5F5F5F5F5F5F5E2E2F5F5F5F5F5F5F5F5F5F5F5F5F5F5F5F5
310
F5F5F5F5F5F5F5F5F5F5F5F5F5F5F5F5F5F5F5F5F5F5F5F5F5F5F5E2E2E2E2E2E2F5F5F5F5F5F5F5F5F5F5F5F5F5F5F5F5F5F5F5F5F5F5F5F5F5F5F5F5F5F5F5F5F5F5F5F5F5F5F5F5F5F5F5F5F5F5F5F5F5F5F5F5F5F5F5F5F5BEF5F5F5F5F5F5F5F5F5F5E2F5F5E2E2F5F5E2F5F5F5F5F5F5F5F5F5F5F5F5F5F5F5F5BEF5
310
F5F5F5F5F5F5F5F5F5F5F5F5F5F5F5F5F5F5F5F5F5F5E2E2F5F5F5F5F5F5F5F5F5F5F5F5F5E2F5F5F5F5F5F5F5F5F5F5F5F5F5F5F5F5F5F5F5F5F5F5F5F5F5F5F5F5F5F5F5F5F5F5F5F5F5F5F5F5F5F5F5F5F5E2F5F5F5F5F5F5F5F5F5F5F5F5F5F5F5F5F5F5F5F5F5F5F5F5F5F5F5F5F5F5F5F5F5F5F5F5F5F5F5F5F5F5F5
310
F5F5F5F5F5F5F5F5F5F5F5F5F5F5F5F5BEF5F5F5F5F5F5F5F5F5F5E2F5F5E2E2F5F5E2F5F5F5F5F5F5F5F5F5F5F5F5F5F5F5F5BEF5F5F5F5F5F5F5F5F5F5F5F5F5F5F5F5F5F5F5F5F5F5F5E2F5F5F5F5F5F5F5F5F5F5F5F5F5F5F5E2F5F5F5F5F5F5F5F5F5F5F5F5F5F5F5F5F5F5F5F5F5F5F5F5F5F5F5F5F5F5F5F5F5F5F5
310
F5F5F5F5F5F5F5F5F5E2F5F5F5F5F5F5F5F5F5F5F5F5F5F5F5F5F5F5F5F5F5F5F5F5F5F5F5F5F5F5F5F5F5F5F5F5F5F5F5F5F5F5F5F5F5F5F5F5F5F5F5F5F5F5F5F5F5F5F5BEF5F5F5F5F5F5F5F5F5F5E2F5F5E2E2F5F5E2F5F5F5F5F5F5F5F5F5F5F5F5F5F5F5F5BEF5F5F5F5F5F5F5F5F5F5F5F5F5F5F5F5F5F5F5F5F5F5
310
E2F5F5F5F5F5F5F5F5F5F5F5F5F5F5F5F5E2F5F5F5F5F5F5F5F5F5F5F5F5F5F5F5F5F5F5F5F5F5F5F5F5F5F5F5F5F5F5F5F5F5F5F5F5F5F5F5F5F5F5F5F5E2E2E2E2E2F5F5F5F5F5F5F5F5F5F5F5F5F5F5F5F5F5F5F5F5F5F5F5F5F5F5F5F5F5F5F5F5F5F5F5F5F5F5F5F5F5F5F5F5F5F5F5F5F5F5F5F5F5F5F5BEF5F5F5F5
310
F5F5F5F5F5F5E2F5F5E2E2F5F5E2F5F5F5F5F5F5F5F5F5F5F5F5F5F5F5F5BEF5F5F5F5F5F5F5F5F5F5F5F5F5F5F5F5F5F5F5F5F5F5E2F5F5F5F5F5F5F5F5F5F5F5F5F5F5F5F5F5E2F5F5F5F5F5F5F5F5F5F5F5F5F5F5F5F5F5F5F5F5F5F5F5F5F5F5F5F5F5F5F5F5F5F5F5E2E2E2E2E2E2E2E2F5F5F5F5F5E2E2E2E2F5F5F5
310
F5F5F5F5F5F5F5F5F5F5F5F5F5F5F5F5F5F5F5F5F5F5F5F5F5F5F5F5F5F5F5F5F5F5F5F5F5F5F5F5F5F5F5F5F5F5F5F5BEF5F5F5F5F5F5F5F5F5F5E2F5F5E2E2F5F5E2F5F5F5F5F5F5F5F5F5F5F5F5F5F5F5F5BEF5F5F5F5F5F5F5F5F5F5F5F5F5F5F5F5F5F5F5F5F5E2F5F5F5F5F5F5F5F5F5F5F5F5F5F5F5F5F5F5E2F5F5
310
F5F5F5F5F5F5F5F5F5F5F5F5F5F5F5F5F5F5F5F5F5F5F5F5F5F5F5F5F5F5F5F5E2F5F5F5F5F5F5F5F5F5F5F5F5F5F5F5F5F5E2F5F5F5F5F5F5F5F5F5F5E2E2E2E2E2E2F5F5F5F5F5F5F5F5F5F5F5F5F5F5F5F5F5F5F5F5F5F5F5F5F5F5F5F5F5F5F5F5F5F5BEF5F5F5F5F5F5F5F5F5F5E2F5F5E2E2F5F5E2F5F5F5F5F5F5F5
310
F5F5F5F5F5F5F5F5F5BEF5F5F5F5F5F5F5F5F5F5F5F5F5F5F5F5F5F5F5F5F5E2F5F5F5F5F5F5F5F5F5F5F5F5F5F5F5F5F5F5E2F5F5F5F5F5F5F5F5F5F5F5F5F5F5F5F5F5F5F5F5F5F5F5F5F5F5F5F5F5F5F5F5F5F5E2F5F5F5F5F5F5F5F5F5F5F5F5F5F5F5F5F5E2E2F5F5F5F5F5F5F5F5F5E2E2E2E2E2E2F5F5F5F5F5F5F5
310
F5F5F5F5F5F5F5F5F5F5F5F5F5F5F5F5F5F5F5F5F5F5F5F5F5F5F5BEF5F5F5F5F5F5F5F5F5F5E2F5F5E2E2F5F5E2F5F5F5F5F5F5F5F5F5F5F5F5F5F5F5F5BEF5F5F5F5F5F5F5F5F5F5F5F5F5F5F5F5F5F5F5F5F5E2F5F5F5F5F5F5F5F5F5F5F5F5F5F5F5F5F5F5E2F5F5F5F5F5F5F5F5F5F5F5F5F5F5F5F5F5F5F5F5F5F5F5
310
F5F5F5F5F5F5F5F5F5F5F5E2F5F5F5F5F5F5F5F5F5F5F5F5F5F5F5F5F5F5E2E2F5F5F5F5F5F5F5F5F5F5F5E2F5F5F5F5F5F5F5F5F5F5F5F5F5F5F5F5F5F5F5F5F5F5F5F5F5F5F5F5F5F5F5F5F5F5F5F5BEF5F5F5F5F5F5F5F5F5F5E2F5F5E2E2F5F5E2F5F5F5F5F5F5F5F5F5F5F5F5F5F5F5F5BEF5F5F5F5F5F5F5F5F5F5F5
310
F5F5F5F5F5F5F5F5F5F5E2F5F5F5F5F5F5F5F5F5F5F5F5F5F5F5F5F5F5E2F5F5F5F5F5F5F5F5F5F5F5F5F5F5F5F5F5F5F5F5F5F5F5F5F5F5F5F5F5F5F5F5F5F5E2F5F5F5F5F5F5F5F5F5F5F5F5F5F5F5F5F5F5F5F5E2F5F5F5F5F5F5F5F5F5F5E2F5F5F5F5F5F5F5F5F5F5F5F5F5F5F5F5F5F5F5F5F5F5F5F5F5F5F5F5F5F5
310
F5F5F5F5F5F5BEF5F5F5F5F5F5F5F5F5F5E2F5F5E2E2F5F5E2F5F5F5F5F5F5F5F5F5F5F5F5F5F5F5F5BEF5F5F5F5F5F5F5F5F5F5F5F5F5F5F5F5F5F5F5F5F5E2F5F5F5F5F5F5F5F5F5F5F5F5F5F5F5F5F5F5F5E2F5F5F5F5F5F5F5F5F5F5F5F5F5F5F5F5F5F5F5F5F5F5F5F5F5F5F5F5F5F5F5F5F5E2F5F5F5F5F5F5F5F5F5
310
F5F5F5F5F5F5F5F5F5F5F5E2F5F5F5F5F5F5F5F5F5F5E2F5F5F5F5F5F5F5F5F5F5F5F5F5F5F5F5F5F5F5F5F5F5F5F5E2F5F5E2F5F5F5F5F5F5F5F5BEF5F5F5F5F5F5F5F5F5F5E2F5F5E2E2F5F5E2F5F5F5F5F5F5F5F5F5F5F5F5F5F5F5F5BEF5F5F5F5F5F5F5F5F5F5F5F5F5F5F5F5F5F5F5F5F5E2F5F5F5F5F5F5E2E2E2E2
310
E2E2F5F5F5F5F5F5F5E2F5F5F5F5E2E2E2E2E2E2F5F5F5F5F5F5F5F5F5F5F5F5F5F5F5F5F5F5F5F5F5F5F5E2F5F5F5F5F5F5F5F5F5F5F5F5F5F5F5F5F5F5F5F5F5E2F5F5F5F5F5F5E2E2E2E2E2E2E2E2E2F5F5F5F5F5F5F5F5F5F5F5F5F5F5F5F5F5F5F5E2F5E2F5F5F5F5F5F5F5F5F5BEF5F5F5F5F5F5F5F5F5F5E2F5F5E2
310
E2F5F5E2F5F5F5F5F5F5F5F5F5F5F5F5F5F5F5F5BEF5F5F5F5F5F5F5F5F5F5F5F5F5F5F5F5F5F5F5F5F5E2F5F5F5F5F5F5E2E2E2E2E2E2F5F5F5F5F5F5F5E2E2E2E2E2E2E2E2E2E2E2F5F5F5F5F5F5F5F5F5F5F5F5F5F5F5F5F5F5F5F5F5F5F5E2F5F5F5F5F5F5F5F5F5F5F5F5F5F5F5F5F5F5F5F5F5E2F5F5F5F5E2E2F5F5
310
F5F5F5F5F5F5F5E2E2F5F5F5F5F5F5F5F5F5F5F5F5F5F5F5F5F5F5E2E2F5F5F5F5F5F5F5F5F5BEF5F5F5F5F5F5F5F5F5F5E2F5F5E2E2F5F5F5F5F5F5F5F5F5F5F5F5F5F5F5F5F5F5F5BEF5F5F5F5F5F5F5F5F5F5F5F5F5F5F5F5F5F5F5F5E2F5F5F5F5F5F5F5E2E2E2E2E2E2F5F5F5F5F5F5F5E2F5F5F5F5E2E2E2E2E2E2F5
310
F5F5F5F5F5F5F5F5F5F5F5F5F5F5F5F5F5F5F5F5F5F5E2F5F5F5F5F5F5F5F5F5F5F5F5F5F5F5F5F5F5F5F5F5E2F5F5F5E2F5F5F5F5F5F5F5F5F5F5F5F5E2F5E2E2E2E2E2E2E2E2E2E2E2E2E2E2E2E2E2E2E2E2E2E2E2E2E2F5F5F5BEF5F5F5F5F5F5F5F5F5F5F5F5F5E2E2F5F5F5F5F5F5F5F5F5F5F5F5F5F5F5F5F5F5F5BE
310
F5F5F5F5F5F5F5F5F5F5F5F5F5F5F5F5F5F5F5F5E2F5F5F5F5F5F5F5F5F5F5F5F5F5F5F5F5F5F5F5F5F5E2F5F5F5F5F5F5F5F5F5F5F5F5F5F5F5F5F5F5F5F5F5F5F5F5F5F5F5F5F5F5F5F5E2F5F5F5F5F5F5F5F5F5F5F5F5F5F5F5F5F5F5F5F5F5F5E2E2E2F5F5F5F5F5F5F5F5F5F5F5F5F5E2E2F5F5F5E2F5F5F5F5F5F5F5
310
F5F5F5E2E2E2E2E2E2E2E2E2E2E2F5F5F5BEF5F5F5F5F5F5F5F5F5F5F5F5F5E2E2F5F5F5F5F5F5F5F5F5F5F5F5F5F5F5F5F5F5F5BEF5F5F5F5F5F5F5F5F5F5F5F5F5F5F5F5F5F5F5F5E2F5F5F5F5F5F5F5F5F5F5F5F5F5F5F5F5F5F5F5F5F5E2F5F5F5F5F5F5F5F5F5F5F5F5F5F5F5F5F5F5F5F5F5F5F5F5F5F5F5F5F5F5F5
310
F5E2F5F5F5F5F5F5F5F5F5F5F5F5F5F5F5F5F5F5F5F5F5F5E2F5F5F5F5F5F5F5F5F5F5F5F5F5F5F5E2F5F5F5F5E2F5F5F5F5F5F5F5F5F5F5E2E2E2E2E2E2E2E2E2E2E2F5F5F5BEF5F5F5F5F5F5F5F5F5F5F5F5F5E2E2F5F5F5F5F5F5F5F5F5F5F5F5F5F5F5F5F5F5F5BEF5F5F5F5F5F5F5F5F5F5F5F5F5F5F5F5F5F5F5F5E2
310
F5F5F5F5F5F5F5F5F5F5F5F5F5F5F5F5F5F5F5F5F5E2F5F5F5F5F5F5F5F5F5F5F5F5F5F5F5F5F5F5F5F5F5F5F5F5F5F5F5F5F5F5F5E2F5F5F5F5F5F5F5F5F5F5F5F5F5F5F5F5F5F5F5F5F5F5F5E2F5F5F5F5F5F5F5F5F5F5F5F5F5F5F5E2F5F5F5F5E2F5F5F5F5F5F5F5F5F5F5F5F5F5F5F5F5F5F5F5F5F5F5F5F5BEF5F5F5
310
F5F5F5F5F5F5F5F5F5F5E2E2F5F5F5F5F5F5F5F5F5F5F5F5F5F5F5F5F5F5F5BEF5F5F5F5F5F5F5F5F5F5F5F5F5F5F5F5F5F5F5F5E2F5F5F5F5F5F5F5F5F5F5F5F5F5F5F5F5F5F5F5F5F5E2F5F5F5F5F5F5F5F5F5F5F5F5F5F5F5F5F5F5F5F5F5F5F5F5F5F5F5F5F5F5F5E2F5F5F5F5F5F5E2E2E2E2E2E2F5F5F5F5F5F5F5F5
310
F5F5F5E2F5F5F5F5F5E2E2E2E2E2E2F5F5F5F5E2F5F5F5F5F5E2E2E2E2E2E2E2F5F5F5F5F5F5F5F5F5F5F5F5F5F5F5F5F5BEF5F5F5F5F5F5F5F5F5F5F5F5F5E2E2F5F5F5F5F5F5F5F5F5F5F5F5F5F5F5F5F5F5F5BEF5F5F5F5F5F5F5F5F5F5F5F5F5F5F5F5F5F5F5F5E2F5F5F5F5F5F5F5F5F5F5F5F5F5F5F5F5F5F5F5F5F5
310
E2F5F5F5F5F5F5F5F5F5F5F5F5F5F5F5F5F5F5F5F5F5F5F5F5F5F5F5F5F5F5F5F5E2F5F5F5F5F5E2E2E2E2E2E2F5F5F5F5F5F5F5F5F5F5F5E2F5F5F5F5F5E2E2E2E2E2E2F5F5F5F5F5E2F5F5F5E2E2E2E2E2E2E2E2F5F5F5F5F5F5F5F5F5F5F5F5F5F5F5F5F5BEF5F5F5F5F5F5F5F5F5F5F5F5F5E2E2F5F5F5F5F5F5F5F5F5
310
F5F5F5F5F5F5F5F5F5F5BEF5F5F5F5F5F5F5F5F5F5F5F5F5F5F5F5F5F5F5F5E2F5F5F5F5F5F5F5F5F5F5F5F5F5F5F5F5F5F5F5F5F5E2F5F5F5F5F5F5F5F5F5F5F5F5F5F5F5F5F5F5F5F5F5F5F5F5F5F5F5F5F5F5F5E2F5F5F5F5F5F5F5F5F5F5F5F5F5F5F5F5F5F5F5F5F5F5F5E2F5F5F5F5F5F5F5F5F5F5F5F5F5F5F5F5E2
310
F5F5F5F5E2F5F5F5F5F5F5F5F5F5F5F5F5F5F5F5F5F5F5F5F5F5F5F5BEF5F5F5F5F5F5F5F5F5F5F5F5F5E2E2F5F5F5F5F5F5F5F5F5F5F5F5F5F5F5F5F5F5F5BEF5F5F5F5F5F5F5F5F5F5F5F5F5F5F5F5F5F5F5E2F5F5F5F5F5F5F5F5F5F5F5F5F5F5F5F5F5F5F5F5F5F5F5E2F5F5F5F5F5F5F5F5F5F5F5F5F5F5F5F5F5F5F5
310
F5F5F5F5F5F5F5F5F5F5F5E2F5F5F5F5F5F5F5F5F5F5F5F5F5F5F5F5F5F5F5F5F5F5F5E2F5F5F5F5F5F5F5F5F5F5F5F5F5F5F5F5E2F5F5F5F5E2F5F5F5F5F5F5F5F5F5F5F5F5F5F5F5F5F5F5F5F5F5F5F5BEF5F5F5F5F5F5F5F5F5F5F5F5F5E2E2F5F5E2F5F5F5F5F5F5F5F5F5F5F5F5F5F5F5F5BEF5F5F5F5F5F5F5F5F5F5
310
F5F5F5F5F5F5F5F5F5E2F5F5F5F5F5F5F5F5F5F5F5F5F5F5F5F5F5F5F5F5F5F5F5E2F5F5F5F5F5F5F5F5F5F5F5F5F5F5F5F5F5F5F5F5F5F5F5F5F5F5F5F5F5F5F5E2F5F5F5F5F5F5F5F5F5F5F5F5F5F5F5F5F5F5E2E2E2E2E2E2E2E2E2E2E2E2E2E2E2E2E2E2E2E2E2E2E2E2E2E2E2F5F5F5F5F5F5F5F5F5F5F5F5F5F5F5F5
310
F5F5F5F5F5F5F5BEF5F5F5F5F5F5F5F5F5F5E2F5F5E2E2F5F5E2F5F5F5F5F5F5F5F5F5F5F5F5F5F5F5F5BEF5F5F5F5F5F5F5F5F5F5F5F5F5F5F5F5F5F5F5E2F5F5F5F5F5F5F5F5F5F5F5F5F5F5F5F5F5F5F5F5F5F5F5E2F5F5F5F5F5F5F5F5F5F5F5F5F5F5F5F5F5F5F5F5F5F5F5F5F5F5F5F5F5F5E2F5F5F5F5F5F5F5F5F5
310
F5F5F5F5F5F5F5F5F5F5E2F5F5F5F5F5F5F5F5F5F5F5F5F5F5F5F5F5F5F5F5F5F5F5F5F5F5F5F5F5F5F5F5F5F5F5F5F5F5F5F5F5F5F5F5F5F5F5F5F5BEF5F5F5F5F5F5F5F5F5F5E2F5F5E2E2F5F5E2F5F5F5F5F5F5F5F5F5F5F5F5F5F5F5F5BEF5F5F5F5F5F5F5F5F5F5F5F5F5F5F5F5F5F5F5E2F5F5F5F5F5F5F5F5F5F5F5
310
F5F5F5F5F5F5F5F5F5F5F5F5E2F5F5F5F5F5F5F5F5E2F5F5E2F5F5F5F5F5F5F5F5F5F5F5F5F5F5F5F5F5F5E2F5F5F5F5F5F5F5F5F5F5F5F5F5F5F5F5F5F5F5E2F5F5F5F5F5F5F5F5F5F5F5F5F5F5F5F5F5F5F5F5F5F5F5F5F5F5F5F5F5F5F5F5F5F5F5F5F5F5F5F5F5F5F5F5F5F5F5F5F5BEF5F5F5F5F5F5F5F5F5F5E2F5F5
310
E2E2F5F5E2F5F5F5F5F5F5F5F5F5F5F5F5F5F5F5F5BEF5F5F5F5F5F5F5F5F5F5F5F5F5F5F5F5F5F5F5E2F5F5F5F5F5F5F5F5F5F5F5F5F5F5F5F5F5F5F5F5F5F5F5E2F5F5F5F5F5F5F5F5F5E2F5E2F5F5F5F5F5F5F5F5F5F5F5F5F5F5F5F5F5F5E2F5F5F5F5F5F5F5F5F5F5F5F5F5F5F5F5F5F5F5E2F5F5F5F5F5F5F5F5F5F5
310
F5F5F5F5F5F5F5F5F5F5F5F5F5F5F5F5F5F5F5F5F5F5F5F5F5F5F5F5F5F5F5F5F5F5F5F5F5F5F5BEF5F5F5F5F5F5F5F5F5F5E2F5F5E2E2F5F5E2F5F5F5F5F5F5F5F5F5F5F5F5F5F5F5F5BEF5F5F5F5F5F5F5F5F5F5F5F5F5F5F5F5F5F5F5E2F5F5F5F5F5F5F5F5F5F5F5F5F5F5F5F5F5F5F5F5F5F5F5E2F5F5F5F5F5F5F5F5
310
F5E2E2F5F5F5F5F5F5F5F5F5F5F5F5F5F5F5F5F5F5F5E2F5F5F5F5F5F5F5F5F5F5F5F5F5F5F5F5F5F5F5E2F5F5F5F5F5F5F5F5F5F5F5F5F5F5F5F5F5F5F5F5F5F5F5F5F5F5F5F5F5F5F5F5F5F5F5F5F5F5F5F5F5F5F5F5F5F5F5F5F5BEF5F5F5F5F5F5F5F5F5F5E2F5F5E2E2F5F5E2F5F5F5F5F5F5F5F5F5F5F5F5F5F5F5F5
310
BEF5F5F5F5F5F5F5F5F5F5F5F5F5F5F5F5F5E2E2E2E2E2E2E2E2E2E2E2E2E2E2E2E2E2E2E2E2E2E2E2E2E2E2E2E2E2F5F5F5F5F5E2E2E2E2E2E2E2E2E2E2E2F5F5F5F5F5F5F5F5F5F5F5F5E2E2E2E2E2E2E2E2E2F5F5F5F5F5F5F5F5F5E2E2E2F5F5F5F5F5F5F5F5F5F5F5F5F5F5F5F5F5F5F5F5F5F5F5F5F5F5F5F5F5F5F5
310
F5F5F5F5F5F5F5F5F5F5F5F5F5F5F5F5F5F5BEF5F5F5F5F5F5F5F5F5F5E2F5F5E2E2F5F5E2F5F5F5F5F5F5F5F5F5F5F5F5F5F5F5F5BEF5F5F5F5F5F5F5F5F5F5F5F5F5F5F5F5F5F5F5F5F5F5F5F5F5F5F5F5F5F5F5F5F5F5F5F5F5F5F5F5F5F5F5F5F5F5F5F5F5F5F5E2E2E2E2E2E2E2E2E2E2E2F5F5F5F5F5F5F5F5F5F5F5
310
F5E2F5F5F5F5F5F5F5F5E2E2E2E2E2E2E2E2E2F5F5E2F5F5F5F5F5F5F5F5F5F5F5F5F5F5F5F5F5F5F5F5F5F5F5F5F5F5F5F5F5F5F5F5F5F5F5F5F5F5F5F5F5F5F5F5F5F5F5F5F5BEF5F5F5F5F5F5F5F5F5F5E2F5F5E2E2F5F5E2F5F5F5F5F5F5F5F5F5F5F5F5F5F5F5F5BEF5F5F5F5F5F5F5F5F5F5F5F5F5F5F5F5F5F5F5F5
310
F5F5F5F5F5F5F5F5F5F5F5F5F5F5F5F5F5F5F5F5F5F5F5F5F5F5F5F5F5F5F5E2E2E2E2E2E2E2E2E2E2E2F5F5F5F5F5F5F5F5F5F5F5F5F5F5F5F5F5F5F5F5F5F5F5F5F5F5F5F5F5F5F5F5F5F5F5F5F5F5F5F5F5F5F5F5F5F5F5F5F5F5F5F5F5F5F5F5F5F5F5F5F5F5F5F5F5F5F5F5F5F5F5F5F5F5F5F5F5F5F5F5F5F5BEF5F5
310
F5F5F5F5F5F5F5F5E2F5F5E2E2F5F5E2F5F5F5F5F5F5F5F5F5F5F5F5F5F5F5F5BEF5F5F5F5F5F5F5F5F5F5F5F5F5F5F5F5F5E2E2E2F5F5F5F5F5F5F5F5F5F5F5F5F5F5F5F5F5F5F5F5F5F5F5F5F5F5F5F5F5F5F5E2E2E2F5F5F5F5F5F5F5F5F5F5F5F5F5F5F5F5F5F5F5F5F5E2E2E2F5F5F5F5F5F5F5F5F5F5F5F5F5F5F5F5
310
F5F5F5F5F5F5F5F5F5F5F5F5F5F5F5F5F5F5F5F5F5F5F5F5F5F5F5F5F5F5F5F5F5F5F5F5F5F5E2E2E2F5F5F5F5F5F5F5F5F5BEF5F5F5F5F5F5F5F5F5F5E2F5F5E2E2F5F5E2F5F5F5F5F5F5F5F5F5F5F5F5F5F5F5F5BEF5F5F5F5F5F5F5F5F5F5F5F5F5F5F5F5F5E2E2E2F5F5F5F5F5F5F5F5F5F5F5F5F5F5F5F5F5F5F5F5F5
310
F5F5F5F5F5F5F5F5F5F5E2E2E2F5F5F5F5F5F5F5F5F5F5F5F5F5F5F5F5F5F5F5F5F5E2E2E2F5F5F5F5F5F5F5F5F5F5F5F5F5F5F5F5F5F5F5F5F5F5F5F5F5F5F5F5F5F5F5F5F5F5F5F5F5F5F5F5F5F5F5F5F5F5F5F5F5F5F5F5F5F5E2E2E2F5F5F5F5F5F5F5F5F5BEF5F5F5F5F5F5F5F5F5F5E2F5F5E2E2F5F5E2F5F5F5F5F5
310
F5F5F5F5F5F5F5F5F5F5F5BEF5F5F5F5F5F5F5F5F5F5F5F5F5F5F5F5F5E2E2E2F5F5F5F5F5F5F5F5F5F5F5F5F5F5F5F5F5F5F5F5F5F5F5F5F5F5F5F5F5F5F5E2E2E2F5F5F5F5F5F5F5F5F5F5F5F5F5F5F5F5F5F5F5F5F5E2E2E2F5F5F5F5F5F5F5F5F5F5F5F5F5F5F5F5F5F5F5F5F5F5F5F5F5F5F5F5F5F5F5F5F5F5F5F5F5
310
F5F5F5F5F5F5F5F5F5F5F5F5F5F5F5F5F5E2E2E2F5F5F5F5F5F5F5F5F5BEF5F5F5F5F5F5F5F5F5F5E2F5F5E2E2F5F5E2F5F5F5F5F5F5F5F5F5F5F5F5F5F5F5F5BEF5F5F5F5F5F5F5F5F5F5F5F5F5F5F5F5F5F5F5F5F5F5F5F5F5F5F5F5F5F5F5F5F5F5F5F5F5F5F5F5F5F5F5F5F5F5F5F5F5F5F5F5F5F5F5F5F5F5F5F5F5F5
310
F5F5F5F5F5F5F5F5F5F5F5F5F5F5F5F5F5F5F5F5F5F5F5F5F5F5F5F5F5F5F5F5F5F5F5F5F5F5F5F5F5F5F5F5F5F5F5F5F5F5F5F5F5F5F5F5F5F5F5F5F5F5F5F5F5F5F5F5F5F5F5F5F5F5F5F5F5F5F5F5F5F5BEF5F5F5F5F5F5F5F5F5F5E2F5F5E2E2F5F5E2F5F5F5F5F5F5F5F5F5F5F5F5F5F5F5F5BEF5F5F5F5F5F5F5F5F5
310
F5F5F5F5F5F5F5F5F5F5F5F5F5F5F5F5F5F5F5F5F5F5F5F5F5F5F5F5F5F5F5F5F5F5F5F5F5F5F5F5F5F5F5F5F5F5F5F5F5F5F5F5F5F5F5F5F5F5F5F5F5F5F5F5F5F5F5F5F5F5F5F5F5F5F5F5F5F5F5F5F5F5F5F5F5F5F5F5F5F5F5F5F5F5F5F5F5F5F5F5F5F5F5F5F5F5F5F5F5F5F5F5F5F5F5F5F5F5F5F5F5F5F5F5F5F5F5
310
F5F5F5F5F5F5F5F5BEF5F5F5F5F5F5F5F5F5F5E2F5F5E2E2F5F5E2F5F5F5F5F5F5F5F5F5F5F5F5F5F5F5F5BEBEBEBEBEBEBEBEBEBEBEBEBEBEBEBEBEBEBEBEBEBEBEBEBEBEBEBEBEBEBEBEBEBEBEBEBEBEBEBEBEBEBEBEBEBEBEBEBEBEBEBEBEBEBEBEBEBEBEBEBEBEBEBEBEBEBEBEBEBEBEBEBEBEBEBEBEBEBEBEBEBEBEBE
310
BEBEBEBEBEBEBEBEBEBEBEBEBEBEBEBEBEBEBEBEBEBEBEBEBEBEBEBEBEBEBEBEBEBEBEBEBEBEBEBEBEBEBEBEBEBEBEBEBEBEBEBEBEBEBEBEBEBEBEBEBEBEF5F5F5F5F5F5F5F5F5F5E2F5F5E2E2F5F5E2F5F5F5F5F5F5F5F5F5F5F5F5F5F5F5F5F5F5F5F5F5F5F5F5F5F5F5F5F5F5F5F5F5F5F5F5F5F5F5F5F5F5F5F5F5F5F5
310
F5F5F5F5F5F5F5F5F5F5F5F5F5F5F5F5F5F5F5F5F5F5F5F5F5F5F5F5F5F5F5F5F5F5F5F5F5F5F5F5F5F5F5F5F5F5F5F5F5F5F5F5F5F5F5F5F5F5F5F5F5F5F5F5F5F5F5F5F5F5F5F5F5F5F5F5F5F5F5F5F5F5F5F5F5F5F5F5F5F5F5F5F5F5F5F5F5F5F5F5F5F5F5F5F5F5F5F5F5F5F5F5F5F5F5F5F5F5F5F5F5F5F5F5F5E2F5
310
F5E2E2F5F5E2F5F5F5F5F5F5F5F5F5F5F5F5F5F5F5F5F5F5F5F5F5F5F5F5F5F5F5F5F5F5F5F5F5F5F5F5F5F5F5F5F5F5F5F5F5F5F5F5F5F5F5F5F5F5F5F5F5F5F5F5F5F5F5F5F5F5F5F5F5F5F5F5F5F5F5F5F5F5F5F5F5F5F5F5F5F5F5F5F5F5F5F5F5F5F5F5F5F5F5F5F5F5F5F5F5F5F5F5F5F5F5F5F5F5F5F5F5F5F5F5F5
310
F5F5F5F5F5F5F5F5F5F5F5F5F5F5F5F5F5F5F5F5F5F5F5F5F5F5F5F5F5F5F5F5F5F5F5F5F5F5F5F5F5F5F5F5F5F5F5F5F5F5F5E2F5F5E2E2F5F5F5F5F5F5F5F5F5F5F5F5F5F5F5F5F5F5F5F5F5F5F5F5F5F5F5F5F5F5F5F5F5F5F5F5F5F5F5F5F5F5F5F5F5F5F5F5F5F5F5F5F5F5F5F5F5F5F5F5F5F5F5F5F5F5F5F5F5F5F5
310
F5F5F5F5F5F5F5F5F5F5F5F5F5F5F5F5F5F5F5F5F5F5F5F5F5F5F5F5F5F5F5F5F5F5F5F5F5F5F5F5F5F5F5F5F5F5F5F5F5F5F5F5F5F5F5F5F5F5F5F5F5F5F5F5F5F5F5F5F5F5F5F5F5F5F5F5F5F5F5F5F5F5F5F5F5F5F5F5F5F5F5F5F5F5F5F5F5F5F5F5F5F5F5F5F5F5F5E2E2F5F5F5F5F5F5F5F5F5F5F5F5F5F5F5F5F5F5
310
F5F5F5F5F5F5F5F5F5F5F5F5F5F5F5F5F5F5F5F5F5F5F5F5F5F5F5F5F5F5F5F5F5F5F5F5F5F5F5F5F5F5F5F5F5F5F5F5F5F5F5F5F5F5F5F5F5F5F5F5F5F5F5F5F5F5F5F5F5F5F5F5F5F5F5F5F5F5F5F5F5F5F5F5F5F5F5F5F5F5F5F5F5F5F5F5F5F5F5F5F5F5F5F5F5F5F5F5F5F5F5F5F5F5F5F5F5F5F5F5F5F5F5F5F5F5F5
310
F5F5F5F5F5F5F5F5F5F5F5F5F5F5F5F5F5F5F5F5F5F5F5F5F5F5F5F5F5F5F5F5F5E2E2F5F5F5F5F5F5F5F5F5F5F5F5F5F5F5F5F5F5F5F5F5F5F5F5F5F5F5F5F5F5F5F5F5F5F5F5F5F5F5F5F5F5F5F5F5F5F5F5F5F5F5F5F5F5F5F5F5F5F5F5F5F5F5F5F5F5F5F5F5F5F5F5F5F5F5F5F5F5F5F5F5F5F5F5F5F5F5F5F5F5F5F5
310
F5F5F5F5F5F5F5F5F5F5F5F5F5F5F5F5F5F5F5F5F5F5F5F5F5F5F5F5F5F5F5F5F5F5F5F5F5F5F5F5F5F5F5F5F5F5F5F5F5F5F5F5F5F5F5F5F5F5F5F5F5F5F5F5F5F5F5F5F5F5F5F5F5F5F5F5F5F5F5F5F5F5F5F5F5F5E2E2F5F5F5F5F5F5F5F5F5F5F5F5F5F5F5F5F5F5F5F5F5F5F5F5F5F5F5F5F5F5F5F5F5F5F5F5F5F5F5
310
F5F5F5F5F5F5F5F5F5F5F5F5F5F5F5F5F5F5F5F5F5F5F5F5F5F5F5F5F5F5F5F5F5F5F5F5F5F5F5F5F5F5F5F5F5F5F5F5F5F5F5F5F5F5F5F5F5F5F5F5F5F5F5F5F5F5F5F5F5F5F5F5F5F5F5F5F5F5F5F5F5F5F5F5F5F5F5F5F5F5F5F5F5F5F5F5F5F5F5F5F5F5F5F5F5F5F5F5F5F5F5F5F5F5F5F5F5F5F5F5F5F5F5F5F5F5F5
310
F5F5F5F5F5F5F5F5F5F5F5F5E2E2F5F5F5F5F5F5F5F5F5F5F5F5F5F5F5F5F5F5F5F5F5F5F5F5F5F5F5F5F5F5F5F5F5F5F5F5F5F5F5F5F5F5F5F5F5F5F5F5F5F5F5F5F5F5F5F5F5F5F5F5F5F5F5F5F5F5F5F5F5F5F5F5F5F5F5F5F5F5F5F5F5F5F5F5F5F5F5F5F5F5F5F5F5F5F5F5F5F5F5F5F5F5F5F5F5F5F5F5F5F5F5F5F5
310
F5F5F5F5F5F5F5F5F5F5F5F5F5F5F5F5F5F5F5F5F5F5F5F5F5F5F5F5F5F5F5F5F5F5F5F5F5F5F5F5F5F5F5F5F5F5F5F5F5F5F5F5F5F5F5F5F5F5F5F5F5F5F5F5F5E2E2F5F5F5F5F5F5F5F5F5F5F5F5F5F5F5F5F5F5F5F5F5F5F5F5F5F5F5F5F5F5F5F5F5F5F5F5F5F5F5F5F5F5F5F5F5F5F5F5F5F5F5F5F5F5F5F5F5F5F5F5
310
F5F5F5F5F5F5F5F5F5F5F5F5F5F5F5F5F5F5F5F5F5F5F5F5F5F5F5F5F5F5F5F5F5F5F5F5F5F5F5F5F5F5F5F5F5F5F5F5F5F5F5F5F5F5F5F5F5F5F5F5F5F5F5F5F5F5F5F5F5F5F5F5F5F5F5F5F5F5F5F5F5F5F5F5F5F5F5F5F5F5F5F5F5F5F5F5F5F5F5F5F5F5F5F5F5F5F5F5F5F5F5F5F5F5F5F5F5F5E2E2F5F5F5F5F5F5F5
310
F5F5F5F5F5F5F5F5F5F5F5F5F5F5F5F5F5F5F5F5F5F5F5F5F5F5F5F5F5F5F5F5F5F5F5F5F5F5F5F5F5F5F5F5F5F5F5F5F5F5F5F5F5F5F5F5F5F5F5F5F5F5F5F5F5F5F5F5F5F5F5F5F5F5F5F5F5F5F5F5F5F5F5F5F5F5F5F5F5F5F5F5F5F5F5F5F5F5F5F5F5F5F5F5F5F5F5F5F5F5F5F5F5F5F5F5F5F5F5F5F5F5F5F5F5F5F5
310
F5F5F5F5F5F5F5F5F5F5F5F5F5F5F5F5F5F5F5F5F5F5F5F5F5F5F5F5F5F5F5F5F5F5F5F5F5F5F5F5F5F5F5F5E2E2F5F5F5F5F5F5F5F5F5F5F5F5F5F5F5F5F5F5F5F5F5F5F5F5F5F5F5F5F5F5F5F5F5F5F5F5F5F5F5F5F5F5F5F5F5F5F5F5F5F5F5F5F5F5F5F5F5F5F5F5F5F5F5F5F5F5F5F5F5F5F5F5F5F5F5F5F5F5F5F5F5
310
F5F5F5F5F5F5F5F5F5F5F5F5F5F5F5F5F5F5F5F5F5F5F5F5F5F5F5F5F5F5F5F5F5F5F5F5F5F5F5F5F5F5F5F5F5F5F5F5F5F5F5F5F5F5F5F5F5F5F5F5F5F5F5F5F5F5F5F5F5F5F5F5F5F5F5F5F5F5F5F5F5F5F5F5F5F5F5F5F5F5F5F5F5F5F5F5F5E2E2F5F5F5F5F5F5F5F5F5F5F5F5F5F5F5F5F5F5F5F5F5F5F5F5F5F5F5F5
310
F5F5F5F5F5F5F5F5F5F5F5F5F5F5F5F5F5F5F5F5F5F5F5F5F5F5F5F5F5F5F5F5F5F5F5F5F5F5F5F5F5F5F5F5F5F5F5F5F5F5F5F5F5F5F5F5F5F5F5F5F5F5F5F5F5F5F5F5F5F5F5F5F5F5F5F5F5F5F5F5F5F5F5F5F5F5F5F5F5F5F5F5F5F5F5F5F5F5F5F5F5F5F5F5F5F5F5F5F5F5F5F5F5F5F5F5F5F5F5F5F5F5F5F5F5F5F5
310
F5F5F5F5F5F5F5F5F5F5F5F5F5F5F5F5F5F5F5F5F5F5F5E2E2F5F5E2F5F5F5F5F5F5F5F5F5F5F5F5F5F5F5F5F5F5F5F5F5F5F5F5F5F5F5F5F5F5F5F5F5F5F5F5F5F5F5F5F5F5F5F5F5F5F5F5F5F5F5F5F5F5F5F5F5F5F5F5F5F5F5F5F5F5F5F5F5F5F5F5F5F5F5F5F5F5F5F5F5F5F5F5F5F5F5F5F5F5F5F5F5F5F5F5F5F5F5
310
F5F5F5F5F5F5F5F5F5F5F5F5F5F5F5F5F5F5F5F5F5F5F5F5F5F5F5F5F5F5F5F5F5F5F5F5F5F5F5F5F5F5F5F5F5F5F5F5F5F5F5F5F5F5F5F5F5F5F5F5F5F5F5F5F5F5F5F5F5F5F5F5F5E2F5F5E2E2F5F5E2F5F5F5F5F5F5F5F5F5F5F5F5F5F5F5F5F5F5F5F5F5F5F5F5F5F5F5F5F5F5F5F5F5F5F5F5F5F5F5F5F5F5F5F5F5F5
310
F5F5F5F5F5F5F5F5F5F5F5F5F5F5F5F5F5F5F5F5F5F5F5F5F5F5F5F5F5F5F5F5F5F5F5F5F5F5F5F5F5F5F5F5F5F5F5F5F5F5F5F5F5F5F5F5F5F5F5F5F5F5F5F5F5F5F5F5F5F5F5F5F5F5F5F5F5F5F5F5F5F5F5F5F5F5F5F5F5F5F5F5F5F5F5F5F5F5F5F5F5F5F5F5F5F5F5F5F5F5F5F5F5F5F5F5F5F5F5F5F5F5F5F5F5F5E2
310
F5F5E2E2F5F5E2F5F5F5F5F5F5F5F5F5F5F5F5F5F5F5F5F5F5F5F5F5F5F5F5F5F5F5F5F5F5F5F5F5F5F5F5F5F5F5F5F5F5F5F5F5F5F5F5F5F5F5F5F5F5F5F5F5F5F5F5F5F5F5F5F5F5F5F5F5F5F5F5F5F5F5F5F5F5F5F5F5F5F5F5F5F5F5F5F5F5F5F5F5F5F5F5F5F5F5F5F5F5F5F5F5F5F5F5F5F5F5F5F5F5F5F5F5F5F5F5
310
F5F5F5F5F5F5F5F5F5F5F5F5F5F5F5F5F5F5F5F5F5F5F5F5F5F5F5F5F5F5F5F5F5F5F5F5F5F5F5F5F5F5F5F5F5F5F5F5F5F5F5F5E2F5F5E2E2F5F5E2F5F5F5F5F5F5F5F5F5F5F5F5F5F5F5F5F5F5F5F5F5F5F5F5F5F5F5F5F5F5F5F5F5F5F5F5F5F5F5F5F5F5F5F5F5F5F5F5F5F5F5F5F5F5F5F5F5F5F5F5F5F5F5F5F5F5F5
310
F5F5F5F5F5F5F5F5F5F5F5F5F5F5F5F5F5F5F5F5F5F5F5F5F5F5F5F5F5F5F5F5F5F5F5F5F5F5F5F5F5F5F5F5F5F5F5F5F5F5F5F5F5F5F5F5F5F5F5F5F5F5F5F5F5F5F5F5F5F5F5F5F5F5F5F5F5F5F5F5F5F5F5F5F5F5F5F5F5F5F5F5F5F5F5F5F5F5F5F5F5F5F5F5F5E2F5F5E2E2F5F5E2F5F5F5F5F5F5F5F5F5F5F5F5F5F5
310
F5F5F5F5F5F5F5F5F5F5F5F5F5F5F5F5F5F5F5F5F5F5F5F5F5F5F5F5F5F5F5F5F5F5F5F5F5F5F5F5F5F5F5F5F5F5F5F5F5F5F5F5F5F5F5F5F5F5F5F5F5F5F5F5F5F5F5F5F5F5F5F5F5F5F5F5F5F5F5F5F5F5F5F5F5F5F5F5F5F5F5F5F5F5F5F5F5F5F5F5F5F5F5F5F5F5F5F5F5F5F5F5F5F5F5F5F5F5F5F5F5F5F5F5F5F5F5
310
F5F5F5F5F5F5F5F5F5F5F5F5F5F5F5F5F5F5F5F5F5F5F5F5F5F5F5F5F5F5F5E2F5F5E2E2F5F5E2F5F5F5F5F5F5F5F5F5F5F5F5F5F5F5F5F5F5F5F5F5F5F5F5F5F5F5F5F5F5F5F5F5F5F5F5F5F5F5F5F5F5F5F5F5F5F5F5F5F5F5F5F5F5F5F5F5F5F5F5F5F5F5F5F5F5F5F5F5F5F5F5F5F5F5F5F5F5F5F5F5F5F5F5F5F5F5F5
310
F5F5F5F5F5F5F5F5F5F5F5F5F5F5F5F5F5F5F5F5F5F5F5F5F5F5F5F5F5F5F5F5F5F5F5F5F5F5F5F5F5F5F5F5F5F5F5F5F5F5F5F5F5F5F5F5F5F5F5F5F5F5F5F5F5F5F5F5F5F5F5F5F5F5F5F5F5F5F5F5F5F5F5F5E2F5F5E2E2F5F5E2F5F5F5F5F5F5F5F5F5F5F5F5F5F5F5F5F5F5F5F5F5F5F5F5F5F5F5F5F5F5F5F5F5F5F5
310
F5F5F5F5F5F5F5F5F5F5F5F5F5F5F5F5F5F5F5F5F5F5F5F5F5F5F5F5F5F5F5F5F5F5F5F5F5F5F5F5F5F5F5F5F5F5F5F5F5F5F5F5F5F5F5F5F5F5F5F5F5F5F5F5F5F5F5F5F5F5F5F5F5F5F5F5F5F5F5F5F5F5F5F5F5F5F5F5F5F5F5F5F5F5F5F5F5F5F5F5F5F5F5F5F5F5F5F5F5F5F5F5F5F5F5F5F5F5F5F5F5F5F5F5F5F5F5
310
F5F5F5F5F5F5F5F5F5F5E2F5F5E2E2F5F5E2F5F5F5F5F5F5F5F5F5F5F5F5F5F5F5F5F5F5F5F5F5F5F5F5F5F5F5F5F5F5F5F5F5F5F5F5F5F5F5F5F5F5F5F5F5F5F5F5F5F5F5F5F5F5F5F5F5F5F5F5F5F5F5F5F5F5F5F5F5F5F5F5F5F5F5F5F5F5F5F5F5F5F5F5F5F5F5F5F5F5F5F5F5F5F5F5F5F5F5F5F5F5F5F5F5F5F5F5F5
310
F5F5F5F5F5F5F5F5F5F5F5F5F5F5F5F5F5F5F5F5F5F5F5F5F5F5F5F5F5F5F5F5F5F5F5F5F5F5F5F5F5F5F5F5F5F5F5F5F5F5F5F5F5F5F5F5F5F5F5F5F5F5F5E2F5F5E2E2F5F5E2F5F5F5F5F5F5F5F5F5F5F5F5F5F5F5F5F5F5F5F5F5F5F5F5F5F5F5F5F5F5F5F5F5F5F5F5F5F5F5F5F5F5F5F5F5F5F5F5F5F5F5F5F5F5F5F5
310
F5F5F5F5F5F5F5F5F5F5F5F5F5F5F5F5F5F5F5F5F5F5F5F5F5F5F5F5F5F5F5F5F5F5F5F5F5F5F5F5F5F5F5F5F5F5F5F5F5F5F5F5F5F5F5F5F5F5F5F5F5F5F5F5F5F5F5F5F5F5F5F5F5F5F5F5F5F5F5F5F5F5F5F5F5F5F5F5F5F5F5F5F5F5F5F5F5F5F5F5F5F5F5F5F5F5F5F5F5F5F5F5F5F5F5F5E2F5F5E2E2F5F5E2F5F5F5
310
F5F5F5F5F5F5F5F5F5F5F5F5F5F5F5F5F5F5F5F5F5F5F5F5F5F5F5F5F5F5F5F5F5F5F5F5F5F5F5F5F5F5F5F5F5F5F5F5F5F5F5F5F5F5F5F5F5F5F5F5F5F5F5F5F5F5F5F5F5F5F5F5F5F5F5F5F5F5F5F5F5F5F5F5F5F5F5F5F5F5F5F5F5F5F5F5F5F5F5F5F5F5F5F5F5F5F5F5F5F5F5F5F5F5F5F5F5F5F5F5F5F5F5F5F5F5F5
310
F5F5F5F5F5F5F5F5F5F5F5F5F5F5F5F5F5F5F5F5F5F5F5F5F5F5F5F5F5F5F5F5F5F5F5F5F5F5F5F5F5F5E2F5F5E2E2F5F5E2F5F5F5F5F5F5F5F5F5F5F5F5F5F5F5F5F5F5F5F5F5F5F5F5F5F5F5F5F5F5F5F5F5F5F5F5F5F5F5F5F5F5F5F5F5F5F5F5F5F5F5F5F5F5F5F5F5F5F5F5F5F5F5F5F5F5F5F5F5F5F5F5F5F5F5F5F5
310
F5F5F5F5F5F5F5F5F5F5F5F5F5F5F5F5F5F5F5F5F5F5F5F5F5F5F5F5F5F5F5F5F5F5F5F5F5F5F5F5F5F5F5F5F5F5F5F5F5F5F5F5F5F5F5F5F5F5F5F5F5F5F5F5F5F5F5F5F5F5F5F5F5F5F5F5F5F5F5F5F5F5F5F5F5F5F5F5F5F5F5F5F5F5F5E2F5F5E2E2F5F5E2F5F5F5F5F5F5F5F5F5F5F5F5F5F5F5F5F5F5F5F5F5F5F5F5
310
F5F5F5F5F5F5F5F5F5F5F5F5F5F5F5F5F5F5F5F5F5F5F5F5F5F5F5F5F5F5F5F5F5F5F5F5F5F5F5F5F5F5F5F5F5F5F5F5F5F5F5F5F5F5F5F5F5F5F5F5F5F5F5F5F5F5F5F5F5F5F5F5F5F5F5F5F5F5F5F5F5F5F5F5F5F5F5F5F5F5F5F5F5F5F5F5F5F5F5F5F5F5F5F5F5F5F5F5F5F5F5F5F5F5F5F5F5F5F5F5F5F5F5F5F5F5F5
310
F5F5F5F5F5F5F5F5F5F5F5F5F5F5F5F5F5F5F5F5F5E2F5F5E2E2F5F5E2F5F5F5F5F5F5F5F5F5F5F5F5F5F5F5F5F5F5F5F5F5F5F5F5F5F5F5F5F5F5F5F5F5F5F5F5F5F5F5F5F5F5F5F5F5F5F5F5F5F5F5F5F5F5F5F5F5F5F5F5F5F5F5F5F5F5F5F5F5F5F5F5F5F5F5F5F5F5F5F5F5F5F5F5F5F5F5F5F5F5F5F5F5F5F5F5F5F5
310
F5F5F5F5F5F5F5F5F5F5F5F5F5F5F5F5F5F5F5F5F5F5F5F5F5F5F5F5F5F5F5F5F5F5F5F5F5F5F5F5F5F5F5F5F5F5F5F5F5F5F5F5F5F5F5F5F5F5F5F5F5F5F5F5F5F5F5F5F5F5F5F5F5F5E2F5F5E2E2F5F5E2F5F5F5F5F5F5F5F5F5F5F5F5F5F5F5F5F5F5F5F5F5F5F5F5F5F5F5F5F5F5F5F5F5F5F5F5F5F5F5F5F5F5F5F5F5
310
F5F5F5F5F5F5F5F5F5F5F5F5F5F5F5F5F5F5F5F5F5F5F5F5F5F5F5F5F5F5F5F5F5F5F5F5F5F5F5F5F5F5F5F5F5F5F5F5F5F5F5F5F5F5F5F5F5F5F5F5F5F5F5F5F5F5F5F5F5F5F5F5F5F5F5F5F5F5F5F5F5F5F5F5F5F5F5F5F5F5F5F5F5F5F5F5F5F5F5F5F5F5F5F5F5F5F5F5F5F5F5F5F5F5F5F5F5F5F5F5F5F5F5F5F5F5F5
310
E2F5F5E2E2F5F5E2F5F5F5F5F5F5F5F5F5F5F5F5F5F5F5F5F5F5F5F5F5F5F5F5F5F5F5F5F5F5F5F5F5F5F5F5F5F5F5F5F5F5F5F5F5F5F5F5F5F5F5F5F5F5F5F5F5F5F5F5F5F5F5F5F5F5F5F5F5F5F5F5F5F5F5F5F5F5F5F5F5F5F5F5F5F5F5F5F5F5F5F5F5F5F5F5F5F5F5F5F5F5F5F5F5F5F5F5F5F5F5F5F5F5F5F5F5F5F5
310
F5F5F5F5F5F5F5F5F5F5F5F5F5F5F5F5F5F5F5F5F5F5F5F5F5F5F5F5F5F5F5F5F5F5F5F5F5F5F5F5F5F5F5F5F5F5F5F5F5F5F5F5F5E2F5F5E2E2F5F5F5F5F5F5F5F5F5F5F5F5F5F5F5F5F5F5F5F5F5F5F5F5F5F5F5F5F5F5F5F5F5F5F5F5F5F5F5F5F5F5F5F5F5F5F5F5F5F5F5F5F5F5F5F5F5F5F5F5F5F5F5F5F5F5F5F5F5
310
F5F5F5F5F5F5F5F5F5F5F5F5F5F5F5F5F5F5F5F5F5F5F5F5F5F5F5F5F5F5F5F5F5F5F5F5F5F5F5F5F5F5F5F5F5F5F5F5F5F5F5F5F5F5F5F5F5F5F5F5F5F5F5F5F5F5F5F5F5F5F5F5F5F5F5F5F5F5F5F5F5F5F5F5F5F5F5F5F5F5F5F5F5F5F5F5F5F5F5F5F5F5F5F5F5F5F5F5F5E2E2F5F5F5F5F5F5F5F5F5F5F5F5F5F5F5F5
310
F5F5F5F5F5F5F5F5F5F5F5F5F5F5F5F5F5F5F5F5F5F5F5F5F5F5F5F5F5F5F5F5F5F5F5F5F5F5F5F5F5F5F5F5F5F5F5F5F5F5F5F5F5F5F5F5F5F5F5F5F5F5F5F5F5F5F5F5F5F5F5F5F5F5F5F5F5F5F5F5F5F5F5F5F5F5F5F5F5F5F5F5F5F5F5F5F5F5F5F5F5F5F5F5F5F5F5F5F5F5F5F5F5F5F5F5F5F5F5F5F5F5F5F5F5F5F5
310
F5F5F5F5F5F5F5F5F5F5F5F5F5F5F5F5F5F5F5F5F5F5F5F5F5F5F5F5F5F5F5F5F5F5F5E2E2F5F5F5F5F5F5F5F5F5F5F5F5F5F5F5F5F5F5F5F5F5F5F5F5F5F5F5F5F5F5F5F5F5F5F5F5F5F5F5F5F5F5F5F5F5F5F5F5F5F5F5F5F5F5F5F5F5F5F5F5F5F5F5F5F5F5F5F5F5F5F5F5F5F5F5F5F5F5F5F5F5F5F5F5F5F5F5F5F5F5
310
F5F5F5F5F5F5F5F5F5F5F5F5F5F5F5F5F5F5F5F5F5F5F5F5F5F5F5F5F5F5F5F5F5F5F5F5F5F5F5F5F5F5F5F5F5F5F5F5F5F5F5F5F5F5F5F5F5F5F5F5F5F5F5F5F5F5F5F5F5F5F5F5F5F5F5F5F5F5F5F5F5F5F5F5F5F5F5F5E2E2F5F5F5F5F5F5F5F5F5F5F5F5F5F5F5F5F5F5F5F5F5F5F5F5F5F5F5F5F5F5F5F5F5F5F5F5F5
310
F5F5F5F5F5F5F5F5F5F5F5F5F5F5F5F5F5F5F5F5F5F5F5F5F5F5F5F5F5F5F5F5F5F5F5F5F5F5F5F5F5F5F5F5F5F5F5F5F5F5F5F5F5F5F5F5F5F5F5F5F5F5F5F5F5F5F5F5F5F5F5F5F5F5F5F5F5F5F5F5F5F5F5F5F5F5F5F5F5F5F5F5F5F5F5F5F5F5F5F5F5F5F5F5F5F5F5F5F5F5F5F5F5F5F5F5F5F5F5F5F5F5F5F5F5F5F5
310
F5F5F5F5F5F5F5F5F5F5F5F5F5F5E2E2F5F5F5F5F5F5F5F5F5F5F5F5F5F5F5F5F5F5F5F5F5F5F5F5F5F5F5F5F5F5F5F5F5F5F5F5F5F5F5F5F5F5F5F5F5F5F5F5F5F5F5F5F5F5F5F5F5F5F5F5F5F5F5F5F5F5F5F5F5F5F5F5F5F5F5F5F5F5F5F5F5F5F5F5F5F5F5F5F5F5F5F5F5F5F5F5F5F5F5F5F5F5F5F5F5F5F5F5F5F5F5
310
F5F5F5F5F5F5F5F5F5F5F5F5F5F5F5F5F5F5F5F5F5F5F5F5F5F5F5F5F5F5F5F5F5F5F5F5F5F5F5F5F5F5F5F5F5F5F5F5F5F5F5F5F5F5F5F5F5F5F5F5F5F5F5F5F5F5F5E2E2F5F5F5F5F5F5F5F5F5F5F5F5F5F5F5F5F5F5F5F5F5F5F5F5F5F5F5F5F5F5F5F5F5F5F5F5F5F5F5F5F5F5F5F5F5F5F5F5F5F5F5F5F5F5F5F5F5F5
310
F5F5F5F5F5F5F5F5F5F5F5F5F5F5F5F5F5F5F5F5F5F5F5F5F5F5F5F5F5F5F5F5F5F5F5F5F5F5F5F5F5F5F5F5F5F5F5F5F5F5F5F5F5F5F5F5F5F5F5F5F5F5F5F5F5F5F5F5F5F5F5F5F5F5F5F5F5F5F5F5F5F5F5F5F5F5F5F5F5F5F5F5F5F5F5F5F5F5F5F5F5F5F5F5F5F5F5F5F5F5F5F5F5F5F5F5F5F5F5F5E2E2F5F5F5F5F5
310
F5F5F5F5F5F5F5F5F5F5F5F5F5F5F5F5F5F5F5F5F5F5F5F5F5F5F5F5F5F5F5F5F5F5F5F5F5F5F5F5F5F5F5F5F5F5F5F5F5F5F5F5F5F5F5F5F5F5F5F5F5F5F5F5F5F5F5F5F5F5F5F5F5F5F5F5F5F5F5F5F5F5F5F5F5F5F5F5F5F5F5F5F5F5F5F5F5F5F5F5F5F5F5F5F5F5F5F5F5F5F5F5F5F5F5F5F5F5F5F5F5F5F5F5F5F5F5
310
F5F5F5F5F5F5F5F5F5F5F5F5F5F5F5F5F5F5F5F5F5F5F5F5F5F5F5F5F5F5F5F5F5F5F5F5F5F5F5F5F5F5F5F5F5F5E2E2F5F5F5F5F5F5F5F5F5F5F5F5F5F5F5F5F5F5F5F5F5F5F5F5F5F5F5F5F5F5F5F5F5F5F5F5F5F5F5F5F5F5F5F5F5F5F5F5F5F5F5F5F5F5F5F5F5F5F5F5F5F5F5F5F5F5F5F5F5F5F5F5F5F5F5F5F5F5F5
310
F5F5F5F5F5F5F5F5F5F5F5F5F5F5F5F5F5F5F5F5F5F5F5F5F5F5F5F5F5F5F5F5F5F5F5F5F5F5F5F5F5F5F5F5F5F5F5F5F5F5F5F5F5F5F5F5F5F5F5F5F5F5F5F5F5F5F5F5F5F5F5F5F5F5F5F5F5F5F5F5F5F5F5F5F5F5F5F5F5F5F5F5F5F5F5F5F5F5F5E2E2F5F5F5F5F5F5F5F5E2E2E2E2E2E2E2E2E2E2E2E2E2E2E2E2E2E2
310
E2E2E2E2E2E2E2E2E2E2E2E2E2E2E2E2E2E2E2E2E2E2E2E2E2E2E2E2E2E2E2E2E2E2E2E2E2E2E2E2E2E2E2E2E2E2E2E2E2E2E2F5F5F5F5F5F5F5F5F5F5F5F5F5F5F5F5F5F5F5F5F5F5F5F5F5F5F5F5F5F5F5F5F5F5F5F5F5F5F5F5F5F5F5F5F5F5F5F5F5F5F5F5F5F5F5F5F5F5F5F5F5F5F5F5F5F5F5F5F5F5F5F5F5F5F5F5
310
F5F5F5F5F5F5F5F5F5F5F5F5F5F5F5F5F5F5F5F5F5F5F5F5F5E2E2F5F5E2F5F5F5F5F5E2E2E2E2E2E2E2E2E2E2E2E2E2E2E2E2E2E2E2E2E2E2E2E2E2E2E2E2E2E2E2E2E2E2E2E2E2E2E2E2E2E2E2E2E2E2E2E2E2E2E2E2E2E2E2E2E2E2E2E2E2E2E2E2E2E2E2E2E2F5F5F5F5F5F5F5F5F5F5F5F5F5F5F5F5F5F5F5F5F5F5F5
310
F5F5F5F5F5F5F5F5F5F5F5F5F5F5F5F5F5F5F5F5F5F5F5F5F5F5F5F5F5F5F5F5F5F5F5F5F5F5F5F5F5F5F5F5F5F5F5F5F5F5F5F5F5F5F5F5F5F5F5F5F5F5F5F5F5F5F5F5F5F5F5F5F5F5F5E2F5F5E2E2F5F5E2F5F5F5F5F5F5F5F5F5F5F5F5F5F5F5F5F5F5F5F5F5F5F5F5F5F5F5F5F5F5F5F5F5F5F5F5F5F5F5F5F5F5F5F5
310
F5F5F5F5F5F5F5F5F5F5F5F5F5F5F5F5F5F5F5F5F5F5F5F5F5F5F5F5F5F5F5F5F5F5F5F5F5F5F5F5F5F5F5F5F5F5F5F5F5F5F5F5F5F5F5F5F5F5F5F5F5F5F5F5F5F5F5F5F5F5F5F5F5F5F5F5F5F5F5F5F5F5F5F5F5F5F5F5F5F5F5F5F5F5F5F5F5F5F5F5F5F5F5F5F5F5F5F5F5F5F5F5F5F5F5F5F5F5F5F5F5F5F5F5F5F5F5
310
F5E2F5F5E2E2F5F5E2F5F5F5F5F5F5F5F5F5F5F5F5F5F5F5F5F5F5F5F5F5F5F5F5F5F5F5F5F5F5F5F5F5F5F5F5F5F5F5F5F5F5F5F5F5F5F5F5F5F5F5F5F5F5F5F5F5F5F5F5F5F5F5F5F5F5F5F5F5F5F5F5F5F5F5F5F5F5F5F5F5F5F5F5F5F5F5F5F5F5F5F5F5F5F5F5F5F5F5F5F5F5F5F5F5F5F5F5F5F5F5F5F5F5F5F5F5F5
310
F5F5F5F5F5F5F5F5F5F5F5F5F5F5F5F5F5F5F5F5F5F5F5F5F5F5F5F5F5F5F5F5F5F5F5F5F5F5F5F5F5F5F5F5F5F5F5F5F5F5F5F5F5F5E2F5F5E2E2F5F5E2F5F5F5F5F5F5F5F5F5F5F5F5F5F5F5F5F5F5F5F5F5F5F5F5F5F5F5F5F5F5F5F5F5F5F5F5F5F5F5F5F5F5F5F5F5F5F5F5F5F5F5F5F5F5F5F5F5F5F5F5F5F5F5F5F5
310
F5F5F5F5F5F5F5F5F5F5F5F5F5F5F5F5F5F5F5F5F5F5F5F5F5F5F5F5F5F5F5F5F5F5F5F5F5F5F5F5F5F5F5F5F5F5F5F5F5F5F5F5F5F5F5F5F5F5F5F5F5F5F5F5F5F5F5F5F5F5F5F5F5F5F5F5F5F5F5F5F5F5F5F5F5F5F5F5F5F5F5F5F5F5F5F5F5F5F5F5F5F5F5F5F5F5F5E2F5F5E2E2F5F5E2F5F5F5F5F5F5F5F5F5F5F5F5
310
F5F5F5F5F5F5F5F5F5F5F5F5F5F5F5F5F5F5F5F5F5F5F5F5F5F5F5F5F5F5F5F5F5F5F5F5F5F5F5F5F5F5F5F5F5F5F5F5F5F5F5F5F5F5F5F5F5F5F5F5F5F5F5F5F5F5F5F5F5F5F5F5F5F5F5F5F5F5F5F5F5F5F5F5F5F5F5F5F5F5F5F5F5F5F5F5F5F5F5F5F5F5F5F5F5F5F5F5F5F5F5F5F5F5F5F5F5F5F5F5F5F5F5F5F5F5F5
310
F5F5F5F5F5F5F5F5F5F5F5F5F5F5F5F5F5F5F5F5F5F5F5F5F5F5F5F5F5F5F5F5F5E2F5F5E2E2F5F5E2F5F5F5F5F5F5F5F5F5F5F5F5F5F5F5F5F5F5F5F5F5F5F5F5F5F5F5F5F5F5F5F5F5F5F5F5F5F5F5F5F5F5F5F5F5F5F5F5F5F5F5F5F5F5F5F5F5F5F5F5F5F5F5F5F5F5F5F5F5F5F5F5F5F5F5F5F5F5F5F5F5F5F5F5F5F5
310
F5F5F5F5F5F5F5F5F5F5F5F5F5F5F5F5F5F5F5F5F5F5F5F5F5F5F5F5F5F5F5F5F5F5F5F5F5F5F5F5F5F5F5F5F5F5F5F5F5F5F5F5F5F5F5F5F5F5F5F5F5F5F5F5F5F5F5F5F5F5F5F5F5F5F5F5F5F5F5F5F5F5F5F5F5F5E2F5F5E2E2F5F5E2F5F5F5F5F5F5F5F5F5F5F5F5F5F5F5F5F5F5F5F5F5F5F5F5F5F5F5F5F5F5F5F5F5
310
F5F5F5F5F5F5F5F5F5F5F5F5F5F5F5F5F5F5F5F5F5F5F5F5F5F5F5F5F5F5F5F5F5F5F5F5F5F5F5F5F5F5F5F5F5F5F5F5F5F5F5F5F5F5F5F5F5F5F5F5F5F5F5F5F5F5F5F5F5F5F5F5F5F5F5F5F5F5F5F5F5F5F5F5F5F5F5F5F5F5F5F5F5F5F5F5F5F5F5F5F5F5F5F5F5F5F5F5F5F5F5F5F5F5F5F5F5F5F5F5F5F5F5F5F5F5F5
310
F5F5F5F5F5F5F5F5F5F5F5F5E2F5F5E2E2F5F5E2E2E2E2E2E2E2E2F5F5F5F5F5F5F5F5F5E2E2E2E2E2E2E2E2E2E2E2E2E2E2E2E2F5F5F5F5F5F5F5F5F5E2E2E2E2E2E2E2E2E2E2E2E2E2E2E2E2F5F5F5F5F5F5F5F5F5E2E2E2E2E2E2E2E2E2E2E2E2E2E2E2E2F5F5F5F5F5F5F5F5E2E2E2E2E2E2E2E2E2E2E2E2E2E2E2E2F5
310
F5F5F5F5F5F5F5F5E2E2E2E2E2E2E2E2E2E2E2E2E2E2E2E2F5F5F5F5F5F5F5F5F5E2E2E2E2E2E2E2E2E2E2E2E2E2E2E2E2F5F5F5F5F5F5F5F5F5E2E2E2E2E2E2E2E2F5F5E2E2F5F5F5F5F5F5F5F5F5F5F5F5F5F5F5F5F5F5F5F5F5F5F5F5F5F5F5F5F5F5F5F5F5F5F5F5F5F5F5F5F5F5F5F5F5F5F5F5F5F5F5F5F5F5F5F5F5
310
F5F5F5F5F5F5F5F5F5F5F5F5F5F5F5F5F5F5F5F5F5F5F5F5F5F5F5F5F5F5F5F5F5F5F5F5F5F5F5F5F5F5F5F5F5F5F5F5F5F5F5F5F5F5F5F5F5F5F5F5F5F5F5F5F5F5F5F5F5F5F5F5F5F5F5F5F5F5F5F5F5F5F5F5F5F5F5F5F5F5F5F5F5F5F5F5F5F5F5F5F5F5F5F5F5F5F5F5F5F5F5F5F5F5F5F5F5F5F5F5F5E2E2E2E2E2E2
310
E2E2E2E2E2E2E2E2E2E2E2E2E2E2E2E2E2E2E2E2E2E2E2E2E2E2E2E2E2E2E2E2E2E2E2E2E2E2E2E2E2E2E2E2E2E2E2E2E2E2E2E2E2E2E2E2E2E2E2E2E2E2E2E2E2E2E2E2E2E2E2E2E2E2E2E2E2E2E2E2E2E2E2E2E2E2E2E2E2E2E2E2E2E2E2E2E2E2E2E2E2E2E2E2E2E2E2E2E2E2E2E2E2E2E2E2E2E2E2E2E2E2E2E2E2E2E2
310
E2E2E2E2E2E2E2E2E2E2E2E2E2E2E2E2E2E2E2E2E2E2E2E2E2E2E2E2E2E2E2E2E2E2E2E2E2E2E2E2E2E2E2E2E2E2E2E2
  0
CELLSTYLEMAP
  5
26F
102
{ACAD_REACTORS
330
26E
102
}
330
26E
100
AcDbCellStyleMap
 90
        3
300
CELLSTYLE
  1
TABLEFORMAT_BEGIN
 90
        5
170
     1
 91
        0
 92
    32768
 62
   257
 93
        1
300
CONTENTFORMAT
  1
CONTENTFORMAT_BEGIN
 90
        0
 91
        0
 92
        4
 93
        0
300

 40
0.0
140
1.0
 94
        5
 62
     0
340
11
144
0.25
309
CONTENTFORMAT_END
171
     1
301
MARGIN
  1
CELLMARGIN_BEGIN
 40
0.06
 40
0.06
 40
0.06
 40
0.06
 40
0.06
 40
0.06
309
CELLMARGIN_END
 94
        6
 95
        1
302
GRIDFORMAT
  1
GRIDFORMAT_BEGIN
 90
        0
 91
        1
 62
     0
 92
       -2
340
0
 93
        0
 40
0.045
309
GRIDFORMAT_END
 95
        2
302
GRIDFORMAT
  1
GRIDFORMAT_BEGIN
 90
        0
 91
        1
 62
     0
 92
       -2
340
0
 93
        0
 40
0.045
309
GRIDFORMAT_END
 95
        4
302
GRIDFORMAT
  1
GRIDFORMAT_BEGIN
 90
        0
 91
        1
 62
     0
 92
       -2
340
0
 93
        0
 40
0.045
309
GRIDFORMAT_END
 95
        8
302
GRIDFORMAT
  1
GRIDFORMAT_BEGIN
 90
        0
 91
        1
 62
     0
 92
       -2
340
0
 93
        0
 40
0.045
309
GRIDFORMAT_END
 95
       16
302
GRIDFORMAT
  1
GRIDFORMAT_BEGIN
 90
        0
 91
        1
 62
     0
 92
       -2
340
0
 93
        0
 40
0.045
309
GRIDFORMAT_END
 95
       32
302
GRIDFORMAT
  1
GRIDFORMAT_BEGIN
 90
        0
 91
        1
 62
     0
 92
       -2
340
0
 93
        0
 40
0.045
309
GRIDFORMAT_END
309
TABLEFORMAT_END
  1
CELLSTYLE_BEGIN
 90
        1
 91
        1
300
_TITLE
309
CELLSTYLE_END
300
CELLSTYLE
  1
TABLEFORMAT_BEGIN
 90
        5
170
     1
 91
        0
 92
        0
 62
   257
 93
        1
300
CONTENTFORMAT
  1
CONTENTFORMAT_BEGIN
 90
        0
 91
        0
 92
        4
 93
        0
300

 40
0.0
140
1.0
 94
        5
 62
     0
340
11
144
0.18
309
CONTENTFORMAT_END
171
     1
301
MARGIN
  1
CELLMARGIN_BEGIN
 40
0.06
 40
0.06
 40
0.06
 40
0.06
 40
0.06
 40
0.06
309
CELLMARGIN_END
 94
        6
 95
        1
302
GRIDFORMAT
  1
GRIDFORMAT_BEGIN
 90
        0
 91
        1
 62
     0
 92
       -2
340
0
 93
        0
 40
0.045
309
GRIDFORMAT_END
 95
        2
302
GRIDFORMAT
  1
GRIDFORMAT_BEGIN
 90
        0
 91
        1
 62
     0
 92
       -2
340
0
 93
        0
 40
0.045
309
GRIDFORMAT_END
 95
        4
302
GRIDFORMAT
  1
GRIDFORMAT_BEGIN
 90
        0
 91
        1
 62
     0
 92
       -2
340
0
 93
        0
 40
0.045
309
GRIDFORMAT_END
 95
        8
302
GRIDFORMAT
  1
GRIDFORMAT_BEGIN
 90
        0
 91
        1
 62
     0
 92
       -2
340
0
 93
        0
 40
0.045
309
GRIDFORMAT_END
 95
       16
302
GRIDFORMAT
  1
GRIDFORMAT_BEGIN
 90
        0
 91
        1
 62
     0
 92
       -2
340
0
 93
        0
 40
0.045
309
GRIDFORMAT_END
 95
       32
302
GRIDFORMAT
  1
GRIDFORMAT_BEGIN
 90
        0
 91
        1
 62
     0
 92
       -2
340
0
 93
        0
 40
0.045
309
GRIDFORMAT_END
309
TABLEFORMAT_END
  1
CELLSTYLE_BEGIN
 90
        2
 91
        1
300
_HEADER
309
CELLSTYLE_END
300
CELLSTYLE
  1
TABLEFORMAT_BEGIN
 90
        5
170
     1
 91
        0
 92
        0
 62
   257
 93
        1
300
CONTENTFORMAT
  1
CONTENTFORMAT_BEGIN
 90
        0
 91
        0
 92
        4
 93
        0
300

 40
0.0
140
1.0
 94
        2
 62
     0
340
11
144
0.18
309
CONTENTFORMAT_END
171
     1
301
MARGIN
  1
CELLMARGIN_BEGIN
 40
0.06
 40
0.06
 40
0.06
 40
0.06
 40
0.06
 40
0.06
309
CELLMARGIN_END
 94
        6
 95
        1
302
GRIDFORMAT
  1
GRIDFORMAT_BEGIN
 90
        0
 91
        1
 62
     0
 92
       -2
340
0
 93
        0
 40
0.045
309
GRIDFORMAT_END
 95
        2
302
GRIDFORMAT
  1
GRIDFORMAT_BEGIN
 90
        0
 91
        1
 62
     0
 92
       -2
340
0
 93
        0
 40
0.045
309
GRIDFORMAT_END
 95
        4
302
GRIDFORMAT
  1
GRIDFORMAT_BEGIN
 90
        0
 91
        1
 62
     0
 92
       -2
340
0
 93
        0
 40
0.045
309
GRIDFORMAT_END
 95
        8
302
GRIDFORMAT
  1
GRIDFORMAT_BEGIN
 90
        0
 91
        1
 62
     0
 92
       -2
340
0
 93
        0
 40
0.045
309
GRIDFORMAT_END
 95
       16
302
GRIDFORMAT
  1
GRIDFORMAT_BEGIN
 90
        0
 91
        1
 62
     0
 92
       -2
340
0
 93
        0
 40
0.045
309
GRIDFORMAT_END
 95
       32
302
GRIDFORMAT
  1
GRIDFORMAT_BEGIN
 90
        0
 91
        1
 62
     0
 92
       -2
340
0
 93
        0
 40
0.045
309
GRIDFORMAT_END
309
TABLEFORMAT_END
  1
CELLSTYLE_BEGIN
 90
        3
 91
        2
300
_DATA
309
CELLSTYLE_END
  0
XRECORD
  5
279
102
{ACAD_REACTORS
330
278
102
}
330
278
100
AcDbXrecord
280
     1
102
RTVSPost2010Prop28
280
     1
102
RTVSPost2010PropOp28
 70
     1
102
RTVSPost2010Prop29
280
     1
102
RTVSPost2010PropOp29
 70
     1
102
RTVSPost2010Prop30
280
     0
102
RTVSPost2010PropOp30
 70
     1
102
RTVSPost2010Prop31
280
     0
102
RTVSPost2010PropOp31
 70
     1
102
RTVSPost2010Prop32
280
     0
102
RTVSPost2010PropOp32
 70
     1
102
RTVSPost2010Prop33
280
     0
102
RTVSPost2010PropOp33
 70
     1
102
RTVSPost2010Prop34
280
     0
102
RTVSPost2010PropOp34
 70
     1
102
RTVSPost2010Prop35
280
     0
102
RTVSPost2010PropOp35
 70
     1
102
RTVSPost2010Prop36
280
     0
102
RTVSPost2010PropOp36
 70
     1
102
RTVSPost2010Prop37
 90
       50
102
RTVSPost2010PropOp37
 70
     1
102
RTVSPost2010Prop38
140
0.0
102
RTVSPost2010PropOp38
 70
     1
102
RTVSPost2010Prop39
140
1.0
102
RTVSPost2010PropOp39
 70
     1
102
RTVSPost2010Prop40
 90
        0
102
RTVSPost2010PropOp40
 70
     1
102
RTVSPost2010Prop41ColorIndex
 90
       18
102
RTVSPost2010Prop41ColorRGB
 90
        0
102
RTVSPost2010PropOp41
 70
     1
102
RTVSPost2010Prop42
 90
       50
102
RTVSPost2010PropOp42
 70
     1
102
RTVSPost2010Prop43
 90
        3
102
RTVSPost2010PropOp43
 70
     1
102
RTVSPost2010Prop44ColorIndex
 90
        5
102
RTVSPost2010Prop44ColorRGB
 90
      255
102
RTVSPost2010PropOp44
 70
     1
102
RTVSPost2010Prop45
280
     0
102
RTVSPost2010PropOp45
 70
     1
102
RTVSPost2010Prop46
 90
       50
102
RTVSPost2010PropOp46
 70
     1
102
RTVSPost2010Prop47
 90
       50
102
RTVSPost2010PropOp47
 70
     1
102
RTVSPost2010Prop48
 90
       50
102
RTVSPost2010PropOp48
 70
     1
102
RTVSPost2010Prop49
280
     0
102
RTVSPost2010PropOp49
 70
     1
102
RTVSPost2010Prop50
 90
       50
102
RTVSPost2010PropOp50
 70
     1
102
RTVSPost2010Prop51ColorIndex
 90
      256
102
RTVSPost2010Prop51ColorRGB
 90
-16777216
102
RTVSPost2010PropOp51
 70
     0
102
RTVSPost2010Prop52
140
1.0
102
RTVSPost2010PropOp52
 70
     0
102
RTVSPost2010Prop53
 90
        2
102
RTVSPost2010PropOp53
 70
     1
102
RTVSPost2010Prop54
  1
strokes_ogs.tif
102
RTVSPost2010PropOp54
 70
     1
102
RTVSPost2010Prop55
280
     0
102
RTVSPost2010PropOp55
 70
     1
102
RTVSPost2010Prop56
140
1.0
102
RTVSPost2010PropOp56
 70
     1
102
RTVSPost2010Prop57
140
1.0
102
RTVSPost2010PropOp57
 70
     1
  0
XRECORD
  5
27F
102
{ACAD_REACTORS
330
27E
102
}
330
27E
100
AcDbXrecord
280
     1
102
RTVSPost2010Prop28
280
     0
102
RTVSPost2010PropOp28
 70
     1
102
RTVSPost2010Prop29
280
     1
102
RTVSPost2010PropOp29
 70
     1
102
RTVSPost2010Prop30
280
     1
102
RTVSPost2010PropOp30
 70
     1
102
RTVSPost2010Prop31
280
     0
102
RTVSPost2010PropOp31
 70
     1
102
RTVSPost2010Prop32
280
     0
102
RTVSPost2010PropOp32
 70
     1
102
RTVSPost2010Prop33
280
     0
102
RTVSPost2010PropOp33
 70
     1
102
RTVSPost2010Prop34
280
     0
102
RTVSPost2010PropOp34
 70
     1
102
RTVSPost2010Prop35
280
     0
102
RTVSPost2010PropOp35
 70
     1
102
RTVSPost2010Prop36
280
     0
102
RTVSPost2010PropOp36
 70
     1
102
RTVSPost2010Prop37
 90
       50
102
RTVSPost2010PropOp37
 70
     1
102
RTVSPost2010Prop38
140
0.0
102
RTVSPost2010PropOp38
 70
     1
102
RTVSPost2010Prop39
140
1.0
102
RTVSPost2010PropOp39
 70
     1
102
RTVSPost2010Prop40
 90
        0
102
RTVSPost2010PropOp40
 70
     1
102
RTVSPost2010Prop41ColorIndex
 90
       18
102
RTVSPost2010Prop41ColorRGB
 90
        0
102
RTVSPost2010PropOp41
 70
     1
102
RTVSPost2010Prop42
 90
       50
102
RTVSPost2010PropOp42
 70
     1
102
RTVSPost2010Prop43
 90
        3
102
RTVSPost2010PropOp43
 70
     1
102
RTVSPost2010Prop44ColorIndex
 90
        5
102
RTVSPost2010Prop44ColorRGB
 90
      255
102
RTVSPost2010PropOp44
 70
     1
102
RTVSPost2010Prop45
280
     0
102
RTVSPost2010PropOp45
 70
     1
102
RTVSPost2010Prop46
 90
       50
102
RTVSPost2010PropOp46
 70
     1
102
RTVSPost2010Prop47
 90
       50
102
RTVSPost2010PropOp47
 70
     1
102
RTVSPost2010Prop48
 90
       50
102
RTVSPost2010PropOp48
 70
     1
102
RTVSPost2010Prop49
280
     0
102
RTVSPost2010PropOp49
 70
     1
102
RTVSPost2010Prop50
 90
       50
102
RTVSPost2010PropOp50
 70
     1
102
RTVSPost2010Prop51ColorIndex
 90
      256
102
RTVSPost2010Prop51ColorRGB
 90
-16777216
102
RTVSPost2010PropOp51
 70
     0
102
RTVSPost2010Prop52
140
1.0
102
RTVSPost2010PropOp52
 70
     0
102
RTVSPost2010Prop53
 90
        2
102
RTVSPost2010PropOp53
 70
     1
102
RTVSPost2010Prop54
  1
strokes_ogs.tif
102
RTVSPost2010PropOp54
 70
     1
102
RTVSPost2010Prop55
280
     0
102
RTVSPost2010PropOp55
 70
     1
102
RTVSPost2010Prop56
140
1.0
102
RTVSPost2010PropOp56
 70
     1
102
RTVSPost2010Prop57
140
1.0
102
RTVSPost2010PropOp57
 70
     1
  0
XRECORD
  5
287
102
{ACAD_REACTORS
330
286
102
}
330
286
100
AcDbXrecord
280
     1
102
RTVSPost2010Prop28
280
     0
102
RTVSPost2010PropOp28
 70
     1
102
RTVSPost2010Prop29
280
     1
102
RTVSPost2010PropOp29
 70
     1
102
RTVSPost2010Prop30
280
     1
102
RTVSPost2010PropOp30
 70
     1
102
RTVSPost2010Prop31
280
     0
102
RTVSPost2010PropOp31
 70
     1
102
RTVSPost2010Prop32
280
     0
102
RTVSPost2010PropOp32
 70
     1
102
RTVSPost2010Prop33
280
     0
102
RTVSPost2010PropOp33
 70
     1
102
RTVSPost2010Prop34
280
     0
102
RTVSPost2010PropOp34
 70
     1
102
RTVSPost2010Prop35
280
     0
102
RTVSPost2010PropOp35
 70
     1
102
RTVSPost2010Prop36
280
     0
102
RTVSPost2010PropOp36
 70
     1
102
RTVSPost2010Prop37
 90
       50
102
RTVSPost2010PropOp37
 70
     1
102
RTVSPost2010Prop38
140
0.0
102
RTVSPost2010PropOp38
 70
     1
102
RTVSPost2010Prop39
140
1.0
102
RTVSPost2010PropOp39
 70
     1
102
RTVSPost2010Prop40
 90
        0
102
RTVSPost2010PropOp40
 70
     1
102
RTVSPost2010Prop41ColorIndex
 90
       18
102
RTVSPost2010Prop41ColorRGB
 90
        0
102
RTVSPost2010PropOp41
 70
     1
102
RTVSPost2010Prop42
 90
       50
102
RTVSPost2010PropOp42
 70
     1
102
RTVSPost2010Prop43
 90
        3
102
RTVSPost2010PropOp43
 70
     1
102
RTVSPost2010Prop44ColorIndex
 90
        5
102
RTVSPost2010Prop44ColorRGB
 90
      255
102
RTVSPost2010PropOp44
 70
     1
102
RTVSPost2010Prop45
280
     0
102
RTVSPost2010PropOp45
 70
     1
102
RTVSPost2010Prop46
 90
       50
102
RTVSPost2010PropOp46
 70
     1
102
RTVSPost2010Prop47
 90
       50
102
RTVSPost2010PropOp47
 70
     1
102
RTVSPost2010Prop48
 90
       50
102
RTVSPost2010PropOp48
 70
     1
102
RTVSPost2010Prop49
280
     0
102
RTVSPost2010PropOp49
 70
     1
102
RTVSPost2010Prop50
 90
       50
102
RTVSPost2010PropOp50
 70
     1
102
RTVSPost2010Prop51ColorIndex
 90
      256
102
RTVSPost2010Prop51ColorRGB
 90
-16777216
102
RTVSPost2010PropOp51
 70
     0
102
RTVSPost2010Prop52
140
1.0
102
RTVSPost2010PropOp52
 70
     0
102
RTVSPost2010Prop53
 90
        2
102
RTVSPost2010PropOp53
 70
     1
102
RTVSPost2010Prop54
  1
strokes_ogs.tif
102
RTVSPost2010PropOp54
 70
     1
102
RTVSPost2010Prop55
280
     0
102
RTVSPost2010PropOp55
 70
     1
102
RTVSPost2010Prop56
140
1.0
102
RTVSPost2010PropOp56
 70
     1
102
RTVSPost2010Prop57
140
1.0
102
RTVSPost2010PropOp57
 70
     1
  0
XRECORD
  5
28F
102
{ACAD_REACTORS
330
28E
102
}
330
28E
100
AcDbXrecord
280
     1
102
RTVSPost2010Prop28
280
     0
102
RTVSPost2010PropOp28
 70
     1
102
RTVSPost2010Prop29
280
     1
102
RTVSPost2010PropOp29
 70
     1
102
RTVSPost2010Prop30
280
     1
102
RTVSPost2010PropOp30
 70
     1
102
RTVSPost2010Prop31
280
     0
102
RTVSPost2010PropOp31
 70
     1
102
RTVSPost2010Prop32
280
     0
102
RTVSPost2010PropOp32
 70
     1
102
RTVSPost2010Prop33
280
     0
102
RTVSPost2010PropOp33
 70
     1
102
RTVSPost2010Prop34
280
     0
102
RTVSPost2010PropOp34
 70
     1
102
RTVSPost2010Prop35
280
     0
102
RTVSPost2010PropOp35
 70
     1
102
RTVSPost2010Prop36
280
     0
102
RTVSPost2010PropOp36
 70
     1
102
RTVSPost2010Prop37
 90
       50
102
RTVSPost2010PropOp37
 70
     1
102
RTVSPost2010Prop38
140
0.0
102
RTVSPost2010PropOp38
 70
     1
102
RTVSPost2010Prop39
140
1.0
102
RTVSPost2010PropOp39
 70
     1
102
RTVSPost2010Prop40
 90
        0
102
RTVSPost2010PropOp40
 70
     1
102
RTVSPost2010Prop41ColorIndex
 90
       18
102
RTVSPost2010Prop41ColorRGB
 90
        0
102
RTVSPost2010PropOp41
 70
     1
102
RTVSPost2010Prop42
 90
       50
102
RTVSPost2010PropOp42
 70
     1
102
RTVSPost2010Prop43
 90
        3
102
RTVSPost2010PropOp43
 70
     1
102
RTVSPost2010Prop44ColorIndex
 90
        5
102
RTVSPost2010Prop44ColorRGB
 90
      255
102
RTVSPost2010PropOp44
 70
     1
102
RTVSPost2010Prop45
280
     0
102
RTVSPost2010PropOp45
 70
     1
102
RTVSPost2010Prop46
 90
       50
102
RTVSPost2010PropOp46
 70
     1
102
RTVSPost2010Prop47
 90
       50
102
RTVSPost2010PropOp47
 70
     1
102
RTVSPost2010Prop48
 90
       50
102
RTVSPost2010PropOp48
 70
     1
102
RTVSPost2010Prop49
280
     0
102
RTVSPost2010PropOp49
 70
     1
102
RTVSPost2010Prop50
 90
       50
102
RTVSPost2010PropOp50
 70
     1
102
RTVSPost2010Prop51ColorIndex
 90
      256
102
RTVSPost2010Prop51ColorRGB
 90
-16777216
102
RTVSPost2010PropOp51
 70
     0
102
RTVSPost2010Prop52
140
1.0
102
RTVSPost2010PropOp52
 70
     0
102
RTVSPost2010Prop53
 90
        2
102
RTVSPost2010PropOp53
 70
     1
102
RTVSPost2010Prop54
  1
strokes_ogs.tif
102
RTVSPost2010PropOp54
 70
     1
102
RTVSPost2010Prop55
280
     0
102
RTVSPost2010PropOp55
 70
     1
102
RTVSPost2010Prop56
140
1.0
102
RTVSPost2010PropOp56
 70
     1
102
RTVSPost2010Prop57
140
1.0
102
RTVSPost2010PropOp57
 70
     1
  0
XRECORD
  5
283
102
{ACAD_REACTORS
330
282
102
}
330
282
100
AcDbXrecord
280
     1
102
RTVSPost2010Prop28
280
     0
102
RTVSPost2010PropOp28
 70
     1
102
RTVSPost2010Prop29
280
     1
102
RTVSPost2010PropOp29
 70
     1
102
RTVSPost2010Prop30
280
     1
102
RTVSPost2010PropOp30
 70
     1
102
RTVSPost2010Prop31
280
     0
102
RTVSPost2010PropOp31
 70
     1
102
RTVSPost2010Prop32
280
     0
102
RTVSPost2010PropOp32
 70
     1
102
RTVSPost2010Prop33
280
     0
102
RTVSPost2010PropOp33
 70
     1
102
RTVSPost2010Prop34
280
     0
102
RTVSPost2010PropOp34
 70
     1
102
RTVSPost2010Prop35
280
     0
102
RTVSPost2010PropOp35
 70
     1
102
RTVSPost2010Prop36
280
     0
102
RTVSPost2010PropOp36
 70
     1
102
RTVSPost2010Prop37
 90
       50
102
RTVSPost2010PropOp37
 70
     1
102
RTVSPost2010Prop38
140
0.0
102
RTVSPost2010PropOp38
 70
     1
102
RTVSPost2010Prop39
140
1.0
102
RTVSPost2010PropOp39
 70
     1
102
RTVSPost2010Prop40
 90
        0
102
RTVSPost2010PropOp40
 70
     1
102
RTVSPost2010Prop41ColorIndex
 90
       18
102
RTVSPost2010Prop41ColorRGB
 90
        0
102
RTVSPost2010PropOp41
 70
     1
102
RTVSPost2010Prop42
 90
       50
102
RTVSPost2010PropOp42
 70
     1
102
RTVSPost2010Prop43
 90
        3
102
RTVSPost2010PropOp43
 70
     1
102
RTVSPost2010Prop44ColorIndex
 90
        5
102
RTVSPost2010Prop44ColorRGB
 90
      255
102
RTVSPost2010PropOp44
 70
     1
102
RTVSPost2010Prop45
280
     0
102
RTVSPost2010PropOp45
 70
     1
102
RTVSPost2010Prop46
 90
       50
102
RTVSPost2010PropOp46
 70
     1
102
RTVSPost2010Prop47
 90
       50
102
RTVSPost2010PropOp47
 70
     1
102
RTVSPost2010Prop48
 90
       50
102
RTVSPost2010PropOp48
 70
     1
102
RTVSPost2010Prop49
280
     0
102
RTVSPost2010PropOp49
 70
     1
102
RTVSPost2010Prop50
 90
       50
102
RTVSPost2010PropOp50
 70
     1
102
RTVSPost2010Prop51ColorIndex
 90
      256
102
RTVSPost2010Prop51ColorRGB
 90
-16777216
102
RTVSPost2010PropOp51
 70
     0
102
RTVSPost2010Prop52
140
1.0
102
RTVSPost2010PropOp52
 70
     0
102
RTVSPost2010Prop53
 90
        2
102
RTVSPost2010PropOp53
 70
     1
102
RTVSPost2010Prop54
  1
strokes_ogs.tif
102
RTVSPost2010PropOp54
 70
     1
102
RTVSPost2010Prop55
280
     0
102
RTVSPost2010PropOp55
 70
     1
102
RTVSPost2010Prop56
140
1.0
102
RTVSPost2010PropOp56
 70
     1
102
RTVSPost2010Prop57
140
1.0
102
RTVSPost2010PropOp57
 70
     1
  0
XRECORD
  5
285
102
{ACAD_REACTORS
330
284
102
}
330
284
100
AcDbXrecord
280
     1
102
RTVSPost2010Prop28
280
     0
102
RTVSPost2010PropOp28
 70
     1
102
RTVSPost2010Prop29
280
     1
102
RTVSPost2010PropOp29
 70
     1
102
RTVSPost2010Prop30
280
     1
102
RTVSPost2010PropOp30
 70
     1
102
RTVSPost2010Prop31
280
     0
102
RTVSPost2010PropOp31
 70
     1
102
RTVSPost2010Prop32
280
     0
102
RTVSPost2010PropOp32
 70
     1
102
RTVSPost2010Prop33
280
     0
102
RTVSPost2010PropOp33
 70
     1
102
RTVSPost2010Prop34
280
     0
102
RTVSPost2010PropOp34
 70
     1
102
RTVSPost2010Prop35
280
     0
102
RTVSPost2010PropOp35
 70
     1
102
RTVSPost2010Prop36
280
     0
102
RTVSPost2010PropOp36
 70
     1
102
RTVSPost2010Prop37
 90
       50
102
RTVSPost2010PropOp37
 70
     1
102
RTVSPost2010Prop38
140
0.0
102
RTVSPost2010PropOp38
 70
     1
102
RTVSPost2010Prop39
140
1.0
102
RTVSPost2010PropOp39
 70
     1
102
RTVSPost2010Prop40
 90
        0
102
RTVSPost2010PropOp40
 70
     1
102
RTVSPost2010Prop41ColorIndex
 90
       18
102
RTVSPost2010Prop41ColorRGB
 90
        0
102
RTVSPost2010PropOp41
 70
     1
102
RTVSPost2010Prop42
 90
       50
102
RTVSPost2010PropOp42
 70
     1
102
RTVSPost2010Prop43
 90
        3
102
RTVSPost2010PropOp43
 70
     1
102
RTVSPost2010Prop44ColorIndex
 90
        5
102
RTVSPost2010Prop44ColorRGB
 90
      255
102
RTVSPost2010PropOp44
 70
     1
102
RTVSPost2010Prop45
280
     0
102
RTVSPost2010PropOp45
 70
     1
102
RTVSPost2010Prop46
 90
       50
102
RTVSPost2010PropOp46
 70
     1
102
RTVSPost2010Prop47
 90
       50
102
RTVSPost2010PropOp47
 70
     1
102
RTVSPost2010Prop48
 90
       50
102
RTVSPost2010PropOp48
 70
     1
102
RTVSPost2010Prop49
280
     0
102
RTVSPost2010PropOp49
 70
     1
102
RTVSPost2010Prop50
 90
       50
102
RTVSPost2010PropOp50
 70
     1
102
RTVSPost2010Prop51ColorIndex
 90
      256
102
RTVSPost2010Prop51ColorRGB
 90
-16777216
102
RTVSPost2010PropOp51
 70
     0
102
RTVSPost2010Prop52
140
1.0
102
RTVSPost2010PropOp52
 70
     0
102
RTVSPost2010Prop53
 90
        2
102
RTVSPost2010PropOp53
 70
     1
102
RTVSPost2010Prop54
  1
strokes_ogs.tif
102
RTVSPost2010PropOp54
 70
     1
102
RTVSPost2010Prop55
280
     0
102
RTVSPost2010PropOp55
 70
     1
102
RTVSPost2010Prop56
140
1.0
102
RTVSPost2010PropOp56
 70
     1
102
RTVSPost2010Prop57
140
1.0
102
RTVSPost2010PropOp57
 70
     1
  0
XRECORD
  5
295
102
{ACAD_REACTORS
330
294
102
}
330
294
100
AcDbXrecord
280
     1
102
RTVSPost2010Prop28
280
     0
102
RTVSPost2010PropOp28
 70
     0
102
RTVSPost2010Prop29
280
     1
102
RTVSPost2010PropOp29
 70
     0
102
RTVSPost2010Prop30
280
     1
102
RTVSPost2010PropOp30
 70
     0
102
RTVSPost2010Prop31
280
     0
102
RTVSPost2010PropOp31
 70
     0
102
RTVSPost2010Prop32
280
     0
102
RTVSPost2010PropOp32
 70
     0
102
RTVSPost2010Prop33
280
     0
102
RTVSPost2010PropOp33
 70
     0
102
RTVSPost2010Prop34
280
     0
102
RTVSPost2010PropOp34
 70
     0
102
RTVSPost2010Prop35
280
     0
102
RTVSPost2010PropOp35
 70
     0
102
RTVSPost2010Prop36
280
     0
102
RTVSPost2010PropOp36
 70
     0
102
RTVSPost2010Prop37
 90
       50
102
RTVSPost2010PropOp37
 70
     0
102
RTVSPost2010Prop38
140
0.0
102
RTVSPost2010PropOp38
 70
     0
102
RTVSPost2010Prop39
140
1.0
102
RTVSPost2010PropOp39
 70
     0
102
RTVSPost2010Prop40
 90
        0
102
RTVSPost2010PropOp40
 70
     0
102
RTVSPost2010Prop41ColorIndex
 90
       18
102
RTVSPost2010Prop41ColorRGB
 90
        0
102
RTVSPost2010PropOp41
 70
     0
102
RTVSPost2010Prop42
 90
       50
102
RTVSPost2010PropOp42
 70
     0
102
RTVSPost2010Prop43
 90
        3
102
RTVSPost2010PropOp43
 70
     0
102
RTVSPost2010Prop44ColorIndex
 90
        5
102
RTVSPost2010Prop44ColorRGB
 90
      255
102
RTVSPost2010PropOp44
 70
     0
102
RTVSPost2010Prop45
280
     0
102
RTVSPost2010PropOp45
 70
     0
102
RTVSPost2010Prop46
 90
       50
102
RTVSPost2010PropOp46
 70
     0
102
RTVSPost2010Prop47
 90
       50
102
RTVSPost2010PropOp47
 70
     0
102
RTVSPost2010Prop48
 90
       50
102
RTVSPost2010PropOp48
 70
     0
102
RTVSPost2010Prop49
280
     0
102
RTVSPost2010PropOp49
 70
     0
102
RTVSPost2010Prop50
 90
       50
102
RTVSPost2010PropOp50
 70
     0
102
RTVSPost2010Prop51ColorIndex
 90
      256
102
RTVSPost2010Prop51ColorRGB
 90
-16777216
102
RTVSPost2010PropOp51
 70
     0
102
RTVSPost2010Prop52
140
1.0
102
RTVSPost2010PropOp52
 70
     0
102
RTVSPost2010Prop53
 90
        2
102
RTVSPost2010PropOp53
 70
     0
102
RTVSPost2010Prop54
  1
strokes_ogs.tif
102
RTVSPost2010PropOp54
 70
     0
102
RTVSPost2010Prop55
280
     0
102
RTVSPost2010PropOp55
 70
     0
102
RTVSPost2010Prop56
140
1.0
102
RTVSPost2010PropOp56
 70
     0
102
RTVSPost2010Prop57
140
1.0
102
RTVSPost2010PropOp57
 70
     0
  0
XRECORD
  5
28D
102
{ACAD_REACTORS
330
28C
102
}
330
28C
100
AcDbXrecord
280
     1
102
RTVSPost2010Prop28
280
     0
102
RTVSPost2010PropOp28
 70
     1
102
RTVSPost2010Prop29
280
     1
102
RTVSPost2010PropOp29
 70
     1
102
RTVSPost2010Prop30
280
     1
102
RTVSPost2010PropOp30
 70
     1
102
RTVSPost2010Prop31
280
     0
102
RTVSPost2010PropOp31
 70
     1
102
RTVSPost2010Prop32
280
     0
102
RTVSPost2010PropOp32
 70
     1
102
RTVSPost2010Prop33
280
     0
102
RTVSPost2010PropOp33
 70
     1
102
RTVSPost2010Prop34
280
     0
102
RTVSPost2010PropOp34
 70
     1
102
RTVSPost2010Prop35
280
     0
102
RTVSPost2010PropOp35
 70
     1
102
RTVSPost2010Prop36
280
     0
102
RTVSPost2010PropOp36
 70
     1
102
RTVSPost2010Prop37
 90
       50
102
RTVSPost2010PropOp37
 70
     1
102
RTVSPost2010Prop38
140
0.0
102
RTVSPost2010PropOp38
 70
     1
102
RTVSPost2010Prop39
140
1.0
102
RTVSPost2010PropOp39
 70
     1
102
RTVSPost2010Prop40
 90
        0
102
RTVSPost2010PropOp40
 70
     1
102
RTVSPost2010Prop41ColorIndex
 90
       18
102
RTVSPost2010Prop41ColorRGB
 90
        0
102
RTVSPost2010PropOp41
 70
     1
102
RTVSPost2010Prop42
 90
       50
102
RTVSPost2010PropOp42
 70
     1
102
RTVSPost2010Prop43
 90
        3
102
RTVSPost2010PropOp43
 70
     1
102
RTVSPost2010Prop44ColorIndex
 90
        5
102
RTVSPost2010Prop44ColorRGB
 90
      255
102
RTVSPost2010PropOp44
 70
     1
102
RTVSPost2010Prop45
280
     0
102
RTVSPost2010PropOp45
 70
     1
102
RTVSPost2010Prop46
 90
       50
102
RTVSPost2010PropOp46
 70
     1
102
RTVSPost2010Prop47
 90
       50
102
RTVSPost2010PropOp47
 70
     1
102
RTVSPost2010Prop48
 90
       50
102
RTVSPost2010PropOp48
 70
     1
102
RTVSPost2010Prop49
280
     0
102
RTVSPost2010PropOp49
 70
     1
102
RTVSPost2010Prop50
 90
       50
102
RTVSPost2010PropOp50
 70
     1
102
RTVSPost2010Prop51ColorIndex
 90
      256
102
RTVSPost2010Prop51ColorRGB
 90
-16777216
102
RTVSPost2010PropOp51
 70
     0
102
RTVSPost2010Prop52
140
1.0
102
RTVSPost2010PropOp52
 70
     0
102
RTVSPost2010Prop53
 90
        2
102
RTVSPost2010PropOp53
 70
     1
102
RTVSPost2010Prop54
  1
strokes_ogs.tif
102
RTVSPost2010PropOp54
 70
     1
102
RTVSPost2010Prop55
280
     0
102
RTVSPost2010PropOp55
 70
     1
102
RTVSPost2010Prop56
140
1.0
102
RTVSPost2010PropOp56
 70
     1
102
RTVSPost2010Prop57
140
1.0
102
RTVSPost2010PropOp57
 70
     1
  0
XRECORD
  5
271
102
{ACAD_REACTORS
330
270
102
}
330
270
100
AcDbXrecord
280
     1
102
RTVSPost2010Prop28
280
     0
102
RTVSPost2010PropOp28
 70
     1
102
RTVSPost2010Prop29
280
     1
102
RTVSPost2010PropOp29
 70
     1
102
RTVSPost2010Prop30
280
     1
102
RTVSPost2010PropOp30
 70
     1
102
RTVSPost2010Prop31
280
     0
102
RTVSPost2010PropOp31
 70
     1
102
RTVSPost2010Prop32
280
     0
102
RTVSPost2010PropOp32
 70
     1
102
RTVSPost2010Prop33
280
     0
102
RTVSPost2010PropOp33
 70
     1
102
RTVSPost2010Prop34
280
     0
102
RTVSPost2010PropOp34
 70
     1
102
RTVSPost2010Prop35
280
     0
102
RTVSPost2010PropOp35
 70
     1
102
RTVSPost2010Prop36
280
     0
102
RTVSPost2010PropOp36
 70
     1
102
RTVSPost2010Prop37
 90
       50
102
RTVSPost2010PropOp37
 70
     1
102
RTVSPost2010Prop38
140
0.0
102
RTVSPost2010PropOp38
 70
     1
102
RTVSPost2010Prop39
140
1.0
102
RTVSPost2010PropOp39
 70
     1
102
RTVSPost2010Prop40
 90
        0
102
RTVSPost2010PropOp40
 70
     1
102
RTVSPost2010Prop41ColorIndex
 90
       18
102
RTVSPost2010Prop41ColorRGB
 90
        0
102
RTVSPost2010PropOp41
 70
     1
102
RTVSPost2010Prop42
 90
       50
102
RTVSPost2010PropOp42
 70
     1
102
RTVSPost2010Prop43
 90
        3
102
RTVSPost2010PropOp43
 70
     1
102
RTVSPost2010Prop44ColorIndex
 90
        5
102
RTVSPost2010Prop44ColorRGB
 90
      255
102
RTVSPost2010PropOp44
 70
     1
102
RTVSPost2010Prop45
280
     0
102
RTVSPost2010PropOp45
 70
     1
102
RTVSPost2010Prop46
 90
       50
102
RTVSPost2010PropOp46
 70
     1
102
RTVSPost2010Prop47
 90
       50
102
RTVSPost2010PropOp47
 70
     1
102
RTVSPost2010Prop48
 90
       50
102
RTVSPost2010PropOp48
 70
     1
102
RTVSPost2010Prop49
280
     0
102
RTVSPost2010PropOp49
 70
     1
102
RTVSPost2010Prop50
 90
       50
102
RTVSPost2010PropOp50
 70
     1
102
RTVSPost2010Prop51ColorIndex
 90
      256
102
RTVSPost2010Prop51ColorRGB
 90
-16777216
102
RTVSPost2010PropOp51
 70
     0
102
RTVSPost2010Prop52
140
1.0
102
RTVSPost2010PropOp52
 70
     0
102
RTVSPost2010Prop53
 90
        2
102
RTVSPost2010PropOp53
 70
     1
102
RTVSPost2010Prop54
  1
strokes_ogs.tif
102
RTVSPost2010PropOp54
 70
     1
102
RTVSPost2010Prop55
280
     0
102
RTVSPost2010PropOp55
 70
     1
102
RTVSPost2010Prop56
140
1.0
102
RTVSPost2010PropOp56
 70
     1
102
RTVSPost2010Prop57
140
1.0
102
RTVSPost2010PropOp57
 70
     1
  0
XRECORD
  5
273
102
{ACAD_REACTORS
330
272
102
}
330
272
100
AcDbXrecord
280
     1
102
RTVSPost2010Prop28
280
     0
102
RTVSPost2010PropOp28
 70
     1
102
RTVSPost2010Prop29
280
     1
102
RTVSPost2010PropOp29
 70
     1
102
RTVSPost2010Prop30
280
     1
102
RTVSPost2010PropOp30
 70
     1
102
RTVSPost2010Prop31
280
     0
102
RTVSPost2010PropOp31
 70
     1
102
RTVSPost2010Prop32
280
     0
102
RTVSPost2010PropOp32
 70
     1
102
RTVSPost2010Prop33
280
     0
102
RTVSPost2010PropOp33
 70
     1
102
RTVSPost2010Prop34
280
     0
102
RTVSPost2010PropOp34
 70
     1
102
RTVSPost2010Prop35
280
     0
102
RTVSPost2010PropOp35
 70
     1
102
RTVSPost2010Prop36
280
     0
102
RTVSPost2010PropOp36
 70
     1
102
RTVSPost2010Prop37
 90
       50
102
RTVSPost2010PropOp37
 70
     1
102
RTVSPost2010Prop38
140
0.0
102
RTVSPost2010PropOp38
 70
     1
102
RTVSPost2010Prop39
140
1.0
102
RTVSPost2010PropOp39
 70
     1
102
RTVSPost2010Prop40
 90
        0
102
RTVSPost2010PropOp40
 70
     1
102
RTVSPost2010Prop41ColorIndex
 90
       18
102
RTVSPost2010Prop41ColorRGB
 90
        0
102
RTVSPost2010PropOp41
 70
     1
102
RTVSPost2010Prop42
 90
       50
102
RTVSPost2010PropOp42
 70
     1
102
RTVSPost2010Prop43
 90
        3
102
RTVSPost2010PropOp43
 70
     1
102
RTVSPost2010Prop44ColorIndex
 90
        5
102
RTVSPost2010Prop44ColorRGB
 90
      255
102
RTVSPost2010PropOp44
 70
     1
102
RTVSPost2010Prop45
280
     0
102
RTVSPost2010PropOp45
 70
     1
102
RTVSPost2010Prop46
 90
       50
102
RTVSPost2010PropOp46
 70
     1
102
RTVSPost2010Prop47
 90
       50
102
RTVSPost2010PropOp47
 70
     1
102
RTVSPost2010Prop48
 90
       50
102
RTVSPost2010PropOp48
 70
     1
102
RTVSPost2010Prop49
280
     0
102
RTVSPost2010PropOp49
 70
     1
102
RTVSPost2010Prop50
 90
       50
102
RTVSPost2010PropOp50
 70
     1
102
RTVSPost2010Prop51ColorIndex
 90
      256
102
RTVSPost2010Prop51ColorRGB
 90
-16777216
102
RTVSPost2010PropOp51
 70
     0
102
RTVSPost2010Prop52
140
1.0
102
RTVSPost2010PropOp52
 70
     0
102
RTVSPost2010Prop53
 90
        2
102
RTVSPost2010PropOp53
 70
     1
102
RTVSPost2010Prop54
  1
strokes_ogs.tif
102
RTVSPost2010PropOp54
 70
     1
102
RTVSPost2010Prop55
280
     0
102
RTVSPost2010PropOp55
 70
     1
102
RTVSPost2010Prop56
140
1.0
102
RTVSPost2010PropOp56
 70
     1
102
RTVSPost2010Prop57
140
1.0
102
RTVSPost2010PropOp57
 70
     1
  0
XRECORD
  5
275
102
{ACAD_REACTORS
330
274
102
}
330
274
100
AcDbXrecord
280
     1
102
RTVSPost2010Prop28
280
     0
102
RTVSPost2010PropOp28
 70
     1
102
RTVSPost2010Prop29
280
     1
102
RTVSPost2010PropOp29
 70
     1
102
RTVSPost2010Prop30
280
     1
102
RTVSPost2010PropOp30
 70
     1
102
RTVSPost2010Prop31
280
     0
102
RTVSPost2010PropOp31
 70
     1
102
RTVSPost2010Prop32
280
     0
102
RTVSPost2010PropOp32
 70
     1
102
RTVSPost2010Prop33
280
     0
102
RTVSPost2010PropOp33
 70
     1
102
RTVSPost2010Prop34
280
     0
102
RTVSPost2010PropOp34
 70
     1
102
RTVSPost2010Prop35
280
     0
102
RTVSPost2010PropOp35
 70
     1
102
RTVSPost2010Prop36
280
     0
102
RTVSPost2010PropOp36
 70
     1
102
RTVSPost2010Prop37
 90
       50
102
RTVSPost2010PropOp37
 70
     1
102
RTVSPost2010Prop38
140
0.0
102
RTVSPost2010PropOp38
 70
     1
102
RTVSPost2010Prop39
140
1.0
102
RTVSPost2010PropOp39
 70
     1
102
RTVSPost2010Prop40
 90
        0
102
RTVSPost2010PropOp40
 70
     1
102
RTVSPost2010Prop41ColorIndex
 90
       18
102
RTVSPost2010Prop41ColorRGB
 90
        0
102
RTVSPost2010PropOp41
 70
     1
102
RTVSPost2010Prop42
 90
       50
102
RTVSPost2010PropOp42
 70
     1
102
RTVSPost2010Prop43
 90
        3
102
RTVSPost2010PropOp43
 70
     1
102
RTVSPost2010Prop44ColorIndex
 90
        5
102
RTVSPost2010Prop44ColorRGB
 90
      255
102
RTVSPost2010PropOp44
 70
     1
102
RTVSPost2010Prop45
280
     0
102
RTVSPost2010PropOp45
 70
     1
102
RTVSPost2010Prop46
 90
       50
102
RTVSPost2010PropOp46
 70
     1
102
RTVSPost2010Prop47
 90
       50
102
RTVSPost2010PropOp47
 70
     1
102
RTVSPost2010Prop48
 90
       50
102
RTVSPost2010PropOp48
 70
     1
102
RTVSPost2010Prop49
280
     0
102
RTVSPost2010PropOp49
 70
     1
102
RTVSPost2010Prop50
 90
       50
102
RTVSPost2010PropOp50
 70
     1
102
RTVSPost2010Prop51ColorIndex
 90
      256
102
RTVSPost2010Prop51ColorRGB
 90
-16777216
102
RTVSPost2010PropOp51
 70
     0
102
RTVSPost2010Prop52
140
1.0
102
RTVSPost2010PropOp52
 70
     0
102
RTVSPost2010Prop53
 90
        2
102
RTVSPost2010PropOp53
 70
     1
102
RTVSPost2010Prop54
  1
strokes_ogs.tif
102
RTVSPost2010PropOp54
 70
     1
102
RTVSPost2010Prop55
280
     0
102
RTVSPost2010PropOp55
 70
     1
102
RTVSPost2010Prop56
140
1.0
102
RTVSPost2010PropOp56
 70
     1
102
RTVSPost2010Prop57
140
1.0
102
RTVSPost2010PropOp57
 70
     1
  0
XRECORD
  5
277
102
{ACAD_REACTORS
330
276
102
}
330
276
100
AcDbXrecord
280
     1
102
RTVSPost2010Prop28
280
     0
102
RTVSPost2010PropOp28
 70
     1
102
RTVSPost2010Prop29
280
     1
102
RTVSPost2010PropOp29
 70
     1
102
RTVSPost2010Prop30
280
     1
102
RTVSPost2010PropOp30
 70
     1
102
RTVSPost2010Prop31
280
     0
102
RTVSPost2010PropOp31
 70
     1
102
RTVSPost2010Prop32
280
     0
102
RTVSPost2010PropOp32
 70
     1
102
RTVSPost2010Prop33
280
     0
102
RTVSPost2010PropOp33
 70
     1
102
RTVSPost2010Prop34
280
     0
102
RTVSPost2010PropOp34
 70
     1
102
RTVSPost2010Prop35
280
     0
102
RTVSPost2010PropOp35
 70
     1
102
RTVSPost2010Prop36
280
     0
102
RTVSPost2010PropOp36
 70
     1
102
RTVSPost2010Prop37
 90
       50
102
RTVSPost2010PropOp37
 70
     1
102
RTVSPost2010Prop38
140
0.0
102
RTVSPost2010PropOp38
 70
     1
102
RTVSPost2010Prop39
140
1.0
102
RTVSPost2010PropOp39
 70
     1
102
RTVSPost2010Prop40
 90
        0
102
RTVSPost2010PropOp40
 70
     1
102
RTVSPost2010Prop41ColorIndex
 90
       18
102
RTVSPost2010Prop41ColorRGB
 90
        0
102
RTVSPost2010PropOp41
 70
     1
102
RTVSPost2010Prop42
 90
       50
102
RTVSPost2010PropOp42
 70
     1
102
RTVSPost2010Prop43
 90
        3
102
RTVSPost2010PropOp43
 70
     1
102
RTVSPost2010Prop44ColorIndex
 90
        5
102
RTVSPost2010Prop44ColorRGB
 90
      255
102
RTVSPost2010PropOp44
 70
     1
102
RTVSPost2010Prop45
280
     0
102
RTVSPost2010PropOp45
 70
     1
102
RTVSPost2010Prop46
 90
       50
102
RTVSPost2010PropOp46
 70
     1
102
RTVSPost2010Prop47
 90
       50
102
RTVSPost2010PropOp47
 70
     1
102
RTVSPost2010Prop48
 90
       50
102
RTVSPost2010PropOp48
 70
     1
102
RTVSPost2010Prop49
280
     0
102
RTVSPost2010PropOp49
 70
     1
102
RTVSPost2010Prop50
 90
       50
102
RTVSPost2010PropOp50
 70
     1
102
RTVSPost2010Prop51ColorIndex
 90
      256
102
RTVSPost2010Prop51ColorRGB
 90
-16777216
102
RTVSPost2010PropOp51
 70
     0
102
RTVSPost2010Prop52
140
1.0
102
RTVSPost2010PropOp52
 70
     0
102
RTVSPost2010Prop53
 90
        2
102
RTVSPost2010PropOp53
 70
     1
102
RTVSPost2010Prop54
  1
strokes_ogs.tif
102
RTVSPost2010PropOp54
 70
     1
102
RTVSPost2010Prop55
280
     0
102
RTVSPost2010PropOp55
 70
     1
102
RTVSPost2010Prop56
140
1.0
102
RTVSPost2010PropOp56
 70
     1
102
RTVSPost2010Prop57
140
1.0
102
RTVSPost2010PropOp57
 70
     1
  0
XRECORD
  5
27D
102
{ACAD_REACTORS
330
27C
102
}
330
27C
100
AcDbXrecord
280
     1
102
RTVSPost2010Prop28
280
     0
102
RTVSPost2010PropOp28
 70
     1
102
RTVSPost2010Prop29
280
     1
102
RTVSPost2010PropOp29
 70
     1
102
RTVSPost2010Prop30
280
     1
102
RTVSPost2010PropOp30
 70
     1
102
RTVSPost2010Prop31
280
     0
102
RTVSPost2010PropOp31
 70
     1
102
RTVSPost2010Prop32
280
     0
102
RTVSPost2010PropOp32
 70
     1
102
RTVSPost2010Prop33
280
     0
102
RTVSPost2010PropOp33
 70
     1
102
RTVSPost2010Prop34
280
     0
102
RTVSPost2010PropOp34
 70
     1
102
RTVSPost2010Prop35
280
     0
102
RTVSPost2010PropOp35
 70
     1
102
RTVSPost2010Prop36
280
     0
102
RTVSPost2010PropOp36
 70
     1
102
RTVSPost2010Prop37
 90
       50
102
RTVSPost2010PropOp37
 70
     1
102
RTVSPost2010Prop38
140
0.0
102
RTVSPost2010PropOp38
 70
     1
102
RTVSPost2010Prop39
140
1.0
102
RTVSPost2010PropOp39
 70
     1
102
RTVSPost2010Prop40
 90
        0
102
RTVSPost2010PropOp40
 70
     1
102
RTVSPost2010Prop41ColorIndex
 90
       18
102
RTVSPost2010Prop41ColorRGB
 90
        0
102
RTVSPost2010PropOp41
 70
     1
102
RTVSPost2010Prop42
 90
       50
102
RTVSPost2010PropOp42
 70
     1
102
RTVSPost2010Prop43
 90
        3
102
RTVSPost2010PropOp43
 70
     1
102
RTVSPost2010Prop44ColorIndex
 90
        5
102
RTVSPost2010Prop44ColorRGB
 90
      255
102
RTVSPost2010PropOp44
 70
     1
102
RTVSPost2010Prop45
280
     0
102
RTVSPost2010PropOp45
 70
     1
102
RTVSPost2010Prop46
 90
       50
102
RTVSPost2010PropOp46
 70
     1
102
RTVSPost2010Prop47
 90
       50
102
RTVSPost2010PropOp47
 70
     1
102
RTVSPost2010Prop48
 90
       50
102
RTVSPost2010PropOp48
 70
     1
102
RTVSPost2010Prop49
280
     0
102
RTVSPost2010PropOp49
 70
     1
102
RTVSPost2010Prop50
 90
       50
102
RTVSPost2010PropOp50
 70
     1
102
RTVSPost2010Prop51ColorIndex
 90
      256
102
RTVSPost2010Prop51ColorRGB
 90
-16777216
102
RTVSPost2010PropOp51
 70
     0
102
RTVSPost2010Prop52
140
1.0
102
RTVSPost2010PropOp52
 70
     0
102
RTVSPost2010Prop53
 90
        2
102
RTVSPost2010PropOp53
 70
     1
102
RTVSPost2010Prop54
  1
strokes_ogs.tif
102
RTVSPost2010PropOp54
 70
     1
102
RTVSPost2010Prop55
280
     0
102
RTVSPost2010PropOp55
 70
     1
102
RTVSPost2010Prop56
140
1.0
102
RTVSPost2010PropOp56
 70
     1
102
RTVSPost2010Prop57
140
1.0
102
RTVSPost2010PropOp57
 70
     1
  0
XRECORD
  5
291
102
{ACAD_REACTORS
330
290
102
}
330
290
100
AcDbXrecord
280
     1
102
RTVSPost2010Prop28
280
     0
102
RTVSPost2010PropOp28
 70
     0
102
RTVSPost2010Prop29
280
     1
102
RTVSPost2010PropOp29
 70
     0
102
RTVSPost2010Prop30
280
     1
102
RTVSPost2010PropOp30
 70
     0
102
RTVSPost2010Prop31
280
     0
102
RTVSPost2010PropOp31
 70
     0
102
RTVSPost2010Prop32
280
     0
102
RTVSPost2010PropOp32
 70
     0
102
RTVSPost2010Prop33
280
     0
102
RTVSPost2010PropOp33
 70
     0
102
RTVSPost2010Prop34
280
     0
102
RTVSPost2010PropOp34
 70
     0
102
RTVSPost2010Prop35
280
     0
102
RTVSPost2010PropOp35
 70
     0
102
RTVSPost2010Prop36
280
     0
102
RTVSPost2010PropOp36
 70
     0
102
RTVSPost2010Prop37
 90
       50
102
RTVSPost2010PropOp37
 70
     0
102
RTVSPost2010Prop38
140
0.0
102
RTVSPost2010PropOp38
 70
     0
102
RTVSPost2010Prop39
140
1.0
102
RTVSPost2010PropOp39
 70
     0
102
RTVSPost2010Prop40
 90
        0
102
RTVSPost2010PropOp40
 70
     0
102
RTVSPost2010Prop41ColorIndex
 90
       18
102
RTVSPost2010Prop41ColorRGB
 90
        0
102
RTVSPost2010PropOp41
 70
     0
102
RTVSPost2010Prop42
 90
       50
102
RTVSPost2010PropOp42
 70
     0
102
RTVSPost2010Prop43
 90
        3
102
RTVSPost2010PropOp43
 70
     0
102
RTVSPost2010Prop44ColorIndex
 90
        5
102
RTVSPost2010Prop44ColorRGB
 90
      255
102
RTVSPost2010PropOp44
 70
     0
102
RTVSPost2010Prop45
280
     0
102
RTVSPost2010PropOp45
 70
     0
102
RTVSPost2010Prop46
 90
       50
102
RTVSPost2010PropOp46
 70
     0
102
RTVSPost2010Prop47
 90
       50
102
RTVSPost2010PropOp47
 70
     0
102
RTVSPost2010Prop48
 90
       50
102
RTVSPost2010PropOp48
 70
     0
102
RTVSPost2010Prop49
280
     0
102
RTVSPost2010PropOp49
 70
     0
102
RTVSPost2010Prop50
 90
       50
102
RTVSPost2010PropOp50
 70
     0
102
RTVSPost2010Prop51ColorIndex
 90
      256
102
RTVSPost2010Prop51ColorRGB
 90
-16777216
102
RTVSPost2010PropOp51
 70
     0
102
RTVSPost2010Prop52
140
1.0
102
RTVSPost2010PropOp52
 70
     0
102
RTVSPost2010Prop53
 90
        2
102
RTVSPost2010PropOp53
 70
     0
102
RTVSPost2010Prop54
  1
strokes_ogs.tif
102
RTVSPost2010PropOp54
 70
     0
102
RTVSPost2010Prop55
280
     0
102
RTVSPost2010PropOp55
 70
     0
102
RTVSPost2010Prop56
140
1.0
102
RTVSPost2010PropOp56
 70
     0
102
RTVSPost2010Prop57
140
1.0
102
RTVSPost2010PropOp57
 70
     0
  0
XRECORD
  5
28B
102
{ACAD_REACTORS
330
28A
102
}
330
28A
100
AcDbXrecord
280
     1
102
RTVSPost2010Prop28
280
     0
102
RTVSPost2010PropOp28
 70
     1
102
RTVSPost2010Prop29
280
     1
102
RTVSPost2010PropOp29
 70
     1
102
RTVSPost2010Prop30
280
     1
102
RTVSPost2010PropOp30
 70
     1
102
RTVSPost2010Prop31
280
     0
102
RTVSPost2010PropOp31
 70
     1
102
RTVSPost2010Prop32
280
     0
102
RTVSPost2010PropOp32
 70
     1
102
RTVSPost2010Prop33
280
     0
102
RTVSPost2010PropOp33
 70
     1
102
RTVSPost2010Prop34
280
     0
102
RTVSPost2010PropOp34
 70
     1
102
RTVSPost2010Prop35
280
     0
102
RTVSPost2010PropOp35
 70
     1
102
RTVSPost2010Prop36
280
     0
102
RTVSPost2010PropOp36
 70
     1
102
RTVSPost2010Prop37
 90
       50
102
RTVSPost2010PropOp37
 70
     1
102
RTVSPost2010Prop38
140
0.0
102
RTVSPost2010PropOp38
 70
     1
102
RTVSPost2010Prop39
140
1.0
102
RTVSPost2010PropOp39
 70
     1
102
RTVSPost2010Prop40
 90
        0
102
RTVSPost2010PropOp40
 70
     1
102
RTVSPost2010Prop41ColorIndex
 90
       18
102
RTVSPost2010Prop41ColorRGB
 90
        0
102
RTVSPost2010PropOp41
 70
     1
102
RTVSPost2010Prop42
 90
       50
102
RTVSPost2010PropOp42
 70
     1
102
RTVSPost2010Prop43
 90
        3
102
RTVSPost2010PropOp43
 70
     1
102
RTVSPost2010Prop44ColorIndex
 90
        5
102
RTVSPost2010Prop44ColorRGB
 90
      255
102
RTVSPost2010PropOp44
 70
     1
102
RTVSPost2010Prop45
280
     0
102
RTVSPost2010PropOp45
 70
     1
102
RTVSPost2010Prop46
 90
       50
102
RTVSPost2010PropOp46
 70
     1
102
RTVSPost2010Prop47
 90
       50
102
RTVSPost2010PropOp47
 70
     1
102
RTVSPost2010Prop48
 90
       50
102
RTVSPost2010PropOp48
 70
     1
102
RTVSPost2010Prop49
280
     0
102
RTVSPost2010PropOp49
 70
     1
102
RTVSPost2010Prop50
 90
       50
102
RTVSPost2010PropOp50
 70
     1
102
RTVSPost2010Prop51ColorIndex
 90
      256
102
RTVSPost2010Prop51ColorRGB
 90
-16777216
102
RTVSPost2010PropOp51
 70
     0
102
RTVSPost2010Prop52
140
1.0
102
RTVSPost2010PropOp52
 70
     0
102
RTVSPost2010Prop53
 90
        2
102
RTVSPost2010PropOp53
 70
     1
102
RTVSPost2010Prop54
  1
strokes_ogs.tif
102
RTVSPost2010PropOp54
 70
     1
102
RTVSPost2010Prop55
280
     0
102
RTVSPost2010PropOp55
 70
     1
102
RTVSPost2010Prop56
140
1.0
102
RTVSPost2010PropOp56
 70
     1
102
RTVSPost2010Prop57
140
1.0
102
RTVSPost2010PropOp57
 70
     1
  0
XRECORD
  5
293
102
{ACAD_REACTORS
330
292
102
}
330
292
100
AcDbXrecord
280
     1
102
RTVSPost2010Prop28
280
     0
102
RTVSPost2010PropOp28
 70
     0
102
RTVSPost2010Prop29
280
     1
102
RTVSPost2010PropOp29
 70
     0
102
RTVSPost2010Prop30
280
     1
102
RTVSPost2010PropOp30
 70
     0
102
RTVSPost2010Prop31
280
     0
102
RTVSPost2010PropOp31
 70
     0
102
RTVSPost2010Prop32
280
     0
102
RTVSPost2010PropOp32
 70
     0
102
RTVSPost2010Prop33
280
     0
102
RTVSPost2010PropOp33
 70
     0
102
RTVSPost2010Prop34
280
     0
102
RTVSPost2010PropOp34
 70
     0
102
RTVSPost2010Prop35
280
     0
102
RTVSPost2010PropOp35
 70
     0
102
RTVSPost2010Prop36
280
     0
102
RTVSPost2010PropOp36
 70
     0
102
RTVSPost2010Prop37
 90
       50
102
RTVSPost2010PropOp37
 70
     0
102
RTVSPost2010Prop38
140
0.0
102
RTVSPost2010PropOp38
 70
     0
102
RTVSPost2010Prop39
140
1.0
102
RTVSPost2010PropOp39
 70
     0
102
RTVSPost2010Prop40
 90
        0
102
RTVSPost2010PropOp40
 70
     0
102
RTVSPost2010Prop41ColorIndex
 90
       18
102
RTVSPost2010Prop41ColorRGB
 90
        0
102
RTVSPost2010PropOp41
 70
     0
102
RTVSPost2010Prop42
 90
       50
102
RTVSPost2010PropOp42
 70
     0
102
RTVSPost2010Prop43
 90
        3
102
RTVSPost2010PropOp43
 70
     0
102
RTVSPost2010Prop44ColorIndex
 90
        5
102
RTVSPost2010Prop44ColorRGB
 90
      255
102
RTVSPost2010PropOp44
 70
     0
102
RTVSPost2010Prop45
280
     0
102
RTVSPost2010PropOp45
 70
     0
102
RTVSPost2010Prop46
 90
       50
102
RTVSPost2010PropOp46
 70
     0
102
RTVSPost2010Prop47
 90
       50
102
RTVSPost2010PropOp47
 70
     0
102
RTVSPost2010Prop48
 90
       50
102
RTVSPost2010PropOp48
 70
     0
102
RTVSPost2010Prop49
280
     0
102
RTVSPost2010PropOp49
 70
     0
102
RTVSPost2010Prop50
 90
       50
102
RTVSPost2010PropOp50
 70
     0
102
RTVSPost2010Prop51ColorIndex
 90
      256
102
RTVSPost2010Prop51ColorRGB
 90
-16777216
102
RTVSPost2010PropOp51
 70
     0
102
RTVSPost2010Prop52
140
1.0
102
RTVSPost2010PropOp52
 70
     0
102
RTVSPost2010Prop53
 90
        2
102
RTVSPost2010PropOp53
 70
     0
102
RTVSPost2010Prop54
  1
strokes_ogs.tif
102
RTVSPost2010PropOp54
 70
     0
102
RTVSPost2010Prop55
280
     0
102
RTVSPost2010PropOp55
 70
     0
102
RTVSPost2010Prop56
140
1.0
102
RTVSPost2010PropOp56
 70
     0
102
RTVSPost2010Prop57
140
1.0
102
RTVSPost2010PropOp57
 70
     0
  0
XRECORD
  5
281
102
{ACAD_REACTORS
330
280
102
}
330
280
100
AcDbXrecord
280
     1
102
RTVSPost2010Prop28
280
     0
102
RTVSPost2010PropOp28
 70
     1
102
RTVSPost2010Prop29
280
     1
102
RTVSPost2010PropOp29
 70
     1
102
RTVSPost2010Prop30
280
     1
102
RTVSPost2010PropOp30
 70
     1
102
RTVSPost2010Prop31
280
     0
102
RTVSPost2010PropOp31
 70
     1
102
RTVSPost2010Prop32
280
     0
102
RTVSPost2010PropOp32
 70
     1
102
RTVSPost2010Prop33
280
     0
102
RTVSPost2010PropOp33
 70
     1
102
RTVSPost2010Prop34
280
     0
102
RTVSPost2010PropOp34
 70
     1
102
RTVSPost2010Prop35
280
     0
102
RTVSPost2010PropOp35
 70
     1
102
RTVSPost2010Prop36
280
     0
102
RTVSPost2010PropOp36
 70
     1
102
RTVSPost2010Prop37
 90
       50
102
RTVSPost2010PropOp37
 70
     1
102
RTVSPost2010Prop38
140
0.0
102
RTVSPost2010PropOp38
 70
     1
102
RTVSPost2010Prop39
140
1.0
102
RTVSPost2010PropOp39
 70
     1
102
RTVSPost2010Prop40
 90
        0
102
RTVSPost2010PropOp40
 70
     1
102
RTVSPost2010Prop41ColorIndex
 90
       18
102
RTVSPost2010Prop41ColorRGB
 90
        0
102
RTVSPost2010PropOp41
 70
     1
102
RTVSPost2010Prop42
 90
       50
102
RTVSPost2010PropOp42
 70
     1
102
RTVSPost2010Prop43
 90
        3
102
RTVSPost2010PropOp43
 70
     1
102
RTVSPost2010Prop44ColorIndex
 90
        5
102
RTVSPost2010Prop44ColorRGB
 90
      255
102
RTVSPost2010PropOp44
 70
     1
102
RTVSPost2010Prop45
280
     0
102
RTVSPost2010PropOp45
 70
     1
102
RTVSPost2010Prop46
 90
       50
102
RTVSPost2010PropOp46
 70
     1
102
RTVSPost2010Prop47
 90
       50
102
RTVSPost2010PropOp47
 70
     1
102
RTVSPost2010Prop48
 90
       50
102
RTVSPost2010PropOp48
 70
     1
102
RTVSPost2010Prop49
280
     0
102
RTVSPost2010PropOp49
 70
     1
102
RTVSPost2010Prop50
 90
       50
102
RTVSPost2010PropOp50
 70
     1
102
RTVSPost2010Prop51ColorIndex
 90
      256
102
RTVSPost2010Prop51ColorRGB
 90
-16777216
102
RTVSPost2010PropOp51
 70
     0
102
RTVSPost2010Prop52
140
1.0
102
RTVSPost2010PropOp52
 70
     0
102
RTVSPost2010Prop53
 90
        2
102
RTVSPost2010PropOp53
 70
     1
102
RTVSPost2010Prop54
  1
strokes_ogs.tif
102
RTVSPost2010PropOp54
 70
     1
102
RTVSPost2010Prop55
280
     0
102
RTVSPost2010PropOp55
 70
     1
102
RTVSPost2010Prop56
140
1.0
102
RTVSPost2010PropOp56
 70
     1
102
RTVSPost2010Prop57
140
1.0
102
RTVSPost2010PropOp57
 70
     1
  0
XRECORD
  5
29F
102
{ACAD_REACTORS
330
29E
102
}
330
29E
100
AcDbXrecord
280
     1
102
RTVSPost2010Prop28
280
     0
102
RTVSPost2010PropOp28
 70
     1
102
RTVSPost2010Prop29
280
     1
102
RTVSPost2010PropOp29
 70
     1
102
RTVSPost2010Prop30
280
     1
102
RTVSPost2010PropOp30
 70
     1
102
RTVSPost2010Prop31
280
     0
102
RTVSPost2010PropOp31
 70
     1
102
RTVSPost2010Prop32
280
     0
102
RTVSPost2010PropOp32
 70
     1
102
RTVSPost2010Prop33
280
     0
102
RTVSPost2010PropOp33
 70
     1
102
RTVSPost2010Prop34
280
     0
102
RTVSPost2010PropOp34
 70
     1
102
RTVSPost2010Prop35
280
     0
102
RTVSPost2010PropOp35
 70
     1
102
RTVSPost2010Prop36
280
     0
102
RTVSPost2010PropOp36
 70
     1
102
RTVSPost2010Prop37
 90
       50
102
RTVSPost2010PropOp37
 70
     1
102
RTVSPost2010Prop38
140
0.0
102
RTVSPost2010PropOp38
 70
     1
102
RTVSPost2010Prop39
140
1.0
102
RTVSPost2010PropOp39
 70
     1
102
RTVSPost2010Prop40
 90
        0
102
RTVSPost2010PropOp40
 70
     1
102
RTVSPost2010Prop41ColorIndex
 90
       18
102
RTVSPost2010Prop41ColorRGB
 90
        0
102
RTVSPost2010PropOp41
 70
     1
102
RTVSPost2010Prop42
 90
       50
102
RTVSPost2010PropOp42
 70
     1
102
RTVSPost2010Prop43
 90
        3
102
RTVSPost2010PropOp43
 70
     1
102
RTVSPost2010Prop44ColorIndex
 90
        5
102
RTVSPost2010Prop44ColorRGB
 90
      255
102
RTVSPost2010PropOp44
 70
     1
102
RTVSPost2010Prop45
280
     0
102
RTVSPost2010PropOp45
 70
     1
102
RTVSPost2010Prop46
 90
       50
102
RTVSPost2010PropOp46
 70
     1
102
RTVSPost2010Prop47
 90
       50
102
RTVSPost2010PropOp47
 70
     1
102
RTVSPost2010Prop48
 90
       50
102
RTVSPost2010PropOp48
 70
     1
102
RTVSPost2010Prop49
280
     0
102
RTVSPost2010PropOp49
 70
     1
102
RTVSPost2010Prop50
 90
       50
102
RTVSPost2010PropOp50
 70
     1
102
RTVSPost2010Prop51ColorIndex
 90
      256
102
RTVSPost2010Prop51ColorRGB
 90
-16777216
102
RTVSPost2010PropOp51
 70
     0
102
RTVSPost2010Prop52
140
1.0
102
RTVSPost2010PropOp52
 70
     0
102
RTVSPost2010Prop53
 90
        2
102
RTVSPost2010PropOp53
 70
     1
102
RTVSPost2010Prop54
  1
strokes_ogs.tif
102
RTVSPost2010PropOp54
 70
     1
102
RTVSPost2010Prop55
280
     0
102
RTVSPost2010PropOp55
 70
     1
102
RTVSPost2010Prop56
140
1.0
102
RTVSPost2010PropOp56
 70
     1
102
RTVSPost2010Prop57
140
1.0
102
RTVSPost2010PropOp57
 70
     1
  0
XRECORD
  5
29D
102
{ACAD_REACTORS
330
29C
102
}
330
29C
100
AcDbXrecord
280
     1
102
RTVSPost2010Prop28
280
     0
102
RTVSPost2010PropOp28
 70
     1
102
RTVSPost2010Prop29
280
     1
102
RTVSPost2010PropOp29
 70
     1
102
RTVSPost2010Prop30
280
     1
102
RTVSPost2010PropOp30
 70
     1
102
RTVSPost2010Prop31
280
     0
102
RTVSPost2010PropOp31
 70
     1
102
RTVSPost2010Prop32
280
     0
102
RTVSPost2010PropOp32
 70
     1
102
RTVSPost2010Prop33
280
     0
102
RTVSPost2010PropOp33
 70
     1
102
RTVSPost2010Prop34
280
     0
102
RTVSPost2010PropOp34
 70
     1
102
RTVSPost2010Prop35
280
     0
102
RTVSPost2010PropOp35
 70
     1
102
RTVSPost2010Prop36
280
     0
102
RTVSPost2010PropOp36
 70
     1
102
RTVSPost2010Prop37
 90
       50
102
RTVSPost2010PropOp37
 70
     1
102
RTVSPost2010Prop38
140
0.0
102
RTVSPost2010PropOp38
 70
     1
102
RTVSPost2010Prop39
140
1.0
102
RTVSPost2010PropOp39
 70
     1
102
RTVSPost2010Prop40
 90
        0
102
RTVSPost2010PropOp40
 70
     1
102
RTVSPost2010Prop41ColorIndex
 90
       18
102
RTVSPost2010Prop41ColorRGB
 90
        0
102
RTVSPost2010PropOp41
 70
     1
102
RTVSPost2010Prop42
 90
       50
102
RTVSPost2010PropOp42
 70
     1
102
RTVSPost2010Prop43
 90
        3
102
RTVSPost2010PropOp43
 70
     1
102
RTVSPost2010Prop44ColorIndex
 90
        5
102
RTVSPost2010Prop44ColorRGB
 90
      255
102
RTVSPost2010PropOp44
 70
     1
102
RTVSPost2010Prop45
280
     0
102
RTVSPost2010PropOp45
 70
     1
102
RTVSPost2010Prop46
 90
       50
102
RTVSPost2010PropOp46
 70
     1
102
RTVSPost2010Prop47
 90
       50
102
RTVSPost2010PropOp47
 70
     1
102
RTVSPost2010Prop48
 90
       50
102
RTVSPost2010PropOp48
 70
     1
102
RTVSPost2010Prop49
280
     0
102
RTVSPost2010PropOp49
 70
     1
102
RTVSPost2010Prop50
 90
       50
102
RTVSPost2010PropOp50
 70
     1
102
RTVSPost2010Prop51ColorIndex
 90
      256
102
RTVSPost2010Prop51ColorRGB
 90
-16777216
102
RTVSPost2010PropOp51
 70
     0
102
RTVSPost2010Prop52
140
1.0
102
RTVSPost2010PropOp52
 70
     0
102
RTVSPost2010Prop53
 90
        2
102
RTVSPost2010PropOp53
 70
     1
102
RTVSPost2010Prop54
  1
strokes_ogs.tif
102
RTVSPost2010PropOp54
 70
     1
102
RTVSPost2010Prop55
280
     0
102
RTVSPost2010PropOp55
 70
     1
102
RTVSPost2010Prop56
140
1.0
102
RTVSPost2010PropOp56
 70
     1
102
RTVSPost2010Prop57
140
1.0
102
RTVSPost2010PropOp57
 70
     1
  0
XRECORD
  5
297
102
{ACAD_REACTORS
330
296
102
}
330
296
100
AcDbXrecord
280
     1
102
RTVSPost2010Prop28
280
     0
102
RTVSPost2010PropOp28
 70
     1
102
RTVSPost2010Prop29
280
     1
102
RTVSPost2010PropOp29
 70
     1
102
RTVSPost2010Prop30
280
     1
102
RTVSPost2010PropOp30
 70
     1
102
RTVSPost2010Prop31
280
     0
102
RTVSPost2010PropOp31
 70
     1
102
RTVSPost2010Prop32
280
     0
102
RTVSPost2010PropOp32
 70
     1
102
RTVSPost2010Prop33
280
     0
102
RTVSPost2010PropOp33
 70
     1
102
RTVSPost2010Prop34
280
     0
102
RTVSPost2010PropOp34
 70
     1
102
RTVSPost2010Prop35
280
     0
102
RTVSPost2010PropOp35
 70
     1
102
RTVSPost2010Prop36
280
     0
102
RTVSPost2010PropOp36
 70
     1
102
RTVSPost2010Prop37
 90
       50
102
RTVSPost2010PropOp37
 70
     1
102
RTVSPost2010Prop38
140
0.0
102
RTVSPost2010PropOp38
 70
     1
102
RTVSPost2010Prop39
140
1.0
102
RTVSPost2010PropOp39
 70
     1
102
RTVSPost2010Prop40
 90
        0
102
RTVSPost2010PropOp40
 70
     1
102
RTVSPost2010Prop41ColorIndex
 90
       18
102
RTVSPost2010Prop41ColorRGB
 90
        0
102
RTVSPost2010PropOp41
 70
     1
102
RTVSPost2010Prop42
 90
       50
102
RTVSPost2010PropOp42
 70
     1
102
RTVSPost2010Prop43
 90
        3
102
RTVSPost2010PropOp43
 70
     1
102
RTVSPost2010Prop44ColorIndex
 90
        5
102
RTVSPost2010Prop44ColorRGB
 90
      255
102
RTVSPost2010PropOp44
 70
     1
102
RTVSPost2010Prop45
280
     0
102
RTVSPost2010PropOp45
 70
     1
102
RTVSPost2010Prop46
 90
       50
102
RTVSPost2010PropOp46
 70
     1
102
RTVSPost2010Prop47
 90
       50
102
RTVSPost2010PropOp47
 70
     1
102
RTVSPost2010Prop48
 90
       50
102
RTVSPost2010PropOp48
 70
     1
102
RTVSPost2010Prop49
280
     0
102
RTVSPost2010PropOp49
 70
     1
102
RTVSPost2010Prop50
 90
       50
102
RTVSPost2010PropOp50
 70
     1
102
RTVSPost2010Prop51ColorIndex
 90
      256
102
RTVSPost2010Prop51ColorRGB
 90
-16777216
102
RTVSPost2010PropOp51
 70
     0
102
RTVSPost2010Prop52
140
1.0
102
RTVSPost2010PropOp52
 70
     0
102
RTVSPost2010Prop53
 90
        2
102
RTVSPost2010PropOp53
 70
     1
102
RTVSPost2010Prop54
  1
strokes_ogs.tif
102
RTVSPost2010PropOp54
 70
     1
102
RTVSPost2010Prop55
280
     0
102
RTVSPost2010PropOp55
 70
     1
102
RTVSPost2010Prop56
140
1.0
102
RTVSPost2010PropOp56
 70
     1
102
RTVSPost2010Prop57
140
1.0
102
RTVSPost2010PropOp57
 70
     1
  0
XRECORD
  5
299
102
{ACAD_REACTORS
330
298
102
}
330
298
100
AcDbXrecord
280
     1
102
RTVSPost2010Prop28
280
     0
102
RTVSPost2010PropOp28
 70
     1
102
RTVSPost2010Prop29
280
     1
102
RTVSPost2010PropOp29
 70
     1
102
RTVSPost2010Prop30
280
     1
102
RTVSPost2010PropOp30
 70
     1
102
RTVSPost2010Prop31
280
     0
102
RTVSPost2010PropOp31
 70
     1
102
RTVSPost2010Prop32
280
     0
102
RTVSPost2010PropOp32
 70
     1
102
RTVSPost2010Prop33
280
     0
102
RTVSPost2010PropOp33
 70
     1
102
RTVSPost2010Prop34
280
     0
102
RTVSPost2010PropOp34
 70
     1
102
RTVSPost2010Prop35
280
     0
102
RTVSPost2010PropOp35
 70
     1
102
RTVSPost2010Prop36
280
     0
102
RTVSPost2010PropOp36
 70
     1
102
RTVSPost2010Prop37
 90
       50
102
RTVSPost2010PropOp37
 70
     1
102
RTVSPost2010Prop38
140
0.0
102
RTVSPost2010PropOp38
 70
     1
102
RTVSPost2010Prop39
140
1.0
102
RTVSPost2010PropOp39
 70
     1
102
RTVSPost2010Prop40
 90
        0
102
RTVSPost2010PropOp40
 70
     1
102
RTVSPost2010Prop41ColorIndex
 90
       18
102
RTVSPost2010Prop41ColorRGB
 90
        0
102
RTVSPost2010PropOp41
 70
     1
102
RTVSPost2010Prop42
 90
       50
102
RTVSPost2010PropOp42
 70
     1
102
RTVSPost2010Prop43
 90
        3
102
RTVSPost2010PropOp43
 70
     1
102
RTVSPost2010Prop44ColorIndex
 90
        5
102
RTVSPost2010Prop44ColorRGB
 90
      255
102
RTVSPost2010PropOp44
 70
     1
102
RTVSPost2010Prop45
280
     0
102
RTVSPost2010PropOp45
 70
     1
102
RTVSPost2010Prop46
 90
       50
102
RTVSPost2010PropOp46
 70
     1
102
RTVSPost2010Prop47
 90
       50
102
RTVSPost2010PropOp47
 70
     1
102
RTVSPost2010Prop48
 90
       50
102
RTVSPost2010PropOp48
 70
     1
102
RTVSPost2010Prop49
280
     0
102
RTVSPost2010PropOp49
 70
     1
102
RTVSPost2010Prop50
 90
       50
102
RTVSPost2010PropOp50
 70
     1
102
RTVSPost2010Prop51ColorIndex
 90
      256
102
RTVSPost2010Prop51ColorRGB
 90
-16777216
102
RTVSPost2010PropOp51
 70
     0
102
RTVSPost2010Prop52
140
1.0
102
RTVSPost2010PropOp52
 70
     0
102
RTVSPost2010Prop53
 90
        2
102
RTVSPost2010PropOp53
 70
     1
102
RTVSPost2010Prop54
  1
strokes_ogs.tif
102
RTVSPost2010PropOp54
 70
     1
102
RTVSPost2010Prop55
280
     0
102
RTVSPost2010PropOp55
 70
     1
102
RTVSPost2010Prop56
140
1.0
102
RTVSPost2010PropOp56
 70
     1
102
RTVSPost2010Prop57
140
1.0
102
RTVSPost2010PropOp57
 70
     1
  0
XRECORD
  5
289
102
{ACAD_REACTORS
330
288
102
}
330
288
100
AcDbXrecord
280
     1
102
RTVSPost2010Prop28
280
     0
102
RTVSPost2010PropOp28
 70
     1
102
RTVSPost2010Prop29
280
     1
102
RTVSPost2010PropOp29
 70
     1
102
RTVSPost2010Prop30
280
     1
102
RTVSPost2010PropOp30
 70
     1
102
RTVSPost2010Prop31
280
     0
102
RTVSPost2010PropOp31
 70
     1
102
RTVSPost2010Prop32
280
     0
102
RTVSPost2010PropOp32
 70
     1
102
RTVSPost2010Prop33
280
     0
102
RTVSPost2010PropOp33
 70
     1
102
RTVSPost2010Prop34
280
     0
102
RTVSPost2010PropOp34
 70
     1
102
RTVSPost2010Prop35
280
     0
102
RTVSPost2010PropOp35
 70
     1
102
RTVSPost2010Prop36
280
     0
102
RTVSPost2010PropOp36
 70
     1
102
RTVSPost2010Prop37
 90
       50
102
RTVSPost2010PropOp37
 70
     1
102
RTVSPost2010Prop38
140
0.0
102
RTVSPost2010PropOp38
 70
     1
102
RTVSPost2010Prop39
140
1.0
102
RTVSPost2010PropOp39
 70
     1
102
RTVSPost2010Prop40
 90
        0
102
RTVSPost2010PropOp40
 70
     1
102
RTVSPost2010Prop41ColorIndex
 90
       18
102
RTVSPost2010Prop41ColorRGB
 90
        0
102
RTVSPost2010PropOp41
 70
     1
102
RTVSPost2010Prop42
 90
       50
102
RTVSPost2010PropOp42
 70
     1
102
RTVSPost2010Prop43
 90
        3
102
RTVSPost2010PropOp43
 70
     1
102
RTVSPost2010Prop44ColorIndex
 90
        5
102
RTVSPost2010Prop44ColorRGB
 90
      255
102
RTVSPost2010PropOp44
 70
     1
102
RTVSPost2010Prop45
280
     0
102
RTVSPost2010PropOp45
 70
     1
102
RTVSPost2010Prop46
 90
       50
102
RTVSPost2010PropOp46
 70
     1
102
RTVSPost2010Prop47
 90
       50
102
RTVSPost2010PropOp47
 70
     1
102
RTVSPost2010Prop48
 90
       50
102
RTVSPost2010PropOp48
 70
     1
102
RTVSPost2010Prop49
280
     0
102
RTVSPost2010PropOp49
 70
     1
102
RTVSPost2010Prop50
 90
       50
102
RTVSPost2010PropOp50
 70
     1
102
RTVSPost2010Prop51ColorIndex
 90
      256
102
RTVSPost2010Prop51ColorRGB
 90
-16777216
102
RTVSPost2010PropOp51
 70
     0
102
RTVSPost2010Prop52
140
1.0
102
RTVSPost2010PropOp52
 70
     0
102
RTVSPost2010Prop53
 90
        2
102
RTVSPost2010PropOp53
 70
     1
102
RTVSPost2010Prop54
  1
strokes_ogs.tif
102
RTVSPost2010PropOp54
 70
     1
102
RTVSPost2010Prop55
280
     0
102
RTVSPost2010PropOp55
 70
     1
102
RTVSPost2010Prop56
140
1.0
102
RTVSPost2010PropOp56
 70
     1
102
RTVSPost2010Prop57
140
1.0
102
RTVSPost2010PropOp57
 70
     1
  0
XRECORD
  5
27B
102
{ACAD_REACTORS
330
27A
102
}
330
27A
100
AcDbXrecord
280
     1
102
RTVSPost2010Prop28
280
     0
102
RTVSPost2010PropOp28
 70
     1
102
RTVSPost2010Prop29
280
     1
102
RTVSPost2010PropOp29
 70
     1
102
RTVSPost2010Prop30
280
     1
102
RTVSPost2010PropOp30
 70
     1
102
RTVSPost2010Prop31
280
     0
102
RTVSPost2010PropOp31
 70
     1
102
RTVSPost2010Prop32
280
     0
102
RTVSPost2010PropOp32
 70
     1
102
RTVSPost2010Prop33
280
     0
102
RTVSPost2010PropOp33
 70
     1
102
RTVSPost2010Prop34
280
     0
102
RTVSPost2010PropOp34
 70
     1
102
RTVSPost2010Prop35
280
     0
102
RTVSPost2010PropOp35
 70
     1
102
RTVSPost2010Prop36
280
     0
102
RTVSPost2010PropOp36
 70
     1
102
RTVSPost2010Prop37
 90
       50
102
RTVSPost2010PropOp37
 70
     1
102
RTVSPost2010Prop38
140
0.0
102
RTVSPost2010PropOp38
 70
     1
102
RTVSPost2010Prop39
140
1.0
102
RTVSPost2010PropOp39
 70
     1
102
RTVSPost2010Prop40
 90
        0
102
RTVSPost2010PropOp40
 70
     1
102
RTVSPost2010Prop41ColorIndex
 90
       18
102
RTVSPost2010Prop41ColorRGB
 90
        0
102
RTVSPost2010PropOp41
 70
     1
102
RTVSPost2010Prop42
 90
       50
102
RTVSPost2010PropOp42
 70
     1
102
RTVSPost2010Prop43
 90
        3
102
RTVSPost2010PropOp43
 70
     1
102
RTVSPost2010Prop44ColorIndex
 90
        5
102
RTVSPost2010Prop44ColorRGB
 90
      255
102
RTVSPost2010PropOp44
 70
     1
102
RTVSPost2010Prop45
280
     0
102
RTVSPost2010PropOp45
 70
     1
102
RTVSPost2010Prop46
 90
       50
102
RTVSPost2010PropOp46
 70
     1
102
RTVSPost2010Prop47
 90
       50
102
RTVSPost2010PropOp47
 70
     1
102
RTVSPost2010Prop48
 90
       50
102
RTVSPost2010PropOp48
 70
     1
102
RTVSPost2010Prop49
280
     0
102
RTVSPost2010PropOp49
 70
     1
102
RTVSPost2010Prop50
 90
       50
102
RTVSPost2010PropOp50
 70
     1
102
RTVSPost2010Prop51ColorIndex
 90
      256
102
RTVSPost2010Prop51ColorRGB
 90
-16777216
102
RTVSPost2010PropOp51
 70
     0
102
RTVSPost2010Prop52
140
1.0
102
RTVSPost2010PropOp52
 70
     0
102
RTVSPost2010Prop53
 90
        2
102
RTVSPost2010PropOp53
 70
     1
102
RTVSPost2010Prop54
  1
strokes_ogs.tif
102
RTVSPost2010PropOp54
 70
     1
102
RTVSPost2010Prop55
280
     0
102
RTVSPost2010PropOp55
 70
     1
102
RTVSPost2010Prop56
140
1.0
102
RTVSPost2010PropOp56
 70
     1
102
RTVSPost2010Prop57
140
1.0
102
RTVSPost2010PropOp57
 70
     1
  0
XRECORD
  5
29B
102
{ACAD_REACTORS
330
29A
102
}
330
29A
100
AcDbXrecord
280
     1
102
RTVSPost2010Prop28
280
     0
102
RTVSPost2010PropOp28
 70
     1
102
RTVSPost2010Prop29
280
     1
102
RTVSPost2010PropOp29
 70
     1
102
RTVSPost2010Prop30
280
     1
102
RTVSPost2010PropOp30
 70
     1
102
RTVSPost2010Prop31
280
     0
102
RTVSPost2010PropOp31
 70
     1
102
RTVSPost2010Prop32
280
     0
102
RTVSPost2010PropOp32
 70
     1
102
RTVSPost2010Prop33
280
     0
102
RTVSPost2010PropOp33
 70
     1
102
RTVSPost2010Prop34
280
     0
102
RTVSPost2010PropOp34
 70
     1
102
RTVSPost2010Prop35
280
     0
102
RTVSPost2010PropOp35
 70
     1
102
RTVSPost2010Prop36
280
     0
102
RTVSPost2010PropOp36
 70
     1
102
RTVSPost2010Prop37
 90
       50
102
RTVSPost2010PropOp37
 70
     1
102
RTVSPost2010Prop38
140
0.0
102
RTVSPost2010PropOp38
 70
     1
102
RTVSPost2010Prop39
140
1.0
102
RTVSPost2010PropOp39
 70
     1
102
RTVSPost2010Prop40
 90
        0
102
RTVSPost2010PropOp40
 70
     1
102
RTVSPost2010Prop41ColorIndex
 90
       18
102
RTVSPost2010Prop41ColorRGB
 90
        0
102
RTVSPost2010PropOp41
 70
     1
102
RTVSPost2010Prop42
 90
       50
102
RTVSPost2010PropOp42
 70
     1
102
RTVSPost2010Prop43
 90
        3
102
RTVSPost2010PropOp43
 70
     1
102
RTVSPost2010Prop44ColorIndex
 90
        5
102
RTVSPost2010Prop44ColorRGB
 90
      255
102
RTVSPost2010PropOp44
 70
     1
102
RTVSPost2010Prop45
280
     0
102
RTVSPost2010PropOp45
 70
     1
102
RTVSPost2010Prop46
 90
       50
102
RTVSPost2010PropOp46
 70
     1
102
RTVSPost2010Prop47
 90
       50
102
RTVSPost2010PropOp47
 70
     1
102
RTVSPost2010Prop48
 90
       50
102
RTVSPost2010PropOp48
 70
     1
102
RTVSPost2010Prop49
280
     0
102
RTVSPost2010PropOp49
 70
     1
102
RTVSPost2010Prop50
 90
       50
102
RTVSPost2010PropOp50
 70
     1
102
RTVSPost2010Prop51ColorIndex
 90
      256
102
RTVSPost2010Prop51ColorRGB
 90
-16777216
102
RTVSPost2010PropOp51
 70
     0
102
RTVSPost2010Prop52
140
1.0
102
RTVSPost2010PropOp52
 70
     0
102
RTVSPost2010Prop53
 90
        2
102
RTVSPost2010PropOp53
 70
     1
102
RTVSPost2010Prop54
  1
strokes_ogs.tif
102
RTVSPost2010PropOp54
 70
     1
102
RTVSPost2010Prop55
280
     0
102
RTVSPost2010PropOp55
 70
     1
102
RTVSPost2010Prop56
140
1.0
102
RTVSPost2010PropOp56
 70
     1
102
RTVSPost2010Prop57
140
1.0
102
RTVSPost2010PropOp57
 70
     1
  0
ENDSEC
  0
EOF
