  0
SECTION
  2
HEADER
  9
$ACADVER
  1
AC1024
  9
$ACADMAINTVER
 70
     6
  9
$DWGCODEPAGE
  3
ANSI_1252
  9
$LASTSAVEDBY
  1
stevetownend
  9
$INSBASE
 10
0.0
 20
0.0
 30
0.0
  9
$EXTMIN
 10
492899.88
 20
99455.77666666667
 30
0.0
  9
$EXTMAX
 10
493120.3038095241
 20
99623.4304
 30
0.0
  9
$LIMMIN
 10
492899.88
 20
99460.53
  9
$LIMMAX
 10
493100.5
 20
99623.24
  9
$ORTHOMODE
 70
     0
  9
$REGENMODE
 70
     1
  9
$FILLMODE
 70
     1
  9
$QTEXTMODE
 70
     0
  9
$MIRRTEXT
 70
     1
  9
$LTSCALE
 40
5.0
  9
$ATTMODE
 70
     1
  9
$TEXTSIZE
 40
1.0
  9
$TRACEWID
 40
0.05
  9
$TEXTSTYLE
  7
STANDARD
  9
$CLAYER
  8
Redline
  9
$CELTYPE
  6
ByLayer
  9
$CECOLOR
 62
   256
  9
$CELTSCALE
 40
1.0
  9
$DISPSILH
 70
     0
  9
$DIMSCALE
 40
1.0
  9
$DIMASZ
 40
0.18
  9
$DIMEXO
 40
0.0625
  9
$DIMDLI
 40
0.38
  9
$DIMRND
 40
0.0
  9
$DIMDLE
 40
0.0
  9
$DIMEXE
 40
0.18
  9
$DIMTP
 40
0.0
  9
$DIMTM
 40
0.0
  9
$DIMTXT
 40
0.18
  9
$DIMCEN
 40
0.09
  9
$DIMTSZ
 40
0.0
  9
$DIMTOL
 70
     0
  9
$DIMLIM
 70
     0
  9
$DIMTIH
 70
     1
  9
$DIMTOH
 70
     1
  9
$DIMSE1
 70
     0
  9
$DIMSE2
 70
     0
  9
$DIMTAD
 70
     0
  9
$DIMZIN
 70
     0
  9
$DIMBLK
  1

  9
$DIMASO
 70
     1
  9
$DIMSHO
 70
     1
  9
$DIMPOST
  1

  9
$DIMAPOST
  1

  9
$DIMALT
 70
     0
  9
$DIMALTD
 70
     2
  9
$DIMALTF
 40
25.4
  9
$DIMLFAC
 40
1.0
  9
$DIMTOFL
 70
     0
  9
$DIMTVP
 40
0.0
  9
$DIMTIX
 70
     0
  9
$DIMSOXD
 70
     0
  9
$DIMSAH
 70
     0
  9
$DIMBLK1
  1

  9
$DIMBLK2
  1

  9
$DIMSTYLE
  2
Standard
  9
$DIMCLRD
 70
     0
  9
$DIMCLRE
 70
     0
  9
$DIMCLRT
 70
     0
  9
$DIMTFAC
 40
1.0
  9
$DIMGAP
 40
0.09
  9
$DIMJUST
 70
     0
  9
$DIMSD1
 70
     0
  9
$DIMSD2
 70
     0
  9
$DIMTOLJ
 70
     1
  9
$DIMTZIN
 70
     0
  9
$DIMALTZ
 70
     0
  9
$DIMALTTZ
 70
     0
  9
$DIMUPT
 70
     0
  9
$DIMDEC
 70
     4
  9
$DIMTDEC
 70
     4
  9
$DIMALTU
 70
     2
  9
$DIMALTTD
 70
     2
  9
$DIMTXSTY
  7
STANDARD
  9
$DIMAUNIT
 70
     0
  9
$DIMADEC
 70
     0
  9
$DIMALTRND
 40
0.0
  9
$DIMAZIN
 70
     0
  9
$DIMDSEP
 70
    46
  9
$DIMATFIT
 70
     3
  9
$DIMFRAC
 70
     0
  9
$DIMLDRBLK
  1

  9
$DIMLUNIT
 70
     2
  9
$DIMLWD
 70
    -2
  9
$DIMLWE
 70
    -2
  9
$DIMTMOVE
 70
     0
  9
$DIMFXL
 40
1.0
  9
$DIMFXLON
 70
     0
  9
$DIMJOGANG
 40
0.7853981633974483
  9
$DIMTFILL
 70
     0
  9
$DIMTFILLCLR
 70
     0
  9
$DIMARCSYM
 70
     0
  9
$DIMLTYPE
  6

  9
$DIMLTEX1
  6

  9
$DIMLTEX2
  6

  9
$DIMTXTDIRECTION
 70
     0
  9
$LUNITS
 70
     2
  9
$LUPREC
 70
     1
  9
$SKETCHINC
 40
0.1
  9
$FILLETRAD
 40
0.0
  9
$AUNITS
 70
     0
  9
$AUPREC
 70
     1
  9
$MENU
  1
.
  9
$ELEVATION
 40
0.0
  9
$PELEVATION
 40
0.0
  9
$THICKNESS
 40
0.0
  9
$LIMCHECK
 70
     0
  9
$CHAMFERA
 40
0.0
  9
$CHAMFERB
 40
0.0
  9
$CHAMFERC
 40
0.0
  9
$CHAMFERD
 40
0.0
  9
$SKPOLY
 70
     0
  9
$TDCREATE
 40
2453845.543121192
  9
$TDUCREATE
 40
2453845.501454526
  9
$TDUPDATE
 40
2457227.574327303
  9
$TDUUPDATE
 40
2457227.532660637
  9
$TDINDWG
 40
0.0554305903
  9
$TDUSRTIMER
 40
0.0554305903
  9
$USRTIMER
 70
     1
  9
$ANGBASE
 50
0.0
  9
$ANGDIR
 70
     0
  9
$PDMODE
 70
     1
  9
$PDSIZE
 40
0.0
  9
$PLINEWID
 40
0.0
  9
$SPLFRAME
 70
     0
  9
$SPLINETYPE
 70
     5
  9
$SPLINESEGS
 70
     8
  9
$HANDSEED
  5
E29
  9
$SURFTAB1
 70
     6
  9
$SURFTAB2
 70
     6
  9
$SURFTYPE
 70
     6
  9
$SURFU
 70
     6
  9
$SURFV
 70
     6
  9
$UCSBASE
  2

  9
$UCSNAME
  2

  9
$UCSORG
 10
0.0
 20
0.0
 30
0.0
  9
$UCSXDIR
 10
1.0
 20
0.0
 30
0.0
  9
$UCSYDIR
 10
0.0
 20
1.0
 30
0.0
  9
$UCSORTHOREF
  2

  9
$UCSORTHOVIEW
 70
     0
  9
$UCSORGTOP
 10
0.0
 20
0.0
 30
0.0
  9
$UCSORGBOTTOM
 10
0.0
 20
0.0
 30
0.0
  9
$UCSORGLEFT
 10
0.0
 20
0.0
 30
0.0
  9
$UCSORGRIGHT
 10
0.0
 20
0.0
 30
0.0
  9
$UCSORGFRONT
 10
0.0
 20
0.0
 30
0.0
  9
$UCSORGBACK
 10
0.0
 20
0.0
 30
0.0
  9
$PUCSBASE
  2

  9
$PUCSNAME
  2

  9
$PUCSORG
 10
0.0
 20
0.0
 30
0.0
  9
$PUCSXDIR
 10
1.0
 20
0.0
 30
0.0
  9
$PUCSYDIR
 10
0.0
 20
1.0
 30
0.0
  9
$PUCSORTHOREF
  2

  9
$PUCSORTHOVIEW
 70
     0
  9
$PUCSORGTOP
 10
0.0
 20
0.0
 30
0.0
  9
$PUCSORGBOTTOM
 10
0.0
 20
0.0
 30
0.0
  9
$PUCSORGLEFT
 10
0.0
 20
0.0
 30
0.0
  9
$PUCSORGRIGHT
 10
0.0
 20
0.0
 30
0.0
  9
$PUCSORGFRONT
 10
0.0
 20
0.0
 30
0.0
  9
$PUCSORGBACK
 10
0.0
 20
0.0
 30
0.0
  9
$USERI1
 70
     0
  9
$USERI2
 70
     0
  9
$USERI3
 70
     0
  9
$USERI4
 70
     0
  9
$USERI5
 70
     0
  9
$USERR1
 40
0.0
  9
$USERR2
 40
0.0
  9
$USERR3
 40
0.0
  9
$USERR4
 40
0.0
  9
$USERR5
 40
0.0
  9
$WORLDVIEW
 70
     1
  9
$SHADEDGE
 70
     3
  9
$SHADEDIF
 70
    70
  9
$TILEMODE
 70
     0
  9
$MAXACTVP
 70
    64
  9
$PINSBASE
 10
0.0
 20
0.0
 30
0.0
  9
$PLIMCHECK
 70
     0
  9
$PEXTMIN
 10
8.304712966348006
 20
5.042144112615802
 30
-0.0000686163522321
  9
$PEXTMAX
 10
199.2114012869538
 20
287.3393169654837
 30
4.500068679220343
  9
$PLIMMIN
 10
-3.174999952316284
 20
-3.174999952316284
  9
$PLIMMAX
 10
206.7983276844025
 20
293.8568298816681
  9
$UNITMODE
 70
     0
  9
$VISRETAIN
 70
     1
  9
$PLINEGEN
 70
     1
  9
$PSLTSCALE
 70
     0
  9
$TREEDEPTH
 70
  3020
  9
$CMLSTYLE
  2
Standard
  9
$CMLJUST
 70
     0
  9
$CMLSCALE
 40
1.0
  9
$PROXYGRAPHICS
 70
     1
  9
$MEASUREMENT
 70
     0
  9
$CELWEIGHT
370
    -1
  9
$ENDCAPS
280
     0
  9
$JOINSTYLE
280
     0
  9
$LWDISPLAY
290
     0
  9
$INSUNITS
 70
     0
  9
$HYPERLINKBASE
  1

  9
$STYLESHEET
  1

  9
$XEDIT
290
     1
  9
$CEPSNTYPE
380
     0
  9
$PSTYLEMODE
290
     1
  9
$FINGERPRINTGUID
  2
{82B3C17C-98A2-4FB0-AFD9-AAB9553CCD75}
  9
$VERSIONGUID
  2
{22F3751E-89F1-4A2B-81CA-E75063EA10A8}
  9
$EXTNAMES
290
     1
  9
$PSVPSCALE
 40
0.0
  9
$OLESTARTUP
290
     0
  9
$SORTENTS
280
   127
  9
$INDEXCTL
280
     0
  9
$HIDETEXT
280
     1
  9
$XCLIPFRAME
280
     2
  9
$HALOGAP
280
     0
  9
$OBSCOLOR
 70
   257
  9
$OBSLTYPE
280
     0
  9
$INTERSECTIONDISPLAY
280
     0
  9
$INTERSECTIONCOLOR
 70
   257
  9
$DIMASSOC
280
     2
  9
$PROJECTNAME
  1

  9
$CAMERADISPLAY
290
     0
  9
$LENSLENGTH
 40
50.0
  9
$CAMERAHEIGHT
 40
0.0
  9
$STEPSPERSEC
 40
2.0
  9
$STEPSIZE
 40
6.0
  9
$3DDWFPREC
 40
2.0
  9
$PSOLWIDTH
 40
0.25
  9
$PSOLHEIGHT
 40
4.0
  9
$LOFTANG1
 40
1.570796326794897
  9
$LOFTANG2
 40
1.570796326794897
  9
$LOFTMAG1
 40
0.0
  9
$LOFTMAG2
 40
0.0
  9
$LOFTPARAM
 70
     7
  9
$LOFTNORMALS
280
     1
  9
$LATITUDE
 40
37.795
  9
$LONGITUDE
 40
-122.394
  9
$NORTHDIRECTION
 40
0.0
  9
$TIMEZONE
 70
 -8000
  9
$LIGHTGLYPHDISPLAY
280
     1
  9
$TILEMODELIGHTSYNCH
280
     1
  9
$SOLIDHIST
280
     0
  9
$SHOWHIST
280
     1
  9
$DWFFRAME
280
     2
  9
$DGNFRAME
280
     2
  9
$REALWORLDSCALE
290
     1
  9
$INTERFERECOLOR
 62
   256
  9
$CSHADOW
280
     0
  9
$SHADOWPLANELOCATION
 40
0.0
  0
ENDSEC
  0
SECTION
  2
CLASSES
  0
CLASS
  1
ACDBDICTIONARYWDFLT
  2
AcDbDictionaryWithDefault
  3
ObjectDBX Classes
 90
        0
 91
        4
280
     0
281
     0
  0
CLASS
  1
ACDBPLACEHOLDER
  2
AcDbPlaceHolder
  3
ObjectDBX Classes
 90
        0
 91
        1
280
     0
281
     0
  0
CLASS
  1
LAYOUT
  2
AcDbLayout
  3
ObjectDBX Classes
 90
        0
 91
        1
280
     0
281
     0
  0
CLASS
  1
VISUALSTYLE
  2
AcDbVisualStyle
  3
ObjectDBX Classes
 90
     4095
 91
        4
280
     0
281
     0
  0
CLASS
  1
SCALE
  2
AcDbScale
  3
ObjectDBX Classes
 90
     1153
 91
        4
280
     0
281
     0
  0
CLASS
  1
MATERIAL
  2
AcDbMaterial
  3
ObjectDBX Classes
 90
     1153
 91
        4
280
     0
281
     0
  0
CLASS
  1
TABLESTYLE
  2
AcDbTableStyle
  3
ObjectDBX Classes
 90
     4095
 91
        4
280
     0
281
     0
  0
CLASS
  1
MLEADERSTYLE
  2
AcDbMLeaderStyle
  3
ACDB_MLEADERSTYLE_CLASS
 90
     4095
 91
        4
280
     0
281
     0
  0
CLASS
  1
DICTIONARYVAR
  2
AcDbDictionaryVar
  3
ObjectDBX Classes
 90
        0
 91
        4
280
     0
281
     0
  0
CLASS
  1
CELLSTYLEMAP
  2
AcDbCellStyleMap
  3
ObjectDBX Classes
 90
     1152
 91
        4
280
     0
281
     0
  0
ENDSEC
  0
SECTION
  2
TABLES
  0
TABLE
  2
VPORT
  5
8
330
0
100
AcDbSymbolTable
 70
     2
  0
VPORT
  5
DA9
330
8
100
AcDbSymbolTableRecord
100
AcDbViewportTableRecord
  2
*Active
 70
     0
 10
0.0
 20
0.0
 11
1.0
 21
1.0
 12
492953.7685649907
 22
99546.99216708614
 13
0.0
 23
0.0
 14
1.0
 24
1.0
 15
0.0
 25
0.0
 16
0.0
 26
0.0
 36
1.0
 17
0.0
 27
0.0
 37
0.0
 40
192.7264085357019
 41
1.292105263157895
 42
50.0
 43
0.0
 44
0.0
 50
0.0
 51
0.0
 71
     0
 72
   100
 73
     1
 74
     0
 75
     0
 76
     0
 77
     0
 78
     0
281
     0
 65
     1
110
0.0
120
0.0
130
0.0
111
1.0
121
0.0
131
0.0
112
0.0
122
1.0
132
0.0
 79
     0
146
0.0
348
DB1
 60
     3
 61
     5
292
     1
282
     1
141
0.0
142
0.0
 63
   256
  0
ENDTAB
  0
TABLE
  2
LTYPE
  5
5
330
0
100
AcDbSymbolTable
 70
     4
  0
LTYPE
  5
13
330
5
100
AcDbSymbolTableRecord
100
AcDbLinetypeTableRecord
  2
ByBlock
 70
     0
  3

 72
    65
 73
     0
 40
0.0
  0
LTYPE
  5
14
330
5
100
AcDbSymbolTableRecord
100
AcDbLinetypeTableRecord
  2
ByLayer
 70
     0
  3

 72
    65
 73
     0
 40
0.0
  0
LTYPE
  5
15
330
5
100
AcDbSymbolTableRecord
100
AcDbLinetypeTableRecord
  2
CONTINUOUS
 70
     0
  3
Solid Line
 72
    65
 73
     0
 40
0.0
  0
LTYPE
  5
22
330
5
100
AcDbSymbolTableRecord
100
AcDbLinetypeTableRecord
  2
DASHEDX2
 70
     0
  3
__  __  __  __  __  __  __  __  __  __  __  __  __  __  __
 72
    65
 73
     2
 40
1.5
 49
1.0
 74
     0
 49
-0.5
 74
     0
  0
LTYPE
  5
23
330
5
100
AcDbSymbolTableRecord
100
AcDbLinetypeTableRecord
  2
DASHED
 70
     0
  3
__ __ __ __ __ __ __ __ __ __ __ __ __ __ __
 72
    65
 73
     2
 40
0.75
 49
0.5
 74
     0
 49
-0.25
 74
     0
  0
LTYPE
  5
24
330
5
100
AcDbSymbolTableRecord
100
AcDbLinetypeTableRecord
  2
DOT
 70
     0
  3
...............................................
 72
    65
 73
     2
 40
0.25
 49
0.0
 74
     0
 49
-0.25
 74
     0
  0
ENDTAB
  0
TABLE
  2
LAYER
  5
2
330
0
100
AcDbSymbolTable
 70
    76
  0
LAYER
  5
10
330
2
100
AcDbSymbolTableRecord
100
AcDbLayerTableRecord
  2
0
 70
     0
 62
     7
  6
CONTINUOUS
370
    -3
390
F
347
DEA
  0
LAYER
  5
25
330
2
100
AcDbSymbolTableRecord
100
AcDbLayerTableRecord
  2
G8010001
 70
     0
 62
     1
  6
CONTINUOUS
370
    -3
390
F
347
DEA
  0
LAYER
  5
26
330
2
100
AcDbSymbolTableRecord
100
AcDbLayerTableRecord
  2
G8010004
 70
     0
 62
     1
  6
DASHED
370
    -3
390
F
347
DEA
  0
LAYER
  5
27
330
2
100
AcDbSymbolTableRecord
100
AcDbLayerTableRecord
  2
G8010007
 70
     0
 62
     6
  6
CONTINUOUS
370
    -3
390
F
347
DEA
  0
LAYER
  5
28
330
2
100
AcDbSymbolTableRecord
100
AcDbLayerTableRecord
  2
G8010008
 70
     0
 62
     6
  6
CONTINUOUS
370
    -3
390
F
347
DEA
  0
LAYER
  5
29
330
2
100
AcDbSymbolTableRecord
100
AcDbLayerTableRecord
  2
G8010009
 70
     0
 62
     6
  6
CONTINUOUS
370
    -3
390
F
347
DEA
  0
LAYER
  5
2A
330
2
100
AcDbSymbolTableRecord
100
AcDbLayerTableRecord
  2
G8010010
 70
     0
 62
     6
  6
CONTINUOUS
370
    -3
390
F
347
DEA
  0
LAYER
  5
2B
330
2
100
AcDbSymbolTableRecord
100
AcDbLayerTableRecord
  2
G8010011
 70
     0
 62
     6
  6
CONTINUOUS
370
    -3
390
F
347
DEA
  0
LAYER
  5
2C
330
2
100
AcDbSymbolTableRecord
100
AcDbLayerTableRecord
  2
G8010013
 70
     0
 62
     6
  6
CONTINUOUS
370
    -3
390
F
347
DEA
  0
LAYER
  5
2D
330
2
100
AcDbSymbolTableRecord
100
AcDbLayerTableRecord
  2
G8010014
 70
     0
 62
     5
  6
CONTINUOUS
370
    -3
390
F
347
DEA
  0
LAYER
  5
2E
330
2
100
AcDbSymbolTableRecord
100
AcDbLayerTableRecord
  2
G8010015
 70
     0
 62
     5
  6
CONTINUOUS
370
    -3
390
F
347
DEA
  0
LAYER
  5
2F
330
2
100
AcDbSymbolTableRecord
100
AcDbLayerTableRecord
  2
G8010021
 70
     0
 62
     5
  6
DASHED
370
    -3
390
F
347
DEA
  0
LAYER
  5
30
330
2
100
AcDbSymbolTableRecord
100
AcDbLayerTableRecord
  2
G8010025
 70
     0
 62
     5
  6
CONTINUOUS
370
    -3
390
F
347
DEA
  0
LAYER
  5
31
330
2
100
AcDbSymbolTableRecord
100
AcDbLayerTableRecord
  2
G8010026
 70
     0
 62
    -5
  6
CONTINUOUS
370
    -3
390
F
347
DEA
  0
LAYER
  5
32
330
2
100
AcDbSymbolTableRecord
100
AcDbLayerTableRecord
  2
G8010027
 70
     0
 62
    -5
  6
CONTINUOUS
370
    -3
390
F
347
DEA
  0
LAYER
  5
33
330
2
100
AcDbSymbolTableRecord
100
AcDbLayerTableRecord
  2
G8010030
 70
     0
 62
     7
  6
CONTINUOUS
370
    -3
390
F
347
DEA
  0
LAYER
  5
34
330
2
100
AcDbSymbolTableRecord
100
AcDbLayerTableRecord
  2
G8010032
 70
     0
 62
     7
  6
DASHED
370
    -3
390
F
347
DEA
  0
LAYER
  5
35
330
2
100
AcDbSymbolTableRecord
100
AcDbLayerTableRecord
  2
G8010033
 70
     0
 62
     5
  6
DASHEDX2
370
    -3
390
F
347
DEA
  0
LAYER
  5
36
330
2
100
AcDbSymbolTableRecord
100
AcDbLayerTableRecord
  2
G8010035
 70
     0
 62
     3
  6
DASHED
370
    -3
390
F
347
DEA
  0
LAYER
  5
37
330
2
100
AcDbSymbolTableRecord
100
AcDbLayerTableRecord
  2
G8010036
 70
     0
 62
     3
  6
DASHED
370
    -3
390
F
347
DEA
  0
LAYER
  5
38
330
2
100
AcDbSymbolTableRecord
100
AcDbLayerTableRecord
  2
G8010043
 70
     0
 62
     5
  6
DASHEDX2
370
    -3
390
F
347
DEA
  0
LAYER
  5
39
330
2
100
AcDbSymbolTableRecord
100
AcDbLayerTableRecord
  2
G8010049
 70
     0
 62
     5
  6
CONTINUOUS
370
    -3
390
F
347
DEA
  0
LAYER
  5
3A
330
2
100
AcDbSymbolTableRecord
100
AcDbLayerTableRecord
  2
G8010052
 70
     0
 62
     7
  6
CONTINUOUS
370
    -3
390
F
347
DEA
  0
LAYER
  5
3B
330
2
100
AcDbSymbolTableRecord
100
AcDbLayerTableRecord
  2
G8010057
 70
     0
 62
     7
  6
CONTINUOUS
370
    -3
390
F
347
DEA
  0
LAYER
  5
3C
330
2
100
AcDbSymbolTableRecord
100
AcDbLayerTableRecord
  2
G8010059
 70
     0
 62
     4
  6
CONTINUOUS
370
    -3
390
F
347
DEA
  0
LAYER
  5
3D
330
2
100
AcDbSymbolTableRecord
100
AcDbLayerTableRecord
  2
G8010069
 70
     0
 62
     4
  6
CONTINUOUS
370
    -3
390
F
347
DEA
  0
LAYER
  5
3E
330
2
100
AcDbSymbolTableRecord
100
AcDbLayerTableRecord
  2
G8010071
 70
     0
 62
     4
  6
CONTINUOUS
370
    -3
390
F
347
DEA
  0
LAYER
  5
3F
330
2
100
AcDbSymbolTableRecord
100
AcDbLayerTableRecord
  2
G8010072
 70
     0
 62
     4
  6
CONTINUOUS
370
    -3
390
F
347
DEA
  0
LAYER
  5
40
330
2
100
AcDbSymbolTableRecord
100
AcDbLayerTableRecord
  2
G8010079
 70
     0
 62
     6
  6
CONTINUOUS
370
    -3
390
F
347
DEA
  0
LAYER
  5
41
330
2
100
AcDbSymbolTableRecord
100
AcDbLayerTableRecord
  2
G8010098
 70
     0
 62
     2
  6
CONTINUOUS
370
    -3
390
F
347
DEA
  0
LAYER
  5
42
330
2
100
AcDbSymbolTableRecord
100
AcDbLayerTableRecord
  2
G8010321
 70
     0
 62
    -1
  6
CONTINUOUS
370
    -3
390
F
347
DEA
  0
LAYER
  5
43
330
2
100
AcDbSymbolTableRecord
100
AcDbLayerTableRecord
  2
G8010323
 70
     0
 62
     7
  6
CONTINUOUS
370
    -3
390
F
347
DEA
  0
LAYER
  5
44
330
2
100
AcDbSymbolTableRecord
100
AcDbLayerTableRecord
  2
G8010372
 70
     0
 62
     3
  6
CONTINUOUS
370
    -3
390
F
347
DEA
  0
LAYER
  5
45
330
2
100
AcDbSymbolTableRecord
100
AcDbLayerTableRecord
  2
G8010373
 70
     0
 62
     3
  6
CONTINUOUS
370
    -3
390
F
347
DEA
  0
LAYER
  5
46
330
2
100
AcDbSymbolTableRecord
100
AcDbLayerTableRecord
  2
G8010374
 70
     0
 62
     1
  6
CONTINUOUS
370
    -3
390
F
347
DEA
  0
LAYER
  5
47
330
2
100
AcDbSymbolTableRecord
100
AcDbLayerTableRecord
  2
G8010375
 70
     0
 62
     1
  6
CONTINUOUS
370
    -3
390
F
347
DEA
  0
LAYER
  5
48
330
2
100
AcDbSymbolTableRecord
100
AcDbLayerTableRecord
  2
G8010376
 70
     0
 62
    34
  6
DASHED
370
    -3
390
F
347
DEA
  0
LAYER
  5
49
330
2
100
AcDbSymbolTableRecord
100
AcDbLayerTableRecord
  2
G8010377
 70
     0
 62
    34
  6
CONTINUOUS
370
    -3
390
F
347
DEA
  0
LAYER
  5
4A
330
2
100
AcDbSymbolTableRecord
100
AcDbLayerTableRecord
  2
G8010378
 70
     0
 62
    34
  6
CONTINUOUS
370
    -3
390
F
347
DEA
  0
LAYER
  5
4B
330
2
100
AcDbSymbolTableRecord
100
AcDbLayerTableRecord
  2
G8010379
 70
     0
 62
     3
  6
CONTINUOUS
370
    -3
390
F
347
DEA
  0
LAYER
  5
4C
330
2
100
AcDbSymbolTableRecord
100
AcDbLayerTableRecord
  2
G8010380
 70
     0
 62
     3
  6
CONTINUOUS
370
    -3
390
F
347
DEA
  0
LAYER
  5
4D
330
2
100
AcDbSymbolTableRecord
100
AcDbLayerTableRecord
  2
G8010381
 70
     0
 62
     3
  6
CONTINUOUS
370
    -3
390
F
347
DEA
  0
LAYER
  5
4E
330
2
100
AcDbSymbolTableRecord
100
AcDbLayerTableRecord
  2
G8010382
 70
     0
 62
     3
  6
CONTINUOUS
370
    -3
390
F
347
DEA
  0
LAYER
  5
4F
330
2
100
AcDbSymbolTableRecord
100
AcDbLayerTableRecord
  2
G8010384
 70
     0
 62
     3
  6
CONTINUOUS
370
    -3
390
F
347
DEA
  0
LAYER
  5
50
330
2
100
AcDbSymbolTableRecord
100
AcDbLayerTableRecord
  2
G8010385
 70
     0
 62
     3
  6
CONTINUOUS
370
    -3
390
F
347
DEA
  0
LAYER
  5
51
330
2
100
AcDbSymbolTableRecord
100
AcDbLayerTableRecord
  2
G8010386
 70
     0
 62
     3
  6
CONTINUOUS
370
    -3
390
F
347
DEA
  0
LAYER
  5
52
330
2
100
AcDbSymbolTableRecord
100
AcDbLayerTableRecord
  2
G8010387
 70
     0
 62
     3
  6
CONTINUOUS
370
    -3
390
F
347
DEA
  0
LAYER
  5
53
330
2
100
AcDbSymbolTableRecord
100
AcDbLayerTableRecord
  2
G8010388
 70
     0
 62
    34
  6
CONTINUOUS
370
    -3
390
F
347
DEA
  0
LAYER
  5
54
330
2
100
AcDbSymbolTableRecord
100
AcDbLayerTableRecord
  2
G8010389
 70
     0
 62
    34
  6
CONTINUOUS
370
    -3
390
F
347
DEA
  0
LAYER
  5
55
330
2
100
AcDbSymbolTableRecord
100
AcDbLayerTableRecord
  2
G8010390
 70
     0
 62
     3
  6
CONTINUOUS
370
    -3
390
F
347
DEA
  0
LAYER
  5
56
330
2
100
AcDbSymbolTableRecord
100
AcDbLayerTableRecord
  2
G8010392
 70
     0
 62
     3
  6
CONTINUOUS
370
    -3
390
F
347
DEA
  0
LAYER
  5
57
330
2
100
AcDbSymbolTableRecord
100
AcDbLayerTableRecord
  2
G8010395
 70
     0
 62
     6
  6
CONTINUOUS
370
    -3
390
F
347
DEA
  0
LAYER
  5
58
330
2
100
AcDbSymbolTableRecord
100
AcDbLayerTableRecord
  2
G8010396
 70
     0
 62
    34
  6
CONTINUOUS
370
    -3
390
F
347
DEA
  0
LAYER
  5
59
330
2
100
AcDbSymbolTableRecord
100
AcDbLayerTableRecord
  2
G8010397
 70
     0
 62
    34
  6
CONTINUOUS
370
    -3
390
F
347
DEA
  0
LAYER
  5
5A
330
2
100
AcDbSymbolTableRecord
100
AcDbLayerTableRecord
  2
G8010400
 70
     0
 62
     4
  6
CONTINUOUS
370
    -3
390
F
347
DEA
  0
LAYER
  5
5B
330
2
100
AcDbSymbolTableRecord
100
AcDbLayerTableRecord
  2
G8010570
 70
     0
 62
     7
  6
CONTINUOUS
370
    -3
390
F
347
DEA
  0
LAYER
  5
5C
330
2
100
AcDbSymbolTableRecord
100
AcDbLayerTableRecord
  2
G8010571
 70
     0
 62
     7
  6
CONTINUOUS
370
    -3
390
F
347
DEA
  0
LAYER
  5
5D
330
2
100
AcDbSymbolTableRecord
100
AcDbLayerTableRecord
  2
G8010572
 70
     0
 62
     7
  6
DOT
370
    -3
390
F
347
DEA
  0
LAYER
  5
5E
330
2
100
AcDbSymbolTableRecord
100
AcDbLayerTableRecord
  2
G8010573
 70
     0
 62
     7
  6
CONTINUOUS
370
    -3
390
F
347
DEA
  0
LAYER
  5
5F
330
2
100
AcDbSymbolTableRecord
100
AcDbLayerTableRecord
  2
G8010574
 70
     0
 62
     6
  6
CONTINUOUS
370
    -3
390
F
347
DEA
  0
LAYER
  5
60
330
2
100
AcDbSymbolTableRecord
100
AcDbLayerTableRecord
  2
G8010575
 70
     0
 62
     7
  6
CONTINUOUS
370
    -3
390
F
347
DEA
  0
LAYER
  5
61
330
2
100
AcDbSymbolTableRecord
100
AcDbLayerTableRecord
  2
G8011000
 70
     0
 62
     5
  6
CONTINUOUS
370
    -3
390
F
347
DEA
  0
LAYER
  5
62
330
2
100
AcDbSymbolTableRecord
100
AcDbLayerTableRecord
  2
G8011005
 70
     0
 62
     6
  6
CONTINUOUS
370
    -3
390
F
347
DEA
  0
LAYER
  5
63
330
2
100
AcDbSymbolTableRecord
100
AcDbLayerTableRecord
  2
G8011006
 70
     0
 62
     1
  6
CONTINUOUS
370
    -3
390
F
347
DEA
  0
LAYER
  5
64
330
2
100
AcDbSymbolTableRecord
100
AcDbLayerTableRecord
  2
G8011009
 70
     0
 62
     7
  6
CONTINUOUS
370
    -3
390
F
347
DEA
  0
LAYER
  5
65
330
2
100
AcDbSymbolTableRecord
100
AcDbLayerTableRecord
  2
G8011010
 70
     0
 62
     4
  6
CONTINUOUS
370
    -3
390
F
347
DEA
  0
LAYER
  5
66
330
2
100
AcDbSymbolTableRecord
100
AcDbLayerTableRecord
  2
G8011013
 70
     0
 62
     3
  6
CONTINUOUS
370
    -3
390
F
347
DEA
  0
LAYER
  5
67
330
2
100
AcDbSymbolTableRecord
100
AcDbLayerTableRecord
  2
G8011210
 70
     0
 62
    34
  6
CONTINUOUS
370
    -3
390
F
347
DEA
  0
LAYER
  5
68
330
2
100
AcDbSymbolTableRecord
100
AcDbLayerTableRecord
  2
G8011211
 70
     0
 62
    34
  6
CONTINUOUS
370
    -3
390
F
347
DEA
  0
LAYER
  5
69
330
2
100
AcDbSymbolTableRecord
100
AcDbLayerTableRecord
  2
G8011212
 70
     0
 62
     1
  6
CONTINUOUS
370
    -3
390
F
347
DEA
  0
LAYER
  5
D41
330
2
100
AcDbSymbolTableRecord
100
AcDbLayerTableRecord
  2
vports_text
 70
     0
 62
     7
  6
CONTINUOUS
370
     0
390
F
347
DEA
1001
RAK
1000
{LAYER_STATE1
1070
     0
1070
     7
1000
CONTINUOUS
1071
       -3
1071
        1
1005
F
1000
LAYER_STATE1}
  0
LAYER
  5
D42
330
2
100
AcDbSymbolTableRecord
100
AcDbLayerTableRecord
  2
vports
 70
     0
 62
     1
  6
CONTINUOUS
290
     0
370
    -3
390
F
347
DEA
  0
LAYER
  5
D43
330
2
100
AcDbSymbolTableRecord
100
AcDbLayerTableRecord
  2
text
 70
     0
 62
     7
  6
CONTINUOUS
370
     0
390
F
347
DEA
  0
LAYER
  5
D44
330
2
100
AcDbSymbolTableRecord
100
AcDbLayerTableRecord
  2
AOC_PAGE
 70
     0
 62
     7
  6
CONTINUOUS
370
    20
390
F
347
DEA
  0
LAYER
  5
D6B
330
2
100
AcDbSymbolTableRecord
100
AcDbLayerTableRecord
  2
Redline
 70
     0
 62
     1
  6
CONTINUOUS
370
    -3
390
F
347
DEA
  0
LAYER
  5
D8A
330
2
100
AcDbSymbolTableRecord
100
AcDbLayerTableRecord
  2
- Evaluation TR
 70
     0
 62
    10
  6
CONTINUOUS
370
    35
390
F
347
DEA
1001
AcAecLayerStandard
1000

1000

  0
ENDTAB
  0
TABLE
  2
STYLE
  5
3
330
0
100
AcDbSymbolTable
 70
     7
  0
STYLE
  5
11
330
3
100
AcDbSymbolTableRecord
100
AcDbTextStyleTableRecord
  2
STANDARD
 70
     0
 40
0.0
 41
1.0
 50
0.0
 71
     0
 42
1.0
  3
SIMPLEX.SHX
  4

  0
STYLE
  5
6A
330
3
100
AcDbSymbolTableRecord
100
AcDbTextStyleTableRecord
  2
ANTIQUITY
 70
     0
 40
0.0
 41
1.0
 50
0.0
 71
     0
 42
1.0
  3
GOTHICE.SHX
  4

  0
STYLE
  5
D45
330
3
100
AcDbSymbolTableRecord
100
AcDbTextStyleTableRecord
  2
TNR-Regular
 70
     0
 40
2.0
 41
1.0
 50
0.0
 71
     0
 42
2.0
  3
TIMES.TTF
  4

1001
ACAD
1000
Times New Roman
1071
       18
  0
STYLE
  5
D46
330
3
100
AcDbSymbolTableRecord
100
AcDbTextStyleTableRecord
  2
TNR-Italic
 70
     0
 40
2.5
 41
1.0
 50
0.0
 71
     0
 42
2.0
  3
TIMESI.TTF
  4

1001
ACAD
1000
Times New Roman
1071
 16777234
  0
STYLE
  5
D47
330
3
100
AcDbSymbolTableRecord
100
AcDbTextStyleTableRecord
  2
TNR-Bold
 70
     0
 40
1.5
 41
1.0
 50
0.0
 71
     0
 42
1.5
  3
TIMESBD.TTF
  4

1001
ACAD
1000
Times New Roman
1071
 33554450
  0
STYLE
  5
D48
330
3
100
AcDbSymbolTableRecord
100
AcDbTextStyleTableRecord
  2
ROMANT
 70
     0
 40
5.0
 41
1.0
 50
0.0
 71
     0
 42
5.0
  3
romant
  4

  0
STYLE
  5
D8B
330
3
100
AcDbSymbolTableRecord
100
AcDbTextStyleTableRecord
  2
PES200
 70
     0
 40
0.0
 41
1.0
 50
0.0
 71
     0
 42
1386.526146820514
  3
romans.shx
  4

  0
ENDTAB
  0
TABLE
  2
VIEW
  5
6
330
0
100
AcDbSymbolTable
 70
     0
  0
ENDTAB
  0
TABLE
  2
UCS
  5
7
330
0
100
AcDbSymbolTable
 70
     0
  0
ENDTAB
  0
TABLE
  2
APPID
  5
9
330
0
100
AcDbSymbolTable
 70
     4
  0
APPID
  5
12
330
9
100
AcDbSymbolTableRecord
100
AcDbRegAppTableRecord
  2
ACAD
 70
     0
  0
APPID
  5
D4A
330
9
100
AcDbSymbolTableRecord
100
AcDbRegAppTableRecord
  2
RAK
 70
     0
  0
APPID
  5
D8E
330
9
100
AcDbSymbolTableRecord
100
AcDbRegAppTableRecord
  2
ACAD_PSEXT
 70
     0
  0
APPID
  5
D8F
330
9
100
AcDbSymbolTableRecord
100
AcDbRegAppTableRecord
  2
AcAecLayerStandard
 70
     0
  0
ENDTAB
  0
TABLE
  2
DIMSTYLE
  5
A
330
0
100
AcDbSymbolTable
 70
     4
100
AcDbDimStyleTable
  0
DIMSTYLE
105
D28
330
A
100
AcDbSymbolTableRecord
100
AcDbDimStyleTableRecord
  2
Standard
 70
     0
178
     0
340
11
  0
DIMSTYLE
105
D49
330
A
100
AcDbSymbolTableRecord
100
AcDbDimStyleTableRecord
  2
ISO-25
 70
     0
 41
2.5
 42
0.625
 43
3.75
 44
1.25
 73
     0
 74
     0
 77
     1
 78
     8
140
2.5
141
2.5
143
0.03937007874016
147
0.625
171
     3
172
     1
178
     0
271
     2
272
     2
274
     3
278
    44
283
     0
284
     8
340
11
  0
DIMSTYLE
105
D8C
330
A
100
AcDbSymbolTableRecord
100
AcDbDimStyleTableRecord
  2
PES-std
 70
     0
 41
1000.0
 42
200.0
 43
0.0
 44
200.0
 73
     0
 74
     0
 77
     1
140
500.0
141
0.0
147
100.0
176
   256
177
   256
271
     2
178
   256
271
     2
272
     2
289
     0
340
D8B
371
    20
372
    20
  0
DIMSTYLE
105
D8D
330
A
100
AcDbSymbolTableRecord
100
AcDbDimStyleTableRecord
  2
PES-1 to 200
 70
     0
 40
200.0
 41
5.0
 42
1.0
 43
3.75
 44
1.0
 73
     0
 74
     0
 77
     1
 78
     9
 79
     2
140
2.5
141
0.0
143
0.03937007874016
147
1.0
171
     3
178
     0
271
     2
272
     2
274
     3
283
     0
284
     8
289
     0
340
D8B
371
    25
372
    25
  0
ENDTAB
  0
TABLE
  2
BLOCK_RECORD
  5
1
330
0
100
AcDbSymbolTable
 70
    36
  0
BLOCK_RECORD
  5
1E
330
1
100
AcDbSymbolTableRecord
100
AcDbBlockTableRecord
  2
*Model_Space
340
21
 70
     0
280
     1
281
     0
  0
BLOCK_RECORD
  5
1A
330
1
100
AcDbSymbolTableRecord
100
AcDbBlockTableRecord
  2
*Paper_Space
340
1D
 70
     0
280
     1
281
     0
  0
BLOCK_RECORD
  5
6E
330
1
100
AcDbSymbolTableRecord
100
AcDbBlockTableRecord
  2
TREENC
340
0
 70
     0
280
     1
281
     0
  0
BLOCK_RECORD
  5
79
330
1
100
AcDbSymbolTableRecord
100
AcDbBlockTableRecord
  2
TREESNC
340
0
 70
     0
280
     1
281
     0
  0
BLOCK_RECORD
  5
90
330
1
100
AcDbSymbolTableRecord
100
AcDbBlockTableRecord
  2
TREENCSC
340
0
 70
     0
280
     1
281
     0
  0
BLOCK_RECORD
  5
9D
330
1
100
AcDbSymbolTableRecord
100
AcDbBlockTableRecord
  2
TREEC
340
0
 70
     0
280
     1
281
     0
  0
BLOCK_RECORD
  5
AB
330
1
100
AcDbSymbolTableRecord
100
AcDbBlockTableRecord
  2
TREESC
340
0
 70
     0
280
     1
281
     0
  0
BLOCK_RECORD
  5
C6
330
1
100
AcDbSymbolTableRecord
100
AcDbBlockTableRecord
  2
TREECSC
340
0
 70
     0
280
     1
281
     0
  0
BLOCK_RECORD
  5
D5
330
1
100
AcDbSymbolTableRecord
100
AcDbBlockTableRecord
  2
SLOPE
340
0
 70
     0
280
     1
281
     0
  0
BLOCK_RECORD
  5
DB
330
1
100
AcDbSymbolTableRecord
100
AcDbBlockTableRecord
  2
SCREE
340
0
 70
     0
280
     1
281
     0
  0
BLOCK_RECORD
  5
1A9
330
1
100
AcDbSymbolTableRecord
100
AcDbBlockTableRecord
  2
ROCKS
340
0
 70
     0
280
     1
281
     0
  0
BLOCK_RECORD
  5
1E0
330
1
100
AcDbSymbolTableRecord
100
AcDbBlockTableRecord
  2
ROCKSCAT
340
0
 70
     0
280
     1
281
     0
  0
BLOCK_RECORD
  5
1FD
330
1
100
AcDbSymbolTableRecord
100
AcDbBlockTableRecord
  2
CLIFF
340
0
 70
     0
280
     1
281
     0
  0
BLOCK_RECORD
  5
210
330
1
100
AcDbSymbolTableRecord
100
AcDbBlockTableRecord
  2
BOULDER
340
0
 70
     0
280
     1
281
     0
  0
BLOCK_RECORD
  5
220
330
1
100
AcDbSymbolTableRecord
100
AcDbBlockTableRecord
  2
BOULDERS
340
0
 70
     0
280
     1
281
     0
  0
BLOCK_RECORD
  5
23D
330
1
100
AcDbSymbolTableRecord
100
AcDbBlockTableRecord
  2
BOULDSC
340
0
 70
     0
280
     1
281
     0
  0
BLOCK_RECORD
  5
24D
330
1
100
AcDbSymbolTableRecord
100
AcDbBlockTableRecord
  2
COPPICE
340
0
 70
     0
280
     1
281
     0
  0
BLOCK_RECORD
  5
256
330
1
100
AcDbSymbolTableRecord
100
AcDbBlockTableRecord
  2
SCRUB
340
0
 70
     0
280
     1
281
     0
  0
BLOCK_RECORD
  5
273
330
1
100
AcDbSymbolTableRecord
100
AcDbBlockTableRecord
  2
WATER
340
0
 70
     0
280
     1
281
     0
  0
BLOCK_RECORD
  5
2D6
330
1
100
AcDbSymbolTableRecord
100
AcDbBlockTableRecord
  2
ROUGHGR
340
0
 70
     0
280
     1
281
     0
  0
BLOCK_RECORD
  5
2E4
330
1
100
AcDbSymbolTableRecord
100
AcDbBlockTableRecord
  2
MARSH
340
0
 70
     0
280
     1
281
     0
  0
BLOCK_RECORD
  5
2F1
330
1
100
AcDbSymbolTableRecord
100
AcDbBlockTableRecord
  2
ORCHARD
340
0
 70
     0
280
     1
281
     0
  0
BLOCK_RECORD
  5
300
330
1
100
AcDbSymbolTableRecord
100
AcDbBlockTableRecord
  2
HEATH
340
0
 70
     0
280
     1
281
     0
  0
BLOCK_RECORD
  5
319
330
1
100
AcDbSymbolTableRecord
100
AcDbBlockTableRecord
  2
BDYPOST
340
0
 70
     0
280
     1
281
     0
  0
BLOCK_RECORD
  5
31D
330
1
100
AcDbSymbolTableRecord
100
AcDbBlockTableRecord
  2
BDYMEREI
340
0
 70
     0
280
     1
281
     0
  0
BLOCK_RECORD
  5
322
330
1
100
AcDbSymbolTableRecord
100
AcDbBlockTableRecord
  2
TRIGP
340
0
 70
     0
280
     1
281
     0
  0
BLOCK_RECORD
  5
332
330
1
100
AcDbSymbolTableRecord
100
AcDbBlockTableRecord
  2
BENCHM
340
0
102
{BLKREFS
331
730
102
}
 70
     0
280
     1
281
     0
  0
BLOCK_RECORD
  5
338
330
1
100
AcDbSymbolTableRecord
100
AcDbBlockTableRecord
  2
SPOTH
340
0
102
{BLKREFS
331
731
102
}
 70
     0
280
     1
281
     0
  0
BLOCK_RECORD
  5
33D
330
1
100
AcDbSymbolTableRecord
100
AcDbBlockTableRecord
  2
PYLON
340
0
 70
     0
280
     1
281
     0
  0
BLOCK_RECORD
  5
348
330
1
100
AcDbSymbolTableRecord
100
AcDbBlockTableRecord
  2
POINT
340
0
 70
     0
280
     1
281
     0
  0
BLOCK_RECORD
  5
350
330
1
100
AcDbSymbolTableRecord
100
AcDbBlockTableRecord
  2
COPY
340
0
 70
     0
280
     1
281
     0
  0
BLOCK_RECORD
  5
366
330
1
100
AcDbSymbolTableRecord
100
AcDbBlockTableRecord
  2
FLARROW
340
0
 70
     0
280
     1
281
     0
  0
BLOCK_RECORD
  5
370
330
1
100
AcDbSymbolTableRecord
100
AcDbBlockTableRecord
  2
ULC
340
0
 70
     0
280
     1
281
     0
  0
BLOCK_RECORD
  5
375
330
1
100
AcDbSymbolTableRecord
100
AcDbBlockTableRecord
  2
GLASSEED
340
0
 70
     0
280
     1
281
     0
  0
BLOCK_RECORD
  5
37A
330
1
100
AcDbSymbolTableRecord
100
AcDbBlockTableRecord
  2
BUILDSED
340
0
102
{BLKREFS
331
C9F
331
CA0
331
CA1
331
CA2
331
CA3
331
CA4
331
CA5
331
CA6
331
CA7
331
CA8
331
CA9
331
CAA
331
CAB
331
CAC
331
CAD
331
CAE
331
CAF
331
CB0
331
CB1
331
CB2
331
CB3
331
CB4
331
CB5
331
CB6
331
CB7
331
CB8
331
CB9
331
CBA
331
CBB
331
CBC
331
CBD
331
CBE
331
CBF
331
CC0
331
CC1
331
CC2
331
CC3
331
CC4
331
CC5
331
CC6
331
CC7
331
CC8
331
CC9
331
CCA
331
CCB
331
CCC
331
CCD
331
CCE
331
CCF
331
CD0
331
CD1
331
CD2
331
CD3
331
CD4
331
CD5
331
CD6
331
CD7
331
CD8
331
CD9
331
CDA
331
CDB
331
CDC
331
CDD
331
CDE
331
CDF
331
CE0
331
CE1
331
CE2
331
CE3
331
CE4
331
CE5
331
CE6
331
CE7
331
CE8
331
CE9
331
CEA
331
CEB
331
CEC
331
CED
331
CEE
331
CEF
331
CF0
331
CF1
331
CF2
331
CF3
331
CF4
331
CF5
331
CF6
331
CF7
331
CF8
331
CF9
331
CFA
331
CFB
331
CFC
331
CFD
331
CFE
331
CFF
331
D00
331
D01
331
D02
331
D03
331
D04
331
D05
331
D06
102
}
 70
     0
280
     1
281
     0
  0
BLOCK_RECORD
  5
37F
330
1
100
AcDbSymbolTableRecord
100
AcDbBlockTableRecord
  2
REGTM
340
0
 70
     0
280
     1
281
     0
  0
BLOCK_RECORD
  5
D31
330
1
100
AcDbSymbolTableRecord
100
AcDbBlockTableRecord
  2
aoc
340
0
310
2800000020000000200000000100080000000000000400000000000000000000000000000000000000000000000080000080000000808000800000008000800080800000C0C0C000C0DCC000F0CAA6000020400000206000002080000020A0000020C0000020E00000400000004020000040400000406000004080000040A0
310
000040C0000040E00000600000006020000060400000606000006080000060A0000060C0000060E00000800000008020000080400000806000008080000080A0000080C0000080E00000A0000000A0200000A0400000A0600000A0800000A0A00000A0C00000A0E00000C0000000C0200000C0400000C0600000C0800000C0
310
A00000C0C00000C0E00000E0000000E0200000E0400000E0600000E0800000E0A00000E0C00000E0E00040000000400020004000400040006000400080004000A0004000C0004000E00040200000402020004020400040206000402080004020A0004020C0004020E000404000004040200040404000404060004040800040
310
40A0004040C0004040E00040600000406020004060400040606000406080004060A0004060C0004060E00040800000408020004080400040806000408080004080A0004080C0004080E00040A0000040A0200040A0400040A0600040A0800040A0A00040A0C00040A0E00040C0000040C0200040C0400040C0600040C08000
310
40C0A00040C0C00040C0E00040E0000040E0200040E0400040E0600040E0800040E0A00040E0C00040E0E00080000000800020008000400080006000800080008000A0008000C0008000E00080200000802020008020400080206000802080008020A0008020C0008020E00080400000804020008040400080406000804080
310
008040A0008040C0008040E00080600000806020008060400080606000806080008060A0008060C0008060E00080800000808020008080400080806000808080008080A0008080C0008080E00080A0000080A0200080A0400080A0600080A0800080A0A00080A0C00080A0E00080C0000080C0200080C0400080C0600080C0
310
800080C0A00080C0C00080C0E00080E0000080E0200080E0400080E0600080E0800080E0A00080E0C00080E0E000C0000000C0002000C0004000C0006000C0008000C000A000C000C000C000E000C0200000C0202000C0204000C0206000C0208000C020A000C020C000C020E000C0400000C0402000C0404000C0406000C0
310
408000C040A000C040C000C040E000C0600000C0602000C0604000C0606000C0608000C060A000C060C000C060E000C0800000C0802000C0804000C0806000C0808000C080A000C080C000C080E000C0A00000C0A02000C0A04000C0A06000C0A08000C0A0A000C0A0C000C0A0E000C0C00000C0C02000C0C04000C0C06000
310
C0C08000C0C0A000F0FBFF00A4A0A000808080000000FF0000FF000000FFFF00FF000000FF00FF00FFFF0000FFFFFF00FFFFFFFFFFFFFFFFFFFFFFFFFFFFFFFFFFFFFFFFFFFFFFFFFFFFFFFFFFFFFFFFFFFFFFFFFFFFFFFFFFFFFFFFFFFFFFFFFFFFFFFFFFFFFFFFFFFFFFFFFFFFFFFFFFFFFFFFFFFFFFFFFFFFFFFFFFFFFF
310
FFFFFFFFFFFFFFFFFFFFFFFFFFFFFFFFFFFFFFFFFFFFFFFFFFFFFFFFFFFFFFFFFFFFFFFFFFFFFFFFFFFFFFFFFFFFFFFFFFFFFFFFFFFFFFFFFFFFFFFFFFFFFFFFFFFFFFFFFFFFFFFFFFFFFFFFFFFFFFFFFFFFFFFFFFFFFFFFFFFFFFFFFFFFFFFFFFFFFFFFFFFFFFFFFFFFFFFFFFFFFFFFFFFFFFFFFFFFFFFFFFFFFFFFFFFFFF
310
FFFFFFFFFFFFFFFFFFFFFFFFFFFFFFFFFFFFFFFFFFFFFFFFFFFFFFFFFFFFFFFFFFFFFFFFFFFFFFFFFFFFFFFFFFFFFFFFFFFFFFFFFFFFFFFFFFFFFFFFFFFFFFFFFFFFFFFFFFFFFFFFFFFFFFFFFFFFFFFFFFFFFFFFFFFFFFFFFFFFFFFFFFFFFFFFFFFFFFFFFFFFE0E0FFFFFFFFFFFFFFFFFFFFFFFFFFFFFFFFFFFFFFFFFFFFFF
310
FFFFFFFFFFFFE0E0E0E0E0FFFFFFFFFFFFFFFFFFFFFFFFFFFFFFFFFF000000000000FFFFFFFFE0E0E0E0E0E0FFFFFFFFFFFFFFFFFFFFFFFFFFFFFFFF00000000000000FFFFFFE0E0E0E0E0E0FFFFFFFFFFFFFFFF000000000000000000000000000000FFFFFFE0E0E0E0FFE0FFFFFFFFFFFFFFFFFFE0E0E0E0E0E0E0E0E0E0
310
E0E0E0E0FFFFFFFFFFE0E0E0E0E0FFE0E0E0FFFFFFFFE0E0E0E0E0E0E0E0E0E0E0E0E0E0FFFFFFFFE0E0E0E0E0E0E0E0E0E0E0FFFF000000000000000000000000000000FFFFFFE0E0E0E0E0E0E0E0E0E0E0E0FFFFFF000000000000000000FF00000000FFFFFFE0E0E0E0E0E0FFE0E0E0E0FFFFFFFFFF000000FF00FFFF00
310
FF00FFFF00FFFFE0E0E0E0E0E0E0E0E0E0E0E0FFFFFFFFFF00FF00FF00FFFF00FF00FFFFFFFFFFE0E0E0E0E0FFFFFFFFFFFFFFFFFFFFFFFFFF00FFFF00FFFF00FF00FFFF00FFFFE0E0E0E0E0FFFFFFFFFFFFFFFFFFFFFFFFFF00FFFF00000000FF00000000FFFFE0E0E0E0E0FFFFFFFFFFFFFFFFFFFFFFFFFFFFFFFFFFFFFF
310
FFFFFFFFFFFFFFFFFFFFE0E0FFFFFFFFFFFFFFFFFFFFFFFFFFFFFFFFFFFFFFFFFFFFFFFFFFFFFFFFFFFFFFFFFFFFFFFFFFFFFFFFFFFFFFFFFFFFFFFFFFFFFFFFFFFFFFFFFFFFFFFFFFFFFFFFFFFFFFFFFFFFFFFFFFFFFFFFFFFFFFFFFFFFFFFFFFFFFFFFFFFFFFFFFFFFFFFFFFFFFFFFFFFFFFFFFFFFFFFFFFFFFFFFFFFFFF
310
FFFFFFFFFFFFFFFFFFFFFFFFFFFFFFFFFFFFFFFFFFFFFFFFFFFFFFFFFFFFFFFFFFFFFFFFFFFFFFFFFFFFFFFFFFFFFFFFFFFFFFFFFFFFFFFFFFFFFFFFFFFFFFFFFFFFFFFFFFFFFFFFFFFFFFFFFFFFFFFFFFFFFFFFFFFFFFFFFFFFFFFFFFFFFFFFFFFFFFFFFFFFFFFFFFFFFFFFFFFFFFFFFFFFFFFFFFFFFFFFFFFFFFFFFFFFFF
310
FFFFFFFFFFFFFFFFFFFFFFFFFFFFFFFFFFFFFFFFFFFFFFFFFFFFFFFFFFFFFFFFFFFFFFFFFFFFFFFFFFFFFFFFFFFFFFFFFFFFFFFFFFFFFFFF
102
{BLKREFS
331
D5F
102
}
 70
     4
280
     1
281
     0
1001
ACAD
1000
DesignCenter Data
1002
{
1070
     1
1070
     4
1002
}
  0
BLOCK_RECORD
  5
D70
330
1
100
AcDbSymbolTableRecord
100
AcDbBlockTableRecord
  2
1 to 1250 small
340
0
310
2800000020000000200000000100080000000000000400000000000000000000000000000000000000000000000080000080000000808000800000008000800080800000C0C0C000C0DCC000F0CAA6000020400000206000002080000020A0000020C0000020E00000400000004020000040400000406000004080000040A0
310
000040C0000040E00000600000006020000060400000606000006080000060A0000060C0000060E00000800000008020000080400000806000008080000080A0000080C0000080E00000A0000000A0200000A0400000A0600000A0800000A0A00000A0C00000A0E00000C0000000C0200000C0400000C0600000C0800000C0
310
A00000C0C00000C0E00000E0000000E0200000E0400000E0600000E0800000E0A00000E0C00000E0E00040000000400020004000400040006000400080004000A0004000C0004000E00040200000402020004020400040206000402080004020A0004020C0004020E000404000004040200040404000404060004040800040
310
40A0004040C0004040E00040600000406020004060400040606000406080004060A0004060C0004060E00040800000408020004080400040806000408080004080A0004080C0004080E00040A0000040A0200040A0400040A0600040A0800040A0A00040A0C00040A0E00040C0000040C0200040C0400040C0600040C08000
310
40C0A00040C0C00040C0E00040E0000040E0200040E0400040E0600040E0800040E0A00040E0C00040E0E00080000000800020008000400080006000800080008000A0008000C0008000E00080200000802020008020400080206000802080008020A0008020C0008020E00080400000804020008040400080406000804080
310
008040A0008040C0008040E00080600000806020008060400080606000806080008060A0008060C0008060E00080800000808020008080400080806000808080008080A0008080C0008080E00080A0000080A0200080A0400080A0600080A0800080A0A00080A0C00080A0E00080C0000080C0200080C0400080C0600080C0
310
800080C0A00080C0C00080C0E00080E0000080E0200080E0400080E0600080E0800080E0A00080E0C00080E0E000C0000000C0002000C0004000C0006000C0008000C000A000C000C000C000E000C0200000C0202000C0204000C0206000C0208000C020A000C020C000C020E000C0400000C0402000C0404000C0406000C0
310
408000C040A000C040C000C040E000C0600000C0602000C0604000C0606000C0608000C060A000C060C000C060E000C0800000C0802000C0804000C0806000C0808000C080A000C080C000C080E000C0A00000C0A02000C0A04000C0A06000C0A08000C0A0A000C0A0C000C0A0E000C0C00000C0C02000C0C04000C0C06000
310
C0C08000C0C0A000F0FBFF00A4A0A000808080000000FF0000FF000000FFFF00FF000000FF00FF00FFFF0000FFFFFF00FFFFFFFFFFFFFFFFFFFFFFFFFFFFFFFFFFFFFFFFFFFFFFFFFFFFFFFFFFFFFFFFFFFFFFFFFFFFFFFFFFFFFFFFFFFFFFFFFFFFFFFFFFFFFFFFFFFFFFFFFFFFFFFFFFFFFFFFFFFFFFFFFFFFFFFFFFFFFF
310
FFFFFFFFFFFFFFFFFFFFFFFFFFFFFFFFFFFFFFFFFFFFFFFFFFFFFFFFFFFFFFFFFFFFFFFFFFFFFFFFFFFFFFFFFFFFFFFFFFFFFFFFFFFFFFFFFFFFFFFFFFFFFFFFFFFFFFFFFFFFFFFFFFFFFFFFFFFFFFFFFFFFFFFFFFFFFFFFFFFFFFFFFFFFFFFFFFFFFFFFFFFFFFFFFFFFFFFFFFFFFFFFFFFFFFFFFFFFFFFFFFFFFFFFFFFFFF
310
FFFFFFFFFFFFFFFFFFFFFFFFFFFFFFFFFFFFFFFFFFFFFFFFFFFFFFFFFFFFFFFFFFFFFFFFFFFFFFFFFFFFFFFFFFFFFFFFFFFFFFFFFFFFFFFFFFFFFFFFFFFFFFFFFFFFFFFFFFFFFFFFFFFFFFFFFFFFFFFFFFFFFFFFFFFFFFFFFFFFFFFFFFFFFFFFFFFFFFFFFFFFFFFFFFFFFFFFFFFFFFFFFFFFFFFFFFFFFFFFFFFFFFFFFFFFFF
310
FFFFFFFFFFFFFFFFFFFFFFFFFFFFFFFFFFFFFFFFFFFFFFFFFFFFFFFFFFFFFFFFFFFFFFFFFFFFFFFFFFFFFFFFFFFFFFFFFFFFFFFFFFFFFFFFFFFFFFFFFFFFFFFFFFFFFFFFFFFFFFFFFFFFFFFFFFFFFFFFFFFFFFFFFFFFFFFFFFFFFFFFFFFFFFFFFF00000000FFFFFFFFFFFFFFFFFFFFFFFFFFFFFFFFFFFFFFFFFFFFFFFFFFFF
310
FFFF00000000FFFFFFFFFFFFFFFFFFFFFFFFFFFFFFFFFF0000000000000000000000000000000000000000000000000000FFFFFFFFFFFF0000000000000000000000000000000000000000000000000000FFFFFFFF00000000FFFFFFFFFFFF00FFFFFFFFFFFFFFFFFFFFFFFFFFFFFF000000FFFFFF000000FFFFFFFFFFFFFF
310
00FFFFFFFFFFFFFFFFFFFFFFFFFFFFFFFF00FFFFFFFFFFFFFFFFFFFFFFFFFFFFFFFFFFFFFFFFFFFFFFFFFFFFFFFFFFFFFFFFFFFFFFFFFFFFFFFFFFFFFFFFFFFFFFFFFFFFFFFFFFFFFFFFFFFFFFFFFFFFFFFFFFFFFFFFFFFFFFFFFFFFFFFFFFFFFFFFFFFFFFFFFFFFFFFFFFFFFFFFFFFFFFFFFFFFFFFFFFFFFFFFFFFFFFFFFF
310
FFFFFFFFFFFFFFFFFFFFFFFFFFFFFFFFFFFFFFFFFFFFFFFFFFFFFFFFFFFFFFFFFFFFFFFFFFFFFFFFFFFFFFFFFFFFFFFFFFFFFFFFFFFFFFFFFFFFFFFFFFFFFFFFFFFFFFFFFFFFFFFFFFFFFFFFFFFFFFFFFFFFFFFFFFFFFFFFFFFFFFFFFFFFFFFFFFFFFFFFFFFFFFFFFFFFFFFFFFFFFFFFFFFFFFFFFFFFFFFFFFFFFFFFFFFFFF
310
FFFFFFFFFFFFFFFFFFFFFFFFFFFFFFFFFFFFFFFFFFFFFFFFFFFFFFFFFFFFFFFFFFFFFFFFFFFFFFFFFFFFFFFFFFFFFFFFFFFFFFFFFFFFFFFFFFFFFFFFFFFFFFFFFFFFFFFFFFFFFFFFFFFFFFFFFFFFFFFFFFFFFFFFFFFFFFFFFFFFFFFFFFFFFFFFFFFFFFFFFFFFFFFFFFFFFFFFFFFFFFFFFFFFFFFFFFFFFFFFFFFFFFFFFFFFFF
310
FFFFFFFFFFFFFFFFFFFFFFFFFFFFFFFFFFFFFFFFFFFFFFFFFFFFFFFFFFFFFFFFFFFFFFFFFFFFFFFFFFFFFFFFFFFFFFFFFFFFFFFFFFFFFFFF
102
{BLKREFS
331
D88
102
}
 70
     4
280
     1
281
     0
1001
ACAD
1000
DesignCenter Data
1002
{
1070
     1
1070
     4
1002
}
  0
ENDTAB
  0
ENDSEC
  0
SECTION
  2
BLOCKS
  0
BLOCK
  5
1F
330
1E
100
AcDbEntity
  8
0
100
AcDbBlockBegin
  2
*Model_Space
 70
     0
 10
0.0
 20
0.0
 30
0.0
  3
*Model_Space
  1

  0
ENDBLK
  5
20
330
1E
100
AcDbEntity
  8
0
100
AcDbBlockEnd
  0
BLOCK
  5
1B
330
1A
100
AcDbEntity
 67
     1
  8
0
100
AcDbBlockBegin
  2
*Paper_Space
 70
     0
 10
0.0
 20
0.0
 30
0.0
  3
*Paper_Space
  1

  0
ENDBLK
  5
1C
330
1A
100
AcDbEntity
 67
     1
  8
0
100
AcDbBlockEnd
  0
BLOCK
  5
6F
330
6E
100
AcDbEntity
  8
0
100
AcDbBlockBegin
  2
TREENC
 70
     0
 10
0.0
 20
0.0
 30
0.0
  3
TREENC
  1

  0
LINE
  5
70
330
6E
100
AcDbEntity
  8
0
100
AcDbLine
 10
0.231854
 20
0.00637
 30
0.0
 11
1.816483
 21
6.033653
 31
0.0
  0
LINE
  5
71
330
6E
100
AcDbEntity
  8
0
100
AcDbLine
 10
-0.192324
 20
0.008718
 30
0.0
 11
-1.744066
 21
5.965676999999999
 31
0.0
  0
ARC
  5
72
330
6E
100
AcDbEntity
  8
0
100
AcDbCircle
 10
-5.352941
 20
8.804875
 30
0.0
 40
4.597739
100
AcDbArc
 50
124.320684
 51
321.504411
  0
ARC
  5
73
330
6E
100
AcDbEntity
  8
0
100
AcDbCircle
 10
5.485201999999999
 20
8.804875
 30
0.0
 40
4.597739
100
AcDbArc
 50
217.066148
 51
56.595122
  0
LINE
  5
74
330
6E
100
AcDbEntity
  8
0
100
AcDbLine
 10
-0.193702
 20
0.00637
 30
0.0
 11
0.231854
 21
0.00637
 31
0.0
  0
ARC
  5
75
330
6E
100
AcDbEntity
  8
0
100
AcDbCircle
 10
4.684725
 20
15.301103
 30
0.0
 40
4.262135
100
AcDbArc
 50
321.417723
 51
92.554078
  0
ARC
  5
76
330
6E
100
AcDbEntity
  8
0
100
AcDbCircle
 10
-4.646574
 20
15.301103
 30
0.0
 40
4.262135
100
AcDbArc
 50
87.445922
 51
219.289963
  0
ARC
  5
77
330
6E
100
AcDbEntity
  8
0
100
AcDbCircle
 10
0.01908
 20
18.506806
 30
0.0
 40
4.597739
100
AcDbArc
 50
13.229441
 51
166.770559
  0
ENDBLK
  5
78
330
6E
100
AcDbEntity
  8
0
100
AcDbBlockEnd
  0
BLOCK
  5
7A
330
79
100
AcDbEntity
  8
0
100
AcDbBlockBegin
  2
TREESNC
 70
     0
 10
0.0
 20
0.0
 30
0.0
  3
TREESNC
  1

  0
ARC
  5
7B
330
79
100
AcDbEntity
  8
0
100
AcDbCircle
 10
-9.638904
 20
18.477109
 30
0.0
 40
4.597739
100
AcDbArc
 50
13.229441
 51
166.770559
  0
ARC
  5
7C
330
79
100
AcDbEntity
  8
0
100
AcDbCircle
 10
-15.010924
 20
8.775178
 30
0.0
 40
4.597739
100
AcDbArc
 50
124.320684
 51
321.504411
  0
ARC
  5
7D
330
79
100
AcDbEntity
  8
0
100
AcDbCircle
 10
-16.486914
 20
-1.461918
 30
0.0
 40
3.09299
100
AcDbArc
 50
28.842917
 51
151.157083
  0
ARC
  5
7E
330
79
100
AcDbEntity
  8
0
100
AcDbCircle
 10
-14.304557
 20
15.271406
 30
0.0
 40
4.262135
100
AcDbArc
 50
87.445922
 51
219.289963
  0
ARC
  5
7F
330
79
100
AcDbEntity
  8
0
100
AcDbCircle
 10
-4.172782
 20
8.775178
 30
0.0
 40
4.597739
100
AcDbArc
 50
217.066148
 51
56.595122
  0
LINE
  5
80
330
79
100
AcDbEntity
  8
0
100
AcDbLine
 10
-9.42613
 20
-0.023327
 30
0.0
 11
-7.841500999999999
 21
6.003956
 31
0.0
  0
LINE
  5
81
330
79
100
AcDbEntity
  8
0
100
AcDbLine
 10
-9.850307
 20
-0.020979
 30
0.0
 11
-11.40205
 21
5.935980000000001
 31
0.0
  0
LINE
  5
82
330
79
100
AcDbEntity
  8
0
100
AcDbLine
 10
-9.851686
 20
-0.023327
 30
0.0
 11
-9.42613
 21
-0.023327
 31
0.0
  0
ARC
  5
83
330
79
100
AcDbEntity
  8
0
100
AcDbCircle
 10
-2.818629
 20
-1.461918
 30
0.0
 40
3.09299
100
AcDbArc
 50
28.842917
 51
151.157083
  0
ARC
  5
84
330
79
100
AcDbEntity
  8
0
100
AcDbCircle
 10
-4.973258
 20
15.271406
 30
0.0
 40
4.262135
100
AcDbArc
 50
321.417723
 51
92.554078
  0
ARC
  5
85
330
79
100
AcDbEntity
  8
0
100
AcDbCircle
 10
9.315062
 20
-3.84091
 30
0.0
 40
2.131067
100
AcDbArc
 50
321.417723
 51
92.554078
  0
ARC
  5
86
330
79
100
AcDbEntity
  8
0
100
AcDbCircle
 10
4.649416
 20
-3.84091
 30
0.0
 40
2.131067
100
AcDbArc
 50
87.445922
 51
219.289963
  0
ARC
  5
87
330
79
100
AcDbEntity
  8
0
100
AcDbCircle
 10
6.982239
 20
-2.238063
 30
0.0
 40
2.298874
100
AcDbArc
 50
13.229441
 51
166.770559
  0
ARC
  5
88
330
79
100
AcDbEntity
  8
0
100
AcDbCircle
 10
10.392377
 20
-12.207576
 30
0.0
 40
1.546499
100
AcDbArc
 50
28.842917
 51
151.157083
  0
ARC
  5
89
330
79
100
AcDbEntity
  8
0
100
AcDbCircle
 10
9.7153
 20
-7.089024
 30
0.0
 40
2.298874
100
AcDbArc
 50
217.066148
 51
56.595122
  0
ARC
  5
8A
330
79
100
AcDbEntity
  8
0
100
AcDbCircle
 10
4.296233
 20
-7.089024
 30
0.0
 40
2.298874
100
AcDbArc
 50
124.320684
 51
321.504411
  0
ARC
  5
8B
330
79
100
AcDbEntity
  8
0
100
AcDbCircle
 10
3.558234
 20
-12.207576
 30
0.0
 40
1.546499
100
AcDbArc
 50
28.842917
 51
151.157083
  0
LINE
  5
8C
330
79
100
AcDbEntity
  8
0
100
AcDbLine
 10
6.875848
 20
-11.488281
 30
0.0
 11
7.08863
 21
-11.488281
 31
0.0
  0
LINE
  5
8D
330
79
100
AcDbEntity
  8
0
100
AcDbLine
 10
6.876541
 20
-11.487103
 30
0.0
 11
6.100666
 21
-8.508627
 31
0.0
  0
LINE
  5
8E
330
79
100
AcDbEntity
  8
0
100
AcDbLine
 10
7.08863
 20
-11.488281
 30
0.0
 11
7.880945
 21
-8.474639
 31
0.0
  0
ENDBLK
  5
8F
330
79
100
AcDbEntity
  8
0
100
AcDbBlockEnd
  0
BLOCK
  5
91
330
90
100
AcDbEntity
  8
0
100
AcDbBlockBegin
  2
TREENCSC
 70
     0
 10
0.0
 20
0.0
 30
0.0
  3
TREENCSC
  1

  0
ARC
  5
92
330
90
100
AcDbEntity
  8
0
100
AcDbCircle
 10
-2.019863
 20
4.392993
 30
0.0
 40
2.298874
100
AcDbArc
 50
217.066148
 51
56.595122
  0
ARC
  5
93
330
90
100
AcDbEntity
  8
0
100
AcDbCircle
 10
-7.43893
 20
4.392993
 30
0.0
 40
2.298874
100
AcDbArc
 50
124.320684
 51
321.504411
  0
ARC
  5
94
330
90
100
AcDbEntity
  8
0
100
AcDbCircle
 10
-8.176929
 20
-0.7255510000000001
 30
0.0
 40
1.546499
100
AcDbArc
 50
28.842917
 51
151.157083
  0
LINE
  5
95
330
90
100
AcDbEntity
  8
0
100
AcDbLine
 10
-4.859315
 20
-0.006256
 30
0.0
 11
-4.646533
 21
-0.006256
 31
0.0
  0
LINE
  5
96
330
90
100
AcDbEntity
  8
0
100
AcDbLine
 10
-4.858622
 20
-0.005085
 30
0.0
 11
-5.634497000000001
 21
2.973398
 31
0.0
  0
LINE
  5
97
330
90
100
AcDbEntity
  8
0
100
AcDbLine
 10
-4.646533
 20
-0.006256
 30
0.0
 11
-3.854218
 21
3.007386
 31
0.0
  0
ARC
  5
98
330
90
100
AcDbEntity
  8
0
100
AcDbCircle
 10
-1.342786
 20
-0.7255510000000001
 30
0.0
 40
1.546499
100
AcDbArc
 50
28.842917
 51
151.157083
  0
ARC
  5
99
330
90
100
AcDbEntity
  8
0
100
AcDbCircle
 10
-7.085747
 20
7.641107000000001
 30
0.0
 40
2.131067
100
AcDbArc
 50
87.445922
 51
219.289963
  0
ARC
  5
9A
330
90
100
AcDbEntity
  8
0
100
AcDbCircle
 10
-2.420101
 20
7.641107000000001
 30
0.0
 40
2.131067
100
AcDbArc
 50
321.417723
 51
92.554078
  0
ARC
  5
9B
330
90
100
AcDbEntity
  8
0
100
AcDbCircle
 10
-4.752924
 20
9.243962
 30
0.0
 40
2.298874
100
AcDbArc
 50
13.229441
 51
166.770559
  0
ENDBLK
  5
9C
330
90
100
AcDbEntity
  8
0
100
AcDbBlockEnd
  0
BLOCK
  5
9E
330
9D
100
AcDbEntity
  8
0
100
AcDbBlockBegin
  2
TREEC
 70
     0
 10
0.0
 20
0.0
 30
0.0
  3
TREEC
  1

  0
LWPOLYLINE
  5
9F
330
9D
100
AcDbEntity
  8
0
100
AcDbPolyline
 90
        3
 70
     0
 43
0.0
 10
-10.048495
 20
4.401198
 42
0.193866
 10
-0.018568
 20
12.25479
 42
0.193866
 10
10.011352
 20
4.401198
  0
LINE
  5
A4
330
9D
100
AcDbEntity
  8
0
100
AcDbLine
 10
-0.018568
 20
23.03807
 30
0.0
 11
-0.018568
 21
-0.04623
 31
0.0
  0
LWPOLYLINE
  5
A5
330
9D
100
AcDbEntity
  8
0
100
AcDbPolyline
 90
        3
 70
     0
 43
0.0
 10
-6.869997
 20
14.149298
 42
0.14211
 10
-0.018568
 20
20.726099
 42
0.139719
 10
6.69159
 20
14.224157
  0
ENDBLK
  5
AA
330
9D
100
AcDbEntity
  8
0
100
AcDbBlockEnd
  0
BLOCK
  5
AC
330
AB
100
AcDbEntity
  8
0
100
AcDbBlockBegin
  2
TREESC
 70
     0
 10
0.0
 20
0.0
 30
0.0
  3
TREESC
  1

  0
LINE
  5
AD
330
AB
100
AcDbEntity
  8
0
100
AcDbLine
 10
7.490419
 20
0.07392
 30
0.0
 11
7.490419
 21
-11.468233
 31
0.0
  0
LWPOLYLINE
  5
AE
330
AB
100
AcDbEntity
  8
0
100
AcDbPolyline
 90
        3
 70
     0
 43
0.0
 10
4.064705
 20
-4.370466
 42
0.14211
 10
7.490419
 20
-1.082065
 42
0.139719
 10
10.845494
 20
-4.333036
  0
LWPOLYLINE
  5
B3
330
AB
100
AcDbEntity
  8
0
100
AcDbPolyline
 90
        3
 70
     0
 43
0.0
 10
2.475455
 20
-9.244512
 42
0.193866
 10
7.490419
 20
-5.31772
 42
0.193866
 10
12.505375
 20
-9.244512
  0
ARC
  5
B8
330
AB
100
AcDbEntity
  8
0
100
AcDbCircle
 10
10.903421
 20
-12.183525
 30
0.0
 40
1.546491
100
AcDbArc
 50
28.842917
 51
151.157083
  0
LWPOLYLINE
  5
B9
330
AB
100
AcDbEntity
  8
0
100
AcDbPolyline
 90
        3
 70
     0
 43
0.0
 10
-19.565055
 20
4.424297
 42
0.193866
 10
-9.535128
 20
12.277889
 42
0.193866
 10
0.494792
 20
4.424297
  0
LINE
  5
BE
330
AB
100
AcDbEntity
  8
0
100
AcDbLine
 10
-9.535128
 20
23.061169
 30
0.0
 11
-9.535128
 21
-0.023131
 31
0.0
  0
ARC
  5
BF
330
AB
100
AcDbEntity
  8
0
100
AcDbCircle
 10
-2.709116
 20
-1.453729
 30
0.0
 40
3.09299
100
AcDbArc
 50
28.842917
 51
151.157083
  0
LWPOLYLINE
  5
C0
330
AB
100
AcDbEntity
  8
0
100
AcDbPolyline
 90
        3
 70
     0
 43
0.0
 10
-16.386557
 20
14.172397
 42
0.14211
 10
-9.535128
 20
20.749198
 42
0.139719
 10
-2.824971
 20
14.247256
  0
ENDBLK
  5
C5
330
AB
100
AcDbEntity
  8
0
100
AcDbBlockEnd
  0
BLOCK
  5
C7
330
C6
100
AcDbEntity
  8
0
100
AcDbBlockBegin
  2
TREECSC
 70
     0
 10
0.0
 20
0.0
 30
0.0
  3
TREECSC
  1

  0
LWPOLYLINE
  5
C8
330
C6
100
AcDbEntity
  8
0
100
AcDbPolyline
 90
        3
 70
     0
 43
0.0
 10
-5.0211
 20
2.247052
 42
0.193866
 10
-0.006136
 20
6.173852
 42
0.193866
 10
5.00882
 20
2.247052
  0
LINE
  5
CD
330
C6
100
AcDbEntity
  8
0
100
AcDbLine
 10
-0.006136
 20
11.565492
 30
0.0
 11
-0.006136
 21
0.023338
 31
0.0
  0
ARC
  5
CE
330
C6
100
AcDbEntity
  8
0
100
AcDbCircle
 10
3.406866
 20
-0.6919609999999999
 30
0.0
 40
1.546499
100
AcDbArc
 50
28.842917
 51
151.157083
  0
LWPOLYLINE
  5
CF
330
C6
100
AcDbEntity
  8
0
100
AcDbPolyline
 90
        3
 70
     0
 43
0.0
 10
-3.431851
 20
7.121106
 42
0.14211
 10
-0.006136
 20
10.409506
 42
0.139719
 10
3.348939
 20
7.158535000000001
  0
ENDBLK
  5
D4
330
C6
100
AcDbEntity
  8
0
100
AcDbBlockEnd
  0
BLOCK
  5
D6
330
D5
100
AcDbEntity
  8
0
100
AcDbBlockBegin
  2
SLOPE
 70
     0
 10
0.0
 20
0.0
 30
0.0
  3
SLOPE
  1

  0
LINE
  5
D7
330
D5
100
AcDbEntity
  8
0
100
AcDbLine
 10
-12.220191
 20
-4.535646
 30
0.0
 11
5.489808999999999
 21
-4.535646
 31
0.0
  0
LINE
  5
D8
330
D5
100
AcDbEntity
  8
0
100
AcDbLine
 10
7.029808999999999
 20
10.864354
 30
0.0
 11
-12.220191
 21
-4.535646
 31
0.0
  0
LINE
  5
D9
330
D5
100
AcDbEntity
  8
0
100
AcDbLine
 10
5.489808999999999
 20
-4.535646
 30
0.0
 11
7.029808999999999
 21
10.864354
 31
0.0
  0
ENDBLK
  5
DA
330
D5
100
AcDbEntity
  8
0
100
AcDbBlockEnd
  0
BLOCK
  5
DC
330
DB
100
AcDbEntity
  8
0
100
AcDbBlockBegin
  2
SCREE
 70
     0
 10
0.0
 20
0.0
 30
0.0
  3
SCREE
  1

  0
LWPOLYLINE
  5
DD
330
DB
100
AcDbEntity
  8
0
100
AcDbPolyline
 90
        3
 70
   129
 43
0.0
 10
1.416746
 20
9.597953
 10
1.761921
 20
10.460563
 10
2.970034
 20
9.554822
  0
LWPOLYLINE
  5
E2
330
DB
100
AcDbEntity
  8
0
100
AcDbPolyline
 90
        6
 70
     0
 43
0.0
 10
2.397614
 20
-1.131796
 10
3.739809
 20
-0.813663
 10
3.767483
 20
0.569519
 10
2.812729
 20
1.247273
 10
1.92716
 20
0.071576
 10
2.411451
 20
-1.145625
  0
LWPOLYLINE
  5
EA
330
DB
100
AcDbEntity
  8
0
100
AcDbPolyline
 90
        9
 70
     0
 43
0.0
 10
4.653052
 20
-5.184506
 10
6.922327
 20
-3.427866
 10
7.295931
 20
-1.034968
 10
6.839305
 20
0.154566
 10
4.556194000000001
 20
-0.426368
 10
3.988873
 20
-1.685064
 10
2.67436
 20
-2.030855
 10
2.771218
 20
-4.520581
 10
4.666889
 20
-5.170677
  0
LWPOLYLINE
  5
F5
330
DB
100
AcDbEntity
  8
0
100
AcDbPolyline
 90
        8
 70
     0
 43
0.0
 10
1.636577
 20
-11.450312
 10
5.953736
 20
-9.735167
 10
4.846776
 20
-6.733669
 10
3.07563
 20
-5.627125
 10
-0.300604
 20
-7.120956
 10
0.751008
 20
-8.186003999999999
 10
0.335901
 20
-9.956472999999999
 10
1.636577
 20
-11.450312
  0
LWPOLYLINE
  5
FF
330
DB
100
AcDbEntity
  8
0
100
AcDbPolyline
 90
        7
 70
     0
 43
0.0
 10
2.190061
 20
3.29438
 10
3.919689
 20
3.985971
 10
2.812729
 20
5.645783
 10
1.40135
 20
5.03719
 10
1.885649
 20
4.580734
 10
1.650422
 20
3.875314
 10
2.190061
 20
3.308217
  0
LWPOLYLINE
  5
108
330
DB
100
AcDbEntity
  8
0
100
AcDbPolyline
 90
        4
 70
   129
 43
0.0
 10
-4.451231
 20
6.621944999999999
 10
-3.890321
 20
7.484556
 10
-2.941089
 20
6.966989
 10
-3.329411
 20
6.061248
  0
LWPOLYLINE
  5
10E
330
DB
100
AcDbEntity
  8
0
100
AcDbPolyline
 90
        6
 70
     0
 43
0.0
 10
2.107039
 20
5.908591
 10
2.549828
 20
6.337374
 10
2.425288
 20
8.425976
 10
0.543454
 20
9.698501
 10
0.29439
 20
8.495137
 10
2.120876
 20
5.894755
  0
LWPOLYLINE
  5
116
330
DB
100
AcDbEntity
  8
0
100
AcDbPolyline
 90
        8
 70
     0
 43
0.0
 10
-8.422941999999999
 20
-9.818158
 10
-6.942378
 20
-6.498526
 10
-8.82422
 20
-4.631238
 10
-9.668277999999999
 20
-5.253667
 10
-11.9929
 20
-4.202448
 10
-13.874734
 20
-7.107127
 10
-12.366497
 20
-9.195729
 10
-8.395268
 20
-9.831987
  0
LWPOLYLINE
  5
120
330
DB
100
AcDbEntity
  8
0
100
AcDbPolyline
 90
        5
 70
   129
 43
0.0
 10
-6.996897
 20
-4.548865
 10
-5.875078
 20
-2.349207
 10
-3.329411
 20
-3.039295
 10
-3.933468
 20
-5.282083999999999
 10
-5.961371
 20
-6.144695
  0
LWPOLYLINE
  5
127
330
DB
100
AcDbEntity
  8
0
100
AcDbPolyline
 90
        8
 70
     0
 43
0.0
 10
-0.535832
 20
-5.959087
 10
1.290654
 20
-4.769553
 10
1.954833
 20
-1.380768
 10
-0.854088
 20
-0.039081
 10
-2.514532
 20
-1.574407
 10
-2.002559
 20
-2.321323
 10
-2.957312
 20
-4.230114
 10
-0.521995
 20
-5.959087
  0
LWPOLYLINE
  5
131
330
DB
100
AcDbEntity
  8
0
100
AcDbPolyline
 90
        9
 70
     0
 43
0.0
 10
-2.071743
 20
-10.468254
 10
-0.7710670000000001
 20
-8.03386
 10
-2.279297
 20
-6.360211
 10
-5.364955999999999
 20
-6.844326
 10
-6.970052000000001
 20
-8.974414999999999
 10
-7.122265
 20
-10.426758
 10
-4.742296
 20
-11.021522
 10
-3.483122
 20
-10.108625
 10
-2.057906
 20
-10.468254
  0
LWPOLYLINE
  5
13C
330
DB
100
AcDbEntity
  8
0
100
AcDbPolyline
 90
        6
 70
   129
 43
0.0
 10
-5.400461
 20
0.9287139999999999
 10
-4.710112000000001
 20
0.669931
 10
-4.753258
 20
-0.278941
 10
-3.545146
 20
-0.925899
 10
-1.646682
 20
0.540539
 10
-3.501999
 20
2.352022
  0
LWPOLYLINE
  5
144
330
DB
100
AcDbEntity
  8
0
100
AcDbPolyline
 90
        4
 70
   129
 43
0.0
 10
-6.738014999999999
 20
2.006977
 10
-5.573049
 20
2.869589
 10
-5.012139
 20
2.265761
 10
-6.522281
 20
1.40315
  0
LWPOLYLINE
  5
14A
330
DB
100
AcDbEntity
  8
0
100
AcDbPolyline
 90
        8
 70
     0
 43
0.0
 10
-10.124896
 20
-2.874598
 10
-9.502235
 20
-0.5646909999999999
 10
-6.693314
 20
0.500358
 10
-5.351119000000001
 20
-0.371043
 10
-5.586354
 20
-1.629739
 10
-6.734825
 20
-1.560578
 10
-8.215388
 20
-4.064133
 10
-10.124896
 20
-2.874598
  0
LWPOLYLINE
  5
154
330
DB
100
AcDbEntity
  8
0
100
AcDbPolyline
 90
        7
 70
   129
 43
0.0
 10
-1.430948
 20
2.912719
 10
-1.430948
 20
1.489411
 10
0.208633
 20
0.885584
 10
2.409124
 20
1.834455
 10
1.416746
 20
3.214633
 10
0.25178
 20
3.128372
 10
-0.395423
 20
3.77533
  0
LWPOLYLINE
  5
15D
330
DB
100
AcDbEntity
  8
0
100
AcDbPolyline
 90
        8
 70
     0
 43
0.0
 10
-2.182438
 20
4.926533
 10
-2.08558
 20
6.793822
 10
-0.106888
 20
7.181117
 10
1.00008
 20
6.420364
 10
0.584965
 20
4.719057
 10
-0.688038
 20
4.815877
 10
-0.950946
 20
4.359428
 10
-2.196275
 20
4.912704
  0
LWPOLYLINE
  5
167
330
DB
100
AcDbEntity
  8
0
100
AcDbPolyline
 90
        6
 70
     0
 43
0.0
 10
-4.479387
 20
2.879427
 10
-2.929639
 20
3.252885
 10
-2.805106
 20
4.981858
 10
-4.036606
 20
5.687278
 10
-5.060544
 20
4.317933
 10
-4.479387
 20
2.879427
  0
LWPOLYLINE
  5
16F
330
DB
100
AcDbEntity
  8
0
100
AcDbPolyline
 90
        4
 70
   129
 43
0.0
 10
-0.136542
 20
12.832743
 10
0.467514
 20
13.824745
 10
1.50304
 20
13.43657
 10
0.855836
 20
12.272046
  0
LWPOLYLINE
  5
175
330
DB
100
AcDbEntity
  8
0
100
AcDbPolyline
 90
        4
 70
   129
 43
0.0
 10
-2.897943
 20
8.260906
 10
-1.085774
 20
9.684214
 10
-0.611157
 20
8.131514
 10
-2.078152
 20
7.268903
  0
LWPOLYLINE
  5
17B
330
DB
100
AcDbEntity
  8
0
100
AcDbPolyline
 90
        4
 70
   129
 43
0.0
 10
-1.862418
 20
10.589955
 10
-1.430948
 20
12.61709
 10
-0.050248
 20
12.530829
 10
-0.8700389999999999
 20
10.158649
  0
LWPOLYLINE
  5
181
330
DB
100
AcDbEntity
  8
0
100
AcDbPolyline
 90
        4
 70
   129
 43
0.0
 10
-0.30913
 20
11.236913
 10
0.467514
 20
11.79761
 10
1.071571
 20
10.546824
 10
0.381221
 20
10.288041
  0
LWPOLYLINE
  5
187
330
DB
100
AcDbEntity
  8
0
100
AcDbPolyline
 90
        4
 70
   129
 43
0.0
 10
-0.43857
 20
14.514834
 10
-0.395423
 20
15.722489
 10
0.5106609999999999
 20
15.593097
 10
0.5106609999999999
 20
14.342312
  0
LWPOLYLINE
  5
18D
330
DB
100
AcDbEntity
  8
0
100
AcDbPolyline
 90
        9
 70
     0
 43
0.0
 10
10.686002
 20
-10.468254
 10
13.218178
 20
-7.328432
 10
11.70994
 20
-4.866373
 10
10.658328
 20
-5.281333
 10
8.541259
 20
-3.524694
 10
6.424198000000001
 20
-5.129181
 10
5.718509
 20
-6.097403
 10
6.645589
 20
-8.725442999999999
 10
10.686002
 20
-10.454417
  0
LWPOLYLINE
  5
198
330
DB
100
AcDbEntity
  8
0
100
AcDbPolyline
 90
        8
 70
     0
 43
0.0
 10
4.583867
 20
0.707834
 10
6.866979
 20
1.247273
 10
6.285822
 20
2.533635
 10
5.372578
 20
2.782607
 10
5.026656
 20
3.543352
 10
3.42156
 20
3.225218
 10
3.227836
 20
1.925035
 10
4.597704
 20
0.721671
  0
LWPOLYLINE
  5
1A2
330
DB
100
AcDbEntity
  8
0
100
AcDbPolyline
 90
        4
 70
   129
 43
0.0
 10
7.802485000000001
 20
-2.953034
 10
8.924304
 20
-2.651121
 10
8.70857
 20
-1.529726
 10
7.802485000000001
 20
-1.702249
  0
ENDBLK
  5
1A8
330
DB
100
AcDbEntity
  8
0
100
AcDbBlockEnd
  0
BLOCK
  5
1AA
330
1A9
100
AcDbEntity
  8
0
100
AcDbBlockBegin
  2
ROCKS
 70
     0
 10
0.0
 20
0.0
 30
0.0
  3
ROCKS
  1

  0
ARC
  5
1AB
330
1A9
100
AcDbEntity
  8
0
100
AcDbCircle
 10
-3.413759
 20
6.074953
 30
0.0
 40
2.035534
100
AcDbArc
 50
290.545631
 51
0.993497
  0
ARC
  5
1AC
330
1A9
100
AcDbEntity
  8
0
100
AcDbCircle
 10
-19.745898
 20
7.633433
 30
0.0
 40
3.274179
100
AcDbArc
 50
222.89545
 51
243.395171
  0
ARC
  5
1AD
330
1A9
100
AcDbEntity
  8
0
100
AcDbCircle
 10
-8.184263
 20
-1.64713
 30
0.0
 40
3.262636
100
AcDbArc
 50
109.292186
 51
140.946372
  0
LINE
  5
1AE
330
1A9
100
AcDbEntity
  8
0
100
AcDbLine
 10
-28.33059
 20
0.031285
 30
0.0
 11
-20.345343
 21
0.031285
 31
0.0
  0
LINE
  5
1AF
330
1A9
100
AcDbEntity
  8
0
100
AcDbLine
 10
-18.620073
 20
0.570138
 30
0.0
 11
-17.169778
 21
2.548215
 31
0.0
  0
LINE
  5
1B0
330
1A9
100
AcDbEntity
  8
0
100
AcDbLine
 10
-20.345343
 20
0.031285
 30
0.0
 11
-18.620073
 21
0.570138
 31
0.0
  0
LINE
  5
1B1
330
1A9
100
AcDbEntity
  8
0
100
AcDbLine
 10
6.286778
 20
-1.101755
 30
0.0
 11
4.68353
 21
-1.842741
 31
0.0
  0
ARC
  5
1B2
330
1A9
100
AcDbEntity
  8
0
100
AcDbCircle
 10
1.461303
 20
36.149752
 30
0.0
 40
36.149768
100
AcDbArc
 50
260.826193
 51
267.615374
  0
ARC
  5
1B3
330
1A9
100
AcDbEntity
  8
0
100
AcDbCircle
 10
-2.605167
 20
10.969666
 30
0.0
 40
10.643433
100
AcDbArc
 50
244.986164
 51
260.826193
  0
LINE
  5
1B4
330
1A9
100
AcDbEntity
  8
0
100
AcDbLine
 10
-9.303636000000001
 20
1.373349
 30
0.0
 11
-5.418778
 21
3.08174
 31
0.0
  0
ARC
  5
1B5
330
1A9
100
AcDbEntity
  8
0
100
AcDbCircle
 10
-8.316249000000001
 20
-1.270069
 30
0.0
 40
2.863137
100
AcDbArc
 50
64.986164
 51
109.292186
  0
LINE
  5
1B6
330
1A9
100
AcDbEntity
  8
0
100
AcDbLine
 10
-5.418778
 20
3.08174
 30
0.0
 11
-2.699384
 21
4.168895
 31
0.0
  0
LINE
  5
1B7
330
1A9
100
AcDbEntity
  8
0
100
AcDbLine
 10
0.619301
 20
-6.626166
 30
0.0
 11
4.611928
 21
-6.626166
 31
0.0
  0
LINE
  5
1B8
330
1A9
100
AcDbEntity
  8
0
100
AcDbLine
 10
5.474558999999999
 20
-6.356743
 30
0.0
 11
6.199706
 21
-5.367701
 31
0.0
  0
ARC
  5
1B9
330
1A9
100
AcDbEntity
  8
0
100
AcDbCircle
 10
4.91165
 20
-2.825092
 30
0.0
 40
1.637089
100
AcDbArc
 50
222.89545
 51
243.395171
  0
ARC
  5
1BA
330
1A9
100
AcDbEntity
  8
0
100
AcDbCircle
 10
5.317856
 20
-2.447684
 30
0.0
 40
2.191574
100
AcDbArc
 50
204.513943
 51
222.89545
  0
ARC
  5
1BB
330
1A9
100
AcDbEntity
  8
0
100
AcDbCircle
 10
4.143544
 20
-2.983196
 30
0.0
 40
0.9009149999999999
100
AcDbArc
 50
118.597138
 51
204.513943
  0
LINE
  5
1BC
330
1A9
100
AcDbEntity
  8
0
100
AcDbLine
 10
4.68353
 20
-1.842741
 30
0.0
 11
3.712321
 21
-2.192183
 31
0.0
  0
LINE
  5
1BD
330
1A9
100
AcDbEntity
  8
0
100
AcDbLine
 10
4.611928
 20
-6.626166
 30
0.0
 11
5.474558999999999
 21
-6.356743
 31
0.0
  0
ARC
  5
1BE
330
1A9
100
AcDbEntity
  8
0
100
AcDbCircle
 10
15.515251
 20
11.433067
 30
0.0
 40
18.074888
100
AcDbArc
 50
260.826193
 51
267.615374
  0
LINE
  5
1BF
330
1A9
100
AcDbEntity
  8
0
100
AcDbLine
 10
8.501144
 20
-0.286386
 30
0.0
 11
6.286778
 21
-1.101755
 31
0.0
  0
ARC
  5
1C0
330
1A9
100
AcDbEntity
  8
0
100
AcDbCircle
 10
9.655297000000001
 20
-1.153191
 30
0.0
 40
0.793431
100
AcDbArc
 50
293.950728
 51
37.093345
  0
ARC
  5
1C1
330
1A9
100
AcDbEntity
  8
0
100
AcDbCircle
 10
10.626475
 20
-7.276847
 30
0.0
 40
1.431569
100
AcDbArc
 50
64.986164
 51
109.292186
  0
LINE
  5
1C2
330
1A9
100
AcDbEntity
  8
0
100
AcDbLine
 10
11.803266
 20
-1.295895
 30
0.0
 11
9.278112
 21
-2.266565
 31
0.0
  0
LINE
  5
1C3
330
1A9
100
AcDbEntity
  8
0
100
AcDbLine
 10
10.132781
 20
-5.955133999999999
 30
0.0
 11
12.075207
 21
-5.100942
 31
0.0
  0
ARC
  5
1C4
330
1A9
100
AcDbEntity
  8
0
100
AcDbCircle
 10
10.692464
 20
-7.465374000000001
 30
0.0
 40
1.631322
100
AcDbArc
 50
109.292186
 51
140.946372
  0
LINE
  5
1C5
330
1A9
100
AcDbEntity
  8
0
100
AcDbLine
 10
9.278112
 20
-2.266565
 30
0.0
 11
7.685321000000001
 21
-2.887801
 31
0.0
  0
LINE
  5
1C6
330
1A9
100
AcDbEntity
  8
0
100
AcDbLine
 10
8.578837
 20
-2.499528
 30
0.0
 11
9.977388000000001
 21
-1.8783
 31
0.0
  0
ARC
  5
1C7
330
1A9
100
AcDbEntity
  8
0
100
AcDbCircle
 10
12.240449
 20
-2.265209
 30
0.0
 40
1.063347
100
AcDbArc
 50
43.827456
 51
114.276238
  0
LINE
  5
1C8
330
1A9
100
AcDbEntity
  8
0
100
AcDbLine
 10
12.075207
 20
-5.100942
 30
0.0
 11
13.434903
 21
-4.557361
 31
0.0
  0
ARC
  5
1C9
330
1A9
100
AcDbEntity
  8
0
100
AcDbCircle
 10
13.077716
 20
-3.604332
 30
0.0
 40
1.017771
100
AcDbArc
 50
290.545631
 51
0.993497
  0
ARC
  5
1CA
330
1A9
100
AcDbEntity
  8
0
100
AcDbCircle
 10
11.919582
 20
-3.624421
 30
0.0
 40
2.176082
100
AcDbArc
 50
0.993497
 51
34.782423
  0
ARC
  5
1CB
330
1A9
100
AcDbEntity
  8
0
100
AcDbCircle
 10
7.957555
 20
-6.376293
 30
0.0
 40
7.000032000000001
100
AcDbArc
 50
34.782423
 51
43.827456
  0
ARC
  5
1CC
330
1A9
100
AcDbEntity
  8
0
100
AcDbCircle
 10
13.482012
 20
-1.156979
 30
0.0
 40
5.321716
100
AcDbArc
 50
244.986164
 51
260.826193
  0
ARC
  5
1CD
330
1A9
100
AcDbEntity
  8
0
100
AcDbCircle
 10
9.469819000000001
 20
-0.539817
 30
0.0
 40
0.538269
100
AcDbArc
 50
43.41062400000001
 51
115.361552
  0
ARC
  5
1CE
330
1A9
100
AcDbEntity
  8
0
100
AcDbCircle
 10
8.024822
 20
2.508629
 30
0.0
 40
2.835317
100
AcDbArc
 50
279.671393
 51
295.361552
  0
ARC
  5
1CF
330
1A9
100
AcDbEntity
  8
0
100
AcDbCircle
 10
5.501208
 20
-4.294144
 30
0.0
 40
6.001311
100
AcDbArc
 50
37.093345
 51
43.41062400000001
  0
ARC
  5
1D0
330
1A9
100
AcDbEntity
  8
0
100
AcDbCircle
 10
-10.629552
 20
12.203984
 30
0.0
 40
1.076529
100
AcDbArc
 50
43.41062400000001
 51
115.361552
  0
LINE
  5
1D1
330
1A9
100
AcDbEntity
  8
0
100
AcDbLine
 10
-12.411517
 20
8.284561
 30
0.0
 11
-9.614423
 21
9.527025
 31
0.0
  0
LINE
  5
1D2
330
1A9
100
AcDbEntity
  8
0
100
AcDbLine
 10
-5.962658999999999
 20
10.691835
 30
0.0
 11
-11.012966
 21
8.750488
 31
0.0
  0
LINE
  5
1D3
330
1A9
100
AcDbEntity
  8
0
100
AcDbLine
 10
-16.995635
 20
11.080107
 30
0.0
 11
-20.202131
 21
9.598134
 31
0.0
  0
ARC
  5
1D4
330
1A9
100
AcDbEntity
  8
0
100
AcDbCircle
 10
-18.933479
 20
8.388256
 30
0.0
 40
4.38314
100
AcDbArc
 50
204.513943
 51
222.89545
  0
ARC
  5
1D5
330
1A9
100
AcDbEntity
  8
0
100
AcDbCircle
 10
-21.28211
 20
7.317233
 30
0.0
 40
1.801831
100
AcDbArc
 50
118.597138
 51
204.513943
  0
LINE
  5
1D6
330
1A9
100
AcDbEntity
  8
0
100
AcDbLine
 10
-20.202131
 20
9.598134
 30
0.0
 11
-22.144556
 21
8.899252
 31
0.0
  0
LINE
  5
1D7
330
1A9
100
AcDbEntity
  8
0
100
AcDbLine
 10
-11.012966
 20
8.750488
 30
0.0
 11
-14.198549
 21
7.508016
 31
0.0
  0
LINE
  5
1D8
330
1A9
100
AcDbEntity
  8
0
100
AcDbLine
 10
-12.566911
 20
12.710844
 30
0.0
 11
-16.995635
 21
11.080107
 31
0.0
  0
ARC
  5
1D9
330
1A9
100
AcDbEntity
  8
0
100
AcDbCircle
 10
-13.519555
 20
18.300875
 30
0.0
 40
5.670627
100
AcDbArc
 50
279.671393
 51
295.361552
  0
ARC
  5
1DA
330
1A9
100
AcDbEntity
  8
0
100
AcDbCircle
 10
-5.730035
 20
6.034782
 30
0.0
 40
4.352156
100
AcDbArc
 50
0.993497
 51
34.782423
  0
ARC
  5
1DB
330
1A9
100
AcDbEntity
  8
0
100
AcDbCircle
 10
-5.088301
 20
8.753206
 30
0.0
 40
2.126686
100
AcDbArc
 50
43.827456
 51
114.276238
  0
ARC
  5
1DC
330
1A9
100
AcDbEntity
  8
0
100
AcDbCircle
 10
-10.258605
 20
10.977243
 30
0.0
 40
1.586855
100
AcDbArc
 50
293.950728
 51
37.093345
  0
ARC
  5
1DD
330
1A9
100
AcDbEntity
  8
0
100
AcDbCircle
 10
-13.654089
 20
0.53103
 30
0.0
 40
14.000055
100
AcDbArc
 50
34.782423
 51
43.827456
  0
ARC
  5
1DE
330
1A9
100
AcDbEntity
  8
0
100
AcDbCircle
 10
-18.566782
 20
4.695336
 30
0.0
 40
12.002621
100
AcDbArc
 50
37.093345
 51
43.41062400000001
  0
ENDBLK
  5
1DF
330
1A9
100
AcDbEntity
  8
0
100
AcDbBlockEnd
  0
BLOCK
  5
1E1
330
1E0
100
AcDbEntity
  8
0
100
AcDbBlockBegin
  2
ROCKSCAT
 70
     0
 10
0.0
 20
0.0
 30
0.0
  3
ROCKSCAT
  1

  0
ARC
  5
1E2
330
1E0
100
AcDbEntity
  8
0
100
AcDbCircle
 10
-4.163484
 20
-0.6376149999999999
 30
0.0
 40
1.431569
100
AcDbArc
 50
64.986164
 51
109.292186
  0
LINE
  5
1E3
330
1E0
100
AcDbEntity
  8
0
100
AcDbLine
 10
-4.65717
 20
0.684098
 30
0.0
 11
-2.714745
 21
1.538289
 31
0.0
  0
LINE
  5
1E4
330
1E0
100
AcDbEntity
  8
0
100
AcDbLine
 10
-2.986686
 20
5.343344
 30
0.0
 11
-5.511839
 21
4.372667
 31
0.0
  0
ARC
  5
1E5
330
1E0
100
AcDbEntity
  8
0
100
AcDbCircle
 10
-5.134662000000001
 20
5.486049
 30
0.0
 40
0.793431
100
AcDbArc
 50
293.950728
 51
37.093345
  0
ARC
  5
1E6
330
1E0
100
AcDbEntity
  8
0
100
AcDbCircle
 10
-9.878309
 20
3.81414
 30
0.0
 40
1.637089
100
AcDbArc
 50
222.89545
 51
243.395171
  0
LINE
  5
1E7
330
1E0
100
AcDbEntity
  8
0
100
AcDbLine
 10
-14.170651
 20
0.013066
 30
0.0
 11
-10.178031
 21
0.013066
 31
0.0
  0
LINE
  5
1E8
330
1E0
100
AcDbEntity
  8
0
100
AcDbLine
 10
-9.315392999999998
 20
0.282489
 30
0.0
 11
-8.590245
 21
1.271531
 31
0.0
  0
LINE
  5
1E9
330
1E0
100
AcDbEntity
  8
0
100
AcDbLine
 10
-10.178031
 20
0.013066
 30
0.0
 11
-9.315392999999998
 21
0.282489
 31
0.0
  0
ARC
  5
1EA
330
1E0
100
AcDbEntity
  8
0
100
AcDbCircle
 10
-4.097487999999999
 20
-0.826142
 30
0.0
 40
1.631314
100
AcDbArc
 50
109.292186
 51
140.946372
  0
LINE
  5
1EB
330
1E0
100
AcDbEntity
  8
0
100
AcDbLine
 10
-8.503174000000001
 20
5.537477
 30
0.0
 11
-10.106421
 21
4.79649
 31
0.0
  0
ARC
  5
1EC
330
1E0
100
AcDbEntity
  8
0
100
AcDbCircle
 10
-10.646415
 20
3.656043
 30
0.0
 40
0.9009149999999999
100
AcDbArc
 50
118.597138
 51
204.513943
  0
LINE
  5
1ED
330
1E0
100
AcDbEntity
  8
0
100
AcDbLine
 10
-10.106421
 20
4.79649
 30
0.0
 11
-11.07763
 21
4.447049
 31
0.0
  0
ARC
  5
1EE
330
1E0
100
AcDbEntity
  8
0
100
AcDbCircle
 10
-9.472095
 20
4.191555
 30
0.0
 40
2.191574
100
AcDbArc
 50
204.513943
 51
222.89545
  0
ARC
  5
1EF
330
1E0
100
AcDbEntity
  8
0
100
AcDbCircle
 10
-9.288751
 20
2.345095
 30
0.0
 40
6.001311
100
AcDbArc
 50
37.093345
 51
43.41062400000001
  0
ARC
  5
1F0
330
1E0
100
AcDbEntity
  8
0
100
AcDbCircle
 10
-6.765136999999999
 20
9.147861
 30
0.0
 40
2.835309
100
AcDbArc
 50
279.671393
 51
295.361552
  0
ARC
  5
1F1
330
1E0
100
AcDbEntity
  8
0
100
AcDbCircle
 10
-5.320132
 20
6.099415
 30
0.0
 40
0.538269
100
AcDbArc
 50
43.41062400000001
 51
115.361552
  0
LINE
  5
1F2
330
1E0
100
AcDbEntity
  8
0
100
AcDbLine
 10
-6.288808
 20
6.352844999999999
 30
0.0
 11
-8.503174000000001
 21
5.537477
 31
0.0
  0
LINE
  5
1F3
330
1E0
100
AcDbEntity
  8
0
100
AcDbLine
 10
-6.211115
 20
4.139704
 30
0.0
 11
-4.812571
 21
4.76094
 31
0.0
  0
LINE
  5
1F4
330
1E0
100
AcDbEntity
  8
0
100
AcDbLine
 10
-5.511839
 20
4.372667
 30
0.0
 11
-7.10463
 21
3.751431
 31
0.0
  0
ARC
  5
1F5
330
1E0
100
AcDbEntity
  8
0
100
AcDbCircle
 10
-1.712236
 20
3.0349
 30
0.0
 40
1.017763
100
AcDbArc
 50
290.545631
 51
0.993497
  0
ARC
  5
1F6
330
1E0
100
AcDbEntity
  8
0
100
AcDbCircle
 10
0.725292
 20
18.072299
 30
0.0
 40
18.074888
100
AcDbArc
 50
260.826193
 51
267.615374
  0
LINE
  5
1F7
330
1E0
100
AcDbEntity
  8
0
100
AcDbLine
 10
-2.714745
 20
1.538289
 30
0.0
 11
-1.355048
 21
2.081871
 31
0.0
  0
ARC
  5
1F8
330
1E0
100
AcDbEntity
  8
0
100
AcDbCircle
 10
-1.307939
 20
5.482252
 30
0.0
 40
5.321716
100
AcDbArc
 50
244.986164
 51
260.826193
  0
ARC
  5
1F9
330
1E0
100
AcDbEntity
  8
0
100
AcDbCircle
 10
-2.549511
 20
4.37403
 30
0.0
 40
1.063339
100
AcDbArc
 50
43.827456
 51
114.276238
  0
ARC
  5
1FA
330
1E0
100
AcDbEntity
  8
0
100
AcDbCircle
 10
-2.870377
 20
3.014818
 30
0.0
 40
2.176074
100
AcDbArc
 50
0.993497
 51
34.782423
  0
ARC
  5
1FB
330
1E0
100
AcDbEntity
  8
0
100
AcDbCircle
 10
-6.832405000000001
 20
0.262938
 30
0.0
 40
7.000032000000001
100
AcDbArc
 50
34.782423
 51
43.827456
  0
ENDBLK
  5
1FC
330
1E0
100
AcDbEntity
  8
0
100
AcDbBlockEnd
  0
BLOCK
  5
1FE
330
1FD
100
AcDbEntity
  8
0
100
AcDbBlockBegin
  2
CLIFF
 70
     0
 10
0.0
 20
0.0
 30
0.0
  3
CLIFF
  1

  0
LINE
  5
1FF
330
1FD
100
AcDbEntity
  8
0
100
AcDbLine
 10
-2.246367
 20
11.654497
 30
0.0
 11
-2.246367
 21
2.353523
 31
0.0
  0
LINE
  5
200
330
1FD
100
AcDbEntity
  8
0
100
AcDbLine
 10
-2.231868
 20
8.144166
 30
0.0
 11
-0.019527
 21
4.78501
 31
0.0
  0
LINE
  5
201
330
1FD
100
AcDbEntity
  8
0
100
AcDbLine
 10
-9.415182000000001
 20
14.49645
 30
0.0
 11
-9.415182000000001
 21
4.163735
 31
0.0
  0
LINE
  5
202
330
1FD
100
AcDbEntity
  8
0
100
AcDbLine
 10
-13.398568
 20
-0.021193
 30
0.0
 11
6.266259
 21
-0.021193
 31
0.0
  0
LINE
  5
203
330
1FD
100
AcDbEntity
  8
0
100
AcDbLine
 10
-0.019527
 20
4.78501
 30
0.0
 11
-0.019527
 21
0.019418
 31
0.0
  0
LINE
  5
204
330
1FD
100
AcDbEntity
  8
0
100
AcDbLine
 10
-5.586712
 20
19.782338
 30
0.0
 11
-3.336994999999999
 21
19.782338
 31
0.0
  0
LINE
  5
205
330
1FD
100
AcDbEntity
  8
0
100
AcDbLine
 10
-10.000117
 20
19.966006
 30
0.0
 11
-10.000117
 21
15.381483
 31
0.0
  0
LINE
  5
206
330
1FD
100
AcDbEntity
  8
0
100
AcDbLine
 10
-7.047055
 20
19.663997
 30
0.0
 11
-7.047055
 21
12.958013
 31
0.0
  0
LINE
  5
207
330
1FD
100
AcDbEntity
  8
0
100
AcDbLine
 10
-7.402278999999999
 20
12.405762
 30
0.0
 11
-7.402278999999999
 21
10.038943
 31
0.0
  0
LINE
  5
208
330
1FD
100
AcDbEntity
  8
0
100
AcDbLine
 10
-10.007212
 20
15.403726
 30
0.0
 11
-9.415182000000001
 21
14.49645
 31
0.0
  0
LINE
  5
209
330
1FD
100
AcDbEntity
  8
0
100
AcDbLine
 10
-7.047055
 20
12.958013
 30
0.0
 11
-7.402278999999999
 21
12.405762
 31
0.0
  0
LINE
  5
20A
330
1FD
100
AcDbEntity
  8
0
100
AcDbLine
 10
-13.604113
 20
19.979574
 30
0.0
 11
-10.007212
 21
19.979574
 31
0.0
  0
LINE
  5
20B
330
1FD
100
AcDbEntity
  8
0
100
AcDbLine
 10
-10.007212
 20
19.663997
 30
0.0
 11
-6.376085
 21
19.663997
 31
0.0
  0
LINE
  5
20C
330
1FD
100
AcDbEntity
  8
0
100
AcDbLine
 10
-6.376085
 20
19.663997
 30
0.0
 11
-5.586712
 21
19.782338
 31
0.0
  0
LINE
  5
20D
330
1FD
100
AcDbEntity
  8
0
100
AcDbLine
 10
-3.336994999999999
 20
19.782338
 30
0.0
 11
-3.336994999999999
 21
12.050738
 31
0.0
  0
LINE
  5
20E
330
1FD
100
AcDbEntity
  8
0
100
AcDbLine
 10
-3.336994999999999
 20
12.050738
 30
0.0
 11
-2.231868
 21
11.695714
 31
0.0
  0
ENDBLK
  5
20F
330
1FD
100
AcDbEntity
  8
0
100
AcDbBlockEnd
  0
BLOCK
  5
211
330
210
100
AcDbEntity
  8
0
100
AcDbBlockBegin
  2
BOULDER
 70
     0
 10
0.0
 20
0.0
 30
0.0
  3
BOULDER
  1

  0
ARC
  5
212
330
210
100
AcDbEntity
  8
0
100
AcDbCircle
 10
-18.467012
 20
-48.558422
 30
0.0
 40
48.836172
100
AcDbArc
 50
81.95401
 51
97.730432
  0
ARC
  5
213
330
210
100
AcDbEntity
  8
0
100
AcDbCircle
 10
-16.359484
 20
9.358152
 30
0.0
 40
2.909992
100
AcDbArc
 50
331.168125
 51
54.25542199999999
  0
ARC
  5
214
330
210
100
AcDbEntity
  8
0
100
AcDbCircle
 10
-14.828038
 20
7.352755999999999
 30
0.0
 40
9.798358
100
AcDbArc
 50
165.979074
 51
226.859866
  0
ARC
  5
215
330
210
100
AcDbEntity
  8
0
100
AcDbCircle
 10
-18.984252
 20
7.114803
 30
0.0
 40
5.970911
100
AcDbArc
 50
64.302322
 51
154.453115
  0
LINE
  5
216
330
210
100
AcDbEntity
  8
0
100
AcDbLine
 10
-16.400941
 20
12.502339
 30
0.0
 11
-14.653734
 21
11.712804
 31
0.0
  0
ARC
  5
217
330
210
100
AcDbEntity
  8
0
100
AcDbCircle
 10
-8.268539
 20
7.103538
 30
0.0
 40
5.38702
100
AcDbArc
 50
248.66684
 51
318.898819
  0
ARC
  5
218
330
210
100
AcDbEntity
  8
0
100
AcDbCircle
 10
-7.258914999999999
 20
-4.691222
 30
0.0
 40
9.498897
100
AcDbArc
 50
41.522711
 51
69.85540400000001
  0
ARC
  5
219
330
210
100
AcDbEntity
  8
0
100
AcDbCircle
 10
-6.828147
 20
44.311478
 30
0.0
 40
44.772867
100
AcDbArc
 50
263.841285
 51
277.722416
  0
ARC
  5
21A
330
210
100
AcDbEntity
  8
0
100
AcDbCircle
 10
-2.694509
 20
0.599171
 30
0.0
 40
2.773401
100
AcDbArc
 50
346.349854
 51
21.281179
  0
ARC
  5
21B
330
210
100
AcDbEntity
  8
0
100
AcDbCircle
 10
-0.104992
 20
-3.407316
 30
0.0
 40
3.389586
100
AcDbArc
 50
72.986207
 51
102.036573
  0
LINE
  5
21C
330
210
100
AcDbEntity
  8
0
100
AcDbLine
 10
-7.717235000000001
 20
7.659532
 30
0.0
 11
-4.504564
 21
4.854121
 31
0.0
  0
ARC
  5
21D
330
210
100
AcDbEntity
  8
0
100
AcDbCircle
 10
-16.537546
 20
-1.696076
 30
0.0
 40
12.857891
100
AcDbArc
 50
46.68690900000001
 51
78.59439499999999
  0
ARC
  5
21E
330
210
100
AcDbEntity
  8
0
100
AcDbCircle
 10
-4.872901000000001
 20
4.11188
 30
0.0
 40
0.8618379999999999
100
AcDbArc
 50
320.368673
 51
64.698138
  0
ENDBLK
  5
21F
330
210
100
AcDbEntity
  8
0
100
AcDbBlockEnd
  0
BLOCK
  5
221
330
220
100
AcDbEntity
  8
0
100
AcDbBlockBegin
  2
BOULDERS
 70
     0
 10
0.0
 20
0.0
 30
0.0
  3
BOULDERS
  1

  0
ARC
  5
222
330
220
100
AcDbEntity
  8
0
100
AcDbCircle
 10
5.434953
 20
-3.513344
 30
0.0
 40
2.985459
100
AcDbArc
 50
64.302322
 51
154.453115
  0
ARC
  5
223
330
220
100
AcDbEntity
  8
0
100
AcDbCircle
 10
5.693565
 20
-31.349953
 30
0.0
 40
24.418086
100
AcDbArc
 50
81.95401
 51
97.730432
  0
ARC
  5
224
330
220
100
AcDbEntity
  8
0
100
AcDbCircle
 10
7.51306
 20
-3.394363
 30
0.0
 40
4.899179
100
AcDbArc
 50
165.979074
 51
226.859866
  0
ARC
  5
225
330
220
100
AcDbEntity
  8
0
100
AcDbCircle
 10
-8.298105
 20
7.140161
 30
0.0
 40
5.38702
100
AcDbArc
 50
248.66684
 51
318.898819
  0
ARC
  5
226
330
220
100
AcDbEntity
  8
0
100
AcDbCircle
 10
-7.288489
 20
-4.654599
 30
0.0
 40
9.498897
100
AcDbArc
 50
41.522711
 51
69.85540400000001
  0
ARC
  5
227
330
220
100
AcDbEntity
  8
0
100
AcDbCircle
 10
-14.857604
 20
7.389378999999999
 30
0.0
 40
9.798358
100
AcDbArc
 50
165.979074
 51
226.859866
  0
ARC
  5
228
330
220
100
AcDbEntity
  8
0
100
AcDbCircle
 10
-18.496586
 20
-48.5218
 30
0.0
 40
48.836172
100
AcDbArc
 50
81.95401
 51
97.730432
  0
ARC
  5
229
330
220
100
AcDbEntity
  8
0
100
AcDbCircle
 10
-6.85772
 20
44.348093
 30
0.0
 40
44.772867
100
AcDbArc
 50
263.841285
 51
277.722416
  0
ARC
  5
22A
330
220
100
AcDbEntity
  8
0
100
AcDbCircle
 10
-0.134565
 20
-3.370694
 30
0.0
 40
3.389586
100
AcDbArc
 50
72.986207
 51
102.036573
  0
ARC
  5
22B
330
220
100
AcDbEntity
  8
0
100
AcDbCircle
 10
-2.724083
 20
0.635786
 30
0.0
 40
2.773401
100
AcDbArc
 50
346.349854
 51
21.281179
  0
ARC
  5
22C
330
220
100
AcDbEntity
  8
0
100
AcDbCircle
 10
-16.56712
 20
-1.659461
 30
0.0
 40
12.857891
100
AcDbArc
 50
46.68690900000001
 51
78.59439499999999
  0
ARC
  5
22D
330
220
100
AcDbEntity
  8
0
100
AcDbCircle
 10
-19.013818
 20
7.151418
 30
0.0
 40
5.970911
100
AcDbArc
 50
64.302322
 51
154.453115
  0
ARC
  5
22E
330
220
100
AcDbEntity
  8
0
100
AcDbCircle
 10
-16.389057
 20
9.394767
 30
0.0
 40
2.909992
100
AcDbArc
 50
331.168125
 51
54.25542199999999
  0
LINE
  5
22F
330
220
100
AcDbEntity
  8
0
100
AcDbLine
 10
-16.430506
 20
12.538954
 30
0.0
 11
-14.683307
 21
11.749427
 31
0.0
  0
LINE
  5
230
330
220
100
AcDbEntity
  8
0
100
AcDbLine
 10
-7.7468
 20
7.696147
 30
0.0
 11
-4.534137
 21
4.890744000000001
 31
0.0
  0
ARC
  5
231
330
220
100
AcDbEntity
  8
0
100
AcDbCircle
 10
-4.902474
 20
4.148503
 30
0.0
 40
0.8618379999999999
100
AcDbArc
 50
320.368673
 51
64.698138
  0
LINE
  5
232
330
220
100
AcDbEntity
  8
0
100
AcDbLine
 10
11.068458
 20
-3.240979
 30
0.0
 11
12.674793
 21
-4.643681
 31
0.0
  0
ARC
  5
233
330
220
100
AcDbEntity
  8
0
100
AcDbCircle
 10
11.513002
 20
15.08499
 30
0.0
 40
22.386433
100
AcDbArc
 50
263.841285
 51
277.722416
  0
ARC
  5
234
330
220
100
AcDbEntity
  8
0
100
AcDbCircle
 10
10.792805
 20
-3.518973
 30
0.0
 40
2.693514
100
AcDbArc
 50
248.66684
 51
318.898819
  0
LINE
  5
235
330
220
100
AcDbEntity
  8
0
100
AcDbLine
 10
6.726605
 20
-0.819576
 30
0.0
 11
7.600208
 21
-1.214339
 31
0.0
  0
ARC
  5
236
330
220
100
AcDbEntity
  8
0
100
AcDbCircle
 10
6.747333
 20
-2.391669
 30
0.0
 40
1.455
100
AcDbArc
 50
331.168125
 51
54.25542199999999
  0
ARC
  5
237
330
220
100
AcDbEntity
  8
0
100
AcDbCircle
 10
6.658297999999999
 20
-7.918783
 30
0.0
 40
6.428946
100
AcDbArc
 50
46.68690900000001
 51
78.59439499999999
  0
ARC
  5
238
330
220
100
AcDbEntity
  8
0
100
AcDbCircle
 10
13.57982
 20
-6.771160000000001
 30
0.0
 40
1.386701
100
AcDbArc
 50
346.349854
 51
21.281179
  0
ARC
  5
239
330
220
100
AcDbEntity
  8
0
100
AcDbCircle
 10
14.874575
 20
-8.7744
 30
0.0
 40
1.694793
100
AcDbArc
 50
72.986207
 51
102.036573
  0
ARC
  5
23A
330
220
100
AcDbEntity
  8
0
100
AcDbCircle
 10
12.490624
 20
-5.014805
 30
0.0
 40
0.4309229999999999
100
AcDbArc
 50
320.368673
 51
64.698138
  0
ARC
  5
23B
330
220
100
AcDbEntity
  8
0
100
AcDbCircle
 10
11.297617
 20
-9.416356
 30
0.0
 40
4.749452
100
AcDbArc
 50
41.522711
 51
69.85540400000001
  0
ENDBLK
  5
23C
330
220
100
AcDbEntity
  8
0
100
AcDbBlockEnd
  0
BLOCK
  5
23E
330
23D
100
AcDbEntity
  8
0
100
AcDbBlockBegin
  2
BOULDSC
 70
     0
 10
0.0
 20
0.0
 30
0.0
  3
BOULDSC
  1

  0
LINE
  5
23F
330
23D
100
AcDbEntity
  8
0
100
AcDbLine
 10
-8.223222
 20
6.276919
 30
0.0
 11
-7.349618
 21
5.882155
 31
0.0
  0
ARC
  5
240
330
23D
100
AcDbEntity
  8
0
100
AcDbCircle
 10
-9.256261
 20
-24.253458
 30
0.0
 40
24.418086
100
AcDbArc
 50
81.95401
 51
97.730432
  0
ARC
  5
241
330
23D
100
AcDbEntity
  8
0
100
AcDbCircle
 10
-7.436767
 20
3.702131
 30
0.0
 40
4.899179
100
AcDbArc
 50
165.979074
 51
226.859866
  0
ARC
  5
242
330
23D
100
AcDbEntity
  8
0
100
AcDbCircle
 10
-9.514874
 20
3.583151
 30
0.0
 40
2.985459
100
AcDbArc
 50
64.302322
 51
154.453115
  0
ARC
  5
243
330
23D
100
AcDbEntity
  8
0
100
AcDbCircle
 10
-3.652209
 20
-2.319862
 30
0.0
 40
4.749452
100
AcDbArc
 50
41.522711
 51
69.85540400000001
  0
ARC
  5
244
330
23D
100
AcDbEntity
  8
0
100
AcDbCircle
 10
-4.157021
 20
3.577522
 30
0.0
 40
2.693514
100
AcDbArc
 50
248.66684
 51
318.898819
  0
ARC
  5
245
330
23D
100
AcDbEntity
  8
0
100
AcDbCircle
 10
-0.075251
 20
-1.677905
 30
0.0
 40
1.694793
100
AcDbArc
 50
72.986207
 51
102.036573
  0
ARC
  5
246
330
23D
100
AcDbEntity
  8
0
100
AcDbCircle
 10
-3.436825
 20
22.181484
 30
0.0
 40
22.386433
100
AcDbArc
 50
263.841285
 51
277.722416
  0
ARC
  5
247
330
23D
100
AcDbEntity
  8
0
100
AcDbCircle
 10
-1.370006
 20
0.325335
 30
0.0
 40
1.386701
100
AcDbArc
 50
346.349854
 51
21.281179
  0
ARC
  5
248
330
23D
100
AcDbEntity
  8
0
100
AcDbCircle
 10
-8.291528
 20
-0.8222889999999999
 30
0.0
 40
6.428946
100
AcDbArc
 50
46.68690900000001
 51
78.59439499999999
  0
ARC
  5
249
330
23D
100
AcDbEntity
  8
0
100
AcDbCircle
 10
-8.202492999999999
 20
4.704825
 30
0.0
 40
1.455
100
AcDbArc
 50
331.168125
 51
54.25542199999999
  0
ARC
  5
24A
330
23D
100
AcDbEntity
  8
0
100
AcDbCircle
 10
-2.459202
 20
2.081689
 30
0.0
 40
0.4309229999999999
100
AcDbArc
 50
320.368673
 51
64.698138
  0
LINE
  5
24B
330
23D
100
AcDbEntity
  8
0
100
AcDbLine
 10
-3.881369
 20
3.855515
 30
0.0
 11
-2.275033
 21
2.452814
 31
0.0
  0
ENDBLK
  5
24C
330
23D
100
AcDbEntity
  8
0
100
AcDbBlockEnd
  0
BLOCK
  5
24E
330
24D
100
AcDbEntity
  8
0
100
AcDbBlockBegin
  2
COPPICE
 70
     0
 10
0.0
 20
0.0
 30
0.0
  3
COPPICE
  1

  0
ARC
  5
24F
330
24D
100
AcDbEntity
  8
0
100
AcDbCircle
 10
27.69952
 20
-1.073266
 30
0.0
 40
25.304025
100
AcDbArc
 50
161.091176
 51
178.291487
  0
ARC
  5
250
330
24D
100
AcDbEntity
  8
0
100
AcDbCircle
 10
-31.445504
 20
0.174919
 30
0.0
 40
27.234584
100
AcDbArc
 50
359.119432
 51
20.098122
  0
LINE
  5
251
330
24D
100
AcDbEntity
  8
0
100
AcDbLine
 10
-0.000845
 20
-0.018004
 30
0.0
 11
-0.000845
 21
23.371924
 31
0.0
  0
ARC
  5
252
330
24D
100
AcDbEntity
  8
0
100
AcDbCircle
 10
11.589242
 20
-0.360524
 30
0.0
 40
6.851137
100
AcDbArc
 50
147.7911
 51
179.022342
  0
ARC
  5
253
330
24D
100
AcDbEntity
  8
0
100
AcDbCircle
 10
-2.561025
 20
20.767337
 30
0.0
 40
7.079688000000001
100
AcDbArc
 50
291.854479
 51
2.210848
  0
ARC
  5
254
330
24D
100
AcDbEntity
  8
0
100
AcDbCircle
 10
8.166738
 20
18.922209
 30
0.0
 40
12.550284
100
AcDbArc
 50
176.851677
 51
228.944989
  0
ENDBLK
  5
255
330
24D
100
AcDbEntity
  8
0
100
AcDbBlockEnd
  0
BLOCK
  5
257
330
256
100
AcDbEntity
  8
0
100
AcDbBlockBegin
  2
SCRUB
 70
     0
 10
0.0
 20
0.0
 30
0.0
  3
SCRUB
  1

  0
LINE
  5
258
330
256
100
AcDbEntity
  8
0
100
AcDbLine
 10
2.706505
 20
-6.717583
 30
0.0
 11
3.811324
 21
-5.864331
 31
0.0
  0
ARC
  5
259
330
256
100
AcDbEntity
  8
0
100
AcDbCircle
 10
-3.039705
 20
0.058316
 30
0.0
 40
8.884360000000001
100
AcDbArc
 50
310.299169
 51
344.4335600000001
  0
ARC
  5
25A
330
256
100
AcDbEntity
  8
0
100
AcDbCircle
 10
2.674781
 20
-6.483349
 30
0.0
 40
4.225052
100
AcDbArc
 50
321.269797
 51
0.226721
  0
ARC
  5
25B
330
256
100
AcDbEntity
  8
0
100
AcDbCircle
 10
11.038228
 20
-4.226102
 30
0.0
 40
10.987338
100
AcDbArc
 50
187.51753
 51
219.464845
  0
LINE
  5
25C
330
256
100
AcDbEntity
  8
0
100
AcDbLine
 10
3.936873
 20
-11.435566
 30
0.0
 11
8.079941999999999
 21
-11.435566
 31
0.0
  0
ARC
  5
25D
330
256
100
AcDbEntity
  8
0
100
AcDbCircle
 10
1.79029
 20
-11.839993
 30
0.0
 40
0.9916450000000001
100
AcDbArc
 50
22.490634
 51
39.464845
  0
ARC
  5
25E
330
256
100
AcDbEntity
  8
0
100
AcDbCircle
 10
-20.012884
 20
11.712544
 30
0.0
 40
33.308036
100
AcDbArc
 50
315.975134
 51
321.269797
  0
ARC
  5
25F
330
256
100
AcDbEntity
  8
0
100
AcDbCircle
 10
-3.347666
 20
13.226441
 30
0.0
 40
12.756883
100
AcDbArc
 50
138.700591
 51
187.51753
  0
ARC
  5
260
330
256
100
AcDbEntity
  8
0
100
AcDbCircle
 10
-22.364988
 20
23.001236
 30
0.0
 40
17.768713
100
AcDbArc
 50
310.299169
 51
344.4335600000001
  0
LINE
  5
261
330
256
100
AcDbEntity
  8
0
100
AcDbLine
 10
-8.411833
 20
0.013472
 30
0.0
 11
-0.125694
 21
0.013472
 31
0.0
  0
ARC
  5
262
330
256
100
AcDbEntity
  8
0
100
AcDbCircle
 10
-56.311339
 20
46.309683
 30
0.0
 40
66.616073
100
AcDbArc
 50
315.975134
 51
321.269797
  0
ARC
  5
263
330
256
100
AcDbEntity
  8
0
100
AcDbCircle
 10
-5.471981
 20
6.489664
 30
0.0
 40
5.652978
100
AcDbArc
 50
75.355339
 51
124.365576
  0
ARC
  5
264
330
256
100
AcDbEntity
  8
0
100
AcDbCircle
 10
5.790886
 20
14.432399
 30
0.0
 40
21.974668
100
AcDbArc
 50
187.51753
 51
219.464845
  0
ARC
  5
265
330
256
100
AcDbEntity
  8
0
100
AcDbCircle
 10
-12.704999
 20
-0.795383
 30
0.0
 40
1.983281
100
AcDbArc
 50
22.490634
 51
39.464845
  0
LINE
  5
266
330
256
100
AcDbEntity
  8
0
100
AcDbLine
 10
-10.872561
 20
9.449428999999999
 30
0.0
 11
-8.662930000000001
 21
11.155934
 31
0.0
  0
ARC
  5
267
330
256
100
AcDbEntity
  8
0
100
AcDbCircle
 10
-10.936016
 20
9.917905000000001
 30
0.0
 40
8.450096
100
AcDbArc
 50
321.269797
 51
0.226721
  0
ARC
  5
268
330
256
100
AcDbEntity
  8
0
100
AcDbCircle
 10
3.269868
 20
-2.018674
 30
0.0
 40
2.12021
100
AcDbArc
 50
87.97715
 51
138.700591
  0
ARC
  5
269
330
256
100
AcDbEntity
  8
0
100
AcDbCircle
 10
6.468955999999999
 20
-4.829081
 30
0.0
 40
6.378441
100
AcDbArc
 50
138.700591
 51
187.51753
  0
ARC
  5
26A
330
256
100
AcDbEntity
  8
0
100
AcDbCircle
 10
3.871977
 20
-1.867099
 30
0.0
 40
1.7095
100
AcDbArc
 50
344.4335600000001
 51
44.469829
  0
ARC
  5
26B
330
256
100
AcDbEntity
  8
0
100
AcDbCircle
 10
5.858007
 20
-6.470752
 30
0.0
 40
1.041795
100
AcDbArc
 50
0.226721
 51
75.355339
  0
ARC
  5
26C
330
256
100
AcDbEntity
  8
0
100
AcDbCircle
 10
5.406795
 20
-8.19747
 30
0.0
 40
2.826493
100
AcDbArc
 50
75.355339
 51
124.365576
  0
ARC
  5
26D
330
256
100
AcDbEntity
  8
0
100
AcDbCircle
 10
3.253782
 20
-2.473959
 30
0.0
 40
2.575781
100
AcDbArc
 50
44.469829
 51
87.97715
  0
ARC
  5
26E
330
256
100
AcDbEntity
  8
0
100
AcDbCircle
 10
-4.569556
 20
9.943099
 30
0.0
 40
2.083589
100
AcDbArc
 50
0.226721
 51
75.355339
  0
ARC
  5
26F
330
256
100
AcDbEntity
  8
0
100
AcDbCircle
 10
-8.541617
 20
19.150405
 30
0.0
 40
3.418993
100
AcDbArc
 50
344.4335600000001
 51
44.469829
  0
ARC
  5
270
330
256
100
AcDbEntity
  8
0
100
AcDbCircle
 10
-9.745842999999999
 20
18.847256
 30
0.0
 40
4.240412999999999
100
AcDbArc
 50
87.97715
 51
138.700591
  0
ARC
  5
271
330
256
100
AcDbEntity
  8
0
100
AcDbCircle
 10
-9.778006
 20
17.936685
 30
0.0
 40
5.151554
100
AcDbArc
 50
44.469829
 51
87.97715
  0
ENDBLK
  5
272
330
256
100
AcDbEntity
  8
0
100
AcDbBlockEnd
  0
BLOCK
  5
274
330
273
100
AcDbEntity
  8
0
100
AcDbBlockBegin
  2
WATER
 70
     0
 10
0.0
 20
0.0
 30
0.0
  3
WATER
  1

  0
LWPOLYLINE
  5
275
330
273
100
AcDbEntity
  8
0
100
AcDbPolyline
 90
        4
 70
     0
 43
0.0
 10
-3.995814
 20
0.059532
 42
0.216664
 10
-3.20045
 20
0.414325
 42
0.092913
 10
-2.19587
 20
2.093325
 42
0.016816
 10
-1.965878
 20
2.786741
 42
0.03716
  0
LWPOLYLINE
  5
27B
330
273
100
AcDbEntity
  8
0
100
AcDbPolyline
 90
        4
 70
     0
 43
0.0
 10
-6.004367
 20
2.797567
 42
-0.016388
 10
-6.219412
 20
2.118835
 42
-0.092913
 10
-7.199884
 20
0.425659
 42
-0.216664
 10
-7.990104
 20
0.059532
 42
-0.216664
  0
LWPOLYLINE
  5
281
330
273
100
AcDbEntity
  8
0
100
AcDbPolyline
 90
        4
 70
     0
 43
0.0
 10
-5.981552
 20
2.797567
 42
0.016388
 10
-5.766514
 20
2.118835
 42
0.092913
 10
-4.786034
 20
0.425659
 42
0.216664
 10
-3.995814
 20
0.059532
 42
0.216664
  0
LWPOLYLINE
  5
287
330
273
100
AcDbEntity
  8
0
100
AcDbPolyline
 90
        4
 70
     0
 43
0.0
 10
6.128285
 20
2.797567
 42
-0.016388
 10
5.913247
 20
2.118835
 42
-0.092913
 10
4.932767
 20
0.425659
 42
-0.216664
 10
4.142547
 20
0.059532
 42
-0.216664
  0
LWPOLYLINE
  5
28D
330
273
100
AcDbEntity
  8
0
100
AcDbPolyline
 90
        4
 70
     0
 43
0.0
 10
0.048403
 20
0.059532
 42
0.216664
 10
0.843775
 20
0.414325
 42
0.092913
 10
1.848347
 20
2.093325
 42
0.016816
 10
2.078339
 20
2.786741
 42
0.03716
  0
LWPOLYLINE
  5
293
330
273
100
AcDbEntity
  8
0
100
AcDbPolyline
 90
        4
 70
     0
 43
0.0
 10
0.09833
 20
0.059532
 42
-0.216664
 10
-0.697042
 20
0.414325
 42
-0.092913
 10
-1.701614
 20
2.093325
 42
-0.016816
 10
-1.931606
 20
2.786741
 42
-0.03716
  0
LWPOLYLINE
  5
299
330
273
100
AcDbEntity
  8
0
100
AcDbPolyline
 90
        4
 70
     0
 43
0.0
 10
4.142547
 20
0.059532
 42
-0.216664
 10
3.347183
 20
0.414325
 42
-0.092913
 10
2.342603
 20
2.093325
 42
-0.016816
 10
2.112611
 20
2.786741
 42
-0.03716
  0
LWPOLYLINE
  5
29F
330
273
100
AcDbEntity
  8
0
100
AcDbPolyline
 90
        4
 70
     0
 43
0.0
 10
6.1511
 20
2.797567
 42
0.016388
 10
6.366144999999999
 20
2.118835
 42
0.092913
 10
7.346625
 20
0.425659
 42
0.216664
 10
8.136837
 20
0.059532
 42
0.216664
  0
LWPOLYLINE
  5
2A5
330
273
100
AcDbEntity
  8
0
100
AcDbPolyline
 90
        4
 70
     0
 43
0.0
 10
-1.458964
 20
7.425406
 42
-0.216664
 10
-2.254336
 20
7.780206
 42
-0.092913
 10
-3.258909
 20
9.459199
 42
-0.016816
 10
-3.4889
 20
10.152622
 42
-0.03716
  0
LWPOLYLINE
  5
2AB
330
273
100
AcDbEntity
  8
0
100
AcDbPolyline
 90
        4
 70
     0
 43
0.0
 10
-7.538846
 20
10.163441
 42
0.016388
 10
-7.323808000000001
 20
9.484717
 42
0.092913
 10
-6.343328
 20
7.791533
 42
0.216664
 10
-5.553108
 20
7.425406
 42
0.216664
  0
LWPOLYLINE
  5
2B1
330
273
100
AcDbEntity
  8
0
100
AcDbPolyline
 90
        4
 70
     0
 43
0.0
 10
-7.561669
 20
10.163441
 42
-0.016388
 10
-7.776707000000001
 20
9.484717
 42
-0.092913
 10
-8.757186
 20
7.791533
 42
-0.216664
 10
-9.547399
 20
7.425406
 42
-0.216664
  0
LWPOLYLINE
  5
2B7
330
273
100
AcDbEntity
  8
0
100
AcDbPolyline
 90
        4
 70
     0
 43
0.0
 10
-5.553108
 20
7.425406
 42
0.216664
 10
-4.757744000000001
 20
7.780206
 42
0.092913
 10
-3.753172
 20
9.459199
 42
0.016816
 10
-3.52318
 20
10.152622
 42
0.03716
  0
LWPOLYLINE
  5
2BD
330
273
100
AcDbEntity
  8
0
100
AcDbPolyline
 90
        4
 70
     0
 43
0.0
 10
4.593805000000001
 20
10.163441
 42
0.016388
 10
4.808843
 20
9.484717
 42
0.092913
 10
5.789323
 20
7.791533
 42
0.216664
 10
6.579542999999999
 20
7.425406
 42
0.216664
  0
LWPOLYLINE
  5
2C3
330
273
100
AcDbEntity
  8
0
100
AcDbPolyline
 90
        4
 70
     0
 43
0.0
 10
2.585253
 20
7.425406
 42
-0.216664
 10
1.789881
 20
7.780206
 42
-0.092913
 10
0.785308
 20
9.459199
 42
-0.016816
 10
0.5553170000000001
 20
10.152622
 42
-0.03716
  0
LWPOLYLINE
  5
2C9
330
273
100
AcDbEntity
  8
0
100
AcDbPolyline
 90
        4
 70
     0
 43
0.0
 10
-1.508891
 20
7.425406
 42
0.216664
 10
-0.713527
 20
7.780206
 42
0.092913
 10
0.291045
 20
9.459199
 42
0.016816
 10
0.521037
 20
10.152622
 42
0.03716
  0
LWPOLYLINE
  5
2CF
330
273
100
AcDbEntity
  8
0
100
AcDbPolyline
 90
        4
 70
     0
 43
0.0
 10
4.57099
 20
10.163441
 42
-0.016388
 10
4.355944999999999
 20
9.484717
 42
-0.092913
 10
3.375473
 20
7.791533
 42
-0.216664
 10
2.585253
 20
7.425406
 42
-0.216664
  0
ENDBLK
  5
2D5
330
273
100
AcDbEntity
  8
0
100
AcDbBlockEnd
  0
BLOCK
  5
2D7
330
2D6
100
AcDbEntity
  8
0
100
AcDbBlockBegin
  2
ROUGHGR
 70
     0
 10
0.0
 20
0.0
 30
0.0
  3
ROUGHGR
  1

  0
LINE
  5
2D8
330
2D6
100
AcDbEntity
  8
0
100
AcDbLine
 10
13.618495
 20
1.145331
 30
0.0
 11
14.18801
 21
4.558263
 31
0.0
  0
LINE
  5
2D9
330
2D6
100
AcDbEntity
  8
0
100
AcDbLine
 10
-10.339346
 20
1.398853
 30
0.0
 11
-10.872202
 21
5.673639
 31
0.0
  0
LINE
  5
2DA
330
2D6
100
AcDbEntity
  8
0
100
AcDbLine
 10
-13.62345
 20
1.145331
 30
0.0
 11
-14.192965
 21
4.558263
 31
0.0
  0
LINE
  5
2DB
330
2D6
100
AcDbEntity
  8
0
100
AcDbLine
 10
-16.838893
 20
0.064505
 30
0.0
 11
-17.320667
 21
2.362185
 31
0.0
  0
LINE
  5
2DC
330
2D6
100
AcDbEntity
  8
0
100
AcDbLine
 10
-3.202401
 20
1.688527
 30
0.0
 11
-3.41978
 21
6.944178
 31
0.0
  0
LINE
  5
2DD
330
2D6
100
AcDbEntity
  8
0
100
AcDbLine
 10
-6.798855000000001
 20
1.579911
 30
0.0
 11
-7.203906
 21
6.468141
 31
0.0
  0
LINE
  5
2DE
330
2D6
100
AcDbEntity
  8
0
100
AcDbLine
 10
3.197446
 20
1.688527
 30
0.0
 11
3.414825
 21
6.944178
 31
0.0
  0
LINE
  5
2DF
330
2D6
100
AcDbEntity
  8
0
100
AcDbLine
 10
-0.002474
 20
2.246285
 30
0.0
 11
-0.002474
 21
7.624311
 31
0.0
  0
LINE
  5
2E0
330
2D6
100
AcDbEntity
  8
0
100
AcDbLine
 10
6.793908
 20
1.579911
 30
0.0
 11
7.198958999999999
 21
6.468141
 31
0.0
  0
LINE
  5
2E1
330
2D6
100
AcDbEntity
  8
0
100
AcDbLine
 10
10.334391
 20
1.398853
 30
0.0
 11
10.867247
 21
5.673639
 31
0.0
  0
LINE
  5
2E2
330
2D6
100
AcDbEntity
  8
0
100
AcDbLine
 10
16.833938
 20
0.064505
 30
0.0
 11
17.315712
 21
2.362185
 31
0.0
  0
ENDBLK
  5
2E3
330
2D6
100
AcDbEntity
  8
0
100
AcDbBlockEnd
  0
BLOCK
  5
2E5
330
2E4
100
AcDbEntity
  8
0
100
AcDbBlockBegin
  2
MARSH
 70
     0
 10
0.0
 20
0.0
 30
0.0
  3
MARSH
  1

  0
LINE
  5
2E6
330
2E4
100
AcDbEntity
  8
0
100
AcDbLine
 10
-32.730686
 20
-0.005958
 30
0.0
 11
-3.422715
 21
-0.005958
 31
0.0
  0
LINE
  5
2E7
330
2E4
100
AcDbEntity
  8
0
100
AcDbLine
 10
-10.155187
 20
-3.988344
 30
0.0
 11
10.140481
 21
-3.988344
 31
0.0
  0
LINE
  5
2E8
330
2E4
100
AcDbEntity
  8
0
100
AcDbLine
 10
-6.721880000000001
 20
-0.005958
 30
0.0
 11
-8.5513
 21
5.188362000000001
 31
0.0
  0
LINE
  5
2E9
330
2E4
100
AcDbEntity
  8
0
100
AcDbLine
 10
-10.155187
 20
-0.005958
 30
0.0
 11
-11.090544
 21
2.06458
 31
0.0
  0
LINE
  5
2EA
330
2E4
100
AcDbEntity
  8
0
100
AcDbLine
 10
-3.422715
 20
-0.005958
 30
0.0
 11
-4.114421
 21
7.756482000000001
 31
0.0
  0
LINE
  5
2EB
330
2E4
100
AcDbEntity
  8
0
100
AcDbLine
 10
-0.007357
 20
0.093927
 30
0.0
 11
-0.007357
 21
9.05494
 31
0.0
  0
LINE
  5
2EC
330
2E4
100
AcDbEntity
  8
0
100
AcDbLine
 10
32.781638
 20
-0.005958
 30
0.0
 11
3.473659
 21
-0.005958
 31
0.0
  0
LINE
  5
2ED
330
2E4
100
AcDbEntity
  8
0
100
AcDbLine
 10
10.206139
 20
-0.005958
 30
0.0
 11
11.141489
 21
2.06458
 31
0.0
  0
LINE
  5
2EE
330
2E4
100
AcDbEntity
  8
0
100
AcDbLine
 10
6.772824000000001
 20
-0.005958
 30
0.0
 11
8.602252
 21
5.188362000000001
 31
0.0
  0
LINE
  5
2EF
330
2E4
100
AcDbEntity
  8
0
100
AcDbLine
 10
3.473659
 20
-0.005958
 30
0.0
 11
4.165366000000001
 21
7.756482000000001
 31
0.0
  0
ENDBLK
  5
2F0
330
2E4
100
AcDbEntity
  8
0
100
AcDbBlockEnd
  0
BLOCK
  5
2F2
330
2F1
100
AcDbEntity
  8
0
100
AcDbBlockBegin
  2
ORCHARD
 70
     0
 10
0.0
 20
0.0
 30
0.0
  3
ORCHARD
  1

  0
ARC
  5
2F3
330
2F1
100
AcDbEntity
  8
0
100
AcDbCircle
 10
-29.053504
 20
9.647199
 30
0.0
 40
5.464844
100
AcDbArc
 50
92.884046
 51
327.033022
  0
ARC
  5
2F4
330
2F1
100
AcDbEntity
  8
0
100
AcDbCircle
 10
-24.456628
 20
17.580932
 30
0.0
 40
5.464844
100
AcDbArc
 50
333.231606
 51
206.939063
  0
ARC
  5
2F5
330
2F1
100
AcDbEntity
  8
0
100
AcDbCircle
 10
-0.051863
 20
17.580932
 30
0.0
 40
5.464844
100
AcDbArc
 50
333.231606
 51
206.939063
  0
ARC
  5
2F6
330
2F1
100
AcDbEntity
  8
0
100
AcDbCircle
 10
4.510141
 20
9.664016
 30
0.0
 40
5.464844
100
AcDbArc
 50
213.177354
 51
86.672487
  0
ARC
  5
2F7
330
2F1
100
AcDbEntity
  8
0
100
AcDbCircle
 10
-4.648739
 20
9.647199
 30
0.0
 40
5.464844
100
AcDbArc
 50
92.884046
 51
327.033022
  0
ARC
  5
2F8
330
2F1
100
AcDbEntity
  8
0
100
AcDbCircle
 10
-19.894624
 20
9.664016
 30
0.0
 40
5.464844
100
AcDbArc
 50
213.177354
 51
86.672487
  0
LINE
  5
2F9
330
2F1
100
AcDbEntity
  8
0
100
AcDbLine
 10
-24.456281
 20
6.654732000000001
 30
0.0
 11
-24.456281
 21
-0.033318
 31
0.0
  0
LINE
  5
2FA
330
2F1
100
AcDbEntity
  8
0
100
AcDbLine
 10
-0.051516
 20
6.654732000000001
 30
0.0
 11
-0.051516
 21
-0.033318
 31
0.0
  0
ARC
  5
2FB
330
2F1
100
AcDbEntity
  8
0
100
AcDbCircle
 10
29.110147
 20
9.664016
 30
0.0
 40
5.464844
100
AcDbArc
 50
213.177354
 51
86.672487
  0
ARC
  5
2FC
330
2F1
100
AcDbEntity
  8
0
100
AcDbCircle
 10
19.951259
 20
9.647199
 30
0.0
 40
5.464844
100
AcDbArc
 50
92.884046
 51
327.033022
  0
LINE
  5
2FD
330
2F1
100
AcDbEntity
  8
0
100
AcDbLine
 10
24.54849
 20
6.654732000000001
 30
0.0
 11
24.54849
 21
-0.033318
 31
0.0
  0
ARC
  5
2FE
330
2F1
100
AcDbEntity
  8
0
100
AcDbCircle
 10
24.548144
 20
17.580932
 30
0.0
 40
5.464844
100
AcDbArc
 50
333.231606
 51
206.939063
  0
ENDBLK
  5
2FF
330
2F1
100
AcDbEntity
  8
0
100
AcDbBlockEnd
  0
BLOCK
  5
301
330
300
100
AcDbEntity
  8
0
100
AcDbBlockBegin
  2
HEATH
 70
     0
 10
0.0
 20
0.0
 30
0.0
  3
HEATH
  1

  0
LINE
  5
302
330
300
100
AcDbEntity
  8
0
100
AcDbLine
 10
-16.309044
 20
25.719756
 30
0.0
 11
-17.184196
 21
29.893511
 31
0.0
  0
LINE
  5
303
330
300
100
AcDbEntity
  8
0
100
AcDbLine
 10
-12.497945
 20
26.312025
 30
0.0
 11
-13.532478
 21
32.511657
 31
0.0
  0
LINE
  5
304
330
300
100
AcDbEntity
  8
0
100
AcDbLine
 10
-8.674009
 20
26.772562
 30
0.0
 11
-9.641938
 21
34.53775
 31
0.0
  0
LINE
  5
305
330
300
100
AcDbEntity
  8
0
100
AcDbLine
 10
-1.000613
 20
27.298757
 30
0.0
 11
-1.395476
 21
36.845702
 31
0.0
  0
LINE
  5
306
330
300
100
AcDbEntity
  8
0
100
AcDbLine
 10
-4.840495
 20
27.101452
 30
0.0
 11
-5.576276
 21
35.980984
 31
0.0
  0
LINE
  5
307
330
300
100
AcDbEntity
  8
0
100
AcDbLine
 10
6.685511999999999
 20
27.298757
 30
0.0
 11
7.080375999999999
 21
36.845702
 31
0.0
  0
LINE
  5
308
330
300
100
AcDbEntity
  8
0
100
AcDbLine
 10
2.84245
 20
27.364523
 30
0.0
 11
2.84245
 21
37.133767
 31
0.0
  0
LINE
  5
309
330
300
100
AcDbEntity
  8
0
100
AcDbLine
 10
14.358916
 20
26.772562
 30
0.0
 11
15.326845
 21
34.53775
 31
0.0
  0
LINE
  5
30A
330
300
100
AcDbEntity
  8
0
100
AcDbLine
 10
10.525402
 20
27.101452
 30
0.0
 11
11.261175
 21
35.980984
 31
0.0
  0
LINE
  5
30B
330
300
100
AcDbEntity
  8
0
100
AcDbLine
 10
21.993951
 20
25.719756
 30
0.0
 11
22.869095
 21
29.893511
 31
0.0
  0
LINE
  5
30C
330
300
100
AcDbEntity
  8
0
100
AcDbLine
 10
18.182852
 20
26.312025
 30
0.0
 11
19.217385
 21
32.511657
 31
0.0
  0
LINE
  5
30D
330
300
100
AcDbEntity
  8
0
100
AcDbLine
 10
-34.38978400000001
 20
0.660453
 30
0.0
 11
-35.42431699999999
 21
6.860085000000001
 31
0.0
  0
LINE
  5
30E
330
300
100
AcDbEntity
  8
0
100
AcDbLine
 10
-38.200884
 20
0.068184
 30
0.0
 11
-39.076035
 21
4.241937999999999
 31
0.0
  0
LINE
  5
30F
330
300
100
AcDbEntity
  8
0
100
AcDbLine
 10
-26.732334
 20
1.44988
 30
0.0
 11
-27.468115
 21
10.329412
 31
0.0
  0
LINE
  5
310
330
300
100
AcDbEntity
  8
0
100
AcDbLine
 10
-19.04939
 20
1.71295
 30
0.0
 11
-19.04939
 21
11.482195
 31
0.0
  0
LINE
  5
311
330
300
100
AcDbEntity
  8
0
100
AcDbLine
 10
-22.892452
 20
1.647185
 30
0.0
 11
-23.287316
 21
11.19413
 31
0.0
  0
LINE
  5
312
330
300
100
AcDbEntity
  8
0
100
AcDbLine
 10
-30.565848
 20
1.12099
 30
0.0
 11
-31.533777
 21
8.886178
 31
0.0
  0
LINE
  5
313
330
300
100
AcDbEntity
  8
0
100
AcDbLine
 10
-3.708988
 20
0.660453
 30
0.0
 11
-2.674454
 21
6.860085000000001
 31
0.0
  0
LINE
  5
314
330
300
100
AcDbEntity
  8
0
100
AcDbLine
 10
-11.366437
 20
1.44988
 30
0.0
 11
-10.630664
 21
10.329412
 31
0.0
  0
LINE
  5
315
330
300
100
AcDbEntity
  8
0
100
AcDbLine
 10
-15.206327
 20
1.647185
 30
0.0
 11
-14.811464
 21
11.19413
 31
0.0
  0
LINE
  5
316
330
300
100
AcDbEntity
  8
0
100
AcDbLine
 10
-7.532922999999999
 20
1.12099
 30
0.0
 11
-6.564995
 21
8.886178
 31
0.0
  0
LINE
  5
317
330
300
100
AcDbEntity
  8
0
100
AcDbLine
 10
0.102112
 20
0.068184
 30
0.0
 11
0.9772549999999999
 21
4.241937999999999
 31
0.0
  0
ENDBLK
  5
318
330
300
100
AcDbEntity
  8
0
100
AcDbBlockEnd
  0
BLOCK
  5
31A
330
319
100
AcDbEntity
  8
0
100
AcDbBlockBegin
  2
BDYPOST
 70
     0
 10
0.0
 20
0.0
 30
0.0
  3
BDYPOST
  1

  0
CIRCLE
  5
31B
330
319
100
AcDbEntity
  8
0
100
AcDbCircle
 10
0.0
 20
0.0
 30
0.0
 40
2.23
  0
ENDBLK
  5
31C
330
319
100
AcDbEntity
  8
0
100
AcDbBlockEnd
  0
BLOCK
  5
31E
330
31D
100
AcDbEntity
  8
0
100
AcDbBlockBegin
  2
BDYMEREI
 70
     0
 10
0.0
 20
0.0
 30
0.0
  3
BDYMEREI
  1

  0
CIRCLE
  5
31F
330
31D
100
AcDbEntity
  8
0
100
AcDbCircle
 10
17.740743
 20
0.011348
 30
0.0
 40
3.84096
  0
LINE
  5
320
330
31D
100
AcDbEntity
  8
0
100
AcDbLine
 10
0.013811
 20
-0.004999
 30
0.0
 11
13.86859
 21
-0.004999
 31
0.0
  0
ENDBLK
  5
321
330
31D
100
AcDbEntity
  8
0
100
AcDbBlockEnd
  0
BLOCK
  5
323
330
322
100
AcDbEntity
  8
0
100
AcDbBlockBegin
  2
TRIGP
 70
     0
 10
0.0
 20
0.0
 30
0.0
  3
TRIGP
  1

  0
LWPOLYLINE
  5
324
330
322
100
AcDbEntity
  8
0
100
AcDbPolyline
 90
        7
 70
     0
 43
0.0
 10
-6.524303
 20
-4.501012
 10
-0.7493029999999999
 20
7.048988
 10
0.020697
 20
8.588988
 10
0.790697
 20
7.048988
 10
6.565697
 20
-4.501012
 10
5.025697
 20
-4.501012
 10
-6.524303
 20
-4.501012
  0
LWPOLYLINE
  5
32D
330
322
100
AcDbEntity
  8
0
100
AcDbPolyline
 90
        2
 70
   129
 43
0.386264
 10
-0.189234
 20
-0.004764
 42
1.0
 10
0.197031
 20
-0.004764
 42
1.0
  0
ENDBLK
  5
331
330
322
100
AcDbEntity
  8
0
100
AcDbBlockEnd
  0
BLOCK
  5
333
330
332
100
AcDbEntity
  8
0
100
AcDbBlockBegin
  2
BENCHM
 70
     0
 10
0.0
 20
0.0
 30
0.0
  3
BENCHM
  1

  0
LINE
  5
334
330
332
100
AcDbEntity
  8
0
100
AcDbLine
 10
0.0
 20
0.0
 30
0.0
 11
12.2
 21
0.0
 31
0.0
  0
LINE
  5
335
330
332
100
AcDbEntity
  8
0
100
AcDbLine
 10
0.0
 20
0.0
 30
0.0
 11
6.15
 21
6.15
 31
0.0
  0
LINE
  5
336
330
332
100
AcDbEntity
  8
0
100
AcDbLine
 10
0.0
 20
0.0
 30
0.0
 11
6.15
 21
-6.15
 31
0.0
  0
ENDBLK
  5
337
330
332
100
AcDbEntity
  8
0
100
AcDbBlockEnd
  0
BLOCK
  5
339
330
338
100
AcDbEntity
  8
0
100
AcDbBlockBegin
  2
SPOTH
 70
     0
 10
0.0
 20
0.0
 30
0.0
  3
SPOTH
  1

  0
LINE
  5
33A
330
338
100
AcDbEntity
  8
0
100
AcDbLine
 10
0.0
 20
-4.6
 30
0.0
 11
0.0
 21
4.6
 31
0.0
  0
LINE
  5
33B
330
338
100
AcDbEntity
  8
0
100
AcDbLine
 10
-4.6
 20
0.0
 30
0.0
 11
4.6
 21
0.0
 31
0.0
  0
ENDBLK
  5
33C
330
338
100
AcDbEntity
  8
0
100
AcDbBlockEnd
  0
BLOCK
  5
33E
330
33D
100
AcDbEntity
  8
0
100
AcDbBlockBegin
  2
PYLON
 70
     0
 10
0.0
 20
0.0
 30
0.0
  3
PYLON
  1

  0
LINE
  5
33F
330
33D
100
AcDbEntity
  8
0
100
AcDbLine
 10
0.499566
 20
0.500037
 30
0.0
 11
-0.500434
 21
-0.499963
 31
0.0
  0
LINE
  5
340
330
33D
100
AcDbEntity
  8
0
100
AcDbLine
 10
-0.500434
 20
0.500037
 30
0.0
 11
0.499566
 21
-0.499963
 31
0.0
  0
LWPOLYLINE
  5
341
330
33D
100
AcDbEntity
  8
0
100
AcDbPolyline
 90
        4
 70
     1
 43
0.0
 10
0.499566
 20
-0.499963
 10
0.499566
 20
0.500037
 10
-0.500434
 20
0.500037
 10
-0.500434
 20
-0.499963
  0
ENDBLK
  5
347
330
33D
100
AcDbEntity
  8
0
100
AcDbBlockEnd
  0
BLOCK
  5
349
330
348
100
AcDbEntity
  8
0
100
AcDbBlockBegin
  2
POINT
 70
     0
 10
0.0
 20
0.0
 30
0.0
  3
POINT
  1

  0
LWPOLYLINE
  5
34A
330
348
100
AcDbEntity
  8
0
100
AcDbPolyline
 90
        3
 70
     0
 43
0.0
 10
0.004128
 20
2.318056
 42
1.0
 10
0.004128
 20
-2.301944
 42
1.0
 10
0.004128
 20
2.318056
  0
ENDBLK
  5
34F
330
348
100
AcDbEntity
  8
0
100
AcDbBlockEnd
  0
BLOCK
  5
351
330
350
100
AcDbEntity
  8
0
100
AcDbBlockBegin
  2
COPY
 70
     0
 10
0.0
 20
0.0
 30
0.0
  3
COPY
  1

  0
LWPOLYLINE
  5
352
330
350
100
AcDbEntity
  8
0
100
AcDbPolyline
 90
        9
 70
     0
 43
0.0
 10
-0.006975
 20
2.994124
 10
-0.006975
 20
12.994124
 10
2.993025
 20
15.994124
 10
12.993025
 20
15.994124
 10
15.993025
 20
12.994124
 10
15.993025
 20
2.994124
 10
12.993025
 20
-0.005876
 10
2.993025
 20
-0.005876
 10
-0.006975
 20
2.994124
  0
LWPOLYLINE
  5
35D
330
350
100
AcDbEntity
  8
0
100
AcDbPolyline
 90
        6
 70
     0
 43
0.0
 10
11.993025
 20
3.994124
 10
4.993025
 20
3.994124
 10
3.993025
 20
4.994124
 10
3.993025
 20
10.994124
 10
4.993025
 20
11.994124
 10
11.993025
 20
11.994124
  0
ENDBLK
  5
365
330
350
100
AcDbEntity
  8
0
100
AcDbBlockEnd
  0
BLOCK
  5
367
330
366
100
AcDbEntity
  8
0
100
AcDbBlockBegin
  2
FLARROW
 70
     0
 10
0.0
 20
0.0
 30
0.0
  3
FLARROW
  1

  0
LINE
  5
368
330
366
100
AcDbEntity
  8
0
100
AcDbLine
 10
27.69632
 20
0.005086
 30
0.0
 11
0.000452
 21
0.005086
 31
0.0
  0
LINE
  5
369
330
366
100
AcDbEntity
  8
0
100
AcDbLine
 10
-0.016003
 20
-0.003322
 30
0.0
 11
3.833997
 21
-3.853322
 31
0.0
  0
LINE
  5
36A
330
366
100
AcDbEntity
  8
0
100
AcDbLine
 10
-0.016003
 20
0.013495
 30
0.0
 11
3.833997
 21
3.863495
 31
0.0
  0
LINE
  5
36B
330
366
100
AcDbEntity
  8
0
100
AcDbLine
 10
27.758844
 20
-0.003322
 30
0.0
 11
31.608844
 21
3.846678
 31
0.0
  0
LINE
  5
36C
330
366
100
AcDbEntity
  8
0
100
AcDbLine
 10
23.908844
 20
-0.003322
 30
0.0
 11
27.758844
 21
3.846678
 31
0.0
  0
LINE
  5
36D
330
366
100
AcDbEntity
  8
0
100
AcDbLine
 10
27.758844
 20
-0.058184
 30
0.0
 11
31.608844
 21
-3.908183999999999
 31
0.0
  0
LINE
  5
36E
330
366
100
AcDbEntity
  8
0
100
AcDbLine
 10
23.908844
 20
-0.003322
 30
0.0
 11
27.758844
 21
-3.853322
 31
0.0
  0
ENDBLK
  5
36F
330
366
100
AcDbEntity
  8
0
100
AcDbBlockEnd
  0
BLOCK
  5
371
330
370
100
AcDbEntity
  8
0
100
AcDbBlockBegin
  2
ULC
 70
     0
 10
0.0
 20
0.0
 30
0.0
  3
ULC
  1

  0
LINE
  5
372
330
370
100
AcDbEntity
  8
0
100
AcDbLine
 10
-4.08
 20
-4.08
 30
0.0
 11
4.08
 21
4.08
 31
0.0
  0
LINE
  5
373
330
370
100
AcDbEntity
  8
0
100
AcDbLine
 10
-4.08
 20
4.08
 30
0.0
 11
4.08
 21
-4.08
 31
0.0
  0
ENDBLK
  5
374
330
370
100
AcDbEntity
  8
0
100
AcDbBlockEnd
  0
BLOCK
  5
376
330
375
100
AcDbEntity
  8
0
100
AcDbBlockBegin
  2
GLASSEED
 70
     0
 10
0.0
 20
0.0
 30
0.0
  3
GLASSEED
  1

  0
LINE
  5
377
330
375
100
AcDbEntity
  8
0
100
AcDbLine
 10
-4.08
 20
-4.08
 30
0.0
 11
4.08
 21
4.08
 31
0.0
  0
LINE
  5
378
330
375
100
AcDbEntity
  8
0
100
AcDbLine
 10
-4.08
 20
4.08
 30
0.0
 11
4.08
 21
-4.08
 31
0.0
  0
ENDBLK
  5
379
330
375
100
AcDbEntity
  8
0
100
AcDbBlockEnd
  0
BLOCK
  5
37B
330
37A
100
AcDbEntity
  8
0
100
AcDbBlockBegin
  2
BUILDSED
 70
     0
 10
0.0
 20
0.0
 30
0.0
  3
BUILDSED
  1

  0
LINE
  5
37C
330
37A
100
AcDbEntity
  8
0
100
AcDbLine
 10
-4.08
 20
-4.08
 30
0.0
 11
4.08
 21
4.08
 31
0.0
  0
LINE
  5
37D
330
37A
100
AcDbEntity
  8
0
100
AcDbLine
 10
-4.08
 20
4.08
 30
0.0
 11
4.08
 21
-4.08
 31
0.0
  0
ENDBLK
  5
37E
330
37A
100
AcDbEntity
  8
0
100
AcDbBlockEnd
  0
BLOCK
  5
380
330
37F
100
AcDbEntity
  8
0
100
AcDbBlockBegin
  2
REGTM
 70
     0
 10
0.0
 20
0.0
 30
0.0
  3
REGTM
  1

  0
LWPOLYLINE
  5
381
330
37F
100
AcDbEntity
  8
0
100
AcDbPolyline
 90
        9
 70
     0
 43
0.0
 10
0.0
 20
3.0
 10
0.0
 20
13.0
 10
3.0
 20
16.0
 10
13.0
 20
16.0
 10
16.0
 20
13.0
 10
16.0
 20
3.0
 10
13.0
 20
0.0
 10
3.0
 20
0.0
 10
0.0
 20
3.0
  0
LWPOLYLINE
  5
38C
330
37F
100
AcDbEntity
  8
0
100
AcDbPolyline
 90
        8
 70
     0
 43
0.0
 10
4.0
 20
4.0
 10
4.0
 20
12.0
 10
10.0
 20
12.0
 10
11.2
 20
11.3
 10
12.0
 20
10.0
 10
11.2
 20
8.7
 10
10.0
 20
8.0
 10
4.0
 20
8.0
  0
LWPOLYLINE
  5
396
330
37F
100
AcDbEntity
  8
0
100
AcDbPolyline
 90
        2
 70
     0
 43
0.0
 10
8.0
 20
8.0
 10
12.0
 20
4.0
  0
ENDBLK
  5
39A
330
37F
100
AcDbEntity
  8
0
100
AcDbBlockEnd
  0
BLOCK
  5
D3F
330
D31
100
AcDbEntity
  8
0
100
AcDbBlockBegin
  2
aoc
 70
     0
 10
0.0
 20
0.0
 30
0.0
  3
aoc
  1

  0
LWPOLYLINE
  5
D32
330
D31
100
AcDbEntity
  8
AOC_PAGE
 62
   150
100
AcDbPolyline
 90
       71
 70
     0
 43
0.0
 10
28.03722397494261
 20
-2.155385721392804
 10
27.78249854613364
 20
-2.031058557894312
 10
27.53134820847433
 20
-2.082952588188604
 10
27.39492210126397
 20
-2.248431979581937
 10
27.34654327411587
 20
-2.577048898742532
 10
27.43567141431475
 20
-2.843789528328216
 10
27.55443165997008
 20
-3.054096560222874
 10
27.68546675576883
 20
-3.199516545963192
 10
27.89798054377297
 20
-3.292279299854044
 10
28.14021650891161
 20
-3.337242047872209
 10
28.35205475933162
 20
-3.365252863126884
 10
28.56357775887773
 20
-3.363046107016984
 10
28.77024353244786
 20
-3.309082835837216
 10
28.88607644857026
 20
-3.23879813363942
 10
29.06639108829606
 20
-3.141937118401756
 10
29.18968666442379
 20
-2.959325650889014
 10
29.35165326037756
 20
-2.759041677188634
 10
29.46500920535706
 20
-2.451333199989662
 10
29.51829029431971
 20
-2.178789591808709
 10
29.56221721804121
 20
-1.83726732076002
 10
29.49543202201878
 20
-1.229229599319979
 10
29.35697265742257
 20
-0.7859957316895674
 10
29.21756754020748
 20
-0.2521091499670547
 10
29.06175092029753
 20
0.1995781661257894
 10
28.85826940203012
 20
0.6680372716266447
 10
28.58072681572361
 20
1.200482706502044
 10
28.41331088325433
 20
1.522531037804129
 10
28.24526444903947
 20
1.90501451183512
 10
27.85017758473026
 20
2.531213489058246
 10
27.65677080512774
 20
2.861625197145941
 10
27.41061672199857
 20
3.28214918925643
 10
27.08658016914976
 20
3.719129719902639
 10
26.68699636557449
 20
4.362550844923589
 10
26.26623390500475
 20
4.96689562756842
 10
25.95361652135756
 20
5.550782326640501
 10
25.69356629788211
 20
6.061823925326067
 10
25.32892218413116
 20
6.666754173876825
 10
25.06387962716187
 20
7.242502675359674
 10
24.85509052452878
 20
7.805886255022173
 10
24.63326096249031
 20
8.377768318986227
 10
24.49844285621859
 20
8.885799161092095
 10
24.46101955061931
 20
9.576171255678446
 10
24.54285188490482
 20
10.00875156336907
 10
24.59896358709096
 20
10.42379447239001
 10
24.72454934637423
 20
10.80070679165192
 10
24.92316034940083
 20
11.21291908744909
 10
25.21237903067913
 20
11.63039393177428
 10
25.70529776478793
 20
11.9722831341669
 10
26.12591182857682
 20
12.2098036254781
 10
26.42655632368994
 20
12.35972719511599
 10
26.92132152719631
 20
12.52462776523453
 10
27.43007294272613
 20
12.59037713696034
 10
27.81035630527933
 20
12.55548912760834
 10
28.16491903573316
 20
12.50306371958506
 10
28.49457177918973
 20
12.35539858652805
 10
28.97248176624203
 20
12.06681040699436
 10
29.32934132448392
 20
11.7942284076064
 10
29.61304053146543
 20
11.4992968194108
 10
29.86108611983127
 20
10.89746739911723
 10
30.07181176354104
 20
10.14846159536249
 10
30.03094727686857
 20
9.513397202493934
 10
29.95041433728147
 20
9.370087256552779
 10
29.85486600600663
 20
9.010757371799855
 10
29.75814674291831
 20
8.763664180684145
 10
29.60904046301377
 20
8.572148906319399
 10
29.37404862331681
 20
8.336564956083507
 10
29.15542325047676
 20
8.187497067385948
 10
28.76439625630607
 20
8.010726969675261
 10
28.40277618839761
 20
7.911974449201125
 10
28.18635092703582
 20
7.965841004071521
 10
27.54242776315385
 20
8.02819939861071
  0
LWPOLYLINE
  5
D33
330
D31
100
AcDbEntity
  8
AOC_PAGE
 62
   150
100
AcDbPolyline
 90
      241
 70
     0
 43
0.0
 10
28.79717051329473
 20
2.343530146317107
 10
28.66686265665402
 20
2.462022936259714
 10
27.78436988790142
 20
3.873196586725967
 10
27.00242442854866
 20
5.164535776032608
 10
26.36698645970407
 20
6.068849516205105
 10
25.96942262425111
 20
6.932472268430274
 10
25.54604808502063
 20
7.787191213803013
 10
25.34899340246284
 20
8.467263390528146
 10
25.14446941526737
 20
9.449466245052932
 10
25.43893735580986
 20
10.60524829735321
 10
25.95442421328923
 20
11.26685061205421
 10
26.48574375219027
 20
11.65231309608885
 10
27.0967021585306
 20
11.85296400113249
 10
27.51052909989949
 20
11.91340578849234
 10
28.07706518828917
 20
11.82001917748767
 10
28.52408206639393
 20
11.59586768571829
 10
28.96876372550378
 20
11.18173213810906
 10
29.32535971334343
 20
10.5205934710618
 10
29.41741518307478
 20
9.973261107384147
 10
29.29776750990368
 20
9.440989171232573
 10
29.04730992012898
 20
9.03255324127646
 10
28.88075631323201
 20
8.858125007191774
 10
28.42783485260446
 20
8.658879948450263
 10
27.91177406146923
 20
8.627835352059023
 10
27.61688086447973
 20
8.75427679228234
 10
27.38197245182911
 20
8.924516693342653
 10
27.20246181257332
 20
9.164410794855272
 10
27.12677945433097
 20
9.383801776957853
 10
27.18087118839546
 20
9.578643058774318
 10
27.27453465906586
 20
9.704820928595808
 10
27.37714697242723
 20
9.800871298731863
 10
27.49334017526161
 20
9.836621633657387
 10
27.64878986382837
 20
9.833926127951145
 10
27.83949449309256
 20
9.762522174410634
 10
27.97277473620738
 20
9.815719836328071
 10
28.03599545631931
 20
9.96316643482281
 10
28.08599557366958
 20
10.13637870125467
 10
28.04956970115947
 20
10.31732384272618
 10
27.90113231420833
 20
10.47551407283801
 10
27.74055518463069
 20
10.55586686906962
 10
27.4599184146991
 20
10.55725633544559
 10
27.01699979794122
 20
10.38857939948522
 10
26.81141488450632
 20
10.23101302648682
 10
26.67031169467461
 20
10.10002296652715
 10
26.53847259840697
 20
9.908687835518307
 10
26.46774418245127
 20
9.653231267617457
 10
26.47624931138418
 20
9.25181428390917
 10
26.58282477857483
 20
8.967986614042502
 10
26.76678732125762
 20
8.71518716064179
 10
27.05084681495006
 20
8.385721205172558
 10
27.31660330071071
 20
8.155361412257662
 10
28.22300197873983
 20
7.763311883054953
 10
28.78998842552002
 20
7.626757312959185
 10
29.20111986118238
 20
7.531749411751221
 10
29.66387270439847
 20
7.454549124247478
 10
30.47219439953778
 20
7.359367724316598
 10
31.05995418076188
 20
7.300740659779862
 10
31.97111336845816
 20
7.280025650438787
 10
33.07576276280153
 20
7.334722784305995
 10
33.68407069927522
 20
7.375607204873162
 10
34.45587645022738
 20
7.470004538231493
 10
35.41843186628236
 20
7.488681122139738
 10
36.39847964516773
 20
7.485953869858349
 10
37.31004415541472
 20
7.4263876973355
 10
38.12286278981969
 20
7.31398414960654
 10
38.75914315033992
 20
7.156566173389137
 10
39.48702197757092
 20
6.90944123569831
 10
39.93813047238928
 20
6.706918759313581
 10
40.29044805552707
 20
6.455875703631804
 10
40.75783959015661
 20
5.934045437489416
 10
40.94584871371353
 20
5.707191795382187
 10
41.09073491401881
 20
5.475570998976082
 10
41.2274378808952
 20
5.200692171801165
 10
41.38302932161147
 20
4.770588835253207
 10
41.44675208058351
 20
4.456093235633489
 10
41.46483655395397
 20
3.964113609511514
 10
41.47406225631011
 20
3.493627891256679
 10
41.19653960390062
 20
2.782700996789799
 10
40.958762186819
 20
2.400300949805342
 10
40.70223140341568
 20
2.160175024466085
 10
40.43639149060886
 20
1.984710966085231
 10
40.10283391842626
 20
1.679022457007932
 10
39.88762462471593
 20
1.616335522331852
 10
39.3926792778536
 20
1.468702135849085
 10
38.90092483092644
 20
1.429033682933323
 10
38.36123527060926
 20
1.432037794880884
 10
37.87568248019576
 20
1.625566392735195
 10
37.38113581125228
 20
1.853539286184969
 10
37.07630298311477
 20
2.105077736094913
 10
36.84881219462972
 20
2.391961198379462
 10
36.68989474646193
 20
2.727049989087163
 10
36.58646514336687
 20
3.123159388429244
 10
36.56636070187525
 20
3.394937387347909
 10
36.61087309150386
 20
3.680341311578331
 10
36.70714199620303
 20
3.970602461785134
 10
36.88430412720047
 20
4.369639190660351
 10
37.46661457190902
 20
4.833344431126292
 10
37.85755149440158
 20
5.018748120655815
 10
38.12887913493068
 20
5.082020521238277
 10
38.42624265843028
 20
5.132612749127262
 10
38.66856869524733
 20
5.07901640929164
 10
38.95896495297163
 20
4.969797116864825
 10
39.14616343142708
 20
4.820645801121827
 10
39.38565885502157
 20
4.624550160446006
 10
39.48328547952082
 20
4.370849990265469
 10
39.52056703297168
 20
4.107885726521303
 10
39.37956055944932
 20
3.553804631629873
 10
39.26013142084182
 20
3.414406159046635
 10
39.13593512793406
 20
3.318130609715595
 10
39.05013963981969
 20
3.265428342027022
 10
38.88659678950148
 20
3.216232225145845
 10
38.76122956478181
 20
3.232193369452716
 10
38.62695853320992
 20
3.273965217535746
 10
38.54390358663977
 20
3.372395842504829
 10
38.52492504112271
 20
3.536253943695343
 10
38.54079611375093
 20
3.670254760234002
 10
38.60464733560843
 20
3.757266216000758
 10
38.60464733560843
 20
3.757266216000758
 10
38.28853044578585
 20
3.848948109756506
 10
38.12476241627286
 20
3.821335972420698
 10
38.01837373707025
 20
3.673439015536346
 10
37.96859879891483
 20
3.478642769558746
 10
37.97916893180806
 20
3.293110617144535
 10
38.02895051459652
 20
3.073449420008956
 10
38.15180237696609
 20
2.884771403498917
 10
38.37380543772838
 20
2.710079599012261
 10
38.64252764422938
 20
2.609268719209695
 10
39.10383934059786
 20
2.670205900798223
 10
39.51235869759961
 20
2.825572162319077
 10
39.87662923537476
 20
3.084091167269193
 10
40.10069065546642
 20
3.539741637192023
 10
40.12244813373576
 20
3.937157075864206
 10
40.11079714070658
 20
4.226292330096626
 10
40.05130110596562
 20
4.549466557374444
 10
39.94899739884499
 20
4.837656058988841
 10
39.75118375165607
 20
5.176656323055099
 10
39.50192884026998
 20
5.480581789780885
 10
39.21953567261878
 20
5.65032629661232
 10
38.78668514989383
 20
5.758059406352245
 10
38.32883456849407
 20
5.779186382876574
 10
37.92373129062182
 20
5.710201075376517
 10
37.44178136732552
 20
5.558386000501983
 10
37.07683529196512
 20
5.364618934188442
 10
36.68207696779172
 20
5.131685453820197
 10
36.33534382868672
 20
4.847445816771156
 10
35.98838551038739
 20
4.584790159267413
 10
35.72362645771588
 20
4.305722999068166
 10
35.43768874804977
 20
3.987579496492117
 10
35.14343269743858
 20
3.639128350873762
 10
34.94320040420982
 20
3.382320707804652
 10
34.71666201297461
 20
3.164094012883211
 10
34.43126473337654
 20
2.794148959397262
 10
34.17954614011086
 20
2.506583314896488
 10
34.02270698516759
 20
2.228642050671397
 10
33.67598049069443
 20
1.529944970508268
 10
33.57058259994866
 20
1.287078503623661
 10
33.35074790408902
 20
0.8401066613589592
 10
33.18154382732473
 20
0.5059119427976526
 10
32.96202438233757
 20
0.0287225291692721
 10
32.80563558578362
 20
-0.2923866941478082
 10
32.61156655786178
 20
-0.7261379336512164
 10
32.45589833473167
 20
-1.116315891513963
 10
32.30396144160409
 20
-1.450330466718697
 10
31.99810607843457
 20
-1.928420597127555
 10
31.76869203813791
 20
-2.284829796978542
 10
31.59881242378967
 20
-2.554272576902576
 10
31.36903809678137
 20
-2.876147409481504
 10
31.04442936728896
 20
-3.21196341824475
 10
30.78394207468818
 20
-3.486668746696751
 10
30.39903330998521
 20
-3.8360656449331
 10
29.99195509982991
 20
-4.129569375546211
 10
29.61477921016646
 20
-4.392540283922472
 10
29.29264080718553
 20
-4.551322624573231
 10
28.93097570343861
 20
-4.645758349138077
 10
28.46997925794196
 20
-4.736913102090057
 10
28.07274396262591
 20
-4.732422807456715
 10
27.60967586853732
 20
-4.625004948589762
 10
27.24539868612962
 20
-4.469066510426046
 10
26.82778873428788
 20
-4.166897441419906
 10
26.45231091724096
 20
-3.764991708114621
 10
26.28080336805738
 20
-3.464572392196033
 10
26.15309427971053
 20
-3.224137860615883
 10
26.06162427588626
 20
-2.73292384375624
 10
26.04615188117643
 20
-2.491318380362586
 10
26.09102455751668
 20
-2.240448823405117
 10
26.18302170214471
 20
-1.954549504946499
 10
26.34386240212459
 20
-1.646345633518436
 10
26.61208256976462
 20
-1.285214315207213
 10
26.92976906931858
 20
-1.113526622667209
 10
27.12739592851969
 20
-1.020802259983398
 10
27.48838549468243
 20
-0.8616145967819051
 10
27.78565894650453
 20
-0.8023887770748246
 10
28.09655832363953
 20
-0.8077797884868829
 10
28.39518285063031
 20
-0.8780578460527977
 10
28.58651798163987
 20
-1.00989694232112
 10
28.83532253463676
 20
-1.270654449955373
 10
28.95089188035692
 20
-1.588926415416836
 10
28.88673205225882
 20
-2.060177742933988
 10
28.82944941825937
 20
-2.362983958317486
 10
28.68124385513391
 20
-2.640835150864405
 10
28.51392463897531
 20
-2.741877854493865
 10
28.33662075582879
 20
-2.713506752528247
 10
28.15913672932646
 20
-2.667868466925711
 10
28.07621689027383
 20
-2.582388229684042
 10
28.00134517713283
 20
-2.440699573945722
 10
27.97845515825722
 20
-2.315737671776333
 10
28.03722397494261
 20
-2.155385721392804
 10
28.14078204092263
 20
-2.149988065348467
 10
28.31151733621135
 20
-1.962564407698437
 10
28.32271132621892
 20
-1.794074259725676
 10
28.17741980336288
 20
-1.523602300137327
 10
27.96040907609375
 20
-1.413617398448878
 10
27.64982494983269
 20
-1.438443958400725
 10
27.31941324174568
 20
-1.631850738002186
 10
27.08819776789028
 20
-1.815588101488856
 10
26.88355860707358
 20
-2.063807188579403
 10
26.74048048495933
 20
-2.419315671651916
 10
26.69587802365368
 20
-2.696086004063758
 10
26.75505880752161
 20
-2.989042659977031
 10
26.89576331943454
 20
-3.233658879949644
 10
27.12788615470183
 20
-3.55071487775831
 10
27.43321437706706
 20
-3.849738082669106
 10
27.78953350524102
 20
-4.0705185311474
 10
28.30795433688533
 20
-4.103965393652985
 10
28.71773469737897
 20
-4.069469417587015
 10
29.22581057532463
 20
-3.938968107224355
 10
29.56921770697772
 20
-3.749743016014691
 10
29.86356382926667
 20
-3.409925462214687
 10
30.02921671938452
 20
-3.149161309948127
 10
30.15974977632209
 20
-2.832639097574642
 10
30.20268591158649
 20
-2.396147316525898
 10
30.18276161345051
 20
-2.141636501243511
 10
30.13859622127026
 20
-1.632659906518711
 10
30.04321474408653
 20
-1.180342088679936
 10
29.88681265826924
 20
-0.6725364257681576
 10
29.72941978399444
 20
-0.0697612528561109
 10
29.46230557843361
 20
0.7045598604461247
 10
29.32070034974066
 20
1.035511998600896
 10
29.12711342678332
 20
1.383190890324386
 10
28.92376701603322
 20
1.838699608098509
 10
28.68458968196998
 20
2.304832951565231
  0
LWPOLYLINE
  5
D34
330
D31
100
AcDbEntity
  8
AOC_PAGE
 62
   150
100
AcDbPolyline
 90
       52
 70
     0
 43
0.0
 10
36.87940186538412
 20
4.425712501639964
 10
36.46054419931554
 20
4.019836969873054
 10
36.20432866678468
 20
3.749493473169878
 10
35.97770020387196
 20
3.539900370067016
 10
35.78574121574951
 20
3.317717165948579
 10
35.58492345661372
 20
3.117027869697495
 10
35.30312239950104
 20
2.816196586596774
 10
34.94910674374631
 20
2.402363000596083
 10
34.74091639628335
 20
2.080713347212622
 10
34.52849932458952
 20
1.750385066171035
 10
34.33820666250875
 20
1.368480413415242
 10
34.13473843350513
 20
1.008024632688588
 10
33.84354481994359
 20
0.366031365250592
 10
33.64138263027095
 20
-0.1196114968406476
 10
33.42676544709951
 20
-0.6528742214500056
 10
33.25760640617497
 20
-0.9913857359192662
 10
32.98295940282628
 20
-1.564130125455677
 10
32.77148808375043
 20
-1.985111120587817
 10
32.52516714652936
 20
-2.376234831069041
 10
32.21485987993333
 20
-2.841419609588684
 10
31.77896020942282
 20
-3.269059264256384
 10
31.40439639841927
 20
-3.782404335362358
 10
30.92128218794252
 20
-4.236440159713311
 10
30.51487951537177
 20
-4.59469582896304
 10
30.03477606147337
 20
-4.923499536111422
 10
29.44657256649134
 20
-5.236161955597268
 10
28.76654542560527
 20
-5.43753343406479
 10
28.20077494647717
 20
-5.417532353515071
 10
27.59529762322697
 20
-5.315917473242962
 10
27.25287463539868
 20
-5.185654631338835
 10
26.78463406446096
 20
-4.996262686037198
 10
26.41522944104275
 20
-4.762666957348742
 10
26.00993937518248
 20
-4.399927638098234
 10
25.75232108701198
 20
-4.121993018504782
 10
25.55891430740982
 20
-3.791581310417769
 10
25.36748246009091
 20
-3.236651179217461
 10
25.31656833669737
 20
-2.494612641239442
 10
25.37281514640037
 20
-2.092520119945902
 10
25.44763517907035
 20
-1.815434536661328
 10
25.59916674964776
 20
-1.442568798274365
 10
25.78559297420904
 20
-1.103877140449185
 10
26.05457875111091
 20
-0.8161313525922651
 10
26.37181489227552
 20
-0.6012757009621055
 10
26.70182127781183
 20
-0.3690177581779608
 10
27.03709021187586
 20
-0.227367493646625
 10
27.44093248625742
 20
-0.0375119006919107
 10
27.79891129584098
 20
-0.0035563546930462
 10
28.09722057195992
 20
-0.0436168408959787
 10
28.41369774849406
 20
-0.1698331019244819
 10
28.72608330831437
 20
-0.3176783783374049
 10
28.98226044963803
 20
-0.4574755288388275
 10
29.41929930538663
 20
-0.9666706581265316
  0
LWPOLYLINE
  5
D35
330
D31
100
AcDbEntity
  8
AOC_PAGE
100
AcDbPolyline
 90
        2
 70
     0
 43
0.0
 10
0.0
 20
0.0
 10
20.65349481491353
 20
0.0
  0
TEXT
  5
D36
330
D31
100
AcDbEntity
  8
AOC_PAGE
 62
     7
100
AcDbText
 10
10.77030453271396
 20
-2.792763825342405
 30
0.0
 40
1.725342001593539
  1
GROUP
  7
ROMANT
100
AcDbText
  0
LWPOLYLINE
  5
D37
330
D31
100
AcDbEntity
  8
AOC_PAGE
 62
   150
100
AcDbPolyline
 90
       76
 70
     0
 43
0.0
 10
27.83949449309256
 20
9.762522174410634
 10
27.81166382119409
 20
9.533416740354596
 10
27.89098743776094
 20
9.378822732727926
 10
28.04810345236999
 20
9.216405778384143
 10
28.20488651361188
 20
9.141342406696566
 10
28.38526389167052
 20
9.176750614732782
 10
28.55577400776491
 20
9.385758251929019
 10
28.76778575690761
 20
9.754937696152425
 10
28.78882266175424
 20
10.22142186937117
 10
28.64177474117878
 20
10.66024886941453
 10
28.31926940685386
 20
10.9504583391506
 10
27.94563805920455
 20
11.17537544018229
 10
27.48288521598917
 20
11.25257572768578
 10
27.07418571563036
 20
11.11447664980075
 10
26.63639453988361
 20
10.8681424233157
 10
26.26412091203517
 20
10.54909820396006
 10
25.99113359009672
 20
10.23108980890015
 10
25.82588602253009
 20
9.931474493452015
 10
25.78609575136167
 20
9.607264441878456
 10
25.84694286127225
 20
9.154586337327814
 10
25.94560531006778
 20
8.801599861237719
 10
26.07012349847986
 20
8.453200396090779
 10
26.37239592842772
 20
8.033261869886019
 10
26.81208525404367
 20
7.683833225075233
 10
27.28113647008351
 20
7.416738953409308
 10
27.75823581203437
 20
7.205853100240574
 10
28.60648953049187
 20
7.007473921040628
 10
29.04783853751786
 20
6.912781270705864
 10
29.64472730478928
 20
6.806759522847173
 10
30.22853057681527
 20
6.713553055197949
 10
30.77707890814571
 20
6.689055035383262
 10
31.39393036475957
 20
6.73866311944721
 10
32.70232484777193
 20
6.71345781547349
 10
33.42691605875822
 20
6.781458979147587
 10
33.95320487295811
 20
6.821487718774989
 10
34.72105411471327
 20
6.881305649020774
 10
35.55370033094385
 20
6.937482320942294
 10
36.43050529472197
 20
6.899139841252918
 10
37.40709195863994
 20
6.814348430859155
 10
38.06891280790293
 20
6.691735036948089
 10
38.84805275597569
 20
6.49695208023445
 10
39.29452920401218
 20
6.324602139374534
 10
39.73376817123832
 20
6.018341453654784
 10
40.00375138123059
 20
5.796660288396424
 10
40.21320937681656
 20
5.582982213211366
 10
40.36668413310053
 20
5.355768284392298
 10
40.52479093616694
 20
5.098381820048644
 10
40.67903130171382
 20
4.797782360774363
 10
40.78542662554878
 20
4.531221874544585
 10
40.82464472007473
 20
4.082635386708262
 10
40.77874286407064
 20
3.516594692546278
 10
40.66556706244683
 20
3.191619031710403
 10
40.34163387053923
 20
2.791051084309871
 10
39.93918770716618
 20
2.46737481817263
 10
39.52253015257497
 20
2.264433729973248
 10
39.24270402774431
 20
2.188120869985141
 10
38.81664727207294
 20
2.058475240563212
 10
38.30245316465903
 20
2.100600730725773
 10
37.87715537361757
 20
2.312027013962521
 10
37.57209736628579
 20
2.585149443418018
 10
37.33552262759258
 20
2.915110793115218
 10
37.211274654215
 20
3.237609482808239
 10
37.17862514754637
 20
3.470401211027593
 10
37.28748415326092
 20
3.795331836024616
 10
37.45313704337781
 20
4.056095988291204
 10
37.70984797013736
 20
4.278954729993998
 10
38.01489933283798
 20
4.42028974365256
 10
38.44154155441626
 20
4.493817026256465
 10
38.61484389252675
 20
4.435183317087194
 10
38.73638971556602
 20
4.371692381942012
 10
38.83216987066811
 20
4.294980844035763
 10
38.90258968038324
 20
4.166197540185308
 10
38.95614762901297
 20
3.998382929797344
 10
38.87997652117292
 20
3.850801223785993
 10
38.69952677393096
 20
3.766890596275985
 10
38.60464733560843
 20
3.757266216000758
  0
LWPOLYLINE
  5
D38
330
D31
100
AcDbEntity
  8
AOC_PAGE
 62
   150
100
AcDbPolyline
 90
       40
 70
     0
 43
0.0
 10
31.45445705575023
 20
3.833774723485703
 10
31.49667926222264
 20
3.924877795966722
 10
31.56462210079508
 20
4.033518267118097
 10
31.67600311349088
 20
4.116708321204669
 10
31.79705354230188
 20
4.100702141059173
 10
31.93159478890786
 20
4.033029517521769
 10
32.07526502156108
 20
3.917962210661486
 10
32.21596953347398
 20
3.673345990689327
 10
32.24452742342802
 20
3.418925247084871
 10
32.18647918016583
 20
3.189504562156131
 10
32.04596145624072
 20
3.002396155378847
 10
31.81515130493608
 20
2.77980762870925
 10
31.55785491226993
 20
2.613067233824694
 10
31.29979291034098
 20
2.519712369394924
 10
31.01942635544398
 20
2.495201060316276
 10
30.60397812387234
 20
2.590163925685147
 10
30.26865750933777
 20
2.86728790017672
 10
29.96157288925198
 20
3.334666145542528
 10
29.82468977901928
 20
3.626812156354148
 10
29.70327241886432
 20
4.091810146886701
 10
29.68685427153628
 20
4.424068324371319
 10
29.76050337239323
 20
4.813390601293335
 10
30.03650145091112
 20
5.256631113555855
 10
30.40472849788398
 20
5.549729521618033
 10
30.86419372485463
 20
5.787655335479926
 10
31.52627814451986
 20
6.053598609228388
 10
32.11448828413376
 20
5.951803585599677
 10
32.54706859182531
 20
5.869971251314624
 10
32.91080534416432
 20
5.765834364060538
 10
33.34482679870302
 20
5.54586456068364
 10
33.71567256896807
 20
5.17413136290314
 10
33.86132437853527
 20
4.869125036041623
 10
33.99002425533916
 20
4.533720994461191
 10
34.05878438364493
 20
4.150201696134232
 10
34.14634291411127
 20
3.620091480253677
 10
34.15880455224169
 20
3.253253899657025
 10
34.12270057523637
 20
2.989524026650088
 10
34.12531265389768
 20
2.739149863921284
 10
34.09081280073633
 20
2.505291855928803
 10
34.02270698516759
 20
2.228642050671397
  0
LWPOLYLINE
  5
D39
330
D31
100
AcDbEntity
  8
AOC_PAGE
 62
   150
100
AcDbPolyline
 90
       40
 70
     0
 43
0.0
 10
31.43359364962811
 20
3.764480809745692
 10
31.22220575759863
 20
3.74932366590815
 10
31.11356528644657
 20
3.817266504479903
 10
31.02619354396842
 20
3.915652093610333
 10
30.98581116226111
 20
4.062017831969342
 10
30.98859673964577
 20
4.208833928718377
 10
31.10726026899167
 20
4.421617931756145
 10
31.35214670399768
 20
4.536421668214189
 10
31.68372934389771
 20
4.617591754179102
 10
31.98563484250207
 20
4.646645038361129
 10
32.35368839075088
 20
4.542553186946165
 10
32.65856625472742
 20
4.2866979411274
 10
32.83065926981811
 20
3.930160278390062
 10
32.85607129567501
 20
3.563457805310463
 10
32.74878854432467
 20
3.087439323494664
 10
32.60890132214575
 20
2.839895773988914
 10
32.43088351020737
 20
2.522878167386821
 10
32.15263363974142
 20
2.295477450579938
 10
31.76232721899461
 20
2.049638618323343
 10
31.38416054087267
 20
1.881637219947379
 10
31.08643673066078
 20
1.865579359331377
 10
30.58865412594398
 20
1.989904115123181
 10
30.31116322010797
 20
2.103575310975216
 10
29.93326011238833
 20
2.324130580258739
 10
29.56327002306418
 20
2.613844655766343
 10
29.36541134003619
 20
2.957161715742131
 10
29.20204198844269
 20
3.305155858338594
 10
29.04091778416452
 20
3.851767648593281
 10
28.96757064491746
 20
4.261142686535763
 10
28.96760903612403
 20
4.671283333740348
 10
29.07619782680396
 20
5.022114734191518
 10
29.28875000601531
 20
5.339492627505479
 10
29.50953045449407
 20
5.695811755679415
 10
29.86017506695768
 20
6.018947591749352
 10
30.27233568228439
 20
6.239110827746131
 10
30.58152369753768
 20
6.397758060880079
 10
30.90388727971342
 20
6.534956421985953
 10
31.20511724073253
 20
6.628761644805067
 10
31.44186547814977
 20
6.695990554584796
 10
31.64741899855761
 20
6.733779838333461
  0
LWPOLYLINE
  5
D3A
330
D31
100
AcDbEntity
  8
AOC_PAGE
 62
   150
100
AcDbPolyline
 90
       37
 70
     0
 43
0.0
 10
31.42932188955749
 20
3.760118977997081
 10
31.49915623336594
 20
3.687454020966015
 10
31.53531189084217
 20
3.532409654949575
 10
31.51139269230151
 20
3.34220041991378
 10
31.43063457351968
 20
3.220474453518605
 10
31.25877338225672
 20
3.140970693596046
 10
31.03411985162731
 20
3.155896013606039
 10
30.76539764512626
 20
3.25670689340815
 10
30.54744116523918
 20
3.457344509188488
 10
30.39329087137045
 20
3.749310376644431
 10
30.33901234931767
 20
3.98619372157782
 10
30.31131014030458
 20
4.158595342908711
 10
30.33014693367247
 20
4.422145072559729
 10
30.46544714490958
 20
4.695544361680945
 10
30.71289397810457
 20
4.978748174433562
 10
31.07325304252183
 20
5.198370980362384
 10
31.45654716165376
 20
5.288715088213621
 10
31.87496111396507
 20
5.323301135957095
 10
32.32485364113126
 20
5.237332149118842
 10
32.74120258948182
 20
5.056033365568069
 10
33.16389494649522
 20
4.680523801945824
 10
33.45393756213977
 20
4.191381433678785
 10
33.53871051522171
 20
3.514455121048741
 10
33.40256126767713
 20
2.908617511086959
 10
33.15295935884316
 20
2.418162458857765
 10
32.87160866012022
 20
2.074163216665525
 10
32.53418465041767
 20
1.725261712658025
 10
32.08834534875857
 20
1.422719067675857
 10
31.73131229179256
 20
1.298110807586468
 10
31.36506017710303
 20
1.229530822637358
 10
31.02421344363842
 20
1.208705807722481
 10
30.60076212199482
 20
1.243143458685381
 10
30.07617802504294
 20
1.453533917625933
 10
29.62034741176467
 20
1.694862521352889
 10
29.27666342044583
 20
1.94599564871281
 10
28.97196569982498
 20
2.184583710894913
 10
28.79717051329473
 20
2.343530146317107
  0
TEXT
  5
D3B
330
D31
100
AcDbEntity
  8
AOC_PAGE
 62
   150
100
AcDbText
 10
0.6030457213456089
 20
1.463404457900822
 30
0.0
 40
1.725342001593539
  1
ARCHAEOLOGY
  7
ROMANT
100
AcDbText
  0
TEXT
  5
D3C
330
D31
100
AcDbEntity
  8
AOC_PAGE
 62
     7
100
AcDbText
 10
0.4235025131220596
 20
5.156338672515588
 30
0.0
 40
6.7660470650727
  1
AOC
  7
ROMANT
100
AcDbText
  0
LWPOLYLINE
  5
D3D
330
D31
100
AcDbEntity
  8
AOC_PAGE
100
AcDbPolyline
 90
        2
 70
     0
 43
0.0
 10
0.0399039682049533
 20
4.451517299077054
 10
20.71871409266646
 20
4.451517299077054
  0
LWPOLYLINE
  5
D3E
330
D31
100
AcDbEntity
  8
AOC_PAGE
 62
   150
100
AcDbPolyline
 90
        3
 70
     0
 43
0.0
 10
28.68458968196998
 20
2.304832951565231
 10
28.60206568217856
 20
2.465664194584178
 10
28.50178048393673
 20
2.72600199710746
  0
ENDBLK
  5
D40
330
D31
100
AcDbEntity
  8
0
100
AcDbBlockEnd
  0
BLOCK
  5
D81
330
D70
100
AcDbEntity
  8
0
100
AcDbBlockBegin
  2
1 to 1250 small
 70
     0
 10
0.0
 20
0.0
 30
0.0
  3
1 to 1250 small
  1

  0
LINE
  5
D71
102
{ACAD_REACTORS
330
D73
102
}
330
D70
100
AcDbEntity
  8
vports_text
100
AcDbLine
 10
-9.999999861953825
 20
1.500000081827437
 30
0.0
 11
30.0000002623293
 21
1.500000081827437
 31
0.0
  0
LINE
  5
D72
102
{ACAD_REACTORS
330
D73
102
}
330
D70
100
AcDbEntity
  8
vports_text
100
AcDbLine
 10
-30.0000002623293
 20
0.0000000818274373
 30
0.0
 11
30.0000002623293
 21
-0.0000000818274373
 31
0.0
  0
HATCH
  5
D73
330
D70
100
AcDbEntity
  8
vports_text
100
AcDbHatch
 10
0.0
 20
0.0
 30
0.0
210
0.0
220
0.0
230
1.0
  2
SOLID
 70
     1
 71
     1
 91
        3
 92
        7
 72
     0
 73
     1
 93
        4
 10
10.00000013804617
 20
-0.0000000272758126
 10
10.00000013804617
 20
1.500000081827437
 10
-9.999999861953825
 20
1.500000081827437
 10
-9.999999861953823
 20
0.0000000272758118
 97
        4
330
D71
330
D7C
330
D72
330
D7E
 92
        7
 72
     0
 73
     1
 93
        4
 10
-18.00000026232933
 20
1.500000081827436
 10
-18.00000026232931
 20
0.0000000490964627
 10
-14.0000002623293
 20
0.0000000381861378
 10
-14.00000026232933
 20
1.500000081827437
 97
        4
330
D74
330
D7B
330
D72
330
D7A
 92
        7
 72
     0
 73
     1
 93
        4
 10
-22.00000026232931
 20
1.500000081827437
 10
-26.00000026232933
 20
1.500000081827437
 10
-26.0000002623293
 20
0.0000000709171124
 10
-22.0000002623293
 20
0.0000000600067875
 97
        4
330
D74
330
D76
330
D72
330
D79
 75
     0
 76
     1
 47
0.0781288109040394
 98
        3
 10
-1.745953840577044
 20
0.5838051642456322
 10
-17.06580988240659
 20
0.8963199537016635
 10
-24.33492398407577
 20
1.208835729883503
  0
LINE
  5
D74
102
{ACAD_REACTORS
330
D73
102
}
330
D70
100
AcDbEntity
  8
vports_text
100
AcDbLine
 10
-30.0000002623293
 20
1.500000081827437
 30
0.0
 11
-9.999999861953825
 21
1.500000081827437
 31
0.0
  0
LINE
  5
D75
330
D70
100
AcDbEntity
  8
vports_text
100
AcDbLine
 10
-30.0000002623293
 20
0.0000000818274373
 30
0.0
 11
-30.0000002623293
 21
3.000000081827437
 31
0.0
  0
LINE
  5
D76
102
{ACAD_REACTORS
330
D73
102
}
330
D70
100
AcDbEntity
  8
vports_text
100
AcDbLine
 10
-26.0000002623293
 20
0.0000000818274373
 30
0.0
 11
-26.00000026232933
 21
1.500000081827437
 31
0.0
  0
TEXT
  5
D77
330
D70
100
AcDbEntity
  8
vports_text
100
AcDbText
 10
-32.62509026061286
 20
4.328808372655061
 30
0.0
 40
2.0
  1
25m
  7
TNR-Regular
 72
     1
 11
-30.00000013804618
 21
4.328808372655061
 31
0.0
100
AcDbText
  0
TEXT
  5
D78
330
D70
100
AcDbEntity
  8
vports_text
100
AcDbText
 10
-4.101658193085542
 20
-4.180051210200986
 30
0.0
 40
2.0
  1
1:1250
  7
TNR-Regular
 72
     1
 11
0.0000000621415666
 21
-4.180051210200986
 31
0.0
100
AcDbText
  0
LINE
  5
D79
102
{ACAD_REACTORS
330
D73
102
}
330
D70
100
AcDbEntity
  8
vports_text
100
AcDbLine
 10
-22.0000002623293
 20
0.0000000818274373
 30
0.0
 11
-22.0000002623293
 21
1.500000081827437
 31
0.0
  0
LINE
  5
D7A
102
{ACAD_REACTORS
330
D73
102
}
330
D70
100
AcDbEntity
  8
vports_text
100
AcDbLine
 10
-14.0000002623293
 20
0.0000000818274373
 30
0.0
 11
-14.00000026232933
 21
1.500000081827437
 31
0.0
  0
LINE
  5
D7B
102
{ACAD_REACTORS
330
D73
102
}
330
D70
100
AcDbEntity
  8
vports_text
100
AcDbLine
 10
-18.00000026232931
 20
0.0000000818274373
 30
0.0
 11
-18.00000026232933
 21
1.500000081827437
 31
0.0
  0
LINE
  5
D7C
102
{ACAD_REACTORS
330
D73
102
}
330
D70
100
AcDbEntity
  8
vports_text
100
AcDbLine
 10
-9.999999861953825
 20
0.0000000818274373
 30
0.0
 11
-9.999999861953825
 21
3.000000081827437
 31
0.0
  0
TEXT
  5
D7D
330
D70
100
AcDbEntity
  8
vports_text
100
AcDbText
 10
-10.73828340362536
 20
4.328808155844967
 30
0.0
 40
2.0
  1
0
  7
TNR-Regular
 72
     1
 11
-9.99999933729515
 21
4.328808155844967
 31
0.0
100
AcDbText
  0
LINE
  5
D7E
102
{ACAD_REACTORS
330
D73
102
}
330
D70
100
AcDbEntity
  8
vports_text
100
AcDbLine
 10
10.00000013804617
 20
0.0000000818274373
 30
0.0
 11
10.00000013804617
 21
1.500000081827408
 31
0.0
  0
LINE
  5
D7F
330
D70
100
AcDbEntity
  8
vports_text
100
AcDbLine
 10
30.0000002623293
 20
-0.0000000818274373
 30
0.0
 11
30.0000002623293
 21
2.999999918172562
 31
0.0
  0
TEXT
  5
D80
330
D70
100
AcDbEntity
  8
vports_text
100
AcDbText
 10
27.37491054013816
 20
4.328808372655061
 30
0.0
 40
2.0
  1
50m
  7
TNR-Regular
 72
     1
 11
30.00000066270485
 21
4.328808372655061
 31
0.0
100
AcDbText
  0
ENDBLK
  5
D82
330
D70
100
AcDbEntity
  8
0
100
AcDbBlockEnd
  0
ENDSEC
  0
SECTION
  2
ENTITIES
  0
LWPOLYLINE
  5
39B
330
1E
100
AcDbEntity
  8
G8010572
 62
     0
100
AcDbPolyline
 90
        2
 70
     0
 43
0.0
 10
492900.0
 20
99460.53
 10
492900.0
 20
99623.24
  0
LWPOLYLINE
  5
39F
330
1E
100
AcDbEntity
  8
G8010572
 62
     0
100
AcDbPolyline
 90
        2
 70
     0
 43
0.0
 10
493000.0
 20
99460.53
 10
493000.0
 20
99623.24
  0
LWPOLYLINE
  5
3A3
330
1E
100
AcDbEntity
  8
G8010572
 62
     0
100
AcDbPolyline
 90
        2
 70
     0
 43
0.0
 10
493100.0
 20
99460.53
 10
493100.0
 20
99623.24
  0
LWPOLYLINE
  5
3A7
330
1E
100
AcDbEntity
  8
G8010572
 62
     0
100
AcDbPolyline
 90
        2
 70
     0
 43
0.0
 10
492899.88
 20
99500.0
 10
493100.5
 20
99500.0
  0
LWPOLYLINE
  5
3AB
330
1E
100
AcDbEntity
  8
G8010572
 62
     0
100
AcDbPolyline
 90
        2
 70
     0
 43
0.0
 10
492899.88
 20
99600.0
 10
493100.5
 20
99600.0
  0
LWPOLYLINE
  5
3AF
330
1E
100
AcDbEntity
  8
G8010001
 62
     0
100
AcDbPolyline
 90
       15
 70
     0
 43
0.0
 10
493000.0
 20
99484.3
 10
492997.75
 20
99481.95
 10
492998.25
 20
99481.4
 10
492997.4
 20
99480.55
 10
492994.75
 20
99483.25
 10
492995.35
 20
99483.8
 10
492993.75
 20
99485.45
 10
492993.05
 20
99484.85
 10
492990.8
 20
99487.2
 10
492991.5
 20
99487.85
 10
492988.15
 20
99491.3
 10
492991.35
 20
99494.35
 10
492995.4
 20
99490.2
 10
492998.45
 20
99493.15
 10
493000.0
 20
99491.55
  0
LWPOLYLINE
  5
3C0
330
1E
100
AcDbEntity
  8
G8010001
 62
     0
100
AcDbPolyline
 90
       13
 70
     0
 43
0.0
 10
492970.45
 20
99466.8
 10
492969.7
 20
99467.7
 10
492972.35
 20
99470.4
 10
492966.05
 20
99476.7
 10
492969.1
 20
99479.85
 10
492964.35
 20
99484.6
 10
492961.15
 20
99481.3
 10
492959.4
 20
99483.05
 10
492956.15
 20
99479.8
 10
492948.45
 20
99487.5
 10
492944.55
 20
99491.45
 10
492927.3
 20
99473.8
 10
492940.6
 20
99460.53
  0
LWPOLYLINE
  5
3CF
330
1E
100
AcDbEntity
  8
G8010001
 62
     0
100
AcDbPolyline
 90
        8
 70
     0
 43
0.0
 10
492957.77
 20
99460.53
 10
492950.7
 20
99468.0
 10
492953.15
 20
99470.45
 10
492960.6
 20
99463.0
 10
492963.3
 20
99465.7
 10
492966.35
 20
99462.75
 10
492966.45
 20
99462.85
 10
492970.45
 20
99466.8
  0
LWPOLYLINE
  5
3D9
330
1E
100
AcDbEntity
  8
G8010001
 62
     0
100
AcDbPolyline
 90
        3
 70
     0
 43
0.0
 10
493000.0
 20
99553.5
 10
492995.45
 20
99549.0
 10
493000.0
 20
99544.45
  0
LWPOLYLINE
  5
3DE
330
1E
100
AcDbEntity
  8
G8010001
 62
     0
100
AcDbPolyline
 90
        3
 70
     0
 43
0.0
 10
493000.0
 20
99543.3
 10
492994.35
 20
99537.7
 10
493000.0
 20
99532.0
  0
LWPOLYLINE
  5
3E3
330
1E
100
AcDbEntity
  8
G8010001
 62
     0
100
AcDbPolyline
 90
       12
 70
     0
 43
0.0
 10
493000.0
 20
99525.7
 10
492998.75
 20
99527.15
 10
492996.75
 20
99525.15
 10
492995.35
 20
99526.55
 10
492992.6
 20
99523.85
 10
492994.0
 20
99522.35
 10
492992.2
 20
99520.65
 10
492995.3
 20
99517.45
 10
492997.0
 20
99519.1
 10
492997.4
 20
99518.65
 10
492998.15
 20
99519.35
 10
493000.0
 20
99517.6
  0
LWPOLYLINE
  5
3F1
330
1E
100
AcDbEntity
  8
G8010001
 62
     0
100
AcDbPolyline
 90
        5
 70
     0
 43
0.0
 10
493000.0
 20
99515.95
 10
492997.75
 20
99513.8
 10
492999.65
 20
99511.85
 10
492998.3
 20
99510.5
 10
493000.0
 20
99508.65
  0
LWPOLYLINE
  5
3F8
330
1E
100
AcDbEntity
  8
G8010001
 62
     0
100
AcDbPolyline
 90
        2
 70
     0
 43
0.0
 10
492983.5
 20
99515.8
 10
492978.2
 20
99510.65
  0
LWPOLYLINE
  5
3FC
330
1E
100
AcDbEntity
  8
G8010001
 62
     0
100
AcDbPolyline
 90
        2
 70
     0
 43
0.0
 10
492939.0
 20
99527.9
 10
492933.1
 20
99521.4
  0
LWPOLYLINE
  5
400
330
1E
100
AcDbEntity
  8
G8010001
 62
     0
100
AcDbPolyline
 90
       48
 70
     0
 43
0.0
 10
492978.2
 20
99510.65
 10
492973.75
 20
99515.2
 10
492972.55
 20
99514.0
 10
492963.15
 20
99523.35
 10
492968.45
 20
99528.65
 10
492969.4
 20
99527.8
 10
492976.65
 20
99535.35
 10
492965.35
 20
99546.9
 10
492962.7
 20
99544.15
 10
492963.65
 20
99543.15
 10
492961.45
 20
99540.95
 10
492962.45
 20
99539.95
 10
492951.5
 20
99528.45
 10
492957.1
 20
99523.05
 10
492952.35
 20
99518.25
 10
492944.8
 20
99525.4
 10
492940.4
 20
99520.85
 10
492945.35
 20
99516.1
 10
492948.95
 20
99519.65
 10
492952.95
 20
99515.65
 10
492952.6
 20
99515.25
 10
492956.1
 20
99511.75
 10
492953.45
 20
99508.95
 10
492954.45
 20
99507.85
 10
492956.95
 20
99505.4
 10
492953.75
 20
99502.25
 10
492952.85
 20
99503.15
 10
492950.15
 20
99500.5
 10
492946.4
 20
99504.25
 10
492947.65
 20
99505.5
 10
492948.95
 20
99506.8
 10
492946.8
 20
99509.05
 10
492945.45
 20
99507.7
 10
492941.95
 20
99504.2
 10
492940.15
 20
99502.4
 10
492939.25
 20
99503.3
 10
492936.25
 20
99500.3
 10
492930.0
 20
99506.6
 10
492934.1
 20
99510.7
 10
492935.5
 20
99509.25
 10
492937.75
 20
99511.45
 10
492935.9
 20
99513.35
 10
492939.65
 20
99517.1
 10
492941.5
 20
99515.25
 10
492942.55
 20
99516.3
 10
492939.15
 20
99519.5
 10
492937.15
 20
99517.55
 10
492933.1
 20
99521.4
  0
LWPOLYLINE
  5
432
330
1E
100
AcDbEntity
  8
G8010001
 62
     0
100
AcDbPolyline
 90
       14
 70
     0
 43
0.0
 10
492939.0
 20
99527.9
 10
492941.85
 20
99525.3
 10
492944.9
 20
99528.6
 10
492948.3
 20
99532.2
 10
492948.3
 20
99534.75
 10
492949.7
 20
99536.2
 10
492950.05
 20
99536.6
 10
492948.75
 20
99537.85
 10
492956.15
 20
99545.8
 10
492967.65
 20
99558.2
 10
492984.45
 20
99540.8
 10
492971.75
 20
99527.5
 10
492983.25
 20
99516.0
 10
492983.5
 20
99515.8
  0
LWPOLYLINE
  5
442
330
1E
100
AcDbEntity
  8
G8010001
 62
     0
100
AcDbPolyline
 90
        2
 70
     0
 43
0.0
 10
492957.0
 20
99622.25
 10
492956.03
 20
99623.24
  0
LWPOLYLINE
  5
446
330
1E
100
AcDbEntity
  8
G8010001
 62
     0
100
AcDbPolyline
 90
       13
 70
     0
 43
0.0
 10
492941.05
 20
99557.2
 10
492941.55
 20
99557.2
 10
492942.15
 20
99556.6
 10
492942.7
 20
99557.2
 10
492948.95
 20
99550.9
 10
492945.55
 20
99547.25
 10
492946.35
 20
99546.5
 10
492944.8
 20
99545.0
 10
492937.75
 20
99552.25
 10
492940.5
 20
99554.9
 10
492939.85
 20
99555.5
 10
492940.05
 20
99556.2
 10
492941.05
 20
99557.2
  0
LWPOLYLINE
  5
455
330
1E
100
AcDbEntity
  8
G8010001
 62
     0
100
AcDbPolyline
 90
        2
 70
     0
 43
0.0
 10
492957.94
 20
99623.24
 10
492957.0
 20
99622.25
  0
LWPOLYLINE
  5
459
330
1E
100
AcDbEntity
  8
G8010001
 62
     0
100
AcDbPolyline
 90
        7
 70
     0
 43
0.0
 10
492952.9
 20
99617.45
 10
492947.25
 20
99611.8
 10
492944.35
 20
99614.8
 10
492943.35
 20
99613.8
 10
492940.0
 20
99617.2
 10
492944.2
 20
99621.4
 10
492942.41
 20
99623.24
  0
LWPOLYLINE
  5
462
330
1E
100
AcDbEntity
  8
G8010001
 62
     0
100
AcDbPolyline
 90
        2
 70
     0
 43
0.0
 10
492947.14
 20
99623.24
 10
492952.9
 20
99617.45
  0
LWPOLYLINE
  5
466
330
1E
100
AcDbEntity
  8
G8010001
 62
     0
100
AcDbPolyline
 90
        7
 70
     0
 43
0.0
 10
492942.7
 20
99607.3
 10
492937.6
 20
99602.25
 10
492931.35
 20
99608.55
 10
492934.75
 20
99611.9
 10
492933.7
 20
99613.0
 10
492935.4
 20
99614.65
 10
492942.7
 20
99607.3
  0
LWPOLYLINE
  5
46F
330
1E
100
AcDbEntity
  8
G8010001
 62
     0
100
AcDbPolyline
 90
        7
 70
     0
 43
0.0
 10
492935.75
 20
99600.45
 10
492930.4
 20
99595.1
 10
492924.2
 20
99601.4
 10
492928.05
 20
99605.2
 10
492927.0
 20
99606.25
 10
492928.5
 20
99607.7
 10
492935.75
 20
99600.45
  0
LWPOLYLINE
  5
478
330
1E
100
AcDbEntity
  8
G8010001
 62
     0
100
AcDbPolyline
 90
        9
 70
     0
 43
0.0
 10
492909.75
 20
99586.9
 10
492910.65
 20
99587.8
 10
492909.6
 20
99588.8
 10
492911.25
 20
99590.45
 10
492918.4
 20
99583.2
 10
492913.2
 20
99578.05
 10
492907.05
 20
99584.2
 10
492907.5
 20
99584.65
 10
492909.75
 20
99586.9
  0
LWPOLYLINE
  5
483
330
1E
100
AcDbEntity
  8
G8010001
 62
     0
100
AcDbPolyline
 90
        4
 70
     0
 43
0.0
 10
492904.8
 20
99577.8
 10
492908.95
 20
99573.75
 10
492903.65
 20
99568.4
 10
492899.88
 20
99572.14
  0
LWPOLYLINE
  5
489
330
1E
100
AcDbEntity
  8
G8010001
 62
     0
100
AcDbPolyline
 90
        6
 70
     0
 43
0.0
 10
492899.88
 20
99576.91
 10
492901.05
 20
99578.1
 10
492899.95
 20
99579.15
 10
492901.5
 20
99580.7
 10
492901.7
 20
99580.9
 10
492904.8
 20
99577.8
  0
LWPOLYLINE
  5
491
330
1E
100
AcDbEntity
  8
G8010001
 62
     0
100
AcDbPolyline
 90
       12
 70
     0
 43
0.0
 10
492914.85
 20
99520.65
 10
492911.7
 20
99519.1
 10
492910.4
 20
99518.45
 10
492911.15
 20
99516.95
 10
492909.1
 20
99515.95
 10
492904.5
 20
99525.1
 10
492910.95
 20
99528.3
 10
492917.55
 20
99531.65
 10
492922.05
 20
99522.5
 10
492920.15
 20
99521.55
 10
492919.45
 20
99523.0
 10
492914.85
 20
99520.65
  0
LWPOLYLINE
  5
49F
330
1E
100
AcDbEntity
  8
G8010001
 62
     0
100
AcDbPolyline
 90
        7
 70
     0
 43
0.0
 10
492932.85
 20
99534.45
 10
492929.3
 20
99530.9
 10
492930.05
 20
99530.2
 10
492928.45
 20
99528.6
 10
492921.4
 20
99535.75
 10
492926.5
 20
99540.8
 10
492932.85
 20
99534.45
  0
LWPOLYLINE
  5
4A8
330
1E
100
AcDbEntity
  8
G8010001
 62
     0
100
AcDbPolyline
 90
        7
 70
     0
 43
0.0
 10
492941.05
 20
99542.8
 10
492938.45
 20
99540.15
 10
492939.55
 20
99539.05
 10
492936.95
 20
99536.45
 10
492929.45
 20
99543.8
 10
492934.65
 20
99549.05
 10
492941.05
 20
99542.8
  0
LWPOLYLINE
  5
4B1
330
1E
100
AcDbEntity
  8
G8010001
 62
     0
100
AcDbPolyline
 90
        7
 70
     0
 43
0.0
 10
492961.2
 20
99563.1
 10
492957.65
 20
99559.5
 10
492958.5
 20
99558.75
 10
492956.95
 20
99557.2
 10
492949.7
 20
99564.3
 10
492954.75
 20
99569.45
 10
492961.2
 20
99563.1
  0
LWPOLYLINE
  5
4BA
330
1E
100
AcDbEntity
  8
G8010001
 62
     0
100
AcDbPolyline
 90
        9
 70
     0
 43
0.0
 10
492970.95
 20
99571.05
 10
492967.75
 20
99567.8
 10
492966.3
 20
99569.25
 10
492963.55
 20
99566.45
 10
492957.95
 20
99572.0
 10
492961.85
 20
99575.9
 10
492961.45
 20
99576.25
 10
492963.55
 20
99578.35
 10
492970.95
 20
99571.05
  0
LWPOLYLINE
  5
4C5
330
1E
100
AcDbEntity
  8
G8010001
 62
     0
100
AcDbPolyline
 90
       11
 70
     0
 43
0.0
 10
492978.5
 20
99580.35
 10
492974.9
 20
99576.8
 10
492975.9
 20
99575.85
 10
492974.3
 20
99574.25
 10
492966.95
 20
99581.65
 10
492972.1
 20
99586.75
 10
492977.0
 20
99591.6
 10
492984.25
 20
99584.35
 10
492982.8
 20
99582.9
 10
492981.95
 20
99583.8
 10
492978.5
 20
99580.35
  0
LWPOLYLINE
  5
4D2
330
1E
100
AcDbEntity
  8
G8010001
 62
     0
100
AcDbPolyline
 90
        7
 70
     0
 43
0.0
 10
492991.8
 20
99593.8
 10
492989.45
 20
99591.45
 10
492990.2
 20
99590.7
 10
492987.4
 20
99587.95
 10
492980.3
 20
99594.95
 10
492985.45
 20
99600.1
 10
492991.8
 20
99593.8
  0
LWPOLYLINE
  5
4DB
330
1E
100
AcDbEntity
  8
G8010001
 62
     0
100
AcDbPolyline
 90
        7
 70
     0
 43
0.0
 10
492999.7
 20
99601.9
 10
492997.15
 20
99599.35
 10
492997.9
 20
99598.65
 10
492995.2
 20
99595.95
 10
492988.2
 20
99602.95
 10
492993.4
 20
99608.15
 10
492999.7
 20
99601.9
  0
LWPOLYLINE
  5
4E4
330
1E
100
AcDbEntity
  8
G8010001
 62
     0
100
AcDbPolyline
 90
        3
 70
     0
 43
0.0
 10
492915.6
 20
99592.7
 10
492919.15
 20
99596.3
 10
492918.0
 20
99597.35
  0
LWPOLYLINE
  5
4E9
330
1E
100
AcDbEntity
  8
G8010001
 62
     0
100
AcDbPolyline
 90
        5
 70
     0
 43
0.0
 10
492915.6
 20
99592.7
 10
492921.9
 20
99586.5
 10
492927.05
 20
99591.7
 10
492919.75
 20
99599.05
 10
492918.0
 20
99597.35
  0
LWPOLYLINE
  5
4F0
330
1E
100
AcDbEntity
  8
G8010001
 62
     0
100
AcDbPolyline
 90
        4
 70
     0
 43
0.0
 10
492903.72
 20
99623.24
 10
492906.8
 20
99620.05
 10
492902.6
 20
99616.0
 10
492899.88
 20
99613.41
  0
LWPOLYLINE
  5
4F6
330
1E
100
AcDbEntity
  8
G8010001
 62
     0
100
AcDbPolyline
 90
        3
 70
     0
 43
0.0
 10
492899.88
 20
99568.82
 10
492902.0
 20
99566.7
 10
492899.88
 20
99564.59
  0
LWPOLYLINE
  5
4FB
330
1E
100
AcDbEntity
  8
G8010001
 62
     0
100
AcDbPolyline
 90
        5
 70
     0
 43
0.0
 10
493000.0
 20
99615.15
 10
492999.05
 20
99614.3
 10
492997.7
 20
99615.65
 10
492994.95
 20
99612.85
 10
493000.0
 20
99607.85
  0
LWPOLYLINE
  5
502
330
1E
100
AcDbEntity
  8
G8010001
 62
     0
100
AcDbPolyline
 90
        2
 70
     0
 43
0.0
 10
492910.95
 20
99528.3
 10
492914.85
 20
99520.65
  0
LWPOLYLINE
  5
506
330
1E
100
AcDbEntity
  8
G8010001
 62
     0
100
AcDbPolyline
 90
        2
 70
     0
 43
0.0
 10
492972.1
 20
99586.75
 10
492978.5
 20
99580.35
  0
LWPOLYLINE
  5
50A
330
1E
100
AcDbEntity
  8
G8010001
 62
     0
100
AcDbPolyline
 90
        2
 70
     0
 43
0.0
 10
492899.88
 20
99618.86
 10
492902.6
 20
99616.0
  0
LWPOLYLINE
  5
50E
330
1E
100
AcDbEntity
  8
G8010001
 62
     0
100
AcDbPolyline
 90
        9
 70
     0
 43
0.0
 10
493061.35
 20
99500.0
 10
493060.1
 20
99498.45
 10
493059.1
 20
99499.2
 10
493057.4
 20
99496.85
 10
493056.65
 20
99497.45
 10
493056.25
 20
99496.95
 10
493053.8
 20
99498.75
 10
493054.2
 20
99499.25
 10
493053.25
 20
99500.0
  0
LWPOLYLINE
  5
519
330
1E
100
AcDbEntity
  8
G8010001
 62
     0
100
AcDbPolyline
 90
        3
 70
     0
 43
0.0
 10
493000.0
 20
99491.55
 10
493003.55
 20
99487.9
 10
493000.0
 20
99484.3
  0
LWPOLYLINE
  5
51E
330
1E
100
AcDbEntity
  8
G8010001
 62
     0
100
AcDbPolyline
 90
       10
 70
     0
 43
0.0
 10
493046.65
 20
99488.0
 10
493045.3
 20
99489.05
 10
493049.2
 20
99494.4
 10
493058.55
 20
99487.55
 10
493056.1
 20
99484.25
 10
493054.7
 20
99485.3
 10
493052.4
 20
99482.1
 10
493046.95
 20
99486.1
 10
493047.75
 20
99487.2
 10
493046.65
 20
99488.0
  0
LWPOLYLINE
  5
52A
330
1E
100
AcDbEntity
  8
G8010001
 62
     0
100
AcDbPolyline
 90
        3
 70
     0
 43
0.0
 10
493095.5
 20
99490.7
 10
493091.9
 20
99485.75
 10
493100.5
 20
99477.83
  0
LWPOLYLINE
  5
52F
330
1E
100
AcDbEntity
  8
G8010001
 62
     0
100
AcDbPolyline
 90
        3
 70
     0
 43
0.0
 10
493089.85
 20
99470.8
 10
493098.05
 20
99463.2
 10
493100.5
 20
99465.87
  0
LWPOLYLINE
  5
534
330
1E
100
AcDbEntity
  8
G8010001
 62
     0
100
AcDbPolyline
 90
        5
 70
     0
 43
0.0
 10
493100.5
 20
99472.89
 10
493098.2
 20
99475.0
 10
493095.85
 20
99472.4
 10
493093.4
 20
99474.65
 10
493089.85
 20
99470.8
  0
LWPOLYLINE
  5
53B
330
1E
100
AcDbEntity
  8
G8010001
 62
     0
100
AcDbPolyline
 90
        6
 70
     0
 43
0.0
 10
493038.55
 20
99465.15
 10
493030.85
 20
99469.85
 10
493029.55
 20
99467.75
 10
493028.7
 20
99468.3
 10
493026.4
 20
99464.6
 10
493033.02
 20
99460.53
  0
LWPOLYLINE
  5
543
330
1E
100
AcDbEntity
  8
G8010001
 62
     0
100
AcDbPolyline
 90
        2
 70
     0
 43
0.0
 10
493035.68
 20
99460.53
 10
493038.55
 20
99465.15
  0
LWPOLYLINE
  5
547
330
1E
100
AcDbEntity
  8
G8010001
 62
     0
100
AcDbPolyline
 90
        3
 70
     0
 43
0.0
 10
493027.58
 20
99460.53
 10
493024.3
 20
99462.55
 10
493023.04
 20
99460.53
  0
LWPOLYLINE
  5
54C
330
1E
100
AcDbEntity
  8
G8010001
 62
     0
100
AcDbPolyline
 90
        7
 70
     0
 43
0.0
 10
493033.1
 20
99472.05
 10
493037.25
 20
99477.8
 10
493040.25
 20
99482.0
 10
493048.8
 20
99475.9
 10
493046.5
 20
99472.75
 10
493041.65
 20
99465.95
 10
493033.1
 20
99472.05
  0
LWPOLYLINE
  5
555
330
1E
100
AcDbEntity
  8
G8010001
 62
     0
100
AcDbPolyline
 90
       12
 70
     0
 43
0.0
 10
493000.0
 20
99525.7
 10
493005.8
 20
99519.85
 10
493004.8
 20
99518.8
 10
493013.85
 20
99509.75
 10
493009.85
 20
99505.75
 10
493007.3
 20
99508.3
 10
493006.1
 20
99507.15
 10
493004.3
 20
99508.95
 10
493003.55
 20
99508.25
 10
493002.7
 20
99509.1
 10
493001.05
 20
99507.5
 10
493000.0
 20
99508.65
  0
LWPOLYLINE
  5
563
330
1E
100
AcDbEntity
  8
G8010001
 62
     0
100
AcDbPolyline
 90
        3
 70
     0
 43
0.0
 10
493000.0
 20
99517.6
 10
493000.85
 20
99516.8
 10
493000.0
 20
99515.95
  0
LWPOLYLINE
  5
568
330
1E
100
AcDbEntity
  8
G8010001
 62
     0
100
AcDbPolyline
 90
        6
 70
     0
 43
0.0
 10
493011.44
 20
99623.24
 10
493005.7
 20
99617.5
 10
493003.5
 20
99619.65
 10
493001.65
 20
99621.55
 10
493002.6
 20
99622.5
 10
493003.34
 20
99623.24
  0
LWPOLYLINE
  5
570
330
1E
100
AcDbEntity
  8
G8010001
 62
     0
100
AcDbPolyline
 90
       17
 70
     0
 43
0.0
 10
493065.1
 20
99588.65
 10
493069.25
 20
99593.6
 10
493068.35
 20
99594.35
 10
493071.05
 20
99597.55
 10
493071.95
 20
99596.85
 10
493072.95
 20
99598.05
 10
493072.1
 20
99598.8
 10
493073.0
 20
99599.9
 10
493078.65
 20
99595.1
 10
493076.4
 20
99592.45
 10
493075.75
 20
99593.0
 10
493073.1
 20
99589.9
 10
493073.75
 20
99589.35
 10
493072.2
 20
99587.5
 10
493071.6
 20
99588.0
 10
493068.85
 20
99584.75
 10
493065.1
 20
99588.65
  0
LWPOLYLINE
  5
583
330
1E
100
AcDbEntity
  8
G8010001
 62
     0
100
AcDbPolyline
 90
       17
 70
     0
 43
0.0
 10
493079.6
 20
99607.2
 10
493080.25
 20
99606.6
 10
493082.8
 20
99609.4
 10
493086.85
 20
99605.8
 10
493086.4
 20
99605.3
 10
493087.1
 20
99604.7
 10
493085.3
 20
99602.6
 10
493084.55
 20
99603.25
 10
493082.1
 20
99600.5
 10
493082.95
 20
99599.75
 10
493080.3
 20
99596.8
 10
493074.45
 20
99601.95
 10
493075.7
 20
99603.35
 10
493076.75
 20
99602.35
 10
493077.8
 20
99603.5
 10
493076.95
 20
99604.25
 10
493079.6
 20
99607.2
  0
LWPOLYLINE
  5
596
330
1E
100
AcDbEntity
  8
G8010001
 62
     0
100
AcDbPolyline
 90
        6
 70
     0
 43
0.0
 10
493069.77
 20
99623.24
 10
493070.25
 20
99622.75
 10
493066.05
 20
99618.7
 10
493063.7
 20
99621.15
 10
493062.15
 20
99619.65
 10
493058.7
 20
99623.24
  0
LWPOLYLINE
  5
59E
330
1E
100
AcDbEntity
  8
G8010001
 62
     0
100
AcDbPolyline
 90
        3
 70
     0
 43
0.0
 10
493000.0
 20
99544.45
 10
493000.55
 20
99543.9
 10
493000.0
 20
99543.3
  0
LWPOLYLINE
  5
5A3
330
1E
100
AcDbEntity
  8
G8010001
 62
     0
100
AcDbPolyline
 90
       41
 70
     0
 43
0.0
 10
493000.0
 20
99553.5
 10
493010.05
 20
99563.35
 10
493013.65
 20
99559.7
 10
493018.95
 20
99564.95
 10
493026.6
 20
99557.2
 10
493024.8
 20
99555.45
 10
493025.9
 20
99554.3
 10
493026.25
 20
99553.9
 10
493026.65
 20
99553.5
 10
493030.55
 20
99557.3
 10
493031.5
 20
99556.35
 10
493033.6
 20
99558.45
 10
493038.05
 20
99553.9
 10
493036.35
 20
99552.3
 10
493037.95
 20
99550.7
 10
493028.3
 20
99541.2
 10
493026.1
 20
99543.45
 10
493025.45
 20
99542.8
 10
493022.4
 20
99545.85
 10
493022.8
 20
99546.25
 10
493021.15
 20
99547.95
 10
493020.9
 20
99548.2
 10
493022.55
 20
99549.8
 10
493018.0
 20
99554.45
 10
493009.7
 20
99546.25
 10
493006.75
 20
99543.35
 10
493008.6
 20
99541.5
 10
493009.7
 20
99542.55
 10
493012.7
 20
99539.55
 10
493011.6
 20
99538.5
 10
493012.95
 20
99537.1
 10
493011.95
 20
99536.1
 10
493014.55
 20
99533.45
 10
493013.25
 20
99532.15
 10
493016.85
 20
99528.5
 10
493013.4
 20
99525.1
 10
493010.05
 20
99528.5
 10
493007.65
 20
99526.15
 10
493005.3
 20
99528.55
 10
493004.35
 20
99527.6
 10
493000.0
 20
99532.0
  0
LWPOLYLINE
  5
5CE
330
1E
100
AcDbEntity
  8
G8010001
 62
     0
100
AcDbPolyline
 90
       70
 70
     0
 43
0.0
 10
493047.95
 20
99583.85
 10
493044.4
 20
99580.3
 10
493048.65
 20
99576.05
 10
493047.05
 20
99574.45
 10
493047.75
 20
99573.75
 10
493047.7
 20
99573.5
 10
493047.7
 20
99573.2
 10
493047.65
 20
99572.95
 10
493047.65
 20
99572.7
 10
493047.7
 20
99572.5
 10
493047.75
 20
99572.4
 10
493047.85
 20
99572.3
 10
493047.9
 20
99572.2
 10
493048.0
 20
99572.1
 10
493048.6
 20
99571.45
 10
493048.8
 20
99571.35
 10
493048.95
 20
99571.35
 10
493049.05
 20
99571.3
 10
493049.2
 20
99571.3
 10
493049.35
 20
99571.35
 10
493049.85
 20
99571.35
 10
493050.15
 20
99571.45
 10
493051.6
 20
99570.05
 10
493053.15
 20
99571.6
 10
493053.5
 20
99571.65
 10
493053.8
 20
99571.75
 10
493054.25
 20
99571.85
 10
493054.55
 20
99571.95
 10
493055.0
 20
99572.25
 10
493055.3
 20
99572.55
 10
493055.45
 20
99572.75
 10
493055.55
 20
99572.9
 10
493055.65
 20
99573.1
 10
493055.75
 20
99573.5
 10
493055.8
 20
99573.75
 10
493055.8
 20
99574.0
 10
493055.75
 20
99574.2
 10
493060.7
 20
99579.2
 10
493060.9
 20
99579.15
 10
493061.4
 20
99579.15
 10
493061.85
 20
99579.3
 10
493062.0
 20
99579.4
 10
493062.15
 20
99579.55
 10
493062.35
 20
99579.65
 10
493062.6
 20
99579.9
 10
493062.7
 20
99580.05
 10
493062.85
 20
99580.25
 10
493062.95
 20
99580.45
 10
493063.0
 20
99580.65
 10
493063.1
 20
99580.85
 10
493063.15
 20
99581.15
 10
493063.2
 20
99581.4
 10
493063.2
 20
99581.7
 10
493063.15
 20
99581.85
 10
493063.8
 20
99582.55
 10
493063.15
 20
99583.2
 10
493063.7
 20
99583.75
 10
493061.25
 20
99586.25
 10
493060.65
 20
99585.6
 10
493058.75
 20
99587.5
 10
493060.3
 20
99589.05
 10
493061.95
 20
99587.4
 10
493063.4
 20
99588.8
 10
493057.4
 20
99594.9
 10
493051.0
 20
99588.45
 10
493051.75
 20
99587.65
 10
493050.8
 20
99586.7
 10
493052.7
 20
99584.75
 10
493049.9
 20
99581.9
 10
493047.95
 20
99583.85
  0
LWPOLYLINE
  5
616
330
1E
100
AcDbEntity
  8
G8010001
 62
     0
100
AcDbPolyline
 90
        4
 70
     0
 43
0.0
 10
493053.25
 20
99500.0
 10
493059.1
 20
99507.8
 10
493064.4
 20
99503.9
 10
493061.35
 20
99500.0
  0
LWPOLYLINE
  5
61C
330
1E
100
AcDbEntity
  8
G8010001
 62
     0
100
AcDbPolyline
 90
        7
 70
     0
 43
0.0
 10
493074.0
 20
99511.05
 10
493073.1
 20
99511.7
 10
493070.75
 20
99508.55
 10
493063.7
 20
99513.95
 10
493068.3
 20
99520.0
 10
493076.25
 20
99514.0
 10
493074.0
 20
99511.05
  0
LWPOLYLINE
  5
625
330
1E
100
AcDbEntity
  8
G8010001
 62
     0
100
AcDbPolyline
 90
       24
 70
     0
 43
0.0
 10
493095.2
 20
99545.6
 10
493093.6
 20
99546.8
 10
493092.1
 20
99544.7
 10
493088.1
 20
99547.55
 10
493091.7
 20
99552.5
 10
493091.6
 20
99552.6
 10
493091.5
 20
99552.9
 10
493091.45
 20
99553.1
 10
493091.4
 20
99553.25
 10
493091.4
 20
99553.55
 10
493091.45
 20
99553.7
 10
493091.55
 20
99553.85
 10
493091.6
 20
99553.95
 10
493091.9
 20
99554.25
 10
493092.05
 20
99554.35
 10
493092.2
 20
99554.4
 10
493092.35
 20
99554.5
 10
493092.5
 20
99554.5
 10
493092.65
 20
99554.55
 10
493092.75
 20
99554.5
 10
493092.95
 20
99554.5
 10
493093.05
 20
99554.45
 10
493093.85
 20
99555.6
 10
493100.5
 20
99550.81
  0
LWPOLYLINE
  5
63F
330
1E
100
AcDbEntity
  8
G8010001
 62
     0
100
AcDbPolyline
 90
        3
 70
     0
 43
0.0
 10
493100.5
 20
99546.37
 10
493100.45
 20
99546.3
 10
493100.5
 20
99546.26
  0
LWPOLYLINE
  5
644
330
1E
100
AcDbEntity
  8
G8010001
 62
     0
100
AcDbPolyline
 90
        4
 70
     0
 43
0.0
 10
493100.5
 20
99544.02
 10
493099.45
 20
99542.55
 10
493098.3
 20
99543.35
 10
493095.2
 20
99545.6
  0
LWPOLYLINE
  5
64A
330
1E
100
AcDbEntity
  8
G8010001
 62
     0
100
AcDbPolyline
 90
       10
 70
     0
 43
0.0
 10
493080.95
 20
99534.8
 10
493083.0
 20
99537.85
 10
493081.65
 20
99538.85
 10
493085.85
 20
99544.7
 10
493094.9
 20
99538.2
 10
493091.65
 20
99533.65
 10
493089.5
 20
99535.15
 10
493087.8
 20
99536.4
 10
493084.7
 20
99532.15
 10
493080.95
 20
99534.8
  0
LWPOLYLINE
  5
656
330
1E
100
AcDbEntity
  8
G8010001
 62
     0
100
AcDbPolyline
 90
       13
 70
     0
 43
0.0
 10
493081.3
 20
99519.75
 10
493081.0
 20
99519.3
 10
493074.4
 20
99524.0
 10
493074.6
 20
99524.25
 10
493075.5
 20
99525.5
 10
493074.2
 20
99526.4
 10
493073.35
 20
99527.05
 10
493074.1
 20
99528.1
 10
493076.45
 20
99531.4
 10
493077.25
 20
99532.5
 10
493086.0
 20
99526.3
 10
493083.2
 20
99522.4
 10
493081.3
 20
99519.75
  0
LWPOLYLINE
  5
665
330
1E
100
AcDbEntity
  8
G8010001
 62
     0
100
AcDbPolyline
 90
        4
 70
     0
 43
0.0
 10
493100.5
 20
99559.67
 10
493100.45
 20
99559.6
 10
493095.9
 20
99562.9
 10
493100.5
 20
99569.2
  0
LWPOLYLINE
  5
66B
330
1E
100
AcDbEntity
  8
G8010001
 62
     0
100
AcDbPolyline
 90
        6
 70
     0
 43
0.0
 10
493000.0
 20
99607.85
 10
493000.25
 20
99607.55
 10
493005.85
 20
99613.0
 10
493003.55
 20
99615.3
 10
493001.95
 20
99617.0
 10
493000.0
 20
99615.15
  0
LWPOLYLINE
  5
673
330
1E
100
AcDbEntity
  8
G8010001
 62
     0
100
AcDbPolyline
 90
        2
 70
     0
 43
0.0
 10
493039.55
 20
99562.8
 10
493034.95
 20
99567.45
  0
LWPOLYLINE
  5
677
330
1E
100
AcDbEntity
  8
G8010001
 62
     0
100
AcDbPolyline
 90
        4
 70
     0
 43
0.0
 10
493034.95
 20
99567.45
 10
493039.4
 20
99572.0
 10
493044.05
 20
99567.35
 10
493039.55
 20
99562.8
  0
LWPOLYLINE
  5
67D
330
1E
100
AcDbEntity
  8
G8010004
 62
     0
100
AcDbPolyline
 90
        2
 70
     0
 43
0.0
 10
492998.25
 20
99481.4
 10
493000.0
 20
99483.2
  0
LWPOLYLINE
  5
681
330
1E
100
AcDbEntity
  8
G8010004
 62
     0
100
AcDbPolyline
 90
        3
 70
     0
 43
0.0
 10
492970.45
 20
99466.8
 10
492973.2
 20
99469.75
 10
492972.35
 20
99470.4
  0
LWPOLYLINE
  5
686
330
1E
100
AcDbEntity
  8
G8010004
 62
     0
100
AcDbPolyline
 90
        3
 70
     0
 43
0.0
 10
493003.55
 20
99487.9
 10
493004.1
 20
99487.2
 10
493000.0
 20
99483.2
  0
LWPOLYLINE
  5
68B
330
1E
100
AcDbEntity
  8
G8010004
 62
     0
100
AcDbPolyline
 90
        2
 70
     0
 43
0.0
 10
493095.5
 20
99490.7
 10
493100.5
 20
99486.12
  0
LWPOLYLINE
  5
68F
330
1E
100
AcDbEntity
  8
G8010010
 62
     0
100
AcDbPolyline
 90
        2
 70
     0
 43
0.0
 10
493100.5
 20
99611.59
 10
493089.1
 20
99623.24
  0
LWPOLYLINE
  5
693
330
1E
100
AcDbEntity
  8
G8010021
 62
     0
100
AcDbPolyline
 90
        3
 70
     0
 43
0.0
 10
492998.95
 20
99466.75
 10
492999.75
 20
99466.15
 10
493000.0
 20
99466.0
  0
LWPOLYLINE
  5
698
330
1E
100
AcDbEntity
  8
G8010021
 62
     0
100
AcDbPolyline
 90
       18
 70
     0
 43
0.0
 10
492996.8
 20
99464.0
 10
492997.15
 20
99463.7
 10
492997.2
 20
99463.6
 10
492997.3
 20
99463.5
 10
492997.35
 20
99463.4
 10
492997.45
 20
99463.3
 10
492997.65
 20
99462.9
 10
492997.65
 20
99462.75
 10
492997.7
 20
99462.65
 10
492997.75
 20
99462.5
 10
492997.8
 20
99462.25
 10
492997.8
 20
99462.0
 10
492997.85
 20
99461.85
 10
492997.9
 20
99461.5
 10
492997.95
 20
99461.25
 10
492998.0
 20
99460.95
 10
492997.95
 20
99460.65
 10
492997.92
 20
99460.53
  0
LWPOLYLINE
  5
6AC
330
1E
100
AcDbEntity
  8
G8010021
 62
     0
100
AcDbPolyline
 90
       18
 70
     0
 43
0.0
 10
492978.1
 20
99623.24
 10
492972.6
 20
99617.6
 10
492945.05
 20
99590.3
 10
492923.1
 20
99568.3
 10
492911.45
 20
99556.55
 10
492910.45
 20
99555.55
 10
492909.95
 20
99555.2
 10
492909.4
 20
99554.95
 10
492908.85
 20
99554.65
 10
492908.25
 20
99554.4
 10
492905.95
 20
99553.4
 10
492904.7
 20
99552.9
 10
492903.45
 20
99552.3
 10
492902.3
 20
99551.6
 10
492901.95
 20
99551.3
 10
492901.05
 20
99550.55
 10
492900.2
 20
99549.7
 10
492899.88
 20
99549.3
  0
LWPOLYLINE
  5
6C0
330
1E
100
AcDbEntity
  8
G8010021
 62
     0
100
AcDbPolyline
 90
       29
 70
     0
 43
0.0
 10
492899.88
 20
99538.98
 10
492900.7
 20
99538.45
 10
492901.4
 20
99538.05
 10
492902.3
 20
99537.65
 10
492903.2
 20
99537.35
 10
492904.2
 20
99537.2
 10
492905.2
 20
99537.15
 10
492905.55
 20
99537.2
 10
492906.5
 20
99537.35
 10
492907.4
 20
99537.6
 10
492908.3
 20
99538.0
 10
492909.15
 20
99538.5
 10
492910.0
 20
99539.3
 10
492910.8
 20
99540.25
 10
492911.05
 20
99540.65
 10
492911.85
 20
99542.25
 10
492912.5
 20
99543.9
 10
492913.1
 20
99545.35
 10
492913.65
 20
99546.85
 10
492913.8
 20
99547.05
 10
492914.35
 20
99548.0
 10
492914.95
 20
99548.95
 10
492915.5
 20
99549.7
 10
492916.05
 20
99550.5
 10
492916.85
 20
99551.3
 10
492917.7
 20
99552.1
 10
492943.15
 20
99577.55
 10
492973.7
 20
99608.2
 10
492988.48
 20
99623.24
  0
LWPOLYLINE
  5
6DF
330
1E
100
AcDbEntity
  8
G8010021
 62
     0
100
AcDbPolyline
 90
       11
 70
     0
 43
0.0
 10
493026.95
 20
99500.0
 10
493002.6
 20
99466.95
 10
493002.35
 20
99466.7
 10
493002.05
 20
99466.45
 10
493001.75
 20
99466.25
 10
493001.4
 20
99466.1
 10
493001.3
 20
99466.05
 10
493001.05
 20
99466.0
 10
493000.85
 20
99465.95
 10
493000.5
 20
99465.95
 10
493000.0
 20
99466.0
  0
LWPOLYLINE
  5
6EC
330
1E
100
AcDbEntity
  8
G8010021
 62
     0
100
AcDbPolyline
 90
        2
 70
     0
 43
0.0
 10
493038.45
 20
99500.0
 10
493009.46
 20
99460.53
  0
LWPOLYLINE
  5
6F0
330
1E
100
AcDbEntity
  8
G8010021
 62
     0
100
AcDbPolyline
 90
       42
 70
     0
 43
0.0
 10
493026.95
 20
99500.0
 10
493035.7
 20
99511.9
 10
493042.65
 20
99521.25
 10
493047.5
 20
99527.9
 10
493048.75
 20
99529.75
 10
493053.85
 20
99536.65
 10
493060.4
 20
99545.75
 10
493068.35
 20
99556.5
 10
493075.6
 20
99566.55
 10
493081.65
 20
99574.9
 10
493087.8
 20
99583.45
 10
493094.05
 20
99591.9
 10
493094.5
 20
99592.45
 10
493095.15
 20
99593.4
 10
493095.75
 20
99594.4
 10
493095.85
 20
99594.5
 10
493096.1
 20
99595.0
 10
493096.35
 20
99595.45
 10
493096.6
 20
99595.95
 10
493096.7
 20
99596.3
 10
493096.95
 20
99597.1
 10
493097.15
 20
99598.0
 10
493097.2
 20
99598.4
 10
493097.35
 20
99599.75
 10
493097.4
 20
99600.25
 10
493097.45
 20
99601.0
 10
493097.45
 20
99602.05
 10
493097.35
 20
99603.15
 10
493097.15
 20
99604.25
 10
493097.1
 20
99604.75
 10
493096.95
 20
99605.4
 10
493096.75
 20
99606.1
 10
493096.65
 20
99606.3
 10
493096.25
 20
99607.15
 10
493096.0
 20
99607.85
 10
493095.85
 20
99608.25
 10
493095.25
 20
99609.45
 10
493094.95
 20
99610.0
 10
493093.5
 20
99611.8
 10
493091.75
 20
99613.8
 10
493086.6
 20
99619.3
 10
493082.83
 20
99623.24
  0
LWPOLYLINE
  5
71C
330
1E
100
AcDbEntity
  8
G8010021
 62
     0
100
AcDbPolyline
 90
        9
 70
     0
 43
0.0
 10
493100.5
 20
99584.72
 10
493098.35
 20
99581.95
 10
493090.4
 20
99571.05
 10
493082.4
 20
99560.15
 10
493073.75
 20
99548.3
 10
493065.25
 20
99536.8
 10
493055.9
 20
99523.95
 10
493046.3
 20
99510.7
 10
493038.45
 20
99500.0
  0
LWPOLYLINE
  5
727
330
1E
100
AcDbEntity
  8
G8010021
 62
     0
100
AcDbPolyline
 90
        7
 70
     0
 43
0.0
 10
493095.2
 20
99623.24
 10
493098.55
 20
99619.75
 10
493098.95
 20
99619.35
 10
493099.45
 20
99618.9
 10
493099.95
 20
99618.5
 10
493100.45
 20
99618.15
 10
493100.5
 20
99618.12
  0
INSERT
  5
730
330
1E
100
AcDbEntity
  8
G8010026
 62
     0
100
AcDbBlockReference
  2
BENCHM
 10
493024.5
 20
99475.65
 30
0.0
 41
0.13
 42
0.13
 50
144.0
  0
INSERT
  5
731
330
1E
100
AcDbEntity
  8
G8010027
 62
     0
100
AcDbBlockReference
  2
SPOTH
 10
493037.2
 20
99506.5
 30
0.0
 41
0.13
 42
0.13
  0
LWPOLYLINE
  5
732
330
1E
100
AcDbEntity
  8
G8010030
 62
     0
100
AcDbPolyline
 90
        2
 70
     0
 43
0.0
 10
492900.7
 20
99494.75
 10
492899.88
 20
99493.91
  0
LWPOLYLINE
  5
736
330
1E
100
AcDbEntity
  8
G8010030
 62
     0
100
AcDbPolyline
 90
        2
 70
     0
 43
0.0
 10
492900.55
 20
99493.4
 10
492899.88
 20
99492.73
  0
LWPOLYLINE
  5
73A
330
1E
100
AcDbEntity
  8
G8010030
 62
     0
100
AcDbPolyline
 90
        4
 70
     0
 43
0.0
 10
492899.88
 20
99489.32
 10
492899.9
 20
99489.3
 10
492902.3
 20
99491.6
 10
492900.55
 20
99493.4
  0
LWPOLYLINE
  5
740
330
1E
100
AcDbEntity
  8
G8010030
 62
     0
100
AcDbPolyline
 90
        4
 70
     0
 43
0.0
 10
492973.95
 20
99500.0
 10
492980.8
 20
99493.05
 10
492985.95
 20
99487.95
 10
493000.0
 20
99473.95
  0
LWPOLYLINE
  5
746
330
1E
100
AcDbEntity
  8
G8010030
 62
     0
100
AcDbPolyline
 90
        4
 70
     0
 43
0.0
 10
492980.8
 20
99493.05
 10
492982.7
 20
99495.0
 10
492987.95
 20
99489.9
 10
492985.95
 20
99487.95
  0
LWPOLYLINE
  5
74C
330
1E
100
AcDbEntity
  8
G8010030
 62
     0
100
AcDbPolyline
 90
        3
 70
     0
 43
0.0
 10
492972.15
 20
99500.0
 10
492970.85
 20
99498.85
 10
492969.75
 20
99500.0
  0
LWPOLYLINE
  5
751
330
1E
100
AcDbEntity
  8
G8010030
 62
     0
100
AcDbPolyline
 90
        2
 70
     0
 43
0.0
 10
492927.3
 20
99473.8
 10
492922.7
 20
99469.3
  0
LWPOLYLINE
  5
755
330
1E
100
AcDbEntity
  8
G8010030
 62
     0
100
AcDbPolyline
 90
        3
 70
     0
 43
0.0
 10
492912.25
 20
99500.0
 10
492907.05
 20
99494.5
 10
492903.9
 20
99491.15
  0
LWPOLYLINE
  5
75A
330
1E
100
AcDbEntity
  8
G8010030
 62
     0
100
AcDbPolyline
 90
        3
 70
     0
 43
0.0
 10
492907.05
 20
99494.5
 10
492910.35
 20
99491.15
 10
492906.95
 20
99487.6
  0
LWPOLYLINE
  5
75F
330
1E
100
AcDbEntity
  8
G8010030
 62
     0
100
AcDbPolyline
 90
        7
 70
     0
 43
0.0
 10
492899.88
 20
99495.67
 10
492900.7
 20
99494.75
 10
492903.9
 20
99491.15
 10
492906.95
 20
99487.6
 10
492920.1
 20
99472.3
 10
492922.7
 20
99469.3
 10
492930.17
 20
99460.53
  0
LWPOLYLINE
  5
768
330
1E
100
AcDbEntity
  8
G8010030
 62
     0
100
AcDbPolyline
 90
        2
 70
     0
 43
0.0
 10
492948.45
 20
99487.5
 10
492953.75
 20
99492.75
  0
LWPOLYLINE
  5
76C
330
1E
100
AcDbEntity
  8
G8010030
 62
     0
100
AcDbPolyline
 90
        2
 70
     0
 43
0.0
 10
492953.75
 20
99492.75
 10
492958.55
 20
99488.4
  0
LWPOLYLINE
  5
770
330
1E
100
AcDbEntity
  8
G8010030
 62
     0
100
AcDbPolyline
 90
        2
 70
     0
 43
0.0
 10
492985.4
 20
99474.35
 10
492991.45
 20
99468.95
  0
LWPOLYLINE
  5
774
330
1E
100
AcDbEntity
  8
G8010030
 62
     0
100
AcDbPolyline
 90
        4
 70
     0
 43
0.0
 10
492958.55
 20
99488.4
 10
492959.05
 20
99487.95
 10
492966.8
 20
99490.95
 10
492985.4
 20
99474.35
  0
LWPOLYLINE
  5
77A
330
1E
100
AcDbEntity
  8
G8010030
 62
     0
100
AcDbPolyline
 90
        2
 70
     0
 43
0.0
 10
492991.45
 20
99468.95
 10
492994.09
 20
99460.53
  0
LWPOLYLINE
  5
77E
330
1E
100
AcDbEntity
  8
G8010030
 62
     0
100
AcDbPolyline
 90
        2
 70
     0
 43
0.0
 10
492968.73
 20
99460.53
 10
492966.45
 20
99462.85
  0
LWPOLYLINE
  5
782
330
1E
100
AcDbEntity
  8
G8010030
 62
     0
100
AcDbPolyline
 90
        8
 70
     0
 43
0.0
 10
492899.88
 20
99597.49
 10
492904.05
 20
99601.6
 10
492910.35
 20
99607.8
 10
492918.4
 20
99615.65
 10
492919.75
 20
99616.95
 10
492921.2
 20
99618.25
 10
492922.45
 20
99619.45
 10
492926.56
 20
99623.24
  0
LWPOLYLINE
  5
78C
330
1E
100
AcDbEntity
  8
G8010030
 62
     0
100
AcDbPolyline
 90
        2
 70
     0
 43
0.0
 10
492899.88
 20
99552.72
 10
492900.5
 20
99552.1
  0
LWPOLYLINE
  5
790
330
1E
100
AcDbEntity
  8
G8010030
 62
     0
100
AcDbPolyline
 90
        2
 70
     0
 43
0.0
 10
492902.4
 20
99535.55
 10
492900.75
 20
99522.85
  0
LWPOLYLINE
  5
794
330
1E
100
AcDbEntity
  8
G8010030
 62
     0
100
AcDbPolyline
 90
        3
 70
     0
 43
0.0
 10
492900.75
 20
99522.85
 10
492900.4
 20
99520.75
 10
492899.88
 20
99517.35
  0
LWPOLYLINE
  5
799
330
1E
100
AcDbEntity
  8
G8010030
 62
     0
100
AcDbPolyline
 90
       25
 70
     0
 43
0.0
 10
492975.67
 20
99623.24
 10
492974.05
 20
99621.6
 10
492965.85
 20
99613.35
 10
492953.4
 20
99600.9
 10
492945.15
 20
99592.65
 10
492936.9
 20
99584.45
 10
492927.8
 20
99575.4
 10
492920.85
 20
99568.45
 10
492919.6
 20
99567.25
 10
492911.5
 20
99559.3
 10
492911.4
 20
99559.15
 10
492910.45
 20
99558.15
 10
492909.85
 20
99557.45
 10
492909.2
 20
99556.95
 10
492908.4
 20
99556.45
 10
492907.55
 20
99556.1
 10
492906.85
 20
99555.8
 10
492906.1
 20
99555.55
 10
492905.35
 20
99555.25
 10
492904.6
 20
99555.0
 10
492903.3
 20
99554.5
 10
492902.8
 20
99554.15
 10
492902.25
 20
99553.8
 10
492901.75
 20
99553.4
 10
492901.3
 20
99552.95
  0
LWPOLYLINE
  5
7B4
330
1E
100
AcDbEntity
  8
G8010030
 62
     0
100
AcDbPolyline
 90
        2
 70
     0
 43
0.0
 10
492900.5
 20
99552.1
 10
492899.88
 20
99551.48
  0
LWPOLYLINE
  5
7B8
330
1E
100
AcDbEntity
  8
G8010030
 62
     0
100
AcDbPolyline
 90
       41
 70
     0
 43
0.0
 10
492899.88
 20
99536.7
 10
492899.95
 20
99536.65
 10
492900.85
 20
99536.15
 10
492901.1
 20
99536.0
 10
492902.2
 20
99535.6
 10
492902.4
 20
99535.55
 10
492903.3
 20
99535.35
 10
492903.75
 20
99535.3
 10
492904.9
 20
99535.25
 10
492906.05
 20
99535.35
 10
492906.4
 20
99535.4
 10
492907.25
 20
99535.55
 10
492907.5
 20
99535.65
 10
492908.55
 20
99536.0
 10
492909.3
 20
99536.35
 10
492910.3
 20
99537.0
 10
492911.25
 20
99537.8
 10
492911.55
 20
99538.15
 10
492912.65
 20
99539.4
 10
492913.05
 20
99540.0
 10
492913.55
 20
99540.8
 10
492914.3
 20
99542.3
 10
492914.9
 20
99543.7
 10
492915.3
 20
99544.7
 10
492916.0
 20
99546.6
 10
492916.4
 20
99547.5
 10
492916.9
 20
99548.3
 10
492917.45
 20
99548.95
 10
492918.05
 20
99549.8
 10
492918.75
 20
99550.55
 10
492927.05
 20
99558.95
 10
492934.8
 20
99566.75
 10
492938.55
 20
99570.5
 10
492941.05
 20
99573.05
 10
492947.2
 20
99579.15
 10
492956.05
 20
99587.85
 10
492963.55
 20
99595.3
 10
492969.5
 20
99601.2
 10
492977.7
 20
99609.35
 10
492986.0
 20
99617.7
 10
492991.5
 20
99623.24
  0
LWPOLYLINE
  5
7E3
330
1E
100
AcDbEntity
  8
G8010030
 62
     0
100
AcDbPolyline
 90
        2
 70
     0
 43
0.0
 10
492967.55
 20
99558.8
 10
492998.75
 20
99527.15
  0
LWPOLYLINE
  5
7E7
330
1E
100
AcDbEntity
  8
G8010030
 62
     0
100
AcDbPolyline
 90
        3
 70
     0
 43
0.0
 10
492978.2
 20
99510.65
 10
492970.6
 20
99503.2
 10
492973.95
 20
99500.0
  0
LWPOLYLINE
  5
7EC
330
1E
100
AcDbEntity
  8
G8010030
 62
     0
100
AcDbPolyline
 90
        2
 70
     0
 43
0.0
 10
492940.3
 20
99529.4
 10
492939.0
 20
99527.9
  0
LWPOLYLINE
  5
7F0
330
1E
100
AcDbEntity
  8
G8010030
 62
     0
100
AcDbPolyline
 90
        4
 70
     0
 43
0.0
 10
492933.1
 20
99521.4
 10
492932.35
 20
99521.2
 10
492921.25
 20
99509.45
 10
492912.25
 20
99500.0
  0
LWPOLYLINE
  5
7F6
330
1E
100
AcDbEntity
  8
G8010030
 62
     0
100
AcDbPolyline
 90
        5
 70
     0
 43
0.0
 10
492969.75
 20
99500.0
 10
492968.05
 20
99501.75
 10
492969.65
 20
99503.4
 10
492972.75
 20
99500.35
 10
492972.15
 20
99500.0
  0
LWPOLYLINE
  5
7FD
330
1E
100
AcDbEntity
  8
G8010030
 62
     0
100
AcDbPolyline
 90
        5
 70
     0
 43
0.0
 10
492977.05
 20
99531.25
 10
492980.85
 20
99527.0
 10
492978.2
 20
99524.7
 10
492974.45
 20
99528.95
 10
492977.05
 20
99531.25
  0
LWPOLYLINE
  5
804
330
1E
100
AcDbEntity
  8
G8010030
 62
     0
100
AcDbPolyline
 90
        2
 70
     0
 43
0.0
 10
492907.25
 20
99535.55
 10
492910.95
 20
99528.3
  0
LWPOLYLINE
  5
808
330
1E
100
AcDbEntity
  8
G8010030
 62
     0
100
AcDbPolyline
 90
        2
 70
     0
 43
0.0
 10
492914.85
 20
99520.65
 10
492915.5
 20
99519.2
  0
LWPOLYLINE
  5
80C
330
1E
100
AcDbEntity
  8
G8010030
 62
     0
100
AcDbPolyline
 90
        3
 70
     0
 43
0.0
 10
492915.5
 20
99519.2
 10
492916.25
 20
99517.9
 10
492921.25
 20
99509.45
  0
LWPOLYLINE
  5
811
330
1E
100
AcDbEntity
  8
G8010030
 62
     0
100
AcDbPolyline
 90
        2
 70
     0
 43
0.0
 10
492913.05
 20
99540.0
 10
492927.55
 20
99525.85
  0
LWPOLYLINE
  5
815
330
1E
100
AcDbEntity
  8
G8010030
 62
     0
100
AcDbPolyline
 90
        2
 70
     0
 43
0.0
 10
492927.55
 20
99525.85
 10
492931.5
 20
99521.9
  0
LWPOLYLINE
  5
819
330
1E
100
AcDbEntity
  8
G8010030
 62
     0
100
AcDbPolyline
 90
        2
 70
     0
 43
0.0
 10
492931.5
 20
99521.9
 10
492932.35
 20
99521.2
  0
LWPOLYLINE
  5
81D
330
1E
100
AcDbEntity
  8
G8010030
 62
     0
100
AcDbPolyline
 90
        2
 70
     0
 43
0.0
 10
492918.75
 20
99550.55
 10
492935.8
 20
99533.7
  0
LWPOLYLINE
  5
821
330
1E
100
AcDbEntity
  8
G8010030
 62
     0
100
AcDbPolyline
 90
        2
 70
     0
 43
0.0
 10
492935.8
 20
99533.7
 10
492940.3
 20
99529.4
  0
LWPOLYLINE
  5
825
330
1E
100
AcDbEntity
  8
G8010030
 62
     0
100
AcDbPolyline
 90
        2
 70
     0
 43
0.0
 10
492927.05
 20
99558.95
 10
492943.35
 20
99542.35
  0
LWPOLYLINE
  5
829
330
1E
100
AcDbEntity
  8
G8010030
 62
     0
100
AcDbPolyline
 90
        2
 70
     0
 43
0.0
 10
492943.35
 20
99542.35
 10
492947.4
 20
99538.35
  0
LWPOLYLINE
  5
82D
330
1E
100
AcDbEntity
  8
G8010030
 62
     0
100
AcDbPolyline
 90
        2
 70
     0
 43
0.0
 10
492947.4
 20
99538.35
 10
492949.7
 20
99536.2
  0
LWPOLYLINE
  5
831
330
1E
100
AcDbEntity
  8
G8010030
 62
     0
100
AcDbPolyline
 90
        3
 70
     0
 43
0.0
 10
492934.8
 20
99566.75
 10
492955.9
 20
99546.1
 10
492956.15
 20
99545.8
  0
LWPOLYLINE
  5
836
330
1E
100
AcDbEntity
  8
G8010030
 62
     0
100
AcDbPolyline
 90
        2
 70
     0
 43
0.0
 10
492947.2
 20
99579.15
 10
492967.85
 20
99559.1
  0
LWPOLYLINE
  5
83A
330
1E
100
AcDbEntity
  8
G8010030
 62
     0
100
AcDbPolyline
 90
        2
 70
     0
 43
0.0
 10
492956.05
 20
99587.85
 10
492971.95
 20
99572.0
  0
LWPOLYLINE
  5
83E
330
1E
100
AcDbEntity
  8
G8010030
 62
     0
100
AcDbPolyline
 90
        2
 70
     0
 43
0.0
 10
492971.95
 20
99572.0
 10
492974.8
 20
99569.2
  0
LWPOLYLINE
  5
842
330
1E
100
AcDbEntity
  8
G8010030
 62
     0
100
AcDbPolyline
 90
        2
 70
     0
 43
0.0
 10
492974.8
 20
99569.2
 10
492976.15
 20
99567.9
  0
LWPOLYLINE
  5
846
330
1E
100
AcDbEntity
  8
G8010030
 62
     0
100
AcDbPolyline
 90
        2
 70
     0
 43
0.0
 10
492963.55
 20
99595.3
 10
492972.1
 20
99586.75
  0
LWPOLYLINE
  5
84A
330
1E
100
AcDbEntity
  8
G8010030
 62
     0
100
AcDbPolyline
 90
        2
 70
     0
 43
0.0
 10
492969.5
 20
99601.2
 10
492989.0
 20
99581.7
  0
LWPOLYLINE
  5
84E
330
1E
100
AcDbEntity
  8
G8010030
 62
     0
100
AcDbPolyline
 90
        2
 70
     0
 43
0.0
 10
492977.7
 20
99609.35
 10
492997.0
 20
99590.45
  0
LWPOLYLINE
  5
852
330
1E
100
AcDbEntity
  8
G8010030
 62
     0
100
AcDbPolyline
 90
        2
 70
     0
 43
0.0
 10
492986.0
 20
99617.7
 10
493000.0
 20
99603.35
  0
LWPOLYLINE
  5
856
330
1E
100
AcDbEntity
  8
G8010030
 62
     0
100
AcDbPolyline
 90
        2
 70
     0
 43
0.0
 10
492998.11
 20
99623.24
 10
493000.0
 20
99621.3
  0
LWPOLYLINE
  5
85A
330
1E
100
AcDbEntity
  8
G8010030
 62
     0
100
AcDbPolyline
 90
        2
 70
     0
 43
0.0
 10
492942.1
 20
99531.35
 10
492944.9
 20
99528.6
  0
LWPOLYLINE
  5
85E
330
1E
100
AcDbEntity
  8
G8010030
 62
     0
100
AcDbPolyline
 90
        2
 70
     0
 43
0.0
 10
492955.9
 20
99546.1
 10
492957.35
 20
99547.75
  0
LWPOLYLINE
  5
862
330
1E
100
AcDbEntity
  8
G8010030
 62
     0
100
AcDbPolyline
 90
        3
 70
     0
 43
0.0
 10
492957.35
 20
99547.75
 10
492959.2
 20
99549.75
 10
492961.65
 20
99552.45
  0
LWPOLYLINE
  5
867
330
1E
100
AcDbEntity
  8
G8010030
 62
     0
100
AcDbPolyline
 90
        9
 70
     0
 43
0.0
 10
492961.65
 20
99552.45
 10
492967.55
 20
99558.8
 10
492967.85
 20
99559.1
 10
492976.15
 20
99567.9
 10
492983.3
 20
99575.5
 10
492984.35
 20
99576.65
 10
492989.0
 20
99581.7
 10
492997.0
 20
99590.45
 10
493000.0
 20
99593.45
  0
LWPOLYLINE
  5
872
330
1E
100
AcDbEntity
  8
G8010030
 62
     0
100
AcDbPolyline
 90
        2
 70
     0
 43
0.0
 10
492899.88
 20
99592.12
 10
492900.05
 20
99592.3
  0
LWPOLYLINE
  5
876
330
1E
100
AcDbEntity
  8
G8010030
 62
     0
100
AcDbPolyline
 90
        3
 70
     0
 43
0.0
 10
492900.05
 20
99592.3
 10
492905.4
 20
99597.6
 10
492914.65
 20
99606.7
  0
LWPOLYLINE
  5
87B
330
1E
100
AcDbEntity
  8
G8010030
 62
     0
100
AcDbPolyline
 90
        2
 70
     0
 43
0.0
 10
492914.65
 20
99606.7
 10
492917.15
 20
99609.15
  0
LWPOLYLINE
  5
87F
330
1E
100
AcDbEntity
  8
G8010030
 62
     0
100
AcDbPolyline
 90
        3
 70
     0
 43
0.0
 10
492917.15
 20
99609.15
 10
492923.15
 20
99614.8
 10
492929.1
 20
99620.4
  0
LWPOLYLINE
  5
884
330
1E
100
AcDbEntity
  8
G8010030
 62
     0
100
AcDbPolyline
 90
        2
 70
     0
 43
0.0
 10
492929.1
 20
99620.4
 10
492931.65
 20
99622.7
  0
LWPOLYLINE
  5
888
330
1E
100
AcDbEntity
  8
G8010030
 62
     0
100
AcDbPolyline
 90
        2
 70
     0
 43
0.0
 10
492931.65
 20
99622.7
 10
492932.24
 20
99623.24
  0
LWPOLYLINE
  5
88C
330
1E
100
AcDbEntity
  8
G8010030
 62
     0
100
AcDbPolyline
 90
        2
 70
     0
 43
0.0
 10
492899.88
 20
99570.81
 10
492911.4
 20
99559.15
  0
LWPOLYLINE
  5
890
330
1E
100
AcDbEntity
  8
G8010030
 62
     0
100
AcDbPolyline
 90
        2
 70
     0
 43
0.0
 10
492919.6
 20
99567.25
 10
492903.15
 20
99583.85
  0
LWPOLYLINE
  5
894
330
1E
100
AcDbEntity
  8
G8010030
 62
     0
100
AcDbPolyline
 90
        2
 70
     0
 43
0.0
 10
492903.15
 20
99583.85
 10
492899.88
 20
99587.17
  0
LWPOLYLINE
  5
898
330
1E
100
AcDbEntity
  8
G8010030
 62
     0
100
AcDbPolyline
 90
        2
 70
     0
 43
0.0
 10
492901.5
 20
99580.7
 10
492900.85
 20
99581.55
  0
LWPOLYLINE
  5
89C
330
1E
100
AcDbEntity
  8
G8010030
 62
     0
100
AcDbPolyline
 90
        2
 70
     0
 43
0.0
 10
492900.85
 20
99581.55
 10
492899.88
 20
99582.52
  0
LWPOLYLINE
  5
8A0
330
1E
100
AcDbEntity
  8
G8010030
 62
     0
100
AcDbPolyline
 90
        2
 70
     0
 43
0.0
 10
492927.8
 20
99575.4
 10
492905.4
 20
99597.6
  0
LWPOLYLINE
  5
8A4
330
1E
100
AcDbEntity
  8
G8010030
 62
     0
100
AcDbPolyline
 90
        2
 70
     0
 43
0.0
 10
492936.9
 20
99584.45
 10
492919.9
 20
99601.4
  0
LWPOLYLINE
  5
8A8
330
1E
100
AcDbEntity
  8
G8010030
 62
     0
100
AcDbPolyline
 90
        4
 70
     0
 43
0.0
 10
492919.9
 20
99601.4
 10
492918.35
 20
99602.9
 10
492916.85
 20
99604.5
 10
492914.65
 20
99606.7
  0
LWPOLYLINE
  5
8AE
330
1E
100
AcDbEntity
  8
G8010030
 62
     0
100
AcDbPolyline
 90
        2
 70
     0
 43
0.0
 10
492945.15
 20
99592.65
 10
492923.15
 20
99614.8
  0
LWPOLYLINE
  5
8B2
330
1E
100
AcDbEntity
  8
G8010030
 62
     0
100
AcDbPolyline
 90
        2
 70
     0
 43
0.0
 10
492953.4
 20
99600.9
 10
492935.9
 20
99618.45
  0
LWPOLYLINE
  5
8B6
330
1E
100
AcDbEntity
  8
G8010030
 62
     0
100
AcDbPolyline
 90
        2
 70
     0
 43
0.0
 10
492935.9
 20
99618.45
 10
492931.65
 20
99622.7
  0
LWPOLYLINE
  5
8BA
330
1E
100
AcDbEntity
  8
G8010030
 62
     0
100
AcDbPolyline
 90
        2
 70
     0
 43
0.0
 10
492974.05
 20
99621.6
 10
492972.4
 20
99623.24
  0
LWPOLYLINE
  5
8BE
330
1E
100
AcDbEntity
  8
G8010030
 62
     0
100
AcDbPolyline
 90
        2
 70
     0
 43
0.0
 10
492940.3
 20
99529.4
 10
492942.1
 20
99531.35
  0
LWPOLYLINE
  5
8C2
330
1E
100
AcDbEntity
  8
G8010030
 62
     0
100
AcDbPolyline
 90
        4
 70
     0
 43
0.0
 10
492942.1
 20
99531.35
 10
492942.85
 20
99532.2
 10
492938.4
 20
99536.4
 10
492935.8
 20
99533.7
  0
LWPOLYLINE
  5
8C8
330
1E
100
AcDbEntity
  8
G8010030
 62
     0
100
AcDbPolyline
 90
        2
 70
     0
 43
0.0
 10
492965.85
 20
99613.35
 10
492957.0
 20
99622.25
  0
LWPOLYLINE
  5
8CC
330
1E
100
AcDbEntity
  8
G8010030
 62
     0
100
AcDbPolyline
 90
        2
 70
     0
 43
0.0
 10
492901.3
 20
99552.95
 10
492899.88
 20
99554.37
  0
LWPOLYLINE
  5
8D0
330
1E
100
AcDbEntity
  8
G8010030
 62
     0
100
AcDbPolyline
 90
        4
 70
     0
 43
0.0
 10
492918.0
 20
99597.35
 10
492917.6
 20
99597.85
 10
492914.05
 20
99594.3
 10
492915.6
 20
99592.7
  0
LWPOLYLINE
  5
8D6
330
1E
100
AcDbEntity
  8
G8010030
 62
     0
100
AcDbPolyline
 90
        3
 70
     0
 43
0.0
 10
492929.1
 20
99620.4
 10
492933.45
 20
99616.05
 10
492935.9
 20
99618.45
  0
LWPOLYLINE
  5
8DB
330
1E
100
AcDbEntity
  8
G8010030
 62
     0
100
AcDbPolyline
 90
        3
 70
     0
 43
0.0
 10
492917.15
 20
99609.15
 10
492920.95
 20
99605.35
 10
492918.35
 20
99602.9
  0
LWPOLYLINE
  5
8E0
330
1E
100
AcDbEntity
  8
G8010030
 62
     0
100
AcDbPolyline
 90
        4
 70
     0
 43
0.0
 10
492916.85
 20
99604.5
 10
492915.15
 20
99602.85
 10
492918.15
 20
99599.75
 10
492919.9
 20
99601.4
  0
LWPOLYLINE
  5
8E6
330
1E
100
AcDbEntity
  8
G8010030
 62
     0
100
AcDbPolyline
 90
        3
 70
     0
 43
0.0
 10
492899.88
 20
99586.47
 10
492902.85
 20
99583.5
 10
492900.85
 20
99581.55
  0
LWPOLYLINE
  5
8EB
330
1E
100
AcDbEntity
  8
G8010030
 62
     0
100
AcDbPolyline
 90
        2
 70
     0
 43
0.0
 10
492900.75
 20
99522.85
 10
492899.88
 20
99522.99
  0
LWPOLYLINE
  5
8EF
330
1E
100
AcDbEntity
  8
G8010030
 62
     0
100
AcDbPolyline
 90
        4
 70
     0
 43
0.0
 10
492900.4
 20
99520.75
 10
492903.55
 20
99520.2
 10
492902.25
 20
99512.05
 10
492899.88
 20
99512.43
  0
LWPOLYLINE
  5
8F5
330
1E
100
AcDbEntity
  8
G8010030
 62
     0
100
AcDbPolyline
 90
        5
 70
     0
 43
0.0
 10
492929.55
 20
99522.75
 10
492927.9
 20
99521.0
 10
492923.25
 20
99525.45
 10
492924.95
 20
99527.2
 10
492929.55
 20
99522.75
  0
LWPOLYLINE
  5
8FC
330
1E
100
AcDbEntity
  8
G8010030
 62
     0
100
AcDbPolyline
 90
        4
 70
     0
 43
0.0
 10
492971.95
 20
99572.0
 10
492973.65
 20
99573.65
 10
492976.4
 20
99570.8
 10
492974.8
 20
99569.2
  0
LWPOLYLINE
  5
902
330
1E
100
AcDbEntity
  8
G8010030
 62
     0
100
AcDbPolyline
 90
        3
 70
     0
 43
0.0
 10
492961.65
 20
99552.45
 10
492957.65
 20
99556.45
 10
492955.1
 20
99553.9
  0
LWPOLYLINE
  5
907
330
1E
100
AcDbEntity
  8
G8010030
 62
     0
100
AcDbPolyline
 90
        2
 70
     0
 43
0.0
 10
492955.1
 20
99553.9
 10
492959.2
 20
99549.75
  0
LWPOLYLINE
  5
90B
330
1E
100
AcDbEntity
  8
G8010030
 62
     0
100
AcDbPolyline
 90
        3
 70
     0
 43
0.0
 10
492900.05
 20
99592.3
 10
492905.7
 20
99586.45
 10
492907.5
 20
99584.65
  0
LWPOLYLINE
  5
910
330
1E
100
AcDbEntity
  8
G8010030
 62
     0
100
AcDbPolyline
 90
        2
 70
     0
 43
0.0
 10
492899.88
 20
99606.08
 10
492904.05
 20
99601.6
  0
LWPOLYLINE
  5
914
330
1E
100
AcDbEntity
  8
G8010030
 62
     0
100
AcDbPolyline
 90
        2
 70
     0
 43
0.0
 10
492902.6
 20
99616.0
 10
492910.35
 20
99607.8
  0
LWPOLYLINE
  5
918
330
1E
100
AcDbEntity
  8
G8010030
 62
     0
100
AcDbPolyline
 90
        2
 70
     0
 43
0.0
 10
492921.2
 20
99618.25
 10
492915.18
 20
99623.24
  0
LWPOLYLINE
  5
91C
330
1E
100
AcDbEntity
  8
G8010030
 62
     0
100
AcDbPolyline
 90
        2
 70
     0
 43
0.0
 10
492918.4
 20
99615.65
 10
492909.73
 20
99623.24
  0
LWPOLYLINE
  5
920
330
1E
100
AcDbEntity
  8
G8010030
 62
     0
100
AcDbPolyline
 90
        2
 70
     0
 43
0.0
 10
492918.05
 20
99623.24
 10
492922.45
 20
99619.45
  0
LWPOLYLINE
  5
924
330
1E
100
AcDbEntity
  8
G8010030
 62
     0
100
AcDbPolyline
 90
        4
 70
     0
 43
0.0
 10
492943.35
 20
99542.35
 10
492945.35
 20
99544.4
 10
492949.45
 20
99540.3
 10
492947.4
 20
99538.35
  0
LWPOLYLINE
  5
92A
330
1E
100
AcDbEntity
  8
G8010030
 62
     0
100
AcDbPolyline
 90
        4
 70
     0
 43
0.0
 10
492909.75
 20
99586.9
 10
492907.9
 20
99588.65
 10
492905.7
 20
99586.45
 10
492903.15
 20
99583.85
  0
LWPOLYLINE
  5
930
330
1E
100
AcDbEntity
  8
G8010030
 62
     0
100
AcDbPolyline
 90
        3
 70
     0
 43
0.0
 10
492911.7
 20
99519.1
 10
492912.45
 20
99517.7
 10
492915.5
 20
99519.2
  0
LWPOLYLINE
  5
935
330
1E
100
AcDbEntity
  8
G8010030
 62
     0
100
AcDbPolyline
 90
        3
 70
     0
 43
0.0
 10
493000.0
 20
99500.0
 10
492983.95
 20
99516.15
 10
492983.5
 20
99515.8
  0
LWPOLYLINE
  5
93A
330
1E
100
AcDbEntity
  8
G8010030
 62
     0
100
AcDbPolyline
 90
        2
 70
     0
 43
0.0
 10
492978.5
 20
99580.35
 10
492983.3
 20
99575.5
  0
LWPOLYLINE
  5
93E
330
1E
100
AcDbEntity
  8
G8010030
 62
     0
100
AcDbPolyline
 90
        6
 70
     0
 43
0.0
 10
493044.5
 20
99500.0
 10
493055.3
 20
99491.9
 10
493061.95
 20
99486.9
 10
493081.75
 20
99472.0
 10
493092.25
 20
99462.5
 10
493094.42
 20
99460.53
  0
LWPOLYLINE
  5
946
330
1E
100
AcDbEntity
  8
G8010030
 62
     0
100
AcDbPolyline
 90
        2
 70
     0
 43
0.0
 10
493092.25
 20
99462.5
 10
493090.81
 20
99460.53
  0
LWPOLYLINE
  5
94A
330
1E
100
AcDbEntity
  8
G8010030
 62
     0
100
AcDbPolyline
 90
        2
 70
     0
 43
0.0
 10
493100.5
 20
99498.11
 10
493097.85
 20
99500.0
  0
LWPOLYLINE
  5
94E
330
1E
100
AcDbEntity
  8
G8010030
 62
     0
100
AcDbPolyline
 90
        6
 70
     0
 43
0.0
 10
493091.9
 20
99485.75
 10
493090.15
 20
99483.35
 10
493084.4
 20
99475.6
 10
493083.25
 20
99474.0
 10
493081.75
 20
99472.0
 10
493073.14
 20
99460.53
  0
LWPOLYLINE
  5
956
330
1E
100
AcDbEntity
  8
G8010030
 62
     0
100
AcDbPolyline
 90
        5
 70
     0
 43
0.0
 10
493033.85
 20
99488.6
 10
493049.1
 20
99477.4
 10
493051.15
 20
99475.85
 10
493053.45
 20
99474.2
 10
493072.03
 20
99460.53
  0
LWPOLYLINE
  5
95D
330
1E
100
AcDbEntity
  8
G8010030
 62
     0
100
AcDbPolyline
 90
        2
 70
     0
 43
0.0
 10
493049.48
 20
99460.53
 10
493024.4
 20
99475.75
  0
LWPOLYLINE
  5
961
330
1E
100
AcDbEntity
  8
G8010030
 62
     0
100
AcDbPolyline
 90
        5
 70
     0
 43
0.0
 10
493023.05
 20
99500.0
 10
493015.5
 20
99489.55
 10
493013.3
 20
99486.5
 10
493002.35
 20
99471.75
 10
493000.0
 20
99473.95
  0
LWPOLYLINE
  5
968
330
1E
100
AcDbEntity
  8
G8010030
 62
     0
100
AcDbPolyline
 90
        2
 70
     0
 43
0.0
 10
493013.3
 20
99486.5
 10
493000.0
 20
99500.0
  0
LWPOLYLINE
  5
96C
330
1E
100
AcDbEntity
  8
G8010030
 62
     0
100
AcDbPolyline
 90
        4
 70
     0
 43
0.0
 10
493090.15
 20
99483.35
 10
493092.5
 20
99481.7
 10
493086.75
 20
99473.95
 10
493084.4
 20
99475.6
  0
LWPOLYLINE
  5
972
330
1E
100
AcDbEntity
  8
G8010030
 62
     0
100
AcDbPolyline
 90
        8
 70
     0
 43
0.0
 10
493063.8
 20
99489.35
 10
493062.0
 20
99490.75
 10
493062.55
 20
99491.5
 10
493062.0
 20
99491.95
 10
493062.75
 20
99492.9
 10
493065.5
 20
99490.8
 10
493064.15
 20
99489.1
 10
493063.8
 20
99489.35
  0
LWPOLYLINE
  5
97C
330
1E
100
AcDbEntity
  8
G8010030
 62
     0
100
AcDbPolyline
 90
        4
 70
     0
 43
0.0
 10
493049.1
 20
99477.4
 10
493051.1
 20
99480.1
 10
493053.15
 20
99478.6
 10
493051.15
 20
99475.85
  0
LWPOLYLINE
  5
982
330
1E
100
AcDbEntity
  8
G8010030
 62
     0
100
AcDbPolyline
 90
        4
 70
     0
 43
0.0
 10
493051.15
 20
99475.85
 10
493049.7
 20
99473.65
 10
493051.95
 20
99472.05
 10
493053.45
 20
99474.2
  0
LWPOLYLINE
  5
988
330
1E
100
AcDbEntity
  8
G8010030
 62
     0
100
AcDbPolyline
 90
        5
 70
     0
 43
0.0
 10
493048.3
 20
99479.05
 10
493044.45
 20
99481.9
 10
493046.15
 20
99484.15
 10
493049.95
 20
99481.3
 10
493048.3
 20
99479.05
  0
LWPOLYLINE
  5
98F
330
1E
100
AcDbEntity
  8
G8010030
 62
     0
100
AcDbPolyline
 90
        2
 70
     0
 43
0.0
 10
493095.5
 20
99490.7
 10
493100.5
 20
99497.49
  0
LWPOLYLINE
  5
993
330
1E
100
AcDbEntity
  8
G8010030
 62
     0
100
AcDbPolyline
 90
        2
 70
     0
 43
0.0
 10
493063.8
 20
99489.35
 10
493061.95
 20
99486.9
  0
LWPOLYLINE
  5
997
330
1E
100
AcDbEntity
  8
G8010030
 62
     0
100
AcDbPolyline
 90
        3
 70
     0
 43
0.0
 10
493024.4
 20
99475.75
 10
493033.85
 20
99488.6
 10
493042.25
 20
99500.0
  0
LWPOLYLINE
  5
99C
330
1E
100
AcDbEntity
  8
G8010030
 62
     0
100
AcDbPolyline
 90
        3
 70
     0
 43
0.0
 10
493091.9
 20
99485.75
 10
493075.5
 20
99497.6
 10
493072.2
 20
99500.0
  0
LWPOLYLINE
  5
9A1
330
1E
100
AcDbEntity
  8
G8010030
 62
     0
100
AcDbPolyline
 90
        3
 70
     0
 43
0.0
 10
493069.15
 20
99500.0
 10
493071.2
 20
99498.5
 10
493072.2
 20
99500.0
  0
LWPOLYLINE
  5
9A6
330
1E
100
AcDbEntity
  8
G8010030
 62
     0
100
AcDbPolyline
 90
        3
 70
     0
 43
0.0
 10
493062.0
 20
99490.75
 10
493057.3
 20
99494.45
 10
493055.3
 20
99491.9
  0
LWPOLYLINE
  5
9AB
330
1E
100
AcDbEntity
  8
G8010030
 62
     0
100
AcDbPolyline
 90
        5
 70
     0
 43
0.0
 10
493047.0
 20
99532.4
 10
493039.4
 20
99521.95
 10
493031.0
 20
99510.7
 10
493024.05
 20
99501.3
 10
493023.05
 20
99500.0
  0
LWPOLYLINE
  5
9B2
330
1E
100
AcDbEntity
  8
G8010030
 62
     0
100
AcDbPolyline
 90
       39
 70
     0
 43
0.0
 10
493077.96
 20
99623.24
 10
493080.95
 20
99620.3
 10
493088.05
 20
99612.65
 10
493091.35
 20
99609.3
 10
493091.85
 20
99608.85
 10
493092.25
 20
99608.35
 10
493092.45
 20
99608.15
 10
493092.85
 20
99607.65
 10
493093.2
 20
99607.05
 10
493093.45
 20
99606.65
 10
493093.7
 20
99606.1
 10
493094.2
 20
99604.9
 10
493094.3
 20
99604.55
 10
493094.45
 20
99603.85
 10
493094.6
 20
99603.2
 10
493094.7
 20
99602.5
 10
493094.75
 20
99601.75
 10
493094.8
 20
99601.05
 10
493094.75
 20
99600.3
 10
493094.65
 20
99599.7
 10
493094.55
 20
99599.05
 10
493094.4
 20
99598.5
 10
493094.2
 20
99597.85
 10
493093.95
 20
99597.25
 10
493093.75
 20
99596.85
 10
493093.35
 20
99595.9
 10
493093.05
 20
99595.4
 10
493092.7
 20
99594.9
 10
493092.35
 20
99594.45
 10
493091.95
 20
99594.0
 10
493091.8
 20
99593.75
 10
493091.2
 20
99593.0
 10
493089.75
 20
99591.1
 10
493087.9
 20
99588.65
 10
493084.9
 20
99584.55
 10
493078.15
 20
99575.1
 10
493063.85
 20
99555.55
 10
493056.7
 20
99545.7
 10
493049.7
 20
99536.05
  0
LWPOLYLINE
  5
9DB
330
1E
100
AcDbEntity
  8
G8010030
 62
     0
100
AcDbPolyline
 90
        2
 70
     0
 43
0.0
 10
493024.05
 20
99501.3
 10
493005.8
 20
99519.85
  0
LWPOLYLINE
  5
9DF
330
1E
100
AcDbEntity
  8
G8010030
 62
     0
100
AcDbPolyline
 90
        7
 70
     0
 43
0.0
 10
493032.66
 20
99623.24
 10
493033.5
 20
99622.35
 10
493043.8
 20
99611.55
 10
493044.9
 20
99610.35
 10
493050.1
 20
99604.75
 10
493052.35
 20
99602.35
 10
493054.8
 20
99599.75
  0
LWPOLYLINE
  5
9E8
330
1E
100
AcDbEntity
  8
G8010030
 62
     0
100
AcDbPolyline
 90
        6
 70
     0
 43
0.0
 10
493077.84
 20
99623.24
 10
493065.05
 20
99610.25
 10
493064.0
 20
99609.15
 10
493054.8
 20
99599.75
 10
493062.9
 20
99590.95
 10
493065.1
 20
99588.65
  0
LWPOLYLINE
  5
9F0
330
1E
100
AcDbEntity
  8
G8010030
 62
     0
100
AcDbPolyline
 90
        2
 70
     0
 43
0.0
 10
493068.85
 20
99584.75
 10
493078.15
 20
99575.1
  0
LWPOLYLINE
  5
9F4
330
1E
100
AcDbEntity
  8
G8010030
 62
     0
100
AcDbPolyline
 90
        3
 70
     0
 43
0.0
 10
493064.0
 20
99609.15
 10
493084.7
 20
99591.6
 10
493087.9
 20
99588.65
  0
LWPOLYLINE
  5
9F9
330
1E
100
AcDbEntity
  8
G8010030
 62
     0
100
AcDbPolyline
 90
        4
 70
     0
 43
0.0
 10
493082.8
 20
99609.4
 10
493080.55
 20
99611.4
 10
493077.95
 20
99608.65
 10
493079.6
 20
99607.2
  0
LWPOLYLINE
  5
9FF
330
1E
100
AcDbEntity
  8
G8010030
 62
     0
100
AcDbPolyline
 90
        5
 70
     0
 43
0.0
 10
493050.1
 20
99604.75
 10
493049.15
 20
99603.85
 10
493047.25
 20
99602.05
 10
493042.0
 20
99607.65
 10
493044.9
 20
99610.35
  0
LWPOLYLINE
  5
A06
330
1E
100
AcDbEntity
  8
G8010030
 62
     0
100
AcDbPolyline
 90
        3
 70
     0
 43
0.0
 10
493049.15
 20
99603.85
 10
493051.5
 20
99601.5
 10
493052.35
 20
99602.35
  0
LWPOLYLINE
  5
A0B
330
1E
100
AcDbEntity
  8
G8010030
 62
     0
100
AcDbPolyline
 90
       10
 70
     0
 43
0.0
 10
493000.0
 20
99603.35
 10
493002.95
 20
99600.3
 10
493004.75
 20
99598.5
 10
493006.6
 20
99596.7
 10
493007.15
 20
99596.15
 10
493007.2
 20
99596.05
 10
493012.4
 20
99590.65
 10
493021.3
 20
99581.65
 10
493029.95
 20
99572.7
 10
493034.95
 20
99567.45
  0
LWPOLYLINE
  5
A17
330
1E
100
AcDbEntity
  8
G8010030
 62
     0
100
AcDbPolyline
 90
        4
 70
     0
 43
0.0
 10
493034.95
 20
99567.45
 10
493031.6
 20
99564.15
 10
493035.35
 20
99560.15
 10
493038.8
 20
99563.4
  0
LWPOLYLINE
  5
A1D
330
1E
100
AcDbEntity
  8
G8010030
 62
     0
100
AcDbPolyline
 90
        3
 70
     0
 43
0.0
 10
493039.55
 20
99562.8
 10
493049.85
 20
99552.4
 10
493056.7
 20
99545.7
  0
LWPOLYLINE
  5
A22
330
1E
100
AcDbEntity
  8
G8010030
 62
     0
100
AcDbPolyline
 90
        5
 70
     0
 43
0.0
 10
493033.5
 20
99622.35
 10
493024.7
 20
99613.6
 10
493019.75
 20
99608.65
 10
493016.25
 20
99605.1
 10
493007.2
 20
99596.05
  0
LWPOLYLINE
  5
A29
330
1E
100
AcDbEntity
  8
G8010030
 62
     0
100
AcDbPolyline
 90
        2
 70
     0
 43
0.0
 10
493004.75
 20
99598.5
 10
493000.0
 20
99593.45
  0
LWPOLYLINE
  5
A2D
330
1E
100
AcDbEntity
  8
G8010030
 62
     0
100
AcDbPolyline
 90
        5
 70
     0
 43
0.0
 10
493002.9
 20
99594.5
 10
493000.55
 20
99592.3
 10
493002.45
 20
99590.35
 10
493004.75
 20
99592.55
 10
493002.9
 20
99594.5
  0
LWPOLYLINE
  5
A34
330
1E
100
AcDbEntity
  8
G8010030
 62
     0
100
AcDbPolyline
 90
        4
 70
     0
 43
0.0
 10
493006.6
 20
99596.7
 10
493008.85
 20
99598.95
 10
493005.25
 20
99602.6
 10
493002.95
 20
99600.3
  0
LWPOLYLINE
  5
A3A
330
1E
100
AcDbEntity
  8
G8010030
 62
     0
100
AcDbPolyline
 90
        5
 70
     0
 43
0.0
 10
493016.25
 20
99605.1
 10
493007.05
 20
99614.25
 10
493004.75
 20
99616.55
 10
493002.6
 20
99618.7
 10
493000.0
 20
99621.3
  0
LWPOLYLINE
  5
A41
330
1E
100
AcDbEntity
  8
G8010030
 62
     0
100
AcDbPolyline
 90
        2
 70
     0
 43
0.0
 10
493024.7
 20
99613.6
 10
493015.22
 20
99623.24
  0
LWPOLYLINE
  5
A45
330
1E
100
AcDbEntity
  8
G8010030
 62
     0
100
AcDbPolyline
 90
        4
 70
     0
 43
0.0
 10
493044.4
 20
99580.3
 10
493042.1
 20
99578.0
 10
493046.35
 20
99573.75
 10
493047.05
 20
99574.45
  0
LWPOLYLINE
  5
A4B
330
1E
100
AcDbEntity
  8
G8010030
 62
     0
100
AcDbPolyline
 90
        2
 70
     0
 43
0.0
 10
493043.15
 20
99501.15
 10
493044.5
 20
99500.0
  0
LWPOLYLINE
  5
A4F
330
1E
100
AcDbEntity
  8
G8010030
 62
     0
100
AcDbPolyline
 90
        5
 70
     0
 43
0.0
 10
493074.0
 20
99511.05
 10
493074.85
 20
99510.5
 10
493072.5
 20
99507.3
 10
493071.65
 20
99507.85
 10
493070.75
 20
99508.55
  0
LWPOLYLINE
  5
A56
330
1E
100
AcDbEntity
  8
G8010030
 62
     0
100
AcDbPolyline
 90
        4
 70
     0
 43
0.0
 10
493066.3
 20
99504.25
 10
493065.25
 20
99502.75
 10
493067.6
 20
99501.05
 10
493069.15
 20
99500.0
  0
LWPOLYLINE
  5
A5C
330
1E
100
AcDbEntity
  8
G8010030
 62
     0
100
AcDbPolyline
 90
        2
 70
     0
 43
0.0
 10
493068.7
 20
99502.5
 10
493067.6
 20
99501.05
  0
LWPOLYLINE
  5
A60
330
1E
100
AcDbEntity
  8
G8010030
 62
     0
100
AcDbPolyline
 90
        5
 70
     0
 43
0.0
 10
493060.55
 20
99509.25
 10
493067.0
 20
99504.35
 10
493068.7
 20
99506.6
 10
493062.25
 20
99511.5
 10
493060.55
 20
99509.25
  0
LWPOLYLINE
  5
A67
330
1E
100
AcDbEntity
  8
G8010030
 62
     0
100
AcDbPolyline
 90
        4
 70
     0
 43
0.0
 10
493076.45
 20
99531.4
 10
493075.45
 20
99532.15
 10
493073.05
 20
99528.9
 10
493074.1
 20
99528.1
  0
LWPOLYLINE
  5
A6D
330
1E
100
AcDbEntity
  8
G8010030
 62
     0
100
AcDbPolyline
 90
        4
 70
     0
 43
0.0
 10
493083.2
 20
99522.4
 10
493085.0
 20
99521.15
 10
493083.05
 20
99518.5
 10
493081.3
 20
99519.75
  0
LWPOLYLINE
  5
A73
330
1E
100
AcDbEntity
  8
G8010030
 62
     0
100
AcDbPolyline
 90
        3
 70
     0
 43
0.0
 10
493100.5
 20
99552.89
 10
493099.05
 20
99553.9
 10
493087.55
 20
99561.95
  0
LWPOLYLINE
  5
A78
330
1E
100
AcDbEntity
  8
G8010030
 62
     0
100
AcDbPolyline
 90
        3
 70
     0
 43
0.0
 10
493100.5
 20
99535.75
 10
493092.95
 20
99541.5
 10
493079.65
 20
99551.1
  0
LWPOLYLINE
  5
A7D
330
1E
100
AcDbEntity
  8
G8010030
 62
     0
100
AcDbPolyline
 90
        5
 70
     0
 43
0.0
 10
493100.5
 20
99516.75
 10
493093.45
 20
99521.95
 10
493083.0
 20
99529.6
 10
493079.15
 20
99532.35
 10
493070.5
 20
99538.65
  0
LWPOLYLINE
  5
A84
330
1E
100
AcDbEntity
  8
G8010030
 62
     0
100
AcDbPolyline
 90
        3
 70
     0
 43
0.0
 10
493097.85
 20
99500.0
 10
493071.4
 20
99519.35
 10
493061.55
 20
99526.5
  0
LWPOLYLINE
  5
A89
330
1E
100
AcDbEntity
  8
G8010030
 62
     0
100
AcDbPolyline
 90
        3
 70
     0
 43
0.0
 10
493089.5
 20
99535.15
 10
493086.4
 20
99530.95
 10
493084.7
 20
99532.15
  0
LWPOLYLINE
  5
A8E
330
1E
100
AcDbEntity
  8
G8010030
 62
     0
100
AcDbPolyline
 90
        2
 70
     0
 43
0.0
 10
493084.7
 20
99532.15
 10
493083.0
 20
99529.6
  0
LWPOLYLINE
  5
A92
330
1E
100
AcDbEntity
  8
G8010030
 62
     0
100
AcDbPolyline
 90
        2
 70
     0
 43
0.0
 10
493080.95
 20
99534.8
 10
493079.15
 20
99532.35
  0
LWPOLYLINE
  5
A96
330
1E
100
AcDbEntity
  8
G8010030
 62
     0
100
AcDbPolyline
 90
        4
 70
     0
 43
0.0
 10
493095.2
 20
99545.6
 10
493093.9
 20
99543.9
 10
493097.05
 20
99541.6
 10
493098.3
 20
99543.35
  0
LWPOLYLINE
  5
A9C
330
1E
100
AcDbEntity
  8
G8010030
 62
     0
100
AcDbPolyline
 90
        2
 70
     0
 43
0.0
 10
493100.5
 20
99571.97
 10
493096.75
 20
99574.55
  0
LWPOLYLINE
  5
AA0
330
1E
100
AcDbEntity
  8
G8010030
 62
     0
100
AcDbPolyline
 90
        3
 70
     0
 43
0.0
 10
493002.18
 20
99623.24
 10
493002.0
 20
99623.05
 10
493002.6
 20
99622.5
  0
LWPOLYLINE
  5
AA5
330
1E
100
AcDbEntity
  8
G8010030
 62
     0
100
AcDbPolyline
 90
        2
 70
     0
 43
0.0
 10
493003.5
 20
99619.65
 10
493002.6
 20
99618.7
  0
LWPOLYLINE
  5
AA9
330
1E
100
AcDbEntity
  8
G8010030
 62
     0
100
AcDbPolyline
 90
        3
 70
     0
 43
0.0
 10
493005.7
 20
99617.5
 10
493004.75
 20
99616.55
 10
493003.55
 20
99615.3
  0
LWPOLYLINE
  5
AAE
330
1E
100
AcDbEntity
  8
G8010030
 62
     0
100
AcDbPolyline
 90
        2
 70
     0
 43
0.0
 10
493007.05
 20
99614.25
 10
493005.85
 20
99613.0
  0
LWPOLYLINE
  5
AB2
330
1E
100
AcDbEntity
  8
G8010030
 62
     0
100
AcDbPolyline
 90
        5
 70
     0
 43
0.0
 10
493070.25
 20
99614.2
 10
493073.75
 20
99617.75
 10
493075.75
 20
99615.75
 10
493072.25
 20
99612.25
 10
493070.25
 20
99614.2
  0
LWPOLYLINE
  5
AB9
330
1E
100
AcDbEntity
  8
G8010030
 62
     0
100
AcDbPolyline
 90
        5
 70
     0
 43
0.0
 10
493072.2
 20
99500.0
 10
493068.7
 20
99502.5
 10
493066.3
 20
99504.25
 10
493059.75
 20
99508.95
 10
493052.65
 20
99514.3
  0
LWPOLYLINE
  5
AC0
330
1E
100
AcDbEntity
  8
G8010030
 62
     0
100
AcDbPolyline
 90
        2
 70
     0
 43
0.0
 10
493043.15
 20
99501.15
 10
493042.25
 20
99500.0
  0
LWPOLYLINE
  5
AC4
330
1E
100
AcDbEntity
  8
G8010030
 62
     0
100
AcDbPolyline
 90
        4
 70
     0
 43
0.0
 10
493052.65
 20
99514.3
 10
493048.85
 20
99509.1
 10
493043.4
 20
99501.45
 10
493043.15
 20
99501.15
  0
LWPOLYLINE
  5
ACA
330
1E
100
AcDbEntity
  8
G8010030
 62
     0
100
AcDbPolyline
 90
        3
 70
     0
 43
0.0
 10
493061.55
 20
99526.5
 10
493056.75
 20
99519.95
 10
493052.65
 20
99514.3
  0
LWPOLYLINE
  5
ACF
330
1E
100
AcDbEntity
  8
G8010030
 62
     0
100
AcDbPolyline
 90
        3
 70
     0
 43
0.0
 10
493070.5
 20
99538.65
 10
493065.0
 20
99531.2
 10
493061.55
 20
99526.5
  0
LWPOLYLINE
  5
AD4
330
1E
100
AcDbEntity
  8
G8010030
 62
     0
100
AcDbPolyline
 90
        3
 70
     0
 43
0.0
 10
493079.65
 20
99551.1
 10
493073.3
 20
99542.45
 10
493070.5
 20
99538.65
  0
LWPOLYLINE
  5
AD9
330
1E
100
AcDbEntity
  8
G8010030
 62
     0
100
AcDbPolyline
 90
        3
 70
     0
 43
0.0
 10
493087.55
 20
99561.95
 10
493082.25
 20
99554.7
 10
493079.65
 20
99551.1
  0
LWPOLYLINE
  5
ADE
330
1E
100
AcDbEntity
  8
G8010030
 62
     0
100
AcDbPolyline
 90
        3
 70
     0
 43
0.0
 10
493096.75
 20
99574.55
 10
493090.85
 20
99566.45
 10
493087.55
 20
99561.95
  0
LWPOLYLINE
  5
AE3
330
1E
100
AcDbEntity
  8
G8010030
 62
     0
100
AcDbPolyline
 90
        2
 70
     0
 43
0.0
 10
493100.5
 20
99622.46
 10
493099.74
 20
99623.24
  0
LWPOLYLINE
  5
AE7
330
1E
100
AcDbEntity
  8
G8010030
 62
     0
100
AcDbPolyline
 90
        4
 70
     0
 43
0.0
 10
493100.5
 20
99579.64
 10
493099.05
 20
99577.7
 10
493098.75
 20
99577.3
 10
493096.75
 20
99574.55
  0
LWPOLYLINE
  5
AED
330
1E
100
AcDbEntity
  8
G8010032
 62
     0
100
AcDbPolyline
 90
       51
 70
     0
 43
0.0
 10
492968.4
 20
99500.0
 10
492968.95
 20
99499.0
 10
492969.25
 20
99498.65
 10
492969.55
 20
99498.25
 10
492970.25
 20
99497.55
 10
492970.65
 20
99497.2
 10
492971.0
 20
99496.9
 10
492971.15
 20
99496.75
 10
492971.55
 20
99496.4
 10
492972.0
 20
99496.05
 10
492972.2
 20
99495.95
 10
492972.35
 20
99495.85
 10
492972.55
 20
99495.75
 10
492972.7
 20
99495.65
 10
492972.9
 20
99495.6
 10
492973.05
 20
99495.5
 10
492973.45
 20
99495.4
 10
492973.6
 20
99495.35
 10
492973.8
 20
99495.3
 10
492975.8
 20
99494.6
 10
492977.1
 20
99494.05
 10
492977.45
 20
99493.9
 10
492977.75
 20
99493.7
 10
492978.45
 20
99493.2
 10
492978.75
 20
99492.95
 10
492979.05
 20
99492.75
 10
492979.35
 20
99492.45
 10
492979.5
 20
99492.25
 10
492979.65
 20
99492.1
 10
492979.8
 20
99491.9
 10
492979.9
 20
99491.8
 10
492980.1
 20
99491.5
 10
492980.15
 20
99491.35
 10
492980.25
 20
99491.2
 10
492980.3
 20
99491.05
 10
492980.4
 20
99490.9
 10
492980.45
 20
99490.7
 10
492981.45
 20
99488.7
 10
492982.75
 20
99485.75
 10
492983.85
 20
99483.15
 10
492984.5
 20
99482.05
 10
492984.95
 20
99481.3
 10
492985.6
 20
99480.25
 10
492986.3
 20
99479.15
 10
492986.5
 20
99478.85
 10
492987.1
 20
99478.1
 10
492987.65
 20
99477.35
 10
492988.2
 20
99476.65
 10
492990.6
 20
99474.3
 10
492994.65
 20
99470.55
 10
492998.95
 20
99466.75
  0
LWPOLYLINE
  5
B22
330
1E
100
AcDbEntity
  8
G8010032
 62
     0
100
AcDbPolyline
 90
        2
 70
     0
 43
0.0
 10
492998.95
 20
99466.75
 10
493000.0
 20
99468.3
  0
LWPOLYLINE
  5
B26
330
1E
100
AcDbEntity
  8
G8010032
 62
     0
100
AcDbPolyline
 90
        3
 70
     0
 43
0.0
 10
492994.42
 20
99460.53
 10
492996.8
 20
99464.0
 10
492991.45
 20
99468.95
  0
LWPOLYLINE
  5
B2B
330
1E
100
AcDbEntity
  8
G8010032
 62
     0
100
AcDbPolyline
 90
       38
 70
     0
 43
0.0
 10
492985.4
 20
99474.35
 10
492983.3
 20
99477.25
 10
492981.5
 20
99479.9
 10
492980.15
 20
99481.8
 10
492979.5
 20
99483.35
 10
492978.8
 20
99484.8
 10
492978.1
 20
99486.4
 10
492977.65
 20
99487.75
 10
492977.6
 20
99487.95
 10
492977.55
 20
99488.1
 10
492977.45
 20
99488.3
 10
492977.4
 20
99488.45
 10
492977.35
 20
99488.65
 10
492977.15
 20
99488.95
 10
492976.9
 20
99489.45
 10
492976.75
 20
99489.6
 10
492976.65
 20
99489.75
 10
492976.0
 20
99490.4
 10
492975.85
 20
99490.5
 10
492975.65
 20
99490.7
 10
492975.45
 20
99490.8
 10
492975.3
 20
99490.9
 10
492975.1
 20
99491.0
 10
492974.95
 20
99491.1
 10
492974.75
 20
99491.2
 10
492974.55
 20
99491.25
 10
492974.4
 20
99491.35
 10
492974.25
 20
99491.4
 10
492973.75
 20
99491.6
 10
492973.5
 20
99491.65
 10
492973.25
 20
99491.75
 10
492972.75
 20
99491.85
 10
492969.3
 20
99492.6
 10
492966.7
 20
99493.1
 10
492965.35
 20
99492.6
 10
492959.45
 20
99490.3
 10
492950.25
 20
99498.85
 10
492951.45
 20
99500.0
  0
LWPOLYLINE
  5
B53
330
1E
100
AcDbEntity
  8
G8010032
 62
     0
100
AcDbPolyline
 90
        2
 70
     0
 43
0.0
 10
492969.3
 20
99492.6
 10
492958.55
 20
99488.4
  0
LWPOLYLINE
  5
B57
330
1E
100
AcDbEntity
  8
G8010032
 62
     0
100
AcDbPolyline
 90
        2
 70
     0
 43
0.0
 10
492953.75
 20
99492.75
 10
492946.2
 20
99500.0
  0
LWPOLYLINE
  5
B5B
330
1E
100
AcDbEntity
  8
G8010032
 62
     0
100
AcDbPolyline
 90
        3
 70
     0
 43
0.0
 10
492949.6
 20
99500.0
 10
492949.3
 20
99499.7
 10
492949.05
 20
99500.0
  0
LWPOLYLINE
  5
B60
330
1E
100
AcDbEntity
  8
G8010032
 62
     0
100
AcDbPolyline
 90
        2
 70
     0
 43
0.0
 10
492945.45
 20
99507.7
 10
492947.65
 20
99505.5
  0
LWPOLYLINE
  5
B64
330
1E
100
AcDbEntity
  8
G8010032
 62
     0
100
AcDbPolyline
 90
        2
 70
     0
 43
0.0
 10
492941.95
 20
99504.2
 10
492946.2
 20
99500.0
  0
LWPOLYLINE
  5
B68
330
1E
100
AcDbEntity
  8
G8010032
 62
     0
100
AcDbPolyline
 90
        2
 70
     0
 43
0.0
 10
492951.45
 20
99500.0
 10
492953.75
 20
99502.25
  0
LWPOLYLINE
  5
B6C
330
1E
100
AcDbEntity
  8
G8010032
 62
     0
100
AcDbPolyline
 90
        7
 70
     0
 43
0.0
 10
492954.45
 20
99507.85
 10
492959.75
 20
99513.2
 10
492963.4
 20
99509.65
 10
492968.0
 20
99514.3
 10
492974.2
 20
99508.25
 10
492969.8
 20
99503.75
 10
492969.65
 20
99503.4
  0
LWPOLYLINE
  5
B75
330
1E
100
AcDbEntity
  8
G8010032
 62
     0
100
AcDbPolyline
 90
        3
 70
     0
 43
0.0
 10
492968.05
 20
99501.75
 10
492968.05
 20
99501.0
 10
492968.4
 20
99500.0
  0
LWPOLYLINE
  5
B7A
330
1E
100
AcDbEntity
  8
G8010032
 62
     0
100
AcDbPolyline
 90
       14
 70
     0
 43
0.0
 10
492983.25
 20
99516.0
 10
492983.65
 20
99516.7
 10
492984.1
 20
99517.35
 10
492984.75
 20
99518.05
 10
492985.55
 20
99518.7
 10
492986.35
 20
99519.2
 10
492987.15
 20
99519.6
 10
492987.85
 20
99519.8
 10
492988.55
 20
99519.9
 10
492989.2
 20
99519.95
 10
492989.9
 20
99519.9
 10
492996.05
 20
99513.6
 10
492993.65
 20
99511.25
 10
493000.0
 20
99504.6
  0
LWPOLYLINE
  5
B8A
330
1E
100
AcDbEntity
  8
G8010032
 62
     0
100
AcDbPolyline
 90
        3
 70
     0
 43
0.0
 10
492955.1
 20
99553.9
 10
492953.15
 20
99551.95
 10
492957.35
 20
99547.75
  0
LWPOLYLINE
  5
B8F
330
1E
100
AcDbEntity
  8
G8010032
 62
     0
100
AcDbPolyline
 90
        3
 70
     0
 43
0.0
 10
492902.85
 20
99583.5
 10
492906.6
 20
99579.55
 10
492904.8
 20
99577.8
  0
LWPOLYLINE
  5
B94
330
1E
100
AcDbEntity
  8
G8010032
 62
     0
100
AcDbPolyline
 90
        4
 70
     0
 43
0.0
 10
492927.55
 20
99525.85
 10
492929.8
 20
99528.15
 10
492933.75
 20
99524.3
 10
492931.5
 20
99521.9
  0
LWPOLYLINE
  5
B9A
330
1E
100
AcDbEntity
  8
G8010032
 62
     0
100
AcDbPolyline
 90
        3
 70
     0
 43
0.0
 10
492912.3
 20
99623.24
 10
492915.6
 20
99620.6
 10
492919.75
 20
99616.95
  0
LWPOLYLINE
  5
B9F
330
1E
100
AcDbEntity
  8
G8010032
 62
     0
100
AcDbPolyline
 90
        6
 70
     0
 43
0.0
 10
492899.88
 20
99593.45
 10
492901.55
 20
99595.1
 10
492911.4
 20
99604.75
 10
492920.3
 20
99613.45
 10
492929.7
 20
99622.3
 10
492930.73
 20
99623.24
  0
LWPOLYLINE
  5
BA7
330
1E
100
AcDbEntity
  8
G8010032
 62
     0
100
AcDbPolyline
 90
        6
 70
     0
 43
0.0
 10
492928.09
 20
99623.24
 10
492923.25
 20
99618.65
 10
492915.85
 20
99611.4
 10
492906.75
 20
99602.65
 10
492902.2
 20
99598.2
 10
492899.88
 20
99595.88
  0
LWPOLYLINE
  5
BAF
330
1E
100
AcDbEntity
  8
G8010032
 62
     0
100
AcDbPolyline
 90
        3
 70
     0
 43
0.0
 10
492946.4
 20
99504.25
 10
492945.7
 20
99503.35
 10
492949.05
 20
99500.0
  0
LWPOLYLINE
  5
BB4
330
1E
100
AcDbEntity
  8
G8010032
 62
     0
100
AcDbPolyline
 90
        2
 70
     0
 43
0.0
 10
492950.15
 20
99500.5
 10
492949.6
 20
99500.0
  0
LWPOLYLINE
  5
BB8
330
1E
100
AcDbEntity
  8
G8010032
 62
     0
100
AcDbPolyline
 90
        3
 70
     0
 43
0.0
 10
493060.1
 20
99498.45
 10
493058.3
 20
99496.2
 10
493057.4
 20
99496.85
  0
LWPOLYLINE
  5
BBD
330
1E
100
AcDbEntity
  8
G8010032
 62
     0
100
AcDbPolyline
 90
        6
 70
     0
 43
0.0
 10
493015.5
 20
99489.55
 10
493010.8
 20
99493.6
 10
493008.0
 20
99496.05
 10
493006.35
 20
99497.65
 10
493004.85
 20
99499.2
 10
493004.35
 20
99500.0
  0
LWPOLYLINE
  5
BC5
330
1E
100
AcDbEntity
  8
G8010032
 62
     0
100
AcDbPolyline
 90
        2
 70
     0
 43
0.0
 10
493002.35
 20
99471.75
 10
493000.0
 20
99468.3
  0
LWPOLYLINE
  5
BC9
330
1E
100
AcDbEntity
  8
G8010032
 62
     0
100
AcDbPolyline
 90
        3
 70
     0
 43
0.0
 10
493046.95
 20
99486.1
 10
493045.8
 20
99486.9
 10
493046.65
 20
99488.0
  0
LWPOLYLINE
  5
BCE
330
1E
100
AcDbEntity
  8
G8010032
 62
     0
100
AcDbPolyline
 90
        3
 70
     0
 43
0.0
 10
493056.1
 20
99484.25
 10
493053.85
 20
99481.1
 10
493052.4
 20
99482.1
  0
LWPOLYLINE
  5
BD3
330
1E
100
AcDbEntity
  8
G8010032
 62
     0
100
AcDbPolyline
 90
        2
 70
     0
 43
0.0
 10
493013.17
 20
99460.53
 10
493024.4
 20
99475.75
  0
LWPOLYLINE
  5
BD7
330
1E
100
AcDbEntity
  8
G8010032
 62
     0
100
AcDbPolyline
 90
       49
 70
     0
 43
0.0
 10
493021.15
 20
99547.95
 10
493018.65
 20
99545.45
 10
493022.05
 20
99541.95
 10
493022.75
 20
99541.25
 10
493023.2
 20
99540.95
 10
493023.6
 20
99540.65
 10
493024.05
 20
99540.4
 10
493024.2
 20
99540.3
 10
493024.85
 20
99539.95
 10
493025.55
 20
99539.65
 10
493025.75
 20
99539.55
 10
493027.05
 20
99539.0
 10
493027.15
 20
99538.95
 10
493027.95
 20
99538.7
 10
493028.75
 20
99538.5
 10
493029.0
 20
99538.45
 10
493030.45
 20
99538.1
 10
493031.5
 20
99537.8
 10
493031.95
 20
99537.75
 10
493032.8
 20
99537.75
 10
493033.85
 20
99537.6
 10
493034.9
 20
99542.3
 10
493034.95
 20
99542.55
 10
493038.1
 20
99545.45
 10
493038.55
 20
99545.8
 10
493039.0
 20
99546.2
 10
493039.5
 20
99546.7
 10
493039.85
 20
99547.15
 10
493040.0
 20
99547.4
 10
493040.2
 20
99547.7
 10
493040.3
 20
99548.0
 10
493040.45
 20
99548.35
 10
493040.5
 20
99548.65
 10
493040.6
 20
99549.0
 10
493040.6
 20
99549.7
 10
493040.4
 20
99551.1
 10
493040.3
 20
99551.9
 10
493040.1
 20
99552.65
 10
493040.05
 20
99553.0
 10
493039.8
 20
99553.75
 10
493039.5
 20
99554.45
 10
493039.25
 20
99555.05
 10
493038.85
 20
99555.8
 10
493038.45
 20
99556.45
 10
493037.35
 20
99558.1
 10
493036.9
 20
99558.7
 10
493036.4
 20
99559.25
 10
493036.05
 20
99559.6
 10
493035.35
 20
99560.15
  0
LWPOLYLINE
  5
C0A
330
1E
100
AcDbEntity
  8
G8010032
 62
     0
100
AcDbPolyline
 90
        2
 70
     0
 43
0.0
 10
493004.35
 20
99500.0
 10
493000.0
 20
99504.6
  0
LWPOLYLINE
  5
C0E
330
1E
100
AcDbEntity
  8
G8010032
 62
     0
100
AcDbPolyline
 90
        4
 70
     0
 43
0.0
 10
493062.15
 20
99619.65
 10
493064.0
 20
99617.75
 10
493064.5
 20
99617.3
 10
493066.05
 20
99618.7
  0
LWPOLYLINE
  5
C14
330
1E
100
AcDbEntity
  8
G8010032
 62
     0
100
AcDbPolyline
 90
        3
 70
     0
 43
0.0
 10
493009.7
 20
99542.55
 10
493011.55
 20
99544.4
 10
493009.7
 20
99546.25
  0
LWPOLYLINE
  5
C19
330
1E
100
AcDbEntity
  8
G8010032
 62
     0
100
AcDbPolyline
 90
        2
 70
     0
 43
0.0
 10
493050.8
 20
99586.7
 10
493047.95
 20
99583.85
  0
LWPOLYLINE
  5
C1D
330
1E
100
AcDbEntity
  8
G8010032
 62
     0
100
AcDbPolyline
 90
        2
 70
     0
 43
0.0
 10
493074.0
 20
99511.05
 10
493071.65
 20
99507.85
  0
LWPOLYLINE
  5
C21
330
1E
100
AcDbEntity
  8
G8010032
 62
     0
100
AcDbPolyline
 90
        3
 70
     0
 43
0.0
 10
493074.2
 20
99526.4
 10
493073.35
 20
99525.05
 10
493074.6
 20
99524.25
  0
LWPOLYLINE
  5
C26
330
1E
100
AcDbEntity
  8
G8010032
 62
     0
100
AcDbPolyline
 90
        4
 70
     0
 43
0.0
 10
493068.3
 20
99520.0
 10
493067.5
 20
99520.6
 10
493062.75
 20
99514.65
 10
493063.7
 20
99513.95
  0
LWPOLYLINE
  5
C2C
330
1E
100
AcDbEntity
  8
G8010032
 62
     0
100
AcDbPolyline
 90
       32
 70
     0
 43
0.0
 10
493049.7
 20
99536.05
 10
493048.95
 20
99536.85
 10
493048.45
 20
99537.4
 10
493047.75
 20
99538.15
 10
493047.1
 20
99539.0
 10
493046.65
 20
99539.65
 10
493046.2
 20
99540.45
 10
493045.4
 20
99542.05
 10
493045.35
 20
99542.2
 10
493044.85
 20
99543.8
 10
493044.7
 20
99544.5
 10
493044.55
 20
99545.3
 10
493044.45
 20
99546.1
 10
493044.45
 20
99546.25
 10
493044.2
 20
99548.35
 10
493044.05
 20
99549.85
 10
493044.0
 20
99550.75
 10
493044.0
 20
99551.45
 10
493043.95
 20
99552.15
 10
493043.9
 20
99552.55
 10
493043.8
 20
99553.2
 10
493043.65
 20
99553.85
 10
493043.5
 20
99554.55
 10
493042.85
 20
99556.4
 10
493042.7
 20
99556.7
 10
493042.25
 20
99557.65
 10
493041.75
 20
99558.6
 10
493041.55
 20
99558.95
 10
493040.6
 20
99560.7
 10
493039.85
 20
99561.85
 10
493039.25
 20
99562.85
 10
493038.8
 20
99563.4
  0
LWPOLYLINE
  5
C4E
330
1E
100
AcDbEntity
  8
G8010032
 62
     0
100
AcDbPolyline
 90
       45
 70
     0
 43
0.0
 10
493047.0
 20
99532.4
 10
493046.5
 20
99532.6
 10
493046.05
 20
99532.85
 10
493045.05
 20
99533.25
 10
493044.5
 20
99533.4
 10
493043.7
 20
99533.4
 10
493043.5
 20
99533.35
 10
493043.35
 20
99533.25
 10
493043.15
 20
99533.2
 10
493043.0
 20
99533.1
 10
493042.9
 20
99532.95
 10
493042.6
 20
99532.75
 10
493042.5
 20
99532.65
 10
493042.4
 20
99532.5
 10
493042.25
 20
99532.3
 10
493042.2
 20
99532.15
 10
493042.1
 20
99531.95
 10
493042.05
 20
99531.75
 10
493041.35
 20
99530.3
 10
493039.55
 20
99526.65
 10
493035.35
 20
99528.9
 10
493037.75
 20
99533.5
 10
493037.45
 20
99533.6
 10
493037.05
 20
99533.65
 10
493035.95
 20
99533.7
 10
493034.0
 20
99533.8
 10
493031.65
 20
99533.9
 10
493028.7
 20
99534.15
 10
493026.45
 20
99534.45
 10
493026.0
 20
99534.55
 10
493025.1
 20
99534.65
 10
493024.65
 20
99534.75
 10
493024.3
 20
99534.8
 10
493023.9
 20
99534.95
 10
493023.45
 20
99535.15
 10
493023.05
 20
99535.35
 10
493022.25
 20
99535.85
 10
493022.0
 20
99536.1
 10
493021.6
 20
99536.4
 10
493021.3
 20
99536.75
 10
493020.95
 20
99537.15
 10
493020.85
 20
99537.3
 10
493017.2
 20
99541.1
 10
493015.7
 20
99542.55
 10
493012.7
 20
99539.55
  0
LWPOLYLINE
  5
C7D
330
1E
100
AcDbEntity
  8
G8010098
 62
     0
100
AcDbPolyline
 90
        3
 70
     0
 43
0.0
 10
492983.54
 20
99623.24
 10
492904.0
 20
99543.7
 10
492899.88
 20
99539.62
  0
LWPOLYLINE
  5
C82
330
1E
100
AcDbEntity
  8
G8010098
 62
     0
100
AcDbPolyline
 90
        4
 70
     0
 43
0.0
 10
493004.18
 20
99460.53
 10
493011.4
 20
99470.25
 10
493026.05
 20
99490.45
 10
493032.85
 20
99500.0
  0
LWPOLYLINE
  5
C88
330
1E
100
AcDbEntity
  8
G8010098
 62
     0
100
AcDbPolyline
 90
        6
 70
     0
 43
0.0
 10
493100.5
 20
99593.23
 10
493088.9
 20
99576.95
 10
493068.65
 20
99548.9
 10
493050.8
 20
99524.45
 10
493036.55
 20
99505.35
 10
493032.85
 20
99500.0
  0
LWPOLYLINE
  5
C90
330
1E
100
AcDbEntity
  8
G8010098
 62
     0
100
AcDbPolyline
 90
        9
 70
     0
 43
0.0
 10
493100.5
 20
99602.05
 10
493100.4
 20
99602.3
 10
493100.3
 20
99602.8
 10
493100.2
 20
99603.35
 10
493100.1
 20
99603.85
 10
493100.1
 20
99604.4
 10
493100.15
 20
99605.35
 10
493100.25
 20
99605.9
 10
493100.5
 20
99606.73
  0
LWPOLYLINE
  5
C9B
330
1E
100
AcDbEntity
  8
G8010098
 62
     0
100
AcDbPolyline
 90
        2
 70
     0
 43
0.0
 10
493100.5
 20
99612.12
 10
493089.25
 20
99623.24
  0
INSERT
  5
C9F
330
1E
100
AcDbEntity
  8
G8010321
 62
     0
100
AcDbBlockReference
  2
BUILDSED
 10
492947.0
 20
99467.95
 30
0.0
 41
0.13
 42
0.13
  0
INSERT
  5
CA0
330
1E
100
AcDbEntity
  8
G8010321
 62
     0
100
AcDbBlockReference
  2
BUILDSED
 10
492996.9
 20
99486.75
 30
0.0
 41
0.13
 42
0.13
  0
INSERT
  5
CA1
330
1E
100
AcDbEntity
  8
G8010321
 62
     0
100
AcDbBlockReference
  2
BUILDSED
 10
492972.3
 20
99469.35
 30
0.0
 41
0.13
 42
0.13
  0
INSERT
  5
CA2
330
1E
100
AcDbEntity
  8
G8010321
 62
     0
100
AcDbBlockReference
  2
BUILDSED
 10
492971.35
 20
99499.9
 30
0.0
 41
0.13
 42
0.13
  0
INSERT
  5
CA3
330
1E
100
AcDbEntity
  8
G8010321
 62
     0
100
AcDbBlockReference
  2
BUILDSED
 10
492983.95
 20
99492.3
 30
0.0
 41
0.13
 42
0.13
  0
INSERT
  5
CA4
330
1E
100
AcDbEntity
  8
G8010321
 62
     0
100
AcDbBlockReference
  2
BUILDSED
 10
492998.95
 20
99482.55
 30
0.0
 41
0.13
 42
0.13
  0
INSERT
  5
CA5
330
1E
100
AcDbEntity
  8
G8010321
 62
     0
100
AcDbBlockReference
  2
BUILDSED
 10
492900.9
 20
99491.5
 30
0.0
 41
0.13
 42
0.13
  0
INSERT
  5
CA6
330
1E
100
AcDbEntity
  8
G8010321
 62
     0
100
AcDbBlockReference
  2
BUILDSED
 10
492955.1
 20
99539.7
 30
0.0
 41
0.13
 42
0.13
  0
INSERT
  5
CA7
330
1E
100
AcDbEntity
  8
G8010321
 62
     0
100
AcDbBlockReference
  2
BUILDSED
 10
492978.3
 20
99527.45
 30
0.0
 41
0.13
 42
0.13
  0
INSERT
  5
CA8
330
1E
100
AcDbEntity
  8
G8010321
 62
     0
100
AcDbBlockReference
  2
BUILDSED
 10
492969.8
 20
99501.45
 30
0.0
 41
0.13
 42
0.13
  0
INSERT
  5
CA9
330
1E
100
AcDbEntity
  8
G8010321
 62
     0
100
AcDbBlockReference
  2
BUILDSED
 10
492947.1
 20
99507.1
 30
0.0
 41
0.13
 42
0.13
  0
INSERT
  5
CAA
330
1E
100
AcDbEntity
  8
G8010321
 62
     0
100
AcDbBlockReference
  2
BUILDSED
 10
492998.45
 20
99548.3
 30
0.0
 41
0.13
 42
0.13
  0
INSERT
  5
CAB
330
1E
100
AcDbEntity
  8
G8010321
 62
     0
100
AcDbBlockReference
  2
BUILDSED
 10
492998.3
 20
99537.85
 30
0.0
 41
0.13
 42
0.13
  0
INSERT
  5
CAC
330
1E
100
AcDbEntity
  8
G8010321
 62
     0
100
AcDbBlockReference
  2
BUILDSED
 10
492998.55
 20
99521.5
 30
0.0
 41
0.13
 42
0.13
  0
INSERT
  5
CAD
330
1E
100
AcDbEntity
  8
G8010321
 62
     0
100
AcDbBlockReference
  2
BUILDSED
 10
492999.35
 20
99513.7
 30
0.0
 41
0.13
 42
0.13
  0
INSERT
  5
CAE
330
1E
100
AcDbEntity
  8
G8010321
 62
     0
100
AcDbBlockReference
  2
BUILDSED
 10
492945.9
 20
99618.2
 30
0.0
 41
0.13
 42
0.13
  0
INSERT
  5
CAF
330
1E
100
AcDbEntity
  8
G8010321
 62
     0
100
AcDbBlockReference
  2
BUILDSED
 10
492935.95
 20
99608.1
 30
0.0
 41
0.13
 42
0.13
  0
INSERT
  5
CB0
330
1E
100
AcDbEntity
  8
G8010321
 62
     0
100
AcDbBlockReference
  2
BUILDSED
 10
492930.0
 20
99602.1
 30
0.0
 41
0.13
 42
0.13
  0
INSERT
  5
CB1
330
1E
100
AcDbEntity
  8
G8010321
 62
     0
100
AcDbBlockReference
  2
BUILDSED
 10
492921.2
 20
99593.25
 30
0.0
 41
0.13
 42
0.13
  0
INSERT
  5
CB2
330
1E
100
AcDbEntity
  8
G8010321
 62
     0
100
AcDbBlockReference
  2
BUILDSED
 10
492913.1
 20
99584.7
 30
0.0
 41
0.13
 42
0.13
  0
INSERT
  5
CB3
330
1E
100
AcDbEntity
  8
G8010321
 62
     0
100
AcDbBlockReference
  2
BUILDSED
 10
492903.6
 20
99575.7
 30
0.0
 41
0.13
 42
0.13
  0
INSERT
  5
CB4
330
1E
100
AcDbEntity
  8
G8010321
 62
     0
100
AcDbBlockReference
  2
BUILDSED
 10
492910.5
 20
99522.85
 30
0.0
 41
0.13
 42
0.13
  0
INSERT
  5
CB5
330
1E
100
AcDbEntity
  8
G8010321
 62
     0
100
AcDbBlockReference
  2
BUILDSED
 10
492917.2
 20
99526.65
 30
0.0
 41
0.13
 42
0.13
  0
INSERT
  5
CB6
330
1E
100
AcDbEntity
  8
G8010321
 62
     0
100
AcDbBlockReference
  2
BUILDSED
 10
492926.35
 20
99534.8
 30
0.0
 41
0.13
 42
0.13
  0
INSERT
  5
CB7
330
1E
100
AcDbEntity
  8
G8010321
 62
     0
100
AcDbBlockReference
  2
BUILDSED
 10
492935.15
 20
99543.05
 30
0.0
 41
0.13
 42
0.13
  0
INSERT
  5
CB8
330
1E
100
AcDbEntity
  8
G8010321
 62
     0
100
AcDbBlockReference
  2
BUILDSED
 10
492942.6
 20
99550.9
 30
0.0
 41
0.13
 42
0.13
  0
INSERT
  5
CB9
330
1E
100
AcDbEntity
  8
G8010321
 62
     0
100
AcDbBlockReference
  2
BUILDSED
 10
492956.15
 20
99563.2
 30
0.0
 41
0.13
 42
0.13
  0
INSERT
  5
CBA
330
1E
100
AcDbEntity
  8
G8010321
 62
     0
100
AcDbBlockReference
  2
BUILDSED
 10
492964.35
 20
99571.45
 30
0.0
 41
0.13
 42
0.13
  0
INSERT
  5
CBB
330
1E
100
AcDbEntity
  8
G8010321
 62
     0
100
AcDbBlockReference
  2
BUILDSED
 10
492972.6
 20
99579.6
 30
0.0
 41
0.13
 42
0.13
  0
INSERT
  5
CBC
330
1E
100
AcDbEntity
  8
G8010321
 62
     0
100
AcDbBlockReference
  2
BUILDSED
 10
492978.2
 20
99586.2
 30
0.0
 41
0.13
 42
0.13
  0
INSERT
  5
CBD
330
1E
100
AcDbEntity
  8
G8010321
 62
     0
100
AcDbBlockReference
  2
BUILDSED
 10
492986.4
 20
99594.2
 30
0.0
 41
0.13
 42
0.13
  0
INSERT
  5
CBE
330
1E
100
AcDbEntity
  8
G8010321
 62
     0
100
AcDbBlockReference
  2
BUILDSED
 10
492993.7
 20
99602.05
 30
0.0
 41
0.13
 42
0.13
  0
INSERT
  5
CBF
330
1E
100
AcDbEntity
  8
G8010321
 62
     0
100
AcDbBlockReference
  2
BUILDSED
 10
492998.05
 20
99612.25
 30
0.0
 41
0.13
 42
0.13
  0
INSERT
  5
CC0
330
1E
100
AcDbEntity
  8
G8010321
 62
     0
100
AcDbBlockReference
  2
BUILDSED
 10
492932.6
 20
99619.15
 30
0.0
 41
0.13
 42
0.13
  0
INSERT
  5
CC1
330
1E
100
AcDbEntity
  8
G8010321
 62
     0
100
AcDbBlockReference
  2
BUILDSED
 10
492918.3
 20
99605.95
 30
0.0
 41
0.13
 42
0.13
  0
INSERT
  5
CC2
330
1E
100
AcDbEntity
  8
G8010321
 62
     0
100
AcDbBlockReference
  2
BUILDSED
 10
492916.8
 20
99602.0
 30
0.0
 41
0.13
 42
0.13
  0
INSERT
  5
CC3
330
1E
100
AcDbEntity
  8
G8010321
 62
     0
100
AcDbBlockReference
  2
BUILDSED
 10
492916.15
 20
99595.65
 30
0.0
 41
0.13
 42
0.13
  0
INSERT
  5
CC4
330
1E
100
AcDbEntity
  8
G8010321
 62
     0
100
AcDbBlockReference
  2
BUILDSED
 10
492907.85
 20
99586.9
 30
0.0
 41
0.13
 42
0.13
  0
INSERT
  5
CC5
330
1E
100
AcDbEntity
  8
G8010321
 62
     0
100
AcDbBlockReference
  2
BUILDSED
 10
492901.65
 20
99588.15
 30
0.0
 41
0.13
 42
0.13
  0
INSERT
  5
CC6
330
1E
100
AcDbEntity
  8
G8010321
 62
     0
100
AcDbBlockReference
  2
BUILDSED
 10
492904.3
 20
99581.15
 30
0.0
 41
0.13
 42
0.13
  0
INSERT
  5
CC7
330
1E
100
AcDbEntity
  8
G8010321
 62
     0
100
AcDbBlockReference
  2
BUILDSED
 10
492901.35
 20
99516.5
 30
0.0
 41
0.13
 42
0.13
  0
INSERT
  5
CC8
330
1E
100
AcDbEntity
  8
G8010321
 62
     0
100
AcDbBlockReference
  2
BUILDSED
 10
492913.6
 20
99519.15
 30
0.0
 41
0.13
 42
0.13
  0
INSERT
  5
CC9
330
1E
100
AcDbEntity
  8
G8010321
 62
     0
100
AcDbBlockReference
  2
BUILDSED
 10
492925.85
 20
99524.5
 30
0.0
 41
0.13
 42
0.13
  0
INSERT
  5
CCA
330
1E
100
AcDbEntity
  8
G8010321
 62
     0
100
AcDbBlockReference
  2
BUILDSED
 10
492930.5
 20
99524.95
 30
0.0
 41
0.13
 42
0.13
  0
INSERT
  5
CCB
330
1E
100
AcDbEntity
  8
G8010321
 62
     0
100
AcDbBlockReference
  2
BUILDSED
 10
492938.9
 20
99533.1
 30
0.0
 41
0.13
 42
0.13
  0
INSERT
  5
CCC
330
1E
100
AcDbEntity
  8
G8010321
 62
     0
100
AcDbBlockReference
  2
BUILDSED
 10
492946.45
 20
99541.45
 30
0.0
 41
0.13
 42
0.13
  0
INSERT
  5
CCD
330
1E
100
AcDbEntity
  8
G8010321
 62
     0
100
AcDbBlockReference
  2
BUILDSED
 10
492956.25
 20
99551.0
 30
0.0
 41
0.13
 42
0.13
  0
INSERT
  5
CCE
330
1E
100
AcDbEntity
  8
G8010321
 62
     0
100
AcDbBlockReference
  2
BUILDSED
 10
492959.1
 20
99552.8
 30
0.0
 41
0.13
 42
0.13
  0
INSERT
  5
CCF
330
1E
100
AcDbEntity
  8
G8010321
 62
     0
100
AcDbBlockReference
  2
BUILDSED
 10
492974.1
 20
99571.65
 30
0.0
 41
0.13
 42
0.13
  0
INSERT
  5
CD0
330
1E
100
AcDbEntity
  8
G8010321
 62
     0
100
AcDbBlockReference
  2
BUILDSED
 10
492902.05
 20
99620.75
 30
0.0
 41
0.13
 42
0.13
  0
INSERT
  5
CD1
330
1E
100
AcDbEntity
  8
G8010321
 62
     0
100
AcDbBlockReference
  2
BUILDSED
 10
493001.25
 20
99488.15
 30
0.0
 41
0.13
 42
0.13
  0
INSERT
  5
CD2
330
1E
100
AcDbEntity
  8
G8010321
 62
     0
100
AcDbBlockReference
  2
BUILDSED
 10
493002.8
 20
99486.7
 30
0.0
 41
0.13
 42
0.13
  0
INSERT
  5
CD3
330
1E
100
AcDbEntity
  8
G8010321
 62
     0
100
AcDbBlockReference
  2
BUILDSED
 10
493056.8
 20
99498.9
 30
0.0
 41
0.13
 42
0.13
  0
INSERT
  5
CD4
330
1E
100
AcDbEntity
  8
G8010321
 62
     0
100
AcDbBlockReference
  2
BUILDSED
 10
493058.7
 20
99497.7
 30
0.0
 41
0.13
 42
0.13
  0
INSERT
  5
CD5
330
1E
100
AcDbEntity
  8
G8010321
 62
     0
100
AcDbBlockReference
  2
BUILDSED
 10
493071.0
 20
99499.55
 30
0.0
 41
0.13
 42
0.13
  0
INSERT
  5
CD6
330
1E
100
AcDbEntity
  8
G8010321
 62
     0
100
AcDbBlockReference
  2
BUILDSED
 10
493063.95
 20
99490.65
 30
0.0
 41
0.13
 42
0.13
  0
INSERT
  5
CD7
330
1E
100
AcDbEntity
  8
G8010321
 62
     0
100
AcDbBlockReference
  2
BUILDSED
 10
493061.1
 20
99489.3
 30
0.0
 41
0.13
 42
0.13
  0
INSERT
  5
CD8
330
1E
100
AcDbEntity
  8
G8010321
 62
     0
100
AcDbBlockReference
  2
BUILDSED
 10
493054.15
 20
99487.8
 30
0.0
 41
0.13
 42
0.13
  0
INSERT
  5
CD9
330
1E
100
AcDbEntity
  8
G8010321
 62
     0
100
AcDbBlockReference
  2
BUILDSED
 10
493054.3
 20
99483.15
 30
0.0
 41
0.13
 42
0.13
  0
INSERT
  5
CDA
330
1E
100
AcDbEntity
  8
G8010321
 62
     0
100
AcDbBlockReference
  2
BUILDSED
 10
493046.7
 20
99487.0
 30
0.0
 41
0.13
 42
0.13
  0
INSERT
  5
CDB
330
1E
100
AcDbEntity
  8
G8010321
 62
     0
100
AcDbBlockReference
  2
BUILDSED
 10
493047.8
 20
99481.3
 30
0.0
 41
0.13
 42
0.13
  0
INSERT
  5
CDC
330
1E
100
AcDbEntity
  8
G8010321
 62
     0
100
AcDbBlockReference
  2
BUILDSED
 10
493051.85
 20
99478.05
 30
0.0
 41
0.13
 42
0.13
  0
INSERT
  5
CDD
330
1E
100
AcDbEntity
  8
G8010321
 62
     0
100
AcDbBlockReference
  2
BUILDSED
 10
493051.3
 20
99473.95
 30
0.0
 41
0.13
 42
0.13
  0
INSERT
  5
CDE
330
1E
100
AcDbEntity
  8
G8010321
 62
     0
100
AcDbBlockReference
  2
BUILDSED
 10
493045.1
 20
99476.75
 30
0.0
 41
0.13
 42
0.13
  0
INSERT
  5
CDF
330
1E
100
AcDbEntity
  8
G8010321
 62
     0
100
AcDbBlockReference
  2
BUILDSED
 10
493097.3
 20
99468.0
 30
0.0
 41
0.13
 42
0.13
  0
INSERT
  5
CE0
330
1E
100
AcDbEntity
  8
G8010321
 62
     0
100
AcDbBlockReference
  2
BUILDSED
 10
493088.1
 20
99478.6
 30
0.0
 41
0.13
 42
0.13
  0
INSERT
  5
CE1
330
1E
100
AcDbEntity
  8
G8010321
 62
     0
100
AcDbBlockReference
  2
BUILDSED
 10
493031.1
 20
99467.9
 30
0.0
 41
0.13
 42
0.13
  0
INSERT
  5
CE2
330
1E
100
AcDbEntity
  8
G8010321
 62
     0
100
AcDbBlockReference
  2
BUILDSED
 10
493006.25
 20
99598.7
 30
0.0
 41
0.13
 42
0.13
  0
INSERT
  5
CE3
330
1E
100
AcDbEntity
  8
G8010321
 62
     0
100
AcDbBlockReference
  2
BUILDSED
 10
493001.3
 20
99610.1
 30
0.0
 41
0.13
 42
0.13
  0
INSERT
  5
CE4
330
1E
100
AcDbEntity
  8
G8010321
 62
     0
100
AcDbBlockReference
  2
BUILDSED
 10
493005.25
 20
99614.6
 30
0.0
 41
0.13
 42
0.13
  0
INSERT
  5
CE5
330
1E
100
AcDbEntity
  8
G8010321
 62
     0
100
AcDbBlockReference
  2
BUILDSED
 10
493004.15
 20
99617.9
 30
0.0
 41
0.13
 42
0.13
  0
INSERT
  5
CE6
330
1E
100
AcDbEntity
  8
G8010321
 62
     0
100
AcDbBlockReference
  2
BUILDSED
 10
493007.4
 20
99622.9
 30
0.0
 41
0.13
 42
0.13
  0
INSERT
  5
CE7
330
1E
100
AcDbEntity
  8
G8010321
 62
     0
100
AcDbBlockReference
  2
BUILDSED
 10
493064.25
 20
99619.3
 30
0.0
 41
0.13
 42
0.13
  0
INSERT
  5
CE8
330
1E
100
AcDbEntity
  8
G8010321
 62
     0
100
AcDbBlockReference
  2
BUILDSED
 10
493046.05
 20
99606.35
 30
0.0
 41
0.13
 42
0.13
  0
INSERT
  5
CE9
330
1E
100
AcDbEntity
  8
G8010321
 62
     0
100
AcDbBlockReference
  2
BUILDSED
 10
493050.8
 20
99603.2
 30
0.0
 41
0.13
 42
0.13
  0
INSERT
  5
CEA
330
1E
100
AcDbEntity
  8
G8010321
 62
     0
100
AcDbBlockReference
  2
BUILDSED
 10
493072.8
 20
99614.7
 30
0.0
 41
0.13
 42
0.13
  0
INSERT
  5
CEB
330
1E
100
AcDbEntity
  8
G8010321
 62
     0
100
AcDbBlockReference
  2
BUILDSED
 10
493080.5
 20
99608.85
 30
0.0
 41
0.13
 42
0.13
  0
INSERT
  5
CEC
330
1E
100
AcDbEntity
  8
G8010321
 62
     0
100
AcDbBlockReference
  2
BUILDSED
 10
493083.4
 20
99605.6
 30
0.0
 41
0.13
 42
0.13
  0
INSERT
  5
CED
330
1E
100
AcDbEntity
  8
G8010321
 62
     0
100
AcDbBlockReference
  2
BUILDSED
 10
493073.25
 20
99594.65
 30
0.0
 41
0.13
 42
0.13
  0
INSERT
  5
CEE
330
1E
100
AcDbEntity
  8
G8010321
 62
     0
100
AcDbBlockReference
  2
BUILDSED
 10
493057.05
 20
99582.1
 30
0.0
 41
0.13
 42
0.13
  0
INSERT
  5
CEF
330
1E
100
AcDbEntity
  8
G8010321
 62
     0
100
AcDbBlockReference
  2
BUILDSED
 10
493050.15
 20
99583.75
 30
0.0
 41
0.13
 42
0.13
  0
INSERT
  5
CF0
330
1E
100
AcDbEntity
  8
G8010321
 62
     0
100
AcDbBlockReference
  2
BUILDSED
 10
493045.15
 20
99576.9
 30
0.0
 41
0.13
 42
0.13
  0
INSERT
  5
CF1
330
1E
100
AcDbEntity
  8
G8010321
 62
     0
100
AcDbBlockReference
  2
BUILDSED
 10
493039.25
 20
99568.05
 30
0.0
 41
0.13
 42
0.13
  0
INSERT
  5
CF2
330
1E
100
AcDbEntity
  8
G8010321
 62
     0
100
AcDbBlockReference
  2
BUILDSED
 10
493035.25
 20
99563.7
 30
0.0
 41
0.13
 42
0.13
  0
INSERT
  5
CF3
330
1E
100
AcDbEntity
  8
G8010321
 62
     0
100
AcDbBlockReference
  2
BUILDSED
 10
493007.05
 20
99551.8
 30
0.0
 41
0.13
 42
0.13
  0
INSERT
  5
CF4
330
1E
100
AcDbEntity
  8
G8010321
 62
     0
100
AcDbBlockReference
  2
BUILDSED
 10
493009.5
 20
99544.1
 30
0.0
 41
0.13
 42
0.13
  0
INSERT
  5
CF5
330
1E
100
AcDbEntity
  8
G8010321
 62
     0
100
AcDbBlockReference
  2
BUILDSED
 10
493005.2
 20
99513.75
 30
0.0
 41
0.13
 42
0.13
  0
INSERT
  5
CF6
330
1E
100
AcDbEntity
  8
G8010321
 62
     0
100
AcDbBlockReference
  2
BUILDSED
 10
493060.65
 20
99501.8
 30
0.0
 41
0.13
 42
0.13
  0
INSERT
  5
CF7
330
1E
100
AcDbEntity
  8
G8010321
 62
     0
100
AcDbBlockReference
  2
BUILDSED
 10
493067.1
 20
99502.55
 30
0.0
 41
0.13
 42
0.13
  0
INSERT
  5
CF8
330
1E
100
AcDbEntity
  8
G8010321
 62
     0
100
AcDbBlockReference
  2
BUILDSED
 10
493069.15
 20
99500.95
 30
0.0
 41
0.13
 42
0.13
  0
INSERT
  5
CF9
330
1E
100
AcDbEntity
  8
G8010321
 62
     0
100
AcDbBlockReference
  2
BUILDSED
 10
493064.9
 20
99507.75
 30
0.0
 41
0.13
 42
0.13
  0
INSERT
  5
CFA
330
1E
100
AcDbEntity
  8
G8010321
 62
     0
100
AcDbBlockReference
  2
BUILDSED
 10
493071.0
 20
99513.55
 30
0.0
 41
0.13
 42
0.13
  0
INSERT
  5
CFB
330
1E
100
AcDbEntity
  8
G8010321
 62
     0
100
AcDbBlockReference
  2
BUILDSED
 10
493072.6
 20
99509.95
 30
0.0
 41
0.13
 42
0.13
  0
INSERT
  5
CFC
330
1E
100
AcDbEntity
  8
G8010321
 62
     0
100
AcDbBlockReference
  2
BUILDSED
 10
493073.25
 20
99509.3
 30
0.0
 41
0.13
 42
0.13
  0
INSERT
  5
CFD
330
1E
100
AcDbEntity
  8
G8010321
 62
     0
100
AcDbBlockReference
  2
BUILDSED
 10
493065.75
 20
99517.45
 30
0.0
 41
0.13
 42
0.13
  0
INSERT
  5
CFE
330
1E
100
AcDbEntity
  8
G8010321
 62
     0
100
AcDbBlockReference
  2
BUILDSED
 10
493079.95
 20
99525.3
 30
0.0
 41
0.13
 42
0.13
  0
INSERT
  5
CFF
330
1E
100
AcDbEntity
  8
G8010321
 62
     0
100
AcDbBlockReference
  2
BUILDSED
 10
493083.0
 20
99520.55
 30
0.0
 41
0.13
 42
0.13
  0
INSERT
  5
D00
330
1E
100
AcDbEntity
  8
G8010321
 62
     0
100
AcDbBlockReference
  2
BUILDSED
 10
493074.4
 20
99525.35
 30
0.0
 41
0.13
 42
0.13
  0
INSERT
  5
D01
330
1E
100
AcDbEntity
  8
G8010321
 62
     0
100
AcDbBlockReference
  2
BUILDSED
 10
493074.85
 20
99530.3
 30
0.0
 41
0.13
 42
0.13
  0
INSERT
  5
D02
330
1E
100
AcDbEntity
  8
G8010321
 62
     0
100
AcDbBlockReference
  2
BUILDSED
 10
493086.9
 20
99539.1
 30
0.0
 41
0.13
 42
0.13
  0
INSERT
  5
D03
330
1E
100
AcDbEntity
  8
G8010321
 62
     0
100
AcDbBlockReference
  2
BUILDSED
 10
493081.9
 20
99532.15
 30
0.0
 41
0.13
 42
0.13
  0
INSERT
  5
D04
330
1E
100
AcDbEntity
  8
G8010321
 62
     0
100
AcDbBlockReference
  2
BUILDSED
 10
493086.95
 20
99533.5
 30
0.0
 41
0.13
 42
0.13
  0
INSERT
  5
D05
330
1E
100
AcDbEntity
  8
G8010321
 62
     0
100
AcDbBlockReference
  2
BUILDSED
 10
493096.0
 20
99543.65
 30
0.0
 41
0.13
 42
0.13
  0
INSERT
  5
D06
330
1E
100
AcDbEntity
  8
G8010321
 62
     0
100
AcDbBlockReference
  2
BUILDSED
 10
493097.15
 20
99549.85
 30
0.0
 41
0.13
 42
0.13
  0
TEXT
  5
D07
330
1E
100
AcDbEntity
  8
G8011000
 62
     0
100
AcDbText
 10
492938.79
 20
99576.91
 30
0.0
 40
1.75
  1
PARKLANDS AVENUE
 50
45.20000000000001
100
AcDbText
  0
TEXT
  5
D08
330
1E
100
AcDbEntity
  8
G8011000
 62
     0
100
AcDbText
 10
493011.29
 20
99468.94
 30
0.0
 40
1.75
  1
VICTORIA DRIVE
 50
54.0
100
AcDbText
  0
TEXT
  5
D09
330
1E
100
AcDbEntity
  8
G8011005
 62
     0
100
AcDbText
 10
492930.26
 20
99511.25
 30
0.0
 40
2.75
  1
PEVENSEY WARD
100
AcDbText
  0
TEXT
  5
D0A
330
1E
100
AcDbEntity
  8
G8011005
 62
     0
100
AcDbText
 10
493073.03
 20
99511.25
 30
0.0
 40
2.75
  1
WEST SUSSEX COUNTY
100
AcDbText
  0
TEXT
  5
D0B
330
1E
100
AcDbEntity
  8
G8011005
 62
     0
100
AcDbText
 10
492988.75
 20
99535.35
 30
0.0
 40
2.75
  1
BERSTED ED
 50
89.9
100
AcDbText
  0
TEXT
  5
D0C
330
1E
100
AcDbEntity
  8
G8011006
 62
     0
100
AcDbText
 10
492938.13
 20
99475.35
 30
0.0
 40
1.75
  1
Bognor Regis
100
AcDbText
  0
TEXT
  5
D0D
330
1E
100
AcDbEntity
  8
G8011006
 62
     0
100
AcDbText
 10
492937.25
 20
99471.95
 30
0.0
 40
1.75
  1
Baptist Church
100
AcDbText
  0
TEXT
  5
D0E
330
1E
100
AcDbEntity
  8
G8011006
 62
     0
100
AcDbText
 10
492967.91
 20
99467.34
 30
0.0
 40
1.5
  1
73
 50
44.2
100
AcDbText
  0
TEXT
  5
D0F
330
1E
100
AcDbEntity
  8
G8011006
 62
     0
100
AcDbText
 10
492998.36
 20
99483.84
 30
0.0
 40
1.5
  1
77
 50
44.3
100
AcDbText
  0
TEXT
  5
D10
330
1E
100
AcDbEntity
  8
G8011006
 62
     0
100
AcDbText
 10
492942.55
 20
99506.45
 30
0.0
 40
1.5
  1
1 to 30
 50
44.4
100
AcDbText
  0
TEXT
  5
D11
330
1E
100
AcDbEntity
  8
G8011006
 62
     0
100
AcDbText
 10
492954.03
 20
99503.77
 30
0.0
 40
1.5
  1
75
 50
45.4
100
AcDbText
  0
TEXT
  5
D12
330
1E
100
AcDbEntity
  8
G8011006
 62
     0
100
AcDbText
 10
492992.02
 20
99605.12
 30
0.0
 40
1.5
  1
7
 50
225.0
100
AcDbText
  0
TEXT
  5
D13
330
1E
100
AcDbEntity
  8
G8011006
 62
     0
100
AcDbText
 10
492953.88
 20
99566.62
 30
0.0
 40
1.5
  1
17
 50
224.7
100
AcDbText
  0
TEXT
  5
D14
330
1E
100
AcDbEntity
  8
G8011006
 62
     0
100
AcDbText
 10
492923.27
 20
99589.53
 30
0.0
 40
1.5
  1
18
 50
44.7
100
AcDbText
  0
TEXT
  5
D15
330
1E
100
AcDbEntity
  8
G8011006
 62
     0
100
AcDbText
 10
492902.33
 20
99623.56
 30
0.0
 40
1.5
  1
15
 50
224.1
100
AcDbText
  0
TEXT
  5
D16
330
1E
100
AcDbEntity
  8
G8011006
 62
     0
100
AcDbText
 10
493049.14
 20
99491.64
 30
0.0
 40
1.5
  1
72
 50
233.5
100
AcDbText
  0
TEXT
  5
D17
330
1E
100
AcDbEntity
  8
G8011006
 62
     0
100
AcDbText
 10
493040.38
 20
99479.21
 30
0.0
 40
1.5
  1
70
 50
231.1
100
AcDbText
  0
TEXT
  5
D18
330
1E
100
AcDbEntity
  8
G8011006
 62
     0
100
AcDbText
 10
493029.15
 20
99466.3
 30
0.0
 40
1.5
  1
3
 50
231.1
100
AcDbText
  0
TEXT
  5
D19
330
1E
100
AcDbEntity
  8
G8011006
 62
     0
100
AcDbText
 10
493089.9
 20
99476.2
 30
0.0
 40
1.38
  1
Brackley
100
AcDbText
  0
TEXT
  5
D1A
330
1E
100
AcDbEntity
  8
G8011006
 62
     0
100
AcDbText
 10
493046.3
 20
99565.7
 30
0.0
 40
1.75
  1
Bognor Regis
100
AcDbText
  0
TEXT
  5
D1B
330
1E
100
AcDbEntity
  8
G8011006
 62
     0
100
AcDbText
 10
493044.93
 20
99562.25
 30
0.0
 40
1.75
  1
Nursery School
 50
0.3
100
AcDbText
  0
TEXT
  5
D1C
330
1E
100
AcDbEntity
  8
G8011006
 62
     0
100
AcDbText
 10
493067.47
 20
99517.32
 30
0.0
 40
1.5
  1
76
 50
231.9
100
AcDbText
  0
TEXT
  5
D1D
330
1E
100
AcDbEntity
  8
G8011006
 62
     0
100
AcDbText
 10
493092.64
 20
99552.44
 30
0.0
 40
1.5
  1
82
 50
233.9
100
AcDbText
  0
TEXT
  5
D1E
330
1E
100
AcDbEntity
  8
G8011006
 62
     0
100
AcDbText
 10
493081.54
 20
99601.62
 30
0.0
 40
1.5
  1
89
 50
49.2
100
AcDbText
  0
TEXT
  5
D1F
330
1E
100
AcDbEntity
  8
G8011006
 62
     0
100
AcDbText
 10
493055.8
 20
99576.15
 30
0.0
 40
1.5
  1
85
 50
43.5
100
AcDbText
  0
TEXT
  5
D20
330
1E
100
AcDbEntity
  8
G8011006
 62
     0
100
AcDbText
 10
493039.68
 20
99564.64
 30
0.0
 40
1.5
  1
85a
 50
44.7
100
AcDbText
  0
TEXT
  5
D21
330
1E
100
AcDbEntity
  8
G8011006
 62
     0
100
AcDbText
 10
493010.87
 20
99548.93
 30
0.0
 40
1.5
  1
83
 50
44.8
100
AcDbText
  0
TEXT
  5
D22
330
1E
100
AcDbEntity
  8
G8011006
 62
     0
100
AcDbText
 10
493010.06
 20
99507.74
 30
0.0
 40
1.5
  1
79
 50
44.3
100
AcDbText
  0
TEXT
  5
D23
330
1E
100
AcDbEntity
  8
G8011009
 62
     0
100
AcDbText
 10
492912.05
 20
99492.75
 30
0.0
 40
1.5
  1
El Sub Sta
100
AcDbText
  0
TEXT
  5
D24
330
1E
100
AcDbEntity
  8
G8011009
 62
     0
100
AcDbText
 10
493028.97
 20
99478.2
 30
0.0
 40
1.5
  1
BM
100
AcDbText
  0
TEXT
  5
D25
330
1E
100
AcDbEntity
  8
G8011009
 62
     0
100
AcDbText
 10
493027.39
 20
99475.55
 30
0.0
 40
1.5
  1
7.60m
100
AcDbText
  0
TEXT
  5
D26
330
1E
100
AcDbEntity
  8
G8011009
 62
     0
100
AcDbText
 10
493031.85
 20
99503.25
 30
0.0
 40
1.5
  1
7.1m
100
AcDbText
  0
TEXT
  5
D27
330
1E
100
AcDbEntity
  8
G8010570
 62
     0
100
AcDbText
 10
492899.88
 20
99456.52
 30
0.0
 40
2.23
  1
© Crown Copyright 2006. All rights reserved. Licence number 100020449
100
AcDbText
  0
LWPOLYLINE
  5
D6C
330
1E
100
AcDbEntity
  8
Redline
100
AcDbPolyline
 90
        4
 70
   129
 43
1.0
 10
493024.05
 20
99501.3
 10
492967.85
 20
99559.1
 10
493004.75
 20
99598.5
 10
493056.7
 20
99545.7
  0
VIEWPORT
  5
D2D
330
1A
100
AcDbEntity
 67
     1
  8
0
100
AcDbViewport
 10
113.8770373619132
 20
127.0295845973599
 30
0.0
 40
246.2057781038055
 41
190.5462233797273
 68
     1
 69
     1
 12
113.8770373619132
 22
127.0295845973599
 13
0.0
 23
0.0
 14
10.0
 24
10.0
 15
10.0
 25
10.0
 16
0.0
 26
0.0
 36
1.0
 17
0.0
 27
0.0
 37
0.0
 42
50.0
 43
0.0
 44
0.0
 45
190.5462233797273
 50
0.0
 51
0.0
 72
   100
 90
    32768
  1

281
     0
 71
     1
 74
     0
110
0.0
120
0.0
130
0.0
111
1.0
121
0.0
131
0.0
112
0.0
122
1.0
132
0.0
 79
     0
146
0.0
170
     0
 61
     5
348
DB1
292
     1
282
     1
141
0.0
142
0.0
 63
   256
  0
VIEWPORT
  5
D2F
330
1A
100
AcDbEntity
 67
     1
  8
0
100
AcDbViewport
 10
103.4062516211998
 20
177.2032494150039
 30
0.0
 40
158.7300025939941
 41
162.8561126176562
 68
     2
 69
     2
 12
493010.0919047621
 22
99541.94199385724
 13
0.0
 23
0.0
 14
1.0
 24
1.0
 15
0.0
 25
0.0
 16
0.0
 26
0.0
 36
1.0
 17
0.0
 27
0.0
 37
0.0
 42
50.0
 43
0.0
 44
0.0
 45
162.8561126176562
 50
0.0
 51
0.0
 72
   100
 90
    32768
  1

281
     0
 71
     1
 74
     0
110
0.0
120
0.0
130
0.0
111
1.0
121
0.0
131
0.0
112
0.0
122
1.0
132
0.0
 79
     0
146
0.0
170
     0
 61
     5
348
DB1
292
     1
282
     1
141
0.0
142
0.0
 63
   256
  0
INSERT
  5
D5F
330
1A
100
AcDbEntity
 67
     1
  8
text
100
AcDbBlockReference
  2
aoc
 10
157.7314203586517
 20
10.48376533538712
 30
0.0
  0
MTEXT
  5
D60
330
1A
100
AcDbEntity
 67
     1
  8
vports_text
100
AcDbMText
 10
23.74300775151102
 20
95.32118714617712
 30
0.0
 40
1.25
 41
121.6
 46
0.0
 71
     1
 72
     5
  1
Based on the Ordnance Survey's 1:1250 Superplan Digital Data of 2006\Pwith the permission of the Controller of Her Majesty's Stationary Office\P© Crown Copyright.  Licence No. AL 1000 16114
  7
TNR-Regular
 73
     1
 44
1.0
  0
MTEXT
  5
D61
330
1A
100
AcDbEntity
 67
     1
  8
vports_text
100
AcDbMText
 10
24.55809727300089
 20
47.36867178163106
 30
0.0
 40
2.5
 41
121.6
 46
0.0
 71
     1
 72
     5
  1
Figure 2:       {\fTimes New Roman|b0|i0|c0|p18;Detailed Site Location}
  7
TNR-Bold
 73
     1
 44
1.0
  0
POINT
  5
D62
330
1A
100
AcDbEntity
 67
     1
  8
vports
100
AcDbPoint
 10
0.0
 20
0.0
 30
0.0
  0
LINE
  5
D63
330
1A
100
AcDbEntity
 67
     1
  8
vports_text
 48
0.005
100
AcDbLine
 39
4.5
 10
185.9572186265663
 20
240.647058187005
 30
0.0
 11
184.8322186265664
 21
240.647058187005
 31
0.0
  0
SOLID
  5
D64
330
1A
100
AcDbEntity
 67
     1
  8
vports_text
 48
0.005
100
AcDbTrace
 10
185.9572186265665
 20
251.8970581870051
 30
0.0
 11
184.6072186265664
 21
248.9742224492326
 31
0.0
 12
185.9572186265664
 22
249.5931521476201
 32
0.0
 13
185.9572186265664
 23
249.5931521476201
 33
0.0
 39
3.375
  0
LINE
  5
D65
330
1A
100
AcDbEntity
 67
     1
  8
vports_text
 48
0.005
100
AcDbLine
 39
4.5
 10
185.9572186265664
 20
229.3970581870051
 30
0.0
 11
185.9572186265664
 21
251.8970581870051
 31
0.0
  0
LINE
  5
D66
330
1A
100
AcDbEntity
 67
     1
  8
vports_text
 48
0.005
100
AcDbLine
 39
4.5
 10
185.9572186265663
 20
240.647058187005
 30
0.0
 11
187.0822186265663
 21
240.647058187005
 31
0.0
  0
SOLID
  5
D67
330
1A
100
AcDbEntity
 67
     1
  8
vports_text
 48
0.005
100
AcDbTrace
 10
185.9572186265665
 20
251.8970581870051
 30
0.0
 11
187.3072186265664
 21
248.9742224492325
 31
0.0
 12
185.9572186265664
 22
249.5931521476201
 32
0.0
 13
185.9572186265664
 23
249.5931521476201
 33
0.0
 39
3.375
  0
TEXT
  5
D68
330
1A
100
AcDbEntity
 67
     1
  8
vports_text
 48
0.005
100
AcDbText
 10
184.6486389582173
 20
256.1792952257658
 30
0.0
 40
2.5
  1
N
  7
TNR-Regular
 72
     1
 11
185.9572186265663
 21
256.1792952257658
 31
0.0
100
AcDbText
  0
TEXT
  5
D6A
330
1A
100
AcDbEntity
 67
     1
  8
vports_text
100
AcDbText
 10
73.06705510204745
 20
11.9878576101213
 30
0.0
 40
2.0
  1
© AOC ARCHAEOLOGY GROUP - APRIL 2006
  7
TNR-Italic
100
AcDbText
  0
INSERT
  5
D88
330
1A
100
AcDbEntity
 67
     1
  8
text
100
AcDbBlockReference
  2
1 to 1250 small
 10
99.62040497161661
 20
64.21396865443731
 30
0.0
  0
MTEXT
  5
D97
330
1A
100
AcDbEntity
 67
     1
  8
Redline
100
AcDbMText
 10
8.370676504827316
 20
286.6916950785866
 30
0.0
 40
2.0
 41
182.0
 46
0.0
 71
     1
 72
     5
  1
{\fTimes New Roman|b0|i0|c0|p18;\C7;ELIZABETH HOUSE, BOGNOR REGIS, WEST SUSSEX - WRITTEN SCHEME OF INVESTIGATION FOR AN ARCHAEOLOGICAL WATCHING BRIEF AND EVALUATION}
 73
     1
 44
1.0
  0
LWPOLYLINE
  5
DAA
330
1A
100
AcDbEntity
 67
     1
  8
Redline
100
AcDbPolyline
 90
        4
 70
   129
 43
0.6
 10
131.1590300043173
 20
93.2270351056136
 10
137.6710851284728
 20
93.2270351056136
 10
137.6710851284728
 20
87.4680820157838
 10
131.1590300043173
 20
87.4680820157838
  0
MTEXT
  5
DAB
330
1A
100
AcDbEntity
 67
     1
  8
Redline
100
AcDbMText
 10
142.9308219265997
 20
91.97508901215713
 30
0.0
 40
2.5
 41
45.1
 46
0.0
 71
     1
 72
     5
  1
{\fTimes New Roman|b0|i0|c0|p18;\C7;Site Boundary}
 73
     1
 44
1.0
  0
ENDSEC
  0
SECTION
  2
OBJECTS
  0
DICTIONARY
  5
C
330
0
100
AcDbDictionary
281
     1
  3
ACAD_DETAILVIEWSTYLE
350
E27
  3
ACAD_GROUP
350
D
  3
ACAD_LAYOUT
350
19
  3
ACAD_MATERIAL
350
DE7
  3
ACAD_MLEADERSTYLE
350
DED
  3
ACAD_MLINESTYLE
350
16
  3
ACAD_PLOTSETTINGS
350
18
  3
ACAD_PLOTSTYLENAME
350
E
  3
ACAD_SCALELIST
350
DC5
  3
ACAD_SECTIONVIEWSTYLE
350
E28
  3
ACAD_TABLESTYLE
350
DEB
  3
ACAD_VISUALSTYLE
350
DAC
  3
ACDB_RECOMPOSE_DATA
350
E23
  3
AcDbVariableDictionary
350
DEF
  0
DICTIONARY
  5
E27
102
{ACAD_REACTORS
330
C
102
}
330
C
100
AcDbDictionary
281
     1
  0
DICTIONARY
  5
D
102
{ACAD_REACTORS
330
C
102
}
330
C
100
AcDbDictionary
281
     1
  0
DICTIONARY
  5
19
102
{ACAD_REACTORS
330
C
102
}
330
C
100
AcDbDictionary
281
     1
  3
Layout1
350
1D
  3
Model
350
21
  0
DICTIONARY
  5
DE7
102
{ACAD_REACTORS
330
C
102
}
330
C
100
AcDbDictionary
281
     1
  3
ByBlock
350
DE9
  3
ByLayer
350
DE8
  3
Global
350
DEA
  0
DICTIONARY
  5
DED
102
{ACAD_REACTORS
330
C
102
}
330
C
100
AcDbDictionary
281
     1
  3
Standard
350
DEE
  0
DICTIONARY
  5
16
102
{ACAD_REACTORS
330
C
102
}
330
C
100
AcDbDictionary
281
     1
  3
Standard
350
17
  0
DICTIONARY
  5
18
102
{ACAD_REACTORS
330
C
102
}
330
C
100
AcDbDictionary
281
     1
  0
ACDBDICTIONARYWDFLT
  5
E
102
{ACAD_REACTORS
330
C
102
}
330
C
100
AcDbDictionary
281
     1
  3
Normal
350
F
100
AcDbDictionaryWithDefault
340
F
  0
DICTIONARY
  5
DC5
102
{ACAD_REACTORS
330
C
102
}
330
C
100
AcDbDictionary
281
     1
  3
A0
350
DC6
  3
A1
350
DC7
  3
A2
350
DC8
  3
A3
350
DC9
  3
A4
350
DCA
  3
A5
350
DCB
  3
A6
350
DCC
  3
A7
350
DCD
  3
A8
350
DCE
  3
A9
350
DCF
  3
B0
350
DD0
  3
B1
350
DD1
  3
B2
350
DD2
  3
B3
350
DD3
  3
B4
350
DD4
  3
B5
350
DD5
  3
B6
350
DD6
  3
B7
350
DD7
  3
B8
350
DD8
  3
B9
350
DD9
  3
C0
350
DDA
  3
C1
350
DDB
  3
C2
350
DDC
  3
C3
350
DDD
  3
C4
350
DDE
  3
C5
350
DDF
  3
C6
350
DE0
  3
C7
350
DE1
  3
C8
350
DE2
  3
C9
350
DE3
  3
D0
350
DE4
  3
D1
350
DE5
  3
D2
350
DE6
  0
DICTIONARY
  5
E28
102
{ACAD_REACTORS
330
C
102
}
330
C
100
AcDbDictionary
281
     1
  0
DICTIONARY
  5
DEB
102
{ACAD_REACTORS
330
C
102
}
330
C
100
AcDbDictionary
281
     1
  3
Standard
350
DEC
  0
DICTIONARY
  5
DAC
102
{ACAD_REACTORS
330
C
102
}
330
C
100
AcDbDictionary
281
     1
  3
2dWireframe
350
DB1
  3
Basic
350
DB4
  3
Brighten
350
DB8
  3
ColorChange
350
DBC
  3
Conceptual
350
DB6
  3
Dim
350
DB7
  3
EdgeColorOff
350
DBF
  3
Facepattern
350
DBB
  3
Flat
350
DAD
  3
FlatWithEdges
350
DAE
  3
Gouraud
350
DAF
  3
GouraudWithEdges
350
DB0
  3
Hidden
350
DB3
  3
JitterOff
350
DBD
  3
Linepattern
350
DBA
  3
OverhangOff
350
DBE
  3
Realistic
350
DB5
  3
Shaded
350
DC4
  3
Shaded with edges
350
DC3
  3
Shades of Gray
350
DC0
  3
Sketchy
350
DC1
  3
Thicken
350
DB9
  3
Wireframe
350
DB2
  3
X-Ray
350
DC2
  0
XRECORD
  5
E23
102
{ACAD_REACTORS
330
C
102
}
330
C
100
AcDbXrecord
280
     1
 90
        1
330
DEC
  0
DICTIONARY
  5
DEF
102
{ACAD_REACTORS
330
C
102
}
330
C
100
AcDbDictionary
281
     1
  3
CANNOSCALE
350
DF0
  3
CMLEADERSTYLE
350
E25
  3
CTABLESTYLE
350
E24
  3
MSLTSCALE
350
E26
  0
LAYOUT
  5
1D
102
{ACAD_REACTORS
330
19
102
}
330
19
100
AcDbPlotSettings
  1

  2
Adobe PDF
  4
A4
  6

 40
3.174999952316284
 41
3.174999952316284
 42
3.175003051757812
 43
3.17498779296875
 44
209.9733276367188
 45
297.0318298339844
 46
0.0
 47
0.0
 48
0.0
 49
0.0
140
0.0
141
0.0
142
1.0
143
1.0
 70
   688
 72
     1
 73
     0
 74
     5
  7

 75
    16
 76
     0
 77
     2
 78
   300
147
1.0
148
0.0
149
0.0
100
AcDbLayout
  1
Layout1
 70
     0
 71
     1
 10
-3.174999952316284
 20
-3.174999952316284
 11
206.7983276844025
 21
293.8568298816681
 12
0.0
 22
0.0
 32
0.0
 14
8.310114140011166
 24
5.046231901322329
 34
0.0
 15
199.2054826149618
 25
287.323274025955
 35
4.5
146
0.0
 13
0.0
 23
0.0
 33
0.0
 16
1.0
 26
0.0
 36
0.0
 17
0.0
 27
1.0
 37
0.0
 76
     0
330
1A
331
D2D
  0
LAYOUT
  5
21
102
{ACAD_REACTORS
330
19
102
}
330
19
100
AcDbPlotSettings
  1

  2
\\ml350\HP LaserJet 4000
  4

  6

 40
0.0
 41
0.0
 42
0.0
 43
0.0
 44
0.0
 45
0.0
 46
0.0
 47
0.0
 48
0.0
 49
0.0
140
0.0
141
0.0
142
1.0
143
1.0
 70
  1712
 72
     0
 73
     0
 74
     0
  7

 75
     0
 76
     0
 77
     2
 78
   300
147
1.0
148
0.0
149
0.0
100
AcDbLayout
  1
Model
 70
     1
 71
     0
 10
0.0
 20
0.0
 11
12.0
 21
9.0
 12
0.0
 22
0.0
 32
0.0
 14
0.0
 24
0.0
 34
0.0
 15
0.0
 25
0.0
 35
0.0
146
0.0
 13
0.0
 23
0.0
 33
0.0
 16
1.0
 26
0.0
 36
0.0
 17
0.0
 27
1.0
 37
0.0
 76
     0
330
1E
331
DA9
  0
MATERIAL
  5
DE9
102
{ACAD_REACTORS
330
DE7
102
}
330
DE7
100
AcDbMaterial
  1
ByBlock
 72
     1
 94
      127
  0
MATERIAL
  5
DE8
102
{ACAD_REACTORS
330
DE7
102
}
330
DE7
100
AcDbMaterial
  1
ByLayer
 72
     1
 94
      127
  0
MATERIAL
  5
DEA
102
{ACAD_REACTORS
330
DE7
102
}
330
DE7
100
AcDbMaterial
  1
Global
 72
     1
 94
      127
  0
MLEADERSTYLE
  5
DEE
102
{ACAD_REACTORS
330
DED
102
}
330
DED
100
AcDbMLeaderStyle
179
     2
170
     2
171
     1
172
     0
 90
        2
 40
0.0
 41
0.0
173
     1
 91
-1056964608
340
13
 92
       -2
290
     1
 42
0.09
291
     1
 43
0.36
  3
Standard
341
0
 44
0.18
300

342
11
174
     1
178
     6
175
     1
176
     0
 93
-1056964608
 45
0.18
292
     0
297
     0
 46
0.18
343
0
 94
-1056964608
 47
1.0
 49
1.0
140
1.0
293
     1
141
0.0
294
     1
177
     0
142
1.0
295
     0
296
     0
143
0.125
271
     0
272
     9
273
     9
  0
MLINESTYLE
  5
17
102
{ACAD_REACTORS
330
16
102
}
330
16
100
AcDbMlineStyle
  2
STANDARD
 70
     0
  3

 62
   256
 51
90.0
 52
90.0
 71
     2
 49
0.5
 62
   256
  6
BYLAYER
 49
-0.5
 62
   256
  6
BYLAYER
  0
ACDBPLACEHOLDER
  5
F
102
{ACAD_REACTORS
330
E
102
}
330
E
  0
SCALE
  5
DC6
102
{ACAD_REACTORS
330
DC5
102
}
330
DC5
100
AcDbScale
 70
     0
300
1:1
140
1.0
141
1.0
290
     1
  0
SCALE
  5
DC7
102
{ACAD_REACTORS
330
DC5
102
}
330
DC5
100
AcDbScale
 70
     0
300
1:2
140
1.0
141
2.0
290
     0
  0
SCALE
  5
DC8
102
{ACAD_REACTORS
330
DC5
102
}
330
DC5
100
AcDbScale
 70
     0
300
1:4
140
1.0
141
4.0
290
     0
  0
SCALE
  5
DC9
102
{ACAD_REACTORS
330
DC5
102
}
330
DC5
100
AcDbScale
 70
     0
300
1:5
140
1.0
141
5.0
290
     0
  0
SCALE
  5
DCA
102
{ACAD_REACTORS
330
DC5
102
}
330
DC5
100
AcDbScale
 70
     0
300
1:8
140
1.0
141
8.0
290
     0
  0
SCALE
  5
DCB
102
{ACAD_REACTORS
330
DC5
102
}
330
DC5
100
AcDbScale
 70
     0
300
1:10
140
1.0
141
10.0
290
     0
  0
SCALE
  5
DCC
102
{ACAD_REACTORS
330
DC5
102
}
330
DC5
100
AcDbScale
 70
     0
300
1:16
140
1.0
141
16.0
290
     0
  0
SCALE
  5
DCD
102
{ACAD_REACTORS
330
DC5
102
}
330
DC5
100
AcDbScale
 70
     0
300
1:20
140
1.0
141
20.0
290
     0
  0
SCALE
  5
DCE
102
{ACAD_REACTORS
330
DC5
102
}
330
DC5
100
AcDbScale
 70
     0
300
1:30
140
1.0
141
30.0
290
     0
  0
SCALE
  5
DCF
102
{ACAD_REACTORS
330
DC5
102
}
330
DC5
100
AcDbScale
 70
     0
300
1:40
140
1.0
141
40.0
290
     0
  0
SCALE
  5
DD0
102
{ACAD_REACTORS
330
DC5
102
}
330
DC5
100
AcDbScale
 70
     0
300
1:50
140
1.0
141
50.0
290
     0
  0
SCALE
  5
DD1
102
{ACAD_REACTORS
330
DC5
102
}
330
DC5
100
AcDbScale
 70
     0
300
1:100
140
1.0
141
100.0
290
     0
  0
SCALE
  5
DD2
102
{ACAD_REACTORS
330
DC5
102
}
330
DC5
100
AcDbScale
 70
     0
300
2:1
140
2.0
141
1.0
290
     0
  0
SCALE
  5
DD3
102
{ACAD_REACTORS
330
DC5
102
}
330
DC5
100
AcDbScale
 70
     0
300
4:1
140
4.0
141
1.0
290
     0
  0
SCALE
  5
DD4
102
{ACAD_REACTORS
330
DC5
102
}
330
DC5
100
AcDbScale
 70
     0
300
8:1
140
8.0
141
1.0
290
     0
  0
SCALE
  5
DD5
102
{ACAD_REACTORS
330
DC5
102
}
330
DC5
100
AcDbScale
 70
     0
300
10:1
140
10.0
141
1.0
290
     0
  0
SCALE
  5
DD6
102
{ACAD_REACTORS
330
DC5
102
}
330
DC5
100
AcDbScale
 70
     0
300
100:1
140
100.0
141
1.0
290
     0
  0
SCALE
  5
DD7
102
{ACAD_REACTORS
330
DC5
102
}
330
DC5
100
AcDbScale
 70
     0
300
1/128" = 1'-0"
140
0.0078125
141
12.0
290
     0
  0
SCALE
  5
DD8
102
{ACAD_REACTORS
330
DC5
102
}
330
DC5
100
AcDbScale
 70
     0
300
1/64" = 1'-0"
140
0.015625
141
12.0
290
     0
  0
SCALE
  5
DD9
102
{ACAD_REACTORS
330
DC5
102
}
330
DC5
100
AcDbScale
 70
     0
300
1/32" = 1'-0"
140
0.03125
141
12.0
290
     0
  0
SCALE
  5
DDA
102
{ACAD_REACTORS
330
DC5
102
}
330
DC5
100
AcDbScale
 70
     0
300
1/16" = 1'-0"
140
0.0625
141
12.0
290
     0
  0
SCALE
  5
DDB
102
{ACAD_REACTORS
330
DC5
102
}
330
DC5
100
AcDbScale
 70
     0
300
3/32" = 1'-0"
140
0.09375
141
12.0
290
     0
  0
SCALE
  5
DDC
102
{ACAD_REACTORS
330
DC5
102
}
330
DC5
100
AcDbScale
 70
     0
300
1/8" = 1'-0"
140
0.125
141
12.0
290
     0
  0
SCALE
  5
DDD
102
{ACAD_REACTORS
330
DC5
102
}
330
DC5
100
AcDbScale
 70
     0
300
3/16" = 1'-0"
140
0.1875
141
12.0
290
     0
  0
SCALE
  5
DDE
102
{ACAD_REACTORS
330
DC5
102
}
330
DC5
100
AcDbScale
 70
     0
300
1/4" = 1'-0"
140
0.25
141
12.0
290
     0
  0
SCALE
  5
DDF
102
{ACAD_REACTORS
330
DC5
102
}
330
DC5
100
AcDbScale
 70
     0
300
3/8" = 1'-0"
140
0.375
141
12.0
290
     0
  0
SCALE
  5
DE0
102
{ACAD_REACTORS
330
DC5
102
}
330
DC5
100
AcDbScale
 70
     0
300
1/2" = 1'-0"
140
0.5
141
12.0
290
     0
  0
SCALE
  5
DE1
102
{ACAD_REACTORS
330
DC5
102
}
330
DC5
100
AcDbScale
 70
     0
300
3/4" = 1'-0"
140
0.75
141
12.0
290
     0
  0
SCALE
  5
DE2
102
{ACAD_REACTORS
330
DC5
102
}
330
DC5
100
AcDbScale
 70
     0
300
1" = 1'-0"
140
1.0
141
12.0
290
     0
  0
SCALE
  5
DE3
102
{ACAD_REACTORS
330
DC5
102
}
330
DC5
100
AcDbScale
 70
     0
300
1-1/2" = 1'-0"
140
1.5
141
12.0
290
     0
  0
SCALE
  5
DE4
102
{ACAD_REACTORS
330
DC5
102
}
330
DC5
100
AcDbScale
 70
     0
300
3" = 1'-0"
140
3.0
141
12.0
290
     0
  0
SCALE
  5
DE5
102
{ACAD_REACTORS
330
DC5
102
}
330
DC5
100
AcDbScale
 70
     0
300
6" = 1'-0"
140
6.0
141
12.0
290
     0
  0
SCALE
  5
DE6
102
{ACAD_REACTORS
330
DC5
102
}
330
DC5
100
AcDbScale
 70
     0
300
1'-0" = 1'-0"
140
12.0
141
12.0
290
     0
  0
TABLESTYLE
  5
DEC
102
{ACAD_REACTORS
330
DEB
102
}
102
{ACAD_XDICTIONARY
360
E21
102
}
330
DEB
100
AcDbTableStyle
  3
Standard
 70
     0
 71
     0
 40
0.06
 41
0.06
280
     0
281
     0
  7
STANDARD
140
0.18
170
     2
 62
     0
 63
   257
283
     0
 90
        4
 91
        0
  1

274
    -2
284
     1
 64
     0
275
    -2
285
     1
 65
     0
276
    -2
286
     1
 66
     0
277
    -2
287
     1
 67
     0
278
    -2
288
     1
 68
     0
279
    -2
289
     1
 69
     0
  7
STANDARD
140
0.25
170
     5
 62
     0
 63
   257
283
     0
 90
        4
 91
        0
  1

274
    -2
284
     1
 64
     0
275
    -2
285
     1
 65
     0
276
    -2
286
     1
 66
     0
277
    -2
287
     1
 67
     0
278
    -2
288
     1
 68
     0
279
    -2
289
     1
 69
     0
  7
STANDARD
140
0.18
170
     5
 62
     0
 63
   257
283
     0
 90
        4
 91
        0
  1

274
    -2
284
     1
 64
     0
275
    -2
285
     1
 65
     0
276
    -2
286
     1
 66
     0
277
    -2
287
     1
 67
     0
278
    -2
288
     1
 68
     0
279
    -2
289
     1
 69
     0
  0
VISUALSTYLE
  5
DB1
102
{ACAD_REACTORS
330
DAC
102
}
102
{ACAD_XDICTIONARY
360
DF9
102
}
330
DAC
100
AcDbVisualStyle
  2
2dWireframe
 70
     4
177
     2
291
     0
 71
     0
176
     1
 72
     2
176
     1
 73
     0
176
     1
 90
        0
176
     1
 40
0.6
176
     1
 41
30.0
176
     1
 62
     5
 63
     7
421
 16777215
176
     1
 74
     1
176
     1
 91
        4
176
     1
 64
     7
176
     1
 65
   257
176
     1
 75
     1
176
     1
175
     1
176
     1
 42
1.0
176
     1
 92
        0
176
     1
 66
   257
176
     1
 43
1.0
176
     1
 76
     1
176
     1
 77
     6
176
     1
 78
     2
176
     1
 67
     7
176
     1
 79
     5
176
     1
170
     0
176
     1
171
     0
176
     1
290
     0
176
     1
 93
        1
176
     1
 44
0.0
176
     1
173
     0
176
     1
  0
VISUALSTYLE
  5
DB4
102
{ACAD_REACTORS
330
DAC
102
}
102
{ACAD_XDICTIONARY
360
DFF
102
}
330
DAC
100
AcDbVisualStyle
  2
Basic
 70
     7
177
     2
291
     1
 71
     1
176
     1
 72
     0
176
     1
 73
     1
176
     1
 90
        0
176
     1
 40
0.6
176
     1
 41
30.0
176
     1
 62
     5
 63
     7
421
 16777215
176
     1
 74
     0
176
     1
 91
        4
176
     1
 64
     7
176
     1
 65
   257
176
     1
 75
     1
176
     1
175
     1
176
     1
 42
1.0
176
     1
 92
        8
176
     1
 66
     7
176
     1
 43
1.0
176
     1
 76
     1
176
     1
 77
     6
176
     1
 78
     2
176
     1
 67
     7
176
     1
 79
     5
176
     1
170
     0
176
     1
171
     0
176
     1
290
     0
176
     1
 93
        1
176
     1
 44
0.0
176
     1
173
     0
176
     1
  0
VISUALSTYLE
  5
DB8
102
{ACAD_REACTORS
330
DAC
102
}
102
{ACAD_XDICTIONARY
360
E07
102
}
330
DAC
100
AcDbVisualStyle
  2
Brighten
 70
    12
177
     2
291
     1
 71
     2
176
     1
 72
     2
176
     1
 73
     0
176
     1
 90
        0
176
     1
 40
0.6
176
     1
 41
30.0
176
     1
 62
     5
 63
     7
421
 16777215
176
     1
 74
     1
176
     1
 91
        4
176
     1
 64
     7
176
     1
 65
   257
176
     1
 75
     1
176
     1
175
     1
176
     1
 42
1.0
176
     1
 92
        8
176
     1
 66
     7
176
     1
 43
1.0
176
     1
 76
     1
176
     1
 77
     6
176
     1
 78
     2
176
     1
 67
     7
176
     1
 79
     5
176
     1
170
     0
176
     1
171
     0
176
     1
290
     0
176
     1
 93
        1
176
     1
 44
50.0
176
     1
173
     0
176
     1
  0
VISUALSTYLE
  5
DBC
102
{ACAD_REACTORS
330
DAC
102
}
102
{ACAD_XDICTIONARY
360
E0F
102
}
330
DAC
100
AcDbVisualStyle
  2
ColorChange
 70
    16
177
     2
291
     1
 71
     2
176
     1
 72
     2
176
     1
 73
     3
176
     1
 90
        0
176
     1
 40
0.6
176
     1
 41
30.0
176
     1
 62
     5
 63
     8
421
  8421504
176
     1
 74
     1
176
     1
 91
        4
176
     1
 64
     7
176
     1
 65
   257
176
     1
 75
     1
176
     1
175
     1
176
     1
 42
1.0
176
     1
 92
        8
176
     1
 66
     8
424
  8421504
176
     1
 43
1.0
176
     1
 76
     1
176
     1
 77
     6
176
     1
 78
     2
176
     1
 67
     7
176
     1
 79
     5
176
     1
170
     0
176
     1
171
     0
176
     1
290
     0
176
     1
 93
        1
176
     1
 44
0.0
176
     1
173
     0
176
     1
  0
VISUALSTYLE
  5
DB6
102
{ACAD_REACTORS
330
DAC
102
}
102
{ACAD_XDICTIONARY
360
E03
102
}
330
DAC
100
AcDbVisualStyle
  2
Conceptual
 70
     9
177
     2
291
     0
 71
     3
176
     1
 72
     2
176
     1
 73
     0
176
     1
 90
        0
176
     1
 40
0.6
176
     1
 41
30.0
176
     1
 62
     5
 63
     7
421
 16777215
176
     1
 74
     2
176
     1
 91
        2
176
     1
 64
     7
176
     1
 65
   257
176
     1
 75
     1
176
     1
175
     1
176
     1
 42
179.0
176
     1
 92
        8
176
     1
 66
     7
176
     1
 43
1.0
176
     1
 76
     1
176
     1
 77
     6
176
     1
 78
     2
176
     1
 67
     7
176
     1
 79
     3
176
     1
170
     0
176
     1
171
     0
176
     1
290
     0
176
     1
 93
        1
176
     1
 44
0.0
176
     1
173
     0
176
     1
  0
VISUALSTYLE
  5
DB7
102
{ACAD_REACTORS
330
DAC
102
}
102
{ACAD_XDICTIONARY
360
E05
102
}
330
DAC
100
AcDbVisualStyle
  2
Dim
 70
    11
177
     2
291
     1
 71
     2
176
     1
 72
     2
176
     1
 73
     0
176
     1
 90
        0
176
     1
 40
0.6
176
     1
 41
30.0
176
     1
 62
     5
 63
     7
421
 16777215
176
     1
 74
     1
176
     1
 91
        4
176
     1
 64
     7
176
     1
 65
   257
176
     1
 75
     1
176
     1
175
     1
176
     1
 42
1.0
176
     1
 92
        8
176
     1
 66
     7
176
     1
 43
1.0
176
     1
 76
     1
176
     1
 77
     6
176
     1
 78
     2
176
     1
 67
     7
176
     1
 79
     5
176
     1
170
     0
176
     1
171
     0
176
     1
290
     0
176
     1
 93
        1
176
     1
 44
-50.0
176
     1
173
     0
176
     1
  0
VISUALSTYLE
  5
DBF
102
{ACAD_REACTORS
330
DAC
102
}
102
{ACAD_XDICTIONARY
360
E15
102
}
330
DAC
100
AcDbVisualStyle
  2
EdgeColorOff
 70
    22
177
     2
291
     1
 71
     2
176
     0
 72
     2
176
     0
 73
     0
176
     0
 90
        0
176
     0
 40
0.6
176
     0
 41
30.0
176
     0
 62
     5
 63
     7
421
 16777215
176
     0
 74
     1
176
     0
 91
        4
176
     0
 64
     7
176
     0
 65
   257
176
     0
 75
     1
176
     0
175
     1
176
     0
 42
1.0
176
     0
 92
        8
176
     2
 66
     7
176
     0
 43
1.0
176
     0
 76
     1
176
     0
 77
     6
176
     0
 78
     2
176
     0
 67
     7
176
     0
 79
     5
176
     0
170
     0
176
     0
171
     0
176
     0
290
     0
176
     0
 93
        1
176
     0
 44
0.0
176
     0
173
     0
176
     0
  0
VISUALSTYLE
  5
DBB
102
{ACAD_REACTORS
330
DAC
102
}
102
{ACAD_XDICTIONARY
360
E0D
102
}
330
DAC
100
AcDbVisualStyle
  2
Facepattern
 70
    15
177
     2
291
     1
 71
     2
176
     1
 72
     2
176
     1
 73
     0
176
     1
 90
        0
176
     1
 40
0.6
176
     1
 41
30.0
176
     1
 62
     5
 63
     7
421
 16777215
176
     1
 74
     1
176
     1
 91
        4
176
     1
 64
     7
176
     1
 65
   257
176
     1
 75
     1
176
     1
175
     1
176
     1
 42
1.0
176
     1
 92
        8
176
     1
 66
     7
176
     1
 43
1.0
176
     1
 76
     1
176
     1
 77
     6
176
     1
 78
     2
176
     1
 67
     7
176
     1
 79
     5
176
     1
170
     0
176
     1
171
     0
176
     1
290
     0
176
     1
 93
        1
176
     1
 44
0.0
176
     1
173
     0
176
     1
  0
VISUALSTYLE
  5
DAD
102
{ACAD_REACTORS
330
DAC
102
}
102
{ACAD_XDICTIONARY
360
DF1
102
}
330
DAC
100
AcDbVisualStyle
  2
Flat
 70
     0
177
     2
291
     1
 71
     2
176
     1
 72
     1
176
     1
 73
     1
176
     1
 90
        2
176
     1
 40
0.6
176
     1
 41
30.0
176
     1
 62
     5
 63
     7
421
 16777215
176
     1
 74
     0
176
     1
 91
        0
176
     1
 64
     7
176
     1
 65
   257
176
     1
 75
     1
176
     1
175
     1
176
     1
 42
1.0
176
     1
 92
        8
176
     1
 66
     7
176
     1
 43
1.0
176
     1
 76
     1
176
     1
 77
     6
176
     1
 78
     2
176
     1
 67
     7
176
     1
 79
     5
176
     1
170
     0
176
     1
171
     0
176
     1
290
     0
176
     1
 93
       13
176
     1
 44
0.0
176
     1
173
     0
176
     1
  0
VISUALSTYLE
  5
DAE
102
{ACAD_REACTORS
330
DAC
102
}
102
{ACAD_XDICTIONARY
360
DF3
102
}
330
DAC
100
AcDbVisualStyle
  2
FlatWithEdges
 70
     1
177
     2
291
     1
 71
     2
176
     1
 72
     1
176
     1
 73
     1
176
     1
 90
        2
176
     1
 40
0.6
176
     1
 41
30.0
176
     1
 62
     5
 63
     7
421
 16777215
176
     1
 74
     1
176
     1
 91
        0
176
     1
 64
     7
176
     1
 65
   257
176
     1
 75
     1
176
     1
175
     1
176
     1
 42
1.0
176
     1
 92
        0
176
     1
 66
   257
176
     1
 43
1.0
176
     1
 76
     1
176
     1
 77
     6
176
     1
 78
     2
176
     1
 67
     7
176
     1
 79
     5
176
     1
170
     0
176
     1
171
     0
176
     1
290
     0
176
     1
 93
       13
176
     1
 44
0.0
176
     1
173
     0
176
     1
  0
VISUALSTYLE
  5
DAF
102
{ACAD_REACTORS
330
DAC
102
}
102
{ACAD_XDICTIONARY
360
DF5
102
}
330
DAC
100
AcDbVisualStyle
  2
Gouraud
 70
     2
177
     2
291
     1
 71
     2
176
     1
 72
     2
176
     1
 73
     1
176
     1
 90
        2
176
     1
 40
0.6
176
     1
 41
30.0
176
     1
 62
     5
 63
     7
421
 16777215
176
     1
 74
     0
176
     1
 91
        0
176
     1
 64
     7
176
     1
 65
   257
176
     1
 75
     1
176
     1
175
     1
176
     1
 42
1.0
176
     1
 92
        0
176
     1
 66
     7
176
     1
 43
1.0
176
     1
 76
     1
176
     1
 77
     6
176
     1
 78
     2
176
     1
 67
     7
176
     1
 79
     5
176
     1
170
     0
176
     1
171
     0
176
     1
290
     0
176
     1
 93
       13
176
     1
 44
0.0
176
     1
173
     0
176
     1
  0
VISUALSTYLE
  5
DB0
102
{ACAD_REACTORS
330
DAC
102
}
102
{ACAD_XDICTIONARY
360
DF7
102
}
330
DAC
100
AcDbVisualStyle
  2
GouraudWithEdges
 70
     3
177
     2
291
     1
 71
     2
176
     1
 72
     2
176
     1
 73
     1
176
     1
 90
        2
176
     1
 40
0.6
176
     1
 41
30.0
176
     1
 62
     5
 63
     7
421
 16777215
176
     1
 74
     1
176
     1
 91
        0
176
     1
 64
     7
176
     1
 65
   257
176
     1
 75
     1
176
     1
175
     1
176
     1
 42
1.0
176
     1
 92
        0
176
     1
 66
   257
176
     1
 43
1.0
176
     1
 76
     1
176
     1
 77
     6
176
     1
 78
     2
176
     1
 67
     7
176
     1
 79
     5
176
     1
170
     0
176
     1
171
     0
176
     1
290
     0
176
     1
 93
       13
176
     1
 44
0.0
176
     1
173
     0
176
     1
  0
VISUALSTYLE
  5
DB3
102
{ACAD_REACTORS
330
DAC
102
}
102
{ACAD_XDICTIONARY
360
DFD
102
}
330
DAC
100
AcDbVisualStyle
  2
Hidden
 70
     6
177
     2
291
     0
 71
     1
176
     1
 72
     2
176
     1
 73
     2
176
     1
 90
        0
176
     1
 40
0.6
176
     1
 41
30.0
176
     1
 62
     5
 63
     7
421
 16777215
176
     1
 74
     2
176
     1
 91
        2
176
     1
 64
     7
176
     1
 65
   257
176
     1
 75
     2
176
     1
175
     1
176
     1
 42
40.0
176
     1
 92
        0
176
     1
 66
   257
176
     1
 43
1.0
176
     1
 76
     1
176
     1
 77
     6
176
     1
 78
     2
176
     1
 67
     7
176
     1
 79
     3
176
     1
170
     0
176
     1
171
     0
176
     1
290
     0
176
     1
 93
        1
176
     1
 44
0.0
176
     1
173
     0
176
     1
  0
VISUALSTYLE
  5
DBD
102
{ACAD_REACTORS
330
DAC
102
}
102
{ACAD_XDICTIONARY
360
E11
102
}
330
DAC
100
AcDbVisualStyle
  2
JitterOff
 70
    20
177
     2
291
     1
 71
     2
176
     0
 72
     2
176
     0
 73
     0
176
     0
 90
        0
176
     0
 40
0.6
176
     0
 41
30.0
176
     0
 62
     5
 63
     7
421
 16777215
176
     0
 74
     1
176
     0
 91
        4
176
     0
 64
     7
176
     0
 65
   257
176
     0
 75
     1
176
     0
175
     1
176
     0
 42
1.0
176
     0
 92
       10
176
     2
 66
     7
176
     0
 43
1.0
176
     0
 76
     1
176
     0
 77
     6
176
     0
 78
     2
176
     0
 67
     7
176
     0
 79
     5
176
     0
170
     0
176
     0
171
     0
176
     0
290
     0
176
     0
 93
        1
176
     0
 44
0.0
176
     0
173
     0
176
     0
  0
VISUALSTYLE
  5
DBA
102
{ACAD_REACTORS
330
DAC
102
}
102
{ACAD_XDICTIONARY
360
E0B
102
}
330
DAC
100
AcDbVisualStyle
  2
Linepattern
 70
    14
177
     2
291
     1
 71
     2
176
     1
 72
     2
176
     1
 73
     0
176
     1
 90
        0
176
     1
 40
0.6
176
     1
 41
30.0
176
     1
 62
     5
 63
     7
421
 16777215
176
     1
 74
     1
176
     1
 91
        4
176
     1
 64
     7
176
     1
 65
   257
176
     1
 75
     7
176
     1
175
     7
176
     1
 42
1.0
176
     1
 92
        8
176
     1
 66
     7
176
     1
 43
1.0
176
     1
 76
     1
176
     1
 77
     6
176
     1
 78
     2
176
     1
 67
     7
176
     1
 79
     5
176
     1
170
     0
176
     1
171
     0
176
     1
290
     0
176
     1
 93
        1
176
     1
 44
0.0
176
     1
173
     0
176
     1
  0
VISUALSTYLE
  5
DBE
102
{ACAD_REACTORS
330
DAC
102
}
102
{ACAD_XDICTIONARY
360
E13
102
}
330
DAC
100
AcDbVisualStyle
  2
OverhangOff
 70
    21
177
     2
291
     1
 71
     2
176
     0
 72
     2
176
     0
 73
     0
176
     0
 90
        0
176
     0
 40
0.6
176
     0
 41
30.0
176
     0
 62
     5
 63
     7
421
 16777215
176
     0
 74
     1
176
     0
 91
        4
176
     0
 64
     7
176
     0
 65
   257
176
     0
 75
     1
176
     0
175
     1
176
     0
 42
1.0
176
     0
 92
        9
176
     2
 66
     7
176
     0
 43
1.0
176
     0
 76
     1
176
     0
 77
     6
176
     0
 78
     2
176
     0
 67
     7
176
     0
 79
     5
176
     0
170
     0
176
     0
171
     0
176
     0
290
     0
176
     0
 93
        1
176
     0
 44
0.0
176
     0
173
     0
176
     0
  0
VISUALSTYLE
  5
DB5
102
{ACAD_REACTORS
330
DAC
102
}
102
{ACAD_XDICTIONARY
360
E01
102
}
330
DAC
100
AcDbVisualStyle
  2
Realistic
 70
     8
177
     2
291
     0
 71
     2
176
     1
 72
     3
176
     1
 73
     0
176
     1
 90
        2
176
     1
 40
0.6
176
     1
 41
30.0
176
     1
 62
     5
 63
     7
421
 16777215
176
     1
 74
     0
176
     1
 91
        0
176
     1
 64
     7
176
     1
 65
   257
176
     1
 75
     1
176
     1
175
     1
176
     1
 42
1.0
176
     1
 92
        8
176
     1
 66
   257
176
     1
 43
1.0
176
     1
 76
     1
176
     1
 77
     6
176
     1
 78
     2
176
     1
 67
     7
176
     1
 79
     3
176
     1
170
     0
176
     1
171
     0
176
     1
290
     0
176
     1
 93
       13
176
     1
 44
0.0
176
     1
173
     0
176
     1
  0
VISUALSTYLE
  5
DC4
102
{ACAD_REACTORS
330
DAC
102
}
102
{ACAD_XDICTIONARY
360
E1F
102
}
330
DAC
100
AcDbVisualStyle
  2
Shaded
 70
    27
177
     2
291
     0
 71
     2
176
     1
 72
     2
176
     1
 73
     1
176
     1
 90
        2
176
     1
 40
0.6
176
     1
 41
30.0
176
     1
 62
     5
 63
     7
421
 16777215
176
     1
 74
     0
176
     1
 91
        4
176
     1
 64
     7
176
     1
 65
   257
176
     1
 75
     1
176
     1
175
     1
176
     1
 42
1.0
176
     1
 92
        8
176
     1
 66
   257
176
     1
 43
1.0
176
     1
 76
     1
176
     1
 77
     6
176
     1
 78
     2
176
     1
 67
     8
425
  7895160
176
     1
 79
     3
176
     1
170
     0
176
     1
171
     0
176
     1
290
     0
176
     1
 93
        5
176
     1
 44
0.0
176
     1
173
     0
176
     1
  0
VISUALSTYLE
  5
DC3
102
{ACAD_REACTORS
330
DAC
102
}
102
{ACAD_XDICTIONARY
360
E1D
102
}
330
DAC
100
AcDbVisualStyle
  2
Shaded with edges
 70
    26
177
     2
291
     0
 71
     2
176
     1
 72
     2
176
     1
 73
     1
176
     1
 90
        2
176
     1
 40
0.6
176
     1
 41
30.0
176
     1
 62
     5
 63
     7
421
 16777215
176
     1
 74
     1
176
     1
 91
       10
176
     1
 64
     7
176
     1
 65
   257
176
     1
 75
     2
176
     1
175
     1
176
     1
 42
1.0
176
     1
 92
        8
176
     1
 66
   257
176
     1
 43
1.0
176
     1
 76
     1
176
     1
 77
     6
176
     1
 78
     2
176
     1
 67
     7
176
     1
 79
     3
176
     1
170
     0
176
     1
171
     0
176
     1
290
     0
176
     1
 93
        5
176
     1
 44
0.0
176
     1
173
     0
176
     1
  0
VISUALSTYLE
  5
DC0
102
{ACAD_REACTORS
330
DAC
102
}
102
{ACAD_XDICTIONARY
360
E17
102
}
330
DAC
100
AcDbVisualStyle
  2
Shades of Gray
 70
    23
177
     2
291
     0
 71
     2
176
     1
 72
     2
176
     1
 73
     3
176
     1
 90
        0
176
     1
 40
0.6
176
     1
 41
30.0
176
     1
 62
     5
 63
     7
421
 16777215
176
     1
 74
     2
176
     1
 91
        2
176
     1
 64
     7
176
     1
 65
     7
176
     1
 75
     1
176
     1
175
     1
176
     1
 42
40.0
176
     1
 92
        8
176
     1
 66
     7
176
     1
 43
1.0
176
     1
 76
     1
176
     1
 77
     6
176
     1
 78
     2
176
     1
 67
     7
176
     1
 79
     3
176
     1
170
     0
176
     1
171
     0
176
     1
290
     0
176
     1
 93
        1
176
     1
 44
0.0
176
     1
173
     0
176
     1
  0
VISUALSTYLE
  5
DC1
102
{ACAD_REACTORS
330
DAC
102
}
102
{ACAD_XDICTIONARY
360
E19
102
}
330
DAC
100
AcDbVisualStyle
  2
Sketchy
 70
    24
177
     2
291
     0
 71
     1
176
     1
 72
     2
176
     1
 73
     2
176
     1
 90
        0
176
     1
 40
0.6
176
     1
 41
30.0
176
     1
 62
     5
 63
     7
421
 16777215
176
     1
 74
     2
176
     1
 91
        2
176
     1
 64
     7
176
     1
 65
     7
176
     1
 75
     1
176
     1
175
     1
176
     1
 42
40.0
176
     1
 92
       11
176
     1
 66
     7
176
     1
 43
1.0
176
     1
 76
     1
176
     1
 77
     6
176
     1
 78
     2
176
     1
 67
     7
176
     1
 79
     6
176
     1
170
     0
176
     1
171
     0
176
     1
290
     0
176
     1
 93
        1
176
     1
 44
0.0
176
     1
173
     0
176
     1
  0
VISUALSTYLE
  5
DB9
102
{ACAD_REACTORS
330
DAC
102
}
102
{ACAD_XDICTIONARY
360
E09
102
}
330
DAC
100
AcDbVisualStyle
  2
Thicken
 70
    13
177
     2
291
     1
 71
     2
176
     1
 72
     2
176
     1
 73
     0
176
     1
 90
        0
176
     1
 40
0.6
176
     1
 41
30.0
176
     1
 62
     5
 63
     7
421
 16777215
176
     1
 74
     1
176
     1
 91
        4
176
     1
 64
     7
176
     1
 65
   257
176
     1
 75
     1
176
     1
175
     1
176
     1
 42
1.0
176
     1
 92
       12
176
     1
 66
     7
176
     1
 43
1.0
176
     1
 76
     1
176
     1
 77
     6
176
     1
 78
     2
176
     1
 67
     7
176
     1
 79
     5
176
     1
170
     0
176
     1
171
     0
176
     1
290
     0
176
     1
 93
        1
176
     1
 44
0.0
176
     1
173
     0
176
     1
  0
VISUALSTYLE
  5
DB2
102
{ACAD_REACTORS
330
DAC
102
}
102
{ACAD_XDICTIONARY
360
DFB
102
}
330
DAC
100
AcDbVisualStyle
  2
Wireframe
 70
     5
177
     2
291
     0
 71
     0
176
     1
 72
     2
176
     1
 73
     0
176
     1
 90
        0
176
     1
 40
0.6
176
     1
 41
30.0
176
     1
 62
     5
 63
     7
421
 16777215
176
     1
 74
     1
176
     1
 91
        4
176
     1
 64
     7
176
     1
 65
   257
176
     1
 75
     1
176
     1
175
     1
176
     1
 42
1.0
176
     1
 92
        0
176
     1
 66
   257
176
     1
 43
1.0
176
     1
 76
     1
176
     1
 77
     6
176
     1
 78
     2
176
     1
 67
     7
176
     1
 79
     3
176
     1
170
     0
176
     1
171
     0
176
     1
290
     0
176
     1
 93
        1
176
     1
 44
0.0
176
     1
173
     0
176
     1
  0
VISUALSTYLE
  5
DC2
102
{ACAD_REACTORS
330
DAC
102
}
102
{ACAD_XDICTIONARY
360
E1B
102
}
330
DAC
100
AcDbVisualStyle
  2
X-Ray
 70
    25
177
     2
291
     0
 71
     2
176
     1
 72
     2
176
     1
 73
     1
176
     1
 90
        1
176
     1
 40
0.5
176
     1
 41
30.0
176
     1
 62
     5
 63
     7
421
 16777215
176
     1
 74
     1
176
     1
 91
        0
176
     1
 64
     7
176
     1
 65
   257
176
     1
 75
     1
176
     1
175
     1
176
     1
 42
1.0
176
     1
 92
        8
176
     1
 66
     7
176
     1
 43
1.0
176
     1
 76
     1
176
     1
 77
     6
176
     1
 78
     2
176
     1
 67
     7
176
     1
 79
     3
176
     1
170
     0
176
     1
171
     0
176
     1
290
     0
176
     1
 93
       13
176
     1
 44
0.0
176
     1
173
     0
176
     1
  0
DICTIONARYVAR
  5
DF0
102
{ACAD_REACTORS
330
DEF
102
}
330
DEF
100
DictionaryVariables
280
     0
  1
1:1
  0
DICTIONARYVAR
  5
E25
102
{ACAD_REACTORS
330
DEF
102
}
330
DEF
100
DictionaryVariables
280
     0
  1
Standard
  0
DICTIONARYVAR
  5
E24
102
{ACAD_REACTORS
330
DEF
102
}
330
DEF
100
DictionaryVariables
280
     0
  1
Standard
  0
DICTIONARYVAR
  5
E26
102
{ACAD_REACTORS
330
DEF
102
}
330
DEF
100
DictionaryVariables
280
     0
  1
0
  0
DICTIONARY
  5
E21
330
DEC
100
AcDbDictionary
280
     1
281
     1
  3
ACAD_ROUNDTRIP_2008_TABLESTYLE_CELLSTYLEMAP
360
E22
  0
DICTIONARY
  5
DF9
330
DB1
100
AcDbDictionary
280
     1
281
     1
  3
ACAD_XREC_ROUNDTRIP
360
DFA
  0
DICTIONARY
  5
DFF
330
DB4
100
AcDbDictionary
280
     1
281
     1
  3
ACAD_XREC_ROUNDTRIP
360
E00
  0
DICTIONARY
  5
E07
330
DB8
100
AcDbDictionary
280
     1
281
     1
  3
ACAD_XREC_ROUNDTRIP
360
E08
  0
DICTIONARY
  5
E0F
330
DBC
100
AcDbDictionary
280
     1
281
     1
  3
ACAD_XREC_ROUNDTRIP
360
E10
  0
DICTIONARY
  5
E03
330
DB6
100
AcDbDictionary
280
     1
281
     1
  3
ACAD_XREC_ROUNDTRIP
360
E04
  0
DICTIONARY
  5
E05
330
DB7
100
AcDbDictionary
280
     1
281
     1
  3
ACAD_XREC_ROUNDTRIP
360
E06
  0
DICTIONARY
  5
E15
330
DBF
100
AcDbDictionary
280
     1
281
     1
  3
ACAD_XREC_ROUNDTRIP
360
E16
  0
DICTIONARY
  5
E0D
330
DBB
100
AcDbDictionary
280
     1
281
     1
  3
ACAD_XREC_ROUNDTRIP
360
E0E
  0
DICTIONARY
  5
DF1
330
DAD
100
AcDbDictionary
280
     1
281
     1
  3
ACAD_XREC_ROUNDTRIP
360
DF2
  0
DICTIONARY
  5
DF3
330
DAE
100
AcDbDictionary
280
     1
281
     1
  3
ACAD_XREC_ROUNDTRIP
360
DF4
  0
DICTIONARY
  5
DF5
330
DAF
100
AcDbDictionary
280
     1
281
     1
  3
ACAD_XREC_ROUNDTRIP
360
DF6
  0
DICTIONARY
  5
DF7
330
DB0
100
AcDbDictionary
280
     1
281
     1
  3
ACAD_XREC_ROUNDTRIP
360
DF8
  0
DICTIONARY
  5
DFD
330
DB3
100
AcDbDictionary
280
     1
281
     1
  3
ACAD_XREC_ROUNDTRIP
360
DFE
  0
DICTIONARY
  5
E11
330
DBD
100
AcDbDictionary
280
     1
281
     1
  3
ACAD_XREC_ROUNDTRIP
360
E12
  0
DICTIONARY
  5
E0B
330
DBA
100
AcDbDictionary
280
     1
281
     1
  3
ACAD_XREC_ROUNDTRIP
360
E0C
  0
DICTIONARY
  5
E13
330
DBE
100
AcDbDictionary
280
     1
281
     1
  3
ACAD_XREC_ROUNDTRIP
360
E14
  0
DICTIONARY
  5
E01
330
DB5
100
AcDbDictionary
280
     1
281
     1
  3
ACAD_XREC_ROUNDTRIP
360
E02
  0
DICTIONARY
  5
E1F
330
DC4
100
AcDbDictionary
280
     1
281
     1
  3
ACAD_XREC_ROUNDTRIP
360
E20
  0
DICTIONARY
  5
E1D
330
DC3
100
AcDbDictionary
280
     1
281
     1
  3
ACAD_XREC_ROUNDTRIP
360
E1E
  0
DICTIONARY
  5
E17
330
DC0
100
AcDbDictionary
280
     1
281
     1
  3
ACAD_XREC_ROUNDTRIP
360
E18
  0
DICTIONARY
  5
E19
330
DC1
100
AcDbDictionary
280
     1
281
     1
  3
ACAD_XREC_ROUNDTRIP
360
E1A
  0
DICTIONARY
  5
E09
330
DB9
100
AcDbDictionary
280
     1
281
     1
  3
ACAD_XREC_ROUNDTRIP
360
E0A
  0
DICTIONARY
  5
DFB
330
DB2
100
AcDbDictionary
280
     1
281
     1
  3
ACAD_XREC_ROUNDTRIP
360
DFC
  0
DICTIONARY
  5
E1B
330
DC2
100
AcDbDictionary
280
     1
281
     1
  3
ACAD_XREC_ROUNDTRIP
360
E1C
  0
CELLSTYLEMAP
  5
E22
102
{ACAD_REACTORS
330
E21
102
}
330
E21
100
AcDbCellStyleMap
 90
        3
300
CELLSTYLE
  1
TABLEFORMAT_BEGIN
 90
        5
170
     1
 91
        0
 92
    32768
 62
   257
 93
        1
300
CONTENTFORMAT
  1
CONTENTFORMAT_BEGIN
 90
        0
 91
        0
 92
        4
 93
        0
300

 40
0.0
140
1.0
 94
        5
 62
     0
340
11
144
0.25
309
CONTENTFORMAT_END
171
     1
301
MARGIN
  1
CELLMARGIN_BEGIN
 40
0.06
 40
0.06
 40
0.06
 40
0.06
 40
0.06
 40
0.06
309
CELLMARGIN_END
 94
        6
 95
        1
302
GRIDFORMAT
  1
GRIDFORMAT_BEGIN
 90
        0
 91
        1
 62
     0
 92
       -2
340
13
 93
        0
 40
0.045
309
GRIDFORMAT_END
 95
        2
302
GRIDFORMAT
  1
GRIDFORMAT_BEGIN
 90
        0
 91
        1
 62
     0
 92
       -2
340
13
 93
        0
 40
0.045
309
GRIDFORMAT_END
 95
        4
302
GRIDFORMAT
  1
GRIDFORMAT_BEGIN
 90
        0
 91
        1
 62
     0
 92
       -2
340
13
 93
        0
 40
0.045
309
GRIDFORMAT_END
 95
        8
302
GRIDFORMAT
  1
GRIDFORMAT_BEGIN
 90
        0
 91
        1
 62
     0
 92
       -2
340
13
 93
        0
 40
0.045
309
GRIDFORMAT_END
 95
       16
302
GRIDFORMAT
  1
GRIDFORMAT_BEGIN
 90
        0
 91
        1
 62
     0
 92
       -2
340
13
 93
        0
 40
0.045
309
GRIDFORMAT_END
 95
       32
302
GRIDFORMAT
  1
GRIDFORMAT_BEGIN
 90
        0
 91
        1
 62
     0
 92
       -2
340
13
 93
        0
 40
0.045
309
GRIDFORMAT_END
309
TABLEFORMAT_END
  1
CELLSTYLE_BEGIN
 90
        1
 91
        1
300
_TITLE
309
CELLSTYLE_END
300
CELLSTYLE
  1
TABLEFORMAT_BEGIN
 90
        5
170
     1
 91
        0
 92
        0
 62
   257
 93
        1
300
CONTENTFORMAT
  1
CONTENTFORMAT_BEGIN
 90
        0
 91
        0
 92
        4
 93
        0
300

 40
0.0
140
1.0
 94
        5
 62
     0
340
11
144
0.18
309
CONTENTFORMAT_END
171
     1
301
MARGIN
  1
CELLMARGIN_BEGIN
 40
0.06
 40
0.06
 40
0.06
 40
0.06
 40
0.06
 40
0.06
309
CELLMARGIN_END
 94
        6
 95
        1
302
GRIDFORMAT
  1
GRIDFORMAT_BEGIN
 90
        0
 91
        1
 62
     0
 92
       -2
340
13
 93
        0
 40
0.045
309
GRIDFORMAT_END
 95
        2
302
GRIDFORMAT
  1
GRIDFORMAT_BEGIN
 90
        0
 91
        1
 62
     0
 92
       -2
340
13
 93
        0
 40
0.045
309
GRIDFORMAT_END
 95
        4
302
GRIDFORMAT
  1
GRIDFORMAT_BEGIN
 90
        0
 91
        1
 62
     0
 92
       -2
340
13
 93
        0
 40
0.045
309
GRIDFORMAT_END
 95
        8
302
GRIDFORMAT
  1
GRIDFORMAT_BEGIN
 90
        0
 91
        1
 62
     0
 92
       -2
340
13
 93
        0
 40
0.045
309
GRIDFORMAT_END
 95
       16
302
GRIDFORMAT
  1
GRIDFORMAT_BEGIN
 90
        0
 91
        1
 62
     0
 92
       -2
340
13
 93
        0
 40
0.045
309
GRIDFORMAT_END
 95
       32
302
GRIDFORMAT
  1
GRIDFORMAT_BEGIN
 90
        0
 91
        1
 62
     0
 92
       -2
340
13
 93
        0
 40
0.045
309
GRIDFORMAT_END
309
TABLEFORMAT_END
  1
CELLSTYLE_BEGIN
 90
        2
 91
        1
300
_HEADER
309
CELLSTYLE_END
300
CELLSTYLE
  1
TABLEFORMAT_BEGIN
 90
        5
170
     1
 91
        0
 92
        0
 62
   257
 93
        1
300
CONTENTFORMAT
  1
CONTENTFORMAT_BEGIN
 90
        0
 91
        0
 92
        4
 93
        0
300

 40
0.0
140
1.0
 94
        2
 62
     0
340
11
144
0.18
309
CONTENTFORMAT_END
171
     1
301
MARGIN
  1
CELLMARGIN_BEGIN
 40
0.06
 40
0.06
 40
0.06
 40
0.06
 40
0.06
 40
0.06
309
CELLMARGIN_END
 94
        6
 95
        1
302
GRIDFORMAT
  1
GRIDFORMAT_BEGIN
 90
        0
 91
        1
 62
     0
 92
       -2
340
13
 93
        0
 40
0.045
309
GRIDFORMAT_END
 95
        2
302
GRIDFORMAT
  1
GRIDFORMAT_BEGIN
 90
        0
 91
        1
 62
     0
 92
       -2
340
13
 93
        0
 40
0.045
309
GRIDFORMAT_END
 95
        4
302
GRIDFORMAT
  1
GRIDFORMAT_BEGIN
 90
        0
 91
        1
 62
     0
 92
       -2
340
13
 93
        0
 40
0.045
309
GRIDFORMAT_END
 95
        8
302
GRIDFORMAT
  1
GRIDFORMAT_BEGIN
 90
        0
 91
        1
 62
     0
 92
       -2
340
13
 93
        0
 40
0.045
309
GRIDFORMAT_END
 95
       16
302
GRIDFORMAT
  1
GRIDFORMAT_BEGIN
 90
        0
 91
        1
 62
     0
 92
       -2
340
13
 93
        0
 40
0.045
309
GRIDFORMAT_END
 95
       32
302
GRIDFORMAT
  1
GRIDFORMAT_BEGIN
 90
        0
 91
        1
 62
     0
 92
       -2
340
13
 93
        0
 40
0.045
309
GRIDFORMAT_END
309
TABLEFORMAT_END
  1
CELLSTYLE_BEGIN
 90
        3
 91
        2
300
_DATA
309
CELLSTYLE_END
  0
XRECORD
  5
DFA
102
{ACAD_REACTORS
330
DF9
102
}
330
DF9
100
AcDbXrecord
280
     1
102
RTVSPost2010Prop28
280
     1
102
RTVSPost2010PropOp28
 70
     1
102
RTVSPost2010Prop29
280
     1
102
RTVSPost2010PropOp29
 70
     1
102
RTVSPost2010Prop30
280
     0
102
RTVSPost2010PropOp30
 70
     1
102
RTVSPost2010Prop31
280
     0
102
RTVSPost2010PropOp31
 70
     1
102
RTVSPost2010Prop32
280
     0
102
RTVSPost2010PropOp32
 70
     1
102
RTVSPost2010Prop33
280
     0
102
RTVSPost2010PropOp33
 70
     1
102
RTVSPost2010Prop34
280
     0
102
RTVSPost2010PropOp34
 70
     1
102
RTVSPost2010Prop35
280
     0
102
RTVSPost2010PropOp35
 70
     1
102
RTVSPost2010Prop36
280
     0
102
RTVSPost2010PropOp36
 70
     1
102
RTVSPost2010Prop37
 90
       50
102
RTVSPost2010PropOp37
 70
     1
102
RTVSPost2010Prop38
140
0.0
102
RTVSPost2010PropOp38
 70
     1
102
RTVSPost2010Prop39
140
1.0
102
RTVSPost2010PropOp39
 70
     1
102
RTVSPost2010Prop40
 90
        0
102
RTVSPost2010PropOp40
 70
     1
102
RTVSPost2010Prop41ColorIndex
 90
       18
102
RTVSPost2010Prop41ColorRGB
 90
        0
102
RTVSPost2010PropOp41
 70
     1
102
RTVSPost2010Prop42
 90
       50
102
RTVSPost2010PropOp42
 70
     1
102
RTVSPost2010Prop43
 90
        3
102
RTVSPost2010PropOp43
 70
     1
102
RTVSPost2010Prop44ColorIndex
 90
        5
102
RTVSPost2010Prop44ColorRGB
 90
      255
102
RTVSPost2010PropOp44
 70
     1
102
RTVSPost2010Prop45
280
     0
102
RTVSPost2010PropOp45
 70
     1
102
RTVSPost2010Prop46
 90
       50
102
RTVSPost2010PropOp46
 70
     1
102
RTVSPost2010Prop47
 90
       50
102
RTVSPost2010PropOp47
 70
     1
102
RTVSPost2010Prop48
 90
       50
102
RTVSPost2010PropOp48
 70
     1
102
RTVSPost2010Prop49
280
     0
102
RTVSPost2010PropOp49
 70
     1
102
RTVSPost2010Prop50
 90
       50
102
RTVSPost2010PropOp50
 70
     1
102
RTVSPost2010Prop51ColorIndex
 90
      256
102
RTVSPost2010Prop51ColorRGB
 90
-16777216
102
RTVSPost2010PropOp51
 70
     0
102
RTVSPost2010Prop52
140
1.0
102
RTVSPost2010PropOp52
 70
     0
102
RTVSPost2010Prop53
 90
        2
102
RTVSPost2010PropOp53
 70
     1
102
RTVSPost2010Prop54
  1
strokes_ogs.tif
102
RTVSPost2010PropOp54
 70
     1
102
RTVSPost2010Prop55
280
     0
102
RTVSPost2010PropOp55
 70
     1
102
RTVSPost2010Prop56
140
1.0
102
RTVSPost2010PropOp56
 70
     1
102
RTVSPost2010Prop57
140
1.0
102
RTVSPost2010PropOp57
 70
     1
  0
XRECORD
  5
E00
102
{ACAD_REACTORS
330
DFF
102
}
330
DFF
100
AcDbXrecord
280
     1
102
RTVSPost2010Prop28
280
     0
102
RTVSPost2010PropOp28
 70
     1
102
RTVSPost2010Prop29
280
     1
102
RTVSPost2010PropOp29
 70
     1
102
RTVSPost2010Prop30
280
     1
102
RTVSPost2010PropOp30
 70
     1
102
RTVSPost2010Prop31
280
     0
102
RTVSPost2010PropOp31
 70
     1
102
RTVSPost2010Prop32
280
     0
102
RTVSPost2010PropOp32
 70
     1
102
RTVSPost2010Prop33
280
     0
102
RTVSPost2010PropOp33
 70
     1
102
RTVSPost2010Prop34
280
     0
102
RTVSPost2010PropOp34
 70
     1
102
RTVSPost2010Prop35
280
     0
102
RTVSPost2010PropOp35
 70
     1
102
RTVSPost2010Prop36
280
     0
102
RTVSPost2010PropOp36
 70
     1
102
RTVSPost2010Prop37
 90
       50
102
RTVSPost2010PropOp37
 70
     1
102
RTVSPost2010Prop38
140
0.0
102
RTVSPost2010PropOp38
 70
     1
102
RTVSPost2010Prop39
140
1.0
102
RTVSPost2010PropOp39
 70
     1
102
RTVSPost2010Prop40
 90
        0
102
RTVSPost2010PropOp40
 70
     1
102
RTVSPost2010Prop41ColorIndex
 90
       18
102
RTVSPost2010Prop41ColorRGB
 90
        0
102
RTVSPost2010PropOp41
 70
     1
102
RTVSPost2010Prop42
 90
       50
102
RTVSPost2010PropOp42
 70
     1
102
RTVSPost2010Prop43
 90
        3
102
RTVSPost2010PropOp43
 70
     1
102
RTVSPost2010Prop44ColorIndex
 90
        5
102
RTVSPost2010Prop44ColorRGB
 90
      255
102
RTVSPost2010PropOp44
 70
     1
102
RTVSPost2010Prop45
280
     0
102
RTVSPost2010PropOp45
 70
     1
102
RTVSPost2010Prop46
 90
       50
102
RTVSPost2010PropOp46
 70
     1
102
RTVSPost2010Prop47
 90
       50
102
RTVSPost2010PropOp47
 70
     1
102
RTVSPost2010Prop48
 90
       50
102
RTVSPost2010PropOp48
 70
     1
102
RTVSPost2010Prop49
280
     0
102
RTVSPost2010PropOp49
 70
     1
102
RTVSPost2010Prop50
 90
       50
102
RTVSPost2010PropOp50
 70
     1
102
RTVSPost2010Prop51ColorIndex
 90
      256
102
RTVSPost2010Prop51ColorRGB
 90
-16777216
102
RTVSPost2010PropOp51
 70
     0
102
RTVSPost2010Prop52
140
1.0
102
RTVSPost2010PropOp52
 70
     0
102
RTVSPost2010Prop53
 90
        2
102
RTVSPost2010PropOp53
 70
     1
102
RTVSPost2010Prop54
  1
strokes_ogs.tif
102
RTVSPost2010PropOp54
 70
     1
102
RTVSPost2010Prop55
280
     0
102
RTVSPost2010PropOp55
 70
     1
102
RTVSPost2010Prop56
140
1.0
102
RTVSPost2010PropOp56
 70
     1
102
RTVSPost2010Prop57
140
1.0
102
RTVSPost2010PropOp57
 70
     1
  0
XRECORD
  5
E08
102
{ACAD_REACTORS
330
E07
102
}
330
E07
100
AcDbXrecord
280
     1
102
RTVSPost2010Prop28
280
     0
102
RTVSPost2010PropOp28
 70
     1
102
RTVSPost2010Prop29
280
     1
102
RTVSPost2010PropOp29
 70
     1
102
RTVSPost2010Prop30
280
     1
102
RTVSPost2010PropOp30
 70
     1
102
RTVSPost2010Prop31
280
     0
102
RTVSPost2010PropOp31
 70
     1
102
RTVSPost2010Prop32
280
     0
102
RTVSPost2010PropOp32
 70
     1
102
RTVSPost2010Prop33
280
     0
102
RTVSPost2010PropOp33
 70
     1
102
RTVSPost2010Prop34
280
     0
102
RTVSPost2010PropOp34
 70
     1
102
RTVSPost2010Prop35
280
     0
102
RTVSPost2010PropOp35
 70
     1
102
RTVSPost2010Prop36
280
     0
102
RTVSPost2010PropOp36
 70
     1
102
RTVSPost2010Prop37
 90
       50
102
RTVSPost2010PropOp37
 70
     1
102
RTVSPost2010Prop38
140
0.0
102
RTVSPost2010PropOp38
 70
     1
102
RTVSPost2010Prop39
140
1.0
102
RTVSPost2010PropOp39
 70
     1
102
RTVSPost2010Prop40
 90
        0
102
RTVSPost2010PropOp40
 70
     1
102
RTVSPost2010Prop41ColorIndex
 90
       18
102
RTVSPost2010Prop41ColorRGB
 90
        0
102
RTVSPost2010PropOp41
 70
     1
102
RTVSPost2010Prop42
 90
       50
102
RTVSPost2010PropOp42
 70
     1
102
RTVSPost2010Prop43
 90
        3
102
RTVSPost2010PropOp43
 70
     1
102
RTVSPost2010Prop44ColorIndex
 90
        5
102
RTVSPost2010Prop44ColorRGB
 90
      255
102
RTVSPost2010PropOp44
 70
     1
102
RTVSPost2010Prop45
280
     0
102
RTVSPost2010PropOp45
 70
     1
102
RTVSPost2010Prop46
 90
       50
102
RTVSPost2010PropOp46
 70
     1
102
RTVSPost2010Prop47
 90
       50
102
RTVSPost2010PropOp47
 70
     1
102
RTVSPost2010Prop48
 90
       50
102
RTVSPost2010PropOp48
 70
     1
102
RTVSPost2010Prop49
280
     0
102
RTVSPost2010PropOp49
 70
     1
102
RTVSPost2010Prop50
 90
       50
102
RTVSPost2010PropOp50
 70
     1
102
RTVSPost2010Prop51ColorIndex
 90
      256
102
RTVSPost2010Prop51ColorRGB
 90
-16777216
102
RTVSPost2010PropOp51
 70
     0
102
RTVSPost2010Prop52
140
1.0
102
RTVSPost2010PropOp52
 70
     0
102
RTVSPost2010Prop53
 90
        2
102
RTVSPost2010PropOp53
 70
     1
102
RTVSPost2010Prop54
  1
strokes_ogs.tif
102
RTVSPost2010PropOp54
 70
     1
102
RTVSPost2010Prop55
280
     0
102
RTVSPost2010PropOp55
 70
     1
102
RTVSPost2010Prop56
140
1.0
102
RTVSPost2010PropOp56
 70
     1
102
RTVSPost2010Prop57
140
1.0
102
RTVSPost2010PropOp57
 70
     1
  0
XRECORD
  5
E10
102
{ACAD_REACTORS
330
E0F
102
}
330
E0F
100
AcDbXrecord
280
     1
102
RTVSPost2010Prop28
280
     0
102
RTVSPost2010PropOp28
 70
     1
102
RTVSPost2010Prop29
280
     1
102
RTVSPost2010PropOp29
 70
     1
102
RTVSPost2010Prop30
280
     1
102
RTVSPost2010PropOp30
 70
     1
102
RTVSPost2010Prop31
280
     0
102
RTVSPost2010PropOp31
 70
     1
102
RTVSPost2010Prop32
280
     0
102
RTVSPost2010PropOp32
 70
     1
102
RTVSPost2010Prop33
280
     0
102
RTVSPost2010PropOp33
 70
     1
102
RTVSPost2010Prop34
280
     0
102
RTVSPost2010PropOp34
 70
     1
102
RTVSPost2010Prop35
280
     0
102
RTVSPost2010PropOp35
 70
     1
102
RTVSPost2010Prop36
280
     0
102
RTVSPost2010PropOp36
 70
     1
102
RTVSPost2010Prop37
 90
       50
102
RTVSPost2010PropOp37
 70
     1
102
RTVSPost2010Prop38
140
0.0
102
RTVSPost2010PropOp38
 70
     1
102
RTVSPost2010Prop39
140
1.0
102
RTVSPost2010PropOp39
 70
     1
102
RTVSPost2010Prop40
 90
        0
102
RTVSPost2010PropOp40
 70
     1
102
RTVSPost2010Prop41ColorIndex
 90
       18
102
RTVSPost2010Prop41ColorRGB
 90
        0
102
RTVSPost2010PropOp41
 70
     1
102
RTVSPost2010Prop42
 90
       50
102
RTVSPost2010PropOp42
 70
     1
102
RTVSPost2010Prop43
 90
        3
102
RTVSPost2010PropOp43
 70
     1
102
RTVSPost2010Prop44ColorIndex
 90
        5
102
RTVSPost2010Prop44ColorRGB
 90
      255
102
RTVSPost2010PropOp44
 70
     1
102
RTVSPost2010Prop45
280
     0
102
RTVSPost2010PropOp45
 70
     1
102
RTVSPost2010Prop46
 90
       50
102
RTVSPost2010PropOp46
 70
     1
102
RTVSPost2010Prop47
 90
       50
102
RTVSPost2010PropOp47
 70
     1
102
RTVSPost2010Prop48
 90
       50
102
RTVSPost2010PropOp48
 70
     1
102
RTVSPost2010Prop49
280
     0
102
RTVSPost2010PropOp49
 70
     1
102
RTVSPost2010Prop50
 90
       50
102
RTVSPost2010PropOp50
 70
     1
102
RTVSPost2010Prop51ColorIndex
 90
      256
102
RTVSPost2010Prop51ColorRGB
 90
-16777216
102
RTVSPost2010PropOp51
 70
     0
102
RTVSPost2010Prop52
140
1.0
102
RTVSPost2010PropOp52
 70
     0
102
RTVSPost2010Prop53
 90
        2
102
RTVSPost2010PropOp53
 70
     1
102
RTVSPost2010Prop54
  1
strokes_ogs.tif
102
RTVSPost2010PropOp54
 70
     1
102
RTVSPost2010Prop55
280
     0
102
RTVSPost2010PropOp55
 70
     1
102
RTVSPost2010Prop56
140
1.0
102
RTVSPost2010PropOp56
 70
     1
102
RTVSPost2010Prop57
140
1.0
102
RTVSPost2010PropOp57
 70
     1
  0
XRECORD
  5
E04
102
{ACAD_REACTORS
330
E03
102
}
330
E03
100
AcDbXrecord
280
     1
102
RTVSPost2010Prop28
280
     0
102
RTVSPost2010PropOp28
 70
     1
102
RTVSPost2010Prop29
280
     1
102
RTVSPost2010PropOp29
 70
     1
102
RTVSPost2010Prop30
280
     1
102
RTVSPost2010PropOp30
 70
     1
102
RTVSPost2010Prop31
280
     0
102
RTVSPost2010PropOp31
 70
     1
102
RTVSPost2010Prop32
280
     0
102
RTVSPost2010PropOp32
 70
     1
102
RTVSPost2010Prop33
280
     0
102
RTVSPost2010PropOp33
 70
     1
102
RTVSPost2010Prop34
280
     0
102
RTVSPost2010PropOp34
 70
     1
102
RTVSPost2010Prop35
280
     0
102
RTVSPost2010PropOp35
 70
     1
102
RTVSPost2010Prop36
280
     0
102
RTVSPost2010PropOp36
 70
     1
102
RTVSPost2010Prop37
 90
       50
102
RTVSPost2010PropOp37
 70
     1
102
RTVSPost2010Prop38
140
0.0
102
RTVSPost2010PropOp38
 70
     1
102
RTVSPost2010Prop39
140
1.0
102
RTVSPost2010PropOp39
 70
     1
102
RTVSPost2010Prop40
 90
        0
102
RTVSPost2010PropOp40
 70
     1
102
RTVSPost2010Prop41ColorIndex
 90
       18
102
RTVSPost2010Prop41ColorRGB
 90
        0
102
RTVSPost2010PropOp41
 70
     1
102
RTVSPost2010Prop42
 90
       50
102
RTVSPost2010PropOp42
 70
     1
102
RTVSPost2010Prop43
 90
        3
102
RTVSPost2010PropOp43
 70
     1
102
RTVSPost2010Prop44ColorIndex
 90
        5
102
RTVSPost2010Prop44ColorRGB
 90
      255
102
RTVSPost2010PropOp44
 70
     1
102
RTVSPost2010Prop45
280
     0
102
RTVSPost2010PropOp45
 70
     1
102
RTVSPost2010Prop46
 90
       50
102
RTVSPost2010PropOp46
 70
     1
102
RTVSPost2010Prop47
 90
       50
102
RTVSPost2010PropOp47
 70
     1
102
RTVSPost2010Prop48
 90
       50
102
RTVSPost2010PropOp48
 70
     1
102
RTVSPost2010Prop49
280
     0
102
RTVSPost2010PropOp49
 70
     1
102
RTVSPost2010Prop50
 90
       50
102
RTVSPost2010PropOp50
 70
     1
102
RTVSPost2010Prop51ColorIndex
 90
      256
102
RTVSPost2010Prop51ColorRGB
 90
-16777216
102
RTVSPost2010PropOp51
 70
     0
102
RTVSPost2010Prop52
140
1.0
102
RTVSPost2010PropOp52
 70
     0
102
RTVSPost2010Prop53
 90
        2
102
RTVSPost2010PropOp53
 70
     1
102
RTVSPost2010Prop54
  1
strokes_ogs.tif
102
RTVSPost2010PropOp54
 70
     1
102
RTVSPost2010Prop55
280
     0
102
RTVSPost2010PropOp55
 70
     1
102
RTVSPost2010Prop56
140
1.0
102
RTVSPost2010PropOp56
 70
     1
102
RTVSPost2010Prop57
140
1.0
102
RTVSPost2010PropOp57
 70
     1
  0
XRECORD
  5
E06
102
{ACAD_REACTORS
330
E05
102
}
330
E05
100
AcDbXrecord
280
     1
102
RTVSPost2010Prop28
280
     0
102
RTVSPost2010PropOp28
 70
     1
102
RTVSPost2010Prop29
280
     1
102
RTVSPost2010PropOp29
 70
     1
102
RTVSPost2010Prop30
280
     1
102
RTVSPost2010PropOp30
 70
     1
102
RTVSPost2010Prop31
280
     0
102
RTVSPost2010PropOp31
 70
     1
102
RTVSPost2010Prop32
280
     0
102
RTVSPost2010PropOp32
 70
     1
102
RTVSPost2010Prop33
280
     0
102
RTVSPost2010PropOp33
 70
     1
102
RTVSPost2010Prop34
280
     0
102
RTVSPost2010PropOp34
 70
     1
102
RTVSPost2010Prop35
280
     0
102
RTVSPost2010PropOp35
 70
     1
102
RTVSPost2010Prop36
280
     0
102
RTVSPost2010PropOp36
 70
     1
102
RTVSPost2010Prop37
 90
       50
102
RTVSPost2010PropOp37
 70
     1
102
RTVSPost2010Prop38
140
0.0
102
RTVSPost2010PropOp38
 70
     1
102
RTVSPost2010Prop39
140
1.0
102
RTVSPost2010PropOp39
 70
     1
102
RTVSPost2010Prop40
 90
        0
102
RTVSPost2010PropOp40
 70
     1
102
RTVSPost2010Prop41ColorIndex
 90
       18
102
RTVSPost2010Prop41ColorRGB
 90
        0
102
RTVSPost2010PropOp41
 70
     1
102
RTVSPost2010Prop42
 90
       50
102
RTVSPost2010PropOp42
 70
     1
102
RTVSPost2010Prop43
 90
        3
102
RTVSPost2010PropOp43
 70
     1
102
RTVSPost2010Prop44ColorIndex
 90
        5
102
RTVSPost2010Prop44ColorRGB
 90
      255
102
RTVSPost2010PropOp44
 70
     1
102
RTVSPost2010Prop45
280
     0
102
RTVSPost2010PropOp45
 70
     1
102
RTVSPost2010Prop46
 90
       50
102
RTVSPost2010PropOp46
 70
     1
102
RTVSPost2010Prop47
 90
       50
102
RTVSPost2010PropOp47
 70
     1
102
RTVSPost2010Prop48
 90
       50
102
RTVSPost2010PropOp48
 70
     1
102
RTVSPost2010Prop49
280
     0
102
RTVSPost2010PropOp49
 70
     1
102
RTVSPost2010Prop50
 90
       50
102
RTVSPost2010PropOp50
 70
     1
102
RTVSPost2010Prop51ColorIndex
 90
      256
102
RTVSPost2010Prop51ColorRGB
 90
-16777216
102
RTVSPost2010PropOp51
 70
     0
102
RTVSPost2010Prop52
140
1.0
102
RTVSPost2010PropOp52
 70
     0
102
RTVSPost2010Prop53
 90
        2
102
RTVSPost2010PropOp53
 70
     1
102
RTVSPost2010Prop54
  1
strokes_ogs.tif
102
RTVSPost2010PropOp54
 70
     1
102
RTVSPost2010Prop55
280
     0
102
RTVSPost2010PropOp55
 70
     1
102
RTVSPost2010Prop56
140
1.0
102
RTVSPost2010PropOp56
 70
     1
102
RTVSPost2010Prop57
140
1.0
102
RTVSPost2010PropOp57
 70
     1
  0
XRECORD
  5
E16
102
{ACAD_REACTORS
330
E15
102
}
330
E15
100
AcDbXrecord
280
     1
102
RTVSPost2010Prop28
280
     0
102
RTVSPost2010PropOp28
 70
     0
102
RTVSPost2010Prop29
280
     1
102
RTVSPost2010PropOp29
 70
     0
102
RTVSPost2010Prop30
280
     1
102
RTVSPost2010PropOp30
 70
     0
102
RTVSPost2010Prop31
280
     0
102
RTVSPost2010PropOp31
 70
     0
102
RTVSPost2010Prop32
280
     0
102
RTVSPost2010PropOp32
 70
     0
102
RTVSPost2010Prop33
280
     0
102
RTVSPost2010PropOp33
 70
     0
102
RTVSPost2010Prop34
280
     0
102
RTVSPost2010PropOp34
 70
     0
102
RTVSPost2010Prop35
280
     0
102
RTVSPost2010PropOp35
 70
     0
102
RTVSPost2010Prop36
280
     0
102
RTVSPost2010PropOp36
 70
     0
102
RTVSPost2010Prop37
 90
       50
102
RTVSPost2010PropOp37
 70
     0
102
RTVSPost2010Prop38
140
0.0
102
RTVSPost2010PropOp38
 70
     0
102
RTVSPost2010Prop39
140
1.0
102
RTVSPost2010PropOp39
 70
     0
102
RTVSPost2010Prop40
 90
        0
102
RTVSPost2010PropOp40
 70
     0
102
RTVSPost2010Prop41ColorIndex
 90
       18
102
RTVSPost2010Prop41ColorRGB
 90
        0
102
RTVSPost2010PropOp41
 70
     0
102
RTVSPost2010Prop42
 90
       50
102
RTVSPost2010PropOp42
 70
     0
102
RTVSPost2010Prop43
 90
        3
102
RTVSPost2010PropOp43
 70
     0
102
RTVSPost2010Prop44ColorIndex
 90
        5
102
RTVSPost2010Prop44ColorRGB
 90
      255
102
RTVSPost2010PropOp44
 70
     0
102
RTVSPost2010Prop45
280
     0
102
RTVSPost2010PropOp45
 70
     0
102
RTVSPost2010Prop46
 90
       50
102
RTVSPost2010PropOp46
 70
     0
102
RTVSPost2010Prop47
 90
       50
102
RTVSPost2010PropOp47
 70
     0
102
RTVSPost2010Prop48
 90
       50
102
RTVSPost2010PropOp48
 70
     0
102
RTVSPost2010Prop49
280
     0
102
RTVSPost2010PropOp49
 70
     0
102
RTVSPost2010Prop50
 90
       50
102
RTVSPost2010PropOp50
 70
     0
102
RTVSPost2010Prop51ColorIndex
 90
      256
102
RTVSPost2010Prop51ColorRGB
 90
-16777216
102
RTVSPost2010PropOp51
 70
     0
102
RTVSPost2010Prop52
140
1.0
102
RTVSPost2010PropOp52
 70
     0
102
RTVSPost2010Prop53
 90
        2
102
RTVSPost2010PropOp53
 70
     0
102
RTVSPost2010Prop54
  1
strokes_ogs.tif
102
RTVSPost2010PropOp54
 70
     0
102
RTVSPost2010Prop55
280
     0
102
RTVSPost2010PropOp55
 70
     0
102
RTVSPost2010Prop56
140
1.0
102
RTVSPost2010PropOp56
 70
     0
102
RTVSPost2010Prop57
140
1.0
102
RTVSPost2010PropOp57
 70
     0
  0
XRECORD
  5
E0E
102
{ACAD_REACTORS
330
E0D
102
}
330
E0D
100
AcDbXrecord
280
     1
102
RTVSPost2010Prop28
280
     0
102
RTVSPost2010PropOp28
 70
     1
102
RTVSPost2010Prop29
280
     1
102
RTVSPost2010PropOp29
 70
     1
102
RTVSPost2010Prop30
280
     1
102
RTVSPost2010PropOp30
 70
     1
102
RTVSPost2010Prop31
280
     0
102
RTVSPost2010PropOp31
 70
     1
102
RTVSPost2010Prop32
280
     0
102
RTVSPost2010PropOp32
 70
     1
102
RTVSPost2010Prop33
280
     0
102
RTVSPost2010PropOp33
 70
     1
102
RTVSPost2010Prop34
280
     0
102
RTVSPost2010PropOp34
 70
     1
102
RTVSPost2010Prop35
280
     0
102
RTVSPost2010PropOp35
 70
     1
102
RTVSPost2010Prop36
280
     0
102
RTVSPost2010PropOp36
 70
     1
102
RTVSPost2010Prop37
 90
       50
102
RTVSPost2010PropOp37
 70
     1
102
RTVSPost2010Prop38
140
0.0
102
RTVSPost2010PropOp38
 70
     1
102
RTVSPost2010Prop39
140
1.0
102
RTVSPost2010PropOp39
 70
     1
102
RTVSPost2010Prop40
 90
        0
102
RTVSPost2010PropOp40
 70
     1
102
RTVSPost2010Prop41ColorIndex
 90
       18
102
RTVSPost2010Prop41ColorRGB
 90
        0
102
RTVSPost2010PropOp41
 70
     1
102
RTVSPost2010Prop42
 90
       50
102
RTVSPost2010PropOp42
 70
     1
102
RTVSPost2010Prop43
 90
        3
102
RTVSPost2010PropOp43
 70
     1
102
RTVSPost2010Prop44ColorIndex
 90
        5
102
RTVSPost2010Prop44ColorRGB
 90
      255
102
RTVSPost2010PropOp44
 70
     1
102
RTVSPost2010Prop45
280
     0
102
RTVSPost2010PropOp45
 70
     1
102
RTVSPost2010Prop46
 90
       50
102
RTVSPost2010PropOp46
 70
     1
102
RTVSPost2010Prop47
 90
       50
102
RTVSPost2010PropOp47
 70
     1
102
RTVSPost2010Prop48
 90
       50
102
RTVSPost2010PropOp48
 70
     1
102
RTVSPost2010Prop49
280
     0
102
RTVSPost2010PropOp49
 70
     1
102
RTVSPost2010Prop50
 90
       50
102
RTVSPost2010PropOp50
 70
     1
102
RTVSPost2010Prop51ColorIndex
 90
      256
102
RTVSPost2010Prop51ColorRGB
 90
-16777216
102
RTVSPost2010PropOp51
 70
     0
102
RTVSPost2010Prop52
140
1.0
102
RTVSPost2010PropOp52
 70
     0
102
RTVSPost2010Prop53
 90
        2
102
RTVSPost2010PropOp53
 70
     1
102
RTVSPost2010Prop54
  1
strokes_ogs.tif
102
RTVSPost2010PropOp54
 70
     1
102
RTVSPost2010Prop55
280
     0
102
RTVSPost2010PropOp55
 70
     1
102
RTVSPost2010Prop56
140
1.0
102
RTVSPost2010PropOp56
 70
     1
102
RTVSPost2010Prop57
140
1.0
102
RTVSPost2010PropOp57
 70
     1
  0
XRECORD
  5
DF2
102
{ACAD_REACTORS
330
DF1
102
}
330
DF1
100
AcDbXrecord
280
     1
102
RTVSPost2010Prop28
280
     0
102
RTVSPost2010PropOp28
 70
     1
102
RTVSPost2010Prop29
280
     1
102
RTVSPost2010PropOp29
 70
     1
102
RTVSPost2010Prop30
280
     1
102
RTVSPost2010PropOp30
 70
     1
102
RTVSPost2010Prop31
280
     0
102
RTVSPost2010PropOp31
 70
     1
102
RTVSPost2010Prop32
280
     0
102
RTVSPost2010PropOp32
 70
     1
102
RTVSPost2010Prop33
280
     0
102
RTVSPost2010PropOp33
 70
     1
102
RTVSPost2010Prop34
280
     0
102
RTVSPost2010PropOp34
 70
     1
102
RTVSPost2010Prop35
280
     0
102
RTVSPost2010PropOp35
 70
     1
102
RTVSPost2010Prop36
280
     0
102
RTVSPost2010PropOp36
 70
     1
102
RTVSPost2010Prop37
 90
       50
102
RTVSPost2010PropOp37
 70
     1
102
RTVSPost2010Prop38
140
0.0
102
RTVSPost2010PropOp38
 70
     1
102
RTVSPost2010Prop39
140
1.0
102
RTVSPost2010PropOp39
 70
     1
102
RTVSPost2010Prop40
 90
        0
102
RTVSPost2010PropOp40
 70
     1
102
RTVSPost2010Prop41ColorIndex
 90
       18
102
RTVSPost2010Prop41ColorRGB
 90
        0
102
RTVSPost2010PropOp41
 70
     1
102
RTVSPost2010Prop42
 90
       50
102
RTVSPost2010PropOp42
 70
     1
102
RTVSPost2010Prop43
 90
        3
102
RTVSPost2010PropOp43
 70
     1
102
RTVSPost2010Prop44ColorIndex
 90
        5
102
RTVSPost2010Prop44ColorRGB
 90
      255
102
RTVSPost2010PropOp44
 70
     1
102
RTVSPost2010Prop45
280
     0
102
RTVSPost2010PropOp45
 70
     1
102
RTVSPost2010Prop46
 90
       50
102
RTVSPost2010PropOp46
 70
     1
102
RTVSPost2010Prop47
 90
       50
102
RTVSPost2010PropOp47
 70
     1
102
RTVSPost2010Prop48
 90
       50
102
RTVSPost2010PropOp48
 70
     1
102
RTVSPost2010Prop49
280
     0
102
RTVSPost2010PropOp49
 70
     1
102
RTVSPost2010Prop50
 90
       50
102
RTVSPost2010PropOp50
 70
     1
102
RTVSPost2010Prop51ColorIndex
 90
      256
102
RTVSPost2010Prop51ColorRGB
 90
-16777216
102
RTVSPost2010PropOp51
 70
     0
102
RTVSPost2010Prop52
140
1.0
102
RTVSPost2010PropOp52
 70
     0
102
RTVSPost2010Prop53
 90
        2
102
RTVSPost2010PropOp53
 70
     1
102
RTVSPost2010Prop54
  1
strokes_ogs.tif
102
RTVSPost2010PropOp54
 70
     1
102
RTVSPost2010Prop55
280
     0
102
RTVSPost2010PropOp55
 70
     1
102
RTVSPost2010Prop56
140
1.0
102
RTVSPost2010PropOp56
 70
     1
102
RTVSPost2010Prop57
140
1.0
102
RTVSPost2010PropOp57
 70
     1
  0
XRECORD
  5
DF4
102
{ACAD_REACTORS
330
DF3
102
}
330
DF3
100
AcDbXrecord
280
     1
102
RTVSPost2010Prop28
280
     0
102
RTVSPost2010PropOp28
 70
     1
102
RTVSPost2010Prop29
280
     1
102
RTVSPost2010PropOp29
 70
     1
102
RTVSPost2010Prop30
280
     1
102
RTVSPost2010PropOp30
 70
     1
102
RTVSPost2010Prop31
280
     0
102
RTVSPost2010PropOp31
 70
     1
102
RTVSPost2010Prop32
280
     0
102
RTVSPost2010PropOp32
 70
     1
102
RTVSPost2010Prop33
280
     0
102
RTVSPost2010PropOp33
 70
     1
102
RTVSPost2010Prop34
280
     0
102
RTVSPost2010PropOp34
 70
     1
102
RTVSPost2010Prop35
280
     0
102
RTVSPost2010PropOp35
 70
     1
102
RTVSPost2010Prop36
280
     0
102
RTVSPost2010PropOp36
 70
     1
102
RTVSPost2010Prop37
 90
       50
102
RTVSPost2010PropOp37
 70
     1
102
RTVSPost2010Prop38
140
0.0
102
RTVSPost2010PropOp38
 70
     1
102
RTVSPost2010Prop39
140
1.0
102
RTVSPost2010PropOp39
 70
     1
102
RTVSPost2010Prop40
 90
        0
102
RTVSPost2010PropOp40
 70
     1
102
RTVSPost2010Prop41ColorIndex
 90
       18
102
RTVSPost2010Prop41ColorRGB
 90
        0
102
RTVSPost2010PropOp41
 70
     1
102
RTVSPost2010Prop42
 90
       50
102
RTVSPost2010PropOp42
 70
     1
102
RTVSPost2010Prop43
 90
        3
102
RTVSPost2010PropOp43
 70
     1
102
RTVSPost2010Prop44ColorIndex
 90
        5
102
RTVSPost2010Prop44ColorRGB
 90
      255
102
RTVSPost2010PropOp44
 70
     1
102
RTVSPost2010Prop45
280
     0
102
RTVSPost2010PropOp45
 70
     1
102
RTVSPost2010Prop46
 90
       50
102
RTVSPost2010PropOp46
 70
     1
102
RTVSPost2010Prop47
 90
       50
102
RTVSPost2010PropOp47
 70
     1
102
RTVSPost2010Prop48
 90
       50
102
RTVSPost2010PropOp48
 70
     1
102
RTVSPost2010Prop49
280
     0
102
RTVSPost2010PropOp49
 70
     1
102
RTVSPost2010Prop50
 90
       50
102
RTVSPost2010PropOp50
 70
     1
102
RTVSPost2010Prop51ColorIndex
 90
      256
102
RTVSPost2010Prop51ColorRGB
 90
-16777216
102
RTVSPost2010PropOp51
 70
     0
102
RTVSPost2010Prop52
140
1.0
102
RTVSPost2010PropOp52
 70
     0
102
RTVSPost2010Prop53
 90
        2
102
RTVSPost2010PropOp53
 70
     1
102
RTVSPost2010Prop54
  1
strokes_ogs.tif
102
RTVSPost2010PropOp54
 70
     1
102
RTVSPost2010Prop55
280
     0
102
RTVSPost2010PropOp55
 70
     1
102
RTVSPost2010Prop56
140
1.0
102
RTVSPost2010PropOp56
 70
     1
102
RTVSPost2010Prop57
140
1.0
102
RTVSPost2010PropOp57
 70
     1
  0
XRECORD
  5
DF6
102
{ACAD_REACTORS
330
DF5
102
}
330
DF5
100
AcDbXrecord
280
     1
102
RTVSPost2010Prop28
280
     0
102
RTVSPost2010PropOp28
 70
     1
102
RTVSPost2010Prop29
280
     1
102
RTVSPost2010PropOp29
 70
     1
102
RTVSPost2010Prop30
280
     1
102
RTVSPost2010PropOp30
 70
     1
102
RTVSPost2010Prop31
280
     0
102
RTVSPost2010PropOp31
 70
     1
102
RTVSPost2010Prop32
280
     0
102
RTVSPost2010PropOp32
 70
     1
102
RTVSPost2010Prop33
280
     0
102
RTVSPost2010PropOp33
 70
     1
102
RTVSPost2010Prop34
280
     0
102
RTVSPost2010PropOp34
 70
     1
102
RTVSPost2010Prop35
280
     0
102
RTVSPost2010PropOp35
 70
     1
102
RTVSPost2010Prop36
280
     0
102
RTVSPost2010PropOp36
 70
     1
102
RTVSPost2010Prop37
 90
       50
102
RTVSPost2010PropOp37
 70
     1
102
RTVSPost2010Prop38
140
0.0
102
RTVSPost2010PropOp38
 70
     1
102
RTVSPost2010Prop39
140
1.0
102
RTVSPost2010PropOp39
 70
     1
102
RTVSPost2010Prop40
 90
        0
102
RTVSPost2010PropOp40
 70
     1
102
RTVSPost2010Prop41ColorIndex
 90
       18
102
RTVSPost2010Prop41ColorRGB
 90
        0
102
RTVSPost2010PropOp41
 70
     1
102
RTVSPost2010Prop42
 90
       50
102
RTVSPost2010PropOp42
 70
     1
102
RTVSPost2010Prop43
 90
        3
102
RTVSPost2010PropOp43
 70
     1
102
RTVSPost2010Prop44ColorIndex
 90
        5
102
RTVSPost2010Prop44ColorRGB
 90
      255
102
RTVSPost2010PropOp44
 70
     1
102
RTVSPost2010Prop45
280
     0
102
RTVSPost2010PropOp45
 70
     1
102
RTVSPost2010Prop46
 90
       50
102
RTVSPost2010PropOp46
 70
     1
102
RTVSPost2010Prop47
 90
       50
102
RTVSPost2010PropOp47
 70
     1
102
RTVSPost2010Prop48
 90
       50
102
RTVSPost2010PropOp48
 70
     1
102
RTVSPost2010Prop49
280
     0
102
RTVSPost2010PropOp49
 70
     1
102
RTVSPost2010Prop50
 90
       50
102
RTVSPost2010PropOp50
 70
     1
102
RTVSPost2010Prop51ColorIndex
 90
      256
102
RTVSPost2010Prop51ColorRGB
 90
-16777216
102
RTVSPost2010PropOp51
 70
     0
102
RTVSPost2010Prop52
140
1.0
102
RTVSPost2010PropOp52
 70
     0
102
RTVSPost2010Prop53
 90
        2
102
RTVSPost2010PropOp53
 70
     1
102
RTVSPost2010Prop54
  1
strokes_ogs.tif
102
RTVSPost2010PropOp54
 70
     1
102
RTVSPost2010Prop55
280
     0
102
RTVSPost2010PropOp55
 70
     1
102
RTVSPost2010Prop56
140
1.0
102
RTVSPost2010PropOp56
 70
     1
102
RTVSPost2010Prop57
140
1.0
102
RTVSPost2010PropOp57
 70
     1
  0
XRECORD
  5
DF8
102
{ACAD_REACTORS
330
DF7
102
}
330
DF7
100
AcDbXrecord
280
     1
102
RTVSPost2010Prop28
280
     0
102
RTVSPost2010PropOp28
 70
     1
102
RTVSPost2010Prop29
280
     1
102
RTVSPost2010PropOp29
 70
     1
102
RTVSPost2010Prop30
280
     1
102
RTVSPost2010PropOp30
 70
     1
102
RTVSPost2010Prop31
280
     0
102
RTVSPost2010PropOp31
 70
     1
102
RTVSPost2010Prop32
280
     0
102
RTVSPost2010PropOp32
 70
     1
102
RTVSPost2010Prop33
280
     0
102
RTVSPost2010PropOp33
 70
     1
102
RTVSPost2010Prop34
280
     0
102
RTVSPost2010PropOp34
 70
     1
102
RTVSPost2010Prop35
280
     0
102
RTVSPost2010PropOp35
 70
     1
102
RTVSPost2010Prop36
280
     0
102
RTVSPost2010PropOp36
 70
     1
102
RTVSPost2010Prop37
 90
       50
102
RTVSPost2010PropOp37
 70
     1
102
RTVSPost2010Prop38
140
0.0
102
RTVSPost2010PropOp38
 70
     1
102
RTVSPost2010Prop39
140
1.0
102
RTVSPost2010PropOp39
 70
     1
102
RTVSPost2010Prop40
 90
        0
102
RTVSPost2010PropOp40
 70
     1
102
RTVSPost2010Prop41ColorIndex
 90
       18
102
RTVSPost2010Prop41ColorRGB
 90
        0
102
RTVSPost2010PropOp41
 70
     1
102
RTVSPost2010Prop42
 90
       50
102
RTVSPost2010PropOp42
 70
     1
102
RTVSPost2010Prop43
 90
        3
102
RTVSPost2010PropOp43
 70
     1
102
RTVSPost2010Prop44ColorIndex
 90
        5
102
RTVSPost2010Prop44ColorRGB
 90
      255
102
RTVSPost2010PropOp44
 70
     1
102
RTVSPost2010Prop45
280
     0
102
RTVSPost2010PropOp45
 70
     1
102
RTVSPost2010Prop46
 90
       50
102
RTVSPost2010PropOp46
 70
     1
102
RTVSPost2010Prop47
 90
       50
102
RTVSPost2010PropOp47
 70
     1
102
RTVSPost2010Prop48
 90
       50
102
RTVSPost2010PropOp48
 70
     1
102
RTVSPost2010Prop49
280
     0
102
RTVSPost2010PropOp49
 70
     1
102
RTVSPost2010Prop50
 90
       50
102
RTVSPost2010PropOp50
 70
     1
102
RTVSPost2010Prop51ColorIndex
 90
      256
102
RTVSPost2010Prop51ColorRGB
 90
-16777216
102
RTVSPost2010PropOp51
 70
     0
102
RTVSPost2010Prop52
140
1.0
102
RTVSPost2010PropOp52
 70
     0
102
RTVSPost2010Prop53
 90
        2
102
RTVSPost2010PropOp53
 70
     1
102
RTVSPost2010Prop54
  1
strokes_ogs.tif
102
RTVSPost2010PropOp54
 70
     1
102
RTVSPost2010Prop55
280
     0
102
RTVSPost2010PropOp55
 70
     1
102
RTVSPost2010Prop56
140
1.0
102
RTVSPost2010PropOp56
 70
     1
102
RTVSPost2010Prop57
140
1.0
102
RTVSPost2010PropOp57
 70
     1
  0
XRECORD
  5
DFE
102
{ACAD_REACTORS
330
DFD
102
}
330
DFD
100
AcDbXrecord
280
     1
102
RTVSPost2010Prop28
280
     0
102
RTVSPost2010PropOp28
 70
     1
102
RTVSPost2010Prop29
280
     1
102
RTVSPost2010PropOp29
 70
     1
102
RTVSPost2010Prop30
280
     1
102
RTVSPost2010PropOp30
 70
     1
102
RTVSPost2010Prop31
280
     0
102
RTVSPost2010PropOp31
 70
     1
102
RTVSPost2010Prop32
280
     0
102
RTVSPost2010PropOp32
 70
     1
102
RTVSPost2010Prop33
280
     0
102
RTVSPost2010PropOp33
 70
     1
102
RTVSPost2010Prop34
280
     0
102
RTVSPost2010PropOp34
 70
     1
102
RTVSPost2010Prop35
280
     0
102
RTVSPost2010PropOp35
 70
     1
102
RTVSPost2010Prop36
280
     0
102
RTVSPost2010PropOp36
 70
     1
102
RTVSPost2010Prop37
 90
       50
102
RTVSPost2010PropOp37
 70
     1
102
RTVSPost2010Prop38
140
0.0
102
RTVSPost2010PropOp38
 70
     1
102
RTVSPost2010Prop39
140
1.0
102
RTVSPost2010PropOp39
 70
     1
102
RTVSPost2010Prop40
 90
        0
102
RTVSPost2010PropOp40
 70
     1
102
RTVSPost2010Prop41ColorIndex
 90
       18
102
RTVSPost2010Prop41ColorRGB
 90
        0
102
RTVSPost2010PropOp41
 70
     1
102
RTVSPost2010Prop42
 90
       50
102
RTVSPost2010PropOp42
 70
     1
102
RTVSPost2010Prop43
 90
        3
102
RTVSPost2010PropOp43
 70
     1
102
RTVSPost2010Prop44ColorIndex
 90
        5
102
RTVSPost2010Prop44ColorRGB
 90
      255
102
RTVSPost2010PropOp44
 70
     1
102
RTVSPost2010Prop45
280
     0
102
RTVSPost2010PropOp45
 70
     1
102
RTVSPost2010Prop46
 90
       50
102
RTVSPost2010PropOp46
 70
     1
102
RTVSPost2010Prop47
 90
       50
102
RTVSPost2010PropOp47
 70
     1
102
RTVSPost2010Prop48
 90
       50
102
RTVSPost2010PropOp48
 70
     1
102
RTVSPost2010Prop49
280
     0
102
RTVSPost2010PropOp49
 70
     1
102
RTVSPost2010Prop50
 90
       50
102
RTVSPost2010PropOp50
 70
     1
102
RTVSPost2010Prop51ColorIndex
 90
      256
102
RTVSPost2010Prop51ColorRGB
 90
-16777216
102
RTVSPost2010PropOp51
 70
     0
102
RTVSPost2010Prop52
140
1.0
102
RTVSPost2010PropOp52
 70
     0
102
RTVSPost2010Prop53
 90
        2
102
RTVSPost2010PropOp53
 70
     1
102
RTVSPost2010Prop54
  1
strokes_ogs.tif
102
RTVSPost2010PropOp54
 70
     1
102
RTVSPost2010Prop55
280
     0
102
RTVSPost2010PropOp55
 70
     1
102
RTVSPost2010Prop56
140
1.0
102
RTVSPost2010PropOp56
 70
     1
102
RTVSPost2010Prop57
140
1.0
102
RTVSPost2010PropOp57
 70
     1
  0
XRECORD
  5
E12
102
{ACAD_REACTORS
330
E11
102
}
330
E11
100
AcDbXrecord
280
     1
102
RTVSPost2010Prop28
280
     0
102
RTVSPost2010PropOp28
 70
     0
102
RTVSPost2010Prop29
280
     1
102
RTVSPost2010PropOp29
 70
     0
102
RTVSPost2010Prop30
280
     1
102
RTVSPost2010PropOp30
 70
     0
102
RTVSPost2010Prop31
280
     0
102
RTVSPost2010PropOp31
 70
     0
102
RTVSPost2010Prop32
280
     0
102
RTVSPost2010PropOp32
 70
     0
102
RTVSPost2010Prop33
280
     0
102
RTVSPost2010PropOp33
 70
     0
102
RTVSPost2010Prop34
280
     0
102
RTVSPost2010PropOp34
 70
     0
102
RTVSPost2010Prop35
280
     0
102
RTVSPost2010PropOp35
 70
     0
102
RTVSPost2010Prop36
280
     0
102
RTVSPost2010PropOp36
 70
     0
102
RTVSPost2010Prop37
 90
       50
102
RTVSPost2010PropOp37
 70
     0
102
RTVSPost2010Prop38
140
0.0
102
RTVSPost2010PropOp38
 70
     0
102
RTVSPost2010Prop39
140
1.0
102
RTVSPost2010PropOp39
 70
     0
102
RTVSPost2010Prop40
 90
        0
102
RTVSPost2010PropOp40
 70
     0
102
RTVSPost2010Prop41ColorIndex
 90
       18
102
RTVSPost2010Prop41ColorRGB
 90
        0
102
RTVSPost2010PropOp41
 70
     0
102
RTVSPost2010Prop42
 90
       50
102
RTVSPost2010PropOp42
 70
     0
102
RTVSPost2010Prop43
 90
        3
102
RTVSPost2010PropOp43
 70
     0
102
RTVSPost2010Prop44ColorIndex
 90
        5
102
RTVSPost2010Prop44ColorRGB
 90
      255
102
RTVSPost2010PropOp44
 70
     0
102
RTVSPost2010Prop45
280
     0
102
RTVSPost2010PropOp45
 70
     0
102
RTVSPost2010Prop46
 90
       50
102
RTVSPost2010PropOp46
 70
     0
102
RTVSPost2010Prop47
 90
       50
102
RTVSPost2010PropOp47
 70
     0
102
RTVSPost2010Prop48
 90
       50
102
RTVSPost2010PropOp48
 70
     0
102
RTVSPost2010Prop49
280
     0
102
RTVSPost2010PropOp49
 70
     0
102
RTVSPost2010Prop50
 90
       50
102
RTVSPost2010PropOp50
 70
     0
102
RTVSPost2010Prop51ColorIndex
 90
      256
102
RTVSPost2010Prop51ColorRGB
 90
-16777216
102
RTVSPost2010PropOp51
 70
     0
102
RTVSPost2010Prop52
140
1.0
102
RTVSPost2010PropOp52
 70
     0
102
RTVSPost2010Prop53
 90
        2
102
RTVSPost2010PropOp53
 70
     0
102
RTVSPost2010Prop54
  1
strokes_ogs.tif
102
RTVSPost2010PropOp54
 70
     0
102
RTVSPost2010Prop55
280
     0
102
RTVSPost2010PropOp55
 70
     0
102
RTVSPost2010Prop56
140
1.0
102
RTVSPost2010PropOp56
 70
     0
102
RTVSPost2010Prop57
140
1.0
102
RTVSPost2010PropOp57
 70
     0
  0
XRECORD
  5
E0C
102
{ACAD_REACTORS
330
E0B
102
}
330
E0B
100
AcDbXrecord
280
     1
102
RTVSPost2010Prop28
280
     0
102
RTVSPost2010PropOp28
 70
     1
102
RTVSPost2010Prop29
280
     1
102
RTVSPost2010PropOp29
 70
     1
102
RTVSPost2010Prop30
280
     1
102
RTVSPost2010PropOp30
 70
     1
102
RTVSPost2010Prop31
280
     0
102
RTVSPost2010PropOp31
 70
     1
102
RTVSPost2010Prop32
280
     0
102
RTVSPost2010PropOp32
 70
     1
102
RTVSPost2010Prop33
280
     0
102
RTVSPost2010PropOp33
 70
     1
102
RTVSPost2010Prop34
280
     0
102
RTVSPost2010PropOp34
 70
     1
102
RTVSPost2010Prop35
280
     0
102
RTVSPost2010PropOp35
 70
     1
102
RTVSPost2010Prop36
280
     0
102
RTVSPost2010PropOp36
 70
     1
102
RTVSPost2010Prop37
 90
       50
102
RTVSPost2010PropOp37
 70
     1
102
RTVSPost2010Prop38
140
0.0
102
RTVSPost2010PropOp38
 70
     1
102
RTVSPost2010Prop39
140
1.0
102
RTVSPost2010PropOp39
 70
     1
102
RTVSPost2010Prop40
 90
        0
102
RTVSPost2010PropOp40
 70
     1
102
RTVSPost2010Prop41ColorIndex
 90
       18
102
RTVSPost2010Prop41ColorRGB
 90
        0
102
RTVSPost2010PropOp41
 70
     1
102
RTVSPost2010Prop42
 90
       50
102
RTVSPost2010PropOp42
 70
     1
102
RTVSPost2010Prop43
 90
        3
102
RTVSPost2010PropOp43
 70
     1
102
RTVSPost2010Prop44ColorIndex
 90
        5
102
RTVSPost2010Prop44ColorRGB
 90
      255
102
RTVSPost2010PropOp44
 70
     1
102
RTVSPost2010Prop45
280
     0
102
RTVSPost2010PropOp45
 70
     1
102
RTVSPost2010Prop46
 90
       50
102
RTVSPost2010PropOp46
 70
     1
102
RTVSPost2010Prop47
 90
       50
102
RTVSPost2010PropOp47
 70
     1
102
RTVSPost2010Prop48
 90
       50
102
RTVSPost2010PropOp48
 70
     1
102
RTVSPost2010Prop49
280
     0
102
RTVSPost2010PropOp49
 70
     1
102
RTVSPost2010Prop50
 90
       50
102
RTVSPost2010PropOp50
 70
     1
102
RTVSPost2010Prop51ColorIndex
 90
      256
102
RTVSPost2010Prop51ColorRGB
 90
-16777216
102
RTVSPost2010PropOp51
 70
     0
102
RTVSPost2010Prop52
140
1.0
102
RTVSPost2010PropOp52
 70
     0
102
RTVSPost2010Prop53
 90
        2
102
RTVSPost2010PropOp53
 70
     1
102
RTVSPost2010Prop54
  1
strokes_ogs.tif
102
RTVSPost2010PropOp54
 70
     1
102
RTVSPost2010Prop55
280
     0
102
RTVSPost2010PropOp55
 70
     1
102
RTVSPost2010Prop56
140
1.0
102
RTVSPost2010PropOp56
 70
     1
102
RTVSPost2010Prop57
140
1.0
102
RTVSPost2010PropOp57
 70
     1
  0
XRECORD
  5
E14
102
{ACAD_REACTORS
330
E13
102
}
330
E13
100
AcDbXrecord
280
     1
102
RTVSPost2010Prop28
280
     0
102
RTVSPost2010PropOp28
 70
     0
102
RTVSPost2010Prop29
280
     1
102
RTVSPost2010PropOp29
 70
     0
102
RTVSPost2010Prop30
280
     1
102
RTVSPost2010PropOp30
 70
     0
102
RTVSPost2010Prop31
280
     0
102
RTVSPost2010PropOp31
 70
     0
102
RTVSPost2010Prop32
280
     0
102
RTVSPost2010PropOp32
 70
     0
102
RTVSPost2010Prop33
280
     0
102
RTVSPost2010PropOp33
 70
     0
102
RTVSPost2010Prop34
280
     0
102
RTVSPost2010PropOp34
 70
     0
102
RTVSPost2010Prop35
280
     0
102
RTVSPost2010PropOp35
 70
     0
102
RTVSPost2010Prop36
280
     0
102
RTVSPost2010PropOp36
 70
     0
102
RTVSPost2010Prop37
 90
       50
102
RTVSPost2010PropOp37
 70
     0
102
RTVSPost2010Prop38
140
0.0
102
RTVSPost2010PropOp38
 70
     0
102
RTVSPost2010Prop39
140
1.0
102
RTVSPost2010PropOp39
 70
     0
102
RTVSPost2010Prop40
 90
        0
102
RTVSPost2010PropOp40
 70
     0
102
RTVSPost2010Prop41ColorIndex
 90
       18
102
RTVSPost2010Prop41ColorRGB
 90
        0
102
RTVSPost2010PropOp41
 70
     0
102
RTVSPost2010Prop42
 90
       50
102
RTVSPost2010PropOp42
 70
     0
102
RTVSPost2010Prop43
 90
        3
102
RTVSPost2010PropOp43
 70
     0
102
RTVSPost2010Prop44ColorIndex
 90
        5
102
RTVSPost2010Prop44ColorRGB
 90
      255
102
RTVSPost2010PropOp44
 70
     0
102
RTVSPost2010Prop45
280
     0
102
RTVSPost2010PropOp45
 70
     0
102
RTVSPost2010Prop46
 90
       50
102
RTVSPost2010PropOp46
 70
     0
102
RTVSPost2010Prop47
 90
       50
102
RTVSPost2010PropOp47
 70
     0
102
RTVSPost2010Prop48
 90
       50
102
RTVSPost2010PropOp48
 70
     0
102
RTVSPost2010Prop49
280
     0
102
RTVSPost2010PropOp49
 70
     0
102
RTVSPost2010Prop50
 90
       50
102
RTVSPost2010PropOp50
 70
     0
102
RTVSPost2010Prop51ColorIndex
 90
      256
102
RTVSPost2010Prop51ColorRGB
 90
-16777216
102
RTVSPost2010PropOp51
 70
     0
102
RTVSPost2010Prop52
140
1.0
102
RTVSPost2010PropOp52
 70
     0
102
RTVSPost2010Prop53
 90
        2
102
RTVSPost2010PropOp53
 70
     0
102
RTVSPost2010Prop54
  1
strokes_ogs.tif
102
RTVSPost2010PropOp54
 70
     0
102
RTVSPost2010Prop55
280
     0
102
RTVSPost2010PropOp55
 70
     0
102
RTVSPost2010Prop56
140
1.0
102
RTVSPost2010PropOp56
 70
     0
102
RTVSPost2010Prop57
140
1.0
102
RTVSPost2010PropOp57
 70
     0
  0
XRECORD
  5
E02
102
{ACAD_REACTORS
330
E01
102
}
330
E01
100
AcDbXrecord
280
     1
102
RTVSPost2010Prop28
280
     0
102
RTVSPost2010PropOp28
 70
     1
102
RTVSPost2010Prop29
280
     1
102
RTVSPost2010PropOp29
 70
     1
102
RTVSPost2010Prop30
280
     1
102
RTVSPost2010PropOp30
 70
     1
102
RTVSPost2010Prop31
280
     0
102
RTVSPost2010PropOp31
 70
     1
102
RTVSPost2010Prop32
280
     0
102
RTVSPost2010PropOp32
 70
     1
102
RTVSPost2010Prop33
280
     0
102
RTVSPost2010PropOp33
 70
     1
102
RTVSPost2010Prop34
280
     0
102
RTVSPost2010PropOp34
 70
     1
102
RTVSPost2010Prop35
280
     0
102
RTVSPost2010PropOp35
 70
     1
102
RTVSPost2010Prop36
280
     0
102
RTVSPost2010PropOp36
 70
     1
102
RTVSPost2010Prop37
 90
       50
102
RTVSPost2010PropOp37
 70
     1
102
RTVSPost2010Prop38
140
0.0
102
RTVSPost2010PropOp38
 70
     1
102
RTVSPost2010Prop39
140
1.0
102
RTVSPost2010PropOp39
 70
     1
102
RTVSPost2010Prop40
 90
        0
102
RTVSPost2010PropOp40
 70
     1
102
RTVSPost2010Prop41ColorIndex
 90
       18
102
RTVSPost2010Prop41ColorRGB
 90
        0
102
RTVSPost2010PropOp41
 70
     1
102
RTVSPost2010Prop42
 90
       50
102
RTVSPost2010PropOp42
 70
     1
102
RTVSPost2010Prop43
 90
        3
102
RTVSPost2010PropOp43
 70
     1
102
RTVSPost2010Prop44ColorIndex
 90
        5
102
RTVSPost2010Prop44ColorRGB
 90
      255
102
RTVSPost2010PropOp44
 70
     1
102
RTVSPost2010Prop45
280
     0
102
RTVSPost2010PropOp45
 70
     1
102
RTVSPost2010Prop46
 90
       50
102
RTVSPost2010PropOp46
 70
     1
102
RTVSPost2010Prop47
 90
       50
102
RTVSPost2010PropOp47
 70
     1
102
RTVSPost2010Prop48
 90
       50
102
RTVSPost2010PropOp48
 70
     1
102
RTVSPost2010Prop49
280
     0
102
RTVSPost2010PropOp49
 70
     1
102
RTVSPost2010Prop50
 90
       50
102
RTVSPost2010PropOp50
 70
     1
102
RTVSPost2010Prop51ColorIndex
 90
      256
102
RTVSPost2010Prop51ColorRGB
 90
-16777216
102
RTVSPost2010PropOp51
 70
     0
102
RTVSPost2010Prop52
140
1.0
102
RTVSPost2010PropOp52
 70
     0
102
RTVSPost2010Prop53
 90
        2
102
RTVSPost2010PropOp53
 70
     1
102
RTVSPost2010Prop54
  1
strokes_ogs.tif
102
RTVSPost2010PropOp54
 70
     1
102
RTVSPost2010Prop55
280
     0
102
RTVSPost2010PropOp55
 70
     1
102
RTVSPost2010Prop56
140
1.0
102
RTVSPost2010PropOp56
 70
     1
102
RTVSPost2010Prop57
140
1.0
102
RTVSPost2010PropOp57
 70
     1
  0
XRECORD
  5
E20
102
{ACAD_REACTORS
330
E1F
102
}
330
E1F
100
AcDbXrecord
280
     1
102
RTVSPost2010Prop28
280
     0
102
RTVSPost2010PropOp28
 70
     1
102
RTVSPost2010Prop29
280
     1
102
RTVSPost2010PropOp29
 70
     1
102
RTVSPost2010Prop30
280
     1
102
RTVSPost2010PropOp30
 70
     1
102
RTVSPost2010Prop31
280
     0
102
RTVSPost2010PropOp31
 70
     1
102
RTVSPost2010Prop32
280
     0
102
RTVSPost2010PropOp32
 70
     1
102
RTVSPost2010Prop33
280
     0
102
RTVSPost2010PropOp33
 70
     1
102
RTVSPost2010Prop34
280
     0
102
RTVSPost2010PropOp34
 70
     1
102
RTVSPost2010Prop35
280
     0
102
RTVSPost2010PropOp35
 70
     1
102
RTVSPost2010Prop36
280
     0
102
RTVSPost2010PropOp36
 70
     1
102
RTVSPost2010Prop37
 90
       50
102
RTVSPost2010PropOp37
 70
     1
102
RTVSPost2010Prop38
140
0.0
102
RTVSPost2010PropOp38
 70
     1
102
RTVSPost2010Prop39
140
1.0
102
RTVSPost2010PropOp39
 70
     1
102
RTVSPost2010Prop40
 90
        0
102
RTVSPost2010PropOp40
 70
     1
102
RTVSPost2010Prop41ColorIndex
 90
       18
102
RTVSPost2010Prop41ColorRGB
 90
        0
102
RTVSPost2010PropOp41
 70
     1
102
RTVSPost2010Prop42
 90
       50
102
RTVSPost2010PropOp42
 70
     1
102
RTVSPost2010Prop43
 90
        3
102
RTVSPost2010PropOp43
 70
     1
102
RTVSPost2010Prop44ColorIndex
 90
        5
102
RTVSPost2010Prop44ColorRGB
 90
      255
102
RTVSPost2010PropOp44
 70
     1
102
RTVSPost2010Prop45
280
     0
102
RTVSPost2010PropOp45
 70
     1
102
RTVSPost2010Prop46
 90
       50
102
RTVSPost2010PropOp46
 70
     1
102
RTVSPost2010Prop47
 90
       50
102
RTVSPost2010PropOp47
 70
     1
102
RTVSPost2010Prop48
 90
       50
102
RTVSPost2010PropOp48
 70
     1
102
RTVSPost2010Prop49
280
     0
102
RTVSPost2010PropOp49
 70
     1
102
RTVSPost2010Prop50
 90
       50
102
RTVSPost2010PropOp50
 70
     1
102
RTVSPost2010Prop51ColorIndex
 90
      256
102
RTVSPost2010Prop51ColorRGB
 90
-16777216
102
RTVSPost2010PropOp51
 70
     0
102
RTVSPost2010Prop52
140
1.0
102
RTVSPost2010PropOp52
 70
     0
102
RTVSPost2010Prop53
 90
        2
102
RTVSPost2010PropOp53
 70
     1
102
RTVSPost2010Prop54
  1
strokes_ogs.tif
102
RTVSPost2010PropOp54
 70
     1
102
RTVSPost2010Prop55
280
     0
102
RTVSPost2010PropOp55
 70
     1
102
RTVSPost2010Prop56
140
1.0
102
RTVSPost2010PropOp56
 70
     1
102
RTVSPost2010Prop57
140
1.0
102
RTVSPost2010PropOp57
 70
     1
  0
XRECORD
  5
E1E
102
{ACAD_REACTORS
330
E1D
102
}
330
E1D
100
AcDbXrecord
280
     1
102
RTVSPost2010Prop28
280
     0
102
RTVSPost2010PropOp28
 70
     1
102
RTVSPost2010Prop29
280
     1
102
RTVSPost2010PropOp29
 70
     1
102
RTVSPost2010Prop30
280
     1
102
RTVSPost2010PropOp30
 70
     1
102
RTVSPost2010Prop31
280
     0
102
RTVSPost2010PropOp31
 70
     1
102
RTVSPost2010Prop32
280
     0
102
RTVSPost2010PropOp32
 70
     1
102
RTVSPost2010Prop33
280
     0
102
RTVSPost2010PropOp33
 70
     1
102
RTVSPost2010Prop34
280
     0
102
RTVSPost2010PropOp34
 70
     1
102
RTVSPost2010Prop35
280
     0
102
RTVSPost2010PropOp35
 70
     1
102
RTVSPost2010Prop36
280
     0
102
RTVSPost2010PropOp36
 70
     1
102
RTVSPost2010Prop37
 90
       50
102
RTVSPost2010PropOp37
 70
     1
102
RTVSPost2010Prop38
140
0.0
102
RTVSPost2010PropOp38
 70
     1
102
RTVSPost2010Prop39
140
1.0
102
RTVSPost2010PropOp39
 70
     1
102
RTVSPost2010Prop40
 90
        0
102
RTVSPost2010PropOp40
 70
     1
102
RTVSPost2010Prop41ColorIndex
 90
       18
102
RTVSPost2010Prop41ColorRGB
 90
        0
102
RTVSPost2010PropOp41
 70
     1
102
RTVSPost2010Prop42
 90
       50
102
RTVSPost2010PropOp42
 70
     1
102
RTVSPost2010Prop43
 90
        3
102
RTVSPost2010PropOp43
 70
     1
102
RTVSPost2010Prop44ColorIndex
 90
        5
102
RTVSPost2010Prop44ColorRGB
 90
      255
102
RTVSPost2010PropOp44
 70
     1
102
RTVSPost2010Prop45
280
     0
102
RTVSPost2010PropOp45
 70
     1
102
RTVSPost2010Prop46
 90
       50
102
RTVSPost2010PropOp46
 70
     1
102
RTVSPost2010Prop47
 90
       50
102
RTVSPost2010PropOp47
 70
     1
102
RTVSPost2010Prop48
 90
       50
102
RTVSPost2010PropOp48
 70
     1
102
RTVSPost2010Prop49
280
     0
102
RTVSPost2010PropOp49
 70
     1
102
RTVSPost2010Prop50
 90
       50
102
RTVSPost2010PropOp50
 70
     1
102
RTVSPost2010Prop51ColorIndex
 90
      256
102
RTVSPost2010Prop51ColorRGB
 90
-16777216
102
RTVSPost2010PropOp51
 70
     0
102
RTVSPost2010Prop52
140
1.0
102
RTVSPost2010PropOp52
 70
     0
102
RTVSPost2010Prop53
 90
        2
102
RTVSPost2010PropOp53
 70
     1
102
RTVSPost2010Prop54
  1
strokes_ogs.tif
102
RTVSPost2010PropOp54
 70
     1
102
RTVSPost2010Prop55
280
     0
102
RTVSPost2010PropOp55
 70
     1
102
RTVSPost2010Prop56
140
1.0
102
RTVSPost2010PropOp56
 70
     1
102
RTVSPost2010Prop57
140
1.0
102
RTVSPost2010PropOp57
 70
     1
  0
XRECORD
  5
E18
102
{ACAD_REACTORS
330
E17
102
}
330
E17
100
AcDbXrecord
280
     1
102
RTVSPost2010Prop28
280
     0
102
RTVSPost2010PropOp28
 70
     1
102
RTVSPost2010Prop29
280
     1
102
RTVSPost2010PropOp29
 70
     1
102
RTVSPost2010Prop30
280
     1
102
RTVSPost2010PropOp30
 70
     1
102
RTVSPost2010Prop31
280
     0
102
RTVSPost2010PropOp31
 70
     1
102
RTVSPost2010Prop32
280
     0
102
RTVSPost2010PropOp32
 70
     1
102
RTVSPost2010Prop33
280
     0
102
RTVSPost2010PropOp33
 70
     1
102
RTVSPost2010Prop34
280
     0
102
RTVSPost2010PropOp34
 70
     1
102
RTVSPost2010Prop35
280
     0
102
RTVSPost2010PropOp35
 70
     1
102
RTVSPost2010Prop36
280
     0
102
RTVSPost2010PropOp36
 70
     1
102
RTVSPost2010Prop37
 90
       50
102
RTVSPost2010PropOp37
 70
     1
102
RTVSPost2010Prop38
140
0.0
102
RTVSPost2010PropOp38
 70
     1
102
RTVSPost2010Prop39
140
1.0
102
RTVSPost2010PropOp39
 70
     1
102
RTVSPost2010Prop40
 90
        0
102
RTVSPost2010PropOp40
 70
     1
102
RTVSPost2010Prop41ColorIndex
 90
       18
102
RTVSPost2010Prop41ColorRGB
 90
        0
102
RTVSPost2010PropOp41
 70
     1
102
RTVSPost2010Prop42
 90
       50
102
RTVSPost2010PropOp42
 70
     1
102
RTVSPost2010Prop43
 90
        3
102
RTVSPost2010PropOp43
 70
     1
102
RTVSPost2010Prop44ColorIndex
 90
        5
102
RTVSPost2010Prop44ColorRGB
 90
      255
102
RTVSPost2010PropOp44
 70
     1
102
RTVSPost2010Prop45
280
     0
102
RTVSPost2010PropOp45
 70
     1
102
RTVSPost2010Prop46
 90
       50
102
RTVSPost2010PropOp46
 70
     1
102
RTVSPost2010Prop47
 90
       50
102
RTVSPost2010PropOp47
 70
     1
102
RTVSPost2010Prop48
 90
       50
102
RTVSPost2010PropOp48
 70
     1
102
RTVSPost2010Prop49
280
     0
102
RTVSPost2010PropOp49
 70
     1
102
RTVSPost2010Prop50
 90
       50
102
RTVSPost2010PropOp50
 70
     1
102
RTVSPost2010Prop51ColorIndex
 90
      256
102
RTVSPost2010Prop51ColorRGB
 90
-16777216
102
RTVSPost2010PropOp51
 70
     0
102
RTVSPost2010Prop52
140
1.0
102
RTVSPost2010PropOp52
 70
     0
102
RTVSPost2010Prop53
 90
        2
102
RTVSPost2010PropOp53
 70
     1
102
RTVSPost2010Prop54
  1
strokes_ogs.tif
102
RTVSPost2010PropOp54
 70
     1
102
RTVSPost2010Prop55
280
     0
102
RTVSPost2010PropOp55
 70
     1
102
RTVSPost2010Prop56
140
1.0
102
RTVSPost2010PropOp56
 70
     1
102
RTVSPost2010Prop57
140
1.0
102
RTVSPost2010PropOp57
 70
     1
  0
XRECORD
  5
E1A
102
{ACAD_REACTORS
330
E19
102
}
330
E19
100
AcDbXrecord
280
     1
102
RTVSPost2010Prop28
280
     0
102
RTVSPost2010PropOp28
 70
     1
102
RTVSPost2010Prop29
280
     1
102
RTVSPost2010PropOp29
 70
     1
102
RTVSPost2010Prop30
280
     1
102
RTVSPost2010PropOp30
 70
     1
102
RTVSPost2010Prop31
280
     0
102
RTVSPost2010PropOp31
 70
     1
102
RTVSPost2010Prop32
280
     0
102
RTVSPost2010PropOp32
 70
     1
102
RTVSPost2010Prop33
280
     0
102
RTVSPost2010PropOp33
 70
     1
102
RTVSPost2010Prop34
280
     0
102
RTVSPost2010PropOp34
 70
     1
102
RTVSPost2010Prop35
280
     0
102
RTVSPost2010PropOp35
 70
     1
102
RTVSPost2010Prop36
280
     0
102
RTVSPost2010PropOp36
 70
     1
102
RTVSPost2010Prop37
 90
       50
102
RTVSPost2010PropOp37
 70
     1
102
RTVSPost2010Prop38
140
0.0
102
RTVSPost2010PropOp38
 70
     1
102
RTVSPost2010Prop39
140
1.0
102
RTVSPost2010PropOp39
 70
     1
102
RTVSPost2010Prop40
 90
        0
102
RTVSPost2010PropOp40
 70
     1
102
RTVSPost2010Prop41ColorIndex
 90
       18
102
RTVSPost2010Prop41ColorRGB
 90
        0
102
RTVSPost2010PropOp41
 70
     1
102
RTVSPost2010Prop42
 90
       50
102
RTVSPost2010PropOp42
 70
     1
102
RTVSPost2010Prop43
 90
        3
102
RTVSPost2010PropOp43
 70
     1
102
RTVSPost2010Prop44ColorIndex
 90
        5
102
RTVSPost2010Prop44ColorRGB
 90
      255
102
RTVSPost2010PropOp44
 70
     1
102
RTVSPost2010Prop45
280
     0
102
RTVSPost2010PropOp45
 70
     1
102
RTVSPost2010Prop46
 90
       50
102
RTVSPost2010PropOp46
 70
     1
102
RTVSPost2010Prop47
 90
       50
102
RTVSPost2010PropOp47
 70
     1
102
RTVSPost2010Prop48
 90
       50
102
RTVSPost2010PropOp48
 70
     1
102
RTVSPost2010Prop49
280
     0
102
RTVSPost2010PropOp49
 70
     1
102
RTVSPost2010Prop50
 90
       50
102
RTVSPost2010PropOp50
 70
     1
102
RTVSPost2010Prop51ColorIndex
 90
      256
102
RTVSPost2010Prop51ColorRGB
 90
-16777216
102
RTVSPost2010PropOp51
 70
     0
102
RTVSPost2010Prop52
140
1.0
102
RTVSPost2010PropOp52
 70
     0
102
RTVSPost2010Prop53
 90
        2
102
RTVSPost2010PropOp53
 70
     1
102
RTVSPost2010Prop54
  1
strokes_ogs.tif
102
RTVSPost2010PropOp54
 70
     1
102
RTVSPost2010Prop55
280
     0
102
RTVSPost2010PropOp55
 70
     1
102
RTVSPost2010Prop56
140
1.0
102
RTVSPost2010PropOp56
 70
     1
102
RTVSPost2010Prop57
140
1.0
102
RTVSPost2010PropOp57
 70
     1
  0
XRECORD
  5
E0A
102
{ACAD_REACTORS
330
E09
102
}
330
E09
100
AcDbXrecord
280
     1
102
RTVSPost2010Prop28
280
     0
102
RTVSPost2010PropOp28
 70
     1
102
RTVSPost2010Prop29
280
     1
102
RTVSPost2010PropOp29
 70
     1
102
RTVSPost2010Prop30
280
     1
102
RTVSPost2010PropOp30
 70
     1
102
RTVSPost2010Prop31
280
     0
102
RTVSPost2010PropOp31
 70
     1
102
RTVSPost2010Prop32
280
     0
102
RTVSPost2010PropOp32
 70
     1
102
RTVSPost2010Prop33
280
     0
102
RTVSPost2010PropOp33
 70
     1
102
RTVSPost2010Prop34
280
     0
102
RTVSPost2010PropOp34
 70
     1
102
RTVSPost2010Prop35
280
     0
102
RTVSPost2010PropOp35
 70
     1
102
RTVSPost2010Prop36
280
     0
102
RTVSPost2010PropOp36
 70
     1
102
RTVSPost2010Prop37
 90
       50
102
RTVSPost2010PropOp37
 70
     1
102
RTVSPost2010Prop38
140
0.0
102
RTVSPost2010PropOp38
 70
     1
102
RTVSPost2010Prop39
140
1.0
102
RTVSPost2010PropOp39
 70
     1
102
RTVSPost2010Prop40
 90
        0
102
RTVSPost2010PropOp40
 70
     1
102
RTVSPost2010Prop41ColorIndex
 90
       18
102
RTVSPost2010Prop41ColorRGB
 90
        0
102
RTVSPost2010PropOp41
 70
     1
102
RTVSPost2010Prop42
 90
       50
102
RTVSPost2010PropOp42
 70
     1
102
RTVSPost2010Prop43
 90
        3
102
RTVSPost2010PropOp43
 70
     1
102
RTVSPost2010Prop44ColorIndex
 90
        5
102
RTVSPost2010Prop44ColorRGB
 90
      255
102
RTVSPost2010PropOp44
 70
     1
102
RTVSPost2010Prop45
280
     0
102
RTVSPost2010PropOp45
 70
     1
102
RTVSPost2010Prop46
 90
       50
102
RTVSPost2010PropOp46
 70
     1
102
RTVSPost2010Prop47
 90
       50
102
RTVSPost2010PropOp47
 70
     1
102
RTVSPost2010Prop48
 90
       50
102
RTVSPost2010PropOp48
 70
     1
102
RTVSPost2010Prop49
280
     0
102
RTVSPost2010PropOp49
 70
     1
102
RTVSPost2010Prop50
 90
       50
102
RTVSPost2010PropOp50
 70
     1
102
RTVSPost2010Prop51ColorIndex
 90
      256
102
RTVSPost2010Prop51ColorRGB
 90
-16777216
102
RTVSPost2010PropOp51
 70
     0
102
RTVSPost2010Prop52
140
1.0
102
RTVSPost2010PropOp52
 70
     0
102
RTVSPost2010Prop53
 90
        2
102
RTVSPost2010PropOp53
 70
     1
102
RTVSPost2010Prop54
  1
strokes_ogs.tif
102
RTVSPost2010PropOp54
 70
     1
102
RTVSPost2010Prop55
280
     0
102
RTVSPost2010PropOp55
 70
     1
102
RTVSPost2010Prop56
140
1.0
102
RTVSPost2010PropOp56
 70
     1
102
RTVSPost2010Prop57
140
1.0
102
RTVSPost2010PropOp57
 70
     1
  0
XRECORD
  5
DFC
102
{ACAD_REACTORS
330
DFB
102
}
330
DFB
100
AcDbXrecord
280
     1
102
RTVSPost2010Prop28
280
     0
102
RTVSPost2010PropOp28
 70
     1
102
RTVSPost2010Prop29
280
     1
102
RTVSPost2010PropOp29
 70
     1
102
RTVSPost2010Prop30
280
     1
102
RTVSPost2010PropOp30
 70
     1
102
RTVSPost2010Prop31
280
     0
102
RTVSPost2010PropOp31
 70
     1
102
RTVSPost2010Prop32
280
     0
102
RTVSPost2010PropOp32
 70
     1
102
RTVSPost2010Prop33
280
     0
102
RTVSPost2010PropOp33
 70
     1
102
RTVSPost2010Prop34
280
     0
102
RTVSPost2010PropOp34
 70
     1
102
RTVSPost2010Prop35
280
     0
102
RTVSPost2010PropOp35
 70
     1
102
RTVSPost2010Prop36
280
     0
102
RTVSPost2010PropOp36
 70
     1
102
RTVSPost2010Prop37
 90
       50
102
RTVSPost2010PropOp37
 70
     1
102
RTVSPost2010Prop38
140
0.0
102
RTVSPost2010PropOp38
 70
     1
102
RTVSPost2010Prop39
140
1.0
102
RTVSPost2010PropOp39
 70
     1
102
RTVSPost2010Prop40
 90
        0
102
RTVSPost2010PropOp40
 70
     1
102
RTVSPost2010Prop41ColorIndex
 90
       18
102
RTVSPost2010Prop41ColorRGB
 90
        0
102
RTVSPost2010PropOp41
 70
     1
102
RTVSPost2010Prop42
 90
       50
102
RTVSPost2010PropOp42
 70
     1
102
RTVSPost2010Prop43
 90
        3
102
RTVSPost2010PropOp43
 70
     1
102
RTVSPost2010Prop44ColorIndex
 90
        5
102
RTVSPost2010Prop44ColorRGB
 90
      255
102
RTVSPost2010PropOp44
 70
     1
102
RTVSPost2010Prop45
280
     0
102
RTVSPost2010PropOp45
 70
     1
102
RTVSPost2010Prop46
 90
       50
102
RTVSPost2010PropOp46
 70
     1
102
RTVSPost2010Prop47
 90
       50
102
RTVSPost2010PropOp47
 70
     1
102
RTVSPost2010Prop48
 90
       50
102
RTVSPost2010PropOp48
 70
     1
102
RTVSPost2010Prop49
280
     0
102
RTVSPost2010PropOp49
 70
     1
102
RTVSPost2010Prop50
 90
       50
102
RTVSPost2010PropOp50
 70
     1
102
RTVSPost2010Prop51ColorIndex
 90
      256
102
RTVSPost2010Prop51ColorRGB
 90
-16777216
102
RTVSPost2010PropOp51
 70
     0
102
RTVSPost2010Prop52
140
1.0
102
RTVSPost2010PropOp52
 70
     0
102
RTVSPost2010Prop53
 90
        2
102
RTVSPost2010PropOp53
 70
     1
102
RTVSPost2010Prop54
  1
strokes_ogs.tif
102
RTVSPost2010PropOp54
 70
     1
102
RTVSPost2010Prop55
280
     0
102
RTVSPost2010PropOp55
 70
     1
102
RTVSPost2010Prop56
140
1.0
102
RTVSPost2010PropOp56
 70
     1
102
RTVSPost2010Prop57
140
1.0
102
RTVSPost2010PropOp57
 70
     1
  0
XRECORD
  5
E1C
102
{ACAD_REACTORS
330
E1B
102
}
330
E1B
100
AcDbXrecord
280
     1
102
RTVSPost2010Prop28
280
     0
102
RTVSPost2010PropOp28
 70
     1
102
RTVSPost2010Prop29
280
     1
102
RTVSPost2010PropOp29
 70
     1
102
RTVSPost2010Prop30
280
     1
102
RTVSPost2010PropOp30
 70
     1
102
RTVSPost2010Prop31
280
     0
102
RTVSPost2010PropOp31
 70
     1
102
RTVSPost2010Prop32
280
     0
102
RTVSPost2010PropOp32
 70
     1
102
RTVSPost2010Prop33
280
     0
102
RTVSPost2010PropOp33
 70
     1
102
RTVSPost2010Prop34
280
     0
102
RTVSPost2010PropOp34
 70
     1
102
RTVSPost2010Prop35
280
     0
102
RTVSPost2010PropOp35
 70
     1
102
RTVSPost2010Prop36
280
     0
102
RTVSPost2010PropOp36
 70
     1
102
RTVSPost2010Prop37
 90
       50
102
RTVSPost2010PropOp37
 70
     1
102
RTVSPost2010Prop38
140
0.0
102
RTVSPost2010PropOp38
 70
     1
102
RTVSPost2010Prop39
140
1.0
102
RTVSPost2010PropOp39
 70
     1
102
RTVSPost2010Prop40
 90
        0
102
RTVSPost2010PropOp40
 70
     1
102
RTVSPost2010Prop41ColorIndex
 90
       18
102
RTVSPost2010Prop41ColorRGB
 90
        0
102
RTVSPost2010PropOp41
 70
     1
102
RTVSPost2010Prop42
 90
       50
102
RTVSPost2010PropOp42
 70
     1
102
RTVSPost2010Prop43
 90
        3
102
RTVSPost2010PropOp43
 70
     1
102
RTVSPost2010Prop44ColorIndex
 90
        5
102
RTVSPost2010Prop44ColorRGB
 90
      255
102
RTVSPost2010PropOp44
 70
     1
102
RTVSPost2010Prop45
280
     0
102
RTVSPost2010PropOp45
 70
     1
102
RTVSPost2010Prop46
 90
       50
102
RTVSPost2010PropOp46
 70
     1
102
RTVSPost2010Prop47
 90
       50
102
RTVSPost2010PropOp47
 70
     1
102
RTVSPost2010Prop48
 90
       50
102
RTVSPost2010PropOp48
 70
     1
102
RTVSPost2010Prop49
280
     0
102
RTVSPost2010PropOp49
 70
     1
102
RTVSPost2010Prop50
 90
       50
102
RTVSPost2010PropOp50
 70
     1
102
RTVSPost2010Prop51ColorIndex
 90
      256
102
RTVSPost2010Prop51ColorRGB
 90
-16777216
102
RTVSPost2010PropOp51
 70
     0
102
RTVSPost2010Prop52
140
1.0
102
RTVSPost2010PropOp52
 70
     0
102
RTVSPost2010Prop53
 90
        2
102
RTVSPost2010PropOp53
 70
     1
102
RTVSPost2010Prop54
  1
strokes_ogs.tif
102
RTVSPost2010PropOp54
 70
     1
102
RTVSPost2010Prop55
280
     0
102
RTVSPost2010PropOp55
 70
     1
102
RTVSPost2010Prop56
140
1.0
102
RTVSPost2010PropOp56
 70
     1
102
RTVSPost2010Prop57
140
1.0
102
RTVSPost2010PropOp57
 70
     1
  0
ENDSEC
  0
EOF
