  0
SECTION
  2
HEADER
  9
$ACADVER
  1
AC1024
  9
$ACADMAINTVER
 70
     6
  9
$DWGCODEPAGE
  3
ANSI_1252
  9
$INSBASE
 10
0.0
 20
0.0
 30
0.0
  9
$EXTMIN
 10
456942.9843660805
 20
103837.7735002691
 30
0.0
  9
$EXTMAX
 10
463419.1844192291
 20
108092.9578869249
 30
0.0
  9
$LIMMIN
 10
0.0
 20
0.0
  9
$LIMMAX
 10
420.0
 20
297.0
  9
$ORTHOMODE
 70
     1
  9
$REGENMODE
 70
     1
  9
$FILLMODE
 70
     1
  9
$QTEXTMODE
 70
     0
  9
$MIRRTEXT
 70
     1
  9
$LTSCALE
 40
1.0
  9
$ATTMODE
 70
     1
  9
$TEXTSIZE
 40
2.5
  9
$TRACEWID
 40
1.0
  9
$TEXTSTYLE
  7
Standard
  9
$CLAYER
  8
Search Radius
  9
$CELTYPE
  6
ByLayer
  9
$CECOLOR
 62
   256
  9
$CELTSCALE
 40
1.0
  9
$DISPSILH
 70
     0
  9
$DIMSCALE
 40
1.0
  9
$DIMASZ
 40
2.5
  9
$DIMEXO
 40
0.625
  9
$DIMDLI
 40
3.75
  9
$DIMRND
 40
0.0
  9
$DIMDLE
 40
0.0
  9
$DIMEXE
 40
1.25
  9
$DIMTP
 40
0.0
  9
$DIMTM
 40
0.0
  9
$DIMTXT
 40
2.5
  9
$DIMCEN
 40
2.5
  9
$DIMTSZ
 40
0.0
  9
$DIMTOL
 70
     0
  9
$DIMLIM
 70
     0
  9
$DIMTIH
 70
     0
  9
$DIMTOH
 70
     0
  9
$DIMSE1
 70
     0
  9
$DIMSE2
 70
     0
  9
$DIMTAD
 70
     1
  9
$DIMZIN
 70
     8
  9
$DIMBLK
  1

  9
$DIMASO
 70
     1
  9
$DIMSHO
 70
     1
  9
$DIMPOST
  1

  9
$DIMAPOST
  1

  9
$DIMALT
 70
     0
  9
$DIMALTD
 70
     3
  9
$DIMALTF
 40
0.03937007874016
  9
$DIMLFAC
 40
1.0
  9
$DIMTOFL
 70
     1
  9
$DIMTVP
 40
0.0
  9
$DIMTIX
 70
     0
  9
$DIMSOXD
 70
     0
  9
$DIMSAH
 70
     0
  9
$DIMBLK1
  1

  9
$DIMBLK2
  1

  9
$DIMSTYLE
  2
ISO-25
  9
$DIMCLRD
 70
     0
  9
$DIMCLRE
 70
     0
  9
$DIMCLRT
 70
     0
  9
$DIMTFAC
 40
1.0
  9
$DIMGAP
 40
0.625
  9
$DIMJUST
 70
     0
  9
$DIMSD1
 70
     0
  9
$DIMSD2
 70
     0
  9
$DIMTOLJ
 70
     0
  9
$DIMTZIN
 70
     8
  9
$DIMALTZ
 70
     0
  9
$DIMALTTZ
 70
     0
  9
$DIMUPT
 70
     0
  9
$DIMDEC
 70
     2
  9
$DIMTDEC
 70
     2
  9
$DIMALTU
 70
     2
  9
$DIMALTTD
 70
     3
  9
$DIMTXSTY
  7
Standard
  9
$DIMAUNIT
 70
     0
  9
$DIMADEC
 70
     0
  9
$DIMALTRND
 40
0.0
  9
$DIMAZIN
 70
     0
  9
$DIMDSEP
 70
    44
  9
$DIMATFIT
 70
     3
  9
$DIMFRAC
 70
     0
  9
$DIMLDRBLK
  1

  9
$DIMLUNIT
 70
     2
  9
$DIMLWD
 70
    -2
  9
$DIMLWE
 70
    -2
  9
$DIMTMOVE
 70
     0
  9
$DIMFXL
 40
1.0
  9
$DIMFXLON
 70
     0
  9
$DIMJOGANG
 40
0.7853981633974483
  9
$DIMTFILL
 70
     0
  9
$DIMTFILLCLR
 70
     0
  9
$DIMARCSYM
 70
     0
  9
$DIMLTYPE
  6

  9
$DIMLTEX1
  6

  9
$DIMLTEX2
  6

  9
$DIMTXTDIRECTION
 70
     0
  9
$LUNITS
 70
     2
  9
$LUPREC
 70
     4
  9
$SKETCHINC
 40
1.0
  9
$FILLETRAD
 40
0.0
  9
$AUNITS
 70
     0
  9
$AUPREC
 70
     0
  9
$MENU
  1
.
  9
$ELEVATION
 40
0.0
  9
$PELEVATION
 40
0.0
  9
$THICKNESS
 40
0.0
  9
$LIMCHECK
 70
     0
  9
$CHAMFERA
 40
10.0
  9
$CHAMFERB
 40
10.0
  9
$CHAMFERC
 40
20.0
  9
$CHAMFERD
 40
0.0
  9
$SKPOLY
 70
     0
  9
$TDCREATE
 40
2453803.492434352
  9
$TDUCREATE
 40
2453803.450767685
  9
$TDUPDATE
 40
2457227.582340116
  9
$TDUUPDATE
 40
2457227.540673449
  9
$TDINDWG
 40
0.1603343866
  9
$TDUSRTIMER
 40
0.1603342014
  9
$USRTIMER
 70
     1
  9
$ANGBASE
 50
0.0
  9
$ANGDIR
 70
     0
  9
$PDMODE
 70
     0
  9
$PDSIZE
 40
0.0
  9
$PLINEWID
 40
0.0
  9
$SPLFRAME
 70
     0
  9
$SPLINETYPE
 70
     5
  9
$SPLINESEGS
 70
     8
  9
$HANDSEED
  5
47C
  9
$SURFTAB1
 70
     6
  9
$SURFTAB2
 70
     6
  9
$SURFTYPE
 70
     6
  9
$SURFU
 70
     6
  9
$SURFV
 70
     6
  9
$UCSBASE
  2

  9
$UCSNAME
  2

  9
$UCSORG
 10
0.0
 20
0.0
 30
0.0
  9
$UCSXDIR
 10
1.0
 20
0.0
 30
0.0
  9
$UCSYDIR
 10
0.0
 20
1.0
 30
0.0
  9
$UCSORTHOREF
  2

  9
$UCSORTHOVIEW
 70
     0
  9
$UCSORGTOP
 10
0.0
 20
0.0
 30
0.0
  9
$UCSORGBOTTOM
 10
0.0
 20
0.0
 30
0.0
  9
$UCSORGLEFT
 10
0.0
 20
0.0
 30
0.0
  9
$UCSORGRIGHT
 10
0.0
 20
0.0
 30
0.0
  9
$UCSORGFRONT
 10
0.0
 20
0.0
 30
0.0
  9
$UCSORGBACK
 10
0.0
 20
0.0
 30
0.0
  9
$PUCSBASE
  2

  9
$PUCSNAME
  2

  9
$PUCSORG
 10
0.0
 20
0.0
 30
0.0
  9
$PUCSXDIR
 10
1.0
 20
0.0
 30
0.0
  9
$PUCSYDIR
 10
0.0
 20
1.0
 30
0.0
  9
$PUCSORTHOREF
  2

  9
$PUCSORTHOVIEW
 70
     0
  9
$PUCSORGTOP
 10
0.0
 20
0.0
 30
0.0
  9
$PUCSORGBOTTOM
 10
0.0
 20
0.0
 30
0.0
  9
$PUCSORGLEFT
 10
0.0
 20
0.0
 30
0.0
  9
$PUCSORGRIGHT
 10
0.0
 20
0.0
 30
0.0
  9
$PUCSORGFRONT
 10
0.0
 20
0.0
 30
0.0
  9
$PUCSORGBACK
 10
0.0
 20
0.0
 30
0.0
  9
$USERI1
 70
     0
  9
$USERI2
 70
     0
  9
$USERI3
 70
     0
  9
$USERI4
 70
     0
  9
$USERI5
 70
     0
  9
$USERR1
 40
0.0
  9
$USERR2
 40
0.0
  9
$USERR3
 40
0.0
  9
$USERR4
 40
0.0
  9
$USERR5
 40
0.0
  9
$WORLDVIEW
 70
     1
  9
$SHADEDGE
 70
     3
  9
$SHADEDIF
 70
    70
  9
$TILEMODE
 70
     0
  9
$MAXACTVP
 70
    64
  9
$PINSBASE
 10
0.0
 20
0.0
 30
0.0
  9
$PLIMCHECK
 70
     0
  9
$PEXTMIN
 10
-0.0038728451563657
 20
-0.0130388269629975
 30
-0.0002059391661842
  9
$PEXTMAX
 10
197.5513911689734
 20
280.6498383410892
 30
4.500206022989692
  9
$PLIMMIN
 10
-3.96875
 20
-3.630109548568726
  9
$PLIMMAX
 10
205.9199066162109
 20
293.4228994846344
  9
$UNITMODE
 70
     0
  9
$VISRETAIN
 70
     1
  9
$PLINEGEN
 70
     0
  9
$PSLTSCALE
 70
     0
  9
$TREEDEPTH
 70
  3020
  9
$CMLSTYLE
  2
Standard
  9
$CMLJUST
 70
     0
  9
$CMLSCALE
 40
20.0
  9
$PROXYGRAPHICS
 70
     1
  9
$MEASUREMENT
 70
     1
  9
$CELWEIGHT
370
    -1
  9
$ENDCAPS
280
     0
  9
$JOINSTYLE
280
     0
  9
$LWDISPLAY
290
     0
  9
$INSUNITS
 70
     4
  9
$HYPERLINKBASE
  1

  9
$STYLESHEET
  1

  9
$XEDIT
290
     1
  9
$CEPSNTYPE
380
     0
  9
$PSTYLEMODE
290
     1
  9
$FINGERPRINTGUID
  2
{FDEAD578-A652-11D2-9A35-0060089B3A3F}
  9
$VERSIONGUID
  2
{4F0A4F62-0A19-47EA-9AD0-0A2D9190AEA3}
  9
$EXTNAMES
290
     1
  9
$PSVPSCALE
 40
0.0
  9
$OLESTARTUP
290
     0
  9
$SORTENTS
280
   127
  9
$INDEXCTL
280
     0
  9
$HIDETEXT
280
     0
  9
$XCLIPFRAME
280
     0
  9
$HALOGAP
280
     0
  9
$OBSCOLOR
 70
   257
  9
$OBSLTYPE
280
     0
  9
$INTERSECTIONDISPLAY
280
     0
  9
$INTERSECTIONCOLOR
 70
   257
  9
$DIMASSOC
280
     1
  9
$PROJECTNAME
  1

  9
$CAMERADISPLAY
290
     0
  9
$LENSLENGTH
 40
50.0
  9
$CAMERAHEIGHT
 40
0.0
  9
$STEPSPERSEC
 40
2.0
  9
$STEPSIZE
 40
6.0
  9
$3DDWFPREC
 40
2.0
  9
$PSOLWIDTH
 40
0.25
  9
$PSOLHEIGHT
 40
4.0
  9
$LOFTANG1
 40
1.570796326794897
  9
$LOFTANG2
 40
1.570796326794897
  9
$LOFTMAG1
 40
0.0
  9
$LOFTMAG2
 40
0.0
  9
$LOFTPARAM
 70
     7
  9
$LOFTNORMALS
280
     1
  9
$LATITUDE
 40
37.795
  9
$LONGITUDE
 40
-122.394
  9
$NORTHDIRECTION
 40
0.0
  9
$TIMEZONE
 70
 -8000
  9
$LIGHTGLYPHDISPLAY
280
     1
  9
$TILEMODELIGHTSYNCH
280
     1
  9
$SOLIDHIST
280
     0
  9
$SHOWHIST
280
     1
  9
$DWFFRAME
280
     2
  9
$DGNFRAME
280
     2
  9
$REALWORLDSCALE
290
     1
  9
$INTERFERECOLOR
 62
   256
  9
$CSHADOW
280
     0
  9
$SHADOWPLANELOCATION
 40
0.0
  0
ENDSEC
  0
SECTION
  2
CLASSES
  0
CLASS
  1
ACDBDICTIONARYWDFLT
  2
AcDbDictionaryWithDefault
  3
ObjectDBX Classes
 90
        0
 91
        4
280
     0
281
     0
  0
CLASS
  1
ACDBPLACEHOLDER
  2
AcDbPlaceHolder
  3
ObjectDBX Classes
 90
        0
 91
        1
280
     0
281
     0
  0
CLASS
  1
LAYOUT
  2
AcDbLayout
  3
ObjectDBX Classes
 90
        0
 91
        1
280
     0
281
     0
  0
CLASS
  1
RASTERVARIABLES
  2
AcDbRasterVariables
  3
ISM
 90
        0
 91
        4
280
     0
281
     0
  0
CLASS
  1
IMAGEDEF
  2
AcDbRasterImageDef
  3
ISM
 90
        0
 91
        4
280
     0
281
     0
  0
CLASS
  1
IMAGEDEF_REACTOR
  2
AcDbRasterImageDefReactor
  3
ISM
 90
        1
 91
        4
280
     0
281
     0
  0
CLASS
  1
IMAGE
  2
AcDbRasterImage
  3
ISM
 90
      127
 91
        5
280
     0
281
     1
  0
CLASS
  1
DICTIONARYVAR
  2
AcDbDictionaryVar
  3
ObjectDBX Classes
 90
        0
 91
        4
280
     0
281
     0
  0
CLASS
  1
SORTENTSTABLE
  2
AcDbSortentsTable
  3
ObjectDBX Classes
 90
        0
 91
        4
280
     0
281
     0
  0
CLASS
  1
TABLESTYLE
  2
AcDbTableStyle
  3
ObjectDBX Classes
 90
     4095
 91
        4
280
     0
281
     0
  0
CLASS
  1
VISUALSTYLE
  2
AcDbVisualStyle
  3
ObjectDBX Classes
 90
     4095
 91
        4
280
     0
281
     0
  0
CLASS
  1
SCALE
  2
AcDbScale
  3
ObjectDBX Classes
 90
     1153
 91
        4
280
     0
281
     0
  0
CLASS
  1
MATERIAL
  2
AcDbMaterial
  3
ObjectDBX Classes
 90
     1153
 91
        4
280
     0
281
     0
  0
CLASS
  1
MLEADERSTYLE
  2
AcDbMLeaderStyle
  3
ACDB_MLEADERSTYLE_CLASS
 90
     4095
 91
        4
280
     0
281
     0
  0
CLASS
  1
CELLSTYLEMAP
  2
AcDbCellStyleMap
  3
ObjectDBX Classes
 90
     1152
 91
        4
280
     0
281
     0
  0
ENDSEC
  0
SECTION
  2
TABLES
  0
TABLE
  2
VPORT
  5
8
330
0
100
AcDbSymbolTable
 70
     1
  0
VPORT
  5
39F
330
8
100
AcDbSymbolTableRecord
100
AcDbViewportTableRecord
  2
*Active
 70
     0
 10
0.0
 20
0.0
 11
1.0
 21
1.0
 12
459984.9507159351
 22
106556.7065480594
 13
0.0
 23
0.0
 14
10.0
 24
10.0
 15
10.0
 25
10.0
 16
0.0
 26
0.0
 36
1.0
 17
0.0
 27
0.0
 37
0.0
 40
4837.702946213461
 41
1.654596100278552
 42
50.0
 43
0.0
 44
0.0
 50
0.0
 51
0.0
 71
     0
 72
   100
 73
     1
 74
     0
 75
     0
 76
     0
 77
     0
 78
     0
281
     0
 65
     1
110
0.0
120
0.0
130
0.0
111
1.0
121
0.0
131
0.0
112
0.0
122
1.0
132
0.0
 79
     0
146
0.0
348
3FD
 60
     3
 61
     5
292
     1
282
     1
141
0.0
142
0.0
 63
   256
  0
ENDTAB
  0
TABLE
  2
LTYPE
  5
5
330
0
100
AcDbSymbolTable
 70
     1
  0
LTYPE
  5
14
330
5
100
AcDbSymbolTableRecord
100
AcDbLinetypeTableRecord
  2
ByBlock
 70
     0
  3

 72
    65
 73
     0
 40
0.0
  0
LTYPE
  5
15
330
5
100
AcDbSymbolTableRecord
100
AcDbLinetypeTableRecord
  2
ByLayer
 70
     0
  3

 72
    65
 73
     0
 40
0.0
  0
LTYPE
  5
16
330
5
100
AcDbSymbolTableRecord
100
AcDbLinetypeTableRecord
  2
Continuous
 70
     0
  3
Solid line
 72
    65
 73
     0
 40
0.0
  0
ENDTAB
  0
TABLE
  2
LAYER
  5
2
102
{ACAD_XDICTIONARY
360
3AD
102
}
330
0
100
AcDbSymbolTable
 70
    13
  0
LAYER
  5
10
330
2
100
AcDbSymbolTableRecord
100
AcDbLayerTableRecord
  2
0
 70
     0
 62
     7
  6
Continuous
370
    -3
390
F
347
435
  0
LAYER
  5
45
330
2
100
AcDbSymbolTableRecord
100
AcDbLayerTableRecord
  2
BA
 70
     0
 62
     5
  6
Continuous
370
    -3
390
F
347
435
1001
AcAecLayerStandard
1000

1000

  0
LAYER
  5
46
330
2
100
AcDbSymbolTableRecord
100
AcDbLayerTableRecord
  2
Neo
 70
     0
 62
    86
  6
Continuous
370
    -3
390
F
347
435
  0
LAYER
  5
233
330
2
100
AcDbSymbolTableRecord
100
AcDbLayerTableRecord
  2
Search Radius
 70
     0
 62
     1
  6
Continuous
370
    -3
390
F
347
435
  0
LAYER
  5
235
330
2
100
AcDbSymbolTableRecord
100
AcDbLayerTableRecord
  2
Iron Age
 70
     0
 62
    40
  6
Continuous
370
    -3
390
F
347
435
  0
LAYER
  5
278
330
2
100
AcDbSymbolTableRecord
100
AcDbLayerTableRecord
  2
Late Rom
 70
     0
 62
     1
  6
Continuous
370
    -3
390
F
347
435
  0
LAYER
  5
2BC
330
2
100
AcDbSymbolTableRecord
100
AcDbLayerTableRecord
  2
vports_text
 70
     0
 62
     7
  6
Continuous
370
     0
390
F
347
435
1001
RAK
1000
{LAYER_STATE1
1070
     0
1070
     7
1000
CONTINUOUS
1071
       -3
1071
        1
1005
F
1000
LAYER_STATE1}
  0
LAYER
  5
2BD
330
2
100
AcDbSymbolTableRecord
100
AcDbLayerTableRecord
  2
text
 70
     0
 62
     7
  6
Continuous
370
     0
390
F
347
435
  0
LAYER
  5
2DC
330
2
100
AcDbSymbolTableRecord
100
AcDbLayerTableRecord
  2
Prehistoric
 70
     0
 62
     2
  6
Continuous
370
    -3
390
F
347
435
1001
AcAecLayerStandard
1000

1000

  0
LAYER
  5
2DD
330
2
100
AcDbSymbolTableRecord
100
AcDbLayerTableRecord
  2
Roman
 70
     0
 62
     4
  6
Continuous
370
    -3
390
F
347
435
1001
AcAecLayerStandard
1000

1000

  0
LAYER
  5
2DE
330
2
100
AcDbSymbolTableRecord
100
AcDbLayerTableRecord
  2
Saxon
 70
     0
 62
    40
  6
Continuous
370
    -3
390
F
347
435
  0
LAYER
  5
370
330
2
100
AcDbSymbolTableRecord
100
AcDbLayerTableRecord
  2
vports
 70
     0
 62
     1
  6
Continuous
290
     0
370
    -3
390
F
347
435
  0
LAYER
  5
371
330
2
100
AcDbSymbolTableRecord
100
AcDbLayerTableRecord
  2
AOC_PAGE
 70
     0
 62
     7
  6
Continuous
370
    20
390
F
347
435
  0
ENDTAB
  0
TABLE
  2
STYLE
  5
3
330
0
100
AcDbSymbolTable
 70
     5
  0
STYLE
  5
11
330
3
100
AcDbSymbolTableRecord
100
AcDbTextStyleTableRecord
  2
Standard
 70
     0
 40
0.0
 41
1.0
 50
0.0
 71
     0
 42
2.5
  3
txt
  4

  0
STYLE
  5
2BE
330
3
100
AcDbSymbolTableRecord
100
AcDbTextStyleTableRecord
  2
TNR-Regular
 70
     0
 40
2.0
 41
1.0
 50
0.0
 71
     0
 42
2.0
  3
TIMES.TTF
  4

1001
ACAD
1000
Times New Roman
1071
       18
  0
STYLE
  5
2DF
330
3
100
AcDbSymbolTableRecord
100
AcDbTextStyleTableRecord
  2
TNR-Italic
 70
     0
 40
2.5
 41
1.0
 50
0.0
 71
     0
 42
2.0
  3
TIMESI.TTF
  4

1001
ACAD
1000
Times New Roman
1071
 16777234
  0
STYLE
  5
372
330
3
100
AcDbSymbolTableRecord
100
AcDbTextStyleTableRecord
  2
TNR-Bold
 70
     0
 40
1.5
 41
1.0
 50
0.0
 71
     0
 42
1.5
  3
TIMESBD.TTF
  4

1001
ACAD
1000
Times New Roman
1071
 33554450
  0
STYLE
  5
373
330
3
100
AcDbSymbolTableRecord
100
AcDbTextStyleTableRecord
  2
ROMANT
 70
     0
 40
5.0
 41
1.0
 50
0.0
 71
     0
 42
5.0
  3
romant
  4

  0
ENDTAB
  0
TABLE
  2
VIEW
  5
6
330
0
100
AcDbSymbolTable
 70
     0
  0
ENDTAB
  0
TABLE
  2
UCS
  5
7
330
0
100
AcDbSymbolTable
 70
     0
  0
ENDTAB
  0
TABLE
  2
APPID
  5
9
330
0
100
AcDbSymbolTable
 70
     4
  0
APPID
  5
12
330
9
100
AcDbSymbolTableRecord
100
AcDbRegAppTableRecord
  2
ACAD
 70
     0
  0
APPID
  5
47
330
9
100
AcDbSymbolTableRecord
100
AcDbRegAppTableRecord
  2
AcAecLayerStandard
 70
     0
  0
APPID
  5
2BF
330
9
100
AcDbSymbolTableRecord
100
AcDbRegAppTableRecord
  2
RAK
 70
     0
  0
APPID
  5
3C0
330
9
100
AcDbSymbolTableRecord
100
AcDbRegAppTableRecord
  2
ACAD_PSEXT
 70
     0
  0
ENDTAB
  0
TABLE
  2
DIMSTYLE
  5
A
330
0
100
AcDbSymbolTable
 70
     1
100
AcDbDimStyleTable
  0
DIMSTYLE
105
27
330
A
100
AcDbSymbolTableRecord
100
AcDbDimStyleTableRecord
  2
ISO-25
 70
     0
 41
2.5
 42
0.625
 43
3.75
 44
1.25
 73
     0
 74
     0
 77
     1
 78
     8
140
2.5
141
2.5
143
0.03937007874016
147
0.625
171
     3
172
     1
178
     0
271
     2
272
     2
274
     3
278
    44
283
     0
284
     8
340
11
  0
ENDTAB
  0
TABLE
  2
BLOCK_RECORD
  5
1
330
0
100
AcDbSymbolTable
 70
     4
  0
BLOCK_RECORD
  5
1F
102
{ACAD_XDICTIONARY
360
239
102
}
330
1
100
AcDbSymbolTableRecord
100
AcDbBlockTableRecord
  2
*Model_Space
340
22
 70
     0
280
     1
281
     0
  0
BLOCK_RECORD
  5
1B
102
{ACAD_XDICTIONARY
360
301
102
}
330
1
100
AcDbSymbolTableRecord
100
AcDbBlockTableRecord
  2
*Paper_Space
340
1E
 70
     0
280
     1
281
     0
  0
BLOCK_RECORD
  5
23
330
1
100
AcDbSymbolTableRecord
100
AcDbBlockTableRecord
  2
*Paper_Space0
340
26
 70
     0
280
     1
281
     0
  0
BLOCK_RECORD
  5
2A9
330
1
100
AcDbSymbolTableRecord
100
AcDbBlockTableRecord
  2
1 to 2000 small
340
0
310
2800000020000000200000000100080000000000000400000000000000000000000000000000000000000000000080000080000000808000800000008000800080800000C0C0C000C0DCC000F0CAA6000020400000206000002080000020A0000020C0000020E00000400000004020000040400000406000004080000040A0
310
000040C0000040E00000600000006020000060400000606000006080000060A0000060C0000060E00000800000008020000080400000806000008080000080A0000080C0000080E00000A0000000A0200000A0400000A0600000A0800000A0A00000A0C00000A0E00000C0000000C0200000C0400000C0600000C0800000C0
310
A00000C0C00000C0E00000E0000000E0200000E0400000E0600000E0800000E0A00000E0C00000E0E00040000000400020004000400040006000400080004000A0004000C0004000E00040200000402020004020400040206000402080004020A0004020C0004020E000404000004040200040404000404060004040800040
310
40A0004040C0004040E00040600000406020004060400040606000406080004060A0004060C0004060E00040800000408020004080400040806000408080004080A0004080C0004080E00040A0000040A0200040A0400040A0600040A0800040A0A00040A0C00040A0E00040C0000040C0200040C0400040C0600040C08000
310
40C0A00040C0C00040C0E00040E0000040E0200040E0400040E0600040E0800040E0A00040E0C00040E0E00080000000800020008000400080006000800080008000A0008000C0008000E00080200000802020008020400080206000802080008020A0008020C0008020E00080400000804020008040400080406000804080
310
008040A0008040C0008040E00080600000806020008060400080606000806080008060A0008060C0008060E00080800000808020008080400080806000808080008080A0008080C0008080E00080A0000080A0200080A0400080A0600080A0800080A0A00080A0C00080A0E00080C0000080C0200080C0400080C0600080C0
310
800080C0A00080C0C00080C0E00080E0000080E0200080E0400080E0600080E0800080E0A00080E0C00080E0E000C0000000C0002000C0004000C0006000C0008000C000A000C000C000C000E000C0200000C0202000C0204000C0206000C0208000C020A000C020C000C020E000C0400000C0402000C0404000C0406000C0
310
408000C040A000C040C000C040E000C0600000C0602000C0604000C0606000C0608000C060A000C060C000C060E000C0800000C0802000C0804000C0806000C0808000C080A000C080C000C080E000C0A00000C0A02000C0A04000C0A06000C0A08000C0A0A000C0A0C000C0A0E000C0C00000C0C02000C0C04000C0C06000
310
C0C08000C0C0A000F0FBFF00A4A0A000808080000000FF0000FF000000FFFF00FF000000FF00FF00FFFF0000FFFFFF00FFFFFFFFFFFFFFFFFFFFFFFFFFFFFFFFFFFFFFFFFFFFFFFFFFFFFFFFFFFFFFFFFFFFFFFFFFFFFFFFFFFFFFFFFFFFFFFFFFFFFFFFFFFFFFFFFFFFFFFFFFFFFFFFFFFFFFFFFFFFFFFFFFFFFFFFFFFFFF
310
FFFFFFFFFFFFFFFFFFFFFFFFFFFFFFFFFFFFFFFFFFFFFFFFFFFFFFFFFFFFFFFFFFFFFFFFFFFFFFFFFFFFFFFFFFFFFFFFFFFFFFFFFFFFFFFFFFFFFFFFFFFFFFFFFFFFFFFFFFFFFFFFFFFFFFFFFFFFFFFFFFFFFFFFFFFFFFFFFFFFFFFFFFFFFFFFFFFFFFFFFFFFFFFFFFFFFFFFFFFFFFFFFFFFFFFFFFFFFFFFFFFFFFFFFFFFFF
310
FFFFFFFFFFFFFFFFFFFFFFFFFFFFFFFFFFFFFFFFFFFFFFFFFFFFFFFFFFFFFFFFFFFFFFFFFFFFFFFFFFFFFFFFFFFFFFFFFFFFFFFFFFFFFFFFFFFFFFFFFFFFFFFFFFFFFFFFFFFFFFFFFFFFFFFFFFFFFFFFFFFFFFFFFFFFFFFFFFFFFFFFFFFFFFFFFFFFFFFFFFFFFFFFFFFFFFFFFFFFFFFFFFFFFFFFFFFFFFFFFFFFFFFFFFFFFF
310
FFFFFFFFFFFFFFFFFFFFFFFFFFFFFFFFFFFFFFFFFFFFFFFFFFFFFFFFFFFFFFFFFFFFFFFFFFFFFFFFFFFFFFFFFFFFFFFFFFFFFFFFFFFFFFFFFFFFFFFFFFFFFFFFFFFFFFFFFFFFFFFFFFFFFFFFFFFFFFFFFFFFFFFFFFFFFFFFFFFFFFFFFFFFFFFFFFFFFFFFFFFFFFFFFFFFFFFFFFFFFFFFFFFFFFFFFFFFFFFFFFFFFFFFFFFFFF
310
FF00000000FFFFFFFFFFFFFFFFFFFFFFFFFFFFFFFFFF000000000000000000000000000000000000000000000000000000FFFFFFFFFF000000000000000000000000000000000000000000000000000000FFFFFFFF000000FFFFFFFFFFFFFF00FFFFFFFFFFFFFFFFFFFFFFFFFFFFFF00000000FFFFFFFFFFFFFFFFFFFFFFFF
310
FFFFFFFFFFFFFFFFFFFFFFFFFFFFFFFFFFFFFFFFFFFFFFFFFFFFFFFFFFFFFFFFFFFFFFFFFFFFFFFFFFFFFFFFFFFFFFFFFFFFFFFFFFFFFFFFFFFFFFFFFFFFFFFFFFFFFFFFFFFFFFFFFFFFFFFFFFFFFFFFFFFFFFFFFFFFFFFFFFFFFFFFFFFFFFFFFFFFFFFFFFFFFFFFFFFFFFFFFFFFFFFFFFFFFFFFFFFFFFFFFFFFFFFFFFFFFF
310
FFFFFFFFFFFFFFFFFFFFFFFFFFFFFFFFFFFFFFFFFFFFFFFFFFFFFFFFFFFFFFFFFFFFFFFFFFFFFFFFFFFFFFFFFFFFFFFFFFFFFFFFFFFFFFFFFFFFFFFFFFFFFFFFFFFFFFFFFFFFFFFFFFFFFFFFFFFFFFFFFFFFFFFFFFFFFFFFFFFFFFFFFFFFFFFFFFFFFFFFFFFFFFFFFFFFFFFFFFFFFFFFFFFFFFFFFFFFFFFFFFFFFFFFFFFFFF
310
FFFFFFFFFFFFFFFFFFFFFFFFFFFFFFFFFFFFFFFFFFFFFFFFFFFFFFFFFFFFFFFFFFFFFFFFFFFFFFFFFFFFFFFFFFFFFFFFFFFFFFFFFFFFFFFFFFFFFFFFFFFFFFFFFFFFFFFFFFFFFFFFFFFFFFFFFFFFFFFFFFFFFFFFFFFFFFFFFFFFFFFFFFFFFFFFFFFFFFFFFFFFFFFFFFFFFFFFFFFFFFFFFFFFFFFFFFFFFFFFFFFFFFFFFFFFFF
310
FFFFFFFFFFFFFFFFFFFFFFFFFFFFFFFFFFFFFFFFFFFFFFFFFFFFFFFFFFFFFFFFFFFFFFFFFFFFFFFFFFFFFFFFFFFFFFFFFFFFFFFFFFFFFFFF
 70
     4
280
     1
281
     0
1001
ACAD
1000
DesignCenter Data
1002
{
1070
     1
1070
     4
1002
}
  0
BLOCK_RECORD
  5
333
330
1
100
AcDbSymbolTableRecord
100
AcDbBlockTableRecord
  2
A$C31D11D9A
340
0
 70
     0
280
     1
281
     0
  0
BLOCK_RECORD
  5
360
330
1
100
AcDbSymbolTableRecord
100
AcDbBlockTableRecord
  2
aoc
340
0
310
2800000020000000200000000100080000000000000400000000000000000000000000000000000000000000000080000080000000808000800000008000800080800000C0C0C000C0DCC000F0CAA6000020400000206000002080000020A0000020C0000020E00000400000004020000040400000406000004080000040A0
310
000040C0000040E00000600000006020000060400000606000006080000060A0000060C0000060E00000800000008020000080400000806000008080000080A0000080C0000080E00000A0000000A0200000A0400000A0600000A0800000A0A00000A0C00000A0E00000C0000000C0200000C0400000C0600000C0800000C0
310
A00000C0C00000C0E00000E0000000E0200000E0400000E0600000E0800000E0A00000E0C00000E0E00040000000400020004000400040006000400080004000A0004000C0004000E00040200000402020004020400040206000402080004020A0004020C0004020E000404000004040200040404000404060004040800040
310
40A0004040C0004040E00040600000406020004060400040606000406080004060A0004060C0004060E00040800000408020004080400040806000408080004080A0004080C0004080E00040A0000040A0200040A0400040A0600040A0800040A0A00040A0C00040A0E00040C0000040C0200040C0400040C0600040C08000
310
40C0A00040C0C00040C0E00040E0000040E0200040E0400040E0600040E0800040E0A00040E0C00040E0E00080000000800020008000400080006000800080008000A0008000C0008000E00080200000802020008020400080206000802080008020A0008020C0008020E00080400000804020008040400080406000804080
310
008040A0008040C0008040E00080600000806020008060400080606000806080008060A0008060C0008060E00080800000808020008080400080806000808080008080A0008080C0008080E00080A0000080A0200080A0400080A0600080A0800080A0A00080A0C00080A0E00080C0000080C0200080C0400080C0600080C0
310
800080C0A00080C0C00080C0E00080E0000080E0200080E0400080E0600080E0800080E0A00080E0C00080E0E000C0000000C0002000C0004000C0006000C0008000C000A000C000C000C000E000C0200000C0202000C0204000C0206000C0208000C020A000C020C000C020E000C0400000C0402000C0404000C0406000C0
310
408000C040A000C040C000C040E000C0600000C0602000C0604000C0606000C0608000C060A000C060C000C060E000C0800000C0802000C0804000C0806000C0808000C080A000C080C000C080E000C0A00000C0A02000C0A04000C0A06000C0A08000C0A0A000C0A0C000C0A0E000C0C00000C0C02000C0C04000C0C06000
310
C0C08000C0C0A000F0FBFF00A4A0A000808080000000FF0000FF000000FFFF00FF000000FF00FF00FFFF0000FFFFFF00FFFFFFFFFFFFFFFFFFFFFFFFFFFFFFFFFFFFFFFFFFFFFFFFFFFFFFFFFFFFFFFFFFFFFFFFFFFFFFFFFFFFFFFFFFFFFFFFFFFFFFFFFFFFFFFFFFFFFFFFFFFFFFFFFFFFFFFFFFFFFFFFFFFFFFFFFFFFFF
310
FFFFFFFFFFFFFFFFFFFFFFFFFFFFFFFFFFFFFFFFFFFFFFFFFFFFFFFFFFFFFFFFFFFFFFFFFFFFFFFFFFFFFFFFFFFFFFFFFFFFFFFFFFFFFFFFFFFFFFFFFFFFFFFFFFFFFFFFFFFFFFFFFFFFFFFFFFFFFFFFFFFFFFFFFFFFFFFFFFFFFFFFFFFFFFFFFFFFFFFFFFFFFFFFFFFFFFFFFFFFFFFFFFFFFFFFFFFFFFFFFFFFFFFFFFFFFF
310
FFFFFFFFFFFFFFFFFFFFFFFFFFFFFFFFFFFFFFFFFFFFFFFFFFFFFFFFFFFFFFFFFFFFFFFFFFFFFFFFFFFFFFFFFFFFFFFFFFFFFFFFFFFFFFFFFFFFFFFFFFFFFFFFFFFFFFFFFFFFFFFFFFFFFFFFFFFFFFFFFFFFFFFFFFFFFFFFFFFFFFFFFFFFFFFFFFFFFFFFFFFFE0E0FFFFFFFFFFFFFFFFFFFFFFFFFFFFFFFFFFFFFFFFFFFFFF
310
FFFFFFFFFFFFE0E0E0E0E0FFFFFFFFFFFFFFFFFFFFFFFFFFFFFFFFFF000000000000FFFFFFFFE0E0E0E0E0E0FFFFFFFFFFFFFFFFFFFFFFFFFFFFFFFF00000000000000FFFFFFE0E0E0E0E0E0FFFFFFFFFFFFFFFF000000000000000000000000000000FFFFFFE0E0E0E0FFE0FFFFFFFFFFFFFFFFFFE0E0E0E0E0E0E0E0E0E0
310
E0E0E0E0FFFFFFFFFFE0E0E0E0E0FFE0E0E0FFFFFFFFE0E0E0E0E0E0E0E0E0E0E0E0E0E0FFFFFFFFE0E0E0E0E0E0E0E0E0E0E0FFFF000000000000000000000000000000FFFFFFE0E0E0E0E0E0E0E0E0E0E0E0FFFFFF000000000000000000FF00000000FFFFFFE0E0E0E0E0E0FFE0E0E0E0FFFFFFFFFF000000FF00FFFF00
310
FF00FFFF00FFFFE0E0E0E0E0E0E0E0E0E0E0E0FFFFFFFFFF00FF00FF00FFFF00FF00FFFFFFFFFFE0E0E0E0E0FFFFFFFFFFFFFFFFFFFFFFFFFF00FFFF00FFFF00FF00FFFF00FFFFE0E0E0E0E0FFFFFFFFFFFFFFFFFFFFFFFFFF00FFFF00000000FF00000000FFFFE0E0E0E0E0FFFFFFFFFFFFFFFFFFFFFFFFFFFFFFFFFFFFFF
310
FFFFFFFFFFFFFFFFFFFFE0E0FFFFFFFFFFFFFFFFFFFFFFFFFFFFFFFFFFFFFFFFFFFFFFFFFFFFFFFFFFFFFFFFFFFFFFFFFFFFFFFFFFFFFFFFFFFFFFFFFFFFFFFFFFFFFFFFFFFFFFFFFFFFFFFFFFFFFFFFFFFFFFFFFFFFFFFFFFFFFFFFFFFFFFFFFFFFFFFFFFFFFFFFFFFFFFFFFFFFFFFFFFFFFFFFFFFFFFFFFFFFFFFFFFFFFF
310
FFFFFFFFFFFFFFFFFFFFFFFFFFFFFFFFFFFFFFFFFFFFFFFFFFFFFFFFFFFFFFFFFFFFFFFFFFFFFFFFFFFFFFFFFFFFFFFFFFFFFFFFFFFFFFFFFFFFFFFFFFFFFFFFFFFFFFFFFFFFFFFFFFFFFFFFFFFFFFFFFFFFFFFFFFFFFFFFFFFFFFFFFFFFFFFFFFFFFFFFFFFFFFFFFFFFFFFFFFFFFFFFFFFFFFFFFFFFFFFFFFFFFFFFFFFFFF
310
FFFFFFFFFFFFFFFFFFFFFFFFFFFFFFFFFFFFFFFFFFFFFFFFFFFFFFFFFFFFFFFFFFFFFFFFFFFFFFFFFFFFFFFFFFFFFFFFFFFFFFFFFFFFFFFF
102
{BLKREFS
331
385
102
}
 70
     4
280
     1
281
     0
1001
ACAD
1000
DesignCenter Data
1002
{
1070
     1
1070
     4
1002
}
  0
ENDTAB
  0
ENDSEC
  0
SECTION
  2
BLOCKS
  0
BLOCK
  5
20
330
1F
100
AcDbEntity
  8
0
100
AcDbBlockBegin
  2
*Model_Space
 70
     0
 10
0.0
 20
0.0
 30
0.0
  3
*Model_Space
  1

  0
ENDBLK
  5
21
330
1F
100
AcDbEntity
  8
0
100
AcDbBlockEnd
  0
BLOCK
  5
1C
330
1B
100
AcDbEntity
 67
     1
  8
0
100
AcDbBlockBegin
  2
*Paper_Space
 70
     0
 10
0.0
 20
0.0
 30
0.0
  3
*Paper_Space
  1

  0
ENDBLK
  5
1D
330
1B
100
AcDbEntity
 67
     1
  8
0
100
AcDbBlockEnd
  0
BLOCK
  5
24
330
23
100
AcDbEntity
  8
0
100
AcDbBlockBegin
  2
*Paper_Space0
 70
     0
 10
0.0
 20
0.0
 30
0.0
  3
*Paper_Space0
  1

  0
ENDBLK
  5
25
330
23
100
AcDbEntity
  8
0
100
AcDbBlockEnd
  0
BLOCK
  5
2BA
330
2A9
100
AcDbEntity
  8
0
100
AcDbBlockBegin
  2
1 to 2000 small
 70
     0
 10
0.0
 20
0.0
 30
0.0
  3
1 to 2000 small
  1

  0
LINE
  5
2AA
102
{ACAD_REACTORS
330
2AC
102
}
330
2A9
100
AcDbEntity
  8
vports_text
100
AcDbLine
 10
-37.50000026232929
 20
0.0000000876722481
 30
0.0
 11
37.50000026232929
 21
-0.0000000876722481
 31
0.0
  0
LINE
  5
2AB
102
{ACAD_REACTORS
330
2AC
102
}
330
2A9
100
AcDbEntity
  8
vports_text
100
AcDbLine
 10
-12.49999986195382
 20
1.500000075982626
 30
0.0
 11
37.50000026232929
 21
1.500000075982626
 31
0.0
  0
HATCH
  5
2AC
330
2A9
100
AcDbEntity
  8
vports_text
100
AcDbHatch
 10
0.0
 20
0.0
 30
0.0
210
0.0
220
0.0
230
1.0
  2
SOLID
 70
     1
 71
     1
 91
        3
 92
        7
 72
     0
 73
     1
 93
        4
 10
-12.49999986195382
 20
1.500000075982626
 10
-12.49999986195382
 20
0.0000000292240822
 10
12.50000020018774
 20
-0.000000029224083
 10
12.50000020018774
 20
1.500000075982626
 97
        4
330
2AB
330
2B5
330
2AA
330
2B7
 92
        7
 72
     0
 73
     1
 93
        4
 10
-22.5000002623293
 20
1.500000075982626
 10
-22.5000002623293
 20
0.0000000526033491
 10
-17.5000002623293
 20
0.0000000409137161
 10
-17.5000002623293
 20
1.500000075982626
 97
        4
330
2AD
330
2B3
330
2AA
330
2B4
 92
        7
 72
     0
 73
     1
 93
        4
 10
-27.5000002623293
 20
0.0000000642929821
 10
-27.50000026232931
 20
1.500000075982626
 10
-32.5000002623293
 20
1.500000075982626
 10
-32.50000026232929
 20
0.0000000759826151
 97
        4
330
2AD
330
2B0
330
2AA
330
2B1
 75
     0
 76
     1
 47
0.1183187555646994
 98
        3
 10
3.628570844390766
 20
0.8893600274606683
 10
-20.87240782034894
 20
0.7710407432561511
 10
-28.5659514368408
 20
0.5344034523934056
  0
LINE
  5
2AD
102
{ACAD_REACTORS
330
2AC
102
}
330
2A9
100
AcDbEntity
  8
vports_text
100
AcDbLine
 10
-37.50000026232929
 20
1.500000075982626
 30
0.0
 11
-12.49999986195382
 21
1.500000075982626
 31
0.0
  0
TEXT
  5
2AE
330
2A9
100
AcDbEntity
  8
vports_text
100
AcDbText
 10
-40.12508945986184
 20
4.328808150000156
 30
0.0
 40
2.0
  1
50m
  7
TNR-Regular
 72
     1
 11
-37.49999933729515
 21
4.328808150000156
 31
0.0
100
AcDbText
  0
LINE
  5
2AF
330
2A9
100
AcDbEntity
  8
vports_text
100
AcDbLine
 10
-37.50000026232929
 20
0.0000000759826264
 30
0.0
 11
-37.50000026232929
 21
3.000000075982627
 31
0.0
  0
LINE
  5
2B0
102
{ACAD_REACTORS
330
2AC
102
}
330
2A9
100
AcDbEntity
  8
vports_text
100
AcDbLine
 10
-32.5000002623293
 20
0.0000000759826264
 30
0.0
 11
-32.5000002623293
 21
1.500000075982597
 31
0.0
  0
LINE
  5
2B1
102
{ACAD_REACTORS
330
2AC
102
}
330
2A9
100
AcDbEntity
  8
vports_text
100
AcDbLine
 10
-27.5000002623293
 20
0.0000000759826264
 30
0.0
 11
-27.5000002623293
 21
1.500000075982597
 31
0.0
  0
TEXT
  5
2B2
330
2A9
100
AcDbEntity
  8
vports_text
100
AcDbText
 10
-6.601658193085541
 20
-4.180051216045796
 30
0.0
 40
2.0
  1
1:2000
  7
TNR-Regular
 72
     1
 11
-2.499999937858433
 21
-4.180051216045796
 31
0.0
100
AcDbText
  0
LINE
  5
2B3
102
{ACAD_REACTORS
330
2AC
102
}
330
2A9
100
AcDbEntity
  8
vports_text
100
AcDbLine
 10
-22.5000002623293
 20
0.0000000759826264
 30
0.0
 11
-22.5000002623293
 21
1.500000075982597
 31
0.0
  0
LINE
  5
2B4
102
{ACAD_REACTORS
330
2AC
102
}
330
2A9
100
AcDbEntity
  8
vports_text
100
AcDbLine
 10
-17.5000002623293
 20
0.0000000759826264
 30
0.0
 11
-17.5000002623293
 21
1.500000075982597
 31
0.0
  0
LINE
  5
2B5
102
{ACAD_REACTORS
330
2AC
102
}
330
2A9
100
AcDbEntity
  8
vports_text
100
AcDbLine
 10
-12.49999986195382
 20
0.0000000759826264
 30
0.0
 11
-12.49999986195382
 21
3.000000075982627
 31
0.0
  0
TEXT
  5
2B6
330
2A9
100
AcDbEntity
  8
vports_text
100
AcDbText
 10
-13.23828340362536
 20
4.328808150000156
 30
0.0
 40
2.0
  1
0
  7
TNR-Regular
 72
     1
 11
-12.49999933729515
 21
4.328808150000156
 31
0.0
100
AcDbText
  0
LINE
  5
2B7
102
{ACAD_REACTORS
330
2AC
102
}
330
2A9
100
AcDbEntity
  8
vports_text
100
AcDbLine
 10
12.50000020018774
 20
0.0000000759826264
 30
0.0
 11
12.50000020018774
 21
1.500000075982626
 31
0.0
  0
TEXT
  5
2B8
330
2A9
100
AcDbEntity
  8
vports_text
100
AcDbText
 10
34.13662647380789
 20
4.32880836681025
 30
0.0
 40
2.0
  1
100m
  7
TNR-Regular
 72
     1
 11
37.50000066270479
 21
4.32880836681025
 31
0.0
100
AcDbText
  0
LINE
  5
2B9
330
2A9
100
AcDbEntity
  8
vports_text
100
AcDbLine
 10
37.50000026232929
 20
-0.0000000876722481
 30
0.0
 11
37.50000026232929
 21
2.999999912327751
 31
0.0
  0
ENDBLK
  5
2BB
330
2A9
100
AcDbEntity
  8
0
100
AcDbBlockEnd
  0
BLOCK
  5
336
330
333
100
AcDbEntity
  8
0
100
AcDbBlockBegin
  2
A$C31D11D9A
 70
     0
 10
0.0
 20
0.0
 30
0.0
  3
A$C31D11D9A
  1

  0
MTEXT
  5
334
330
333
100
AcDbEntity
  8
Iron Age
100
AcDbMText
 10
136.3970555971027
 20
53.4313956523838
 30
0.0
 40
39.9564
 41
318.5098
 46
0.0
 71
     1
 72
     5
  1
{\fTimes New Roman|b0|i0|c0|p18;01}
 73
     1
 44
1.0
  0
LWPOLYLINE
  5
335
330
333
100
AcDbEntity
  8
Iron Age
100
AcDbPolyline
 90
        2
 70
     0
 43
0.0
 10
-0.0000016687554307
 20
84.343813129497
 10
124.7859902899363
 20
35.87789660537965
  0
ENDBLK
  5
337
330
333
100
AcDbEntity
  8
0
100
AcDbBlockEnd
  0
BLOCK
  5
36E
330
360
100
AcDbEntity
  8
0
100
AcDbBlockBegin
  2
aoc
 70
     0
 10
0.0
 20
0.0
 30
0.0
  3
aoc
  1

  0
LWPOLYLINE
  5
361
330
360
100
AcDbEntity
  8
AOC_PAGE
 62
   150
100
AcDbPolyline
 90
       71
 70
     0
 43
0.0
 10
28.03722397494261
 20
-2.155385721392804
 10
27.78249854613364
 20
-2.031058557894312
 10
27.53134820847433
 20
-2.082952588188604
 10
27.39492210126397
 20
-2.248431979581937
 10
27.34654327411587
 20
-2.577048898742532
 10
27.43567141431475
 20
-2.843789528328216
 10
27.55443165997008
 20
-3.054096560222874
 10
27.68546675576883
 20
-3.199516545963192
 10
27.89798054377297
 20
-3.292279299854044
 10
28.14021650891161
 20
-3.337242047872209
 10
28.35205475933162
 20
-3.365252863126884
 10
28.56357775887773
 20
-3.363046107016984
 10
28.77024353244786
 20
-3.309082835837216
 10
28.88607644857026
 20
-3.23879813363942
 10
29.06639108829606
 20
-3.141937118401756
 10
29.18968666442379
 20
-2.959325650889014
 10
29.35165326037756
 20
-2.759041677188634
 10
29.46500920535706
 20
-2.451333199989662
 10
29.51829029431971
 20
-2.178789591808709
 10
29.56221721804121
 20
-1.83726732076002
 10
29.49543202201878
 20
-1.229229599319979
 10
29.35697265742257
 20
-0.7859957316895674
 10
29.21756754020748
 20
-0.2521091499670547
 10
29.06175092029753
 20
0.1995781661257894
 10
28.85826940203012
 20
0.6680372716266447
 10
28.58072681572361
 20
1.200482706502044
 10
28.41331088325433
 20
1.522531037804129
 10
28.24526444903947
 20
1.90501451183512
 10
27.85017758473026
 20
2.531213489058246
 10
27.65677080512774
 20
2.861625197145941
 10
27.41061672199857
 20
3.28214918925643
 10
27.08658016914976
 20
3.719129719902639
 10
26.68699636557449
 20
4.362550844923589
 10
26.26623390500475
 20
4.96689562756842
 10
25.95361652135756
 20
5.550782326640501
 10
25.69356629788211
 20
6.061823925326067
 10
25.32892218413116
 20
6.666754173876825
 10
25.06387962716187
 20
7.242502675359674
 10
24.85509052452878
 20
7.805886255022173
 10
24.63326096249031
 20
8.377768318986227
 10
24.49844285621859
 20
8.885799161092095
 10
24.46101955061931
 20
9.576171255678446
 10
24.54285188490482
 20
10.00875156336907
 10
24.59896358709096
 20
10.42379447239001
 10
24.72454934637423
 20
10.80070679165192
 10
24.92316034940083
 20
11.21291908744909
 10
25.21237903067913
 20
11.63039393177428
 10
25.70529776478793
 20
11.9722831341669
 10
26.12591182857682
 20
12.2098036254781
 10
26.42655632368994
 20
12.35972719511599
 10
26.92132152719631
 20
12.52462776523453
 10
27.43007294272613
 20
12.59037713696034
 10
27.81035630527933
 20
12.55548912760834
 10
28.16491903573316
 20
12.50306371958506
 10
28.49457177918973
 20
12.35539858652805
 10
28.97248176624203
 20
12.06681040699436
 10
29.32934132448392
 20
11.7942284076064
 10
29.61304053146543
 20
11.4992968194108
 10
29.86108611983127
 20
10.89746739911723
 10
30.07181176354104
 20
10.14846159536249
 10
30.03094727686857
 20
9.513397202493934
 10
29.95041433728147
 20
9.370087256552779
 10
29.85486600600663
 20
9.010757371799855
 10
29.75814674291831
 20
8.763664180684145
 10
29.60904046301377
 20
8.572148906319399
 10
29.37404862331681
 20
8.336564956083507
 10
29.15542325047676
 20
8.187497067385948
 10
28.76439625630607
 20
8.010726969675261
 10
28.40277618839761
 20
7.911974449201125
 10
28.18635092703582
 20
7.965841004071521
 10
27.54242776315385
 20
8.02819939861071
  0
LWPOLYLINE
  5
362
330
360
100
AcDbEntity
  8
AOC_PAGE
 62
   150
100
AcDbPolyline
 90
      241
 70
     0
 43
0.0
 10
28.79717051329473
 20
2.343530146317107
 10
28.66686265665402
 20
2.462022936259714
 10
27.78436988790142
 20
3.873196586725967
 10
27.00242442854866
 20
5.164535776032608
 10
26.36698645970407
 20
6.068849516205105
 10
25.96942262425111
 20
6.932472268430274
 10
25.54604808502063
 20
7.787191213803013
 10
25.34899340246284
 20
8.467263390528146
 10
25.14446941526737
 20
9.449466245052932
 10
25.43893735580986
 20
10.60524829735321
 10
25.95442421328923
 20
11.26685061205421
 10
26.48574375219027
 20
11.65231309608885
 10
27.0967021585306
 20
11.85296400113249
 10
27.51052909989949
 20
11.91340578849234
 10
28.07706518828917
 20
11.82001917748767
 10
28.52408206639393
 20
11.59586768571829
 10
28.96876372550378
 20
11.18173213810906
 10
29.32535971334343
 20
10.5205934710618
 10
29.41741518307478
 20
9.973261107384147
 10
29.29776750990368
 20
9.440989171232573
 10
29.04730992012898
 20
9.03255324127646
 10
28.88075631323201
 20
8.858125007191774
 10
28.42783485260446
 20
8.658879948450263
 10
27.91177406146923
 20
8.627835352059023
 10
27.61688086447973
 20
8.75427679228234
 10
27.38197245182911
 20
8.924516693342653
 10
27.20246181257332
 20
9.164410794855272
 10
27.12677945433097
 20
9.383801776957853
 10
27.18087118839546
 20
9.578643058774318
 10
27.27453465906586
 20
9.704820928595808
 10
27.37714697242723
 20
9.800871298731863
 10
27.49334017526161
 20
9.836621633657387
 10
27.64878986382837
 20
9.833926127951145
 10
27.83949449309256
 20
9.762522174410634
 10
27.97277473620738
 20
9.815719836328071
 10
28.03599545631931
 20
9.96316643482281
 10
28.08599557366958
 20
10.13637870125467
 10
28.04956970115947
 20
10.31732384272618
 10
27.90113231420833
 20
10.47551407283801
 10
27.74055518463069
 20
10.55586686906962
 10
27.4599184146991
 20
10.55725633544559
 10
27.01699979794122
 20
10.38857939948522
 10
26.81141488450632
 20
10.23101302648682
 10
26.67031169467461
 20
10.10002296652715
 10
26.53847259840697
 20
9.908687835518307
 10
26.46774418245127
 20
9.653231267617457
 10
26.47624931138418
 20
9.25181428390917
 10
26.58282477857483
 20
8.967986614042502
 10
26.76678732125762
 20
8.71518716064179
 10
27.05084681495006
 20
8.385721205172558
 10
27.31660330071071
 20
8.155361412257662
 10
28.22300197873983
 20
7.763311883054953
 10
28.78998842552002
 20
7.626757312959185
 10
29.20111986118238
 20
7.531749411751221
 10
29.66387270439847
 20
7.454549124247478
 10
30.47219439953778
 20
7.359367724316598
 10
31.05995418076188
 20
7.300740659779862
 10
31.97111336845816
 20
7.280025650438787
 10
33.07576276280153
 20
7.334722784305995
 10
33.68407069927522
 20
7.375607204873162
 10
34.45587645022738
 20
7.470004538231493
 10
35.41843186628236
 20
7.488681122139738
 10
36.39847964516773
 20
7.485953869858349
 10
37.31004415541472
 20
7.4263876973355
 10
38.12286278981969
 20
7.31398414960654
 10
38.75914315033992
 20
7.156566173389137
 10
39.48702197757092
 20
6.90944123569831
 10
39.93813047238928
 20
6.706918759313581
 10
40.29044805552707
 20
6.455875703631804
 10
40.75783959015661
 20
5.934045437489416
 10
40.94584871371353
 20
5.707191795382187
 10
41.09073491401881
 20
5.475570998976082
 10
41.2274378808952
 20
5.200692171801165
 10
41.38302932161147
 20
4.770588835253207
 10
41.44675208058351
 20
4.456093235633489
 10
41.46483655395397
 20
3.964113609511514
 10
41.47406225631011
 20
3.493627891256679
 10
41.19653960390062
 20
2.782700996789799
 10
40.958762186819
 20
2.400300949805342
 10
40.70223140341568
 20
2.160175024466085
 10
40.43639149060886
 20
1.984710966085231
 10
40.10283391842626
 20
1.679022457007932
 10
39.88762462471593
 20
1.616335522331852
 10
39.3926792778536
 20
1.468702135849085
 10
38.90092483092644
 20
1.429033682933323
 10
38.36123527060926
 20
1.432037794880884
 10
37.87568248019576
 20
1.625566392735195
 10
37.38113581125228
 20
1.853539286184969
 10
37.07630298311477
 20
2.105077736094913
 10
36.84881219462972
 20
2.391961198379462
 10
36.68989474646193
 20
2.727049989087163
 10
36.58646514336687
 20
3.123159388429244
 10
36.56636070187525
 20
3.394937387347909
 10
36.61087309150386
 20
3.680341311578331
 10
36.70714199620303
 20
3.970602461785134
 10
36.88430412720047
 20
4.369639190660351
 10
37.46661457190902
 20
4.833344431126292
 10
37.85755149440158
 20
5.018748120655815
 10
38.12887913493068
 20
5.082020521238277
 10
38.42624265843028
 20
5.132612749127262
 10
38.66856869524733
 20
5.07901640929164
 10
38.95896495297163
 20
4.969797116864825
 10
39.14616343142708
 20
4.820645801121827
 10
39.38565885502157
 20
4.624550160446006
 10
39.48328547952082
 20
4.370849990265469
 10
39.52056703297168
 20
4.107885726521303
 10
39.37956055944932
 20
3.553804631629873
 10
39.26013142084182
 20
3.414406159046635
 10
39.13593512793406
 20
3.318130609715595
 10
39.05013963981969
 20
3.265428342027022
 10
38.88659678950148
 20
3.216232225145845
 10
38.76122956478181
 20
3.232193369452716
 10
38.62695853320992
 20
3.273965217535746
 10
38.54390358663977
 20
3.372395842504829
 10
38.52492504112271
 20
3.536253943695343
 10
38.54079611375093
 20
3.670254760234002
 10
38.60464733560843
 20
3.757266216000758
 10
38.60464733560843
 20
3.757266216000758
 10
38.28853044578585
 20
3.848948109756506
 10
38.12476241627286
 20
3.821335972420698
 10
38.01837373707025
 20
3.673439015536346
 10
37.96859879891483
 20
3.478642769558746
 10
37.97916893180806
 20
3.293110617144535
 10
38.02895051459652
 20
3.073449420008956
 10
38.15180237696609
 20
2.884771403498917
 10
38.37380543772838
 20
2.710079599012261
 10
38.64252764422938
 20
2.609268719209695
 10
39.10383934059786
 20
2.670205900798223
 10
39.51235869759961
 20
2.825572162319077
 10
39.87662923537476
 20
3.084091167269193
 10
40.10069065546642
 20
3.539741637192023
 10
40.12244813373576
 20
3.937157075864206
 10
40.11079714070658
 20
4.226292330096626
 10
40.05130110596562
 20
4.549466557374444
 10
39.94899739884499
 20
4.837656058988841
 10
39.75118375165607
 20
5.176656323055099
 10
39.50192884026998
 20
5.480581789780885
 10
39.21953567261878
 20
5.65032629661232
 10
38.78668514989383
 20
5.758059406352245
 10
38.32883456849407
 20
5.779186382876574
 10
37.92373129062182
 20
5.710201075376517
 10
37.44178136732552
 20
5.558386000501983
 10
37.07683529196512
 20
5.364618934188442
 10
36.68207696779172
 20
5.131685453820197
 10
36.33534382868672
 20
4.847445816771156
 10
35.98838551038739
 20
4.584790159267413
 10
35.72362645771588
 20
4.305722999068166
 10
35.43768874804977
 20
3.987579496492117
 10
35.14343269743858
 20
3.639128350873762
 10
34.94320040420982
 20
3.382320707804652
 10
34.71666201297461
 20
3.164094012883211
 10
34.43126473337654
 20
2.794148959397262
 10
34.17954614011086
 20
2.506583314896488
 10
34.02270698516759
 20
2.228642050671397
 10
33.67598049069443
 20
1.529944970508268
 10
33.57058259994866
 20
1.287078503623661
 10
33.35074790408902
 20
0.8401066613589592
 10
33.18154382732473
 20
0.5059119427976526
 10
32.96202438233757
 20
0.0287225291692721
 10
32.80563558578362
 20
-0.2923866941478082
 10
32.61156655786178
 20
-0.7261379336512164
 10
32.45589833473167
 20
-1.116315891513963
 10
32.30396144160409
 20
-1.450330466718697
 10
31.99810607843457
 20
-1.928420597127555
 10
31.76869203813791
 20
-2.284829796978542
 10
31.59881242378967
 20
-2.554272576902576
 10
31.36903809678137
 20
-2.876147409481504
 10
31.04442936728896
 20
-3.21196341824475
 10
30.78394207468818
 20
-3.486668746696751
 10
30.39903330998521
 20
-3.8360656449331
 10
29.99195509982991
 20
-4.129569375546211
 10
29.61477921016646
 20
-4.392540283922472
 10
29.29264080718553
 20
-4.551322624573231
 10
28.93097570343861
 20
-4.645758349138077
 10
28.46997925794196
 20
-4.736913102090057
 10
28.07274396262591
 20
-4.732422807456715
 10
27.60967586853732
 20
-4.625004948589762
 10
27.24539868612962
 20
-4.469066510426046
 10
26.82778873428788
 20
-4.166897441419906
 10
26.45231091724096
 20
-3.764991708114621
 10
26.28080336805738
 20
-3.464572392196033
 10
26.15309427971053
 20
-3.224137860615883
 10
26.06162427588626
 20
-2.73292384375624
 10
26.04615188117643
 20
-2.491318380362586
 10
26.09102455751668
 20
-2.240448823405117
 10
26.18302170214471
 20
-1.954549504946499
 10
26.34386240212459
 20
-1.646345633518436
 10
26.61208256976462
 20
-1.285214315207213
 10
26.92976906931858
 20
-1.113526622667209
 10
27.12739592851969
 20
-1.020802259983398
 10
27.48838549468243
 20
-0.8616145967819051
 10
27.78565894650453
 20
-0.8023887770748246
 10
28.09655832363953
 20
-0.8077797884868829
 10
28.39518285063031
 20
-0.8780578460527977
 10
28.58651798163987
 20
-1.00989694232112
 10
28.83532253463676
 20
-1.270654449955373
 10
28.95089188035692
 20
-1.588926415416836
 10
28.88673205225882
 20
-2.060177742933988
 10
28.82944941825937
 20
-2.362983958317486
 10
28.68124385513391
 20
-2.640835150864405
 10
28.51392463897531
 20
-2.741877854493865
 10
28.33662075582879
 20
-2.713506752528247
 10
28.15913672932646
 20
-2.667868466925711
 10
28.07621689027383
 20
-2.582388229684042
 10
28.00134517713283
 20
-2.440699573945722
 10
27.97845515825722
 20
-2.315737671776333
 10
28.03722397494261
 20
-2.155385721392804
 10
28.14078204092263
 20
-2.149988065348467
 10
28.31151733621135
 20
-1.962564407698437
 10
28.32271132621892
 20
-1.794074259725676
 10
28.17741980336288
 20
-1.523602300137327
 10
27.96040907609375
 20
-1.413617398448878
 10
27.64982494983269
 20
-1.438443958400725
 10
27.31941324174568
 20
-1.631850738002186
 10
27.08819776789028
 20
-1.815588101488856
 10
26.88355860707358
 20
-2.063807188579403
 10
26.74048048495933
 20
-2.419315671651916
 10
26.69587802365368
 20
-2.696086004063758
 10
26.75505880752161
 20
-2.989042659977031
 10
26.89576331943454
 20
-3.233658879949644
 10
27.12788615470183
 20
-3.55071487775831
 10
27.43321437706706
 20
-3.849738082669106
 10
27.78953350524102
 20
-4.0705185311474
 10
28.30795433688533
 20
-4.103965393652985
 10
28.71773469737897
 20
-4.069469417587015
 10
29.22581057532463
 20
-3.938968107224355
 10
29.56921770697772
 20
-3.749743016014691
 10
29.86356382926667
 20
-3.409925462214687
 10
30.02921671938452
 20
-3.149161309948127
 10
30.15974977632209
 20
-2.832639097574642
 10
30.20268591158649
 20
-2.396147316525898
 10
30.18276161345051
 20
-2.141636501243511
 10
30.13859622127026
 20
-1.632659906518711
 10
30.04321474408653
 20
-1.180342088679936
 10
29.88681265826924
 20
-0.6725364257681576
 10
29.72941978399444
 20
-0.0697612528561109
 10
29.46230557843361
 20
0.7045598604461247
 10
29.32070034974066
 20
1.035511998600896
 10
29.12711342678332
 20
1.383190890324386
 10
28.92376701603322
 20
1.838699608098509
 10
28.68458968196998
 20
2.304832951565231
  0
LWPOLYLINE
  5
363
330
360
100
AcDbEntity
  8
AOC_PAGE
 62
   150
100
AcDbPolyline
 90
       52
 70
     0
 43
0.0
 10
36.87940186538412
 20
4.425712501639964
 10
36.46054419931554
 20
4.019836969873054
 10
36.20432866678468
 20
3.749493473169878
 10
35.97770020387196
 20
3.539900370067016
 10
35.78574121574951
 20
3.317717165948579
 10
35.58492345661372
 20
3.117027869697495
 10
35.30312239950104
 20
2.816196586596774
 10
34.94910674374631
 20
2.402363000596083
 10
34.74091639628335
 20
2.080713347212622
 10
34.52849932458952
 20
1.750385066171035
 10
34.33820666250875
 20
1.368480413415242
 10
34.13473843350513
 20
1.008024632688588
 10
33.84354481994359
 20
0.366031365250592
 10
33.64138263027095
 20
-0.1196114968406476
 10
33.42676544709951
 20
-0.6528742214500056
 10
33.25760640617497
 20
-0.9913857359192662
 10
32.98295940282628
 20
-1.564130125455677
 10
32.77148808375043
 20
-1.985111120587817
 10
32.52516714652936
 20
-2.376234831069041
 10
32.21485987993333
 20
-2.841419609588684
 10
31.77896020942282
 20
-3.269059264256384
 10
31.40439639841927
 20
-3.782404335362358
 10
30.92128218794252
 20
-4.236440159713311
 10
30.51487951537177
 20
-4.59469582896304
 10
30.03477606147337
 20
-4.923499536111422
 10
29.44657256649134
 20
-5.236161955597268
 10
28.76654542560527
 20
-5.43753343406479
 10
28.20077494647717
 20
-5.417532353515071
 10
27.59529762322697
 20
-5.315917473242962
 10
27.25287463539868
 20
-5.185654631338835
 10
26.78463406446096
 20
-4.996262686037198
 10
26.41522944104275
 20
-4.762666957348742
 10
26.00993937518248
 20
-4.399927638098234
 10
25.75232108701198
 20
-4.121993018504782
 10
25.55891430740982
 20
-3.791581310417769
 10
25.36748246009091
 20
-3.236651179217461
 10
25.31656833669737
 20
-2.494612641239442
 10
25.37281514640037
 20
-2.092520119945902
 10
25.44763517907035
 20
-1.815434536661328
 10
25.59916674964776
 20
-1.442568798274365
 10
25.78559297420904
 20
-1.103877140449185
 10
26.05457875111091
 20
-0.8161313525922651
 10
26.37181489227552
 20
-0.6012757009621055
 10
26.70182127781183
 20
-0.3690177581779608
 10
27.03709021187586
 20
-0.227367493646625
 10
27.44093248625742
 20
-0.0375119006919107
 10
27.79891129584098
 20
-0.0035563546930462
 10
28.09722057195992
 20
-0.0436168408959787
 10
28.41369774849406
 20
-0.1698331019244819
 10
28.72608330831437
 20
-0.3176783783374049
 10
28.98226044963803
 20
-0.4574755288388275
 10
29.41929930538663
 20
-0.9666706581265316
  0
LWPOLYLINE
  5
364
330
360
100
AcDbEntity
  8
AOC_PAGE
100
AcDbPolyline
 90
        2
 70
     0
 43
0.0
 10
0.0
 20
0.0
 10
20.65349481491353
 20
0.0
  0
TEXT
  5
365
330
360
100
AcDbEntity
  8
AOC_PAGE
 62
     7
100
AcDbText
 10
10.77030453271396
 20
-2.792763825342405
 30
0.0
 40
1.725342001593539
  1
GROUP
  7
ROMANT
100
AcDbText
  0
LWPOLYLINE
  5
366
330
360
100
AcDbEntity
  8
AOC_PAGE
 62
   150
100
AcDbPolyline
 90
       76
 70
     0
 43
0.0
 10
27.83949449309256
 20
9.762522174410634
 10
27.81166382119409
 20
9.533416740354596
 10
27.89098743776094
 20
9.378822732727926
 10
28.04810345236999
 20
9.216405778384143
 10
28.20488651361188
 20
9.141342406696566
 10
28.38526389167052
 20
9.176750614732782
 10
28.55577400776491
 20
9.385758251929019
 10
28.76778575690761
 20
9.754937696152425
 10
28.78882266175424
 20
10.22142186937117
 10
28.64177474117878
 20
10.66024886941453
 10
28.31926940685386
 20
10.9504583391506
 10
27.94563805920455
 20
11.17537544018229
 10
27.48288521598917
 20
11.25257572768578
 10
27.07418571563036
 20
11.11447664980075
 10
26.63639453988361
 20
10.8681424233157
 10
26.26412091203517
 20
10.54909820396006
 10
25.99113359009672
 20
10.23108980890015
 10
25.82588602253009
 20
9.931474493452015
 10
25.78609575136167
 20
9.607264441878456
 10
25.84694286127225
 20
9.154586337327814
 10
25.94560531006778
 20
8.801599861237719
 10
26.07012349847986
 20
8.453200396090779
 10
26.37239592842772
 20
8.033261869886019
 10
26.81208525404367
 20
7.683833225075233
 10
27.28113647008351
 20
7.416738953409308
 10
27.75823581203437
 20
7.205853100240574
 10
28.60648953049187
 20
7.007473921040628
 10
29.04783853751786
 20
6.912781270705864
 10
29.64472730478928
 20
6.806759522847173
 10
30.22853057681527
 20
6.713553055197949
 10
30.77707890814571
 20
6.689055035383262
 10
31.39393036475957
 20
6.73866311944721
 10
32.70232484777193
 20
6.71345781547349
 10
33.42691605875822
 20
6.781458979147587
 10
33.95320487295811
 20
6.821487718774989
 10
34.72105411471327
 20
6.881305649020774
 10
35.55370033094385
 20
6.937482320942294
 10
36.43050529472197
 20
6.899139841252918
 10
37.40709195863994
 20
6.814348430859155
 10
38.06891280790293
 20
6.691735036948089
 10
38.84805275597569
 20
6.49695208023445
 10
39.29452920401218
 20
6.324602139374534
 10
39.73376817123832
 20
6.018341453654784
 10
40.00375138123059
 20
5.796660288396424
 10
40.21320937681656
 20
5.582982213211366
 10
40.36668413310053
 20
5.355768284392298
 10
40.52479093616694
 20
5.098381820048644
 10
40.67903130171382
 20
4.797782360774363
 10
40.78542662554878
 20
4.531221874544585
 10
40.82464472007473
 20
4.082635386708262
 10
40.77874286407064
 20
3.516594692546278
 10
40.66556706244683
 20
3.191619031710403
 10
40.34163387053923
 20
2.791051084309871
 10
39.93918770716618
 20
2.46737481817263
 10
39.52253015257497
 20
2.264433729973248
 10
39.24270402774431
 20
2.188120869985141
 10
38.81664727207294
 20
2.058475240563212
 10
38.30245316465903
 20
2.100600730725773
 10
37.87715537361757
 20
2.312027013962521
 10
37.57209736628579
 20
2.585149443418018
 10
37.33552262759258
 20
2.915110793115218
 10
37.211274654215
 20
3.237609482808239
 10
37.17862514754637
 20
3.470401211027593
 10
37.28748415326092
 20
3.795331836024616
 10
37.45313704337781
 20
4.056095988291204
 10
37.70984797013736
 20
4.278954729993998
 10
38.01489933283798
 20
4.42028974365256
 10
38.44154155441626
 20
4.493817026256465
 10
38.61484389252675
 20
4.435183317087194
 10
38.73638971556602
 20
4.371692381942012
 10
38.83216987066811
 20
4.294980844035763
 10
38.90258968038324
 20
4.166197540185308
 10
38.95614762901297
 20
3.998382929797344
 10
38.87997652117292
 20
3.850801223785993
 10
38.69952677393096
 20
3.766890596275985
 10
38.60464733560843
 20
3.757266216000758
  0
LWPOLYLINE
  5
367
330
360
100
AcDbEntity
  8
AOC_PAGE
 62
   150
100
AcDbPolyline
 90
       40
 70
     0
 43
0.0
 10
31.45445705575023
 20
3.833774723485703
 10
31.49667926222264
 20
3.924877795966722
 10
31.56462210079508
 20
4.033518267118097
 10
31.67600311349088
 20
4.116708321204669
 10
31.79705354230188
 20
4.100702141059173
 10
31.93159478890786
 20
4.033029517521769
 10
32.07526502156108
 20
3.917962210661486
 10
32.21596953347398
 20
3.673345990689327
 10
32.24452742342802
 20
3.418925247084871
 10
32.18647918016583
 20
3.189504562156131
 10
32.04596145624072
 20
3.002396155378847
 10
31.81515130493608
 20
2.77980762870925
 10
31.55785491226993
 20
2.613067233824694
 10
31.29979291034098
 20
2.519712369394924
 10
31.01942635544398
 20
2.495201060316276
 10
30.60397812387234
 20
2.590163925685147
 10
30.26865750933777
 20
2.86728790017672
 10
29.96157288925198
 20
3.334666145542528
 10
29.82468977901928
 20
3.626812156354148
 10
29.70327241886432
 20
4.091810146886701
 10
29.68685427153628
 20
4.424068324371319
 10
29.76050337239323
 20
4.813390601293335
 10
30.03650145091112
 20
5.256631113555855
 10
30.40472849788398
 20
5.549729521618033
 10
30.86419372485463
 20
5.787655335479926
 10
31.52627814451986
 20
6.053598609228388
 10
32.11448828413376
 20
5.951803585599677
 10
32.54706859182531
 20
5.869971251314624
 10
32.91080534416432
 20
5.765834364060538
 10
33.34482679870302
 20
5.54586456068364
 10
33.71567256896807
 20
5.17413136290314
 10
33.86132437853527
 20
4.869125036041623
 10
33.99002425533916
 20
4.533720994461191
 10
34.05878438364493
 20
4.150201696134232
 10
34.14634291411127
 20
3.620091480253677
 10
34.15880455224169
 20
3.253253899657025
 10
34.12270057523637
 20
2.989524026650088
 10
34.12531265389768
 20
2.739149863921284
 10
34.09081280073633
 20
2.505291855928803
 10
34.02270698516759
 20
2.228642050671397
  0
LWPOLYLINE
  5
368
330
360
100
AcDbEntity
  8
AOC_PAGE
 62
   150
100
AcDbPolyline
 90
       40
 70
     0
 43
0.0
 10
31.43359364962811
 20
3.764480809745692
 10
31.22220575759863
 20
3.74932366590815
 10
31.11356528644657
 20
3.817266504479903
 10
31.02619354396842
 20
3.915652093610333
 10
30.98581116226111
 20
4.062017831969342
 10
30.98859673964577
 20
4.208833928718377
 10
31.10726026899167
 20
4.421617931756145
 10
31.35214670399768
 20
4.536421668214189
 10
31.68372934389771
 20
4.617591754179102
 10
31.98563484250207
 20
4.646645038361129
 10
32.35368839075088
 20
4.542553186946165
 10
32.65856625472742
 20
4.2866979411274
 10
32.83065926981811
 20
3.930160278390062
 10
32.85607129567501
 20
3.563457805310463
 10
32.74878854432467
 20
3.087439323494664
 10
32.60890132214575
 20
2.839895773988914
 10
32.43088351020737
 20
2.522878167386821
 10
32.15263363974142
 20
2.295477450579938
 10
31.76232721899461
 20
2.049638618323343
 10
31.38416054087267
 20
1.881637219947379
 10
31.08643673066078
 20
1.865579359331377
 10
30.58865412594398
 20
1.989904115123181
 10
30.31116322010797
 20
2.103575310975216
 10
29.93326011238833
 20
2.324130580258739
 10
29.56327002306418
 20
2.613844655766343
 10
29.36541134003619
 20
2.957161715742131
 10
29.20204198844269
 20
3.305155858338594
 10
29.04091778416452
 20
3.851767648593281
 10
28.96757064491746
 20
4.261142686535763
 10
28.96760903612403
 20
4.671283333740348
 10
29.07619782680396
 20
5.022114734191518
 10
29.28875000601531
 20
5.339492627505479
 10
29.50953045449407
 20
5.695811755679415
 10
29.86017506695768
 20
6.018947591749352
 10
30.27233568228439
 20
6.239110827746131
 10
30.58152369753768
 20
6.397758060880079
 10
30.90388727971342
 20
6.534956421985953
 10
31.20511724073253
 20
6.628761644805067
 10
31.44186547814977
 20
6.695990554584796
 10
31.64741899855761
 20
6.733779838333461
  0
LWPOLYLINE
  5
369
330
360
100
AcDbEntity
  8
AOC_PAGE
 62
   150
100
AcDbPolyline
 90
       37
 70
     0
 43
0.0
 10
31.42932188955749
 20
3.760118977997081
 10
31.49915623336594
 20
3.687454020966015
 10
31.53531189084217
 20
3.532409654949575
 10
31.51139269230151
 20
3.34220041991378
 10
31.43063457351968
 20
3.220474453518605
 10
31.25877338225672
 20
3.140970693596046
 10
31.03411985162731
 20
3.155896013606039
 10
30.76539764512626
 20
3.25670689340815
 10
30.54744116523918
 20
3.457344509188488
 10
30.39329087137045
 20
3.749310376644431
 10
30.33901234931767
 20
3.98619372157782
 10
30.31131014030458
 20
4.158595342908711
 10
30.33014693367247
 20
4.422145072559729
 10
30.46544714490958
 20
4.695544361680945
 10
30.71289397810457
 20
4.978748174433562
 10
31.07325304252183
 20
5.198370980362384
 10
31.45654716165376
 20
5.288715088213621
 10
31.87496111396507
 20
5.323301135957095
 10
32.32485364113126
 20
5.237332149118842
 10
32.74120258948182
 20
5.056033365568069
 10
33.16389494649522
 20
4.680523801945824
 10
33.45393756213977
 20
4.191381433678785
 10
33.53871051522171
 20
3.514455121048741
 10
33.40256126767713
 20
2.908617511086959
 10
33.15295935884316
 20
2.418162458857765
 10
32.87160866012022
 20
2.074163216665525
 10
32.53418465041767
 20
1.725261712658025
 10
32.08834534875857
 20
1.422719067675857
 10
31.73131229179256
 20
1.298110807586468
 10
31.36506017710303
 20
1.229530822637358
 10
31.02421344363842
 20
1.208705807722481
 10
30.60076212199482
 20
1.243143458685381
 10
30.07617802504294
 20
1.453533917625933
 10
29.62034741176467
 20
1.694862521352889
 10
29.27666342044583
 20
1.94599564871281
 10
28.97196569982498
 20
2.184583710894913
 10
28.79717051329473
 20
2.343530146317107
  0
TEXT
  5
36A
330
360
100
AcDbEntity
  8
AOC_PAGE
 62
   150
100
AcDbText
 10
0.6030457213456089
 20
1.463404457900822
 30
0.0
 40
1.725342001593539
  1
ARCHAEOLOGY
  7
ROMANT
100
AcDbText
  0
TEXT
  5
36B
330
360
100
AcDbEntity
  8
AOC_PAGE
 62
     7
100
AcDbText
 10
0.4235025131220596
 20
5.156338672515588
 30
0.0
 40
6.7660470650727
  1
AOC
  7
ROMANT
100
AcDbText
  0
LWPOLYLINE
  5
36C
330
360
100
AcDbEntity
  8
AOC_PAGE
100
AcDbPolyline
 90
        2
 70
     0
 43
0.0
 10
0.0399039682049533
 20
4.451517299077054
 10
20.71871409266646
 20
4.451517299077054
  0
LWPOLYLINE
  5
36D
330
360
100
AcDbEntity
  8
AOC_PAGE
 62
   150
100
AcDbPolyline
 90
        3
 70
     0
 43
0.0
 10
28.68458968196998
 20
2.304832951565231
 10
28.60206568217856
 20
2.465664194584178
 10
28.50178048393673
 20
2.72600199710746
  0
ENDBLK
  5
36F
330
360
100
AcDbEntity
  8
0
100
AcDbBlockEnd
  0
ENDSEC
  0
SECTION
  2
ENTITIES
  0
IMAGE
  5
44
330
1F
100
AcDbEntity
  8
0
160
               140
310
8C000000010000008400000006000000050000006DA9FDEFBBE31B41DCC7D6AF505EF940000000000000000045242778C5331C41DCC7D6AF505EF940000000000000000045242778C5331C41783D8153CF63FA4000000000000000006DA9FDEFBBE31B41783D8153CF63FA4000000000000000006DA9FDEFBBE31B41DCC7D6
310
AF505EF9400000000000000000
100
AcDbRasterImage
 90
        0
 10
456942.9843660805
 20
103909.0429294402
 30
0.0
 11
2.118437953156779
 21
0.0
 31
0.0
 12
1.297126288807132E-16
 22
2.11843795315678
 32
0.0
 13
2418.0
 23
1975.0
340
42
 70
     7
280
     0
281
    50
282
    50
283
     0
360
43
 71
     1
 91
        2
 14
-0.5
 24
-0.5
 14
2417.5
 24
1974.5
290
     0
  0
MTEXT
  5
140
330
1F
100
AcDbEntity
  8
BA
 62
     0
100
AcDbMText
 10
462726.4872857278
 20
103891.5362575576
 30
0.0
 40
35.96076
 41
46.53821237953822
 46
0.0
 71
     1
 72
     5
  1
{\fTimes New Roman|b0|i0|c0|p18;73}
 73
     1
 44
1.0
  0
CIRCLE
  5
141
330
1F
100
AcDbEntity
  8
BA
 62
     0
100
AcDbCircle
 10
462749.6239658525
 20
103873.7342602691
 30
0.0
 40
35.96076
  0
HATCH
  5
142
330
1F
100
AcDbEntity
  8
BA
100
AcDbHatch
 10
0.0
 20
0.0
 30
0.0
210
0.0
220
0.0
230
1.0
  2
SOLID
 70
     1
 71
     0
 91
        1
 92
        7
 72
     1
 73
     1
 93
        2
 10
462713.6632058526
 20
103873.7342602691
 42
1.0
 10
462785.5847258526
 20
103873.7342602691
 42
1.0
 97
        0
 75
     0
 76
     1
 47
0.1793474802258628
 98
        1
 10
462735.154016609
 20
103877.2368289106
  0
MTEXT
  5
143
330
1F
100
AcDbEntity
  8
BA
 62
     0
100
AcDbMText
 10
462726.4872857278
 20
103976.656410331
 30
0.0
 40
35.96076
 41
46.53821237953822
 46
0.0
 71
     1
 72
     5
  1
{\fTimes New Roman|b0|i0|c0|p18;63}
 73
     1
 44
1.0
  0
CIRCLE
  5
144
330
1F
100
AcDbEntity
  8
BA
 62
     0
100
AcDbCircle
 10
462749.6239658525
 20
103958.8544130425
 30
0.0
 40
35.96076
  0
HATCH
  5
145
330
1F
100
AcDbEntity
  8
BA
100
AcDbHatch
 10
0.0
 20
0.0
 30
0.0
210
0.0
220
0.0
230
1.0
  2
SOLID
 70
     1
 71
     0
 91
        1
 92
        7
 72
     1
 73
     1
 93
        2
 10
462713.6632058526
 20
103958.8544130425
 42
1.0
 10
462785.5847258526
 20
103958.8544130425
 42
1.0
 97
        0
 75
     0
 76
     1
 47
0.1793474802258628
 98
        1
 10
462735.154016609
 20
103962.356981684
  0
MTEXT
  5
146
330
1F
100
AcDbEntity
  8
BA
 62
     0
100
AcDbMText
 10
462726.4872857278
 20
104065.7356711981
 30
0.0
 40
35.96076
 41
46.53821237953822
 46
0.0
 71
     1
 72
     5
  1
{\fTimes New Roman|b0|i0|c0|p18;53}
 73
     1
 44
1.0
  0
CIRCLE
  5
147
330
1F
100
AcDbEntity
  8
BA
 62
     0
100
AcDbCircle
 10
462749.6239658525
 20
104047.9336739097
 30
0.0
 40
35.96076
  0
HATCH
  5
148
330
1F
100
AcDbEntity
  8
BA
100
AcDbHatch
 10
0.0
 20
0.0
 30
0.0
210
0.0
220
0.0
230
1.0
  2
SOLID
 70
     1
 71
     0
 91
        1
 92
        7
 72
     1
 73
     1
 93
        2
 10
462713.6632058526
 20
104047.9336739097
 42
1.0
 10
462785.5847258526
 20
104047.9336739097
 42
1.0
 97
        0
 75
     0
 76
     1
 47
0.1793474802258628
 98
        1
 10
462735.154016609
 20
104051.4362425511
  0
MTEXT
  5
149
330
1F
100
AcDbEntity
  8
BA
 62
     0
100
AcDbMText
 10
462726.4872857278
 20
104154.8149028808
 30
0.0
 40
35.96076
 41
46.53821237953822
 46
0.0
 71
     1
 72
     5
  1
{\fTimes New Roman|b0|i0|c0|p18;43}
 73
     1
 44
1.0
  0
CIRCLE
  5
14A
330
1F
100
AcDbEntity
  8
BA
 62
     0
100
AcDbCircle
 10
462749.6239658525
 20
104137.0129055924
 30
0.0
 40
35.96076
  0
HATCH
  5
14B
330
1F
100
AcDbEntity
  8
BA
100
AcDbHatch
 10
0.0
 20
0.0
 30
0.0
210
0.0
220
0.0
230
1.0
  2
SOLID
 70
     1
 71
     0
 91
        1
 92
        7
 72
     1
 73
     1
 93
        2
 10
462713.6632058526
 20
104137.0129055924
 42
1.0
 10
462785.5847258526
 20
104137.0129055924
 42
1.0
 97
        0
 75
     0
 76
     1
 47
0.1793474802258628
 98
        1
 10
462735.154016609
 20
104140.5154742338
  0
MTEXT
  5
14C
330
1F
100
AcDbEntity
  8
BA
 62
     0
100
AcDbMText
 10
462726.4872857278
 20
104245.8736886104
 30
0.0
 40
35.96076
 41
46.53821237953822
 46
0.0
 71
     1
 72
     5
  1
{\fTimes New Roman|b0|i0|c0|p18;33}
 73
     1
 44
1.0
  0
CIRCLE
  5
14D
330
1F
100
AcDbEntity
  8
BA
 62
     0
100
AcDbCircle
 10
462749.6239658525
 20
104228.0716913219
 30
0.0
 40
35.96076
  0
HATCH
  5
14E
330
1F
100
AcDbEntity
  8
BA
100
AcDbHatch
 10
0.0
 20
0.0
 30
0.0
210
0.0
220
0.0
230
1.0
  2
SOLID
 70
     1
 71
     0
 91
        1
 92
        7
 72
     1
 73
     1
 93
        2
 10
462713.6632058526
 20
104228.0716913219
 42
1.0
 10
462785.5847258526
 20
104228.0716913219
 42
1.0
 97
        0
 75
     0
 76
     1
 47
0.1793474802258628
 98
        1
 10
462735.154016609
 20
104231.5742599634
  0
CIRCLE
  5
150
330
1F
100
AcDbEntity
  8
BA
 62
     0
100
AcDbCircle
 10
462749.6239658525
 20
104331.007684595
 30
0.0
 40
35.96076
  0
HATCH
  5
151
330
1F
100
AcDbEntity
  8
BA
100
AcDbHatch
 10
0.0
 20
0.0
 30
0.0
210
0.0
220
0.0
230
1.0
  2
SOLID
 70
     1
 71
     0
 91
        1
 92
        7
 72
     1
 73
     1
 93
        2
 10
462713.6632058526
 20
104331.007684595
 42
1.0
 10
462785.5847258526
 20
104331.007684595
 42
1.0
 97
        0
 75
     0
 76
     1
 47
0.1793474802258628
 98
        1
 10
462735.154016609
 20
104334.5102532364
  0
CIRCLE
  5
153
330
1F
100
AcDbEntity
  8
BA
 62
     0
100
AcDbCircle
 10
458869.3521314838
 20
106248.0906819465
 30
0.0
 40
35.96076
  0
HATCH
  5
154
330
1F
100
AcDbEntity
  8
BA
100
AcDbHatch
 10
0.0
 20
0.0
 30
0.0
210
0.0
220
0.0
230
1.0
  2
SOLID
 70
     1
 71
     0
 91
        1
 92
        7
 72
     1
 73
     1
 93
        2
 10
458833.3913714839
 20
106248.0906819465
 42
1.0
 10
458905.3128914839
 20
106248.0906819465
 42
1.0
 97
        0
 75
     0
 76
     1
 47
0.1793474802258628
 98
        1
 10
458854.8821822403
 20
106251.593250588
  0
CIRCLE
  5
156
330
1F
100
AcDbEntity
  8
Iron Age
 62
     0
100
AcDbCircle
 10
458800.0
 20
106200.0
 30
0.0
 40
35.96076
  0
HATCH
  5
157
330
1F
100
AcDbEntity
  8
Iron Age
100
AcDbHatch
 10
0.0
 20
0.0
 30
0.0
210
0.0
220
0.0
230
1.0
  2
SOLID
 70
     1
 71
     0
 91
        1
 92
        7
 72
     1
 73
     1
 93
        2
 10
458764.0392400001
 20
106200.0
 42
1.0
 10
458835.96076
 20
106200.0
 42
1.0
 97
        0
 75
     0
 76
     1
 47
0.1793474802258628
 98
        1
 10
458785.5300507564
 20
106203.5025686414
  0
MTEXT
  5
158
330
1F
100
AcDbEntity
  8
BA
 62
     0
100
AcDbMText
 10
462625.5073394169
 20
103891.5362575576
 30
0.0
 40
35.96076
 41
46.53821237953822
 46
0.0
 71
     1
 72
     5
  1
{\fTimes New Roman|b0|i0|c0|p18;72}
 73
     1
 44
1.0
  0
CIRCLE
  5
159
330
1F
100
AcDbEntity
  8
BA
 62
     0
100
AcDbCircle
 10
462648.6440195418
 20
103873.7342602691
 30
0.0
 40
35.96076
  0
HATCH
  5
15A
330
1F
100
AcDbEntity
  8
BA
100
AcDbHatch
 10
0.0
 20
0.0
 30
0.0
210
0.0
220
0.0
230
1.0
  2
SOLID
 70
     1
 71
     0
 91
        1
 92
        7
 72
     1
 73
     1
 93
        2
 10
462612.6832595418
 20
103873.7342602691
 42
1.0
 10
462684.6047795417
 20
103873.7342602691
 42
1.0
 97
        0
 75
     0
 76
     1
 47
0.1793474802258628
 98
        1
 10
462634.1740702981
 20
103877.2368289106
  0
MTEXT
  5
15B
330
1F
100
AcDbEntity
  8
BA
 62
     0
100
AcDbMText
 10
462536.4073847272
 20
103891.5362575576
 30
0.0
 40
35.96076
 41
46.53821237953822
 46
0.0
 71
     1
 72
     5
  1
{\fTimes New Roman|b0|i0|c0|p18;71}
 73
     1
 44
1.0
  0
CIRCLE
  5
15C
330
1F
100
AcDbEntity
  8
BA
 62
     0
100
AcDbCircle
 10
462559.5440648521
 20
103873.7342602691
 30
0.0
 40
35.96076
  0
HATCH
  5
15D
330
1F
100
AcDbEntity
  8
BA
100
AcDbHatch
 10
0.0
 20
0.0
 30
0.0
210
0.0
220
0.0
230
1.0
  2
SOLID
 70
     1
 71
     0
 91
        1
 92
        7
 72
     1
 73
     1
 93
        2
 10
462523.5833048521
 20
103873.7342602691
 42
1.0
 10
462595.5048248521
 20
103873.7342602691
 42
1.0
 97
        0
 75
     0
 76
     1
 47
0.1793474802258628
 98
        1
 10
462545.0741156086
 20
103877.2368289106
  0
CIRCLE
  5
15E
330
1F
100
AcDbEntity
  8
BA
 62
     0
100
AcDbCircle
 10
462559.5440648521
 20
104047.9336739097
 30
0.0
 40
35.96076
  0
HATCH
  5
15F
330
1F
100
AcDbEntity
  8
BA
100
AcDbHatch
 10
0.0
 20
0.0
 30
0.0
210
0.0
220
0.0
230
1.0
  2
SOLID
 70
     1
 71
     0
 91
        1
 92
        7
 72
     1
 73
     1
 93
        2
 10
462523.5833048521
 20
104047.9336739097
 42
1.0
 10
462595.5048248521
 20
104047.9336739097
 42
1.0
 97
        0
 75
     0
 76
     1
 47
0.1793474802258628
 98
        1
 10
462545.0741156086
 20
104051.4362425511
  0
CIRCLE
  5
160
330
1F
100
AcDbEntity
  8
BA
 62
     0
100
AcDbCircle
 10
462559.5440648521
 20
103958.8544130425
 30
0.0
 40
35.96076
  0
HATCH
  5
161
330
1F
100
AcDbEntity
  8
BA
100
AcDbHatch
 10
0.0
 20
0.0
 30
0.0
210
0.0
220
0.0
230
1.0
  2
SOLID
 70
     1
 71
     0
 91
        1
 92
        7
 72
     1
 73
     1
 93
        2
 10
462523.5833048521
 20
103958.8544130425
 42
1.0
 10
462595.5048248521
 20
103958.8544130425
 42
1.0
 97
        0
 75
     0
 76
     1
 47
0.1793474802258628
 98
        1
 10
462545.0741156086
 20
103962.356981684
  0
MTEXT
  5
162
330
1F
100
AcDbEntity
  8
BA
 62
     0
100
AcDbMText
 10
462536.4073847272
 20
103976.656410331
 30
0.0
 40
35.96076
 41
46.53821237953822
 46
0.0
 71
     1
 72
     5
  1
{\fTimes New Roman|b0|i0|c0|p18;61}
 73
     1
 44
1.0
  0
CIRCLE
  5
163
330
1F
100
AcDbEntity
  8
BA
 62
     0
100
AcDbCircle
 10
462559.5440648521
 20
104137.0129055924
 30
0.0
 40
35.96076
  0
HATCH
  5
164
330
1F
100
AcDbEntity
  8
BA
100
AcDbHatch
 10
0.0
 20
0.0
 30
0.0
210
0.0
220
0.0
230
1.0
  2
SOLID
 70
     1
 71
     0
 91
        1
 92
        7
 72
     1
 73
     1
 93
        2
 10
462523.5833048521
 20
104137.0129055924
 42
1.0
 10
462595.5048248521
 20
104137.0129055924
 42
1.0
 97
        0
 75
     0
 76
     1
 47
0.1793474802258628
 98
        1
 10
462545.0741156086
 20
104140.5154742338
  0
MTEXT
  5
165
330
1F
100
AcDbEntity
  8
BA
 62
     0
100
AcDbMText
 10
462536.4073847272
 20
104065.7356711981
 30
0.0
 40
35.96076
 41
46.53821237953822
 46
0.0
 71
     1
 72
     5
  1
{\fTimes New Roman|b0|i0|c0|p18;51}
 73
     1
 44
1.0
  0
MTEXT
  5
166
330
1F
100
AcDbEntity
  8
BA
 62
     0
100
AcDbMText
 10
462536.4073847272
 20
104154.8149028808
 30
0.0
 40
35.96076
 41
46.53821237953822
 46
0.0
 71
     1
 72
     5
  1
{\fTimes New Roman|b0|i0|c0|p18;41}
 73
     1
 44
1.0
  0
CIRCLE
  5
167
330
1F
100
AcDbEntity
  8
BA
 62
     0
100
AcDbCircle
 10
462648.6440195418
 20
104047.9336739097
 30
0.0
 40
35.96076
  0
HATCH
  5
168
330
1F
100
AcDbEntity
  8
BA
100
AcDbHatch
 10
0.0
 20
0.0
 30
0.0
210
0.0
220
0.0
230
1.0
  2
SOLID
 70
     1
 71
     0
 91
        1
 92
        7
 72
     1
 73
     1
 93
        2
 10
462612.6832595418
 20
104047.9336739097
 42
1.0
 10
462684.6047795417
 20
104047.9336739097
 42
1.0
 97
        0
 75
     0
 76
     1
 47
0.1793474802258628
 98
        1
 10
462634.1740702981
 20
104051.4362425511
  0
MTEXT
  5
169
330
1F
100
AcDbEntity
  8
BA
 62
     0
100
AcDbMText
 10
462625.5073394169
 20
103976.656410331
 30
0.0
 40
35.96076
 41
46.53821237953822
 46
0.0
 71
     1
 72
     5
  1
{\fTimes New Roman|b0|i0|c0|p18;62}
 73
     1
 44
1.0
  0
CIRCLE
  5
16A
330
1F
100
AcDbEntity
  8
BA
 62
     0
100
AcDbCircle
 10
462648.6440195418
 20
103958.8544130425
 30
0.0
 40
35.96076
  0
HATCH
  5
16B
330
1F
100
AcDbEntity
  8
BA
100
AcDbHatch
 10
0.0
 20
0.0
 30
0.0
210
0.0
220
0.0
230
1.0
  2
SOLID
 70
     1
 71
     0
 91
        1
 92
        7
 72
     1
 73
     1
 93
        2
 10
462612.6832595418
 20
103958.8544130425
 42
1.0
 10
462684.6047795417
 20
103958.8544130425
 42
1.0
 97
        0
 75
     0
 76
     1
 47
0.1793474802258628
 98
        1
 10
462634.1740702981
 20
103962.356981684
  0
MTEXT
  5
16C
330
1F
100
AcDbEntity
  8
BA
 62
     0
100
AcDbMText
 10
462625.5073394169
 20
104065.7356711981
 30
0.0
 40
35.96076
 41
46.53821237953822
 46
0.0
 71
     1
 72
     5
  1
{\fTimes New Roman|b0|i0|c0|p18;52}
 73
     1
 44
1.0
  0
MTEXT
  5
16D
330
1F
100
AcDbEntity
  8
BA
 62
     0
100
AcDbMText
 10
462625.5073394169
 20
104154.8149028808
 30
0.0
 40
35.96076
 41
46.53821237953822
 46
0.0
 71
     1
 72
     5
  1
{\fTimes New Roman|b0|i0|c0|p18;42}
 73
     1
 44
1.0
  0
CIRCLE
  5
16E
330
1F
100
AcDbEntity
  8
BA
 62
     0
100
AcDbCircle
 10
462648.6440195418
 20
104137.0129055924
 30
0.0
 40
35.96076
  0
HATCH
  5
16F
330
1F
100
AcDbEntity
  8
BA
100
AcDbHatch
 10
0.0
 20
0.0
 30
0.0
210
0.0
220
0.0
230
1.0
  2
SOLID
 70
     1
 71
     0
 91
        1
 92
        7
 72
     1
 73
     1
 93
        2
 10
462612.6832595418
 20
104137.0129055924
 42
1.0
 10
462684.6047795417
 20
104137.0129055924
 42
1.0
 97
        0
 75
     0
 76
     1
 47
0.1793474802258628
 98
        1
 10
462634.1740702981
 20
104140.5154742338
  0
CIRCLE
  5
177
330
1F
100
AcDbEntity
  8
BA
 62
     0
100
AcDbCircle
 10
462559.5440648521
 20
104331.007684595
 30
0.0
 40
35.96076
  0
HATCH
  5
178
330
1F
100
AcDbEntity
  8
BA
100
AcDbHatch
 10
0.0
 20
0.0
 30
0.0
210
0.0
220
0.0
230
1.0
  2
SOLID
 70
     1
 71
     0
 91
        1
 92
        7
 72
     1
 73
     1
 93
        2
 10
462523.5833048521
 20
104331.007684595
 42
1.0
 10
462595.5048248521
 20
104331.007684595
 42
1.0
 97
        0
 75
     0
 76
     1
 47
0.1793474802258628
 98
        1
 10
462545.0741156086
 20
104334.5102532364
  0
CIRCLE
  5
179
330
1F
100
AcDbEntity
  8
BA
 62
     0
100
AcDbCircle
 10
462559.5440648521
 20
104228.0716913219
 30
0.0
 40
35.96076
  0
HATCH
  5
17A
330
1F
100
AcDbEntity
  8
BA
100
AcDbHatch
 10
0.0
 20
0.0
 30
0.0
210
0.0
220
0.0
230
1.0
  2
SOLID
 70
     1
 71
     0
 91
        1
 92
        7
 72
     1
 73
     1
 93
        2
 10
462523.5833048521
 20
104228.0716913219
 42
1.0
 10
462595.5048248521
 20
104228.0716913219
 42
1.0
 97
        0
 75
     0
 76
     1
 47
0.1793474802258628
 98
        1
 10
462545.0741156086
 20
104231.5742599634
  0
MTEXT
  5
17B
330
1F
100
AcDbEntity
  8
BA
 62
     0
100
AcDbMText
 10
462536.4073847272
 20
104245.8736886104
 30
0.0
 40
35.96076
 41
46.53821237953822
 46
0.0
 71
     1
 72
     5
  1
{\fTimes New Roman|b0|i0|c0|p18;31}
 73
     1
 44
1.0
  0
CIRCLE
  5
17C
330
1F
100
AcDbEntity
  8
Neo
 62
     0
100
AcDbCircle
 10
459570.0
 20
106940.0
 30
0.0
 40
35.96076
  0
HATCH
  5
17D
330
1F
100
AcDbEntity
  8
Neo
100
AcDbHatch
 10
0.0
 20
0.0
 30
0.0
210
0.0
220
0.0
230
1.0
  2
SOLID
 70
     1
 71
     0
 91
        1
 92
        7
 72
     1
 73
     1
 93
        2
 10
459534.0392400001
 20
106940.0
 42
1.0
 10
459605.96076
 20
106940.0
 42
1.0
 97
        0
 75
     0
 76
     1
 47
0.1793474802258628
 98
        1
 10
459555.5300507565
 20
106943.5025686414
  0
CIRCLE
  5
180
330
1F
100
AcDbEntity
  8
BA
 62
     0
100
AcDbCircle
 10
462648.6440195418
 20
104331.007684595
 30
0.0
 40
35.96076
  0
HATCH
  5
181
330
1F
100
AcDbEntity
  8
BA
100
AcDbHatch
 10
0.0
 20
0.0
 30
0.0
210
0.0
220
0.0
230
1.0
  2
SOLID
 70
     1
 71
     0
 91
        1
 92
        7
 72
     1
 73
     1
 93
        2
 10
462612.6832595418
 20
104331.007684595
 42
1.0
 10
462684.6047795417
 20
104331.007684595
 42
1.0
 97
        0
 75
     0
 76
     1
 47
0.1793474802258628
 98
        1
 10
462634.1740702981
 20
104334.5102532364
  0
MTEXT
  5
182
330
1F
100
AcDbEntity
  8
BA
 62
     0
100
AcDbMText
 10
462625.5073394169
 20
104245.8736886104
 30
0.0
 40
35.96076
 41
46.53821237953822
 46
0.0
 71
     1
 72
     5
  1
{\fTimes New Roman|b0|i0|c0|p18;32}
 73
     1
 44
1.0
  0
CIRCLE
  5
183
330
1F
100
AcDbEntity
  8
BA
 62
     0
100
AcDbCircle
 10
462648.6440195418
 20
104228.0716913219
 30
0.0
 40
35.96076
  0
HATCH
  5
184
330
1F
100
AcDbEntity
  8
BA
100
AcDbHatch
 10
0.0
 20
0.0
 30
0.0
210
0.0
220
0.0
230
1.0
  2
SOLID
 70
     1
 71
     0
 91
        1
 92
        7
 72
     1
 73
     1
 93
        2
 10
462612.6832595418
 20
104228.0716913219
 42
1.0
 10
462684.6047795417
 20
104228.0716913219
 42
1.0
 97
        0
 75
     0
 76
     1
 47
0.1793474802258628
 98
        1
 10
462634.1740702981
 20
104231.5742599634
  0
CIRCLE
  5
186
330
1F
100
AcDbEntity
  8
Neo
 62
     0
100
AcDbCircle
 10
459600.0
 20
105500.0
 30
0.0
 40
35.96076
  0
HATCH
  5
187
330
1F
100
AcDbEntity
  8
Neo
100
AcDbHatch
 10
0.0
 20
0.0
 30
0.0
210
0.0
220
0.0
230
1.0
  2
SOLID
 70
     1
 71
     0
 91
        1
 92
        7
 72
     1
 73
     1
 93
        2
 10
459564.03924
 20
105500.0
 42
1.0
 10
459635.9607599999
 20
105500.0
 42
1.0
 97
        0
 75
     0
 76
     1
 47
0.1793474802258628
 98
        1
 10
459585.5300507563
 20
105503.5025686414
  0
MTEXT
  5
188
330
1F
100
AcDbEntity
  8
BA
 62
     0
100
AcDbMText
 10
463272.9670054869
 20
103891.5362575576
 30
0.0
 40
35.96076
 41
46.53821237953822
 46
0.0
 71
     1
 72
     5
  1
{\fTimes New Roman|b0|i0|c0|p18;79}
 73
     1
 44
1.0
  0
CIRCLE
  5
189
330
1F
100
AcDbEntity
  8
BA
 62
     0
100
AcDbCircle
 10
463296.1036856121
 20
103873.7342602691
 30
0.0
 40
35.96076
  0
HATCH
  5
18A
330
1F
100
AcDbEntity
  8
BA
100
AcDbHatch
 10
0.0
 20
0.0
 30
0.0
210
0.0
220
0.0
230
1.0
  2
SOLID
 70
     1
 71
     0
 91
        1
 92
        7
 72
     1
 73
     1
 93
        2
 10
463260.1429256122
 20
103873.7342602691
 42
1.0
 10
463332.0644456121
 20
103873.7342602691
 42
1.0
 97
        0
 75
     0
 76
     1
 47
0.1793474802258628
 98
        1
 10
463281.6337363685
 20
103877.2368289106
  0
MTEXT
  5
18B
330
1F
100
AcDbEntity
  8
BA
 62
     0
100
AcDbMText
 10
463272.9670054869
 20
103976.656410331
 30
0.0
 40
35.96076
 41
46.53821237953822
 46
0.0
 71
     1
 72
     5
  1
{\fTimes New Roman|b0|i0|c0|p18;69}
 73
     1
 44
1.0
  0
CIRCLE
  5
18C
330
1F
100
AcDbEntity
  8
BA
 62
     0
100
AcDbCircle
 10
463296.1036856121
 20
103958.8544130425
 30
0.0
 40
35.96076
  0
HATCH
  5
18D
330
1F
100
AcDbEntity
  8
BA
100
AcDbHatch
 10
0.0
 20
0.0
 30
0.0
210
0.0
220
0.0
230
1.0
  2
SOLID
 70
     1
 71
     0
 91
        1
 92
        7
 72
     1
 73
     1
 93
        2
 10
463260.1429256122
 20
103958.8544130425
 42
1.0
 10
463332.0644456121
 20
103958.8544130425
 42
1.0
 97
        0
 75
     0
 76
     1
 47
0.1793474802258628
 98
        1
 10
463281.6337363685
 20
103962.356981684
  0
MTEXT
  5
18E
330
1F
100
AcDbEntity
  8
BA
 62
     0
100
AcDbMText
 10
463272.9670054869
 20
104065.7356711981
 30
0.0
 40
35.96076
 41
46.53821237953822
 46
0.0
 71
     1
 72
     5
  1
{\fTimes New Roman|b0|i0|c0|p18;59}
 73
     1
 44
1.0
  0
CIRCLE
  5
18F
330
1F
100
AcDbEntity
  8
BA
 62
     0
100
AcDbCircle
 10
463296.1036856121
 20
104047.9336739097
 30
0.0
 40
35.96076
  0
HATCH
  5
190
330
1F
100
AcDbEntity
  8
BA
100
AcDbHatch
 10
0.0
 20
0.0
 30
0.0
210
0.0
220
0.0
230
1.0
  2
SOLID
 70
     1
 71
     0
 91
        1
 92
        7
 72
     1
 73
     1
 93
        2
 10
463260.1429256122
 20
104047.9336739097
 42
1.0
 10
463332.0644456121
 20
104047.9336739097
 42
1.0
 97
        0
 75
     0
 76
     1
 47
0.1793474802258628
 98
        1
 10
463281.6337363685
 20
104051.4362425511
  0
MTEXT
  5
191
330
1F
100
AcDbEntity
  8
BA
 62
     0
100
AcDbMText
 10
463272.9670054869
 20
104154.8149028808
 30
0.0
 40
35.96076
 41
46.53821237953822
 46
0.0
 71
     1
 72
     5
  1
{\fTimes New Roman|b0|i0|c0|p18;49}
 73
     1
 44
1.0
  0
CIRCLE
  5
192
330
1F
100
AcDbEntity
  8
BA
 62
     0
100
AcDbCircle
 10
463296.1036856121
 20
104137.0129055924
 30
0.0
 40
35.96076
  0
HATCH
  5
193
330
1F
100
AcDbEntity
  8
BA
100
AcDbHatch
 10
0.0
 20
0.0
 30
0.0
210
0.0
220
0.0
230
1.0
  2
SOLID
 70
     1
 71
     0
 91
        1
 92
        7
 72
     1
 73
     1
 93
        2
 10
463260.1429256122
 20
104137.0129055924
 42
1.0
 10
463332.0644456121
 20
104137.0129055924
 42
1.0
 97
        0
 75
     0
 76
     1
 47
0.1793474802258628
 98
        1
 10
463281.6337363685
 20
104140.5154742338
  0
MTEXT
  5
194
330
1F
100
AcDbEntity
  8
BA
 62
     0
100
AcDbMText
 10
463272.9670054869
 20
104245.8736886104
 30
0.0
 40
35.96076
 41
46.53821237953822
 46
0.0
 71
     1
 72
     5
  1
{\fTimes New Roman|b0|i0|c0|p18;39}
 73
     1
 44
1.0
  0
CIRCLE
  5
195
330
1F
100
AcDbEntity
  8
BA
 62
     0
100
AcDbCircle
 10
463296.1036856121
 20
104228.0716913219
 30
0.0
 40
35.96076
  0
HATCH
  5
196
330
1F
100
AcDbEntity
  8
BA
100
AcDbHatch
 10
0.0
 20
0.0
 30
0.0
210
0.0
220
0.0
230
1.0
  2
SOLID
 70
     1
 71
     0
 91
        1
 92
        7
 72
     1
 73
     1
 93
        2
 10
463260.1429256122
 20
104228.0716913219
 42
1.0
 10
463332.0644456121
 20
104228.0716913219
 42
1.0
 97
        0
 75
     0
 76
     1
 47
0.1793474802258628
 98
        1
 10
463281.6337363685
 20
104231.5742599634
  0
CIRCLE
  5
198
330
1F
100
AcDbEntity
  8
BA
 62
     0
100
AcDbCircle
 10
463296.1036856121
 20
104331.007684595
 30
0.0
 40
35.96076
  0
HATCH
  5
199
330
1F
100
AcDbEntity
  8
BA
100
AcDbHatch
 10
0.0
 20
0.0
 30
0.0
210
0.0
220
0.0
230
1.0
  2
SOLID
 70
     1
 71
     0
 91
        1
 92
        7
 72
     1
 73
     1
 93
        2
 10
463260.1429256122
 20
104331.007684595
 42
1.0
 10
463332.0644456121
 20
104331.007684595
 42
1.0
 97
        0
 75
     0
 76
     1
 47
0.1793474802258628
 98
        1
 10
463281.6337363685
 20
104334.5102532364
  0
CIRCLE
  5
19B
330
1F
100
AcDbEntity
  8
BA
 62
     0
100
AcDbCircle
 10
463296.1036856121
 20
104428.0050740963
 30
0.0
 40
35.96076
  0
HATCH
  5
19C
330
1F
100
AcDbEntity
  8
BA
100
AcDbHatch
 10
0.0
 20
0.0
 30
0.0
210
0.0
220
0.0
230
1.0
  2
SOLID
 70
     1
 71
     0
 91
        1
 92
        7
 72
     1
 73
     1
 93
        2
 10
463260.1429256122
 20
104428.0050740963
 42
1.0
 10
463332.0644456121
 20
104428.0050740963
 42
1.0
 97
        0
 75
     0
 76
     1
 47
0.1793474802258628
 98
        1
 10
463281.6337363685
 20
104431.5076427377
  0
CIRCLE
  5
19E
330
1F
100
AcDbEntity
  8
Late Rom
 62
     0
100
AcDbCircle
 10
459450.0
 20
107150.0
 30
0.0
 40
35.96076
  0
HATCH
  5
19F
330
1F
100
AcDbEntity
  8
Late Rom
100
AcDbHatch
 10
0.0
 20
0.0
 30
0.0
210
0.0
220
0.0
230
1.0
  2
SOLID
 70
     1
 71
     0
 91
        1
 92
        7
 72
     1
 73
     1
 93
        2
 10
459414.0392400001
 20
107150.0
 42
1.0
 10
459485.96076
 20
107150.0
 42
1.0
 97
        0
 75
     0
 76
     1
 47
0.1793474802258628
 98
        1
 10
459435.5300507564
 20
107153.5025686414
  0
MTEXT
  5
1A0
330
1F
100
AcDbEntity
  8
BA
 62
     0
100
AcDbMText
 10
463001.7071442112
 20
103891.5362575576
 30
0.0
 40
35.96076
 41
46.53821237953822
 46
0.0
 71
     1
 72
     5
  1
{\fTimes New Roman|b0|i0|c0|p18;76}
 73
     1
 44
1.0
  0
CIRCLE
  5
1A1
330
1F
100
AcDbEntity
  8
BA
 62
     0
100
AcDbCircle
 10
463024.8438243358
 20
103873.7342602691
 30
0.0
 40
35.96076
  0
HATCH
  5
1A2
330
1F
100
AcDbEntity
  8
BA
100
AcDbHatch
 10
0.0
 20
0.0
 30
0.0
210
0.0
220
0.0
230
1.0
  2
SOLID
 70
     1
 71
     0
 91
        1
 92
        7
 72
     1
 73
     1
 93
        2
 10
462988.883064336
 20
103873.7342602691
 42
1.0
 10
463060.804584336
 20
103873.7342602691
 42
1.0
 97
        0
 75
     0
 76
     1
 47
0.1793474802258628
 98
        1
 10
463010.3738750924
 20
103877.2368289106
  0
MTEXT
  5
1A3
330
1F
100
AcDbEntity
  8
BA
 62
     0
100
AcDbMText
 10
463001.7071442112
 20
103976.656410331
 30
0.0
 40
35.96076
 41
46.53821237953822
 46
0.0
 71
     1
 72
     5
  1
{\fTimes New Roman|b0|i0|c0|p18;66}
 73
     1
 44
1.0
  0
CIRCLE
  5
1A4
330
1F
100
AcDbEntity
  8
BA
 62
     0
100
AcDbCircle
 10
463024.8438243358
 20
103958.8544130425
 30
0.0
 40
35.96076
  0
HATCH
  5
1A5
330
1F
100
AcDbEntity
  8
BA
100
AcDbHatch
 10
0.0
 20
0.0
 30
0.0
210
0.0
220
0.0
230
1.0
  2
SOLID
 70
     1
 71
     0
 91
        1
 92
        7
 72
     1
 73
     1
 93
        2
 10
462988.883064336
 20
103958.8544130425
 42
1.0
 10
463060.804584336
 20
103958.8544130425
 42
1.0
 97
        0
 75
     0
 76
     1
 47
0.1793474802258628
 98
        1
 10
463010.3738750924
 20
103962.356981684
  0
MTEXT
  5
1A6
330
1F
100
AcDbEntity
  8
BA
 62
     0
100
AcDbMText
 10
463001.7071442112
 20
104065.7356711981
 30
0.0
 40
35.96076
 41
46.53821237953822
 46
0.0
 71
     1
 72
     5
  1
{\fTimes New Roman|b0|i0|c0|p18;56}
 73
     1
 44
1.0
  0
CIRCLE
  5
1A7
330
1F
100
AcDbEntity
  8
BA
 62
     0
100
AcDbCircle
 10
463024.8438243358
 20
104047.9336739097
 30
0.0
 40
35.96076
  0
HATCH
  5
1A8
330
1F
100
AcDbEntity
  8
BA
100
AcDbHatch
 10
0.0
 20
0.0
 30
0.0
210
0.0
220
0.0
230
1.0
  2
SOLID
 70
     1
 71
     0
 91
        1
 92
        7
 72
     1
 73
     1
 93
        2
 10
462988.883064336
 20
104047.9336739097
 42
1.0
 10
463060.804584336
 20
104047.9336739097
 42
1.0
 97
        0
 75
     0
 76
     1
 47
0.1793474802258628
 98
        1
 10
463010.3738750924
 20
104051.4362425511
  0
MTEXT
  5
1A9
330
1F
100
AcDbEntity
  8
BA
 62
     0
100
AcDbMText
 10
463001.7071442112
 20
104154.8149028808
 30
0.0
 40
35.96076
 41
46.53821237953822
 46
0.0
 71
     1
 72
     5
  1
{\fTimes New Roman|b0|i0|c0|p18;46}
 73
     1
 44
1.0
  0
CIRCLE
  5
1AA
330
1F
100
AcDbEntity
  8
BA
 62
     0
100
AcDbCircle
 10
463024.8438243358
 20
104137.0129055924
 30
0.0
 40
35.96076
  0
HATCH
  5
1AB
330
1F
100
AcDbEntity
  8
BA
100
AcDbHatch
 10
0.0
 20
0.0
 30
0.0
210
0.0
220
0.0
230
1.0
  2
SOLID
 70
     1
 71
     0
 91
        1
 92
        7
 72
     1
 73
     1
 93
        2
 10
462988.883064336
 20
104137.0129055924
 42
1.0
 10
463060.804584336
 20
104137.0129055924
 42
1.0
 97
        0
 75
     0
 76
     1
 47
0.1793474802258628
 98
        1
 10
463010.3738750924
 20
104140.5154742338
  0
MTEXT
  5
1AC
330
1F
100
AcDbEntity
  8
BA
 62
     0
100
AcDbMText
 10
462904.6871951069
 20
103891.5362575576
 30
0.0
 40
35.96076
 41
46.53821237953822
 46
0.0
 71
     1
 72
     5
  1
{\fTimes New Roman|b0|i0|c0|p18;75}
 73
     1
 44
1.0
  0
CIRCLE
  5
1AD
330
1F
100
AcDbEntity
  8
BA
 62
     0
100
AcDbCircle
 10
462927.8238752321
 20
103873.7342602691
 30
0.0
 40
35.96076
  0
HATCH
  5
1AE
330
1F
100
AcDbEntity
  8
BA
100
AcDbHatch
 10
0.0
 20
0.0
 30
0.0
210
0.0
220
0.0
230
1.0
  2
SOLID
 70
     1
 71
     0
 91
        1
 92
        7
 72
     1
 73
     1
 93
        2
 10
462891.8631152321
 20
103873.7342602691
 42
1.0
 10
462963.7846352322
 20
103873.7342602691
 42
1.0
 97
        0
 75
     0
 76
     1
 47
0.1793474802258628
 98
        1
 10
462913.3539259885
 20
103877.2368289106
  0
MTEXT
  5
1AF
330
1F
100
AcDbEntity
  8
BA
 62
     0
100
AcDbMText
 10
462815.5872404173
 20
103891.5362575576
 30
0.0
 40
35.96076
 41
46.53821237953822
 46
0.0
 71
     1
 72
     5
  1
{\fTimes New Roman|b0|i0|c0|p18;74}
 73
     1
 44
1.0
  0
CIRCLE
  5
1B0
330
1F
100
AcDbEntity
  8
BA
 62
     0
100
AcDbCircle
 10
462838.7239205424
 20
103873.7342602691
 30
0.0
 40
35.96076
  0
HATCH
  5
1B1
330
1F
100
AcDbEntity
  8
BA
100
AcDbHatch
 10
0.0
 20
0.0
 30
0.0
210
0.0
220
0.0
230
1.0
  2
SOLID
 70
     1
 71
     0
 91
        1
 92
        7
 72
     1
 73
     1
 93
        2
 10
462802.7631605425
 20
103873.7342602691
 42
1.0
 10
462874.6846805426
 20
103873.7342602691
 42
1.0
 97
        0
 75
     0
 76
     1
 47
0.1793474802258628
 98
        1
 10
462824.2539712989
 20
103877.2368289106
  0
CIRCLE
  5
1B2
330
1F
100
AcDbEntity
  8
BA
 62
     0
100
AcDbCircle
 10
462838.7239205424
 20
104047.9336739097
 30
0.0
 40
35.96076
  0
HATCH
  5
1B3
330
1F
100
AcDbEntity
  8
BA
100
AcDbHatch
 10
0.0
 20
0.0
 30
0.0
210
0.0
220
0.0
230
1.0
  2
SOLID
 70
     1
 71
     0
 91
        1
 92
        7
 72
     1
 73
     1
 93
        2
 10
462802.7631605425
 20
104047.9336739097
 42
1.0
 10
462874.6846805426
 20
104047.9336739097
 42
1.0
 97
        0
 75
     0
 76
     1
 47
0.1793474802258628
 98
        1
 10
462824.2539712989
 20
104051.4362425511
  0
CIRCLE
  5
1B4
330
1F
100
AcDbEntity
  8
BA
 62
     0
100
AcDbCircle
 10
462838.7239205424
 20
103958.8544130425
 30
0.0
 40
35.96076
  0
HATCH
  5
1B5
330
1F
100
AcDbEntity
  8
BA
100
AcDbHatch
 10
0.0
 20
0.0
 30
0.0
210
0.0
220
0.0
230
1.0
  2
SOLID
 70
     1
 71
     0
 91
        1
 92
        7
 72
     1
 73
     1
 93
        2
 10
462802.7631605425
 20
103958.8544130425
 42
1.0
 10
462874.6846805426
 20
103958.8544130425
 42
1.0
 97
        0
 75
     0
 76
     1
 47
0.1793474802258628
 98
        1
 10
462824.2539712989
 20
103962.356981684
  0
MTEXT
  5
1B6
330
1F
100
AcDbEntity
  8
BA
 62
     0
100
AcDbMText
 10
462815.5872404173
 20
103976.656410331
 30
0.0
 40
35.96076
 41
46.53821237953822
 46
0.0
 71
     1
 72
     5
  1
{\fTimes New Roman|b0|i0|c0|p18;64}
 73
     1
 44
1.0
  0
CIRCLE
  5
1B7
330
1F
100
AcDbEntity
  8
BA
 62
     0
100
AcDbCircle
 10
462838.7239205424
 20
104137.0129055924
 30
0.0
 40
35.96076
  0
HATCH
  5
1B8
330
1F
100
AcDbEntity
  8
BA
100
AcDbHatch
 10
0.0
 20
0.0
 30
0.0
210
0.0
220
0.0
230
1.0
  2
SOLID
 70
     1
 71
     0
 91
        1
 92
        7
 72
     1
 73
     1
 93
        2
 10
462802.7631605425
 20
104137.0129055924
 42
1.0
 10
462874.6846805426
 20
104137.0129055924
 42
1.0
 97
        0
 75
     0
 76
     1
 47
0.1793474802258628
 98
        1
 10
462824.2539712989
 20
104140.5154742338
  0
MTEXT
  5
1B9
330
1F
100
AcDbEntity
  8
BA
 62
     0
100
AcDbMText
 10
462815.5872404173
 20
104065.7356711981
 30
0.0
 40
35.96076
 41
46.53821237953822
 46
0.0
 71
     1
 72
     5
  1
{\fTimes New Roman|b0|i0|c0|p18;54}
 73
     1
 44
1.0
  0
MTEXT
  5
1BA
330
1F
100
AcDbEntity
  8
BA
 62
     0
100
AcDbMText
 10
462815.5872404173
 20
104154.8149028808
 30
0.0
 40
35.96076
 41
46.53821237953822
 46
0.0
 71
     1
 72
     5
  1
{\fTimes New Roman|b0|i0|c0|p18;44}
 73
     1
 44
1.0
  0
CIRCLE
  5
1BB
330
1F
100
AcDbEntity
  8
BA
 62
     0
100
AcDbCircle
 10
462927.8238752321
 20
104047.9336739097
 30
0.0
 40
35.96076
  0
HATCH
  5
1BC
330
1F
100
AcDbEntity
  8
BA
100
AcDbHatch
 10
0.0
 20
0.0
 30
0.0
210
0.0
220
0.0
230
1.0
  2
SOLID
 70
     1
 71
     0
 91
        1
 92
        7
 72
     1
 73
     1
 93
        2
 10
462891.8631152321
 20
104047.9336739097
 42
1.0
 10
462963.7846352322
 20
104047.9336739097
 42
1.0
 97
        0
 75
     0
 76
     1
 47
0.1793474802258628
 98
        1
 10
462913.3539259885
 20
104051.4362425511
  0
MTEXT
  5
1BD
330
1F
100
AcDbEntity
  8
BA
 62
     0
100
AcDbMText
 10
462904.6871951069
 20
103976.656410331
 30
0.0
 40
35.96076
 41
46.53821237953822
 46
0.0
 71
     1
 72
     5
  1
{\fTimes New Roman|b0|i0|c0|p18;65}
 73
     1
 44
1.0
  0
CIRCLE
  5
1BE
330
1F
100
AcDbEntity
  8
BA
 62
     0
100
AcDbCircle
 10
462927.8238752321
 20
103958.8544130425
 30
0.0
 40
35.96076
  0
HATCH
  5
1BF
330
1F
100
AcDbEntity
  8
BA
100
AcDbHatch
 10
0.0
 20
0.0
 30
0.0
210
0.0
220
0.0
230
1.0
  2
SOLID
 70
     1
 71
     0
 91
        1
 92
        7
 72
     1
 73
     1
 93
        2
 10
462891.8631152321
 20
103958.8544130425
 42
1.0
 10
462963.7846352322
 20
103958.8544130425
 42
1.0
 97
        0
 75
     0
 76
     1
 47
0.1793474802258628
 98
        1
 10
462913.3539259885
 20
103962.356981684
  0
MTEXT
  5
1C0
330
1F
100
AcDbEntity
  8
BA
 62
     0
100
AcDbMText
 10
462904.6871951069
 20
104065.7356711981
 30
0.0
 40
35.96076
 41
46.53821237953822
 46
0.0
 71
     1
 72
     5
  1
{\fTimes New Roman|b0|i0|c0|p18;55}
 73
     1
 44
1.0
  0
MTEXT
  5
1C1
330
1F
100
AcDbEntity
  8
BA
 62
     0
100
AcDbMText
 10
462904.6871951069
 20
104154.8149028808
 30
0.0
 40
35.96076
 41
46.53821237953822
 46
0.0
 71
     1
 72
     5
  1
{\fTimes New Roman|b0|i0|c0|p18;45}
 73
     1
 44
1.0
  0
CIRCLE
  5
1C2
330
1F
100
AcDbEntity
  8
BA
 62
     0
100
AcDbCircle
 10
462927.8238752321
 20
104137.0129055924
 30
0.0
 40
35.96076
  0
HATCH
  5
1C3
330
1F
100
AcDbEntity
  8
BA
100
AcDbHatch
 10
0.0
 20
0.0
 30
0.0
210
0.0
220
0.0
230
1.0
  2
SOLID
 70
     1
 71
     0
 91
        1
 92
        7
 72
     1
 73
     1
 93
        2
 10
462891.8631152321
 20
104137.0129055924
 42
1.0
 10
462963.7846352322
 20
104137.0129055924
 42
1.0
 97
        0
 75
     0
 76
     1
 47
0.1793474802258628
 98
        1
 10
462913.3539259885
 20
104140.5154742338
  0
MTEXT
  5
1C4
330
1F
100
AcDbEntity
  8
BA
 62
     0
100
AcDbMText
 10
463181.8870697248
 20
103891.5362575576
 30
0.0
 40
35.96076
 41
46.53821237953822
 46
0.0
 71
     1
 72
     5
  1
{\fTimes New Roman|b0|i0|c0|p18;78}
 73
     1
 44
1.0
  0
CIRCLE
  5
1C5
330
1F
100
AcDbEntity
  8
BA
 62
     0
100
AcDbCircle
 10
463205.0237498498
 20
103873.7342602691
 30
0.0
 40
35.96076
  0
HATCH
  5
1C6
330
1F
100
AcDbEntity
  8
BA
100
AcDbHatch
 10
0.0
 20
0.0
 30
0.0
210
0.0
220
0.0
230
1.0
  2
SOLID
 70
     1
 71
     0
 91
        1
 92
        7
 72
     1
 73
     1
 93
        2
 10
463169.0629898497
 20
103873.7342602691
 42
1.0
 10
463240.9845098498
 20
103873.7342602691
 42
1.0
 97
        0
 75
     0
 76
     1
 47
0.1793474802258628
 98
        1
 10
463190.5538006062
 20
103877.2368289106
  0
MTEXT
  5
1C7
330
1F
100
AcDbEntity
  8
BA
 62
     0
100
AcDbMText
 10
463094.7670961077
 20
103891.5362575576
 30
0.0
 40
35.96076
 41
46.53821237953822
 46
0.0
 71
     1
 72
     5
  1
{\fTimes New Roman|b0|i0|c0|p18;77}
 73
     1
 44
1.0
  0
CIRCLE
  5
1C8
330
1F
100
AcDbEntity
  8
BA
 62
     0
100
AcDbCircle
 10
463117.9037762326
 20
103873.7342602691
 30
0.0
 40
35.96076
  0
HATCH
  5
1C9
330
1F
100
AcDbEntity
  8
BA
100
AcDbHatch
 10
0.0
 20
0.0
 30
0.0
210
0.0
220
0.0
230
1.0
  2
SOLID
 70
     1
 71
     0
 91
        1
 92
        7
 72
     1
 73
     1
 93
        2
 10
463081.9430162326
 20
103873.7342602691
 42
1.0
 10
463153.8645362325
 20
103873.7342602691
 42
1.0
 97
        0
 75
     0
 76
     1
 47
0.1793474802258628
 98
        1
 10
463103.433826989
 20
103877.2368289106
  0
CIRCLE
  5
1CA
330
1F
100
AcDbEntity
  8
BA
 62
     0
100
AcDbCircle
 10
463117.9037762326
 20
104047.9336739097
 30
0.0
 40
35.96076
  0
HATCH
  5
1CB
330
1F
100
AcDbEntity
  8
BA
100
AcDbHatch
 10
0.0
 20
0.0
 30
0.0
210
0.0
220
0.0
230
1.0
  2
SOLID
 70
     1
 71
     0
 91
        1
 92
        7
 72
     1
 73
     1
 93
        2
 10
463081.9430162326
 20
104047.9336739097
 42
1.0
 10
463153.8645362325
 20
104047.9336739097
 42
1.0
 97
        0
 75
     0
 76
     1
 47
0.1793474802258628
 98
        1
 10
463103.433826989
 20
104051.4362425511
  0
MTEXT
  5
1CC
330
1F
100
AcDbEntity
  8
BA
 62
     0
100
AcDbMText
 10
463094.7670961077
 20
103976.656410331
 30
0.0
 40
35.96076
 41
46.53821237953822
 46
0.0
 71
     1
 72
     5
  1
{\fTimes New Roman|b0|i0|c0|p18;67}
 73
     1
 44
1.0
  0
CIRCLE
  5
1CD
330
1F
100
AcDbEntity
  8
BA
 62
     0
100
AcDbCircle
 10
463117.9037762326
 20
103958.8544130425
 30
0.0
 40
35.96076
  0
HATCH
  5
1CE
330
1F
100
AcDbEntity
  8
BA
100
AcDbHatch
 10
0.0
 20
0.0
 30
0.0
210
0.0
220
0.0
230
1.0
  2
SOLID
 70
     1
 71
     0
 91
        1
 92
        7
 72
     1
 73
     1
 93
        2
 10
463081.9430162326
 20
103958.8544130425
 42
1.0
 10
463153.8645362325
 20
103958.8544130425
 42
1.0
 97
        0
 75
     0
 76
     1
 47
0.1793474802258628
 98
        1
 10
463103.433826989
 20
103962.356981684
  0
MTEXT
  5
1CF
330
1F
100
AcDbEntity
  8
BA
 62
     0
100
AcDbMText
 10
463094.7670961077
 20
104065.7356711981
 30
0.0
 40
35.96076
 41
46.53821237953822
 46
0.0
 71
     1
 72
     5
  1
{\fTimes New Roman|b0|i0|c0|p18;57}
 73
     1
 44
1.0
  0
MTEXT
  5
1D0
330
1F
100
AcDbEntity
  8
BA
 62
     0
100
AcDbMText
 10
463094.7670961077
 20
104154.8149028808
 30
0.0
 40
35.96076
 41
46.53821237953822
 46
0.0
 71
     1
 72
     5
  1
{\fTimes New Roman|b0|i0|c0|p18;47}
 73
     1
 44
1.0
  0
CIRCLE
  5
1D1
330
1F
100
AcDbEntity
  8
BA
 62
     0
100
AcDbCircle
 10
463117.9037762326
 20
104137.0129055924
 30
0.0
 40
35.96076
  0
HATCH
  5
1D2
330
1F
100
AcDbEntity
  8
BA
100
AcDbHatch
 10
0.0
 20
0.0
 30
0.0
210
0.0
220
0.0
230
1.0
  2
SOLID
 70
     1
 71
     0
 91
        1
 92
        7
 72
     1
 73
     1
 93
        2
 10
463081.9430162326
 20
104137.0129055924
 42
1.0
 10
463153.8645362325
 20
104137.0129055924
 42
1.0
 97
        0
 75
     0
 76
     1
 47
0.1793474802258628
 98
        1
 10
463103.433826989
 20
104140.5154742338
  0
CIRCLE
  5
1D3
330
1F
100
AcDbEntity
  8
BA
 62
     0
100
AcDbCircle
 10
463205.0237498498
 20
104047.9336739097
 30
0.0
 40
35.96076
  0
HATCH
  5
1D4
330
1F
100
AcDbEntity
  8
BA
100
AcDbHatch
 10
0.0
 20
0.0
 30
0.0
210
0.0
220
0.0
230
1.0
  2
SOLID
 70
     1
 71
     0
 91
        1
 92
        7
 72
     1
 73
     1
 93
        2
 10
463169.0629898497
 20
104047.9336739097
 42
1.0
 10
463240.9845098498
 20
104047.9336739097
 42
1.0
 97
        0
 75
     0
 76
     1
 47
0.1793474802258628
 98
        1
 10
463190.5538006062
 20
104051.4362425511
  0
CIRCLE
  5
1D5
330
1F
100
AcDbEntity
  8
BA
 62
     0
100
AcDbCircle
 10
463205.0237498498
 20
103958.8544130425
 30
0.0
 40
35.96076
  0
HATCH
  5
1D6
330
1F
100
AcDbEntity
  8
BA
100
AcDbHatch
 10
0.0
 20
0.0
 30
0.0
210
0.0
220
0.0
230
1.0
  2
SOLID
 70
     1
 71
     0
 91
        1
 92
        7
 72
     1
 73
     1
 93
        2
 10
463169.0629898497
 20
103958.8544130425
 42
1.0
 10
463240.9845098498
 20
103958.8544130425
 42
1.0
 97
        0
 75
     0
 76
     1
 47
0.1793474802258628
 98
        1
 10
463190.5538006062
 20
103962.356981684
  0
MTEXT
  5
1D7
330
1F
100
AcDbEntity
  8
BA
 62
     0
100
AcDbMText
 10
463181.8870697248
 20
103976.656410331
 30
0.0
 40
35.96076
 41
46.53821237953822
 46
0.0
 71
     1
 72
     5
  1
{\fTimes New Roman|b0|i0|c0|p18;68}
 73
     1
 44
1.0
  0
CIRCLE
  5
1D8
330
1F
100
AcDbEntity
  8
BA
 62
     0
100
AcDbCircle
 10
463205.0237498498
 20
104137.0129055924
 30
0.0
 40
35.96076
  0
HATCH
  5
1D9
330
1F
100
AcDbEntity
  8
BA
100
AcDbHatch
 10
0.0
 20
0.0
 30
0.0
210
0.0
220
0.0
230
1.0
  2
SOLID
 70
     1
 71
     0
 91
        1
 92
        7
 72
     1
 73
     1
 93
        2
 10
463169.0629898497
 20
104137.0129055924
 42
1.0
 10
463240.9845098498
 20
104137.0129055924
 42
1.0
 97
        0
 75
     0
 76
     1
 47
0.1793474802258628
 98
        1
 10
463190.5538006062
 20
104140.5154742338
  0
MTEXT
  5
1DA
330
1F
100
AcDbEntity
  8
BA
 62
     0
100
AcDbMText
 10
463181.8870697248
 20
104065.7356711981
 30
0.0
 40
35.96076
 41
46.53821237953822
 46
0.0
 71
     1
 72
     5
  1
{\fTimes New Roman|b0|i0|c0|p18;58}
 73
     1
 44
1.0
  0
MTEXT
  5
1DB
330
1F
100
AcDbEntity
  8
BA
 62
     0
100
AcDbMText
 10
463181.8870697248
 20
104154.8149028808
 30
0.0
 40
35.96076
 41
46.53821237953822
 46
0.0
 71
     1
 72
     5
  1
{\fTimes New Roman|b0|i0|c0|p18;48}
 73
     1
 44
1.0
  0
MTEXT
  5
1DC
330
1F
100
AcDbEntity
  8
BA
 62
     0
100
AcDbMText
 10
463001.7071442112
 20
104245.8736886104
 30
0.0
 40
35.96076
 41
46.53821237953822
 46
0.0
 71
     1
 72
     5
  1
{\fTimes New Roman|b0|i0|c0|p18;36}
 73
     1
 44
1.0
  0
CIRCLE
  5
1DD
330
1F
100
AcDbEntity
  8
BA
 62
     0
100
AcDbCircle
 10
463024.8438243358
 20
104228.0716913219
 30
0.0
 40
35.96076
  0
HATCH
  5
1DE
330
1F
100
AcDbEntity
  8
BA
100
AcDbHatch
 10
0.0
 20
0.0
 30
0.0
210
0.0
220
0.0
230
1.0
  2
SOLID
 70
     1
 71
     0
 91
        1
 92
        7
 72
     1
 73
     1
 93
        2
 10
462988.883064336
 20
104228.0716913219
 42
1.0
 10
463060.804584336
 20
104228.0716913219
 42
1.0
 97
        0
 75
     0
 76
     1
 47
0.1793474802258628
 98
        1
 10
463010.3738750924
 20
104231.5742599634
  0
CIRCLE
  5
1E0
330
1F
100
AcDbEntity
  8
BA
 62
     0
100
AcDbCircle
 10
463024.8438243358
 20
104331.007684595
 30
0.0
 40
35.96076
  0
HATCH
  5
1E1
330
1F
100
AcDbEntity
  8
BA
100
AcDbHatch
 10
0.0
 20
0.0
 30
0.0
210
0.0
220
0.0
230
1.0
  2
SOLID
 70
     1
 71
     0
 91
        1
 92
        7
 72
     1
 73
     1
 93
        2
 10
462988.883064336
 20
104331.007684595
 42
1.0
 10
463060.804584336
 20
104331.007684595
 42
1.0
 97
        0
 75
     0
 76
     1
 47
0.1793474802258628
 98
        1
 10
463010.3738750924
 20
104334.5102532364
  0
CIRCLE
  5
1E3
330
1F
100
AcDbEntity
  8
BA
 62
     0
100
AcDbCircle
 10
463024.8438243358
 20
104428.0050740963
 30
0.0
 40
35.96076
  0
HATCH
  5
1E4
330
1F
100
AcDbEntity
  8
BA
100
AcDbHatch
 10
0.0
 20
0.0
 30
0.0
210
0.0
220
0.0
230
1.0
  2
SOLID
 70
     1
 71
     0
 91
        1
 92
        7
 72
     1
 73
     1
 93
        2
 10
462988.883064336
 20
104428.0050740963
 42
1.0
 10
463060.804584336
 20
104428.0050740963
 42
1.0
 97
        0
 75
     0
 76
     1
 47
0.1793474802258628
 98
        1
 10
463010.3738750924
 20
104431.5076427377
  0
CIRCLE
  5
1E6
330
1F
100
AcDbEntity
  8
Iron Age
 62
     0
100
AcDbCircle
 10
459150.0
 20
107600.0
 30
0.0
 40
35.96076
  0
HATCH
  5
1E7
330
1F
100
AcDbEntity
  8
Iron Age
100
AcDbHatch
 10
0.0
 20
0.0
 30
0.0
210
0.0
220
0.0
230
1.0
  2
SOLID
 70
     1
 71
     0
 91
        1
 92
        7
 72
     1
 73
     1
 93
        2
 10
459114.0392400002
 20
107600.0
 42
1.0
 10
459185.9607600002
 20
107600.0
 42
1.0
 97
        0
 75
     0
 76
     1
 47
0.1793474802258628
 98
        1
 10
459135.5300507565
 20
107603.5025686414
  0
CIRCLE
  5
1E9
330
1F
100
AcDbEntity
  8
Iron Age
 62
     0
100
AcDbCircle
 10
459700.0
 20
107500.0
 30
0.0
 40
35.96076
  0
HATCH
  5
1EA
330
1F
100
AcDbEntity
  8
Iron Age
100
AcDbHatch
 10
0.0
 20
0.0
 30
0.0
210
0.0
220
0.0
230
1.0
  2
SOLID
 70
     1
 71
     0
 91
        1
 92
        7
 72
     1
 73
     1
 93
        2
 10
459664.03924
 20
107500.0
 42
1.0
 10
459735.96076
 20
107500.0
 42
1.0
 97
        0
 75
     0
 76
     1
 47
0.1793474802258628
 98
        1
 10
459685.5300507564
 20
107503.5025686414
  0
CIRCLE
  5
1EF
330
1F
100
AcDbEntity
  8
BA
 62
     0
100
AcDbCircle
 10
462838.7239205424
 20
104331.007684595
 30
0.0
 40
35.96076
  0
HATCH
  5
1F0
330
1F
100
AcDbEntity
  8
BA
100
AcDbHatch
 10
0.0
 20
0.0
 30
0.0
210
0.0
220
0.0
230
1.0
  2
SOLID
 70
     1
 71
     0
 91
        1
 92
        7
 72
     1
 73
     1
 93
        2
 10
462802.7631605425
 20
104331.007684595
 42
1.0
 10
462874.6846805426
 20
104331.007684595
 42
1.0
 97
        0
 75
     0
 76
     1
 47
0.1793474802258628
 98
        1
 10
462824.2539712989
 20
104334.5102532364
  0
CIRCLE
  5
1F1
330
1F
100
AcDbEntity
  8
BA
 62
     0
100
AcDbCircle
 10
462838.7239205424
 20
104228.0716913219
 30
0.0
 40
35.96076
  0
HATCH
  5
1F2
330
1F
100
AcDbEntity
  8
BA
100
AcDbHatch
 10
0.0
 20
0.0
 30
0.0
210
0.0
220
0.0
230
1.0
  2
SOLID
 70
     1
 71
     0
 91
        1
 92
        7
 72
     1
 73
     1
 93
        2
 10
462802.7631605425
 20
104228.0716913219
 42
1.0
 10
462874.6846805426
 20
104228.0716913219
 42
1.0
 97
        0
 75
     0
 76
     1
 47
0.1793474802258628
 98
        1
 10
462824.2539712989
 20
104231.5742599634
  0
MTEXT
  5
1F3
330
1F
100
AcDbEntity
  8
BA
 62
     0
100
AcDbMText
 10
462815.5872404173
 20
104245.8736886104
 30
0.0
 40
35.96076
 41
46.53821237953822
 46
0.0
 71
     1
 72
     5
  1
{\fTimes New Roman|b0|i0|c0|p18;34}
 73
     1
 44
1.0
  0
CIRCLE
  5
1F5
330
1F
100
AcDbEntity
  8
BA
 62
     0
100
AcDbCircle
 10
459310.0
 20
105500.0
 30
0.0
 40
35.96076
  0
HATCH
  5
1F6
330
1F
100
AcDbEntity
  8
BA
100
AcDbHatch
 10
0.0
 20
0.0
 30
0.0
210
0.0
220
0.0
230
1.0
  2
SOLID
 70
     1
 71
     0
 91
        1
 92
        7
 72
     1
 73
     1
 93
        2
 10
459274.0392400001
 20
105500.0
 42
1.0
 10
459345.9607600002
 20
105500.0
 42
1.0
 97
        0
 75
     0
 76
     1
 47
0.1793474802258628
 98
        1
 10
459295.5300507565
 20
105503.5025686414
  0
CIRCLE
  5
1F8
330
1F
100
AcDbEntity
  8
BA
 62
     0
100
AcDbCircle
 10
462927.8238752321
 20
104331.007684595
 30
0.0
 40
35.96076
  0
HATCH
  5
1F9
330
1F
100
AcDbEntity
  8
BA
100
AcDbHatch
 10
0.0
 20
0.0
 30
0.0
210
0.0
220
0.0
230
1.0
  2
SOLID
 70
     1
 71
     0
 91
        1
 92
        7
 72
     1
 73
     1
 93
        2
 10
462891.8631152321
 20
104331.007684595
 42
1.0
 10
462963.7846352322
 20
104331.007684595
 42
1.0
 97
        0
 75
     0
 76
     1
 47
0.1793474802258628
 98
        1
 10
462913.3539259885
 20
104334.5102532364
  0
MTEXT
  5
1FA
330
1F
100
AcDbEntity
  8
BA
 62
     0
100
AcDbMText
 10
462904.6871951069
 20
104245.8736886104
 30
0.0
 40
35.96076
 41
46.53821237953822
 46
0.0
 71
     1
 72
     5
  1
{\fTimes New Roman|b0|i0|c0|p18;35}
 73
     1
 44
1.0
  0
CIRCLE
  5
1FB
330
1F
100
AcDbEntity
  8
BA
 62
     0
100
AcDbCircle
 10
462927.8238752321
 20
104228.0716913219
 30
0.0
 40
35.96076
  0
HATCH
  5
1FC
330
1F
100
AcDbEntity
  8
BA
100
AcDbHatch
 10
0.0
 20
0.0
 30
0.0
210
0.0
220
0.0
230
1.0
  2
SOLID
 70
     1
 71
     0
 91
        1
 92
        7
 72
     1
 73
     1
 93
        2
 10
462891.8631152321
 20
104228.0716913219
 42
1.0
 10
462963.7846352322
 20
104228.0716913219
 42
1.0
 97
        0
 75
     0
 76
     1
 47
0.1793474802258628
 98
        1
 10
462913.3539259885
 20
104231.5742599634
  0
CIRCLE
  5
1FD
330
1F
100
AcDbEntity
  8
BA
 62
     0
100
AcDbCircle
 10
462927.8238752321
 20
104428.0050740963
 30
0.0
 40
35.96076
  0
HATCH
  5
1FE
330
1F
100
AcDbEntity
  8
BA
100
AcDbHatch
 10
0.0
 20
0.0
 30
0.0
210
0.0
220
0.0
230
1.0
  2
SOLID
 70
     1
 71
     0
 91
        1
 92
        7
 72
     1
 73
     1
 93
        2
 10
462891.8631152321
 20
104428.0050740963
 42
1.0
 10
462963.7846352322
 20
104428.0050740963
 42
1.0
 97
        0
 75
     0
 76
     1
 47
0.1793474802258628
 98
        1
 10
462913.3539259885
 20
104431.5076427377
  0
CIRCLE
  5
201
330
1F
100
AcDbEntity
  8
Late Rom
 62
     0
100
AcDbCircle
 10
458200.0
 20
106480.0
 30
0.0
 40
35.96076
  0
HATCH
  5
202
330
1F
100
AcDbEntity
  8
Late Rom
100
AcDbHatch
 10
0.0
 20
0.0
 30
0.0
210
0.0
220
0.0
230
1.0
  2
SOLID
 70
     1
 71
     0
 91
        1
 92
        7
 72
     1
 73
     1
 93
        2
 10
458164.03924
 20
106480.0
 42
1.0
 10
458235.96076
 20
106480.0
 42
1.0
 97
        0
 75
     0
 76
     1
 47
0.1793474802258628
 98
        1
 10
458185.5300507564
 20
106483.5025686414
  0
CIRCLE
  5
204
330
1F
100
AcDbEntity
  8
Late Rom
 62
     0
100
AcDbCircle
 10
457000.0
 20
106000.0
 30
0.0
 40
35.96076
  0
HATCH
  5
205
330
1F
100
AcDbEntity
  8
Late Rom
100
AcDbHatch
 10
0.0
 20
0.0
 30
0.0
210
0.0
220
0.0
230
1.0
  2
SOLID
 70
     1
 71
     0
 91
        1
 92
        7
 72
     1
 73
     1
 93
        2
 10
456964.03924
 20
106000.0
 42
1.0
 10
457035.9607599999
 20
106000.0
 42
1.0
 97
        0
 75
     0
 76
     1
 47
0.1793474802258628
 98
        1
 10
456985.5300507564
 20
106003.5025686414
  0
CIRCLE
  5
207
330
1F
100
AcDbEntity
  8
BA
 62
     0
100
AcDbCircle
 10
463117.9037762326
 20
104331.007684595
 30
0.0
 40
35.96076
  0
HATCH
  5
208
330
1F
100
AcDbEntity
  8
BA
100
AcDbHatch
 10
0.0
 20
0.0
 30
0.0
210
0.0
220
0.0
230
1.0
  2
SOLID
 70
     1
 71
     0
 91
        1
 92
        7
 72
     1
 73
     1
 93
        2
 10
463081.9430162326
 20
104331.007684595
 42
1.0
 10
463153.8645362325
 20
104331.007684595
 42
1.0
 97
        0
 75
     0
 76
     1
 47
0.1793474802258628
 98
        1
 10
463103.433826989
 20
104334.5102532364
  0
MTEXT
  5
209
330
1F
100
AcDbEntity
  8
BA
 62
     0
100
AcDbMText
 10
463094.7670961077
 20
104245.8736886104
 30
0.0
 40
35.96076
 41
46.53821237953822
 46
0.0
 71
     1
 72
     5
  1
{\fTimes New Roman|b0|i0|c0|p18;37}
 73
     1
 44
1.0
  0
CIRCLE
  5
20A
330
1F
100
AcDbEntity
  8
BA
 62
     0
100
AcDbCircle
 10
463117.9037762326
 20
104228.0716913219
 30
0.0
 40
35.96076
  0
HATCH
  5
20B
330
1F
100
AcDbEntity
  8
BA
100
AcDbHatch
 10
0.0
 20
0.0
 30
0.0
210
0.0
220
0.0
230
1.0
  2
SOLID
 70
     1
 71
     0
 91
        1
 92
        7
 72
     1
 73
     1
 93
        2
 10
463081.9430162326
 20
104228.0716913219
 42
1.0
 10
463153.8645362325
 20
104228.0716913219
 42
1.0
 97
        0
 75
     0
 76
     1
 47
0.1793474802258628
 98
        1
 10
463103.433826989
 20
104231.5742599634
  0
CIRCLE
  5
20D
330
1F
100
AcDbEntity
  8
BA
 62
     0
100
AcDbCircle
 10
463117.9037762326
 20
104428.0050740963
 30
0.0
 40
35.96076
  0
HATCH
  5
20E
330
1F
100
AcDbEntity
  8
BA
100
AcDbHatch
 10
0.0
 20
0.0
 30
0.0
210
0.0
220
0.0
230
1.0
  2
SOLID
 70
     1
 71
     0
 91
        1
 92
        7
 72
     1
 73
     1
 93
        2
 10
463081.9430162326
 20
104428.0050740963
 42
1.0
 10
463153.8645362325
 20
104428.0050740963
 42
1.0
 97
        0
 75
     0
 76
     1
 47
0.1793474802258628
 98
        1
 10
463103.433826989
 20
104431.5076427377
  0
CIRCLE
  5
210
330
1F
100
AcDbEntity
  8
BA
 62
     0
100
AcDbCircle
 10
463205.0237498498
 20
104331.007684595
 30
0.0
 40
35.96076
  0
HATCH
  5
211
330
1F
100
AcDbEntity
  8
BA
100
AcDbHatch
 10
0.0
 20
0.0
 30
0.0
210
0.0
220
0.0
230
1.0
  2
SOLID
 70
     1
 71
     0
 91
        1
 92
        7
 72
     1
 73
     1
 93
        2
 10
463169.0629898497
 20
104331.007684595
 42
1.0
 10
463240.9845098498
 20
104331.007684595
 42
1.0
 97
        0
 75
     0
 76
     1
 47
0.1793474802258628
 98
        1
 10
463190.5538006062
 20
104334.5102532364
  0
CIRCLE
  5
212
330
1F
100
AcDbEntity
  8
BA
 62
     0
100
AcDbCircle
 10
463205.0237498498
 20
104228.0716913219
 30
0.0
 40
35.96076
  0
HATCH
  5
213
330
1F
100
AcDbEntity
  8
BA
100
AcDbHatch
 10
0.0
 20
0.0
 30
0.0
210
0.0
220
0.0
230
1.0
  2
SOLID
 70
     1
 71
     0
 91
        1
 92
        7
 72
     1
 73
     1
 93
        2
 10
463169.0629898497
 20
104228.0716913219
 42
1.0
 10
463240.9845098498
 20
104228.0716913219
 42
1.0
 97
        0
 75
     0
 76
     1
 47
0.1793474802258628
 98
        1
 10
463190.5538006062
 20
104231.5742599634
  0
MTEXT
  5
214
330
1F
100
AcDbEntity
  8
BA
 62
     0
100
AcDbMText
 10
463181.8870697248
 20
104245.8736886104
 30
0.0
 40
35.96076
 41
46.53821237953822
 46
0.0
 71
     1
 72
     5
  1
{\fTimes New Roman|b0|i0|c0|p18;38}
 73
     1
 44
1.0
  0
CIRCLE
  5
215
330
1F
100
AcDbEntity
  8
BA
 62
     0
100
AcDbCircle
 10
463205.0237498498
 20
104428.0050740963
 30
0.0
 40
35.96076
  0
HATCH
  5
216
330
1F
100
AcDbEntity
  8
BA
100
AcDbHatch
 10
0.0
 20
0.0
 30
0.0
210
0.0
220
0.0
230
1.0
  2
SOLID
 70
     1
 71
     0
 91
        1
 92
        7
 72
     1
 73
     1
 93
        2
 10
463169.0629898497
 20
104428.0050740963
 42
1.0
 10
463240.9845098498
 20
104428.0050740963
 42
1.0
 97
        0
 75
     0
 76
     1
 47
0.1793474802258628
 98
        1
 10
463190.5538006062
 20
104431.5076427377
  0
MTEXT
  5
218
330
1F
100
AcDbEntity
  8
BA
 62
     0
100
AcDbMText
 10
463360.0869791041
 20
103891.5362575576
 30
0.0
 40
35.96076
 41
46.53821237953822
 46
0.0
 71
     1
 72
     5
  1
{\fTimes New Roman|b0|i0|c0|p18;80}
 73
     1
 44
1.0
  0
CIRCLE
  5
219
330
1F
100
AcDbEntity
  8
BA
 62
     0
100
AcDbCircle
 10
463383.2236592291
 20
103873.7342602691
 30
0.0
 40
35.96076
  0
HATCH
  5
21A
330
1F
100
AcDbEntity
  8
BA
100
AcDbHatch
 10
0.0
 20
0.0
 30
0.0
210
0.0
220
0.0
230
1.0
  2
SOLID
 70
     1
 71
     0
 91
        1
 92
        7
 72
     1
 73
     1
 93
        2
 10
463347.262899229
 20
103873.7342602691
 42
1.0
 10
463419.184419229
 20
103873.7342602691
 42
1.0
 97
        0
 75
     0
 76
     1
 47
0.1793474802258628
 98
        1
 10
463368.7537099854
 20
103877.2368289106
  0
CIRCLE
  5
21B
330
1F
100
AcDbEntity
  8
BA
 62
     0
100
AcDbCircle
 10
463383.2236592291
 20
104047.9336739097
 30
0.0
 40
35.96076
  0
HATCH
  5
21C
330
1F
100
AcDbEntity
  8
BA
100
AcDbHatch
 10
0.0
 20
0.0
 30
0.0
210
0.0
220
0.0
230
1.0
  2
SOLID
 70
     1
 71
     0
 91
        1
 92
        7
 72
     1
 73
     1
 93
        2
 10
463347.262899229
 20
104047.9336739097
 42
1.0
 10
463419.184419229
 20
104047.9336739097
 42
1.0
 97
        0
 75
     0
 76
     1
 47
0.1793474802258628
 98
        1
 10
463368.7537099854
 20
104051.4362425511
  0
MTEXT
  5
21D
330
1F
100
AcDbEntity
  8
BA
 62
     0
100
AcDbMText
 10
463360.0869791041
 20
103976.656410331
 30
0.0
 40
35.96076
 41
46.53821237953822
 46
0.0
 71
     1
 72
     5
  1
{\fTimes New Roman|b0|i0|c0|p18;70}
 73
     1
 44
1.0
  0
CIRCLE
  5
21E
330
1F
100
AcDbEntity
  8
BA
 62
     0
100
AcDbCircle
 10
463383.2236592291
 20
103958.8544130425
 30
0.0
 40
35.96076
  0
HATCH
  5
21F
330
1F
100
AcDbEntity
  8
BA
100
AcDbHatch
 10
0.0
 20
0.0
 30
0.0
210
0.0
220
0.0
230
1.0
  2
SOLID
 70
     1
 71
     0
 91
        1
 92
        7
 72
     1
 73
     1
 93
        2
 10
463347.262899229
 20
103958.8544130425
 42
1.0
 10
463419.184419229
 20
103958.8544130425
 42
1.0
 97
        0
 75
     0
 76
     1
 47
0.1793474802258628
 98
        1
 10
463368.7537099854
 20
103962.356981684
  0
MTEXT
  5
220
330
1F
100
AcDbEntity
  8
BA
 62
     0
100
AcDbMText
 10
463360.0869791041
 20
104065.7356711981
 30
0.0
 40
35.96076
 41
46.53821237953822
 46
0.0
 71
     1
 72
     5
  1
{\fTimes New Roman|b0|i0|c0|p18;60}
 73
     1
 44
1.0
  0
MTEXT
  5
221
330
1F
100
AcDbEntity
  8
BA
 62
     0
100
AcDbMText
 10
463360.0869791041
 20
104154.8149028808
 30
0.0
 40
35.96076
 41
46.53821237953822
 46
0.0
 71
     1
 72
     5
  1
{\fTimes New Roman|b0|i0|c0|p18;50}
 73
     1
 44
1.0
  0
CIRCLE
  5
222
330
1F
100
AcDbEntity
  8
BA
 62
     0
100
AcDbCircle
 10
463383.2236592291
 20
104137.0129055924
 30
0.0
 40
35.96076
  0
HATCH
  5
223
330
1F
100
AcDbEntity
  8
BA
100
AcDbHatch
 10
0.0
 20
0.0
 30
0.0
210
0.0
220
0.0
230
1.0
  2
SOLID
 70
     1
 71
     0
 91
        1
 92
        7
 72
     1
 73
     1
 93
        2
 10
463347.262899229
 20
104137.0129055924
 42
1.0
 10
463419.184419229
 20
104137.0129055924
 42
1.0
 97
        0
 75
     0
 76
     1
 47
0.1793474802258628
 98
        1
 10
463368.7537099854
 20
104140.5154742338
  0
CIRCLE
  5
225
330
1F
100
AcDbEntity
  8
Iron Age
 62
     0
100
AcDbCircle
 10
463383.2236592291
 20
104519.0638598259
 30
0.0
 40
35.96076
  0
HATCH
  5
226
330
1F
100
AcDbEntity
  8
Iron Age
100
AcDbHatch
 10
0.0
 20
0.0
 30
0.0
210
0.0
220
0.0
230
1.0
  2
SOLID
 70
     1
 71
     0
 91
        1
 92
        7
 72
     1
 73
     1
 93
        2
 10
463347.262899229
 20
104519.0638598259
 42
1.0
 10
463419.184419229
 20
104519.0638598259
 42
1.0
 97
        0
 75
     0
 76
     1
 47
0.1793474802258628
 98
        1
 10
463368.7537099854
 20
104522.5664284673
  0
CIRCLE
  5
228
330
1F
100
AcDbEntity
  8
BA
 62
     0
100
AcDbCircle
 10
463383.2236592291
 20
104331.007684595
 30
0.0
 40
35.96076
  0
HATCH
  5
229
330
1F
100
AcDbEntity
  8
BA
100
AcDbHatch
 10
0.0
 20
0.0
 30
0.0
210
0.0
220
0.0
230
1.0
  2
SOLID
 70
     1
 71
     0
 91
        1
 92
        7
 72
     1
 73
     1
 93
        2
 10
463347.262899229
 20
104331.007684595
 42
1.0
 10
463419.184419229
 20
104331.007684595
 42
1.0
 97
        0
 75
     0
 76
     1
 47
0.1793474802258628
 98
        1
 10
463368.7537099854
 20
104334.5102532364
  0
MTEXT
  5
22A
330
1F
100
AcDbEntity
  8
BA
 62
     0
100
AcDbMText
 10
463360.0869791041
 20
104245.8736886104
 30
0.0
 40
35.96076
 41
46.53821237953822
 46
0.0
 71
     1
 72
     5
  1
{\fTimes New Roman|b0|i0|c0|p18;40}
 73
     1
 44
1.0
  0
CIRCLE
  5
22B
330
1F
100
AcDbEntity
  8
BA
 62
     0
100
AcDbCircle
 10
463383.2236592291
 20
104228.0716913219
 30
0.0
 40
35.96076
  0
HATCH
  5
22C
330
1F
100
AcDbEntity
  8
BA
100
AcDbHatch
 10
0.0
 20
0.0
 30
0.0
210
0.0
220
0.0
230
1.0
  2
SOLID
 70
     1
 71
     0
 91
        1
 92
        7
 72
     1
 73
     1
 93
        2
 10
463347.262899229
 20
104228.0716913219
 42
1.0
 10
463419.184419229
 20
104228.0716913219
 42
1.0
 97
        0
 75
     0
 76
     1
 47
0.1793474802258628
 98
        1
 10
463368.7537099854
 20
104231.5742599634
  0
CIRCLE
  5
22E
330
1F
100
AcDbEntity
  8
BA
 62
     0
100
AcDbCircle
 10
463383.2236592291
 20
104428.0050740963
 30
0.0
 40
35.96076
  0
HATCH
  5
22F
330
1F
100
AcDbEntity
  8
BA
100
AcDbHatch
 10
0.0
 20
0.0
 30
0.0
210
0.0
220
0.0
230
1.0
  2
SOLID
 70
     1
 71
     0
 91
        1
 92
        7
 72
     1
 73
     1
 93
        2
 10
463347.262899229
 20
104428.0050740963
 42
1.0
 10
463419.184419229
 20
104428.0050740963
 42
1.0
 97
        0
 75
     0
 76
     1
 47
0.1793474802258628
 98
        1
 10
463368.7537099854
 20
104431.5076427377
  0
MTEXT
  5
236
330
1F
100
AcDbEntity
  8
Search Radius
100
AcDbMText
 10
462538.5606092674
 20
104634.2267606762
 30
0.0
 40
39.9564
 41
200.77193179692
 46
0.0
 71
     1
 72
     5
  1
{\fTimes New Roman|b0|i0|c0|p18;\C7;20074}
 73
     1
 44
1.0
  0
MTEXT
  5
241
330
1F
100
AcDbEntity
  8
Iron Age
100
AcDbMText
 10
459929.3462630223
 20
107203.541165799
 30
0.0
 40
50.0
 41
216.3173
 46
0.0
 71
     1
 72
     5
  1
{\fTimes New Roman|b1|i0|c0|p18;20001, 20005, 20007,  20011, 20057, 20058, 20059, 22674}
 73
     1
 44
1.0
  0
LWPOLYLINE
  5
243
330
1F
100
AcDbEntity
  8
Search Radius
 62
     0
100
AcDbPolyline
 90
        4
 70
     1
 43
0.0
 10
462567.9341863208
 20
105692.3652922475
 10
462721.8470456018
 20
105692.3652922475
 10
462721.8470456018
 20
105637.0832927244
 10
462567.9341863208
 20
105637.0832927244
  0
HATCH
  5
26C
330
1F
100
AcDbEntity
  8
Iron Age
100
AcDbHatch
 10
0.0
 20
0.0
 30
0.0
210
0.0
220
0.0
230
1.0
  2
SOLID
 70
     1
 71
     0
 91
        1
 92
        7
 72
     1
 73
     1
 93
        2
 10
459734.4168378104
 20
106983.9182218607
 42
1.0
 10
459806.3383578104
 20
106983.9182218607
 42
1.0
 97
        0
 75
     0
 76
     1
 47
0.1793474802258628
 98
        1
 10
459755.9076485668
 20
106987.4207905021
  0
CIRCLE
  5
26D
330
1F
100
AcDbEntity
  8
Iron Age
 62
     0
100
AcDbCircle
 10
459770.3775978105
 20
106983.9182218607
 30
0.0
 40
35.96076
  0
LWPOLYLINE
  5
26E
330
1F
100
AcDbEntity
  8
Iron Age
100
AcDbPolyline
 90
        2
 70
     0
 43
0.0
 10
459895.6888686098
 20
106986.2898440406
 10
459800.1124963489
 20
106982.5779416223
  0
MTEXT
  5
276
330
1F
100
AcDbEntity
  8
Iron Age
100
AcDbMText
 10
458877.2998391691
 20
106075.2976260909
 30
0.0
 40
50.0
 41
200.7719
 46
0.0
 71
     1
 72
     5
  1
{\fTimes New Roman|b1|i0|c0|p18;20097}
 73
     1
 44
1.0
  0
LWPOLYLINE
  5
277
330
1F
100
AcDbEntity
  8
Iron Age
100
AcDbPolyline
 90
        2
 70
     0
 43
0.0
 10
458908.3809574933
 20
106090.7581792839
 10
458800.0
 20
106200.0
  0
MTEXT
  5
288
330
1F
100
AcDbEntity
  8
Neo
100
AcDbMText
 10
459397.8772939355
 20
106814.0988662733
 30
0.0
 40
50.0
 41
200.7719
 46
0.0
 71
     1
 72
     5
  1
{\fTimes New Roman|b1|i0|c0|p18;20074}
 73
     1
 44
1.0
  0
LWPOLYLINE
  5
289
330
1F
100
AcDbEntity
  8
Neo
100
AcDbPolyline
 90
        2
 70
     0
 43
0.0
 10
459570.0
 20
106940.0
 10
459480.6302682302
 20
106821.9552681441
  0
MTEXT
  5
291
330
1F
100
AcDbEntity
  8
Neo
100
AcDbMText
 10
459697.8326688576
 20
105394.6845826186
 30
0.0
 40
50.0
 41
200.7719
 46
0.0
 71
     1
 72
     5
  1
{\fTimes New Roman|b1|i0|c0|p18;20107}
 73
     1
 44
1.0
  0
LWPOLYLINE
  5
292
330
1F
100
AcDbEntity
  8
Neo
100
AcDbPolyline
 90
        2
 70
     0
 43
0.0
 10
459596.2739316744
 20
105493.8496174871
 10
459744.3457005795
 20
105405.7960983458
  0
MTEXT
  5
299
330
1F
100
AcDbEntity
  8
BA
100
AcDbMText
 10
458970.9696848175
 20
106282.317378822
 30
0.0
 40
50.0
 41
200.7719
 46
0.0
 71
     1
 72
     5
  1
{\fTimes New Roman|b1|i0|c0|p18;20033, 20034}
 73
     1
 44
1.0
  0
LWPOLYLINE
  5
29A
330
1F
100
AcDbEntity
  8
BA
100
AcDbPolyline
 90
        2
 70
     0
 43
0.0
 10
458871.4783985801
 20
106241.4192970576
 10
458960.5652044833
 20
106230.2896745023
  0
MTEXT
  5
2A1
330
1F
100
AcDbEntity
  8
BA
100
AcDbMText
 10
458974.6863256096
 20
105560.2024781359
 30
0.0
 40
50.0
 41
140.258
 46
0.0
 71
     1
 72
     5
  1
{\fTimes New Roman|b1|i0|c0|p18;35857}
 73
     1
 44
1.0
  0
LWPOLYLINE
  5
2A2
330
1F
100
AcDbEntity
  8
BA
100
AcDbPolyline
 90
        2
 70
     0
 43
0.0
 10
459310.0
 20
105500.0
 10
459174.5130004975
 20
105537.0116995295
  0
MTEXT
  5
330
330
1F
100
AcDbEntity
  8
Iron Age
100
AcDbMText
 10
459833.8236308522
 20
107466.7883239017
 30
0.0
 40
50.0
 41
318.5098
 46
0.0
 71
     1
 72
     5
  1
{\fTimes New Roman|b1|i0|c0|p18;01}
 73
     1
 44
1.0
  0
LWPOLYLINE
  5
331
330
1F
100
AcDbEntity
  8
Iron Age
100
AcDbPolyline
 90
        2
 70
     0
 43
0.0
 10
459697.4265735863
 20
107497.7007413789
 10
459822.212565545
 20
107449.2348248547
  0
MTEXT
  5
339
330
1F
100
AcDbEntity
  8
Iron Age
100
AcDbMText
 10
459295.80117144
 20
107695.3099630015
 30
0.0
 40
50.0
 41
318.5098
 46
0.0
 71
     1
 72
     5
  1
{\fTimes New Roman|b1|i0|c0|p18;02}
 73
     1
 44
1.0
  0
LWPOLYLINE
  5
33A
330
1F
100
AcDbEntity
  8
Iron Age
100
AcDbPolyline
 90
        2
 70
     0
 43
0.0
 10
459153.6472106637
 20
107599.6401034824
 10
459282.6262573404
 20
107655.0265976608
  0
MTEXT
  5
342
330
1F
100
AcDbEntity
  8
Late Rom
100
AcDbMText
 10
457160.843454867
 20
106000.0340004028
 30
0.0
 40
50.0
 41
200.7719
 46
0.0
 71
     1
 72
     5
  1
{\fTimes New Roman|b1|i0|c0|p18;03}
 73
     1
 44
1.0
  0
LWPOLYLINE
  5
343
330
1F
100
AcDbEntity
  8
Late Rom
100
AcDbPolyline
 90
        2
 70
     0
 43
0.0
 10
457129.48069155
 20
105973.8967196556
 10
456997.5920512131
 20
105995.4177138797
  0
MTEXT
  5
34B
330
1F
100
AcDbEntity
  8
Late Rom
100
AcDbMText
 10
458272.9030394726
 20
106391.6446499174
 30
0.0
 40
50.0
 41
98.6644
 46
0.0
 71
     1
 72
     5
  1
{\fTimes New Roman|b1|i0|c0|p18;04}
 73
     1
 44
1.0
  0
LWPOLYLINE
  5
34C
330
1F
100
AcDbEntity
  8
Late Rom
100
AcDbPolyline
 90
        2
 70
     0
 43
0.0
 10
458266.4399026321
 20
106402.2327452769
 10
458211.7653708178
 20
106466.2718703988
  0
MTEXT
  5
353
330
1F
100
AcDbEntity
  8
Late Rom
100
AcDbMText
 10
459535.5137894468
 20
107294.1392012086
 30
0.0
 40
50.0
 41
200.7719
 46
0.0
 71
     1
 72
     5
  1
{\fTimes New Roman|b1|i0|c0|p18;05}
 73
     1
 44
1.0
  0
LWPOLYLINE
  5
355
330
1F
100
AcDbEntity
  8
Late Rom
100
AcDbPolyline
 90
        2
 70
     0
 43
0.0
 10
459531.3824242408
 20
107247.0383477654
 10
459450.0
 20
107150.0
  0
LWPOLYLINE
  5
358
102
{ACAD_REACTORS
330
35D
102
}
330
1F
100
AcDbEntity
  8
Search Radius
100
AcDbPolyline
 90
        9
 70
     1
 43
0.0
 10
459566.5504626972
 20
106026.4418208528
 10
459619.5204927319
 20
106026.4418208528
 10
459690.6989941555
 20
106003.2801755333
 10
459679.1117970118
 20
105943.7216745661
 10
459665.8692813067
 20
105938.7584669778
 10
459650.9714634331
 20
105933.7952593895
 10
459591.3801591533
 20
105933.7952593895
 10
459584.7589176935
 20
105907.3248090111
 10
459563.2398255746
 20
105908.9792115405
  0
HATCH
  5
35D
330
1F
100
AcDbEntity
  8
Search Radius
100
AcDbHatch
 10
0.0
 20
0.0
 30
0.0
210
0.0
220
0.0
230
1.0
  2
ANSI37
 70
     0
 71
     1
 91
        1
 92
        1
 93
        9
 72
     1
 10
459566.5504626972
 20
106026.4418208528
 11
459619.5204927319
 21
106026.4418208528
 72
     1
 10
459619.5204927319
 20
106026.4418208528
 11
459690.6989941555
 21
106003.2801755333
 72
     1
 10
459690.6989941555
 20
106003.2801755333
 11
459679.1117970118
 21
105943.7216745661
 72
     1
 10
459679.1117970118
 20
105943.7216745661
 11
459665.8692813067
 21
105938.7584669778
 72
     1
 10
459665.8692813067
 20
105938.7584669778
 11
459650.9714634331
 21
105933.7952593895
 72
     1
 10
459650.9714634331
 20
105933.7952593895
 11
459591.3801591533
 21
105933.7952593895
 72
     1
 10
459591.3801591533
 20
105933.7952593895
 11
459584.7589176935
 21
105907.3248090111
 72
     1
 10
459584.7589176935
 20
105907.3248090111
 11
459563.2398255746
 21
105908.9792115405
 72
     1
 10
459563.2398255746
 20
105908.9792115405
 11
459566.5504626972
 21
106026.4418208528
 97
        1
330
358
 75
     0
 76
     1
 52
0.0
 41
8.0
 77
     0
 78
     2
 53
45.0
 43
0.0
 44
0.0
 45
-17.9605122421383
 46
17.96051224213831
 79
     0
 53
135.0
 43
0.0
 44
0.0
 45
-17.96051224213831
 46
-17.9605122421383
 79
     0
 98
        1
 10
0.0
 20
0.0
  0
VIEWPORT
  5
2A6
330
1B
100
AcDbEntity
 67
     1
  8
0
100
AcDbViewport
 10
151.6652880552349
 20
126.7965801221768
 30
0.0
 40
454.4862087606425
 41
277.3647177842727
 68
     1
 69
     1
 12
151.6652880552349
 22
126.7965801221768
 13
0.0
 23
0.0
 14
10.0
 24
10.0
 15
10.0
 25
10.0
 16
0.0
 26
0.0
 36
1.0
 17
0.0
 27
0.0
 37
0.0
 42
50.0
 43
0.0
 44
0.0
 45
277.3647177842727
 50
0.0
 51
0.0
 72
   100
 90
    32768
  1

281
     0
 71
     1
 74
     0
110
0.0
120
0.0
130
0.0
111
1.0
121
0.0
131
0.0
112
0.0
122
1.0
132
0.0
 79
     0
146
0.0
170
     0
 61
     5
348
3FD
292
     1
282
     1
141
0.0
142
0.0
 63
   256
  0
VIEWPORT
  5
2A8
330
1B
100
AcDbEntity
 67
     1
  8
vports_text
100
AcDbViewport
 10
104.5189145142576
 20
161.5967815067655
 30
0.0
 40
186.0398847491942
 41
188.517113683176
 68
     2
 69
     2
 12
458801.4311756084
 22
106023.7326808461
 13
0.0
 23
0.0
 14
10.0
 24
10.0
 15
10.0
 25
10.0
 16
0.0
 26
0.0
 36
1.0
 17
0.0
 27
0.0
 37
0.0
 42
50.0
 43
0.0
 44
0.0
 45
3770.342273663521
 50
0.0
 51
0.0
 72
   100
 90
    98304
340
396
  1

281
     0
 71
     1
 74
     0
110
0.0
120
0.0
130
0.0
111
1.0
121
0.0
131
0.0
112
0.0
122
1.0
132
0.0
 79
     0
146
0.0
170
     0
 61
     5
348
3FD
292
     1
282
     1
141
0.0
142
0.0
 63
   256
  0
LINE
  5
2CC
102
{ACAD_REACTORS
330
2CE
102
}
330
1B
100
AcDbEntity
 67
     1
  8
vports_text
100
AcDbLine
 10
94.49999993440589
 20
58.56973762666365
 30
0.0
 11
169.5000004590645
 21
58.56973745131916
 31
0.0
  0
LINE
  5
2CD
102
{ACAD_REACTORS
330
2CE
102
}
330
1B
100
AcDbEntity
 67
     1
  8
vports_text
100
AcDbLine
 10
119.5000003347814
 20
60.06973761497403
 30
0.0
 11
169.5000004590645
 21
60.06973761497403
 31
0.0
  0
HATCH
  5
2CE
330
1B
100
AcDbEntity
 67
     1
  8
vports_text
100
AcDbHatch
 10
0.0
 20
0.0
 30
0.0
210
0.0
220
0.0
230
1.0
  2
SOLID
 70
     1
 71
     1
 91
        3
 92
        7
 72
     0
 73
     1
 93
        4
 10
119.5000003347814
 20
60.06973761497403
 10
119.5000003347814
 20
58.56973756821549
 10
144.500000396923
 20
58.56973750976733
 10
144.5000003969229
 20
60.06973761497404
 97
        4
330
2CD
330
2D7
330
2CC
330
2D9
 92
        7
 72
     0
 73
     1
 93
        4
 10
109.4999999344059
 20
60.06973761497402
 10
109.4999999344059
 20
58.56973759159474
 10
114.4999999344059
 20
58.5697375799051
 10
114.4999999344059
 20
60.06973761497402
 97
        4
330
2CF
330
2D5
330
2CC
330
2D6
 92
        7
 72
     0
 73
     1
 93
        4
 10
104.4999999344059
 20
58.56973760328439
 10
104.4999999344059
 20
60.06973761497402
 10
99.49999993440589
 20
60.06973761497404
 10
99.49999993440588
 20
58.56973761497402
 97
        4
330
2CF
330
2D2
330
2CC
330
2D3
 75
     0
 76
     1
 47
0.1183187555646994
 98
        3
 10
135.628571041126
 20
59.45909756645207
 10
111.1275923763862
 20
59.34077828224756
 10
103.4340487598944
 20
59.10414099138481
  0
LINE
  5
2CF
102
{ACAD_REACTORS
330
2CE
102
}
330
1B
100
AcDbEntity
 67
     1
  8
vports_text
100
AcDbLine
 10
94.49999993440589
 20
60.06973761497403
 30
0.0
 11
119.5000003347814
 21
60.06973761497403
 31
0.0
  0
TEXT
  5
2D0
330
1B
100
AcDbEntity
 67
     1
  8
vports_text
100
AcDbText
 10
91.13662667054314
 20
62.89854568899156
 30
0.0
 40
2.0
  1
500m
  7
TNR-Regular
 72
     1
 11
94.50000085944004
 21
62.89854568899156
 31
0.0
100
AcDbText
  0
LINE
  5
2D1
330
1B
100
AcDbEntity
 67
     1
  8
vports_text
100
AcDbLine
 10
94.49999993440589
 20
58.56973761497403
 30
0.0
 11
94.49999993440589
 21
61.56973761497403
 31
0.0
  0
LINE
  5
2D2
102
{ACAD_REACTORS
330
2CE
102
}
330
1B
100
AcDbEntity
 67
     1
  8
vports_text
100
AcDbLine
 10
99.49999993440588
 20
58.56973761497403
 30
0.0
 11
99.49999993440588
 21
60.069737614974
 31
0.0
  0
LINE
  5
2D3
102
{ACAD_REACTORS
330
2CE
102
}
330
1B
100
AcDbEntity
 67
     1
  8
vports_text
100
AcDbLine
 10
104.4999999344059
 20
58.56973761497403
 30
0.0
 11
104.4999999344059
 21
60.069737614974
 31
0.0
  0
TEXT
  5
2D4
330
1B
100
AcDbEntity
 67
     1
  8
vports_text
100
AcDbText
 10
124.2909159041543
 20
54.38968632294561
 30
0.0
 40
2.0
  1
1:20 000
  7
TNR-Regular
 72
     1
 11
129.5000002588768
 21
54.38968632294561
 31
0.0
100
AcDbText
  0
LINE
  5
2D5
102
{ACAD_REACTORS
330
2CE
102
}
330
1B
100
AcDbEntity
 67
     1
  8
vports_text
100
AcDbLine
 10
109.4999999344059
 20
58.56973761497403
 30
0.0
 11
109.4999999344059
 21
60.069737614974
 31
0.0
  0
LINE
  5
2D6
102
{ACAD_REACTORS
330
2CE
102
}
330
1B
100
AcDbEntity
 67
     1
  8
vports_text
100
AcDbLine
 10
114.4999999344059
 20
58.56973761497403
 30
0.0
 11
114.4999999344059
 21
60.069737614974
 31
0.0
  0
LINE
  5
2D7
102
{ACAD_REACTORS
330
2CE
102
}
330
1B
100
AcDbEntity
 67
     1
  8
vports_text
100
AcDbLine
 10
119.5000003347814
 20
58.56973761497403
 30
0.0
 11
119.5000003347814
 21
61.56973761497403
 31
0.0
  0
TEXT
  5
2D8
330
1B
100
AcDbEntity
 67
     1
  8
vports_text
100
AcDbText
 10
118.7617167931098
 20
62.89854568899156
 30
0.0
 40
2.0
  1
0
  7
TNR-Regular
 72
     1
 11
119.50000085944
 21
62.89854568899156
 31
0.0
100
AcDbText
  0
LINE
  5
2D9
102
{ACAD_REACTORS
330
2CE
102
}
330
1B
100
AcDbEntity
 67
     1
  8
vports_text
100
AcDbLine
 10
144.5000003969229
 20
58.56973761497403
 30
0.0
 11
144.5000003969229
 21
60.06973761497403
 31
0.0
  0
TEXT
  5
2DA
330
1B
100
AcDbEntity
 67
     1
  8
vports_text
100
AcDbText
 10
166.8749107368733
 20
62.89854590580165
 30
0.0
 40
2.0
  1
1km
  7
TNR-Regular
 72
     1
 11
169.50000085944
 21
62.89854590580165
 31
0.0
100
AcDbText
  0
LINE
  5
2DB
330
1B
100
AcDbEntity
 67
     1
  8
vports_text
100
AcDbLine
 10
169.5000004590645
 20
58.56973745131916
 30
0.0
 11
169.5000004590645
 21
61.56973745131916
 31
0.0
  0
TEXT
  5
2EE
330
1B
100
AcDbEntity
 67
     1
  8
vports_text
100
AcDbText
 10
17.48369820819333
 20
40.7937429656574
 30
0.0
 40
2.0
  1
Bronze Age
  7
TNR-Italic
100
AcDbText
  0
CIRCLE
  5
2EF
102
{ACAD_REACTORS
330
2F0
102
}
330
1B
100
AcDbEntity
 67
     1
  8
Roman
 62
     0
370
    25
100
AcDbCircle
 10
14.07470619570469
 20
41.61587332601147
 30
0.0
 40
2.0882
  0
HATCH
  5
2F0
330
1B
100
AcDbEntity
 67
     1
  8
BA
370
    35
100
AcDbHatch
 10
0.0
 20
0.0
 30
0.0
210
0.0
220
0.0
230
1.0
  2
SOLID
 70
     1
 71
     1
 91
        1
 92
        1
 93
        1
 72
     2
 10
14.07470619570469
 20
41.61587332601147
 40
2.0882
 50
0.0
 51
360.0
 73
     1
 97
        1
330
2EF
 75
     0
 76
     1
 98
        1
 10
-11.02261991015595
 20
-50.94349177326995
  0
TEXT
  5
2F1
330
1B
100
AcDbEntity
 67
     1
  8
vports_text
100
AcDbText
 10
17.36338977360263
 20
34.7685287443289
 30
0.0
 40
2.0
  1
Iron Age
  7
TNR-Italic
100
AcDbText
  0
CIRCLE
  5
2F2
102
{ACAD_REACTORS
330
2F3
102
}
330
1B
100
AcDbEntity
 67
     1
  8
Saxon
 62
     0
370
    25
100
AcDbCircle
 10
13.95880180366154
 20
35.59057277713941
 30
0.0
 40
2.0882
  0
HATCH
  5
2F3
330
1B
100
AcDbEntity
 67
     1
  8
Iron Age
370
    35
100
AcDbHatch
 10
0.0
 20
0.0
 30
0.0
210
0.0
220
0.0
230
1.0
  2
SOLID
 70
     1
 71
     1
 91
        1
 92
        1
 93
        1
 72
     2
 10
13.95880180366154
 20
35.59057277713941
 40
2.0882
 50
0.0
 51
360.0
 73
     1
 97
        1
330
2F2
 75
     0
 76
     1
 98
        1
 10
-11.1385243021991
 20
-56.96879232214202
  0
TEXT
  5
2F4
330
1B
100
AcDbEntity
 67
     1
  8
vports_text
100
AcDbText
 10
17.59883345503395
 20
46.42944114243468
 30
0.0
 40
2.0
  1
Neolithic
  7
TNR-Italic
100
AcDbText
  0
CIRCLE
  5
2F5
330
1B
100
AcDbEntity
 67
     1
  8
Prehistoric
 62
     0
370
    25
100
AcDbCircle
 10
14.18559565519196
 20
47.42465996381614
 30
0.0
 40
2.0882
  0
HATCH
  5
2F6
330
1B
100
AcDbEntity
 67
     1
  8
Neo
370
    35
100
AcDbHatch
 10
0.0
 20
0.0
 30
0.0
210
0.0
220
0.0
230
1.0
  2
SOLID
 70
     1
 71
     0
 91
        1
 92
        1
 93
        1
 72
     2
 10
14.18559565519196
 20
47.42465996381617
 40
2.0882
 50
0.041879213352776
 51
360.0418792133528
 73
     1
 97
        0
 75
     0
 76
     1
 98
        1
 10
-10.9117304506687
 20
-45.13470513546528
  0
HATCH
  5
2FE
330
1B
100
AcDbEntity
 67
     1
  8
Late Rom
370
    35
100
AcDbHatch
 10
0.0
 20
0.0
 30
0.0
210
0.0
220
0.0
230
1.0
  2
SOLID
 70
     1
 71
     1
 91
        1
 92
        1
 93
        1
 72
     2
 10
13.74407753871057
 20
29.90605805324935
 40
2.0882
 50
0.0
 51
360.0
 73
     1
 97
        1
330
2FF
 75
     0
 76
     1
 98
        1
 10
-11.35324856715008
 20
-62.65330704603208
  0
CIRCLE
  5
2FF
102
{ACAD_REACTORS
330
2FE
102
}
330
1B
100
AcDbEntity
 67
     1
  8
Saxon
 62
     0
370
    25
100
AcDbCircle
 10
13.74407753871057
 20
29.90605805324935
 30
0.0
 40
2.0882
  0
TEXT
  5
300
330
1B
100
AcDbEntity
 67
     1
  8
vports_text
100
AcDbText
 10
17.14866550865166
 20
29.08401402043884
 30
0.0
 40
2.0
  1
Late Roman
  7
TNR-Italic
100
AcDbText
  0
MTEXT
  5
309
330
1B
100
AcDbEntity
 67
     1
  8
BA
100
AcDbMText
 10
12.05964843166294
 20
54.65038669921273
 30
0.0
 40
2.5
 41
15.7463
 46
0.0
 71
     1
 72
     5
  1
{\fTimes New Roman|b0|i0|c0|p18;\C7;Key:}
 73
     1
 44
1.0
  0
MTEXT
  5
31D
330
1B
100
AcDbEntity
 67
     1
  8
vports_text
100
AcDbMText
 10
4.114962569972818
 20
68.31841990494877
 30
0.0
 40
1.0
 41
10.8384
 46
0.0
 71
     1
 72
     5
  1
1{\H1.5x;040}00m
  7
TNR-Regular
 73
     1
 44
1.0
  0
MTEXT
  5
31E
330
1B
100
AcDbEntity
 67
     1
  8
vports_text
100
AcDbMText
 10
4.114962569972818
 20
110.5229896648984
 30
0.0
 40
1.0
 41
10.8384
 46
0.0
 71
     1
 72
     5
  1
1{\H1.5x;050}00m
  7
TNR-Regular
 73
     1
 44
1.0
  0
MTEXT
  5
31F
330
1B
100
AcDbEntity
 67
     1
  8
vports_text
100
AcDbMText
 10
4.114962569972874
 20
160.8114731498296
 30
0.0
 40
1.0
 41
10.8384
 46
0.0
 71
     1
 72
     5
  1
1{\H1.5x;060}00m
  7
TNR-Regular
 73
     1
 44
1.0
  0
MTEXT
  5
320
330
1B
100
AcDbEntity
 67
     1
  8
vports_text
100
AcDbMText
 10
4.114962569972874
 20
209.7056525804124
 30
0.0
 40
1.0
 41
10.8384
 46
0.0
 71
     1
 72
     5
  1
1{\H1.5x;070}00m
  7
TNR-Regular
 73
     1
 44
1.0
  0
MTEXT
  5
321
330
1B
100
AcDbEntity
 67
     1
  8
vports_text
100
AcDbMText
 10
3.946248986891021
 20
256.7418188871821
 30
0.0
 40
1.0
 41
10.8384
 46
0.0
 71
     1
 72
     5
  1
1{\H1.5x;080}00m
  7
TNR-Regular
 73
     1
 44
1.0
  0
MTEXT
  5
322
330
1B
100
AcDbEntity
 67
     1
  8
vports_text
100
AcDbMText
 10
63.69549474789278
 20
257.2486201243607
 30
0.0
 40
1.0
 41
10.8384
 46
0.0
 71
     1
 72
     5
  1
4{\H1.5x;580}00m
  7
TNR-Regular
 11
6.123031769111886E-17
 21
1.0
 31
0.0
 73
     1
 44
1.0
  0
MTEXT
  5
323
330
1B
100
AcDbEntity
 67
     1
  8
vports_text
100
AcDbMText
 10
113.6399406326634
 20
257.4173337074425
 30
0.0
 40
1.0
 41
10.8384
 46
0.0
 71
     1
 72
     5
  1
4{\H1.5x;590}00m
  7
TNR-Regular
 11
6.123031769111886E-17
 21
1.0
 31
0.0
 73
     1
 44
1.0
  0
MTEXT
  5
326
330
1B
100
AcDbEntity
 67
     1
  8
vports_text
100
AcDbMText
 10
13.72519523539233
 20
257.4173337074425
 30
0.0
 40
1.0
 41
10.8384
 46
0.0
 71
     1
 72
     5
  1
4{\H1.5x;570}00m
  7
TNR-Regular
 11
6.123031769111886E-17
 21
1.0
 31
0.0
 73
     1
 44
1.0
  0
MTEXT
  5
327
330
1B
100
AcDbEntity
 67
     1
  8
vports_text
100
AcDbMText
 10
163.6423341349898
 20
257.4173337074425
 30
0.0
 40
1.0
 41
10.8384
 46
0.0
 71
     1
 72
     5
  1
4{\H1.5x;600}00m
  7
TNR-Regular
 11
6.123031769111886E-17
 21
1.0
 31
0.0
 73
     1
 44
1.0
  0
INSERT
  5
385
330
1B
100
AcDbEntity
 67
     1
  8
text
100
AcDbBlockReference
  2
aoc
 10
152.5949162073654
 20
9.138831130020634
 30
0.0
  0
MTEXT
  5
386
330
1B
100
AcDbEntity
 67
     1
  8
vports_text
100
AcDbMText
 10
11.17635988476269
 20
66.24931124181734
 30
0.0
 40
1.25
 41
121.6
 46
0.0
 71
     1
 72
     5
  1
Based on the Ordnance Survey's 1:50 000 Landranger Map of 1993\Pwith the permission of the Controller of Her Majesty's Stationary Office\P© Crown Copyright.  Licence No. AL 1000 16114
  7
TNR-Regular
 73
     1
 44
1.0
  0
MTEXT
  5
387
330
1B
100
AcDbEntity
 67
     1
  8
vports_text
100
AcDbMText
 10
46.06689214092427
 20
42.81109573309686
 30
0.0
 40
2.5
 41
121.6448
 46
0.0
 71
     1
 72
     5
  1
Figure 16:       {\fTimes New Roman|b0|i0|c0|p18;Gazetteer of Sites and Finds}
  7
TNR-Bold
 73
     1
 44
1.0
  0
POINT
  5
388
330
1B
100
AcDbEntity
 67
     1
  8
vports
100
AcDbPoint
 10
0.0
 20
0.0
 30
0.0
  0
LINE
  5
389
330
1B
100
AcDbEntity
 67
     1
  8
vports_text
 48
0.005
100
AcDbLine
 39
4.5
 10
190.6797817650644
 20
234.184177415078
 30
0.0
 11
189.5547817650645
 21
234.184177415078
 31
0.0
  0
SOLID
  5
38A
330
1B
100
AcDbEntity
 67
     1
  8
vports_text
 48
0.005
100
AcDbTrace
 10
190.6797817650646
 20
245.4341774150781
 30
0.0
 11
189.3297817650645
 21
242.5113416773056
 31
0.0
 12
190.6797817650645
 22
243.1302713756931
 32
0.0
 13
190.6797817650645
 23
243.1302713756931
 33
0.0
 39
3.375
  0
LINE
  5
38B
330
1B
100
AcDbEntity
 67
     1
  8
vports_text
 48
0.005
100
AcDbLine
 39
4.5
 10
190.6797817650645
 20
222.9341774150781
 30
0.0
 11
190.6797817650645
 21
245.4341774150781
 31
0.0
  0
LINE
  5
38C
330
1B
100
AcDbEntity
 67
     1
  8
vports_text
 48
0.005
100
AcDbLine
 39
4.5
 10
190.6797817650644
 20
234.184177415078
 30
0.0
 11
191.8047817650644
 21
234.184177415078
 31
0.0
  0
SOLID
  5
38D
330
1B
100
AcDbEntity
 67
     1
  8
vports_text
 48
0.005
100
AcDbTrace
 10
190.6797817650646
 20
245.4341774150781
 30
0.0
 11
192.0297817650645
 21
242.5113416773055
 31
0.0
 12
190.6797817650645
 22
243.1302713756931
 32
0.0
 13
190.6797817650645
 23
243.1302713756931
 33
0.0
 39
3.375
  0
TEXT
  5
38E
330
1B
100
AcDbEntity
 67
     1
  8
vports_text
 48
0.005
100
AcDbText
 10
189.3712020967154
 20
249.7164144538388
 30
0.0
 40
2.5
  1
N
  7
TNR-Regular
 72
     1
 11
190.6797817650644
 21
249.7164144538388
 31
0.0
100
AcDbText
  0
TEXT
  5
38F
330
1B
100
AcDbEntity
 67
     1
  8
vports_text
100
AcDbText
 10
10.0
 20
278.0
 30
0.0
 40
2.0
  1
ARCHIVE REPORT FOR AN ARCHAEOLOGICAL EXCAVATION AT CAMS HILL, FAREHAM, HAMPSHIRE
  7
TNR-Italic
100
AcDbText
  0
TEXT
  5
390
330
1B
100
AcDbEntity
 67
     1
  8
vports_text
100
AcDbText
 10
67.93055095076113
 20
10.64292340475481
 30
0.0
 40
2.0
  1
© AOC ARCHAEOLOGY GROUP - NOVEMBER 2006
  7
TNR-Italic
100
AcDbText
  0
LWPOLYLINE
  5
396
102
{ACAD_REACTORS
330
2A8
102
}
330
1B
100
AcDbEntity
 67
     1
  8
vports_text
100
AcDbPolyline
 90
        6
 70
     1
 43
0.0
 10
11.49897213966051
 20
255.8553383483535
 10
182.674426435218
 20
255.8553383483535
 10
182.674426435218
 20
215.8208978244243
 10
197.4458563143037
 20
215.8208978244243
 10
197.5388568888548
 20
67.33822466517745
 10
11.49897213966051
 20
67.33822466517745
  0
LWPOLYLINE
  5
3B0
102
{ACAD_REACTORS
330
3B7
102
}
330
1B
100
AcDbEntity
 67
     1
  8
Search Radius
100
AcDbPolyline
 90
        4
 70
     1
 43
0.0
 10
12.37782113478603
 20
25.70682572807277
 10
12.37782113478603
 20
22.87839860332658
 10
15.20624825953222
 20
22.87839860332658
 10
15.20624825953222
 20
25.70682572807277
  0
TEXT
  5
3B2
330
1B
100
AcDbEntity
 67
     1
  8
vports_text
100
AcDbText
 10
16.93394124370069
 20
23.39949929654878
 30
0.0
 40
2.0
  1
Site
  7
TNR-Italic
100
AcDbText
  0
HATCH
  5
3B7
330
1B
100
AcDbEntity
 67
     1
  8
Search Radius
100
AcDbHatch
 10
0.0
 20
0.0
 30
0.0
210
0.0
220
0.0
230
1.0
  2
ANSI37
 70
     0
 71
     1
 91
        1
 92
        7
 72
     0
 73
     1
 93
        4
 10
15.20624825953222
 20
25.70682572807278
 10
12.37782113478603
 20
25.70682572807277
 10
12.37782113478603
 20
22.87839860332658
 10
15.20624825953222
 20
22.87839860332658
 97
        1
330
3B0
 75
     0
 76
     1
 52
0.0
 41
0.4
 77
     0
 78
     2
 53
45.0
 43
0.0
 44
0.0
 45
-0.8980256121069152
 46
0.8980256121069154
 79
     0
 53
135.0
 43
0.0
 44
0.0
 45
-0.8980256121069154
 46
-0.8980256121069152
 79
     0
 47
0.0545255933905046
 98
        1
 10
14.78545909837749
 20
24.77431346760386
  0
ENDSEC
  0
SECTION
  2
OBJECTS
  0
DICTIONARY
  5
C
330
0
100
AcDbDictionary
281
     1
  3
ACAD_COLOR
350
3A2
  3
ACAD_DETAILVIEWSTYLE
350
47A
  3
ACAD_GROUP
350
D
  3
ACAD_IMAGE_DICT
350
40
  3
ACAD_IMAGE_VARS
350
41
  3
ACAD_LAYOUT
350
1A
  3
ACAD_MATERIAL
350
3A1
  3
ACAD_MLEADERSTYLE
350
436
  3
ACAD_MLINESTYLE
350
17
  3
ACAD_PLOTSETTINGS
350
19
  3
ACAD_PLOTSTYLENAME
350
E
  3
ACAD_SCALELIST
350
411
  3
ACAD_SECTIONVIEWSTYLE
350
47B
  3
ACAD_TABLESTYLE
350
3A3
  3
ACAD_VISUALSTYLE
350
3F8
  3
ACDB_RECOMPOSE_DATA
350
46D
  3
AcDbVariableDictionary
350
237
  3
AcDsDecomposeData
350
46E
  0
DICTIONARY
  5
3AD
330
2
100
AcDbDictionary
280
     1
281
     1
  3
ACAD_LAYERFILTERS
360
3AF
  3
ACAD_LAYERSTATES
360
3D9
  3
ACLYDICTIONARY
360
3AE
  0
DICTIONARY
  5
239
330
1F
100
AcDbDictionary
280
     1
281
     1
  3
ACAD_SORTENTS
360
23A
  0
DICTIONARY
  5
301
330
1B
100
AcDbDictionary
280
     1
281
     1
  3
ACAD_SORTENTS
360
302
  0
IMAGEDEF_REACTOR
  5
43
330
44
100
AcDbRasterImageDefReactor
 90
        2
330
44
  0
DICTIONARY
  5
3A2
102
{ACAD_REACTORS
330
C
102
}
330
C
100
AcDbDictionary
281
     1
  0
DICTIONARY
  5
47A
102
{ACAD_REACTORS
330
C
102
}
330
C
100
AcDbDictionary
281
     1
  0
DICTIONARY
  5
D
102
{ACAD_REACTORS
330
C
102
}
330
C
100
AcDbDictionary
281
     1
  0
DICTIONARY
  5
40
102
{ACAD_REACTORS
330
C
102
}
330
C
100
AcDbDictionary
281
     1
  3
Fareham BW LocMap
350
42
  0
RASTERVARIABLES
  5
41
102
{ACAD_REACTORS
330
C
102
}
330
C
100
AcDbRasterVariables
 90
        0
 70
     1
 71
     1
 72
     1
  0
DICTIONARY
  5
1A
102
{ACAD_REACTORS
330
C
102
}
330
C
100
AcDbDictionary
281
     1
  3
Layout1
350
1E
  3
Layout2
350
26
  3
Model
350
22
  0
DICTIONARY
  5
3A1
102
{ACAD_REACTORS
330
C
102
}
330
C
100
AcDbDictionary
281
     1
  3
ByBlock
350
434
  3
ByLayer
350
433
  3
Global
350
435
  0
DICTIONARY
  5
436
102
{ACAD_REACTORS
330
C
102
}
330
C
100
AcDbDictionary
281
     1
  3
Standard
350
437
  0
DICTIONARY
  5
17
102
{ACAD_REACTORS
330
C
102
}
330
C
100
AcDbDictionary
281
     1
  3
Standard
350
18
  0
DICTIONARY
  5
19
102
{ACAD_REACTORS
330
C
102
}
330
C
100
AcDbDictionary
281
     1
  0
ACDBDICTIONARYWDFLT
  5
E
102
{ACAD_REACTORS
330
C
102
}
330
C
100
AcDbDictionary
281
     1
  3
Normal
350
F
100
AcDbDictionaryWithDefault
340
F
  0
DICTIONARY
  5
411
102
{ACAD_REACTORS
330
C
102
}
330
C
100
AcDbDictionary
281
     1
  3
A0
350
412
  3
A1
350
413
  3
A2
350
414
  3
A3
350
415
  3
A4
350
416
  3
A5
350
417
  3
A6
350
418
  3
A7
350
419
  3
A8
350
41A
  3
A9
350
41B
  3
B0
350
41C
  3
B1
350
41D
  3
B2
350
41E
  3
B3
350
41F
  3
B4
350
420
  3
B5
350
421
  3
B6
350
422
  3
B7
350
423
  3
B8
350
424
  3
B9
350
425
  3
C0
350
426
  3
C1
350
427
  3
C2
350
428
  3
C3
350
429
  3
C4
350
42A
  3
C5
350
42B
  3
C6
350
42C
  3
C7
350
42D
  3
C8
350
42E
  3
C9
350
42F
  3
D0
350
430
  3
D1
350
431
  3
D2
350
432
  0
DICTIONARY
  5
47B
102
{ACAD_REACTORS
330
C
102
}
330
C
100
AcDbDictionary
281
     1
  0
DICTIONARY
  5
3A3
102
{ACAD_REACTORS
330
C
102
}
330
C
100
AcDbDictionary
281
     1
  3
Standard
350
3A4
  0
DICTIONARY
  5
3F8
102
{ACAD_REACTORS
330
C
102
}
330
C
100
AcDbDictionary
281
     1
  3
2dWireframe
350
3FD
  3
Basic
350
400
  3
Brighten
350
404
  3
ColorChange
350
408
  3
Conceptual
350
402
  3
Dim
350
403
  3
EdgeColorOff
350
40B
  3
Facepattern
350
407
  3
Flat
350
3F9
  3
FlatWithEdges
350
3FA
  3
Gouraud
350
3FB
  3
GouraudWithEdges
350
3FC
  3
Hidden
350
3FF
  3
JitterOff
350
409
  3
Linepattern
350
406
  3
OverhangOff
350
40A
  3
Realistic
350
401
  3
Shaded
350
410
  3
Shaded with edges
350
40F
  3
Shades of Gray
350
40C
  3
Sketchy
350
40D
  3
Thicken
350
405
  3
Wireframe
350
3FE
  3
X-Ray
350
40E
  0
XRECORD
  5
46D
102
{ACAD_REACTORS
330
C
102
}
330
C
100
AcDbXrecord
280
     1
 90
        1
330
3A4
  0
DICTIONARY
  5
237
102
{ACAD_REACTORS
330
C
102
}
330
C
100
AcDbDictionary
281
     1
  3
CANNOSCALE
350
438
  3
CMLEADERSTYLE
350
477
  3
CTABLESTYLE
350
3B1
  3
MSLTSCALE
350
478
  3
SORTENTS
350
238
  3
XCLIPFRAME
350
479
  0
DICTIONARY
  5
46E
102
{ACAD_REACTORS
330
C
102
}
330
C
100
AcDbDictionary
281
     1
  3
AcDsRecords
350
46F
  3
AcDsSchemas
350
470
1001
ACAD
1070
     2
  0
DICTIONARY
  5
3AF
102
{ACAD_REACTORS
330
3AD
102
}
330
3AD
100
AcDbDictionary
281
     1
  0
DICTIONARY
  5
3D9
102
{ACAD_REACTORS
330
3AD
102
}
330
3AD
100
AcDbDictionary
281
     1
  0
DICTIONARY
  5
3AE
102
{ACAD_REACTORS
330
3AD
102
}
330
3AD
100
AcDbDictionary
281
     1
1001
ACAD
1000
<All
  0
SORTENTSTABLE
  5
23A
102
{ACAD_REACTORS
330
239
102
}
330
239
100
AcDbSortentsTable
330
1F
331
44
  5
140
331
140
  5
151
331
141
  5
153
331
142
  5
154
331
143
  5
156
331
144
  5
157
331
145
  5
158
331
146
  5
159
331
147
  5
15A
331
148
  5
15B
331
149
  5
15C
331
14A
  5
15D
331
14B
  5
15E
331
14C
  5
15F
331
14D
  5
160
331
14E
  5
161
331
150
  5
162
331
151
  5
163
331
153
  5
164
331
154
  5
141
331
156
  5
165
331
157
  5
146
331
158
  5
166
331
159
  5
167
331
15A
  5
168
331
15B
  5
169
331
15C
  5
16A
331
15D
  5
16B
331
15E
  5
16C
331
15F
  5
16D
331
160
  5
16E
331
161
  5
16F
331
162
  5
171
331
163
  5
172
331
164
  5
174
331
165
  5
175
331
166
  5
177
331
167
  5
178
331
168
  5
179
331
169
  5
17A
331
16A
  5
17B
331
16B
  5
17C
331
16C
  5
17D
331
16D
  5
180
331
16E
  5
181
331
16F
  5
182
331
177
  5
186
331
178
  5
187
331
179
  5
188
331
17A
  5
189
331
17B
  5
18A
331
17C
  5
18B
331
17D
  5
142
331
180
  5
18C
331
181
  5
18D
331
182
  5
18E
331
183
  5
18F
331
184
  5
190
331
186
  5
191
331
187
  5
143
331
188
  5
192
331
189
  5
193
331
18A
  5
194
331
18B
  5
195
331
18C
  5
196
331
18D
  5
198
331
18E
  5
199
331
18F
  5
19B
331
190
  5
19C
331
191
  5
19E
331
192
  5
19F
331
193
  5
1A0
331
194
  5
1A1
331
195
  5
1A2
331
196
  5
1A3
331
198
  5
1A4
331
199
  5
1A5
331
19B
  5
1A6
331
19C
  5
1A7
331
19E
  5
1A8
331
19F
  5
149
331
1A0
  5
1A9
331
1A1
  5
1AA
331
1A2
  5
1AB
331
1A3
  5
1AC
331
1A4
  5
1AD
331
1A5
  5
1AE
331
1A6
  5
1AF
331
1A7
  5
1B0
331
1A8
  5
1B1
331
1A9
  5
1B2
331
1AA
  5
1B3
331
1AB
  5
1B4
331
1AC
  5
1B5
331
1AD
  5
1B6
331
1AE
  5
1B7
331
1AF
  5
1B8
331
1B0
  5
1B9
331
1B1
  5
1BA
331
1B2
  5
1BB
331
1B3
  5
1BC
331
1B4
  5
1BD
331
1B5
  5
1BE
331
1B6
  5
1BF
331
1B7
  5
1C0
331
1B8
  5
1C1
331
1B9
  5
1C2
331
1BA
  5
1C3
331
1BB
  5
1C4
331
1BC
  5
1C5
331
1BD
  5
1C6
331
1BE
  5
1C7
331
1BF
  5
1C8
331
1C0
  5
1C9
331
1C1
  5
1CA
331
1C2
  5
1CB
331
1C3
  5
1CC
331
1C4
  5
1CD
331
1C5
  5
1CE
331
1C6
  5
1CF
331
1C7
  5
1D0
331
1C8
  5
1D1
331
1C9
  5
1D2
331
1CA
  5
1D3
331
1CB
  5
1D4
331
1CC
  5
1D5
331
1CD
  5
1D6
331
1CE
  5
1D7
331
1CF
  5
1D8
331
1D0
  5
1D9
331
1D1
  5
1DA
331
1D2
  5
1DB
331
1D3
  5
1DC
331
1D4
  5
1DD
331
1D5
  5
1DE
331
1D6
  5
1E0
331
1D7
  5
1E1
331
1D8
  5
1E3
331
1D9
  5
1E4
331
1DA
  5
1E6
331
1DB
  5
1E7
331
1DC
  5
1E9
331
1DD
  5
1EA
331
1DE
  5
1EC
331
1E0
  5
1ED
331
1E1
  5
1EF
331
1E3
  5
1F0
331
1E4
  5
1F1
331
1E6
  5
1F2
331
1E7
  5
14A
331
1E9
  5
1F3
331
1EA
  5
14B
331
1EF
  5
1F6
331
1F0
  5
1F8
331
1F1
  5
1F9
331
1F2
  5
1FA
331
1F3
  5
1FB
331
1F5
  5
1FC
331
1F6
  5
144
331
1F8
  5
1FD
331
1F9
  5
1FE
331
1FA
  5
1FF
331
1FB
  5
201
331
1FC
  5
202
331
1FD
  5
204
331
1FE
  5
145
331
201
  5
207
331
202
  5
14D
331
204
  5
208
331
205
  5
14E
331
207
  5
209
331
208
  5
20A
331
209
  5
20B
331
20A
  5
20D
331
20B
  5
20E
331
20D
  5
210
331
20E
  5
211
331
210
  5
212
331
211
  5
213
331
212
  5
214
331
213
  5
215
331
214
  5
216
331
215
  5
218
331
216
  5
219
331
218
  5
21A
331
219
  5
21B
331
21A
  5
21C
331
21B
  5
21D
331
21C
  5
21E
331
21D
  5
21F
331
21E
  5
220
331
21F
  5
221
331
220
  5
222
331
221
  5
223
331
222
  5
225
331
223
  5
226
331
225
  5
228
331
226
  5
150
331
228
  5
229
331
229
  5
22A
331
22A
  5
22B
331
22B
  5
22C
331
22C
  5
22E
331
22E
  5
22F
331
22F
  5
230
331
236
  5
234
331
241
  5
241
331
243
  5
243
  0
SORTENTSTABLE
  5
302
102
{ACAD_REACTORS
330
301
102
}
330
301
100
AcDbSortentsTable
330
1B
331
2A6
  5
2CE
331
2A8
  5
2CF
331
2CC
  5
2D0
331
2CD
  5
2D1
331
2CE
  5
2D2
331
2CF
  5
2D3
331
2D0
  5
2D4
331
2D1
  5
2D5
331
2D2
  5
2D6
331
2D3
  5
2D7
331
2D4
  5
2D8
331
2D5
  5
2D9
331
2D6
  5
2DA
331
2D7
  5
2DB
331
2D8
  5
2EE
331
2D9
  5
2EF
331
2DA
  5
2F0
331
2DB
  5
2F1
331
2EE
  5
2F2
331
2EF
  5
2F3
331
2F0
  5
2A6
331
2F1
  5
2F4
331
2F2
  5
2F5
331
2F3
  5
2A8
331
2F4
  5
2F6
331
2F5
  5
2FE
331
2F6
  5
2CC
331
2FE
  5
2CD
331
2FF
  5
2FF
331
300
  5
300
331
309
  5
309
331
31D
  5
31D
331
31E
  5
31E
331
31F
  5
31F
331
320
  5
320
331
321
  5
321
331
322
  5
322
331
323
  5
323
331
326
  5
326
331
327
  5
327
331
385
  5
385
331
386
  5
386
331
387
  5
387
331
388
  5
388
331
389
  5
389
331
38A
  5
38A
331
38B
  5
38B
331
38C
  5
38C
331
38D
  5
38D
331
38E
  5
38E
331
38F
  5
38F
331
390
  5
390
331
396
  5
396
331
3B0
  5
3B2
331
3B2
  5
3B3
331
3B7
  5
3B0
  0
IMAGEDEF
  5
42
102
{ACAD_REACTORS
330
40
330
43
102
}
330
40
100
AcDbRasterImageDef
 90
        0
  1
P:\Project Files (non graphics)\5700 - 5799\5760 - Fareham\SMR Search\Gaz Scan\Fareham BW LocMap.tif
 10
2418.0
 20
1975.0
 11
0.04233333333333333
 21
0.04233333333333333
280
     1
281
     5
  0
LAYOUT
  5
1E
102
{ACAD_REACTORS
330
1A
102
}
102
{ACAD_XDICTIONARY
360
439
102
}
330
1A
100
AcDbPlotSettings
  1

  2
\\ml350\CLC2620
  4
A4
  6

 40
3.96875
 41
3.630109548568726
 42
3.587738037109375
 43
3.630096435546875
 44
209.8886566162109
 45
297.0530090332031
 46
0.0
 47
0.0
 48
0.0
 49
0.0
140
0.0
141
0.0
142
1.0
143
1.0
 70
   688
 72
     1
 73
     0
 74
     5
  7

 75
    16
 76
     0
 77
     2
 78
   300
147
1.0
148
0.0
149
0.0
100
AcDbLayout
  1
Layout1
 70
     0
 71
     1
 10
-3.96875
 20
-3.630109548568726
 11
205.9199066162109
 21
293.4228994846344
 12
0.0
 22
0.0
 32
0.0
 14
-0.0038728451563657
 24
-0.0130388269629975
 34
-0.0002059391661842
 15
197.5513911689734
 25
280.6498383410892
 35
4.500206022989692
146
0.0
 13
0.0
 23
0.0
 33
0.0
 16
1.0
 26
0.0
 36
0.0
 17
0.0
 27
1.0
 37
0.0
 76
     0
330
1B
331
2A6
1001
ACAD_PSEXT
1000
\\ml350\CLC2620
1000
Canon CLC-iR C2620-C1 PS Ver2.1
1000
Print Room
1000

1070
     0
  0
LAYOUT
  5
26
102
{ACAD_REACTORS
330
1A
102
}
330
1A
100
AcDbPlotSettings
  1

  2

  4

  6

 40
0.0
 41
0.0
 42
0.0
 43
0.0
 44
0.0
 45
0.0
 46
0.0
 47
0.0
 48
0.0
 49
0.0
140
0.0
141
0.0
142
1.0
143
1.0
 70
   688
 72
     0
 73
     0
 74
     5
  7

 75
    16
 76
     0
 77
     2
 78
   300
147
1.0
148
0.0
149
0.0
100
AcDbLayout
  1
Layout2
 70
     1
 71
     2
 10
0.0
 20
0.0
 11
12.0
 21
9.0
 12
0.0
 22
0.0
 32
0.0
 14
0.0
 24
0.0
 34
0.0
 15
0.0
 25
0.0
 35
0.0
146
0.0
 13
0.0
 23
0.0
 33
0.0
 16
1.0
 26
0.0
 36
0.0
 17
0.0
 27
1.0
 37
0.0
 76
     0
330
23
  0
LAYOUT
  5
22
102
{ACAD_REACTORS
330
1A
102
}
330
1A
100
AcDbPlotSettings
  1

  2

  4

  6

 40
0.0
 41
0.0
 42
0.0
 43
0.0
 44
0.0
 45
0.0
 46
0.0
 47
0.0
 48
0.0
 49
0.0
140
0.0
141
0.0
142
1.0
143
1.0
 70
  1712
 72
     0
 73
     0
 74
     0
  7

 75
     0
 76
     0
 77
     2
 78
   300
147
1.0
148
0.0
149
0.0
100
AcDbLayout
  1
Model
 70
     1
 71
     0
 10
0.0
 20
0.0
 11
12.0
 21
9.0
 12
0.0
 22
0.0
 32
0.0
 14
0.0
 24
0.0
 34
0.0
 15
0.0
 25
0.0
 35
0.0
146
0.0
 13
0.0
 23
0.0
 33
0.0
 16
1.0
 26
0.0
 36
0.0
 17
0.0
 27
1.0
 37
0.0
 76
     0
330
1F
331
39F
  0
MATERIAL
  5
434
102
{ACAD_REACTORS
330
3A1
102
}
330
3A1
100
AcDbMaterial
  1
ByBlock
 72
     1
 94
      127
  0
MATERIAL
  5
433
102
{ACAD_REACTORS
330
3A1
102
}
330
3A1
100
AcDbMaterial
  1
ByLayer
 72
     1
 94
      127
  0
MATERIAL
  5
435
102
{ACAD_REACTORS
330
3A1
102
}
330
3A1
100
AcDbMaterial
  1
Global
 72
     1
 94
      127
  0
MLEADERSTYLE
  5
437
102
{ACAD_REACTORS
330
436
102
}
330
436
100
AcDbMLeaderStyle
179
     2
170
     2
171
     1
172
     0
 90
        2
 40
0.0
 41
0.0
173
     1
 91
-1056964608
340
14
 92
       -2
290
     1
 42
2.0
291
     1
 43
8.0
  3
Standard
341
0
 44
4.0
300

342
11
174
     1
178
     6
175
     1
176
     0
 93
-1056964608
 45
4.0
292
     0
297
     0
 46
4.0
343
0
 94
-1056964608
 47
1.0
 49
1.0
140
1.0
293
     1
141
0.0
294
     1
177
     0
142
1.0
295
     0
296
     0
143
3.75
271
     0
272
     9
273
     9
  0
MLINESTYLE
  5
18
102
{ACAD_REACTORS
330
17
102
}
330
17
100
AcDbMlineStyle
  2
STANDARD
 70
     0
  3

 62
   256
 51
90.0
 52
90.0
 71
     2
 49
0.5
 62
   256
  6
BYLAYER
 49
-0.5
 62
   256
  6
BYLAYER
  0
ACDBPLACEHOLDER
  5
F
102
{ACAD_REACTORS
330
E
102
}
330
E
  0
SCALE
  5
412
102
{ACAD_REACTORS
330
411
102
}
330
411
100
AcDbScale
 70
     0
300
1:1
140
1.0
141
1.0
290
     1
  0
SCALE
  5
413
102
{ACAD_REACTORS
330
411
102
}
330
411
100
AcDbScale
 70
     0
300
1:2
140
1.0
141
2.0
290
     0
  0
SCALE
  5
414
102
{ACAD_REACTORS
330
411
102
}
330
411
100
AcDbScale
 70
     0
300
1:4
140
1.0
141
4.0
290
     0
  0
SCALE
  5
415
102
{ACAD_REACTORS
330
411
102
}
330
411
100
AcDbScale
 70
     0
300
1:5
140
1.0
141
5.0
290
     0
  0
SCALE
  5
416
102
{ACAD_REACTORS
330
411
102
}
330
411
100
AcDbScale
 70
     0
300
1:8
140
1.0
141
8.0
290
     0
  0
SCALE
  5
417
102
{ACAD_REACTORS
330
411
102
}
330
411
100
AcDbScale
 70
     0
300
1:10
140
1.0
141
10.0
290
     0
  0
SCALE
  5
418
102
{ACAD_REACTORS
330
411
102
}
330
411
100
AcDbScale
 70
     0
300
1:16
140
1.0
141
16.0
290
     0
  0
SCALE
  5
419
102
{ACAD_REACTORS
330
411
102
}
330
411
100
AcDbScale
 70
     0
300
1:20
140
1.0
141
20.0
290
     0
  0
SCALE
  5
41A
102
{ACAD_REACTORS
330
411
102
}
330
411
100
AcDbScale
 70
     0
300
1:30
140
1.0
141
30.0
290
     0
  0
SCALE
  5
41B
102
{ACAD_REACTORS
330
411
102
}
330
411
100
AcDbScale
 70
     0
300
1:40
140
1.0
141
40.0
290
     0
  0
SCALE
  5
41C
102
{ACAD_REACTORS
330
411
102
}
330
411
100
AcDbScale
 70
     0
300
1:50
140
1.0
141
50.0
290
     0
  0
SCALE
  5
41D
102
{ACAD_REACTORS
330
411
102
}
330
411
100
AcDbScale
 70
     0
300
1:100
140
1.0
141
100.0
290
     0
  0
SCALE
  5
41E
102
{ACAD_REACTORS
330
411
102
}
330
411
100
AcDbScale
 70
     0
300
2:1
140
2.0
141
1.0
290
     0
  0
SCALE
  5
41F
102
{ACAD_REACTORS
330
411
102
}
330
411
100
AcDbScale
 70
     0
300
4:1
140
4.0
141
1.0
290
     0
  0
SCALE
  5
420
102
{ACAD_REACTORS
330
411
102
}
330
411
100
AcDbScale
 70
     0
300
8:1
140
8.0
141
1.0
290
     0
  0
SCALE
  5
421
102
{ACAD_REACTORS
330
411
102
}
330
411
100
AcDbScale
 70
     0
300
10:1
140
10.0
141
1.0
290
     0
  0
SCALE
  5
422
102
{ACAD_REACTORS
330
411
102
}
330
411
100
AcDbScale
 70
     0
300
100:1
140
100.0
141
1.0
290
     0
  0
SCALE
  5
423
102
{ACAD_REACTORS
330
411
102
}
330
411
100
AcDbScale
 70
     0
300
1/128" = 1'-0"
140
0.0078125
141
12.0
290
     0
  0
SCALE
  5
424
102
{ACAD_REACTORS
330
411
102
}
330
411
100
AcDbScale
 70
     0
300
1/64" = 1'-0"
140
0.015625
141
12.0
290
     0
  0
SCALE
  5
425
102
{ACAD_REACTORS
330
411
102
}
330
411
100
AcDbScale
 70
     0
300
1/32" = 1'-0"
140
0.03125
141
12.0
290
     0
  0
SCALE
  5
426
102
{ACAD_REACTORS
330
411
102
}
330
411
100
AcDbScale
 70
     0
300
1/16" = 1'-0"
140
0.0625
141
12.0
290
     0
  0
SCALE
  5
427
102
{ACAD_REACTORS
330
411
102
}
330
411
100
AcDbScale
 70
     0
300
3/32" = 1'-0"
140
0.09375
141
12.0
290
     0
  0
SCALE
  5
428
102
{ACAD_REACTORS
330
411
102
}
330
411
100
AcDbScale
 70
     0
300
1/8" = 1'-0"
140
0.125
141
12.0
290
     0
  0
SCALE
  5
429
102
{ACAD_REACTORS
330
411
102
}
330
411
100
AcDbScale
 70
     0
300
3/16" = 1'-0"
140
0.1875
141
12.0
290
     0
  0
SCALE
  5
42A
102
{ACAD_REACTORS
330
411
102
}
330
411
100
AcDbScale
 70
     0
300
1/4" = 1'-0"
140
0.25
141
12.0
290
     0
  0
SCALE
  5
42B
102
{ACAD_REACTORS
330
411
102
}
330
411
100
AcDbScale
 70
     0
300
3/8" = 1'-0"
140
0.375
141
12.0
290
     0
  0
SCALE
  5
42C
102
{ACAD_REACTORS
330
411
102
}
330
411
100
AcDbScale
 70
     0
300
1/2" = 1'-0"
140
0.5
141
12.0
290
     0
  0
SCALE
  5
42D
102
{ACAD_REACTORS
330
411
102
}
330
411
100
AcDbScale
 70
     0
300
3/4" = 1'-0"
140
0.75
141
12.0
290
     0
  0
SCALE
  5
42E
102
{ACAD_REACTORS
330
411
102
}
330
411
100
AcDbScale
 70
     0
300
1" = 1'-0"
140
1.0
141
12.0
290
     0
  0
SCALE
  5
42F
102
{ACAD_REACTORS
330
411
102
}
330
411
100
AcDbScale
 70
     0
300
1-1/2" = 1'-0"
140
1.5
141
12.0
290
     0
  0
SCALE
  5
430
102
{ACAD_REACTORS
330
411
102
}
330
411
100
AcDbScale
 70
     0
300
3" = 1'-0"
140
3.0
141
12.0
290
     0
  0
SCALE
  5
431
102
{ACAD_REACTORS
330
411
102
}
330
411
100
AcDbScale
 70
     0
300
6" = 1'-0"
140
6.0
141
12.0
290
     0
  0
SCALE
  5
432
102
{ACAD_REACTORS
330
411
102
}
330
411
100
AcDbScale
 70
     0
300
1'-0" = 1'-0"
140
12.0
141
12.0
290
     0
  0
TABLESTYLE
  5
3A4
102
{ACAD_REACTORS
330
3A3
102
}
102
{ACAD_XDICTIONARY
360
43B
102
}
330
3A3
100
AcDbTableStyle
  3
Standard
 70
     0
 71
     8
 40
1.5
 41
1.5
280
     0
281
     0
  7
Standard
140
4.5
170
     2
 62
     0
 63
   257
283
     0
 90
        4
 91
        0
  1

274
    -2
284
     1
 64
     0
275
    -2
285
     1
 65
     0
276
    -2
286
     1
 66
     0
277
    -2
287
     1
 67
     0
278
    -2
288
     1
 68
     0
279
    -2
289
     1
 69
     0
  7
Standard
140
6.0
170
     5
 62
     0
 63
   257
283
     0
 90
        4
 91
        0
  1

274
    -2
284
     1
 64
     0
275
    -2
285
     1
 65
     0
276
    -2
286
     1
 66
     0
277
    -2
287
     1
 67
     0
278
    -2
288
     1
 68
     0
279
    -2
289
     1
 69
     0
  7
Standard
140
4.5
170
     5
 62
     0
 63
   257
283
     0
 90
        4
 91
        0
  1

274
    -2
284
     1
 64
     0
275
    -2
285
     1
 65
     0
276
    -2
286
     1
 66
     0
277
    -2
287
     1
 67
     0
278
    -2
288
     1
 68
     0
279
    -2
289
     1
 69
     0
  0
VISUALSTYLE
  5
3FD
102
{ACAD_REACTORS
330
3F8
102
}
102
{ACAD_XDICTIONARY
360
445
102
}
330
3F8
100
AcDbVisualStyle
  2
2dWireframe
 70
     4
177
     2
291
     0
 71
     0
176
     1
 72
     2
176
     1
 73
     0
176
     1
 90
        0
176
     1
 40
0.6
176
     1
 41
30.0
176
     1
 62
     5
 63
     7
421
 16777215
176
     1
 74
     1
176
     1
 91
        4
176
     1
 64
     7
176
     1
 65
   257
176
     1
 75
     1
176
     1
175
     1
176
     1
 42
1.0
176
     1
 92
        0
176
     1
 66
   257
176
     1
 43
1.0
176
     1
 76
     1
176
     1
 77
     6
176
     1
 78
     2
176
     1
 67
     7
176
     1
 79
     5
176
     1
170
     0
176
     1
171
     0
176
     1
290
     0
176
     1
 93
        1
176
     1
 44
0.0
176
     1
173
     0
176
     1
  0
VISUALSTYLE
  5
400
102
{ACAD_REACTORS
330
3F8
102
}
102
{ACAD_XDICTIONARY
360
44B
102
}
330
3F8
100
AcDbVisualStyle
  2
Basic
 70
     7
177
     2
291
     1
 71
     1
176
     1
 72
     0
176
     1
 73
     1
176
     1
 90
        0
176
     1
 40
0.6
176
     1
 41
30.0
176
     1
 62
     5
 63
     7
421
 16777215
176
     1
 74
     0
176
     1
 91
        4
176
     1
 64
     7
176
     1
 65
   257
176
     1
 75
     1
176
     1
175
     1
176
     1
 42
1.0
176
     1
 92
        8
176
     1
 66
     7
176
     1
 43
1.0
176
     1
 76
     1
176
     1
 77
     6
176
     1
 78
     2
176
     1
 67
     7
176
     1
 79
     5
176
     1
170
     0
176
     1
171
     0
176
     1
290
     0
176
     1
 93
        1
176
     1
 44
0.0
176
     1
173
     0
176
     1
  0
VISUALSTYLE
  5
404
102
{ACAD_REACTORS
330
3F8
102
}
102
{ACAD_XDICTIONARY
360
453
102
}
330
3F8
100
AcDbVisualStyle
  2
Brighten
 70
    12
177
     2
291
     1
 71
     2
176
     1
 72
     2
176
     1
 73
     0
176
     1
 90
        0
176
     1
 40
0.6
176
     1
 41
30.0
176
     1
 62
     5
 63
     7
421
 16777215
176
     1
 74
     1
176
     1
 91
        4
176
     1
 64
     7
176
     1
 65
   257
176
     1
 75
     1
176
     1
175
     1
176
     1
 42
1.0
176
     1
 92
        8
176
     1
 66
     7
176
     1
 43
1.0
176
     1
 76
     1
176
     1
 77
     6
176
     1
 78
     2
176
     1
 67
     7
176
     1
 79
     5
176
     1
170
     0
176
     1
171
     0
176
     1
290
     0
176
     1
 93
        1
176
     1
 44
50.0
176
     1
173
     0
176
     1
  0
VISUALSTYLE
  5
408
102
{ACAD_REACTORS
330
3F8
102
}
102
{ACAD_XDICTIONARY
360
45B
102
}
330
3F8
100
AcDbVisualStyle
  2
ColorChange
 70
    16
177
     2
291
     1
 71
     2
176
     1
 72
     2
176
     1
 73
     3
176
     1
 90
        0
176
     1
 40
0.6
176
     1
 41
30.0
176
     1
 62
     5
 63
     8
421
  8421504
176
     1
 74
     1
176
     1
 91
        4
176
     1
 64
     7
176
     1
 65
   257
176
     1
 75
     1
176
     1
175
     1
176
     1
 42
1.0
176
     1
 92
        8
176
     1
 66
     8
424
  8421504
176
     1
 43
1.0
176
     1
 76
     1
176
     1
 77
     6
176
     1
 78
     2
176
     1
 67
     7
176
     1
 79
     5
176
     1
170
     0
176
     1
171
     0
176
     1
290
     0
176
     1
 93
        1
176
     1
 44
0.0
176
     1
173
     0
176
     1
  0
VISUALSTYLE
  5
402
102
{ACAD_REACTORS
330
3F8
102
}
102
{ACAD_XDICTIONARY
360
44F
102
}
330
3F8
100
AcDbVisualStyle
  2
Conceptual
 70
     9
177
     2
291
     0
 71
     3
176
     1
 72
     2
176
     1
 73
     0
176
     1
 90
        0
176
     1
 40
0.6
176
     1
 41
30.0
176
     1
 62
     5
 63
     7
421
 16777215
176
     1
 74
     2
176
     1
 91
        2
176
     1
 64
     7
176
     1
 65
   257
176
     1
 75
     1
176
     1
175
     1
176
     1
 42
179.0
176
     1
 92
        8
176
     1
 66
     7
176
     1
 43
1.0
176
     1
 76
     1
176
     1
 77
     6
176
     1
 78
     2
176
     1
 67
     7
176
     1
 79
     3
176
     1
170
     0
176
     1
171
     0
176
     1
290
     0
176
     1
 93
        1
176
     1
 44
0.0
176
     1
173
     0
176
     1
  0
VISUALSTYLE
  5
403
102
{ACAD_REACTORS
330
3F8
102
}
102
{ACAD_XDICTIONARY
360
451
102
}
330
3F8
100
AcDbVisualStyle
  2
Dim
 70
    11
177
     2
291
     1
 71
     2
176
     1
 72
     2
176
     1
 73
     0
176
     1
 90
        0
176
     1
 40
0.6
176
     1
 41
30.0
176
     1
 62
     5
 63
     7
421
 16777215
176
     1
 74
     1
176
     1
 91
        4
176
     1
 64
     7
176
     1
 65
   257
176
     1
 75
     1
176
     1
175
     1
176
     1
 42
1.0
176
     1
 92
        8
176
     1
 66
     7
176
     1
 43
1.0
176
     1
 76
     1
176
     1
 77
     6
176
     1
 78
     2
176
     1
 67
     7
176
     1
 79
     5
176
     1
170
     0
176
     1
171
     0
176
     1
290
     0
176
     1
 93
        1
176
     1
 44
-50.0
176
     1
173
     0
176
     1
  0
VISUALSTYLE
  5
40B
102
{ACAD_REACTORS
330
3F8
102
}
102
{ACAD_XDICTIONARY
360
461
102
}
330
3F8
100
AcDbVisualStyle
  2
EdgeColorOff
 70
    22
177
     2
291
     1
 71
     2
176
     0
 72
     2
176
     0
 73
     0
176
     0
 90
        0
176
     0
 40
0.6
176
     0
 41
30.0
176
     0
 62
     5
 63
     7
421
 16777215
176
     0
 74
     1
176
     0
 91
        4
176
     0
 64
     7
176
     0
 65
   257
176
     0
 75
     1
176
     0
175
     1
176
     0
 42
1.0
176
     0
 92
        8
176
     2
 66
     7
176
     0
 43
1.0
176
     0
 76
     1
176
     0
 77
     6
176
     0
 78
     2
176
     0
 67
     7
176
     0
 79
     5
176
     0
170
     0
176
     0
171
     0
176
     0
290
     0
176
     0
 93
        1
176
     0
 44
0.0
176
     0
173
     0
176
     0
  0
VISUALSTYLE
  5
407
102
{ACAD_REACTORS
330
3F8
102
}
102
{ACAD_XDICTIONARY
360
459
102
}
330
3F8
100
AcDbVisualStyle
  2
Facepattern
 70
    15
177
     2
291
     1
 71
     2
176
     1
 72
     2
176
     1
 73
     0
176
     1
 90
        0
176
     1
 40
0.6
176
     1
 41
30.0
176
     1
 62
     5
 63
     7
421
 16777215
176
     1
 74
     1
176
     1
 91
        4
176
     1
 64
     7
176
     1
 65
   257
176
     1
 75
     1
176
     1
175
     1
176
     1
 42
1.0
176
     1
 92
        8
176
     1
 66
     7
176
     1
 43
1.0
176
     1
 76
     1
176
     1
 77
     6
176
     1
 78
     2
176
     1
 67
     7
176
     1
 79
     5
176
     1
170
     0
176
     1
171
     0
176
     1
290
     0
176
     1
 93
        1
176
     1
 44
0.0
176
     1
173
     0
176
     1
  0
VISUALSTYLE
  5
3F9
102
{ACAD_REACTORS
330
3F8
102
}
102
{ACAD_XDICTIONARY
360
43D
102
}
330
3F8
100
AcDbVisualStyle
  2
Flat
 70
     0
177
     2
291
     1
 71
     2
176
     1
 72
     1
176
     1
 73
     1
176
     1
 90
        2
176
     1
 40
0.6
176
     1
 41
30.0
176
     1
 62
     5
 63
     7
421
 16777215
176
     1
 74
     0
176
     1
 91
        0
176
     1
 64
     7
176
     1
 65
   257
176
     1
 75
     1
176
     1
175
     1
176
     1
 42
1.0
176
     1
 92
        8
176
     1
 66
     7
176
     1
 43
1.0
176
     1
 76
     1
176
     1
 77
     6
176
     1
 78
     2
176
     1
 67
     7
176
     1
 79
     5
176
     1
170
     0
176
     1
171
     0
176
     1
290
     0
176
     1
 93
       13
176
     1
 44
0.0
176
     1
173
     0
176
     1
  0
VISUALSTYLE
  5
3FA
102
{ACAD_REACTORS
330
3F8
102
}
102
{ACAD_XDICTIONARY
360
43F
102
}
330
3F8
100
AcDbVisualStyle
  2
FlatWithEdges
 70
     1
177
     2
291
     1
 71
     2
176
     1
 72
     1
176
     1
 73
     1
176
     1
 90
        2
176
     1
 40
0.6
176
     1
 41
30.0
176
     1
 62
     5
 63
     7
421
 16777215
176
     1
 74
     1
176
     1
 91
        0
176
     1
 64
     7
176
     1
 65
   257
176
     1
 75
     1
176
     1
175
     1
176
     1
 42
1.0
176
     1
 92
        0
176
     1
 66
   257
176
     1
 43
1.0
176
     1
 76
     1
176
     1
 77
     6
176
     1
 78
     2
176
     1
 67
     7
176
     1
 79
     5
176
     1
170
     0
176
     1
171
     0
176
     1
290
     0
176
     1
 93
       13
176
     1
 44
0.0
176
     1
173
     0
176
     1
  0
VISUALSTYLE
  5
3FB
102
{ACAD_REACTORS
330
3F8
102
}
102
{ACAD_XDICTIONARY
360
441
102
}
330
3F8
100
AcDbVisualStyle
  2
Gouraud
 70
     2
177
     2
291
     1
 71
     2
176
     1
 72
     2
176
     1
 73
     1
176
     1
 90
        2
176
     1
 40
0.6
176
     1
 41
30.0
176
     1
 62
     5
 63
     7
421
 16777215
176
     1
 74
     0
176
     1
 91
        0
176
     1
 64
     7
176
     1
 65
   257
176
     1
 75
     1
176
     1
175
     1
176
     1
 42
1.0
176
     1
 92
        0
176
     1
 66
     7
176
     1
 43
1.0
176
     1
 76
     1
176
     1
 77
     6
176
     1
 78
     2
176
     1
 67
     7
176
     1
 79
     5
176
     1
170
     0
176
     1
171
     0
176
     1
290
     0
176
     1
 93
       13
176
     1
 44
0.0
176
     1
173
     0
176
     1
  0
VISUALSTYLE
  5
3FC
102
{ACAD_REACTORS
330
3F8
102
}
102
{ACAD_XDICTIONARY
360
443
102
}
330
3F8
100
AcDbVisualStyle
  2
GouraudWithEdges
 70
     3
177
     2
291
     1
 71
     2
176
     1
 72
     2
176
     1
 73
     1
176
     1
 90
        2
176
     1
 40
0.6
176
     1
 41
30.0
176
     1
 62
     5
 63
     7
421
 16777215
176
     1
 74
     1
176
     1
 91
        0
176
     1
 64
     7
176
     1
 65
   257
176
     1
 75
     1
176
     1
175
     1
176
     1
 42
1.0
176
     1
 92
        0
176
     1
 66
   257
176
     1
 43
1.0
176
     1
 76
     1
176
     1
 77
     6
176
     1
 78
     2
176
     1
 67
     7
176
     1
 79
     5
176
     1
170
     0
176
     1
171
     0
176
     1
290
     0
176
     1
 93
       13
176
     1
 44
0.0
176
     1
173
     0
176
     1
  0
VISUALSTYLE
  5
3FF
102
{ACAD_REACTORS
330
3F8
102
}
102
{ACAD_XDICTIONARY
360
449
102
}
330
3F8
100
AcDbVisualStyle
  2
Hidden
 70
     6
177
     2
291
     0
 71
     1
176
     1
 72
     2
176
     1
 73
     2
176
     1
 90
        0
176
     1
 40
0.6
176
     1
 41
30.0
176
     1
 62
     5
 63
     7
421
 16777215
176
     1
 74
     2
176
     1
 91
        2
176
     1
 64
     7
176
     1
 65
   257
176
     1
 75
     2
176
     1
175
     1
176
     1
 42
40.0
176
     1
 92
        0
176
     1
 66
   257
176
     1
 43
1.0
176
     1
 76
     1
176
     1
 77
     6
176
     1
 78
     2
176
     1
 67
     7
176
     1
 79
     3
176
     1
170
     0
176
     1
171
     0
176
     1
290
     0
176
     1
 93
        1
176
     1
 44
0.0
176
     1
173
     0
176
     1
  0
VISUALSTYLE
  5
409
102
{ACAD_REACTORS
330
3F8
102
}
102
{ACAD_XDICTIONARY
360
45D
102
}
330
3F8
100
AcDbVisualStyle
  2
JitterOff
 70
    20
177
     2
291
     1
 71
     2
176
     0
 72
     2
176
     0
 73
     0
176
     0
 90
        0
176
     0
 40
0.6
176
     0
 41
30.0
176
     0
 62
     5
 63
     7
421
 16777215
176
     0
 74
     1
176
     0
 91
        4
176
     0
 64
     7
176
     0
 65
   257
176
     0
 75
     1
176
     0
175
     1
176
     0
 42
1.0
176
     0
 92
       10
176
     2
 66
     7
176
     0
 43
1.0
176
     0
 76
     1
176
     0
 77
     6
176
     0
 78
     2
176
     0
 67
     7
176
     0
 79
     5
176
     0
170
     0
176
     0
171
     0
176
     0
290
     0
176
     0
 93
        1
176
     0
 44
0.0
176
     0
173
     0
176
     0
  0
VISUALSTYLE
  5
406
102
{ACAD_REACTORS
330
3F8
102
}
102
{ACAD_XDICTIONARY
360
457
102
}
330
3F8
100
AcDbVisualStyle
  2
Linepattern
 70
    14
177
     2
291
     1
 71
     2
176
     1
 72
     2
176
     1
 73
     0
176
     1
 90
        0
176
     1
 40
0.6
176
     1
 41
30.0
176
     1
 62
     5
 63
     7
421
 16777215
176
     1
 74
     1
176
     1
 91
        4
176
     1
 64
     7
176
     1
 65
   257
176
     1
 75
     7
176
     1
175
     7
176
     1
 42
1.0
176
     1
 92
        8
176
     1
 66
     7
176
     1
 43
1.0
176
     1
 76
     1
176
     1
 77
     6
176
     1
 78
     2
176
     1
 67
     7
176
     1
 79
     5
176
     1
170
     0
176
     1
171
     0
176
     1
290
     0
176
     1
 93
        1
176
     1
 44
0.0
176
     1
173
     0
176
     1
  0
VISUALSTYLE
  5
40A
102
{ACAD_REACTORS
330
3F8
102
}
102
{ACAD_XDICTIONARY
360
45F
102
}
330
3F8
100
AcDbVisualStyle
  2
OverhangOff
 70
    21
177
     2
291
     1
 71
     2
176
     0
 72
     2
176
     0
 73
     0
176
     0
 90
        0
176
     0
 40
0.6
176
     0
 41
30.0
176
     0
 62
     5
 63
     7
421
 16777215
176
     0
 74
     1
176
     0
 91
        4
176
     0
 64
     7
176
     0
 65
   257
176
     0
 75
     1
176
     0
175
     1
176
     0
 42
1.0
176
     0
 92
        9
176
     2
 66
     7
176
     0
 43
1.0
176
     0
 76
     1
176
     0
 77
     6
176
     0
 78
     2
176
     0
 67
     7
176
     0
 79
     5
176
     0
170
     0
176
     0
171
     0
176
     0
290
     0
176
     0
 93
        1
176
     0
 44
0.0
176
     0
173
     0
176
     0
  0
VISUALSTYLE
  5
401
102
{ACAD_REACTORS
330
3F8
102
}
102
{ACAD_XDICTIONARY
360
44D
102
}
330
3F8
100
AcDbVisualStyle
  2
Realistic
 70
     8
177
     2
291
     0
 71
     2
176
     1
 72
     3
176
     1
 73
     0
176
     1
 90
        2
176
     1
 40
0.6
176
     1
 41
30.0
176
     1
 62
     5
 63
     7
421
 16777215
176
     1
 74
     0
176
     1
 91
        0
176
     1
 64
     7
176
     1
 65
   257
176
     1
 75
     1
176
     1
175
     1
176
     1
 42
1.0
176
     1
 92
        8
176
     1
 66
   257
176
     1
 43
1.0
176
     1
 76
     1
176
     1
 77
     6
176
     1
 78
     2
176
     1
 67
     7
176
     1
 79
     3
176
     1
170
     0
176
     1
171
     0
176
     1
290
     0
176
     1
 93
       13
176
     1
 44
0.0
176
     1
173
     0
176
     1
  0
VISUALSTYLE
  5
410
102
{ACAD_REACTORS
330
3F8
102
}
102
{ACAD_XDICTIONARY
360
46B
102
}
330
3F8
100
AcDbVisualStyle
  2
Shaded
 70
    27
177
     2
291
     0
 71
     2
176
     1
 72
     2
176
     1
 73
     1
176
     1
 90
        2
176
     1
 40
0.6
176
     1
 41
30.0
176
     1
 62
     5
 63
     7
421
 16777215
176
     1
 74
     0
176
     1
 91
        4
176
     1
 64
     7
176
     1
 65
   257
176
     1
 75
     1
176
     1
175
     1
176
     1
 42
1.0
176
     1
 92
        8
176
     1
 66
   257
176
     1
 43
1.0
176
     1
 76
     1
176
     1
 77
     6
176
     1
 78
     2
176
     1
 67
     8
425
  7895160
176
     1
 79
     3
176
     1
170
     0
176
     1
171
     0
176
     1
290
     0
176
     1
 93
        5
176
     1
 44
0.0
176
     1
173
     0
176
     1
  0
VISUALSTYLE
  5
40F
102
{ACAD_REACTORS
330
3F8
102
}
102
{ACAD_XDICTIONARY
360
469
102
}
330
3F8
100
AcDbVisualStyle
  2
Shaded with edges
 70
    26
177
     2
291
     0
 71
     2
176
     1
 72
     2
176
     1
 73
     1
176
     1
 90
        2
176
     1
 40
0.6
176
     1
 41
30.0
176
     1
 62
     5
 63
     7
421
 16777215
176
     1
 74
     1
176
     1
 91
       10
176
     1
 64
     7
176
     1
 65
   257
176
     1
 75
     2
176
     1
175
     1
176
     1
 42
1.0
176
     1
 92
        8
176
     1
 66
   257
176
     1
 43
1.0
176
     1
 76
     1
176
     1
 77
     6
176
     1
 78
     2
176
     1
 67
     7
176
     1
 79
     3
176
     1
170
     0
176
     1
171
     0
176
     1
290
     0
176
     1
 93
        5
176
     1
 44
0.0
176
     1
173
     0
176
     1
  0
VISUALSTYLE
  5
40C
102
{ACAD_REACTORS
330
3F8
102
}
102
{ACAD_XDICTIONARY
360
463
102
}
330
3F8
100
AcDbVisualStyle
  2
Shades of Gray
 70
    23
177
     2
291
     0
 71
     2
176
     1
 72
     2
176
     1
 73
     3
176
     1
 90
        0
176
     1
 40
0.6
176
     1
 41
30.0
176
     1
 62
     5
 63
     7
421
 16777215
176
     1
 74
     2
176
     1
 91
        2
176
     1
 64
     7
176
     1
 65
     7
176
     1
 75
     1
176
     1
175
     1
176
     1
 42
40.0
176
     1
 92
        8
176
     1
 66
     7
176
     1
 43
1.0
176
     1
 76
     1
176
     1
 77
     6
176
     1
 78
     2
176
     1
 67
     7
176
     1
 79
     3
176
     1
170
     0
176
     1
171
     0
176
     1
290
     0
176
     1
 93
        1
176
     1
 44
0.0
176
     1
173
     0
176
     1
  0
VISUALSTYLE
  5
40D
102
{ACAD_REACTORS
330
3F8
102
}
102
{ACAD_XDICTIONARY
360
465
102
}
330
3F8
100
AcDbVisualStyle
  2
Sketchy
 70
    24
177
     2
291
     0
 71
     1
176
     1
 72
     2
176
     1
 73
     2
176
     1
 90
        0
176
     1
 40
0.6
176
     1
 41
30.0
176
     1
 62
     5
 63
     7
421
 16777215
176
     1
 74
     2
176
     1
 91
        2
176
     1
 64
     7
176
     1
 65
     7
176
     1
 75
     1
176
     1
175
     1
176
     1
 42
40.0
176
     1
 92
       11
176
     1
 66
     7
176
     1
 43
1.0
176
     1
 76
     1
176
     1
 77
     6
176
     1
 78
     2
176
     1
 67
     7
176
     1
 79
     6
176
     1
170
     0
176
     1
171
     0
176
     1
290
     0
176
     1
 93
        1
176
     1
 44
0.0
176
     1
173
     0
176
     1
  0
VISUALSTYLE
  5
405
102
{ACAD_REACTORS
330
3F8
102
}
102
{ACAD_XDICTIONARY
360
455
102
}
330
3F8
100
AcDbVisualStyle
  2
Thicken
 70
    13
177
     2
291
     1
 71
     2
176
     1
 72
     2
176
     1
 73
     0
176
     1
 90
        0
176
     1
 40
0.6
176
     1
 41
30.0
176
     1
 62
     5
 63
     7
421
 16777215
176
     1
 74
     1
176
     1
 91
        4
176
     1
 64
     7
176
     1
 65
   257
176
     1
 75
     1
176
     1
175
     1
176
     1
 42
1.0
176
     1
 92
       12
176
     1
 66
     7
176
     1
 43
1.0
176
     1
 76
     1
176
     1
 77
     6
176
     1
 78
     2
176
     1
 67
     7
176
     1
 79
     5
176
     1
170
     0
176
     1
171
     0
176
     1
290
     0
176
     1
 93
        1
176
     1
 44
0.0
176
     1
173
     0
176
     1
  0
VISUALSTYLE
  5
3FE
102
{ACAD_REACTORS
330
3F8
102
}
102
{ACAD_XDICTIONARY
360
447
102
}
330
3F8
100
AcDbVisualStyle
  2
Wireframe
 70
     5
177
     2
291
     0
 71
     0
176
     1
 72
     2
176
     1
 73
     0
176
     1
 90
        0
176
     1
 40
0.6
176
     1
 41
30.0
176
     1
 62
     5
 63
     7
421
 16777215
176
     1
 74
     1
176
     1
 91
        4
176
     1
 64
     7
176
     1
 65
   257
176
     1
 75
     1
176
     1
175
     1
176
     1
 42
1.0
176
     1
 92
        0
176
     1
 66
   257
176
     1
 43
1.0
176
     1
 76
     1
176
     1
 77
     6
176
     1
 78
     2
176
     1
 67
     7
176
     1
 79
     3
176
     1
170
     0
176
     1
171
     0
176
     1
290
     0
176
     1
 93
        1
176
     1
 44
0.0
176
     1
173
     0
176
     1
  0
VISUALSTYLE
  5
40E
102
{ACAD_REACTORS
330
3F8
102
}
102
{ACAD_XDICTIONARY
360
467
102
}
330
3F8
100
AcDbVisualStyle
  2
X-Ray
 70
    25
177
     2
291
     0
 71
     2
176
     1
 72
     2
176
     1
 73
     1
176
     1
 90
        1
176
     1
 40
0.5
176
     1
 41
30.0
176
     1
 62
     5
 63
     7
421
 16777215
176
     1
 74
     1
176
     1
 91
        0
176
     1
 64
     7
176
     1
 65
   257
176
     1
 75
     1
176
     1
175
     1
176
     1
 42
1.0
176
     1
 92
        8
176
     1
 66
     7
176
     1
 43
1.0
176
     1
 76
     1
176
     1
 77
     6
176
     1
 78
     2
176
     1
 67
     7
176
     1
 79
     3
176
     1
170
     0
176
     1
171
     0
176
     1
290
     0
176
     1
 93
       13
176
     1
 44
0.0
176
     1
173
     0
176
     1
  0
DICTIONARYVAR
  5
438
102
{ACAD_REACTORS
330
237
102
}
330
237
100
DictionaryVariables
280
     0
  1
1:1
  0
DICTIONARYVAR
  5
477
102
{ACAD_REACTORS
330
237
102
}
330
237
100
DictionaryVariables
280
     0
  1
Standard
  0
DICTIONARYVAR
  5
3B1
102
{ACAD_REACTORS
330
237
102
}
330
237
100
DictionaryVariables
280
     0
  1
Standard
  0
DICTIONARYVAR
  5
478
102
{ACAD_REACTORS
330
237
102
}
330
237
100
DictionaryVariables
280
     0
  1
0
  0
DICTIONARYVAR
  5
238
102
{ACAD_REACTORS
330
237
102
}
330
237
100
DictionaryVariables
280
     0
  1
127
  0
DICTIONARYVAR
  5
479
102
{ACAD_REACTORS
330
237
102
}
330
237
100
DictionaryVariables
280
     0
  1
0
  0
DICTIONARY
  5
46F
102
{ACAD_REACTORS
330
46E
102
}
330
46E
100
AcDbDictionary
281
     1
  0
DICTIONARY
  5
470
102
{ACAD_REACTORS
330
46E
102
}
330
46E
100
AcDbDictionary
281
     1
  3
8796087841560
350
471
  3
8796087841576
350
472
  3
8796087841592
350
473
  3
8796087841608
350
474
  3
8796087841624
350
475
  3
8796087841640
350
476
  0
DICTIONARY
  5
439
330
1E
100
AcDbDictionary
280
     1
281
     1
  3
ADSK_XREC_LAYOUTTHUMBNAIL
360
43A
  0
DICTIONARY
  5
43B
330
3A4
100
AcDbDictionary
280
     1
281
     1
  3
ACAD_ROUNDTRIP_2008_TABLESTYLE_CELLSTYLEMAP
360
43C
  0
DICTIONARY
  5
445
330
3FD
100
AcDbDictionary
280
     1
281
     1
  3
ACAD_XREC_ROUNDTRIP
360
446
  0
DICTIONARY
  5
44B
330
400
100
AcDbDictionary
280
     1
281
     1
  3
ACAD_XREC_ROUNDTRIP
360
44C
  0
DICTIONARY
  5
453
330
404
100
AcDbDictionary
280
     1
281
     1
  3
ACAD_XREC_ROUNDTRIP
360
454
  0
DICTIONARY
  5
45B
330
408
100
AcDbDictionary
280
     1
281
     1
  3
ACAD_XREC_ROUNDTRIP
360
45C
  0
DICTIONARY
  5
44F
330
402
100
AcDbDictionary
280
     1
281
     1
  3
ACAD_XREC_ROUNDTRIP
360
450
  0
DICTIONARY
  5
451
330
403
100
AcDbDictionary
280
     1
281
     1
  3
ACAD_XREC_ROUNDTRIP
360
452
  0
DICTIONARY
  5
461
330
40B
100
AcDbDictionary
280
     1
281
     1
  3
ACAD_XREC_ROUNDTRIP
360
462
  0
DICTIONARY
  5
459
330
407
100
AcDbDictionary
280
     1
281
     1
  3
ACAD_XREC_ROUNDTRIP
360
45A
  0
DICTIONARY
  5
43D
330
3F9
100
AcDbDictionary
280
     1
281
     1
  3
ACAD_XREC_ROUNDTRIP
360
43E
  0
DICTIONARY
  5
43F
330
3FA
100
AcDbDictionary
280
     1
281
     1
  3
ACAD_XREC_ROUNDTRIP
360
440
  0
DICTIONARY
  5
441
330
3FB
100
AcDbDictionary
280
     1
281
     1
  3
ACAD_XREC_ROUNDTRIP
360
442
  0
DICTIONARY
  5
443
330
3FC
100
AcDbDictionary
280
     1
281
     1
  3
ACAD_XREC_ROUNDTRIP
360
444
  0
DICTIONARY
  5
449
330
3FF
100
AcDbDictionary
280
     1
281
     1
  3
ACAD_XREC_ROUNDTRIP
360
44A
  0
DICTIONARY
  5
45D
330
409
100
AcDbDictionary
280
     1
281
     1
  3
ACAD_XREC_ROUNDTRIP
360
45E
  0
DICTIONARY
  5
457
330
406
100
AcDbDictionary
280
     1
281
     1
  3
ACAD_XREC_ROUNDTRIP
360
458
  0
DICTIONARY
  5
45F
330
40A
100
AcDbDictionary
280
     1
281
     1
  3
ACAD_XREC_ROUNDTRIP
360
460
  0
DICTIONARY
  5
44D
330
401
100
AcDbDictionary
280
     1
281
     1
  3
ACAD_XREC_ROUNDTRIP
360
44E
  0
DICTIONARY
  5
46B
330
410
100
AcDbDictionary
280
     1
281
     1
  3
ACAD_XREC_ROUNDTRIP
360
46C
  0
DICTIONARY
  5
469
330
40F
100
AcDbDictionary
280
     1
281
     1
  3
ACAD_XREC_ROUNDTRIP
360
46A
  0
DICTIONARY
  5
463
330
40C
100
AcDbDictionary
280
     1
281
     1
  3
ACAD_XREC_ROUNDTRIP
360
464
  0
DICTIONARY
  5
465
330
40D
100
AcDbDictionary
280
     1
281
     1
  3
ACAD_XREC_ROUNDTRIP
360
466
  0
DICTIONARY
  5
455
330
405
100
AcDbDictionary
280
     1
281
     1
  3
ACAD_XREC_ROUNDTRIP
360
456
  0
DICTIONARY
  5
447
330
3FE
100
AcDbDictionary
280
     1
281
     1
  3
ACAD_XREC_ROUNDTRIP
360
448
  0
DICTIONARY
  5
467
330
40E
100
AcDbDictionary
280
     1
281
     1
  3
ACAD_XREC_ROUNDTRIP
360
468
  0
XRECORD
  5
471
102
{ACAD_REACTORS
330
470
102
}
330
470
100
AcDbXrecord
280
     1
  1
AcDb_Thumbnail_Schema
102
{ATTRRECORD
341
473
  2
AcDbDs::TreatedAsObjectData
280
     1
291
     1
102
ATTRRECORD}
102
{ATTRRECORD
341
474
  2
AcDbDs::Legacy
280
     1
291
     1
102
ATTRRECORD}
  2
AcDbDs::ID
280
    10
 91
        8
102
{ATTRRECORD
341
475
  2
AcDs:Indexable
280
     1
291
     1
102
ATTRRECORD}
102
{ATTRRECORD
341
476
  2
AcDbDs::HandleAttribute
280
     7
282
     1
102
ATTRRECORD}
  2
Thumbnail_Data
280
    15
 91
        0
  0
XRECORD
  5
472
102
{ACAD_REACTORS
330
470
102
}
330
470
100
AcDbXrecord
280
     1
  1
AcDb3DSolid_ASM_Data
102
{ATTRRECORD
341
473
  2
AcDbDs::TreatedAsObjectData
280
     1
291
     1
102
ATTRRECORD}
102
{ATTRRECORD
341
474
  2
AcDbDs::Legacy
280
     1
291
     1
102
ATTRRECORD}
  2
AcDbDs::ID
280
    10
 91
        8
102
{ATTRRECORD
341
475
  2
AcDs:Indexable
280
     1
291
     1
102
ATTRRECORD}
102
{ATTRRECORD
341
476
  2
AcDbDs::HandleAttribute
280
     7
282
     1
102
ATTRRECORD}
  2
ASM_Data
280
    15
 91
        0
  0
XRECORD
  5
473
102
{ACAD_REACTORS
330
470
102
}
330
470
100
AcDbXrecord
280
     1
  1
AcDbDs::TreatedAsObjectDataSchema
  2
AcDbDs::TreatedAsObjectData
280
     1
 91
        0
  0
XRECORD
  5
474
102
{ACAD_REACTORS
330
470
102
}
330
470
100
AcDbXrecord
280
     1
  1
AcDbDs::LegacySchema
  2
AcDbDs::Legacy
280
     1
 91
        0
  0
XRECORD
  5
475
102
{ACAD_REACTORS
330
470
102
}
330
470
100
AcDbXrecord
280
     1
  1
AcDbDs::IndexedPropertySchema
  2
AcDs:Indexable
280
     1
 91
        0
  0
XRECORD
  5
476
102
{ACAD_REACTORS
330
470
102
}
330
470
100
AcDbXrecord
280
     1
  1
AcDbDs::HandleAttributeSchema
  2
AcDbDs::HandleAttribute
280
     7
 91
        1
284
     1
  0
XRECORD
  5
43A
102
{ACAD_REACTORS
330
439
102
}
330
439
100
AcDbXrecord
280
     1
310
28000000620000008C0000000100080000000000B036000000000000000000000001000000000000FFFFFF0000000000FFFFFF000000000000000000000000000000000000000000000000000000000000000000330000006600000099000000CC000000FF00000000330000333300006633000099330000CC330000FF3300
310
0000660000336600006666000099660000CC660000FF66000000990000339900006699000099990000CC990000FF99000000CC000033CC000066CC000099CC0000CCCC0000FFCC000000FF000033FF000066FF000099FF0000CCFF0000FFFF000000003300330033006600330099003300CC003300FF003300003333003333
310
33006633330099333300CC333300FF33330000663300336633006666330099663300CC663300FF66330000993300339933006699330099993300CC993300FF99330000CC330033CC330066CC330099CC3300CCCC3300FFCC330000FF330033FF330066FF330099FF3300CCFF3300FFFF330000006600330066006600660099
310
006600CC006600FF00660000336600333366006633660099336600CC336600FF33660000666600336666006666660099666600CC666600FF66660000996600339966006699660099996600CC996600FF99660000CC660033CC660066CC660099CC6600CCCC6600FFCC660000FF660033FF660066FF660099FF6600CCFF6600
310
FFFF660000009900330099006600990099009900CC009900FF00990000339900333399006633990099339900CC339900FF33990000669900336699006666990099669900CC669900FF66990000999900339999006699990099999900CC999900FF99990000CC990033CC990066CC990099CC9900CCCC9900FFCC990000FF99
310
0033FF990066FF990099FF9900CCFF9900FFFF99000000CC003300CC006600CC009900CC00CC00CC00FF00CC000033CC003333CC006633CC009933CC00CC33CC00FF33CC000066CC003366CC006666CC009966CC00CC66CC00FF66CC000099CC003399CC006699CC009999CC00CC99CC00FF99CC0000CCCC0033CCCC0066CC
310
CC0099CCCC00CCCCCC00FFCCCC0000FFCC0033FFCC0066FFCC0099FFCC00CCFFCC00FFFFCC000000FF003300FF006600FF009900FF00CC00FF00FF00FF000033FF003333FF006633FF009933FF00CC33FF00FF33FF000066FF003366FF006666FF009966FF00CC66FF00FF66FF000099FF003399FF006699FF009999FF00CC
310
99FF00FF99FF0000CCFF0033CCFF0066CCFF0099CCFF00CCCCFF00FFCCFF0000FFFF0033FFFF0066FFFF0099FFFF00CCFFFF00FFFFFF00000000000D0D0D001A1A1A00282828003535350043434300505050005D5D5D006B6B6B00787878008686860093939300A1A1A100AEAEAE00BBBBBB00C9C9C900D6D6D600E4E4E400
310
F1F1F100FFFFFF0000000000000000000000000000000000000000000000000000000000000000000000000000000000E2E2E2E2E2E2E2E2E2E2E2E2E2E2E2E2E2E2E2E2E2E2E2E2E2E2E2E2E2E2E2E2E2E2E2E2E2E2E2E2E2E2E2E2E2E2E2E2E2E2E2E2E2E2E2E2E2E2E2E2E2E2E2E2E2E2E2E2E2E2E2E2E2E2E2E2E2E2E2
310
E2E2E2E2E2E2E2E2E2E2E2E2E2E2E2E2E2E2E20000E2F5F5F5F5F5F5F5F5F5F5F5F5F5F5F5F5F5F5F5F5F5F5F5F5F5F5F5F5F5F5F5F5F5F5F5F5F5F5F5F5F5F5F5F5F5F5F5F5F5F5F5F5F5F5F5F5F5F5F5F5F5F5F5F5F5F5F5F5F5F5F5F5F5F5F5F5F5F5F5F5F5F5F5F5F5F5F5F5F5F5F5F5F5F5F5F5E20000E2F5BEE2E2E2
310
E2E2E2E2F5F5F5F5F5F5F5F5E2E2E2E2E2E2E2E2E2E2E2E2E2E2E2E2F5F5F5F5F5F5F5F5E2E2E2E2E2E2E2E2E2E2E2E2E2E2E2F5F5F5F5F5F5F5F5E2E2E2E2E2E2E2E2E2E2E2E2E2E2E2E2F5F5F5F5F5F5F5F5E2E2E2E2E2E2E2E2E20000E2F5E2F5F5F5F5F5F5F5F5F5F5F5F5F5F5F5F5F5F5F5F5F5F5F5F5F5F5F5F5F5F5
310
F5F5F5F5F5F5F5F5F5F5F5F5F5F5F5F5F5F5F5F5F5F5F5F5F5F5F5F5F5F5F5F5F5F5F5F5F5F5F5F5F5F5F5F5F5F5F5F5F5F5F5F5F5F5F5F5F5F5F5F5F5F5F5E2E20000E2F5E2F5F5F5F5F5F5F5F5F5F5F5F5F5F5F5F5F5F5F5F5F5F5F5F5F5F5F5F5F5F5F5F5F5F5F5F5F5F5F5F5F5F5F5F5F5F5F5F5F5F5F5F5F5F5F5F5F5
310
F5F5F5F5F5F5F5F5F5F5F5F5F5F5F5F5F5F5F5F5F5F5F5F51B1B1B1BF5F5F5F5F5F5F5F5E2E20000E2F5E2F5F5F5F5F5F5F5F5F5F5F5F5F5F5F5F5F5F5F5F5F5F5F5F5F5F5F5F5F5F5F5F5F5F5F5F5F5F5F5F5F5F5F5F5F5F5F5F5F5F5F5F5F5F5F5F5F5F5F5F5F5F5F5F5F5F5F5F5F5F5F5F5F5F5F5E2E2E2E2E2F51B1B1B
310
1B1BF5F5F5F5F5F5F5E2E20000E2F5E2F5F5F5F5F5F5F5F5F5F5F5F5F5F5F5F5F5F5F5F5F5F5F5F5F5F5F5F5F5F5F5F5F5F5F5F5F5F5F5F5F5F5F5F5F5F5F5F5F5F5F5F5F5F5F5F5F5F5F5F5F5F5F5F5F5F5F5F5F5E2E2E2E2E2E2E2E2E2E2E2F51B1B1B1B1BF5F5F5F5F5F5F5E2E20000E2F5E2F5F5F5F5F5F5F5F5F5F5F5
310
F5F5F5F5F5F5F5F5F5F5F5F5F5F5F5F5F5F5F5E2E2E2E2E2E2E2E2E2E2E2E2E2E2E2E2E2E2E2E2E2E2E2E2E2E2E2E2E2E2E2F5F5F5F5F5F5F5F5F51B1B1B1B1B1B1B1B1BF5F5F51B1B1B1B1B1B1BF5F5F5F5E2E20000E2F5E2F5F5F5F5F5F5F5F5F5F5F5F5F5F5F5F5F5F5F5F5F5F5F5F5F5F5F5F5F5F5F5F5F5F5F5F5F5F5
310
F5F5F5F5F5F5F5F5F5F5F5F5F5F5F5F5F5F5F5F5F5F5F5F5F5F5F5F5F5F5F5E2E2E2E2E2E2E2E2E2E2E2F5F51B1B1B1B1B1B1B1BF5F5F5E2E20000E2F5E2F5F5F5F5F5F5F5F5F5F5F5F5F5F5F5F5F5F5F5F5F5F5F5F5F5F5F5F5F5F5F5F5F5F5F5F5F5F5F5F5F5F5F5F5F5F5F5F5F5F5F5F5F5F5F5F5F5F5F5F5F5F5F5F5F5
310
F5F5F5F5F5E2E2E2E2E2E2F5E2E2E2F51B1B1B1B1B1B1B1B1BF5F5F5E2E20000E2F5E2F5F5F5F5F5F5F5F5F5F5F5F5F5F5F5F5F5F5F5F5F5F5F5F5F5F5F5F5F5F5F5F5F5F5F5F5F5F5F5F5F5F5F5F5F5F5F5F5F5F5F5F5F5F5F5F5F5F5F5F5F5F5F5F5F5F5F5F5F5F5E2E2E2E2F5E2E2E2F5F5F51B1B1B1B1B1B1B1BF5F5F5
310
F5E2E20000E2F5F5F5F5F5F5F5F5F5F5F5F5F5F5F5F5F5F5F5F5F5F5F5F5F5F5F5F5F5F5F5F5F5F5F5F5F5F5F5F5F5F5F5F5F5F5F5F5F5F5F5F5F5F5F5F5F5F5F5F5F5F5F5F5F5F5F5F5F5F5F5F5F5E2F5E2E2E2E2E2E2E2F51B1B1BF5F5F5F5F5F5F5F5F5F5E20000E2F5F5F5F5F5F5F5F5F5F5F5F5F5F5F5F5F5F5F5F5F5
310
F5F5F5F5F5F5F5F5F5F5F5F5F5F5F5F5F5F5F5F5F5F5F5F5F5F5F5F5F5F5F5F5F5F5F5F5F5F5F5F5F5F5F5F5F5F5F5F5F5F5F5F5E2F5F5E2E2F5E2E2E2F51B1B1BF5F5F5F5F5F5F5F5F5F5E20000E2F5F5F5F5F5F5BEBEBEE2E2F5F5F5F5F5F5F5F5F5F5F5F5F5F5F5F5F5F5F5F5F5F5F5F5F5F5F5F5F5F5F5F5F5F5F5F5F5
310
F5F5F5F5F5F5F5F5F5F5F5F5F5F5F5F5F5F5F5F5F5F5F5F5F5F5F5F5F5F5F5F5F5F5F5F5F5F5F5F5F5F5F5F5F5F5F5F5E20000E2F5F5F5F5F5F5BEBEBEF5F5F5F5F5F5F5F5F5F5F5F5F5F5F5F5F5F5F5F5F5F5F5F5F5F5F5F5F5F5F5F5F5F5F5F5F5F5F5F5F5F5F5F5F5F5F5F5F5F5F5F5F5F5F5F5F5F5F5F5F5F5F5F5F5F5
310
F5F5F5F5F5F5F5F5F5F5F5F5F5F5F5F5F5F5F5F5F5E20000E2F5F5F5F5F5F5E2E2E2E2E2E2E2E2E2F5F5F5F5F5F5F5F5F5F5F5F5F5F5F5F5F5F5F5F5F5F5F5F5F5F5F5F5F5F5F5F5F5F5F5F5F5F5F5F5F5F5F5F5F5F5F5F5F5F5F5F5F5F5F5F5F5F5F5F5F5F5F5F5F5F5F5F5F5F5F5F5F5F5F5F5F5F5F5F5F5E20000E2F5F5
310
F5F5F5F5E2BEE2E2E2E2E2E2E2F5F5F5F5F5F5F5F5F5F5F5F5F5F5F5F5F5F5F5F5F5F5F5F5F5F5F5F5F5F5F5F5F5F5F5F5F5F5F5F5F5F5F5F5F5F5F5F5F5F5F5F5F5F5F5F5F5F5F5F5F5F5F5F5F5F5F5F5F5F5F5F5F5F5F5F5F5F5F5F5F5E20000E2F5F5F5F5F5F5E2E2E2F5F5F5F5F5F5F5F5F5F5F5F5F5F5F5F5F5F5F5F5
310
F5F5F5F5F5F5F5F5F5F5F5F5F5F5F5F5F5F5F5F5F5F5F5F5F5F5F5F5F5F5F5F5F5F5F5F5F5F5F5F5F5F5F5F5F5F5F5F5F5F5F5F5F5F5F5F5F5F5F5F5F5F5F5F5F5F5F5E20000E2F5F5F5F5F5F5E2E2E2E2E2E2E2E2F5F5F5F5F5F5F5F5F5F5F5F5F5F5F5F5F5F5F5F5F5F5F5F5F5F5F5F5F5F5F5F5F5F5F5F5F5F5F5F5F5F5
310
F5F5F5F5F5F5F5F5F5F5F5F5F5F5F5F5F5F5F5F5F5F5F5F5F5F5F5F5F5F5F5F5F5F5F5F5F5F5F5F5E20000E2F5F5F5F5F5F5E2E2E2F5F5F5F5F5F5F5F5F5F5F5F5F5F5F5F5F5F5F5F5F5F5F5F5F5F5F5F5F5F5F5F5F5F5F5F5F5F5F5F5F5F5F5F5F5F5F5F5F5F5F5F5F5F5F5F5F5F5F5F5F5F5F5F5F5F5F5F5F5F5F5F5F5F5
310
F5F5F5F5F5F5F5F5F5F5F5F5F5E20000E2F5F5F5F5F5F5F5E2F5F5F5F5F5F5F5F5F5F5F5F5F5F5E2E2E2E2E2E2E2E2E2E2E2E2E2E2E2E2E2E2E2E2E2E2E2E2E2E2E2E2E2E2F5F5F5F5F5F5F5F5F5F5F5F5F5F5F5F5F5F5F5F5F5F5F5F5F5F5F5F5F5F5F5F5F5F5F5F5F5F5F5F5F5F5F5F5E20000E2F5E2F5F5F5F5E2E2E2E2
310
E2E2E2E2E2F5F5F5F5F5F5F5E2E2E2E2E2E2E2E2E2E2E2E2E2E2E2E2E2E2E2E2E2E2E2E2E2E2E2E2E2E2F5F5F5F5F5F5F5F5F5F5F5F5F5F5F5F5F5F5F5F5F5F5F5F5F5F5F5F5F5F5F5F5F5F5F5F5F5F5F5F5F5F5F5E2E20000E2F5E2F5F5F5F5F5E2E2F5F5F5F5F5F5F5F5F5F5F5F5F5F5F5F5F5F5F5F5F5F5F5F5F5F5F5F5
310
F5F5F5F5F5F5F5F5F5F5F5F5F5F5F5F5F5F5F5F5F5F5F5F5F5F5F5F5F5F5F5F5F5F5F5F5F5F5F5F5F5F5F5F5F5F5F5F5F5F5F5F5F5F5F5F5F5F5E2E20000E2F5E2F5F5F5F5F5E2E2E2E2E2E2E2F5F5F5F5F5F5F5F5F5F5F5F5F5F5F5F5F5F5F5F5F5F5F5F5F5F5F5F5F5F5F5F5F5F5F5F5F5F5F5F5F5F5F5F5F5F5F5F5F5F5
310
F5F5F5F5F5F5F5F5F5F5F5F5F5F5F5F5F5F5F5F5F5F5F5F5F5F5F5F5F5F5F5E2E20000E2F5E2F5F5F5F5E210E2E2E2E2E2E2F5F5F5F5F5F5F5F5F5F5F5F5F5F5F5F5F5F5F5F5F5F5F5F5F5F5F5F5F5F5F5F5F5F5F5F5F5F5F5F5F5F5F5F5F5F5F5F5F5F5F5F5F5F5F5F5F5F5F5F5F5F5F5F5F5F5F5F5F5F5F5F5F5F5F5F5F5
310
F5F5F5F5E2E20000E2F5E2F5F5F5F5F5E2E2F5F5F5F5F5F5F5F5F5F5F5F5F5F5F5F5F5F5F5F5F5F5F5F5F5F5F5F5F5F5F5F5F5F5F5F5F5F5F5F5F5F5F5F5F5F5F5F5F5F5F5F5F5F5F5F5F5F5F5F5F5F5F5F5F5F5F5F5F5F5F5F5F5F5F5F5F5F5F5F5F5F5F5F5F5F5E2E20000E2F5E2F5F5F5F5E2E2E2E2F5F5F5F5F5F5F5F5
310
F5F5F5F5F5F5F5F5F5F5F5F5F5F5F5F5F5F5F5F5F5F5F5F5F5F5F5F5F5F5F5F5F5F5F5F5F5F5F5F5F5F5F5F5F5F5F5F5F5F5F5F5F5F5F5F5F5F5F5F5F5F5F5F5F5F5F5F5F5F5F5F5F5F5F5F5F5E2E20000E2F5E2F5F5F5F5E2E2E2E2F5F5F5F5F5F5F5F5F5F5F5F5F5F5F5F5F5F5F5F5F5F5F5F5F5F5F5F5F5F5F5F5F5F5F5
310
F5F5F5F5F5F5F5F5F5F5F5F5F5E2E2E2E2E2F5F5F5F5F5F5F5F5F5F5F5F5F5F5F5F5F5F5F5F5F5F5F5F5F5F5F5F5F5F5F5F5E2E20000E2F5E2F5F5F5F5F5F5F5F5F5F5F5F5F5F5F5F5F5F5F5F5F5F5F5F5F5F5F5F5F5F5F5F5F5F5F5F5F5F5F5F5F5F5F5F5F5F5F5F5F5F5F5F5F5F5F5F5F5F5F5F5F5F5F5F5F5F5F5F5F5F5
310
F5F5F5F5F5F5F5F5F5F5F5F5F5F5F5F5F5F5F5F5F5F5F5E2E20000E2F5E2F5F5F5F5F5F5F5F5F5F5F5F5F5F5F5F5F5F5F5F5F5F5F5F5F5F5F5F5F5F5F5F5F5F5F5F5F5F5F5F5F5F5E2E2E2E2E2E2E2E2E2E2E2E2E2E2E2E2E2E2E2E2E2E2E2E2E2E2E2E2E2E2E2E2E2E2E2E2F5F5F5F5F5F5F5F5F5F5F5F5F5F5F5E2E20000
310
E2F5E2F5F5F5F5E2E2E2E2E2E2E2E2E2E2E2E2E2E2E2E2E2F5F5F5F5F5F5F5F5F5F5F5F5F5F5F5F5F5F5F5F5F5E2E2E2E2E2E2E2E2E2E2E2E2E2E2E2E2E2E2E2E2E2E2E2E2E2E2E2E2E2E2E2E2E2E2E2E2F5F5F5F5F5F5F5F5F5F5F5F5F5F5F5E2E20000E2F5E2F5F5F5F5E2E2E2E2E2E2E2E2E2E2E2E2E2E2E2E2E2E2E2E2
310
E2E2E2E2E2F5F5F5F5F5F5F5F5F5F5F5F5E2E2E2F5F5F5F5F5F5F5F5F5F5E2F5F5F5F5F5F5F5F5F5F5F5F5F5F5F5F5F5F5F5F5F5E2E2F5F5F5F5F5F5F5F5F5F5F5F5F5F5F5E2E20000E2F5E2E2E2F5F5E2E2E2E2E2E2E2E2E2E2E2E2E2E2E2E2E2E2E2E2E2E2E2F5F5F5F5F5F5F5F5F5F5F5F5F5F5F5F5F5F5F5F5F5F5F5F5
310
F5F5F5F5F5F5F5F5F5F5F5F5F5F5F5F5F5F5F5F5F5F5F5F5F5F5F5F5F5F5F5F5F5F5F5F5F5F5F5F5F5F5E2E20000E2F5E2E2E2E2E2E2E2E2E2E2E2E2E2E2E2E2E2E2E2E2E2E2E2E2E2E2E2E2E2E2E2E2E2E2E2E2E2E2E2E2E2E2E2E2E2E2E2E2E2E2E2E2E2E2E2E2E2E2E2E2E2E2E2E2E2E2E2E2E2E2E2E2E2E2E2E2E2E2E2
310
E2E2E2E2E2E2E2E2E2E2E2E2E2F5F5E2E20000E2F5E2F5F5F5F5E200F4F30000000000EC000000ED0000000000E7EDF3E7F0E7F0F3EBE800B6000000000000000000EFF100F4EBF400E7B6B6B6000000000000000000000000000000000000E8E9F0F4F400F2F2F40000F3F3F200F3F3E2F5F5E2E20000E2F5E2F5F5F5F5E2
310
F2E600F400EAEFEDB6EC00F0E700006000EBE700F3EFEB00EF8BF1F460F2F30000ED000000000060F40000000000F3E8F200F400000000000000000000000000000000E800F4B6000000000000F4F40000F1F2F2F3E2F5F5E2E20000E2F5E2F5F5F5F5E2E80000EC000000B6EF350000EAE6F2B600E700EB000000F4EBF400
310
00F2E6EAE80060000000000000000000F3EA00E7F0E6F3F0EA000000000000000000000000000000EFEA00F4F4F300000000F3F4F4F4F3F400F4E2F5F5E2E20000E2F5E2F5F5F5F5E200F400F3EDE800F2EFEF0000000000ED00F4F200E7F3008BF2E7F3F4EBF400F0EB00E800F2F1E8E900E7E7ED00E800F0F4E700E60000
310
00000000000000000000000000E9F400F2F4F40000F4F2F4F4B6B6F300F4F3E2F5F5E2E20000E2F5F5F5F5F5F5E2E7F400F4E500E7F400E7F2F4000000EF00EB00E800008BF4E700E6F40000F0F4EB00E700EC00E7E800E860F300008BEB0000000000000000000000000000000000EDB6F200F3F00000F4B6F2F000F4F2F2
310
B6F4F2F4E2F5F5F5E20000E2F5F5F5F5F5F5E20000F300F4F3E80000F08B000000ED0000F4E7F3EEEBEF60F100F3F4F3008B00F4F4000000000000000000F2E80000F40035F400F1E6E8000000000000000000F2F200F300F4F20000F4F200F4F2F2F200F3F1F2F3E2F5F5F5E20000E2F5F5F5F5F5F5E2EFE600E9F40000E9
310
E7B6E7EAE600F2E8EB00E8F0E7E7F100F000F3F4EA00E700E9ED000000000000000000F4F40000F400000000EEF30000000000000000E7F400F2F4F40000F200F4F2F4F3F3B6B6F3F3F2EEF3F3E2F5F5F5E20000E2F5F5F5F5F5F5E2000000F4E7E7F4F4E7EE00606000F3F300E80000E7000000F000F3F38BF4EB00EDF200
310
E900000000E9F200F1F2B6E7EAE7F300EBF360EA0000000000F3F3F3F0F2F4E8F4F200B6F4F0F2F4F4F3F3F1F4F4F3F400F4E2F5F5F5E20000E2F5F5F5F5F5F5E2EFF4F2F400EDEB00003500F3F0EE000000E8E8F4EAE800E7EFE7F0E800E70000F1EAF0E8E8E70000EB00EDF30000B6F1F400F3E7F400F3B6000000F3F4F3
310
F3F3F3F3B6000000F1F4F3F4F3F4F1F3F4B6F3B600EEF0E2F5F5F5E20000E2F5F5F5F5F5F5E200E6E8ECF4F300E900EEF2F3ECEF00F300E700EDF3EFEA00EFF460008B00F400EBF0F200F3F400E8E800F3F3F2F3F4F1F4B6F4F3F300EBEBF400F3F1F1F300F4F3F3F30000F4F0000000F0F3F3EFF4F1F3F2F3F3B6E2F5F5F5
310
E20000E2F5F5F5F5F5F5E2F400F4F4F00000000000E8F2E7E9E700EFE800ECE8F3EAE9F2000000EEF4B6F3EF00F4F3F2EFF3F4F0B6F2F3F3F1F3F2F3F2F3F4F300E90000E80000F4F3F3F3F3F200F4F300F1F4F0F2F4F2F4F1F2F300F3ECF0F3E2F5F5F5E20000E2F5F5F5F5F5F5E2F4F400F0F0F3EFF3F0E9B6F400F4E900
310
F0E7EFEDEEF4F400E80000B6F2E9F40000F4F40000000000E8EC00F300F4F2B6F400F000B6F3F3EEF3EFF3F3EAB6F3EFE8F2F400F400EFF4F4F3F4F3F4F3F4F3B6F4E8E7EDE2F5F5F5E20000E2F5F5F5F5F5F5E200E7F300F300F2F4ECEEECF10000EE00E8F2EC0000000000EAEFE700F3F20000F4F30000F4F3F4F40000F4
310
F200F3F3F1B600F3F200F460E88BF3B6B6EFF3EBF3F400F3000000F0B600F4F4F3F1F4F335E8000000F4E2F5F5F5E20000E2F5F5F5F5F5F5E2F4F20000F4F4F3F40000EF00EE00F400F4F1E700F4EE0000B6E8F3F4E70000F4F400F3F4F300F400F4F40000F4F4F40000F2F4F30000F4F200000000F4F4F4F4F40000F4F3F3
310
F2F4F1F1F2F400F300000000000000E2F5F5F5E20000E2F5E2F5F5F5F5E260F4E6F3F3E60000F4EAF000E700ECE8E8EF00EBE7F40000F200F1B60000F0F1F200B6F2F3F200F4F4F40000000000F30000000000F30000F4E700F4000060F2E8F30000F3F4F0F3F0F400F3F4EC00000000000000E2F5F5E2E20000E2F5E2F5F5
310
F5F5E2B600F3F3E6F300E9E7F2F1E7E6E7B6F2EEECEAEAF200F400B600F0F200F4F4EFF3ED00EFF0F200F0F40000F300F400F0F3F3F300F2F2000000000000F3F400000000F3F3F300EF0000F400F3E70000000000000000E2F5F5E2E20000E2F5E2F5F5F5F5E200F3F4F4F38B00EEE6F3EE00F3E700E7EFEB0000E70000F4
310
F300EB00F3F3E900F3E9000000000000E8F3F4F400F3F3F2F3F3F3F2F400F4F200F40000F2000000F4F2F100F3F4F0F3F2F100E8ECEF00000000000000E2F5F5E2E20000E2F5E2E2E2F5F5E2E8E700F3F3F3EEEAF4ECEEE700EB00E6ED0000F30000E8E7F30000F4F4F3F4F4F40000ED0000000000F3F3ECF200B6F3F4F3F3
310
F2F4F4F3F0F300F3B6F2F200F4F3F4F300F4F3F1F400F4F3F4F20000EE0000EF0000E2F5F5E2E20000E2F5E2E2E2E2E2E200F3F3F2F200E70000F3F2F0F3EBF3F4E8EFF000000000E9F30000F2F4F4F40000000000F4000000000000F200E8E8F3F4F0F4F2F40000F2F300F4F4F400F200EF00EAE9F2F2EF00F0F0F4ED0000
310
00EE00EF8B00F1E2F5F5E2E20000E2F5E2F5F5F5F5E2E700F20000F3F40000F4F2EA00F4B6EA00F460ED00EC00E8F200F3B60000F100000000000000EE000000000000F000E800F400F400F3F3F4F4F1F2B6F400F1EFF2000000E7E8EEF3F4F400E8000000EE00F48B0000E2F5F5E2E20000E2F5E2F5F5F5F5E200F4F000F1
310
F3F4F3E700E600E7EDE7EDF4F3F300F2F4E900F4ECECEBEF00E600000000000000000000F000000000F4E9EFF3F400F3F0F4F300F3F200F300F40000000000EF8BEFE8000000EE00F200000000000000E2F5F5E2E20000E2F5E2F5F5F5F5E2EB00F4F400F3F3F4F3E7F3E76035B6E7B600F300E700E6F46000F2F1F200EC00
310
000000000000000000000000000000F3F400F4F100F300F2F3F4F400F2F0F300000000008B8BEFF400E700F4E6F4F30000E700E7F2E2F5F5E2E20000E2F5E2F5F5F5F5E2000000F40000F40000F300E7EBEFE6F3F3F4EDF4F000E800F400EF0000F4F4000000000000000000000000E80000E9F3EFF2F1B6F4F2F4F2F200F4
310
B600F4E90000000000EEEEEEE7E960000000E7F0F48B00B6E600E2F5F5E2E20000E2F5E2F5F5F5F5E2E800E9EDE700ED0000E8F2F3F035EE00F0E7E8E7E5EC0000F300F1B600F400000000000000000000000000000000F4E7F3F300F2F1F4F400F3F3B6F400006000000000EC0000B600000000000000E7B60000F400F4E2
310
F5F5E2E20000E2F5E2F5F5F5F5E2000000F400EB00000000E860F3EDECF4F100F4ECB6E8E9B60000E9F3F40000000000000000000000000000000000F3EDE7F2F400F4B6F1F4F3F3F3F2F2F4F4F4F00000000000B6F2000000000000E9000000000060E2F5F5E2E20000E2F5E2F5F5F5F5E2000000E7F200F400000000ECF4
310
EBEDE6E735E7F3F200EAE6E900EFF400F4000000000000000000000000000000000000EAE7F4F4F3F3F400F3F2F400F4F4F3E8000000000000B600000000000000F00000F4F2F400E2F5F5E2E20000E2F5E2F5F5F5F5E200E7F3F40000000000E8E9F200F3E700F40000F4F40000000000EE0000B600000000000000000000
310
000000000000B6000000EBF0F20000F0F3EFE7F4F3F2F310101010000000F200000000000000F4F000F400F4EBE2F5F5E2E20000E2F5E2F5F5F5F5E2F2EBF1E600000000F4F4E8F2F3F3EC35F4F4F100F1E6F3ECF400F0F400B600000000000000000000000000F000000000ECB600E800E8E8EA000000EFF0E68B10101010
310
000000B60000000000000000000000F300F4E2F5F5E2E20000E2F5E2F5F5F5F5E200000000000000F4E700F3E7F400E8EDEA00E6F4F3EEF400008BEF00F2000000000000000000000000000000000000000000F4F4F4E700F30000E6E8F000EF00100000000000F100000000000000000000F2F3F3F3E2F5F5E2E20000E2F5
310
E2F5F5F5F5E2F4EE0000000000EFF4F3F1B6F400F3E8EBB6F3E7E7E8F000F400F4F3F40000000000000000F200000000000000000000000000F2F30000F30000000000001010000000000000EF000000000000000000000000F3E7E2F5F5E2E20000E2F5E2F5F5F5F5E2EBF3000000F4EEE8F200F400EEF4E9EDECEBF000EE
310
F4EFF4F1F3F0ED0000000000000000000000F0EEF1F10000000F0F0F0F0000350F0FE2F20000EB10100000000000000000F000000000000000000000000000E7E2F5F5E2E20000E2F5F5F5F5F5F5E2F300ED00F300F4F1F3E8F3F400F4EC8BE7F2B6EEE700E7F3F3F4F00000000000000000000000000000E7000000000F0F
310
0F0F000F0FE2E2000000EAE9E2E20000000000000000F000000000000000000000E9F48B00E2F5F5F5E20000E2F5F5F5F5F5F5E2E70000F400F4F2F2E8F400E7F3E98BF4ECEDF400F000EFF4EAF0EF00E800000000F400000000ECF4F400ED00000000000000000000EAF4ED000000F300EE0000000000000000EF00000000
310
000000000000E6EBE9F0E2F5F5F5E20000E2F5F5F5F5F5F5E2E9E9F3B6E8F4F0E7F3F000F200F1E9F3E8ECF2F400EC0000F4F3ECEA0000000000F48B000000EAECF4E7F3EAE800EC00E900E7EFEDE8EDB60000000000E90000000000000000EF000000000000E7EAF4F40000F0F4E2F5F5F5E20000E2F5F5F5F5F5F5E2F1F2
310
F2F1F4B6F4F40000F2F4F4F4F4E800E7E9E800F0F200F1E7F300000000E700F4008BF000000000F3EBE8EFF000EDED0035B6E78BF40000000000F48B000000EAE8000000EF000000000000E9F1E9E7EFF400EBE2F5F5F5E20000E2F5F5F5F5F5F5E2E9E7F1F4F3E7F4EEF4E7EEF2F3F400E7F4ECED8BF2000000E7E7B68BF4
310
E7F30000F4F3E800E8F0000000000000F4000000F3E8EAF2F4EDF10000ECECF4F400E860F2F1F40000EEF4E8F200EBE8F2E9EBE8E700ECECE2F5F5F5E20000E2F5F5F5F5F5F5E2F4F0E700EFF1E900F2ECE8F2F4F40000E8EAEDE8E6EBF300E9F2F200F4F4F200F4F4F2F3F200F4E7EC00F400E9F1F4F4F3F0E7E7EBF30000
310
000000E800F2E8B6F3E7E6F40000EBEA008BF4F3F40000ECF4F2E7E9EDE2F5F5F5E20000E2F5F5F5F5F5F5E2F400F2F4E7EAEF00E900E8F3F4F4F4F2EAEFF4E7E98BEFF1F4F2EF00F4F1F3F2F400F3F3F200E8E7F435F100B6EEE7E8000000F000000000000000F300F3E8F4F0F2EDED00F08BF4F3E6E88BEDEC00EF60EDEB
310
EF00E2F5F5F5E20000E2F5F5F5F5F5F5E2EAE6F0EC000000F4F0F300ECE8F3EBF20000EB00F4ECEDEEF1F4F2B6F4F300F4B6F200F4B6F2B6F3E80000EC000000000000000000000000000000F40000EA00E7F1E700F400F00000EA00F1E9EDECEBF4000000F0E2F5F5F5E20000E2F5F5F5F5F5F5E2F4F2F0F4EBF4000000F4
310
0000F3000000F2EEE7F400F4EDEDF3E9B6F1E900F4F2F4ECE7F3E6F1F400F4B6F20000F40000000000000000E800F3000000E9F0E700F3B68BF400ECECF3E7ECE8F2F2E8F400E600000000E2F5F5F5E20000E2F5E2F5F5F5F5E2F400EF00BEBE00EC0000000000E7F200E9F2F1ED00F1E8E7E7E8E5E700F30000000000EDEA
310
60F3F3F3E900F3E8000000000000000000000000F4E7E9BEBEBE00F1B6E700F3EBEAE860F4000000ECE8E6EF008BE7E8E2F5F5E2E20000E2F5E2E2E2F5F5E2E2E2BEBEBEBE00000035F400EBF1EBF4F2E7E7E9ECEBE78BECECEBE6ECE8EDF3F40000E9F3F3F2F4F2F00000000000F400000000E700E7E8E80000F2BEBEBE00
310
F4E7EDECE9F2E9F20000F460F4EFB6F2E8E8000000E2F5F5E2E20000E2F5E2F5E2F5F5E2BEBEEA00F3000000EC00F0EDF4E8E6ECEDECECECECE600E9ECECEBE7EBECECE80000F4EBF4E9F3B6F2F20000D6D6D6D6F4000000E8F0E6E8E800008BBEBEBEBEEEF3E7EB0000E8E9EEE7E6F000F4E9EA0000000000E2F5F5E2E200
310
00E2F5E2F5F5F5F5E2E2E20000000000E900E8E6EAEB8BEDE9E78BEDEAE7F4F3F400F0E9F3E9ECE7EDECE8E8E8E8EAF3F2F4F200E9D6D6D6D600008B00F3E7ECEDEDEC8BEDBEBEBEF4F4F300EBF4E7ED00E8F400F4ECE860F0EE00EE8B00E2F5F5E2E20000E2F5E2F5F5F5F5E2E700F0EFE8E8E7EDECECE8E98BECE9EEEE8B
310
EAF3EFF3F30000F3ECF00000E6ECECECE70000EB00B6F4F400F0D600ECF400F1EAECE7ECEDEDECEBEBE8E8EBB6E7E6F2F000E700EEE7F2F4F4E900EE0000E70000E8ECE2F5F5E2E20000E2F5E2F5F5F5F5E20060E7EEECECE9EBED35E8ED00E8E8F300E900F3B6F3F3F1F4F3F1F0F4F400F1ECE6ECECE8E7E8F3F2EF00D600
310
B60F0F0F0FEDE800E6F3F2F300E8F4E7F36000E7F0F4F4F4E8EEE800EBF3EB0000000000E7000000E2F5F5E2E20000E2F5E2F5F5F5F5E200E8B6E6E8E7E7F4008BF2F3F20000F4E80000E78BEDECEAE8F4EEE7E8F3F2F2F4EDECECE660EBF3F4E2E2D6ECE80F0F0F0FE8F40000F26000F400F400F4F3EFF4F2008B00F1E8E9
310
E7000000E70000000000000000E2F5F5E2E20000E2F5E2F5F5F5F5E2E8E7ECF4ECF2F3F3F2EFEF8BEBEFF3F0F28BECEDECE9EDEDB600F2F300E7F2F3B6E8EA60E8ECEDE8EBE2D6E2E2000F0F0F0F0FF2E6000000EFF2F3EBF300F4F2EFE9F300F0E8EEE8E7000000F30000000000000000E2F5F5E2E20000E2F5E2F5F5F5F5
310
E200EBE8EC00F4F4B6F2EFE8F4F4F48B00ECF0F3F4F400F2F2F300F3E7F4F3F20000E7E8EBEDEDEB3500E7E7E20F0F0F0F0F0F0F00F4F30000EAE8F2F2E7E7F100B6F000E9EFE6EF00E800000000000000F3EF00008BE2F5F5E2E20000E2F5E2F5F5F5F5E2E7F3F3F3F3E900E7E9EFF4F4E700EBF4E7E7F300B6F4F4F2F200
310
B600E8EABE00F0EAE9F300EBE835ECECE600E2E6EEE8F3B6F4F200EAEB00F4F2F300F4008BE800EAF4E70000EA00EDF400000000000000B6B60000E2F5F5E2E20000E2F5E2F5F5F5F5E20000F400E9F3F2F3E8F4F300E800E700E7EDECF4F200E8E8E8F3EE0000F2BE0000EAF300F0EC0000ECE760EBE700F3F0EBF2E9E660
310
F100F400E98BF2F0F3E6E8EB8B008BF2F38B0000000000000000000000000000E2F5F5E2E20000E2F5E2F5F5F5F5E2E700F4F3F4F460EEEA00F3F4F4EAF000EEB6EBF360F3ECB6B6EBEBEB00EFBEF200E7F4F1EBECE7EB60E6EBECE7EBE8F360F300B6F4F40000F235E8F0E7EAEDF300EDE800EA00EF00000000000000F100
310
00B6F40000E2F5F5E2E20000E2F5E2F5F5F5F5E200F4F2F4F400E8F3B6F3E6EB00F1F0F2F360B6F3E8E8E8ECE8B6F3E2E2BEE9000000ECEDEDF4E5E8F3F4ECEDE6EC8B000000E7E7000000F0E8E9E7E8F0EFEC0060F30000F4F3EEF00000000000F4F1000000000000E2F5F5E2E20000E2F5E2F5F5F5F5E20000F3F4E8E700
310
F200E9B6F3F2F3F400E9E90000EAF2F3F3EDE8EDE2BEE200EB00F4EBEBB6E6E8B6F30000EBE6ECECEC00ECE7E9F400E900EDE8EF000000ECF3F0F1F3EBF300EF0000000000000000000000000000E2F5F5E2E20000E2F5E2F5F5F5F5E20000F1E6ECB6E7EBEAE8EFEBECF3F3F4E8ECE9F4B6F1F1E8F2EBF0E2E2E2F3B6F1EB
310
EBF1E8ED00F4E700EFE7ECECEBEDECF3F4000000000000000000000000000000E7E7F0F3ED00000000000000000000F0F0B600E2F5F5E2E20000E2F5E2F5F5F5F5E2F4F400F4F0F2F4000000000000F2F3E8F3B6B6E7E7F3F3F4F4F3F1E8B6ED8BF4ECEB00F1E7EAF000F3F3F0F0F300EAEDEBEBE7000000000000000000F0
310
00000000000000D6D6D6D6000000008BF2F400F4EF000000E2F5F5E2E20000E2F5E2F5F5F5F5E2F3F4F1F3F3E7E80000000000F3E8F2F4F2EBF2E9F4E800E8EEF3F4F3B6EEE8EBECF1F1F2E9EB0000EFF1F4F4E700F4E9ECECE900000000000000F200000000000000E8F3D6D6D6D6000000F3F0F00000EDECE8EC00E2F5F5
310
E2E20000E2F5F5F5F5F5F5E200EFEFE9F38B000000000000EE000000ECEFE8F3E700EBF4E8F4F0F0F0E6E8EAF400E7E8F4EBF200E7F3E800E8E700F2EFECECF4F1000000000000000000000000000000D6D6D6D6D6000000EBE8F400E9E8ED8B8BE2F5F5F5E20000E2F5F5F5F5F5F5E2F3F3E6F4EE000000E7000000F30000
310
F28BE6F3F4F3F3F3E8F3F1F0E7ECECECECE9F3F2EDF3F3EFF4F3E6F1B6E7F2000000F2ECEC00EA00F30000EE0000000000F4F00000D6D6D6D6D66000B6EAE7EDECEC60E8F0F4E2F5F5F5E20000E2F5F5F5F5F5F5E2E9B6F3E7F400E7000000F200F20000EDED008BE7F0F400F3F1EBF3EBEB00F0EDE8F3F2F4F2ED60E6E800
310
600000E7B600ECEDF3E9ECF2F4E71010101000F4F40000000000D6D6D6D6D6EEE7EDEDE8EC008B00F0E800E2F5F5F5E20000E2F5F5F5F5F5F5E2F3F4F2EAB600000000F400F3EE0000EDEFE600E90000F4EEEEECF2F4000000EFB6F3E8F3F3ECF4E7000000F2F20000F200F400EBEA3500EF10101010000000000000F4EAD6
310
D6D6D6D6E8E8F4E900E7E7E8E80000F0E2F5F5F5E20000E2F5F5F5F5F5F5E2F4EBF300F4F200000000F1F48BE6E800F300E8F2E7F4F4F2EDEEF0F400EFF1EDF0E7B6E6E7F0E90000E6E700F2E8ECEEF2F1E8E8EBECF400E9B61000000000E9E700F0ECD6D6D6D6D6F48BE700E70000EEF0B6F0B6E2F5F5F5E20000E2F5F5F5
310
F5F5F5E200F3B6E8F2B6000000E7F3F3E7EBF3F4F4B6B6ED00F4F38BECF3F2F4F4F2F1E900F2F2F1F4F30000E80000E8F0F0E9E9B6000000F4ECECF400000010E7E600E7EDEEEDEDE800E8EEEFEE00000000E7B6E7ECE80000E2F5F5F5E20000E2F5F5E2E2F5F5E260F100E7EFF2F400F0E660E6EAE600F2B635F3F3B6F3EC
310
B6E7B6F2F3F200EEF235EEB6F2E7E8F1F4F2F200F3F3F3F3E8F2000000F400EBEC00E60010E28BE78B8B8BE8F4D6D6D6D6D6EC0000F0EB00E8ECECE7EF00E2F5F5F5E20000E2F5F5E2E2E2E2E2F4E7F2F2E7F300F200E600F2F26000F3F4F4E7E7F2E7E8ECF3F2EFF2F4F4F3F300EEEAE9F3F20060E7E7E80000F000EDB600
310
E80000E8ECEBECECEAE210E2EBECE2E2E8E9D6D6D6D6D6D6F2F2B6F2F2E8B6EFE90000E2F5F5F5E20000E2F5F5F5F5F5F5E2ED00F3E700ECEF0000E8F400F3F0F2F2F2F4F0F2B6EFEAE7F4E9B600E800F3F200F2F4F4F2E7F1F1EEF200EEF2F4EFF2EF00F2EDB6F4ECE6E9F2EBEDE28BE900E2D6D6D6D6D6D6D6D6D600B600
310
0000E900E8F4E9EAE2F5F5F5E20000E2F5F5F5F5F5F5E200EB00F4E900E6EDE7EC00E8F3E9F2F1F4B6F4F2F335ECF3F2B6F3EEE6E7F360E7F3F2E78BEDF2B6F360EBB6E7F2F4E8ED00E9F38BE8ECF1B6ECE7EDF4E6F3B6E200EE00D6D6D6D6D6F40000000000F300EFB600F3E2F5F5F5E20000E2F5E2F5F5F5F5E200600000
310
ED00EBF1F2EBF4E9EFF2B6EBF2B6F3F3F3F3E7ECF3F3F2F0E8E6F0F4E8F3F2000000EDE8F2E7F1B63500EFB6E9EAEEE8ECEDEFE8E7EB00F300EDEC8BED00EF00D6D6D6D6D6000000000000EE000000F000E2F5F5E2E20000E2F5E2F5F5F5F5E2E7F26000F3F3000000E7E8003500F3F4F4F3F4F0B6EB00EBE7F0B660E8E7E8
310
60E9006000000000F3F4F2ED0000F0E9E8ECE8EDEDE7E8ECE9E2E2E200F3EA00EDED0000F1D6D6D6D6D60000000000E2E2E2E2E2E2E2E2F5F5E2E20000E2F5E2F5F5F5F5E2F400EEEBB6EEE7E7E8B60000E9F300F2F300F4E6F2E9F3F4F4F3E900F2E8F200E9F4F3F400000000EDF4F2B6E9E7E9ECECECE7EBF4006000E2BE
310
E2F2F4ED00B6EE000000D6D6D6D6D60000000000E2E700F40060EFEFF5F5E2E20000E2F5E2F5F5F5F5E2F4ECE900E6F3F4EB00E80000F2E8EFF2F4E8F2F3EDEF35EFECE8F4E78BF3F3F3E8E80000F4ED000000EDE7E7EC8BEDE7ECECE9E8F2000060F2E9BEBEBE8BEEED8B00EF000000EC00000000000000E2000000E6E8F4
310
E6F5F5E2E20000E2F5E2F5F5F5F5E2ECE900F4E8F48BF2F3E80000F4E7EDEAB6F0F4E8E600EB00E6E6F3F3F3E70000EE0000F2F300F4F100E68BEC8BECE9E8ECF40000000000E8E660E7BEBE0000000000000000F4ED0000F100000000E20060F3E20000EFF5F5E2E20000E2F5E2F5F5F5F5E200F4F4F4F4F4E7F4EFF2F2E8
310
00EFF0F3E6F4F060EFE80000F200F0F3F3F0EBE8F2F4F400F00000E7EDEDE7E8B600EBE70000ECE90000EBE800000000000000000000000000F0ED000000F3000000E200F000E20000B6F5F5E2E20000E2F5E2F5F5F5F5E2F4F4EDF30000F0EFF100E9E9E7F3B6F400F1ECF4000000000000B6E9EF000060EA00F4B6E7E8ED
310
E9F2E78BE8E7F3F300F4000000E8F3EFF4000000000000000000000000F100ED0000000000F4EDE2000000E2F0EFEBF5F5E2E20000E2F5E2F5F5F5F5E2EF0000E8E7F4F1F2B6EC8BF3E9F2F300F3EDEAF3F3EFE900F4F2B6E6F000F3E7E6B6F4E7ECEBEE00F2F48BF2E7E8E7F30000000000EFE8F3F3E700000000ED000000
310
D6D600008B000060E8EF0000E20000F4E2F3F0ECF5F5E2E20000E2F5E2F5F5F5F5E2E7F000E8F3F3E7B6F1ECB6F2F3F2B6F4E7E7EC00F0F3E8EE0060F200E700ED00F3EAECE70000000000000000E860000000000000F3EF00000000E8F3E90000000000D6D600008B0000ECF300F300E20000F0E2F4F4EEF5F5E2E20000E2
310
F5E2F5F5F5F5E200B6EFEFF2E8EC00F4F3EFE8E9E7F3EDEDF3E7F3B6F1E9F4EBF0F30000E78BE78BE70000000000F3ED0000EB00F400F400000000EDE7EE0000F4000000ECE2E200D6D6000000EF0000F4000000B6E20000F0E2E200F2F5F5E2E20000E2F5E2F5F5F5F5E2F3EFE800F4E800E7ECF4E7F3EA00EBE8E9F3EBF4
310
F400F3000000EEF2E7EEEDE8E90000000000008B000000E80000000000000000000000000000000000EEE2D6D60000000000EE000000EAEDF300E2EA00F3E2F4F400F5F5E2E20000E2F5E2F5F5F5F5E200000000E700F3EAF2F4000000F2E7E8E6E8F3000000000000E7EDEE8BE90000B6F40000F30000EE0000F300000000
310
F100E8E2E200F000E800E7F400000000E2EBF2000000008B0000ED00000000E2ED0000E2000000F5F5E2E20000E2F5E2F5F5F5F5E20000000000F1E9F1B60000EDEBEFE7ECF2000000000000E8EBECEFE800E8000000000000000000F400E70000F300000000E2D6D600000000EF000000000000000000F4F100008BEEF200
310
F0000000E2F40000E2000000F5F5E2E20000E2F5E2F5F5F5F5E200000000000000F4F2E98BF400F1E8EDE9F400000000E8ED8BE6F100000000F2F30000000000000000E90000000000F4008BE2E2D6D6D6000000000000000000000000F2F1F4EC00000000EF0000E20000E2E2E20000F5F5E2E20000E2F5E2F5F5F5F5E200
310
000000000000000000E8000000F0EDECE800E9EEED8BEB0060F100000000F4EEEB0000E700E800F2E800E9F4F4E6F000F1E9F400D6D60000000000000000F400E9F3ED00008BF40000000000E7E2000000E2F00000F5F5E2E20000E2F5E2F5F5F5F5E200000000F0F300000000EA00ED00F4E7EAEDEDECE78BF4000000F000
310
000000F40000F300000000EEF40000F20000F40000000000000000000000F3F300EFE9F4E800000000008B00F100000000EEE20000E2E2E2F4F3F5F5E2E20000E2F5E2F5F5F5F5E200B6F400000000E7EF0000E9E7ED8BEC6000ECE9EDF0F3000000F1000000E7F4000000F100000000E7000000EEF3F1E7E7EB0000000000
310
000000000000000000000000000000EE00ECE90000EDF4E20000E2E2E20000F5F5E2E20000E2F5F5F5F5F5F5E200E800F3F3E9E9EBEE8B8BEDE7E800E8EAE6F4EE000000000000F1000000F200000000000000F4E60000E8E80000E6000000000000B600000000000000000000000000000000EF0000EAEE00F1F3E20000E2
310
E2E200F2F5F5F5E20000E2F5F5E2E2F5F5E28BECED8B8B8BEBE8E90000ED0000B6EDED8BF4EA000000000000F3EFF000F20000000000000000F3F36000000000EA00B60000000000000000F3000000000000000000000000ED00E80000F4F4F3E200EF0000000000F5F5F5E20000E2F5F5E2E2E2E2E2E2E2E2E2E2E2E2E2E2
310
E2E2E2E2E2E2E2E2E2E2E2E2E2E2E2E2E2E2E2E2E2E2E2E2E2E2E2E2E2E2E2E2E2E2E2E2E2E2E2E2E2E2E2E2E2E2E2E2E2E2E2E2E2E2E2E2E2E2E2E2E2E2E2E2E2E2E2E2E2E2F00000EE000000F5F5F5E20000E2F5F5F5F5F5F5F5E2F5F5F5F5F5F5F5F5F5F5F5F5F5F5F5F5F5F5F5F5F5F5E2F5F5F5F5F5F5F5F5F5F5F5F5
310
F5F5F5F5F5F5F5F5F5F5E2F5F5F5F5F5F5F5F5F5F5F5F5F5F5F5F5F5F5F5F5F5F5E2F5F5F5F5F5F5F5F5F5F5F5F5F5F5F5F5F5F5F5E20000E2F5F5F5F5F5F5F5E2F5F5F5F5F5F5F5F5F5F5F5F5F5F5F5F5F5F5F5F5F5F5E2F5F5F5F5F5F5F5F5F5F5F5F5F5F5F5F5F5F5F5F5F5F5E2F5F5F5F5F5F5F5F5F5F5F5F5F5F5F5F5
310
F5F5F5F5F5F5E2F5F5F5F5F5F5F5F5F5F5F5F5F5F5F5F5F5F5F5E20000E2F5F5F5F5F5F5F5E2F5F5F5F5F5F5F5F5F5F5F5F5F5F5F5F5F5F5F5F5F5F5E2F5F5F5F5F5F5F5F5F5F5F5F5F5F5F5F5F5F5F5F5F5F5E2F5F5F5F5F5F5F5F5F5F5F5F5F5F5F5F5F5F5F5F5F5F5F5F5F5F5F5F5F5F5F5F5F5F5F5F5F5F5F5F5F5F5E2
310
0000E2F5F5F5F5F5F5F5F5F5F5F5F5F5F5F5F5F5F5F5F5F5F5F5F5F5F5F5F5F5F5F5F5F5F5F5F5F5F5F5F5F5F5F5F5F5F5F5F5F5F5F5F5F5F5F5F5F5F5F5F5F5F5F5F5F5F5F5F5F5F5F5F5F5F5F5F5F5F5F5F5F5F5F5F5F5F5F5F5F5F5F5F5F5F5F5F5E20000E2F5F5F5F5F5F5F5F5F5F5F5F5F5F5F5F5F5F5F5F5F5F5F5F5
310
F5F5F5F5F5F5F5F5F5F5F5F5F5F5F5F5F5F5F5F5F5F5F5F5F5F5F5F5F5F5F5F5F5F5F5F5F5F5F5F5F5F5F5F5F5F5F5F5F5F5F5F5F5F5F5F5F5F5F5F5F5F5F5F5F5F5F5F5F5F5F5F5E20000E2F5F5F5F5F5F5F5F5F5F5F5F5F5F5F5F5F5F5F5F5F5F5F5F5F5F5F5F5F5F5F5F5F5F5F5F5F5F5F5F5F5F5F5F5F5F5F5F5F5F5F5
310
F5F5F5F5F5F5F5F5F5F5F5F5F5F5F5F5F5F5F5F5F5F5F5F5F5F5F5F5F5F5F5F5F5F5F5F5F5F5F5F5F5F5F5F5F5E20000E2F5F5F5F5F5F5F5F5F5F5F5F5F5F5F5F5F5F5F5F5F5F5F5F5F5F5F5F5F5F5F5F5F5F5F5F5F5F5F5F5F5F5F5F5F5F5F5F5F5F5F5F5F5F5F5F5F5F5F5F5F5F5F5F5F5F5F5F5F5F5F5F5F5F5F5F5F5F5
310
F5F5F5F5F5F5F5F5F5F5F5F5F5F5F5F5F5F5E20000E2F5E2F5F5F5F5F5F5F5F5F5F5F5F5F5F5F5F5F5F5F5F5F5F5F5F5F5F5F5F5F5F5F5F5F5F5F5F5F5F5F5F5F5F5F5F5F5F5F5F5F5F5F5F5F5F5F5F5F5F5F5F5F5F5F5F5F5F5F5F5F5F5F5F5F5F5F5F5F5F5F5F5F5F5F5F5F5F5F5F5F5F5F5F5F5E2E20000E2F5E2F5F5F5
310
F5F5F5F5F5F5F5F5F5F5F5F5F5F5F5F5F5F5F5F5F5F5F5F5F5F5F5F5F5F5F5F5F5F5F5F5F5F5F5F5F5F5F5F5F5F5F5F5F5F5F5F5F5F5F5F5F5F5F5F5F5F5F5F5F5F5F5F5F5F5F5F5F5F5F5F5F5F5F5F5F5F5F5F5F5F5F5F5F5F5E2E20000E2F5E2F5F5F5E2E2E2E2E2E2E2E2E2E2E2E2E2E2E2E2E2E2E2E2E2E2E2E2E2E2E2
310
E2E2E2E2E2E2E2E2E2E2E2E2E2E2E2E2E2E2E2E2E2E2E2E2E2E2E2E2E2E2E2E2E2E2E2F5F5F5F5F5F5F5F5F5F5F5F5F5F5F5F5F5F5F5F5F5F5F5F5F5F5F5F5E2E20000E2F5E2F5F5F5E2E2E2E2E2E2E2E2E2E2E2E2E2E2E2E2E2E2E2E2E2E2E2E2E2E2E2E2E2E2E2E2E2E2E2E2E2E2E2E2E2E2E2E2E2E2E2E2E2E2E2E2E2E2
310
E2E2E2E2E2E2E2E2F5F5F5F5F5F5F5F5F5F5F5F5F5F5F5F5F5F5F5F5F5F5F5F5F5F5F5F5E2E20000E2F5E2F5F5F5F5F5F5F5F5F5F5F5F5F5F5F5F5F5F5F5F5F5F5F5F5F5F5F5F5F5F5F5F5F5F5F5F5F5F5F5F5F5F5F5F5F5F5F5F5F5F5F5F5F5F5F5F5F5F5F5F5F5F5F5F5F5F5F5F5F5F5F5F5F5F5F5F5F5F5F5F5F5F5F5F5
310
F5F5F5F5F5F5F5F5F5E2E20000E2F5E2F5F5F5F5F5F5F5F5F5F5F5F5F5F5F5F5F5F5F5F5F5F5F5F5F5F5F5F5F5F5F5F5F5F5F5F5F5F5F5F5F5F5F5F5F5F5F5F5F5F5F5F5F5F5F5F5F5F5F5F5F5F5F5F5F5F5F5F5F5F5F5F5F5F5F5F5F5F5F5F5F5F5F5F5F5F5F5F5F5F5F5F5F5E2E20000E2F5E2F5F5F5F5F5F5F5F5F5F5F5
310
F5F5F5F5F5F5F5F5F5F5F5F5F5F5F5F5F5F5F5F5F5F5F5F5F5F5F5F5F5F5F5F5F5F5F5F5F5F5F5F5F5F5F5F5F5F5F5F5F5F5F5F5F5F5F5F5F5F5F5F5F5F5F5F5F5F5F5F5F5F5F5F5F5F5F5F5F5F5F5F5F5F5E2E20000E2F5E2F5F5F5F5F5F5F5F5F5F5F5F5F5F5F5F5F5F5F5F5F5F5F5F5F5F5F5F5F5F5F5F5F5F5F5F5F5F5
310
F5F5F5F5F5F5F5F5F5F5F5F5F5F5F5F5F5F5F5F5F5F5F5F5F5F5F5F5F5F5F5F5F5F5F5F5F5F5F5F5F5F5F5F5F5F5F5F5F5F5F5F5F5F5F5E2E20000E2F5E2E2E2E2E2E2E2E2F5F5F5F5F5F5F5F5E2E2E2E2E2E2E2E2E2E2E2E2E2E2E2E2F5F5F5F5F5F5F5F5E2E2E2E2E2E2E2E2E2E2E2E2E2E2E2F5F5F5F5F5F5F5F5E2E2E2
310
E2E2E2E2E2E2E2E2E2E2E2E2E2F5F5F5F5F5F5F5F5E2E2E2E2E2E2E2E2E20000E2F5F5F5F5F5F5F5F5F5F5F5F5F5F5F5F5F5F5F5F5F5F5F5F5F5F5F5F5F5F5F5F5F5F5F5F5F5F5F5F5F5F5F5F5F5F5F5F5F5F5F5F5F5F5F5F5F5F5F5F5F5F5F5F5F5F5F5F5F5F5F5F5F5F5F5F5F5F5F5F5F5F5F5F5F5F5F5F5F5F5F5F5F5F5
310
F5F5E20000E2E2E2E2E2E2E2E2E2E2E2E2E2E2E2E2E2E2E2E2E2E2E2E2E2E2E2E2E2E2E2E2E2E2E2E2E2E2E2E2E2E2E2E2E2E2E2E2E2E2E2E2E2E2E2E2E2E2E2E2E2E2E2E2E2E2E2E2E2E2E2E2E2E2E2E2E2E2E2E2E2E2E2E2E2E2E2E2E2E2E2E2E2E2E2E2E2E20000EFEFEFEFEFEFEFEFEFEFEFEFEFEFEFEFEFEFEFEFEFEF
310
EFEFEFEFEFEFEFEFEFEFEFEFEFEFEFEFEFEFEFEFEFEFEFEFEFEFEFEFEFEFEFEFEFEFEFEFEFEFEFEFEFEFEFEFEFEFEFEFEFEFEFEFEFEFEFEFEFEFEFEFEFEFEFEFEFEFEFEFEFEFEFEFEFEFEFEF0000
  0
CELLSTYLEMAP
  5
43C
102
{ACAD_REACTORS
330
43B
102
}
330
43B
100
AcDbCellStyleMap
 90
        3
300
CELLSTYLE
  1
TABLEFORMAT_BEGIN
 90
        5
170
     1
 91
        0
 92
    32768
 62
   257
 93
        1
300
CONTENTFORMAT
  1
CONTENTFORMAT_BEGIN
 90
        0
 91
        0
 92
        4
 93
        0
300

 40
0.0
140
1.0
 94
        5
 62
     0
340
11
144
6.0
309
CONTENTFORMAT_END
171
     1
301
MARGIN
  1
CELLMARGIN_BEGIN
 40
1.5
 40
1.5
 40
1.5
 40
1.5
 40
0.18
 40
0.18
309
CELLMARGIN_END
 94
        6
 95
        1
302
GRIDFORMAT
  1
GRIDFORMAT_BEGIN
 90
        0
 91
        1
 62
     0
 92
       -2
340
0
 93
        0
 40
0.045
309
GRIDFORMAT_END
 95
        2
302
GRIDFORMAT
  1
GRIDFORMAT_BEGIN
 90
        0
 91
        1
 62
     0
 92
       -2
340
0
 93
        0
 40
0.045
309
GRIDFORMAT_END
 95
        4
302
GRIDFORMAT
  1
GRIDFORMAT_BEGIN
 90
        0
 91
        1
 62
     0
 92
       -2
340
0
 93
        0
 40
0.045
309
GRIDFORMAT_END
 95
        8
302
GRIDFORMAT
  1
GRIDFORMAT_BEGIN
 90
        0
 91
        1
 62
     0
 92
       -2
340
0
 93
        0
 40
0.045
309
GRIDFORMAT_END
 95
       16
302
GRIDFORMAT
  1
GRIDFORMAT_BEGIN
 90
        0
 91
        1
 62
     0
 92
       -2
340
0
 93
        0
 40
0.045
309
GRIDFORMAT_END
 95
       32
302
GRIDFORMAT
  1
GRIDFORMAT_BEGIN
 90
        0
 91
        1
 62
     0
 92
       -2
340
0
 93
        0
 40
0.045
309
GRIDFORMAT_END
309
TABLEFORMAT_END
  1
CELLSTYLE_BEGIN
 90
        1
 91
        1
300
_TITLE
309
CELLSTYLE_END
300
CELLSTYLE
  1
TABLEFORMAT_BEGIN
 90
        5
170
     1
 91
        0
 92
        0
 62
   257
 93
        1
300
CONTENTFORMAT
  1
CONTENTFORMAT_BEGIN
 90
        0
 91
        0
 92
        4
 93
        0
300

 40
0.0
140
1.0
 94
        5
 62
     0
340
11
144
4.5
309
CONTENTFORMAT_END
171
     1
301
MARGIN
  1
CELLMARGIN_BEGIN
 40
1.5
 40
1.5
 40
1.5
 40
1.5
 40
0.18
 40
0.18
309
CELLMARGIN_END
 94
        6
 95
        1
302
GRIDFORMAT
  1
GRIDFORMAT_BEGIN
 90
        0
 91
        1
 62
     0
 92
       -2
340
0
 93
        0
 40
0.045
309
GRIDFORMAT_END
 95
        2
302
GRIDFORMAT
  1
GRIDFORMAT_BEGIN
 90
        0
 91
        1
 62
     0
 92
       -2
340
0
 93
        0
 40
0.045
309
GRIDFORMAT_END
 95
        4
302
GRIDFORMAT
  1
GRIDFORMAT_BEGIN
 90
        0
 91
        1
 62
     0
 92
       -2
340
0
 93
        0
 40
0.045
309
GRIDFORMAT_END
 95
        8
302
GRIDFORMAT
  1
GRIDFORMAT_BEGIN
 90
        0
 91
        1
 62
     0
 92
       -2
340
0
 93
        0
 40
0.045
309
GRIDFORMAT_END
 95
       16
302
GRIDFORMAT
  1
GRIDFORMAT_BEGIN
 90
        0
 91
        1
 62
     0
 92
       -2
340
0
 93
        0
 40
0.045
309
GRIDFORMAT_END
 95
       32
302
GRIDFORMAT
  1
GRIDFORMAT_BEGIN
 90
        0
 91
        1
 62
     0
 92
       -2
340
0
 93
        0
 40
0.045
309
GRIDFORMAT_END
309
TABLEFORMAT_END
  1
CELLSTYLE_BEGIN
 90
        2
 91
        1
300
_HEADER
309
CELLSTYLE_END
300
CELLSTYLE
  1
TABLEFORMAT_BEGIN
 90
        5
170
     1
 91
        0
 92
        0
 62
   257
 93
        1
300
CONTENTFORMAT
  1
CONTENTFORMAT_BEGIN
 90
        0
 91
        0
 92
        4
 93
        0
300

 40
0.0
140
1.0
 94
        2
 62
     0
340
11
144
4.5
309
CONTENTFORMAT_END
171
     1
301
MARGIN
  1
CELLMARGIN_BEGIN
 40
1.5
 40
1.5
 40
1.5
 40
1.5
 40
0.18
 40
0.18
309
CELLMARGIN_END
 94
        6
 95
        1
302
GRIDFORMAT
  1
GRIDFORMAT_BEGIN
 90
        0
 91
        1
 62
     0
 92
       -2
340
0
 93
        0
 40
0.045
309
GRIDFORMAT_END
 95
        2
302
GRIDFORMAT
  1
GRIDFORMAT_BEGIN
 90
        0
 91
        1
 62
     0
 92
       -2
340
0
 93
        0
 40
0.045
309
GRIDFORMAT_END
 95
        4
302
GRIDFORMAT
  1
GRIDFORMAT_BEGIN
 90
        0
 91
        1
 62
     0
 92
       -2
340
0
 93
        0
 40
0.045
309
GRIDFORMAT_END
 95
        8
302
GRIDFORMAT
  1
GRIDFORMAT_BEGIN
 90
        0
 91
        1
 62
     0
 92
       -2
340
0
 93
        0
 40
0.045
309
GRIDFORMAT_END
 95
       16
302
GRIDFORMAT
  1
GRIDFORMAT_BEGIN
 90
        0
 91
        1
 62
     0
 92
       -2
340
0
 93
        0
 40
0.045
309
GRIDFORMAT_END
 95
       32
302
GRIDFORMAT
  1
GRIDFORMAT_BEGIN
 90
        0
 91
        1
 62
     0
 92
       -2
340
0
 93
        0
 40
0.045
309
GRIDFORMAT_END
309
TABLEFORMAT_END
  1
CELLSTYLE_BEGIN
 90
        3
 91
        2
300
_DATA
309
CELLSTYLE_END
  0
XRECORD
  5
446
102
{ACAD_REACTORS
330
445
102
}
330
445
100
AcDbXrecord
280
     1
102
RTVSPost2010Prop28
280
     1
102
RTVSPost2010PropOp28
 70
     1
102
RTVSPost2010Prop29
280
     1
102
RTVSPost2010PropOp29
 70
     1
102
RTVSPost2010Prop30
280
     0
102
RTVSPost2010PropOp30
 70
     1
102
RTVSPost2010Prop31
280
     0
102
RTVSPost2010PropOp31
 70
     1
102
RTVSPost2010Prop32
280
     0
102
RTVSPost2010PropOp32
 70
     1
102
RTVSPost2010Prop33
280
     0
102
RTVSPost2010PropOp33
 70
     1
102
RTVSPost2010Prop34
280
     0
102
RTVSPost2010PropOp34
 70
     1
102
RTVSPost2010Prop35
280
     0
102
RTVSPost2010PropOp35
 70
     1
102
RTVSPost2010Prop36
280
     0
102
RTVSPost2010PropOp36
 70
     1
102
RTVSPost2010Prop37
 90
       50
102
RTVSPost2010PropOp37
 70
     1
102
RTVSPost2010Prop38
140
0.0
102
RTVSPost2010PropOp38
 70
     1
102
RTVSPost2010Prop39
140
1.0
102
RTVSPost2010PropOp39
 70
     1
102
RTVSPost2010Prop40
 90
        0
102
RTVSPost2010PropOp40
 70
     1
102
RTVSPost2010Prop41ColorIndex
 90
       18
102
RTVSPost2010Prop41ColorRGB
 90
        0
102
RTVSPost2010PropOp41
 70
     1
102
RTVSPost2010Prop42
 90
       50
102
RTVSPost2010PropOp42
 70
     1
102
RTVSPost2010Prop43
 90
        3
102
RTVSPost2010PropOp43
 70
     1
102
RTVSPost2010Prop44ColorIndex
 90
        5
102
RTVSPost2010Prop44ColorRGB
 90
      255
102
RTVSPost2010PropOp44
 70
     1
102
RTVSPost2010Prop45
280
     0
102
RTVSPost2010PropOp45
 70
     1
102
RTVSPost2010Prop46
 90
       50
102
RTVSPost2010PropOp46
 70
     1
102
RTVSPost2010Prop47
 90
       50
102
RTVSPost2010PropOp47
 70
     1
102
RTVSPost2010Prop48
 90
       50
102
RTVSPost2010PropOp48
 70
     1
102
RTVSPost2010Prop49
280
     0
102
RTVSPost2010PropOp49
 70
     1
102
RTVSPost2010Prop50
 90
       50
102
RTVSPost2010PropOp50
 70
     1
102
RTVSPost2010Prop51ColorIndex
 90
      256
102
RTVSPost2010Prop51ColorRGB
 90
-16777216
102
RTVSPost2010PropOp51
 70
     0
102
RTVSPost2010Prop52
140
1.0
102
RTVSPost2010PropOp52
 70
     0
102
RTVSPost2010Prop53
 90
        2
102
RTVSPost2010PropOp53
 70
     1
102
RTVSPost2010Prop54
  1
strokes_ogs.tif
102
RTVSPost2010PropOp54
 70
     1
102
RTVSPost2010Prop55
280
     0
102
RTVSPost2010PropOp55
 70
     1
102
RTVSPost2010Prop56
140
1.0
102
RTVSPost2010PropOp56
 70
     1
102
RTVSPost2010Prop57
140
1.0
102
RTVSPost2010PropOp57
 70
     1
  0
XRECORD
  5
44C
102
{ACAD_REACTORS
330
44B
102
}
330
44B
100
AcDbXrecord
280
     1
102
RTVSPost2010Prop28
280
     0
102
RTVSPost2010PropOp28
 70
     1
102
RTVSPost2010Prop29
280
     1
102
RTVSPost2010PropOp29
 70
     1
102
RTVSPost2010Prop30
280
     1
102
RTVSPost2010PropOp30
 70
     1
102
RTVSPost2010Prop31
280
     0
102
RTVSPost2010PropOp31
 70
     1
102
RTVSPost2010Prop32
280
     0
102
RTVSPost2010PropOp32
 70
     1
102
RTVSPost2010Prop33
280
     0
102
RTVSPost2010PropOp33
 70
     1
102
RTVSPost2010Prop34
280
     0
102
RTVSPost2010PropOp34
 70
     1
102
RTVSPost2010Prop35
280
     0
102
RTVSPost2010PropOp35
 70
     1
102
RTVSPost2010Prop36
280
     0
102
RTVSPost2010PropOp36
 70
     1
102
RTVSPost2010Prop37
 90
       50
102
RTVSPost2010PropOp37
 70
     1
102
RTVSPost2010Prop38
140
0.0
102
RTVSPost2010PropOp38
 70
     1
102
RTVSPost2010Prop39
140
1.0
102
RTVSPost2010PropOp39
 70
     1
102
RTVSPost2010Prop40
 90
        0
102
RTVSPost2010PropOp40
 70
     1
102
RTVSPost2010Prop41ColorIndex
 90
       18
102
RTVSPost2010Prop41ColorRGB
 90
        0
102
RTVSPost2010PropOp41
 70
     1
102
RTVSPost2010Prop42
 90
       50
102
RTVSPost2010PropOp42
 70
     1
102
RTVSPost2010Prop43
 90
        3
102
RTVSPost2010PropOp43
 70
     1
102
RTVSPost2010Prop44ColorIndex
 90
        5
102
RTVSPost2010Prop44ColorRGB
 90
      255
102
RTVSPost2010PropOp44
 70
     1
102
RTVSPost2010Prop45
280
     0
102
RTVSPost2010PropOp45
 70
     1
102
RTVSPost2010Prop46
 90
       50
102
RTVSPost2010PropOp46
 70
     1
102
RTVSPost2010Prop47
 90
       50
102
RTVSPost2010PropOp47
 70
     1
102
RTVSPost2010Prop48
 90
       50
102
RTVSPost2010PropOp48
 70
     1
102
RTVSPost2010Prop49
280
     0
102
RTVSPost2010PropOp49
 70
     1
102
RTVSPost2010Prop50
 90
       50
102
RTVSPost2010PropOp50
 70
     1
102
RTVSPost2010Prop51ColorIndex
 90
      256
102
RTVSPost2010Prop51ColorRGB
 90
-16777216
102
RTVSPost2010PropOp51
 70
     0
102
RTVSPost2010Prop52
140
1.0
102
RTVSPost2010PropOp52
 70
     0
102
RTVSPost2010Prop53
 90
        2
102
RTVSPost2010PropOp53
 70
     1
102
RTVSPost2010Prop54
  1
strokes_ogs.tif
102
RTVSPost2010PropOp54
 70
     1
102
RTVSPost2010Prop55
280
     0
102
RTVSPost2010PropOp55
 70
     1
102
RTVSPost2010Prop56
140
1.0
102
RTVSPost2010PropOp56
 70
     1
102
RTVSPost2010Prop57
140
1.0
102
RTVSPost2010PropOp57
 70
     1
  0
XRECORD
  5
454
102
{ACAD_REACTORS
330
453
102
}
330
453
100
AcDbXrecord
280
     1
102
RTVSPost2010Prop28
280
     0
102
RTVSPost2010PropOp28
 70
     1
102
RTVSPost2010Prop29
280
     1
102
RTVSPost2010PropOp29
 70
     1
102
RTVSPost2010Prop30
280
     1
102
RTVSPost2010PropOp30
 70
     1
102
RTVSPost2010Prop31
280
     0
102
RTVSPost2010PropOp31
 70
     1
102
RTVSPost2010Prop32
280
     0
102
RTVSPost2010PropOp32
 70
     1
102
RTVSPost2010Prop33
280
     0
102
RTVSPost2010PropOp33
 70
     1
102
RTVSPost2010Prop34
280
     0
102
RTVSPost2010PropOp34
 70
     1
102
RTVSPost2010Prop35
280
     0
102
RTVSPost2010PropOp35
 70
     1
102
RTVSPost2010Prop36
280
     0
102
RTVSPost2010PropOp36
 70
     1
102
RTVSPost2010Prop37
 90
       50
102
RTVSPost2010PropOp37
 70
     1
102
RTVSPost2010Prop38
140
0.0
102
RTVSPost2010PropOp38
 70
     1
102
RTVSPost2010Prop39
140
1.0
102
RTVSPost2010PropOp39
 70
     1
102
RTVSPost2010Prop40
 90
        0
102
RTVSPost2010PropOp40
 70
     1
102
RTVSPost2010Prop41ColorIndex
 90
       18
102
RTVSPost2010Prop41ColorRGB
 90
        0
102
RTVSPost2010PropOp41
 70
     1
102
RTVSPost2010Prop42
 90
       50
102
RTVSPost2010PropOp42
 70
     1
102
RTVSPost2010Prop43
 90
        3
102
RTVSPost2010PropOp43
 70
     1
102
RTVSPost2010Prop44ColorIndex
 90
        5
102
RTVSPost2010Prop44ColorRGB
 90
      255
102
RTVSPost2010PropOp44
 70
     1
102
RTVSPost2010Prop45
280
     0
102
RTVSPost2010PropOp45
 70
     1
102
RTVSPost2010Prop46
 90
       50
102
RTVSPost2010PropOp46
 70
     1
102
RTVSPost2010Prop47
 90
       50
102
RTVSPost2010PropOp47
 70
     1
102
RTVSPost2010Prop48
 90
       50
102
RTVSPost2010PropOp48
 70
     1
102
RTVSPost2010Prop49
280
     0
102
RTVSPost2010PropOp49
 70
     1
102
RTVSPost2010Prop50
 90
       50
102
RTVSPost2010PropOp50
 70
     1
102
RTVSPost2010Prop51ColorIndex
 90
      256
102
RTVSPost2010Prop51ColorRGB
 90
-16777216
102
RTVSPost2010PropOp51
 70
     0
102
RTVSPost2010Prop52
140
1.0
102
RTVSPost2010PropOp52
 70
     0
102
RTVSPost2010Prop53
 90
        2
102
RTVSPost2010PropOp53
 70
     1
102
RTVSPost2010Prop54
  1
strokes_ogs.tif
102
RTVSPost2010PropOp54
 70
     1
102
RTVSPost2010Prop55
280
     0
102
RTVSPost2010PropOp55
 70
     1
102
RTVSPost2010Prop56
140
1.0
102
RTVSPost2010PropOp56
 70
     1
102
RTVSPost2010Prop57
140
1.0
102
RTVSPost2010PropOp57
 70
     1
  0
XRECORD
  5
45C
102
{ACAD_REACTORS
330
45B
102
}
330
45B
100
AcDbXrecord
280
     1
102
RTVSPost2010Prop28
280
     0
102
RTVSPost2010PropOp28
 70
     1
102
RTVSPost2010Prop29
280
     1
102
RTVSPost2010PropOp29
 70
     1
102
RTVSPost2010Prop30
280
     1
102
RTVSPost2010PropOp30
 70
     1
102
RTVSPost2010Prop31
280
     0
102
RTVSPost2010PropOp31
 70
     1
102
RTVSPost2010Prop32
280
     0
102
RTVSPost2010PropOp32
 70
     1
102
RTVSPost2010Prop33
280
     0
102
RTVSPost2010PropOp33
 70
     1
102
RTVSPost2010Prop34
280
     0
102
RTVSPost2010PropOp34
 70
     1
102
RTVSPost2010Prop35
280
     0
102
RTVSPost2010PropOp35
 70
     1
102
RTVSPost2010Prop36
280
     0
102
RTVSPost2010PropOp36
 70
     1
102
RTVSPost2010Prop37
 90
       50
102
RTVSPost2010PropOp37
 70
     1
102
RTVSPost2010Prop38
140
0.0
102
RTVSPost2010PropOp38
 70
     1
102
RTVSPost2010Prop39
140
1.0
102
RTVSPost2010PropOp39
 70
     1
102
RTVSPost2010Prop40
 90
        0
102
RTVSPost2010PropOp40
 70
     1
102
RTVSPost2010Prop41ColorIndex
 90
       18
102
RTVSPost2010Prop41ColorRGB
 90
        0
102
RTVSPost2010PropOp41
 70
     1
102
RTVSPost2010Prop42
 90
       50
102
RTVSPost2010PropOp42
 70
     1
102
RTVSPost2010Prop43
 90
        3
102
RTVSPost2010PropOp43
 70
     1
102
RTVSPost2010Prop44ColorIndex
 90
        5
102
RTVSPost2010Prop44ColorRGB
 90
      255
102
RTVSPost2010PropOp44
 70
     1
102
RTVSPost2010Prop45
280
     0
102
RTVSPost2010PropOp45
 70
     1
102
RTVSPost2010Prop46
 90
       50
102
RTVSPost2010PropOp46
 70
     1
102
RTVSPost2010Prop47
 90
       50
102
RTVSPost2010PropOp47
 70
     1
102
RTVSPost2010Prop48
 90
       50
102
RTVSPost2010PropOp48
 70
     1
102
RTVSPost2010Prop49
280
     0
102
RTVSPost2010PropOp49
 70
     1
102
RTVSPost2010Prop50
 90
       50
102
RTVSPost2010PropOp50
 70
     1
102
RTVSPost2010Prop51ColorIndex
 90
      256
102
RTVSPost2010Prop51ColorRGB
 90
-16777216
102
RTVSPost2010PropOp51
 70
     0
102
RTVSPost2010Prop52
140
1.0
102
RTVSPost2010PropOp52
 70
     0
102
RTVSPost2010Prop53
 90
        2
102
RTVSPost2010PropOp53
 70
     1
102
RTVSPost2010Prop54
  1
strokes_ogs.tif
102
RTVSPost2010PropOp54
 70
     1
102
RTVSPost2010Prop55
280
     0
102
RTVSPost2010PropOp55
 70
     1
102
RTVSPost2010Prop56
140
1.0
102
RTVSPost2010PropOp56
 70
     1
102
RTVSPost2010Prop57
140
1.0
102
RTVSPost2010PropOp57
 70
     1
  0
XRECORD
  5
450
102
{ACAD_REACTORS
330
44F
102
}
330
44F
100
AcDbXrecord
280
     1
102
RTVSPost2010Prop28
280
     0
102
RTVSPost2010PropOp28
 70
     1
102
RTVSPost2010Prop29
280
     1
102
RTVSPost2010PropOp29
 70
     1
102
RTVSPost2010Prop30
280
     1
102
RTVSPost2010PropOp30
 70
     1
102
RTVSPost2010Prop31
280
     0
102
RTVSPost2010PropOp31
 70
     1
102
RTVSPost2010Prop32
280
     0
102
RTVSPost2010PropOp32
 70
     1
102
RTVSPost2010Prop33
280
     0
102
RTVSPost2010PropOp33
 70
     1
102
RTVSPost2010Prop34
280
     0
102
RTVSPost2010PropOp34
 70
     1
102
RTVSPost2010Prop35
280
     0
102
RTVSPost2010PropOp35
 70
     1
102
RTVSPost2010Prop36
280
     0
102
RTVSPost2010PropOp36
 70
     1
102
RTVSPost2010Prop37
 90
       50
102
RTVSPost2010PropOp37
 70
     1
102
RTVSPost2010Prop38
140
0.0
102
RTVSPost2010PropOp38
 70
     1
102
RTVSPost2010Prop39
140
1.0
102
RTVSPost2010PropOp39
 70
     1
102
RTVSPost2010Prop40
 90
        0
102
RTVSPost2010PropOp40
 70
     1
102
RTVSPost2010Prop41ColorIndex
 90
       18
102
RTVSPost2010Prop41ColorRGB
 90
        0
102
RTVSPost2010PropOp41
 70
     1
102
RTVSPost2010Prop42
 90
       50
102
RTVSPost2010PropOp42
 70
     1
102
RTVSPost2010Prop43
 90
        3
102
RTVSPost2010PropOp43
 70
     1
102
RTVSPost2010Prop44ColorIndex
 90
        5
102
RTVSPost2010Prop44ColorRGB
 90
      255
102
RTVSPost2010PropOp44
 70
     1
102
RTVSPost2010Prop45
280
     0
102
RTVSPost2010PropOp45
 70
     1
102
RTVSPost2010Prop46
 90
       50
102
RTVSPost2010PropOp46
 70
     1
102
RTVSPost2010Prop47
 90
       50
102
RTVSPost2010PropOp47
 70
     1
102
RTVSPost2010Prop48
 90
       50
102
RTVSPost2010PropOp48
 70
     1
102
RTVSPost2010Prop49
280
     0
102
RTVSPost2010PropOp49
 70
     1
102
RTVSPost2010Prop50
 90
       50
102
RTVSPost2010PropOp50
 70
     1
102
RTVSPost2010Prop51ColorIndex
 90
      256
102
RTVSPost2010Prop51ColorRGB
 90
-16777216
102
RTVSPost2010PropOp51
 70
     0
102
RTVSPost2010Prop52
140
1.0
102
RTVSPost2010PropOp52
 70
     0
102
RTVSPost2010Prop53
 90
        2
102
RTVSPost2010PropOp53
 70
     1
102
RTVSPost2010Prop54
  1
strokes_ogs.tif
102
RTVSPost2010PropOp54
 70
     1
102
RTVSPost2010Prop55
280
     0
102
RTVSPost2010PropOp55
 70
     1
102
RTVSPost2010Prop56
140
1.0
102
RTVSPost2010PropOp56
 70
     1
102
RTVSPost2010Prop57
140
1.0
102
RTVSPost2010PropOp57
 70
     1
  0
XRECORD
  5
452
102
{ACAD_REACTORS
330
451
102
}
330
451
100
AcDbXrecord
280
     1
102
RTVSPost2010Prop28
280
     0
102
RTVSPost2010PropOp28
 70
     1
102
RTVSPost2010Prop29
280
     1
102
RTVSPost2010PropOp29
 70
     1
102
RTVSPost2010Prop30
280
     1
102
RTVSPost2010PropOp30
 70
     1
102
RTVSPost2010Prop31
280
     0
102
RTVSPost2010PropOp31
 70
     1
102
RTVSPost2010Prop32
280
     0
102
RTVSPost2010PropOp32
 70
     1
102
RTVSPost2010Prop33
280
     0
102
RTVSPost2010PropOp33
 70
     1
102
RTVSPost2010Prop34
280
     0
102
RTVSPost2010PropOp34
 70
     1
102
RTVSPost2010Prop35
280
     0
102
RTVSPost2010PropOp35
 70
     1
102
RTVSPost2010Prop36
280
     0
102
RTVSPost2010PropOp36
 70
     1
102
RTVSPost2010Prop37
 90
       50
102
RTVSPost2010PropOp37
 70
     1
102
RTVSPost2010Prop38
140
0.0
102
RTVSPost2010PropOp38
 70
     1
102
RTVSPost2010Prop39
140
1.0
102
RTVSPost2010PropOp39
 70
     1
102
RTVSPost2010Prop40
 90
        0
102
RTVSPost2010PropOp40
 70
     1
102
RTVSPost2010Prop41ColorIndex
 90
       18
102
RTVSPost2010Prop41ColorRGB
 90
        0
102
RTVSPost2010PropOp41
 70
     1
102
RTVSPost2010Prop42
 90
       50
102
RTVSPost2010PropOp42
 70
     1
102
RTVSPost2010Prop43
 90
        3
102
RTVSPost2010PropOp43
 70
     1
102
RTVSPost2010Prop44ColorIndex
 90
        5
102
RTVSPost2010Prop44ColorRGB
 90
      255
102
RTVSPost2010PropOp44
 70
     1
102
RTVSPost2010Prop45
280
     0
102
RTVSPost2010PropOp45
 70
     1
102
RTVSPost2010Prop46
 90
       50
102
RTVSPost2010PropOp46
 70
     1
102
RTVSPost2010Prop47
 90
       50
102
RTVSPost2010PropOp47
 70
     1
102
RTVSPost2010Prop48
 90
       50
102
RTVSPost2010PropOp48
 70
     1
102
RTVSPost2010Prop49
280
     0
102
RTVSPost2010PropOp49
 70
     1
102
RTVSPost2010Prop50
 90
       50
102
RTVSPost2010PropOp50
 70
     1
102
RTVSPost2010Prop51ColorIndex
 90
      256
102
RTVSPost2010Prop51ColorRGB
 90
-16777216
102
RTVSPost2010PropOp51
 70
     0
102
RTVSPost2010Prop52
140
1.0
102
RTVSPost2010PropOp52
 70
     0
102
RTVSPost2010Prop53
 90
        2
102
RTVSPost2010PropOp53
 70
     1
102
RTVSPost2010Prop54
  1
strokes_ogs.tif
102
RTVSPost2010PropOp54
 70
     1
102
RTVSPost2010Prop55
280
     0
102
RTVSPost2010PropOp55
 70
     1
102
RTVSPost2010Prop56
140
1.0
102
RTVSPost2010PropOp56
 70
     1
102
RTVSPost2010Prop57
140
1.0
102
RTVSPost2010PropOp57
 70
     1
  0
XRECORD
  5
462
102
{ACAD_REACTORS
330
461
102
}
330
461
100
AcDbXrecord
280
     1
102
RTVSPost2010Prop28
280
     0
102
RTVSPost2010PropOp28
 70
     0
102
RTVSPost2010Prop29
280
     1
102
RTVSPost2010PropOp29
 70
     0
102
RTVSPost2010Prop30
280
     1
102
RTVSPost2010PropOp30
 70
     0
102
RTVSPost2010Prop31
280
     0
102
RTVSPost2010PropOp31
 70
     0
102
RTVSPost2010Prop32
280
     0
102
RTVSPost2010PropOp32
 70
     0
102
RTVSPost2010Prop33
280
     0
102
RTVSPost2010PropOp33
 70
     0
102
RTVSPost2010Prop34
280
     0
102
RTVSPost2010PropOp34
 70
     0
102
RTVSPost2010Prop35
280
     0
102
RTVSPost2010PropOp35
 70
     0
102
RTVSPost2010Prop36
280
     0
102
RTVSPost2010PropOp36
 70
     0
102
RTVSPost2010Prop37
 90
       50
102
RTVSPost2010PropOp37
 70
     0
102
RTVSPost2010Prop38
140
0.0
102
RTVSPost2010PropOp38
 70
     0
102
RTVSPost2010Prop39
140
1.0
102
RTVSPost2010PropOp39
 70
     0
102
RTVSPost2010Prop40
 90
        0
102
RTVSPost2010PropOp40
 70
     0
102
RTVSPost2010Prop41ColorIndex
 90
       18
102
RTVSPost2010Prop41ColorRGB
 90
        0
102
RTVSPost2010PropOp41
 70
     0
102
RTVSPost2010Prop42
 90
       50
102
RTVSPost2010PropOp42
 70
     0
102
RTVSPost2010Prop43
 90
        3
102
RTVSPost2010PropOp43
 70
     0
102
RTVSPost2010Prop44ColorIndex
 90
        5
102
RTVSPost2010Prop44ColorRGB
 90
      255
102
RTVSPost2010PropOp44
 70
     0
102
RTVSPost2010Prop45
280
     0
102
RTVSPost2010PropOp45
 70
     0
102
RTVSPost2010Prop46
 90
       50
102
RTVSPost2010PropOp46
 70
     0
102
RTVSPost2010Prop47
 90
       50
102
RTVSPost2010PropOp47
 70
     0
102
RTVSPost2010Prop48
 90
       50
102
RTVSPost2010PropOp48
 70
     0
102
RTVSPost2010Prop49
280
     0
102
RTVSPost2010PropOp49
 70
     0
102
RTVSPost2010Prop50
 90
       50
102
RTVSPost2010PropOp50
 70
     0
102
RTVSPost2010Prop51ColorIndex
 90
      256
102
RTVSPost2010Prop51ColorRGB
 90
-16777216
102
RTVSPost2010PropOp51
 70
     0
102
RTVSPost2010Prop52
140
1.0
102
RTVSPost2010PropOp52
 70
     0
102
RTVSPost2010Prop53
 90
        2
102
RTVSPost2010PropOp53
 70
     0
102
RTVSPost2010Prop54
  1
strokes_ogs.tif
102
RTVSPost2010PropOp54
 70
     0
102
RTVSPost2010Prop55
280
     0
102
RTVSPost2010PropOp55
 70
     0
102
RTVSPost2010Prop56
140
1.0
102
RTVSPost2010PropOp56
 70
     0
102
RTVSPost2010Prop57
140
1.0
102
RTVSPost2010PropOp57
 70
     0
  0
XRECORD
  5
45A
102
{ACAD_REACTORS
330
459
102
}
330
459
100
AcDbXrecord
280
     1
102
RTVSPost2010Prop28
280
     0
102
RTVSPost2010PropOp28
 70
     1
102
RTVSPost2010Prop29
280
     1
102
RTVSPost2010PropOp29
 70
     1
102
RTVSPost2010Prop30
280
     1
102
RTVSPost2010PropOp30
 70
     1
102
RTVSPost2010Prop31
280
     0
102
RTVSPost2010PropOp31
 70
     1
102
RTVSPost2010Prop32
280
     0
102
RTVSPost2010PropOp32
 70
     1
102
RTVSPost2010Prop33
280
     0
102
RTVSPost2010PropOp33
 70
     1
102
RTVSPost2010Prop34
280
     0
102
RTVSPost2010PropOp34
 70
     1
102
RTVSPost2010Prop35
280
     0
102
RTVSPost2010PropOp35
 70
     1
102
RTVSPost2010Prop36
280
     0
102
RTVSPost2010PropOp36
 70
     1
102
RTVSPost2010Prop37
 90
       50
102
RTVSPost2010PropOp37
 70
     1
102
RTVSPost2010Prop38
140
0.0
102
RTVSPost2010PropOp38
 70
     1
102
RTVSPost2010Prop39
140
1.0
102
RTVSPost2010PropOp39
 70
     1
102
RTVSPost2010Prop40
 90
        0
102
RTVSPost2010PropOp40
 70
     1
102
RTVSPost2010Prop41ColorIndex
 90
       18
102
RTVSPost2010Prop41ColorRGB
 90
        0
102
RTVSPost2010PropOp41
 70
     1
102
RTVSPost2010Prop42
 90
       50
102
RTVSPost2010PropOp42
 70
     1
102
RTVSPost2010Prop43
 90
        3
102
RTVSPost2010PropOp43
 70
     1
102
RTVSPost2010Prop44ColorIndex
 90
        5
102
RTVSPost2010Prop44ColorRGB
 90
      255
102
RTVSPost2010PropOp44
 70
     1
102
RTVSPost2010Prop45
280
     0
102
RTVSPost2010PropOp45
 70
     1
102
RTVSPost2010Prop46
 90
       50
102
RTVSPost2010PropOp46
 70
     1
102
RTVSPost2010Prop47
 90
       50
102
RTVSPost2010PropOp47
 70
     1
102
RTVSPost2010Prop48
 90
       50
102
RTVSPost2010PropOp48
 70
     1
102
RTVSPost2010Prop49
280
     0
102
RTVSPost2010PropOp49
 70
     1
102
RTVSPost2010Prop50
 90
       50
102
RTVSPost2010PropOp50
 70
     1
102
RTVSPost2010Prop51ColorIndex
 90
      256
102
RTVSPost2010Prop51ColorRGB
 90
-16777216
102
RTVSPost2010PropOp51
 70
     0
102
RTVSPost2010Prop52
140
1.0
102
RTVSPost2010PropOp52
 70
     0
102
RTVSPost2010Prop53
 90
        2
102
RTVSPost2010PropOp53
 70
     1
102
RTVSPost2010Prop54
  1
strokes_ogs.tif
102
RTVSPost2010PropOp54
 70
     1
102
RTVSPost2010Prop55
280
     0
102
RTVSPost2010PropOp55
 70
     1
102
RTVSPost2010Prop56
140
1.0
102
RTVSPost2010PropOp56
 70
     1
102
RTVSPost2010Prop57
140
1.0
102
RTVSPost2010PropOp57
 70
     1
  0
XRECORD
  5
43E
102
{ACAD_REACTORS
330
43D
102
}
330
43D
100
AcDbXrecord
280
     1
102
RTVSPost2010Prop28
280
     0
102
RTVSPost2010PropOp28
 70
     1
102
RTVSPost2010Prop29
280
     1
102
RTVSPost2010PropOp29
 70
     1
102
RTVSPost2010Prop30
280
     1
102
RTVSPost2010PropOp30
 70
     1
102
RTVSPost2010Prop31
280
     0
102
RTVSPost2010PropOp31
 70
     1
102
RTVSPost2010Prop32
280
     0
102
RTVSPost2010PropOp32
 70
     1
102
RTVSPost2010Prop33
280
     0
102
RTVSPost2010PropOp33
 70
     1
102
RTVSPost2010Prop34
280
     0
102
RTVSPost2010PropOp34
 70
     1
102
RTVSPost2010Prop35
280
     0
102
RTVSPost2010PropOp35
 70
     1
102
RTVSPost2010Prop36
280
     0
102
RTVSPost2010PropOp36
 70
     1
102
RTVSPost2010Prop37
 90
       50
102
RTVSPost2010PropOp37
 70
     1
102
RTVSPost2010Prop38
140
0.0
102
RTVSPost2010PropOp38
 70
     1
102
RTVSPost2010Prop39
140
1.0
102
RTVSPost2010PropOp39
 70
     1
102
RTVSPost2010Prop40
 90
        0
102
RTVSPost2010PropOp40
 70
     1
102
RTVSPost2010Prop41ColorIndex
 90
       18
102
RTVSPost2010Prop41ColorRGB
 90
        0
102
RTVSPost2010PropOp41
 70
     1
102
RTVSPost2010Prop42
 90
       50
102
RTVSPost2010PropOp42
 70
     1
102
RTVSPost2010Prop43
 90
        3
102
RTVSPost2010PropOp43
 70
     1
102
RTVSPost2010Prop44ColorIndex
 90
        5
102
RTVSPost2010Prop44ColorRGB
 90
      255
102
RTVSPost2010PropOp44
 70
     1
102
RTVSPost2010Prop45
280
     0
102
RTVSPost2010PropOp45
 70
     1
102
RTVSPost2010Prop46
 90
       50
102
RTVSPost2010PropOp46
 70
     1
102
RTVSPost2010Prop47
 90
       50
102
RTVSPost2010PropOp47
 70
     1
102
RTVSPost2010Prop48
 90
       50
102
RTVSPost2010PropOp48
 70
     1
102
RTVSPost2010Prop49
280
     0
102
RTVSPost2010PropOp49
 70
     1
102
RTVSPost2010Prop50
 90
       50
102
RTVSPost2010PropOp50
 70
     1
102
RTVSPost2010Prop51ColorIndex
 90
      256
102
RTVSPost2010Prop51ColorRGB
 90
-16777216
102
RTVSPost2010PropOp51
 70
     0
102
RTVSPost2010Prop52
140
1.0
102
RTVSPost2010PropOp52
 70
     0
102
RTVSPost2010Prop53
 90
        2
102
RTVSPost2010PropOp53
 70
     1
102
RTVSPost2010Prop54
  1
strokes_ogs.tif
102
RTVSPost2010PropOp54
 70
     1
102
RTVSPost2010Prop55
280
     0
102
RTVSPost2010PropOp55
 70
     1
102
RTVSPost2010Prop56
140
1.0
102
RTVSPost2010PropOp56
 70
     1
102
RTVSPost2010Prop57
140
1.0
102
RTVSPost2010PropOp57
 70
     1
  0
XRECORD
  5
440
102
{ACAD_REACTORS
330
43F
102
}
330
43F
100
AcDbXrecord
280
     1
102
RTVSPost2010Prop28
280
     0
102
RTVSPost2010PropOp28
 70
     1
102
RTVSPost2010Prop29
280
     1
102
RTVSPost2010PropOp29
 70
     1
102
RTVSPost2010Prop30
280
     1
102
RTVSPost2010PropOp30
 70
     1
102
RTVSPost2010Prop31
280
     0
102
RTVSPost2010PropOp31
 70
     1
102
RTVSPost2010Prop32
280
     0
102
RTVSPost2010PropOp32
 70
     1
102
RTVSPost2010Prop33
280
     0
102
RTVSPost2010PropOp33
 70
     1
102
RTVSPost2010Prop34
280
     0
102
RTVSPost2010PropOp34
 70
     1
102
RTVSPost2010Prop35
280
     0
102
RTVSPost2010PropOp35
 70
     1
102
RTVSPost2010Prop36
280
     0
102
RTVSPost2010PropOp36
 70
     1
102
RTVSPost2010Prop37
 90
       50
102
RTVSPost2010PropOp37
 70
     1
102
RTVSPost2010Prop38
140
0.0
102
RTVSPost2010PropOp38
 70
     1
102
RTVSPost2010Prop39
140
1.0
102
RTVSPost2010PropOp39
 70
     1
102
RTVSPost2010Prop40
 90
        0
102
RTVSPost2010PropOp40
 70
     1
102
RTVSPost2010Prop41ColorIndex
 90
       18
102
RTVSPost2010Prop41ColorRGB
 90
        0
102
RTVSPost2010PropOp41
 70
     1
102
RTVSPost2010Prop42
 90
       50
102
RTVSPost2010PropOp42
 70
     1
102
RTVSPost2010Prop43
 90
        3
102
RTVSPost2010PropOp43
 70
     1
102
RTVSPost2010Prop44ColorIndex
 90
        5
102
RTVSPost2010Prop44ColorRGB
 90
      255
102
RTVSPost2010PropOp44
 70
     1
102
RTVSPost2010Prop45
280
     0
102
RTVSPost2010PropOp45
 70
     1
102
RTVSPost2010Prop46
 90
       50
102
RTVSPost2010PropOp46
 70
     1
102
RTVSPost2010Prop47
 90
       50
102
RTVSPost2010PropOp47
 70
     1
102
RTVSPost2010Prop48
 90
       50
102
RTVSPost2010PropOp48
 70
     1
102
RTVSPost2010Prop49
280
     0
102
RTVSPost2010PropOp49
 70
     1
102
RTVSPost2010Prop50
 90
       50
102
RTVSPost2010PropOp50
 70
     1
102
RTVSPost2010Prop51ColorIndex
 90
      256
102
RTVSPost2010Prop51ColorRGB
 90
-16777216
102
RTVSPost2010PropOp51
 70
     0
102
RTVSPost2010Prop52
140
1.0
102
RTVSPost2010PropOp52
 70
     0
102
RTVSPost2010Prop53
 90
        2
102
RTVSPost2010PropOp53
 70
     1
102
RTVSPost2010Prop54
  1
strokes_ogs.tif
102
RTVSPost2010PropOp54
 70
     1
102
RTVSPost2010Prop55
280
     0
102
RTVSPost2010PropOp55
 70
     1
102
RTVSPost2010Prop56
140
1.0
102
RTVSPost2010PropOp56
 70
     1
102
RTVSPost2010Prop57
140
1.0
102
RTVSPost2010PropOp57
 70
     1
  0
XRECORD
  5
442
102
{ACAD_REACTORS
330
441
102
}
330
441
100
AcDbXrecord
280
     1
102
RTVSPost2010Prop28
280
     0
102
RTVSPost2010PropOp28
 70
     1
102
RTVSPost2010Prop29
280
     1
102
RTVSPost2010PropOp29
 70
     1
102
RTVSPost2010Prop30
280
     1
102
RTVSPost2010PropOp30
 70
     1
102
RTVSPost2010Prop31
280
     0
102
RTVSPost2010PropOp31
 70
     1
102
RTVSPost2010Prop32
280
     0
102
RTVSPost2010PropOp32
 70
     1
102
RTVSPost2010Prop33
280
     0
102
RTVSPost2010PropOp33
 70
     1
102
RTVSPost2010Prop34
280
     0
102
RTVSPost2010PropOp34
 70
     1
102
RTVSPost2010Prop35
280
     0
102
RTVSPost2010PropOp35
 70
     1
102
RTVSPost2010Prop36
280
     0
102
RTVSPost2010PropOp36
 70
     1
102
RTVSPost2010Prop37
 90
       50
102
RTVSPost2010PropOp37
 70
     1
102
RTVSPost2010Prop38
140
0.0
102
RTVSPost2010PropOp38
 70
     1
102
RTVSPost2010Prop39
140
1.0
102
RTVSPost2010PropOp39
 70
     1
102
RTVSPost2010Prop40
 90
        0
102
RTVSPost2010PropOp40
 70
     1
102
RTVSPost2010Prop41ColorIndex
 90
       18
102
RTVSPost2010Prop41ColorRGB
 90
        0
102
RTVSPost2010PropOp41
 70
     1
102
RTVSPost2010Prop42
 90
       50
102
RTVSPost2010PropOp42
 70
     1
102
RTVSPost2010Prop43
 90
        3
102
RTVSPost2010PropOp43
 70
     1
102
RTVSPost2010Prop44ColorIndex
 90
        5
102
RTVSPost2010Prop44ColorRGB
 90
      255
102
RTVSPost2010PropOp44
 70
     1
102
RTVSPost2010Prop45
280
     0
102
RTVSPost2010PropOp45
 70
     1
102
RTVSPost2010Prop46
 90
       50
102
RTVSPost2010PropOp46
 70
     1
102
RTVSPost2010Prop47
 90
       50
102
RTVSPost2010PropOp47
 70
     1
102
RTVSPost2010Prop48
 90
       50
102
RTVSPost2010PropOp48
 70
     1
102
RTVSPost2010Prop49
280
     0
102
RTVSPost2010PropOp49
 70
     1
102
RTVSPost2010Prop50
 90
       50
102
RTVSPost2010PropOp50
 70
     1
102
RTVSPost2010Prop51ColorIndex
 90
      256
102
RTVSPost2010Prop51ColorRGB
 90
-16777216
102
RTVSPost2010PropOp51
 70
     0
102
RTVSPost2010Prop52
140
1.0
102
RTVSPost2010PropOp52
 70
     0
102
RTVSPost2010Prop53
 90
        2
102
RTVSPost2010PropOp53
 70
     1
102
RTVSPost2010Prop54
  1
strokes_ogs.tif
102
RTVSPost2010PropOp54
 70
     1
102
RTVSPost2010Prop55
280
     0
102
RTVSPost2010PropOp55
 70
     1
102
RTVSPost2010Prop56
140
1.0
102
RTVSPost2010PropOp56
 70
     1
102
RTVSPost2010Prop57
140
1.0
102
RTVSPost2010PropOp57
 70
     1
  0
XRECORD
  5
444
102
{ACAD_REACTORS
330
443
102
}
330
443
100
AcDbXrecord
280
     1
102
RTVSPost2010Prop28
280
     0
102
RTVSPost2010PropOp28
 70
     1
102
RTVSPost2010Prop29
280
     1
102
RTVSPost2010PropOp29
 70
     1
102
RTVSPost2010Prop30
280
     1
102
RTVSPost2010PropOp30
 70
     1
102
RTVSPost2010Prop31
280
     0
102
RTVSPost2010PropOp31
 70
     1
102
RTVSPost2010Prop32
280
     0
102
RTVSPost2010PropOp32
 70
     1
102
RTVSPost2010Prop33
280
     0
102
RTVSPost2010PropOp33
 70
     1
102
RTVSPost2010Prop34
280
     0
102
RTVSPost2010PropOp34
 70
     1
102
RTVSPost2010Prop35
280
     0
102
RTVSPost2010PropOp35
 70
     1
102
RTVSPost2010Prop36
280
     0
102
RTVSPost2010PropOp36
 70
     1
102
RTVSPost2010Prop37
 90
       50
102
RTVSPost2010PropOp37
 70
     1
102
RTVSPost2010Prop38
140
0.0
102
RTVSPost2010PropOp38
 70
     1
102
RTVSPost2010Prop39
140
1.0
102
RTVSPost2010PropOp39
 70
     1
102
RTVSPost2010Prop40
 90
        0
102
RTVSPost2010PropOp40
 70
     1
102
RTVSPost2010Prop41ColorIndex
 90
       18
102
RTVSPost2010Prop41ColorRGB
 90
        0
102
RTVSPost2010PropOp41
 70
     1
102
RTVSPost2010Prop42
 90
       50
102
RTVSPost2010PropOp42
 70
     1
102
RTVSPost2010Prop43
 90
        3
102
RTVSPost2010PropOp43
 70
     1
102
RTVSPost2010Prop44ColorIndex
 90
        5
102
RTVSPost2010Prop44ColorRGB
 90
      255
102
RTVSPost2010PropOp44
 70
     1
102
RTVSPost2010Prop45
280
     0
102
RTVSPost2010PropOp45
 70
     1
102
RTVSPost2010Prop46
 90
       50
102
RTVSPost2010PropOp46
 70
     1
102
RTVSPost2010Prop47
 90
       50
102
RTVSPost2010PropOp47
 70
     1
102
RTVSPost2010Prop48
 90
       50
102
RTVSPost2010PropOp48
 70
     1
102
RTVSPost2010Prop49
280
     0
102
RTVSPost2010PropOp49
 70
     1
102
RTVSPost2010Prop50
 90
       50
102
RTVSPost2010PropOp50
 70
     1
102
RTVSPost2010Prop51ColorIndex
 90
      256
102
RTVSPost2010Prop51ColorRGB
 90
-16777216
102
RTVSPost2010PropOp51
 70
     0
102
RTVSPost2010Prop52
140
1.0
102
RTVSPost2010PropOp52
 70
     0
102
RTVSPost2010Prop53
 90
        2
102
RTVSPost2010PropOp53
 70
     1
102
RTVSPost2010Prop54
  1
strokes_ogs.tif
102
RTVSPost2010PropOp54
 70
     1
102
RTVSPost2010Prop55
280
     0
102
RTVSPost2010PropOp55
 70
     1
102
RTVSPost2010Prop56
140
1.0
102
RTVSPost2010PropOp56
 70
     1
102
RTVSPost2010Prop57
140
1.0
102
RTVSPost2010PropOp57
 70
     1
  0
XRECORD
  5
44A
102
{ACAD_REACTORS
330
449
102
}
330
449
100
AcDbXrecord
280
     1
102
RTVSPost2010Prop28
280
     0
102
RTVSPost2010PropOp28
 70
     1
102
RTVSPost2010Prop29
280
     1
102
RTVSPost2010PropOp29
 70
     1
102
RTVSPost2010Prop30
280
     1
102
RTVSPost2010PropOp30
 70
     1
102
RTVSPost2010Prop31
280
     0
102
RTVSPost2010PropOp31
 70
     1
102
RTVSPost2010Prop32
280
     0
102
RTVSPost2010PropOp32
 70
     1
102
RTVSPost2010Prop33
280
     0
102
RTVSPost2010PropOp33
 70
     1
102
RTVSPost2010Prop34
280
     0
102
RTVSPost2010PropOp34
 70
     1
102
RTVSPost2010Prop35
280
     0
102
RTVSPost2010PropOp35
 70
     1
102
RTVSPost2010Prop36
280
     0
102
RTVSPost2010PropOp36
 70
     1
102
RTVSPost2010Prop37
 90
       50
102
RTVSPost2010PropOp37
 70
     1
102
RTVSPost2010Prop38
140
0.0
102
RTVSPost2010PropOp38
 70
     1
102
RTVSPost2010Prop39
140
1.0
102
RTVSPost2010PropOp39
 70
     1
102
RTVSPost2010Prop40
 90
        0
102
RTVSPost2010PropOp40
 70
     1
102
RTVSPost2010Prop41ColorIndex
 90
       18
102
RTVSPost2010Prop41ColorRGB
 90
        0
102
RTVSPost2010PropOp41
 70
     1
102
RTVSPost2010Prop42
 90
       50
102
RTVSPost2010PropOp42
 70
     1
102
RTVSPost2010Prop43
 90
        3
102
RTVSPost2010PropOp43
 70
     1
102
RTVSPost2010Prop44ColorIndex
 90
        5
102
RTVSPost2010Prop44ColorRGB
 90
      255
102
RTVSPost2010PropOp44
 70
     1
102
RTVSPost2010Prop45
280
     0
102
RTVSPost2010PropOp45
 70
     1
102
RTVSPost2010Prop46
 90
       50
102
RTVSPost2010PropOp46
 70
     1
102
RTVSPost2010Prop47
 90
       50
102
RTVSPost2010PropOp47
 70
     1
102
RTVSPost2010Prop48
 90
       50
102
RTVSPost2010PropOp48
 70
     1
102
RTVSPost2010Prop49
280
     0
102
RTVSPost2010PropOp49
 70
     1
102
RTVSPost2010Prop50
 90
       50
102
RTVSPost2010PropOp50
 70
     1
102
RTVSPost2010Prop51ColorIndex
 90
      256
102
RTVSPost2010Prop51ColorRGB
 90
-16777216
102
RTVSPost2010PropOp51
 70
     0
102
RTVSPost2010Prop52
140
1.0
102
RTVSPost2010PropOp52
 70
     0
102
RTVSPost2010Prop53
 90
        2
102
RTVSPost2010PropOp53
 70
     1
102
RTVSPost2010Prop54
  1
strokes_ogs.tif
102
RTVSPost2010PropOp54
 70
     1
102
RTVSPost2010Prop55
280
     0
102
RTVSPost2010PropOp55
 70
     1
102
RTVSPost2010Prop56
140
1.0
102
RTVSPost2010PropOp56
 70
     1
102
RTVSPost2010Prop57
140
1.0
102
RTVSPost2010PropOp57
 70
     1
  0
XRECORD
  5
45E
102
{ACAD_REACTORS
330
45D
102
}
330
45D
100
AcDbXrecord
280
     1
102
RTVSPost2010Prop28
280
     0
102
RTVSPost2010PropOp28
 70
     0
102
RTVSPost2010Prop29
280
     1
102
RTVSPost2010PropOp29
 70
     0
102
RTVSPost2010Prop30
280
     1
102
RTVSPost2010PropOp30
 70
     0
102
RTVSPost2010Prop31
280
     0
102
RTVSPost2010PropOp31
 70
     0
102
RTVSPost2010Prop32
280
     0
102
RTVSPost2010PropOp32
 70
     0
102
RTVSPost2010Prop33
280
     0
102
RTVSPost2010PropOp33
 70
     0
102
RTVSPost2010Prop34
280
     0
102
RTVSPost2010PropOp34
 70
     0
102
RTVSPost2010Prop35
280
     0
102
RTVSPost2010PropOp35
 70
     0
102
RTVSPost2010Prop36
280
     0
102
RTVSPost2010PropOp36
 70
     0
102
RTVSPost2010Prop37
 90
       50
102
RTVSPost2010PropOp37
 70
     0
102
RTVSPost2010Prop38
140
0.0
102
RTVSPost2010PropOp38
 70
     0
102
RTVSPost2010Prop39
140
1.0
102
RTVSPost2010PropOp39
 70
     0
102
RTVSPost2010Prop40
 90
        0
102
RTVSPost2010PropOp40
 70
     0
102
RTVSPost2010Prop41ColorIndex
 90
       18
102
RTVSPost2010Prop41ColorRGB
 90
        0
102
RTVSPost2010PropOp41
 70
     0
102
RTVSPost2010Prop42
 90
       50
102
RTVSPost2010PropOp42
 70
     0
102
RTVSPost2010Prop43
 90
        3
102
RTVSPost2010PropOp43
 70
     0
102
RTVSPost2010Prop44ColorIndex
 90
        5
102
RTVSPost2010Prop44ColorRGB
 90
      255
102
RTVSPost2010PropOp44
 70
     0
102
RTVSPost2010Prop45
280
     0
102
RTVSPost2010PropOp45
 70
     0
102
RTVSPost2010Prop46
 90
       50
102
RTVSPost2010PropOp46
 70
     0
102
RTVSPost2010Prop47
 90
       50
102
RTVSPost2010PropOp47
 70
     0
102
RTVSPost2010Prop48
 90
       50
102
RTVSPost2010PropOp48
 70
     0
102
RTVSPost2010Prop49
280
     0
102
RTVSPost2010PropOp49
 70
     0
102
RTVSPost2010Prop50
 90
       50
102
RTVSPost2010PropOp50
 70
     0
102
RTVSPost2010Prop51ColorIndex
 90
      256
102
RTVSPost2010Prop51ColorRGB
 90
-16777216
102
RTVSPost2010PropOp51
 70
     0
102
RTVSPost2010Prop52
140
1.0
102
RTVSPost2010PropOp52
 70
     0
102
RTVSPost2010Prop53
 90
        2
102
RTVSPost2010PropOp53
 70
     0
102
RTVSPost2010Prop54
  1
strokes_ogs.tif
102
RTVSPost2010PropOp54
 70
     0
102
RTVSPost2010Prop55
280
     0
102
RTVSPost2010PropOp55
 70
     0
102
RTVSPost2010Prop56
140
1.0
102
RTVSPost2010PropOp56
 70
     0
102
RTVSPost2010Prop57
140
1.0
102
RTVSPost2010PropOp57
 70
     0
  0
XRECORD
  5
458
102
{ACAD_REACTORS
330
457
102
}
330
457
100
AcDbXrecord
280
     1
102
RTVSPost2010Prop28
280
     0
102
RTVSPost2010PropOp28
 70
     1
102
RTVSPost2010Prop29
280
     1
102
RTVSPost2010PropOp29
 70
     1
102
RTVSPost2010Prop30
280
     1
102
RTVSPost2010PropOp30
 70
     1
102
RTVSPost2010Prop31
280
     0
102
RTVSPost2010PropOp31
 70
     1
102
RTVSPost2010Prop32
280
     0
102
RTVSPost2010PropOp32
 70
     1
102
RTVSPost2010Prop33
280
     0
102
RTVSPost2010PropOp33
 70
     1
102
RTVSPost2010Prop34
280
     0
102
RTVSPost2010PropOp34
 70
     1
102
RTVSPost2010Prop35
280
     0
102
RTVSPost2010PropOp35
 70
     1
102
RTVSPost2010Prop36
280
     0
102
RTVSPost2010PropOp36
 70
     1
102
RTVSPost2010Prop37
 90
       50
102
RTVSPost2010PropOp37
 70
     1
102
RTVSPost2010Prop38
140
0.0
102
RTVSPost2010PropOp38
 70
     1
102
RTVSPost2010Prop39
140
1.0
102
RTVSPost2010PropOp39
 70
     1
102
RTVSPost2010Prop40
 90
        0
102
RTVSPost2010PropOp40
 70
     1
102
RTVSPost2010Prop41ColorIndex
 90
       18
102
RTVSPost2010Prop41ColorRGB
 90
        0
102
RTVSPost2010PropOp41
 70
     1
102
RTVSPost2010Prop42
 90
       50
102
RTVSPost2010PropOp42
 70
     1
102
RTVSPost2010Prop43
 90
        3
102
RTVSPost2010PropOp43
 70
     1
102
RTVSPost2010Prop44ColorIndex
 90
        5
102
RTVSPost2010Prop44ColorRGB
 90
      255
102
RTVSPost2010PropOp44
 70
     1
102
RTVSPost2010Prop45
280
     0
102
RTVSPost2010PropOp45
 70
     1
102
RTVSPost2010Prop46
 90
       50
102
RTVSPost2010PropOp46
 70
     1
102
RTVSPost2010Prop47
 90
       50
102
RTVSPost2010PropOp47
 70
     1
102
RTVSPost2010Prop48
 90
       50
102
RTVSPost2010PropOp48
 70
     1
102
RTVSPost2010Prop49
280
     0
102
RTVSPost2010PropOp49
 70
     1
102
RTVSPost2010Prop50
 90
       50
102
RTVSPost2010PropOp50
 70
     1
102
RTVSPost2010Prop51ColorIndex
 90
      256
102
RTVSPost2010Prop51ColorRGB
 90
-16777216
102
RTVSPost2010PropOp51
 70
     0
102
RTVSPost2010Prop52
140
1.0
102
RTVSPost2010PropOp52
 70
     0
102
RTVSPost2010Prop53
 90
        2
102
RTVSPost2010PropOp53
 70
     1
102
RTVSPost2010Prop54
  1
strokes_ogs.tif
102
RTVSPost2010PropOp54
 70
     1
102
RTVSPost2010Prop55
280
     0
102
RTVSPost2010PropOp55
 70
     1
102
RTVSPost2010Prop56
140
1.0
102
RTVSPost2010PropOp56
 70
     1
102
RTVSPost2010Prop57
140
1.0
102
RTVSPost2010PropOp57
 70
     1
  0
XRECORD
  5
460
102
{ACAD_REACTORS
330
45F
102
}
330
45F
100
AcDbXrecord
280
     1
102
RTVSPost2010Prop28
280
     0
102
RTVSPost2010PropOp28
 70
     0
102
RTVSPost2010Prop29
280
     1
102
RTVSPost2010PropOp29
 70
     0
102
RTVSPost2010Prop30
280
     1
102
RTVSPost2010PropOp30
 70
     0
102
RTVSPost2010Prop31
280
     0
102
RTVSPost2010PropOp31
 70
     0
102
RTVSPost2010Prop32
280
     0
102
RTVSPost2010PropOp32
 70
     0
102
RTVSPost2010Prop33
280
     0
102
RTVSPost2010PropOp33
 70
     0
102
RTVSPost2010Prop34
280
     0
102
RTVSPost2010PropOp34
 70
     0
102
RTVSPost2010Prop35
280
     0
102
RTVSPost2010PropOp35
 70
     0
102
RTVSPost2010Prop36
280
     0
102
RTVSPost2010PropOp36
 70
     0
102
RTVSPost2010Prop37
 90
       50
102
RTVSPost2010PropOp37
 70
     0
102
RTVSPost2010Prop38
140
0.0
102
RTVSPost2010PropOp38
 70
     0
102
RTVSPost2010Prop39
140
1.0
102
RTVSPost2010PropOp39
 70
     0
102
RTVSPost2010Prop40
 90
        0
102
RTVSPost2010PropOp40
 70
     0
102
RTVSPost2010Prop41ColorIndex
 90
       18
102
RTVSPost2010Prop41ColorRGB
 90
        0
102
RTVSPost2010PropOp41
 70
     0
102
RTVSPost2010Prop42
 90
       50
102
RTVSPost2010PropOp42
 70
     0
102
RTVSPost2010Prop43
 90
        3
102
RTVSPost2010PropOp43
 70
     0
102
RTVSPost2010Prop44ColorIndex
 90
        5
102
RTVSPost2010Prop44ColorRGB
 90
      255
102
RTVSPost2010PropOp44
 70
     0
102
RTVSPost2010Prop45
280
     0
102
RTVSPost2010PropOp45
 70
     0
102
RTVSPost2010Prop46
 90
       50
102
RTVSPost2010PropOp46
 70
     0
102
RTVSPost2010Prop47
 90
       50
102
RTVSPost2010PropOp47
 70
     0
102
RTVSPost2010Prop48
 90
       50
102
RTVSPost2010PropOp48
 70
     0
102
RTVSPost2010Prop49
280
     0
102
RTVSPost2010PropOp49
 70
     0
102
RTVSPost2010Prop50
 90
       50
102
RTVSPost2010PropOp50
 70
     0
102
RTVSPost2010Prop51ColorIndex
 90
      256
102
RTVSPost2010Prop51ColorRGB
 90
-16777216
102
RTVSPost2010PropOp51
 70
     0
102
RTVSPost2010Prop52
140
1.0
102
RTVSPost2010PropOp52
 70
     0
102
RTVSPost2010Prop53
 90
        2
102
RTVSPost2010PropOp53
 70
     0
102
RTVSPost2010Prop54
  1
strokes_ogs.tif
102
RTVSPost2010PropOp54
 70
     0
102
RTVSPost2010Prop55
280
     0
102
RTVSPost2010PropOp55
 70
     0
102
RTVSPost2010Prop56
140
1.0
102
RTVSPost2010PropOp56
 70
     0
102
RTVSPost2010Prop57
140
1.0
102
RTVSPost2010PropOp57
 70
     0
  0
XRECORD
  5
44E
102
{ACAD_REACTORS
330
44D
102
}
330
44D
100
AcDbXrecord
280
     1
102
RTVSPost2010Prop28
280
     0
102
RTVSPost2010PropOp28
 70
     1
102
RTVSPost2010Prop29
280
     1
102
RTVSPost2010PropOp29
 70
     1
102
RTVSPost2010Prop30
280
     1
102
RTVSPost2010PropOp30
 70
     1
102
RTVSPost2010Prop31
280
     0
102
RTVSPost2010PropOp31
 70
     1
102
RTVSPost2010Prop32
280
     0
102
RTVSPost2010PropOp32
 70
     1
102
RTVSPost2010Prop33
280
     0
102
RTVSPost2010PropOp33
 70
     1
102
RTVSPost2010Prop34
280
     0
102
RTVSPost2010PropOp34
 70
     1
102
RTVSPost2010Prop35
280
     0
102
RTVSPost2010PropOp35
 70
     1
102
RTVSPost2010Prop36
280
     0
102
RTVSPost2010PropOp36
 70
     1
102
RTVSPost2010Prop37
 90
       50
102
RTVSPost2010PropOp37
 70
     1
102
RTVSPost2010Prop38
140
0.0
102
RTVSPost2010PropOp38
 70
     1
102
RTVSPost2010Prop39
140
1.0
102
RTVSPost2010PropOp39
 70
     1
102
RTVSPost2010Prop40
 90
        0
102
RTVSPost2010PropOp40
 70
     1
102
RTVSPost2010Prop41ColorIndex
 90
       18
102
RTVSPost2010Prop41ColorRGB
 90
        0
102
RTVSPost2010PropOp41
 70
     1
102
RTVSPost2010Prop42
 90
       50
102
RTVSPost2010PropOp42
 70
     1
102
RTVSPost2010Prop43
 90
        3
102
RTVSPost2010PropOp43
 70
     1
102
RTVSPost2010Prop44ColorIndex
 90
        5
102
RTVSPost2010Prop44ColorRGB
 90
      255
102
RTVSPost2010PropOp44
 70
     1
102
RTVSPost2010Prop45
280
     0
102
RTVSPost2010PropOp45
 70
     1
102
RTVSPost2010Prop46
 90
       50
102
RTVSPost2010PropOp46
 70
     1
102
RTVSPost2010Prop47
 90
       50
102
RTVSPost2010PropOp47
 70
     1
102
RTVSPost2010Prop48
 90
       50
102
RTVSPost2010PropOp48
 70
     1
102
RTVSPost2010Prop49
280
     0
102
RTVSPost2010PropOp49
 70
     1
102
RTVSPost2010Prop50
 90
       50
102
RTVSPost2010PropOp50
 70
     1
102
RTVSPost2010Prop51ColorIndex
 90
      256
102
RTVSPost2010Prop51ColorRGB
 90
-16777216
102
RTVSPost2010PropOp51
 70
     0
102
RTVSPost2010Prop52
140
1.0
102
RTVSPost2010PropOp52
 70
     0
102
RTVSPost2010Prop53
 90
        2
102
RTVSPost2010PropOp53
 70
     1
102
RTVSPost2010Prop54
  1
strokes_ogs.tif
102
RTVSPost2010PropOp54
 70
     1
102
RTVSPost2010Prop55
280
     0
102
RTVSPost2010PropOp55
 70
     1
102
RTVSPost2010Prop56
140
1.0
102
RTVSPost2010PropOp56
 70
     1
102
RTVSPost2010Prop57
140
1.0
102
RTVSPost2010PropOp57
 70
     1
  0
XRECORD
  5
46C
102
{ACAD_REACTORS
330
46B
102
}
330
46B
100
AcDbXrecord
280
     1
102
RTVSPost2010Prop28
280
     0
102
RTVSPost2010PropOp28
 70
     1
102
RTVSPost2010Prop29
280
     1
102
RTVSPost2010PropOp29
 70
     1
102
RTVSPost2010Prop30
280
     1
102
RTVSPost2010PropOp30
 70
     1
102
RTVSPost2010Prop31
280
     0
102
RTVSPost2010PropOp31
 70
     1
102
RTVSPost2010Prop32
280
     0
102
RTVSPost2010PropOp32
 70
     1
102
RTVSPost2010Prop33
280
     0
102
RTVSPost2010PropOp33
 70
     1
102
RTVSPost2010Prop34
280
     0
102
RTVSPost2010PropOp34
 70
     1
102
RTVSPost2010Prop35
280
     0
102
RTVSPost2010PropOp35
 70
     1
102
RTVSPost2010Prop36
280
     0
102
RTVSPost2010PropOp36
 70
     1
102
RTVSPost2010Prop37
 90
       50
102
RTVSPost2010PropOp37
 70
     1
102
RTVSPost2010Prop38
140
0.0
102
RTVSPost2010PropOp38
 70
     1
102
RTVSPost2010Prop39
140
1.0
102
RTVSPost2010PropOp39
 70
     1
102
RTVSPost2010Prop40
 90
        0
102
RTVSPost2010PropOp40
 70
     1
102
RTVSPost2010Prop41ColorIndex
 90
       18
102
RTVSPost2010Prop41ColorRGB
 90
        0
102
RTVSPost2010PropOp41
 70
     1
102
RTVSPost2010Prop42
 90
       50
102
RTVSPost2010PropOp42
 70
     1
102
RTVSPost2010Prop43
 90
        3
102
RTVSPost2010PropOp43
 70
     1
102
RTVSPost2010Prop44ColorIndex
 90
        5
102
RTVSPost2010Prop44ColorRGB
 90
      255
102
RTVSPost2010PropOp44
 70
     1
102
RTVSPost2010Prop45
280
     0
102
RTVSPost2010PropOp45
 70
     1
102
RTVSPost2010Prop46
 90
       50
102
RTVSPost2010PropOp46
 70
     1
102
RTVSPost2010Prop47
 90
       50
102
RTVSPost2010PropOp47
 70
     1
102
RTVSPost2010Prop48
 90
       50
102
RTVSPost2010PropOp48
 70
     1
102
RTVSPost2010Prop49
280
     0
102
RTVSPost2010PropOp49
 70
     1
102
RTVSPost2010Prop50
 90
       50
102
RTVSPost2010PropOp50
 70
     1
102
RTVSPost2010Prop51ColorIndex
 90
      256
102
RTVSPost2010Prop51ColorRGB
 90
-16777216
102
RTVSPost2010PropOp51
 70
     0
102
RTVSPost2010Prop52
140
1.0
102
RTVSPost2010PropOp52
 70
     0
102
RTVSPost2010Prop53
 90
        2
102
RTVSPost2010PropOp53
 70
     1
102
RTVSPost2010Prop54
  1
strokes_ogs.tif
102
RTVSPost2010PropOp54
 70
     1
102
RTVSPost2010Prop55
280
     0
102
RTVSPost2010PropOp55
 70
     1
102
RTVSPost2010Prop56
140
1.0
102
RTVSPost2010PropOp56
 70
     1
102
RTVSPost2010Prop57
140
1.0
102
RTVSPost2010PropOp57
 70
     1
  0
XRECORD
  5
46A
102
{ACAD_REACTORS
330
469
102
}
330
469
100
AcDbXrecord
280
     1
102
RTVSPost2010Prop28
280
     0
102
RTVSPost2010PropOp28
 70
     1
102
RTVSPost2010Prop29
280
     1
102
RTVSPost2010PropOp29
 70
     1
102
RTVSPost2010Prop30
280
     1
102
RTVSPost2010PropOp30
 70
     1
102
RTVSPost2010Prop31
280
     0
102
RTVSPost2010PropOp31
 70
     1
102
RTVSPost2010Prop32
280
     0
102
RTVSPost2010PropOp32
 70
     1
102
RTVSPost2010Prop33
280
     0
102
RTVSPost2010PropOp33
 70
     1
102
RTVSPost2010Prop34
280
     0
102
RTVSPost2010PropOp34
 70
     1
102
RTVSPost2010Prop35
280
     0
102
RTVSPost2010PropOp35
 70
     1
102
RTVSPost2010Prop36
280
     0
102
RTVSPost2010PropOp36
 70
     1
102
RTVSPost2010Prop37
 90
       50
102
RTVSPost2010PropOp37
 70
     1
102
RTVSPost2010Prop38
140
0.0
102
RTVSPost2010PropOp38
 70
     1
102
RTVSPost2010Prop39
140
1.0
102
RTVSPost2010PropOp39
 70
     1
102
RTVSPost2010Prop40
 90
        0
102
RTVSPost2010PropOp40
 70
     1
102
RTVSPost2010Prop41ColorIndex
 90
       18
102
RTVSPost2010Prop41ColorRGB
 90
        0
102
RTVSPost2010PropOp41
 70
     1
102
RTVSPost2010Prop42
 90
       50
102
RTVSPost2010PropOp42
 70
     1
102
RTVSPost2010Prop43
 90
        3
102
RTVSPost2010PropOp43
 70
     1
102
RTVSPost2010Prop44ColorIndex
 90
        5
102
RTVSPost2010Prop44ColorRGB
 90
      255
102
RTVSPost2010PropOp44
 70
     1
102
RTVSPost2010Prop45
280
     0
102
RTVSPost2010PropOp45
 70
     1
102
RTVSPost2010Prop46
 90
       50
102
RTVSPost2010PropOp46
 70
     1
102
RTVSPost2010Prop47
 90
       50
102
RTVSPost2010PropOp47
 70
     1
102
RTVSPost2010Prop48
 90
       50
102
RTVSPost2010PropOp48
 70
     1
102
RTVSPost2010Prop49
280
     0
102
RTVSPost2010PropOp49
 70
     1
102
RTVSPost2010Prop50
 90
       50
102
RTVSPost2010PropOp50
 70
     1
102
RTVSPost2010Prop51ColorIndex
 90
      256
102
RTVSPost2010Prop51ColorRGB
 90
-16777216
102
RTVSPost2010PropOp51
 70
     0
102
RTVSPost2010Prop52
140
1.0
102
RTVSPost2010PropOp52
 70
     0
102
RTVSPost2010Prop53
 90
        2
102
RTVSPost2010PropOp53
 70
     1
102
RTVSPost2010Prop54
  1
strokes_ogs.tif
102
RTVSPost2010PropOp54
 70
     1
102
RTVSPost2010Prop55
280
     0
102
RTVSPost2010PropOp55
 70
     1
102
RTVSPost2010Prop56
140
1.0
102
RTVSPost2010PropOp56
 70
     1
102
RTVSPost2010Prop57
140
1.0
102
RTVSPost2010PropOp57
 70
     1
  0
XRECORD
  5
464
102
{ACAD_REACTORS
330
463
102
}
330
463
100
AcDbXrecord
280
     1
102
RTVSPost2010Prop28
280
     0
102
RTVSPost2010PropOp28
 70
     1
102
RTVSPost2010Prop29
280
     1
102
RTVSPost2010PropOp29
 70
     1
102
RTVSPost2010Prop30
280
     1
102
RTVSPost2010PropOp30
 70
     1
102
RTVSPost2010Prop31
280
     0
102
RTVSPost2010PropOp31
 70
     1
102
RTVSPost2010Prop32
280
     0
102
RTVSPost2010PropOp32
 70
     1
102
RTVSPost2010Prop33
280
     0
102
RTVSPost2010PropOp33
 70
     1
102
RTVSPost2010Prop34
280
     0
102
RTVSPost2010PropOp34
 70
     1
102
RTVSPost2010Prop35
280
     0
102
RTVSPost2010PropOp35
 70
     1
102
RTVSPost2010Prop36
280
     0
102
RTVSPost2010PropOp36
 70
     1
102
RTVSPost2010Prop37
 90
       50
102
RTVSPost2010PropOp37
 70
     1
102
RTVSPost2010Prop38
140
0.0
102
RTVSPost2010PropOp38
 70
     1
102
RTVSPost2010Prop39
140
1.0
102
RTVSPost2010PropOp39
 70
     1
102
RTVSPost2010Prop40
 90
        0
102
RTVSPost2010PropOp40
 70
     1
102
RTVSPost2010Prop41ColorIndex
 90
       18
102
RTVSPost2010Prop41ColorRGB
 90
        0
102
RTVSPost2010PropOp41
 70
     1
102
RTVSPost2010Prop42
 90
       50
102
RTVSPost2010PropOp42
 70
     1
102
RTVSPost2010Prop43
 90
        3
102
RTVSPost2010PropOp43
 70
     1
102
RTVSPost2010Prop44ColorIndex
 90
        5
102
RTVSPost2010Prop44ColorRGB
 90
      255
102
RTVSPost2010PropOp44
 70
     1
102
RTVSPost2010Prop45
280
     0
102
RTVSPost2010PropOp45
 70
     1
102
RTVSPost2010Prop46
 90
       50
102
RTVSPost2010PropOp46
 70
     1
102
RTVSPost2010Prop47
 90
       50
102
RTVSPost2010PropOp47
 70
     1
102
RTVSPost2010Prop48
 90
       50
102
RTVSPost2010PropOp48
 70
     1
102
RTVSPost2010Prop49
280
     0
102
RTVSPost2010PropOp49
 70
     1
102
RTVSPost2010Prop50
 90
       50
102
RTVSPost2010PropOp50
 70
     1
102
RTVSPost2010Prop51ColorIndex
 90
      256
102
RTVSPost2010Prop51ColorRGB
 90
-16777216
102
RTVSPost2010PropOp51
 70
     0
102
RTVSPost2010Prop52
140
1.0
102
RTVSPost2010PropOp52
 70
     0
102
RTVSPost2010Prop53
 90
        2
102
RTVSPost2010PropOp53
 70
     1
102
RTVSPost2010Prop54
  1
strokes_ogs.tif
102
RTVSPost2010PropOp54
 70
     1
102
RTVSPost2010Prop55
280
     0
102
RTVSPost2010PropOp55
 70
     1
102
RTVSPost2010Prop56
140
1.0
102
RTVSPost2010PropOp56
 70
     1
102
RTVSPost2010Prop57
140
1.0
102
RTVSPost2010PropOp57
 70
     1
  0
XRECORD
  5
466
102
{ACAD_REACTORS
330
465
102
}
330
465
100
AcDbXrecord
280
     1
102
RTVSPost2010Prop28
280
     0
102
RTVSPost2010PropOp28
 70
     1
102
RTVSPost2010Prop29
280
     1
102
RTVSPost2010PropOp29
 70
     1
102
RTVSPost2010Prop30
280
     1
102
RTVSPost2010PropOp30
 70
     1
102
RTVSPost2010Prop31
280
     0
102
RTVSPost2010PropOp31
 70
     1
102
RTVSPost2010Prop32
280
     0
102
RTVSPost2010PropOp32
 70
     1
102
RTVSPost2010Prop33
280
     0
102
RTVSPost2010PropOp33
 70
     1
102
RTVSPost2010Prop34
280
     0
102
RTVSPost2010PropOp34
 70
     1
102
RTVSPost2010Prop35
280
     0
102
RTVSPost2010PropOp35
 70
     1
102
RTVSPost2010Prop36
280
     0
102
RTVSPost2010PropOp36
 70
     1
102
RTVSPost2010Prop37
 90
       50
102
RTVSPost2010PropOp37
 70
     1
102
RTVSPost2010Prop38
140
0.0
102
RTVSPost2010PropOp38
 70
     1
102
RTVSPost2010Prop39
140
1.0
102
RTVSPost2010PropOp39
 70
     1
102
RTVSPost2010Prop40
 90
        0
102
RTVSPost2010PropOp40
 70
     1
102
RTVSPost2010Prop41ColorIndex
 90
       18
102
RTVSPost2010Prop41ColorRGB
 90
        0
102
RTVSPost2010PropOp41
 70
     1
102
RTVSPost2010Prop42
 90
       50
102
RTVSPost2010PropOp42
 70
     1
102
RTVSPost2010Prop43
 90
        3
102
RTVSPost2010PropOp43
 70
     1
102
RTVSPost2010Prop44ColorIndex
 90
        5
102
RTVSPost2010Prop44ColorRGB
 90
      255
102
RTVSPost2010PropOp44
 70
     1
102
RTVSPost2010Prop45
280
     0
102
RTVSPost2010PropOp45
 70
     1
102
RTVSPost2010Prop46
 90
       50
102
RTVSPost2010PropOp46
 70
     1
102
RTVSPost2010Prop47
 90
       50
102
RTVSPost2010PropOp47
 70
     1
102
RTVSPost2010Prop48
 90
       50
102
RTVSPost2010PropOp48
 70
     1
102
RTVSPost2010Prop49
280
     0
102
RTVSPost2010PropOp49
 70
     1
102
RTVSPost2010Prop50
 90
       50
102
RTVSPost2010PropOp50
 70
     1
102
RTVSPost2010Prop51ColorIndex
 90
      256
102
RTVSPost2010Prop51ColorRGB
 90
-16777216
102
RTVSPost2010PropOp51
 70
     0
102
RTVSPost2010Prop52
140
1.0
102
RTVSPost2010PropOp52
 70
     0
102
RTVSPost2010Prop53
 90
        2
102
RTVSPost2010PropOp53
 70
     1
102
RTVSPost2010Prop54
  1
strokes_ogs.tif
102
RTVSPost2010PropOp54
 70
     1
102
RTVSPost2010Prop55
280
     0
102
RTVSPost2010PropOp55
 70
     1
102
RTVSPost2010Prop56
140
1.0
102
RTVSPost2010PropOp56
 70
     1
102
RTVSPost2010Prop57
140
1.0
102
RTVSPost2010PropOp57
 70
     1
  0
XRECORD
  5
456
102
{ACAD_REACTORS
330
455
102
}
330
455
100
AcDbXrecord
280
     1
102
RTVSPost2010Prop28
280
     0
102
RTVSPost2010PropOp28
 70
     1
102
RTVSPost2010Prop29
280
     1
102
RTVSPost2010PropOp29
 70
     1
102
RTVSPost2010Prop30
280
     1
102
RTVSPost2010PropOp30
 70
     1
102
RTVSPost2010Prop31
280
     0
102
RTVSPost2010PropOp31
 70
     1
102
RTVSPost2010Prop32
280
     0
102
RTVSPost2010PropOp32
 70
     1
102
RTVSPost2010Prop33
280
     0
102
RTVSPost2010PropOp33
 70
     1
102
RTVSPost2010Prop34
280
     0
102
RTVSPost2010PropOp34
 70
     1
102
RTVSPost2010Prop35
280
     0
102
RTVSPost2010PropOp35
 70
     1
102
RTVSPost2010Prop36
280
     0
102
RTVSPost2010PropOp36
 70
     1
102
RTVSPost2010Prop37
 90
       50
102
RTVSPost2010PropOp37
 70
     1
102
RTVSPost2010Prop38
140
0.0
102
RTVSPost2010PropOp38
 70
     1
102
RTVSPost2010Prop39
140
1.0
102
RTVSPost2010PropOp39
 70
     1
102
RTVSPost2010Prop40
 90
        0
102
RTVSPost2010PropOp40
 70
     1
102
RTVSPost2010Prop41ColorIndex
 90
       18
102
RTVSPost2010Prop41ColorRGB
 90
        0
102
RTVSPost2010PropOp41
 70
     1
102
RTVSPost2010Prop42
 90
       50
102
RTVSPost2010PropOp42
 70
     1
102
RTVSPost2010Prop43
 90
        3
102
RTVSPost2010PropOp43
 70
     1
102
RTVSPost2010Prop44ColorIndex
 90
        5
102
RTVSPost2010Prop44ColorRGB
 90
      255
102
RTVSPost2010PropOp44
 70
     1
102
RTVSPost2010Prop45
280
     0
102
RTVSPost2010PropOp45
 70
     1
102
RTVSPost2010Prop46
 90
       50
102
RTVSPost2010PropOp46
 70
     1
102
RTVSPost2010Prop47
 90
       50
102
RTVSPost2010PropOp47
 70
     1
102
RTVSPost2010Prop48
 90
       50
102
RTVSPost2010PropOp48
 70
     1
102
RTVSPost2010Prop49
280
     0
102
RTVSPost2010PropOp49
 70
     1
102
RTVSPost2010Prop50
 90
       50
102
RTVSPost2010PropOp50
 70
     1
102
RTVSPost2010Prop51ColorIndex
 90
      256
102
RTVSPost2010Prop51ColorRGB
 90
-16777216
102
RTVSPost2010PropOp51
 70
     0
102
RTVSPost2010Prop52
140
1.0
102
RTVSPost2010PropOp52
 70
     0
102
RTVSPost2010Prop53
 90
        2
102
RTVSPost2010PropOp53
 70
     1
102
RTVSPost2010Prop54
  1
strokes_ogs.tif
102
RTVSPost2010PropOp54
 70
     1
102
RTVSPost2010Prop55
280
     0
102
RTVSPost2010PropOp55
 70
     1
102
RTVSPost2010Prop56
140
1.0
102
RTVSPost2010PropOp56
 70
     1
102
RTVSPost2010Prop57
140
1.0
102
RTVSPost2010PropOp57
 70
     1
  0
XRECORD
  5
448
102
{ACAD_REACTORS
330
447
102
}
330
447
100
AcDbXrecord
280
     1
102
RTVSPost2010Prop28
280
     0
102
RTVSPost2010PropOp28
 70
     1
102
RTVSPost2010Prop29
280
     1
102
RTVSPost2010PropOp29
 70
     1
102
RTVSPost2010Prop30
280
     1
102
RTVSPost2010PropOp30
 70
     1
102
RTVSPost2010Prop31
280
     0
102
RTVSPost2010PropOp31
 70
     1
102
RTVSPost2010Prop32
280
     0
102
RTVSPost2010PropOp32
 70
     1
102
RTVSPost2010Prop33
280
     0
102
RTVSPost2010PropOp33
 70
     1
102
RTVSPost2010Prop34
280
     0
102
RTVSPost2010PropOp34
 70
     1
102
RTVSPost2010Prop35
280
     0
102
RTVSPost2010PropOp35
 70
     1
102
RTVSPost2010Prop36
280
     0
102
RTVSPost2010PropOp36
 70
     1
102
RTVSPost2010Prop37
 90
       50
102
RTVSPost2010PropOp37
 70
     1
102
RTVSPost2010Prop38
140
0.0
102
RTVSPost2010PropOp38
 70
     1
102
RTVSPost2010Prop39
140
1.0
102
RTVSPost2010PropOp39
 70
     1
102
RTVSPost2010Prop40
 90
        0
102
RTVSPost2010PropOp40
 70
     1
102
RTVSPost2010Prop41ColorIndex
 90
       18
102
RTVSPost2010Prop41ColorRGB
 90
        0
102
RTVSPost2010PropOp41
 70
     1
102
RTVSPost2010Prop42
 90
       50
102
RTVSPost2010PropOp42
 70
     1
102
RTVSPost2010Prop43
 90
        3
102
RTVSPost2010PropOp43
 70
     1
102
RTVSPost2010Prop44ColorIndex
 90
        5
102
RTVSPost2010Prop44ColorRGB
 90
      255
102
RTVSPost2010PropOp44
 70
     1
102
RTVSPost2010Prop45
280
     0
102
RTVSPost2010PropOp45
 70
     1
102
RTVSPost2010Prop46
 90
       50
102
RTVSPost2010PropOp46
 70
     1
102
RTVSPost2010Prop47
 90
       50
102
RTVSPost2010PropOp47
 70
     1
102
RTVSPost2010Prop48
 90
       50
102
RTVSPost2010PropOp48
 70
     1
102
RTVSPost2010Prop49
280
     0
102
RTVSPost2010PropOp49
 70
     1
102
RTVSPost2010Prop50
 90
       50
102
RTVSPost2010PropOp50
 70
     1
102
RTVSPost2010Prop51ColorIndex
 90
      256
102
RTVSPost2010Prop51ColorRGB
 90
-16777216
102
RTVSPost2010PropOp51
 70
     0
102
RTVSPost2010Prop52
140
1.0
102
RTVSPost2010PropOp52
 70
     0
102
RTVSPost2010Prop53
 90
        2
102
RTVSPost2010PropOp53
 70
     1
102
RTVSPost2010Prop54
  1
strokes_ogs.tif
102
RTVSPost2010PropOp54
 70
     1
102
RTVSPost2010Prop55
280
     0
102
RTVSPost2010PropOp55
 70
     1
102
RTVSPost2010Prop56
140
1.0
102
RTVSPost2010PropOp56
 70
     1
102
RTVSPost2010Prop57
140
1.0
102
RTVSPost2010PropOp57
 70
     1
  0
XRECORD
  5
468
102
{ACAD_REACTORS
330
467
102
}
330
467
100
AcDbXrecord
280
     1
102
RTVSPost2010Prop28
280
     0
102
RTVSPost2010PropOp28
 70
     1
102
RTVSPost2010Prop29
280
     1
102
RTVSPost2010PropOp29
 70
     1
102
RTVSPost2010Prop30
280
     1
102
RTVSPost2010PropOp30
 70
     1
102
RTVSPost2010Prop31
280
     0
102
RTVSPost2010PropOp31
 70
     1
102
RTVSPost2010Prop32
280
     0
102
RTVSPost2010PropOp32
 70
     1
102
RTVSPost2010Prop33
280
     0
102
RTVSPost2010PropOp33
 70
     1
102
RTVSPost2010Prop34
280
     0
102
RTVSPost2010PropOp34
 70
     1
102
RTVSPost2010Prop35
280
     0
102
RTVSPost2010PropOp35
 70
     1
102
RTVSPost2010Prop36
280
     0
102
RTVSPost2010PropOp36
 70
     1
102
RTVSPost2010Prop37
 90
       50
102
RTVSPost2010PropOp37
 70
     1
102
RTVSPost2010Prop38
140
0.0
102
RTVSPost2010PropOp38
 70
     1
102
RTVSPost2010Prop39
140
1.0
102
RTVSPost2010PropOp39
 70
     1
102
RTVSPost2010Prop40
 90
        0
102
RTVSPost2010PropOp40
 70
     1
102
RTVSPost2010Prop41ColorIndex
 90
       18
102
RTVSPost2010Prop41ColorRGB
 90
        0
102
RTVSPost2010PropOp41
 70
     1
102
RTVSPost2010Prop42
 90
       50
102
RTVSPost2010PropOp42
 70
     1
102
RTVSPost2010Prop43
 90
        3
102
RTVSPost2010PropOp43
 70
     1
102
RTVSPost2010Prop44ColorIndex
 90
        5
102
RTVSPost2010Prop44ColorRGB
 90
      255
102
RTVSPost2010PropOp44
 70
     1
102
RTVSPost2010Prop45
280
     0
102
RTVSPost2010PropOp45
 70
     1
102
RTVSPost2010Prop46
 90
       50
102
RTVSPost2010PropOp46
 70
     1
102
RTVSPost2010Prop47
 90
       50
102
RTVSPost2010PropOp47
 70
     1
102
RTVSPost2010Prop48
 90
       50
102
RTVSPost2010PropOp48
 70
     1
102
RTVSPost2010Prop49
280
     0
102
RTVSPost2010PropOp49
 70
     1
102
RTVSPost2010Prop50
 90
       50
102
RTVSPost2010PropOp50
 70
     1
102
RTVSPost2010Prop51ColorIndex
 90
      256
102
RTVSPost2010Prop51ColorRGB
 90
-16777216
102
RTVSPost2010PropOp51
 70
     0
102
RTVSPost2010Prop52
140
1.0
102
RTVSPost2010PropOp52
 70
     0
102
RTVSPost2010Prop53
 90
        2
102
RTVSPost2010PropOp53
 70
     1
102
RTVSPost2010Prop54
  1
strokes_ogs.tif
102
RTVSPost2010PropOp54
 70
     1
102
RTVSPost2010Prop55
280
     0
102
RTVSPost2010PropOp55
 70
     1
102
RTVSPost2010Prop56
140
1.0
102
RTVSPost2010PropOp56
 70
     1
102
RTVSPost2010Prop57
140
1.0
102
RTVSPost2010PropOp57
 70
     1
  0
ENDSEC
  0
EOF
