  0
SECTION
  2
HEADER
  9
$ACADVER
  1
AC1027
  9
$ACADMAINTVER
 70
     8
  9
$DWGCODEPAGE
  3
ANSI_1252
  9
$REQUIREDVERSIONS
160
                 0
  9
$LASTSAVEDBY
  1
mikek
  9
$INSBASE
 10
0.0
 20
0.0
 30
0.0
  9
$EXTMIN
 10
396247.4402084926
 20
229633.3417753732
 30
0.0
  9
$EXTMAX
 10
396432.6926651995
 20
229846.820287406
 30
63.98700000000004
  9
$LIMMIN
 10
0.0
 20
0.0
  9
$LIMMAX
 10
12.0
 20
9.0
  9
$ORTHOMODE
 70
     0
  9
$REGENMODE
 70
     1
  9
$FILLMODE
 70
     1
  9
$QTEXTMODE
 70
     0
  9
$MIRRTEXT
 70
     0
  9
$LTSCALE
 40
1.0
  9
$ATTMODE
 70
     1
  9
$TEXTSIZE
 40
0.2
  9
$TRACEWID
 40
0.05
  9
$TEXTSTYLE
  7
Standard
  9
$CLAYER
  8
0
  9
$CELTYPE
  6
ByLayer
  9
$CECOLOR
 62
   256
  9
$CELTSCALE
 40
1.0
  9
$DISPSILH
 70
     0
  9
$DIMSCALE
 40
1.0
  9
$DIMASZ
 40
0.18
  9
$DIMEXO
 40
0.0625
  9
$DIMDLI
 40
0.38
  9
$DIMRND
 40
0.0
  9
$DIMDLE
 40
0.0
  9
$DIMEXE
 40
0.18
  9
$DIMTP
 40
0.0
  9
$DIMTM
 40
0.0
  9
$DIMTXT
 40
0.18
  9
$DIMCEN
 40
0.09
  9
$DIMTSZ
 40
0.0
  9
$DIMTOL
 70
     0
  9
$DIMLIM
 70
     0
  9
$DIMTIH
 70
     1
  9
$DIMTOH
 70
     1
  9
$DIMSE1
 70
     0
  9
$DIMSE2
 70
     0
  9
$DIMTAD
 70
     0
  9
$DIMZIN
 70
     0
  9
$DIMBLK
  1

  9
$DIMASO
 70
     1
  9
$DIMSHO
 70
     1
  9
$DIMPOST
  1

  9
$DIMAPOST
  1

  9
$DIMALT
 70
     0
  9
$DIMALTD
 70
     2
  9
$DIMALTF
 40
25.4
  9
$DIMLFAC
 40
1.0
  9
$DIMTOFL
 70
     0
  9
$DIMTVP
 40
0.0
  9
$DIMTIX
 70
     0
  9
$DIMSOXD
 70
     0
  9
$DIMSAH
 70
     0
  9
$DIMBLK1
  1

  9
$DIMBLK2
  1

  9
$DIMSTYLE
  2
Standard
  9
$DIMCLRD
 70
     0
  9
$DIMCLRE
 70
     0
  9
$DIMCLRT
 70
     0
  9
$DIMTFAC
 40
1.0
  9
$DIMGAP
 40
0.09
  9
$DIMJUST
 70
     0
  9
$DIMSD1
 70
     0
  9
$DIMSD2
 70
     0
  9
$DIMTOLJ
 70
     1
  9
$DIMTZIN
 70
     0
  9
$DIMALTZ
 70
     0
  9
$DIMALTTZ
 70
     0
  9
$DIMUPT
 70
     0
  9
$DIMDEC
 70
     4
  9
$DIMTDEC
 70
     4
  9
$DIMALTU
 70
     2
  9
$DIMALTTD
 70
     2
  9
$DIMTXSTY
  7
Standard
  9
$DIMAUNIT
 70
     0
  9
$DIMADEC
 70
     0
  9
$DIMALTRND
 40
0.0
  9
$DIMAZIN
 70
     0
  9
$DIMDSEP
 70
    46
  9
$DIMATFIT
 70
     3
  9
$DIMFRAC
 70
     0
  9
$DIMLDRBLK
  1

  9
$DIMLUNIT
 70
     2
  9
$DIMLWD
 70
    -2
  9
$DIMLWE
 70
    -2
  9
$DIMTMOVE
 70
     0
  9
$DIMFXL
 40
1.0
  9
$DIMFXLON
 70
     0
  9
$DIMJOGANG
 40
0.7853981633974483
  9
$DIMTFILL
 70
     0
  9
$DIMTFILLCLR
 70
     0
  9
$DIMARCSYM
 70
     0
  9
$DIMLTYPE
  6

  9
$DIMLTEX1
  6

  9
$DIMLTEX2
  6

  9
$DIMTXTDIRECTION
 70
     0
  9
$LUNITS
 70
     2
  9
$LUPREC
 70
     4
  9
$SKETCHINC
 40
0.1
  9
$FILLETRAD
 40
0.0
  9
$AUNITS
 70
     0
  9
$AUPREC
 70
     0
  9
$MENU
  1
.
  9
$ELEVATION
 40
0.0
  9
$PELEVATION
 40
0.0
  9
$THICKNESS
 40
0.0
  9
$LIMCHECK
 70
     0
  9
$CHAMFERA
 40
0.0
  9
$CHAMFERB
 40
0.0
  9
$CHAMFERC
 40
0.0
  9
$CHAMFERD
 40
0.0
  9
$SKPOLY
 70
     0
  9
$TDCREATE
 40
2452643.105050937
  9
$TDUCREATE
 40
2452643.063384271
  9
$TDUPDATE
 40
2457283.694903148
  9
$TDUUPDATE
 40
2457283.653236481
  9
$TDINDWG
 40
0.0002790162
  9
$TDUSRTIMER
 40
2457283.652957547
  9
$USRTIMER
 70
     1
  9
$ANGBASE
 50
0.0
  9
$ANGDIR
 70
     0
  9
$PDMODE
 70
     0
  9
$PDSIZE
 40
0.0
  9
$PLINEWID
 40
0.0
  9
$SPLFRAME
 70
     0
  9
$SPLINETYPE
 70
     6
  9
$SPLINESEGS
 70
     8
  9
$HANDSEED
  5
739
  9
$SURFTAB1
 70
     6
  9
$SURFTAB2
 70
     6
  9
$SURFTYPE
 70
     6
  9
$SURFU
 70
     6
  9
$SURFV
 70
     6
  9
$UCSBASE
  2

  9
$UCSNAME
  2

  9
$UCSORG
 10
0.0
 20
0.0
 30
0.0
  9
$UCSXDIR
 10
1.0
 20
0.0
 30
0.0
  9
$UCSYDIR
 10
0.0
 20
1.0
 30
0.0
  9
$UCSORTHOREF
  2

  9
$UCSORTHOVIEW
 70
     0
  9
$UCSORGTOP
 10
0.0
 20
0.0
 30
0.0
  9
$UCSORGBOTTOM
 10
0.0
 20
0.0
 30
0.0
  9
$UCSORGLEFT
 10
0.0
 20
0.0
 30
0.0
  9
$UCSORGRIGHT
 10
0.0
 20
0.0
 30
0.0
  9
$UCSORGFRONT
 10
0.0
 20
0.0
 30
0.0
  9
$UCSORGBACK
 10
0.0
 20
0.0
 30
0.0
  9
$PUCSBASE
  2

  9
$PUCSNAME
  2

  9
$PUCSORG
 10
0.0
 20
0.0
 30
0.0
  9
$PUCSXDIR
 10
1.0
 20
0.0
 30
0.0
  9
$PUCSYDIR
 10
0.0
 20
1.0
 30
0.0
  9
$PUCSORTHOREF
  2

  9
$PUCSORTHOVIEW
 70
     0
  9
$PUCSORGTOP
 10
0.0
 20
0.0
 30
0.0
  9
$PUCSORGBOTTOM
 10
0.0
 20
0.0
 30
0.0
  9
$PUCSORGLEFT
 10
0.0
 20
0.0
 30
0.0
  9
$PUCSORGRIGHT
 10
0.0
 20
0.0
 30
0.0
  9
$PUCSORGFRONT
 10
0.0
 20
0.0
 30
0.0
  9
$PUCSORGBACK
 10
0.0
 20
0.0
 30
0.0
  9
$USERI1
 70
     0
  9
$USERI2
 70
     0
  9
$USERI3
 70
     0
  9
$USERI4
 70
     0
  9
$USERI5
 70
     0
  9
$USERR1
 40
0.0
  9
$USERR2
 40
0.0
  9
$USERR3
 40
0.0
  9
$USERR4
 40
0.0
  9
$USERR5
 40
0.0
  9
$WORLDVIEW
 70
     1
  9
$SHADEDGE
 70
     3
  9
$SHADEDIF
 70
    70
  9
$TILEMODE
 70
     1
  9
$MAXACTVP
 70
    64
  9
$PINSBASE
 10
0.0
 20
0.0
 30
0.0
  9
$PLIMCHECK
 70
     0
  9
$PEXTMIN
 10
0.0
 20
0.0
 30
0.0
  9
$PEXTMAX
 10
0.0
 20
0.0
 30
0.0
  9
$PLIMMIN
 10
0.0
 20
0.0
  9
$PLIMMAX
 10
0.0
 20
0.0
  9
$UNITMODE
 70
     0
  9
$VISRETAIN
 70
     1
  9
$PLINEGEN
 70
     0
  9
$PSLTSCALE
 70
     1
  9
$TREEDEPTH
 70
  3020
  9
$CMLSTYLE
  2
Standard
  9
$CMLJUST
 70
     0
  9
$CMLSCALE
 40
1.0
  9
$PROXYGRAPHICS
 70
     1
  9
$MEASUREMENT
 70
     0
  9
$CELWEIGHT
370
    -1
  9
$ENDCAPS
280
     0
  9
$JOINSTYLE
280
     0
  9
$LWDISPLAY
290
     0
  9
$INSUNITS
 70
     1
  9
$HYPERLINKBASE
  1

  9
$STYLESHEET
  1

  9
$XEDIT
290
     1
  9
$CEPSNTYPE
380
     0
  9
$PSTYLEMODE
290
     1
  9
$FINGERPRINTGUID
  2
{FDEAD576-A652-11D2-9A35-0060089B3A3F}
  9
$VERSIONGUID
  2
{FBC2AE19-5C5C-49EC-81BC-71B1A3362A02}
  9
$EXTNAMES
290
     1
  9
$PSVPSCALE
 40
0.0
  9
$OLESTARTUP
290
     0
  9
$SORTENTS
280
   127
  9
$INDEXCTL
280
     0
  9
$HIDETEXT
280
     1
  9
$XCLIPFRAME
280
     0
  9
$HALOGAP
280
     0
  9
$OBSCOLOR
 70
   257
  9
$OBSLTYPE
280
     0
  9
$INTERSECTIONDISPLAY
280
     0
  9
$INTERSECTIONCOLOR
 70
   257
  9
$DIMASSOC
280
     2
  9
$PROJECTNAME
  1

  9
$CAMERADISPLAY
290
     0
  9
$LENSLENGTH
 40
50.0
  9
$CAMERAHEIGHT
 40
0.0
  9
$STEPSPERSEC
 40
2.0
  9
$STEPSIZE
 40
6.0
  9
$3DDWFPREC
 40
2.0
  9
$PSOLWIDTH
 40
0.25
  9
$PSOLHEIGHT
 40
4.0
  9
$LOFTANG1
 40
1.570796326794897
  9
$LOFTANG2
 40
1.570796326794897
  9
$LOFTMAG1
 40
0.0
  9
$LOFTMAG2
 40
0.0
  9
$LOFTPARAM
 70
     7
  9
$LOFTNORMALS
280
     1
  9
$LATITUDE
 40
37.795
  9
$LONGITUDE
 40
-122.394
  9
$NORTHDIRECTION
 40
0.0
  9
$TIMEZONE
 70
 -8000
  9
$LIGHTGLYPHDISPLAY
280
     1
  9
$TILEMODELIGHTSYNCH
280
     1
  9
$CMATERIAL
347
96
  9
$SOLIDHIST
280
     1
  9
$SHOWHIST
280
     1
  9
$DWFFRAME
280
     2
  9
$DGNFRAME
280
     0
  9
$REALWORLDSCALE
290
     1
  9
$INTERFERECOLOR
 62
     1
  9
$CSHADOW
280
     0
  9
$SHADOWPLANELOCATION
 40
0.0
  0
ENDSEC
  0
SECTION
  2
CLASSES
  0
CLASS
  1
ACDBDICTIONARYWDFLT
  2
AcDbDictionaryWithDefault
  3
ObjectDBX Classes
 90
        0
 91
       14
280
     0
281
     0
  0
CLASS
  1
ACDBPLACEHOLDER
  2
AcDbPlaceHolder
  3
ObjectDBX Classes
 90
        0
 91
        1
280
     0
281
     0
  0
CLASS
  1
LAYOUT
  2
AcDbLayout
  3
ObjectDBX Classes
 90
        0
 91
        1
280
     0
281
     0
  0
CLASS
  1
DICTIONARYVAR
  2
AcDbDictionaryVar
  3
ObjectDBX Classes
 90
        0
 91
        9
280
     0
281
     0
  0
CLASS
  1
TABLESTYLE
  2
AcDbTableStyle
  3
ObjectDBX Classes
 90
     4095
 91
       15
280
     0
281
     0
  0
CLASS
  1
MATERIAL
  2
AcDbMaterial
  3
ObjectDBX Classes
 90
     1153
 91
       15
280
     0
281
     0
  0
CLASS
  1
VISUALSTYLE
  2
AcDbVisualStyle
  3
ObjectDBX Classes
 90
     4095
 91
       15
280
     0
281
     0
  0
CLASS
  1
SCALE
  2
AcDbScale
  3
ObjectDBX Classes
 90
     1153
 91
       15
280
     0
281
     0
  0
CLASS
  1
CELLSTYLEMAP
  2
AcDbCellStyleMap
  3
ObjectDBX Classes
 90
     1152
 91
        8
280
     0
281
     0
  0
CLASS
  1
RASTERVARIABLES
  2
AcDbRasterVariables
  3
ISM
 90
        0
 91
       15
280
     0
281
     0
  0
CLASS
  1
SUN
  2
AcDbSun
  3
SCENEOE
 90
     1153
 91
       15
280
     0
281
     0
  0
CLASS
  1
SORTENTSTABLE
  2
AcDbSortentsTable
  3
ObjectDBX Classes
 90
        0
 91
        8
280
     0
281
     0
  0
ENDSEC
  0
SECTION
  2
TABLES
  0
TABLE
  2
VPORT
  5
8
330
0
100
AcDbSymbolTable
 70
     1
  0
VPORT
  5
94
330
8
100
AcDbSymbolTableRecord
100
AcDbViewportTableRecord
  2
*Active
 70
     0
 10
0.0
 20
0.0
 11
1.0
 21
1.0
 12
396367.736030412
 22
229759.6197343474
 13
0.0
 23
0.0
 14
0.5
 24
0.5
 15
0.5
 25
0.5
 16
0.0
 26
0.0
 36
1.0
 17
-27.6695935659809
 27
-19.538702957856
 37
0.0
 40
217.7480822735169
 41
1.495426829268293
 42
50.0
 43
0.0
 44
0.0
 50
0.0
 51
0.0
 71
    16
 72
  1000
 73
     1
 74
     3
 75
     0
 76
     0
 77
     0
 78
     0
281
     0
 65
     1
110
0.0
120
0.0
130
0.0
111
1.0
121
0.0
131
0.0
112
0.0
122
1.0
132
0.0
 79
     0
146
0.0
348
9F
 60
     2
 61
     5
292
     1
282
     1
141
0.0
142
0.0
 63
   250
421
  3355443
361
ED
  0
ENDTAB
  0
TABLE
  2
LTYPE
  5
5
330
0
100
AcDbSymbolTable
 70
     2
  0
LTYPE
  5
14
330
5
100
AcDbSymbolTableRecord
100
AcDbLinetypeTableRecord
  2
ByBlock
 70
     0
  3

 72
    65
 73
     0
 40
0.0
  0
LTYPE
  5
15
330
5
100
AcDbSymbolTableRecord
100
AcDbLinetypeTableRecord
  2
ByLayer
 70
     0
  3

 72
    65
 73
     0
 40
0.0
  0
LTYPE
  5
16
330
5
100
AcDbSymbolTableRecord
100
AcDbLinetypeTableRecord
  2
Continuous
 70
     0
  3
Solid line
 72
    65
 73
     0
 40
0.0
  0
LTYPE
  5
135
330
5
100
AcDbSymbolTableRecord
100
AcDbLinetypeTableRecord
  2
$__SOLID
 70
     0
  3
$__SOLID
 72
    65
 73
     0
 40
0.0
  0
ENDTAB
  0
TABLE
  2
LAYER
  5
2
330
0
100
AcDbSymbolTable
 70
    25
  0
LAYER
  5
10
330
2
100
AcDbSymbolTableRecord
100
AcDbLayerTableRecord
  2
0
 70
     0
 62
     7
  6
Continuous
370
    -3
390
F
347
98
348
0
  0
LAYER
  5
125
330
2
100
AcDbSymbolTableRecord
100
AcDbLayerTableRecord
  2
wall
 70
     0
 62
     7
  6
Continuous
370
    -3
390
F
347
98
348
0
  0
LAYER
  5
127
330
2
100
AcDbSymbolTableRecord
100
AcDbLayerTableRecord
  2
TR-8
 70
     0
 62
     1
  6
Continuous
370
    -3
390
F
347
98
348
0
1001
AcAecLayerStandard
1000

1000

  0
LAYER
  5
129
330
2
100
AcDbSymbolTableRecord
100
AcDbLayerTableRecord
  2
TR-7
 70
     0
 62
     1
  6
Continuous
370
    -3
390
F
347
98
348
0
1001
AcAecLayerStandard
1000

1000

  0
LAYER
  5
12A
330
2
100
AcDbSymbolTableRecord
100
AcDbLayerTableRecord
  2
TR-6
 70
     0
 62
     1
  6
Continuous
370
    -3
390
F
347
98
348
0
1001
AcAecLayerStandard
1000

1000

  0
LAYER
  5
12B
330
2
100
AcDbSymbolTableRecord
100
AcDbLayerTableRecord
  2
TR-5
 70
     0
 62
     1
  6
Continuous
370
    -3
390
F
347
98
348
0
1001
AcAecLayerStandard
1000

1000

  0
LAYER
  5
12C
330
2
100
AcDbSymbolTableRecord
100
AcDbLayerTableRecord
  2
TR-4
 70
     0
 62
     1
  6
Continuous
370
    -3
390
F
347
98
348
0
1001
AcAecLayerStandard
1000

1000

  0
LAYER
  5
12D
330
2
100
AcDbSymbolTableRecord
100
AcDbLayerTableRecord
  2
TR-3
 70
     0
 62
     1
  6
Continuous
370
    -3
390
F
347
98
348
0
1001
AcAecLayerStandard
1000

1000

  0
LAYER
  5
12E
330
2
100
AcDbSymbolTableRecord
100
AcDbLayerTableRecord
  2
TR-2
 70
     0
 62
     1
  6
Continuous
370
    -3
390
F
347
98
348
0
1001
AcAecLayerStandard
1000

1000

  0
LAYER
  5
12F
330
2
100
AcDbSymbolTableRecord
100
AcDbLayerTableRecord
  2
TR-1
 70
     0
 62
     1
  6
Continuous
370
    -3
390
F
347
98
348
0
1001
AcAecLayerStandard
1000

1000

  0
LAYER
  5
130
102
{ACAD_XDICTIONARY
360
131
102
}
330
2
100
AcDbSymbolTableRecord
100
AcDbLayerTableRecord
  2
HA-PHASE 1 BOUNDARY
 70
     0
 62
     7
  6
Continuous
370
    -3
390
F
347
98
348
0
1001
AcAecLayerStandard
1000

1000

1001
AcCmTransparency
1071
        0
  0
LAYER
  5
134
330
2
100
AcDbSymbolTableRecord
100
AcDbLayerTableRecord
  2
HA-201
 70
     0
 62
     7
  6
$__SOLID
370
    -3
390
F
347
98
348
0
1001
AcAecLayerStandard
1000

1000

  0
LAYER
  5
136
330
2
100
AcDbSymbolTableRecord
100
AcDbLayerTableRecord
  2
HA-SONDAGE
 70
     0
 62
     7
  6
$__SOLID
370
    -3
390
F
347
98
348
0
1001
AcAecLayerStandard
1000

1000

  0
LAYER
  5
137
330
2
100
AcDbSymbolTableRecord
100
AcDbLayerTableRecord
  2
HA-304
 70
     0
 62
     7
  6
$__SOLID
370
    -3
390
F
347
98
348
0
1001
AcAecLayerStandard
1000

1000

  0
LAYER
  5
138
330
2
100
AcDbSymbolTableRecord
100
AcDbLayerTableRecord
  2
HA-302
 70
     0
 62
     7
  6
$__SOLID
370
    -3
390
F
347
98
348
0
1001
AcAecLayerStandard
1000

1000

  0
LAYER
  5
139
330
2
100
AcDbSymbolTableRecord
100
AcDbLayerTableRecord
  2
HA-404
 70
     0
 62
     7
  6
$__SOLID
370
    -3
390
F
347
98
348
0
1001
AcAecLayerStandard
1000

1000

  0
LAYER
  5
13A
330
2
100
AcDbSymbolTableRecord
100
AcDbLayerTableRecord
  2
HA-402
 70
     0
 62
     7
  6
$__SOLID
370
    -3
390
F
347
98
348
0
1001
AcAecLayerStandard
1000

1000

  0
LAYER
  5
13B
330
2
100
AcDbSymbolTableRecord
100
AcDbLayerTableRecord
  2
HA-406
 70
     0
 62
     7
  6
$__SOLID
370
    -3
390
F
347
98
348
0
1001
AcAecLayerStandard
1000

1000

  0
LAYER
  5
13C
330
2
100
AcDbSymbolTableRecord
100
AcDbLayerTableRecord
  2
HA-LANDDRAIN
 70
     0
 62
     7
  6
$__SOLID
370
    -3
390
F
347
98
348
0
1001
AcAecLayerStandard
1000

1000

  0
LAYER
  5
13D
330
2
100
AcDbSymbolTableRecord
100
AcDbLayerTableRecord
  2
HA-803
 70
     0
 62
     7
  6
$__SOLID
370
    -3
390
F
347
98
348
0
1001
AcAecLayerStandard
1000

1000

  0
LAYER
  5
13E
330
2
100
AcDbSymbolTableRecord
100
AcDbLayerTableRecord
  2
HA-805
 70
     0
 62
     7
  6
$__SOLID
370
    -3
390
F
347
98
348
0
1001
AcAecLayerStandard
1000

1000

  0
LAYER
  5
13F
330
2
100
AcDbSymbolTableRecord
100
AcDbLayerTableRecord
  2
HA-811
 70
     0
 62
     7
  6
$__SOLID
370
    -3
390
F
347
98
348
0
1001
AcAecLayerStandard
1000

1000

  0
LAYER
  5
140
330
2
100
AcDbSymbolTableRecord
100
AcDbLayerTableRecord
  2
HA-807
 70
     0
 62
     7
  6
$__SOLID
370
    -3
390
F
347
98
348
0
1001
AcAecLayerStandard
1000

1000

  0
LAYER
  5
141
330
2
100
AcDbSymbolTableRecord
100
AcDbLayerTableRecord
  2
HA-809
 70
     0
 62
     7
  6
$__SOLID
370
    -3
390
F
347
98
348
0
1001
AcAecLayerStandard
1000

1000

  0
LAYER
  5
142
330
2
100
AcDbSymbolTableRecord
100
AcDbLayerTableRecord
  2
HA-GRAVEL PATCH
 70
     0
 62
     7
  6
$__SOLID
370
    -3
390
F
347
98
348
0
1001
AcAecLayerStandard
1000

1000

  0
ENDTAB
  0
TABLE
  2
STYLE
  5
3
330
0
100
AcDbSymbolTable
 70
     2
  0
STYLE
  5
11
330
3
100
AcDbSymbolTableRecord
100
AcDbTextStyleTableRecord
  2
Standard
 70
     0
 40
0.0
 41
1.0
 50
0.0
 71
     0
 42
0.2
  3
arial.ttf
  4

1001
ACAD
1000
Arial
1071
        0
  0
STYLE
  5
146
330
3
100
AcDbSymbolTableRecord
100
AcDbTextStyleTableRecord
  2
ROMANS
 70
     0
 40
0.0
 41
1.0
 50
0.0
 71
     0
 42
0.2
  3
romans.shx
  4

  0
ENDTAB
  0
TABLE
  2
VIEW
  5
6
330
0
100
AcDbSymbolTable
 70
     0
  0
ENDTAB
  0
TABLE
  2
UCS
  5
7
330
0
100
AcDbSymbolTable
 70
     0
  0
ENDTAB
  0
TABLE
  2
APPID
  5
9
330
0
100
AcDbSymbolTable
 70
     4
  0
APPID
  5
12
330
9
100
AcDbSymbolTableRecord
100
AcDbRegAppTableRecord
  2
ACAD
 70
     0
  0
APPID
  5
128
330
9
100
AcDbSymbolTableRecord
100
AcDbRegAppTableRecord
  2
AcAecLayerStandard
 70
     0
  0
APPID
  5
133
330
9
100
AcDbSymbolTableRecord
100
AcDbRegAppTableRecord
  2
AcCmTransparency
 70
     0
  0
APPID
  5
145
330
9
100
AcDbSymbolTableRecord
100
AcDbRegAppTableRecord
  2
ACAD_PSEXT
 70
     0
  0
ENDTAB
  0
TABLE
  2
DIMSTYLE
  5
A
330
0
100
AcDbSymbolTable
 70
     1
100
AcDbDimStyleTable
  0
DIMSTYLE
105
27
330
A
100
AcDbSymbolTableRecord
100
AcDbDimStyleTableRecord
  2
Standard
 70
     0
178
     0
340
11
  0
ENDTAB
  0
TABLE
  2
BLOCK_RECORD
  5
1
330
0
100
AcDbSymbolTable
 70
     2
  0
BLOCK_RECORD
  5
1F
330
1
100
AcDbSymbolTableRecord
100
AcDbBlockTableRecord
  2
*Model_Space
340
22
 70
     0
280
     1
281
     0
  0
BLOCK_RECORD
  5
58
330
1
100
AcDbSymbolTableRecord
100
AcDbBlockTableRecord
  2
*Paper_Space
340
59
 70
     0
280
     1
281
     0
  0
BLOCK_RECORD
  5
5D
330
1
100
AcDbSymbolTableRecord
100
AcDbBlockTableRecord
  2
*Paper_Space0
340
5E
 70
     0
280
     1
281
     0
  0
BLOCK_RECORD
  5
124
102
{ACAD_XDICTIONARY
360
165
102
}
330
1
100
AcDbSymbolTableRecord
100
AcDbBlockTableRecord
  2
WL7800
340
0
102
{BLKREFS
331
0
102
}
 70
     6
280
     1
281
     0
  0
ENDTAB
  0
ENDSEC
  0
SECTION
  2
BLOCKS
  0
BLOCK
  5
20
330
1F
100
AcDbEntity
  8
0
100
AcDbBlockBegin
  2
*Model_Space
 70
     0
 10
0.0
 20
0.0
 30
0.0
  3
*Model_Space
  1
*Model_Space
  0
ENDBLK
  5
21
330
1F
100
AcDbEntity
  8
0
100
AcDbBlockEnd
  0
BLOCK
  5
5A
330
58
100
AcDbEntity
 67
     1
  8
0
100
AcDbBlockBegin
  2
*Paper_Space
 70
     0
 10
0.0
 20
0.0
 30
0.0
  3
*Paper_Space
  1
*Paper_Space
  0
ENDBLK
  5
5B
330
58
100
AcDbEntity
 67
     1
  8
0
100
AcDbBlockEnd
  0
BLOCK
  5
5F
330
5D
100
AcDbEntity
  8
0
100
AcDbBlockBegin
  2
*Paper_Space0
 70
     0
 10
0.0
 20
0.0
 30
0.0
  3
*Paper_Space0
  1
*Paper_Space0
  0
ENDBLK
  5
60
330
5D
100
AcDbEntity
  8
0
100
AcDbBlockEnd
  0
BLOCK
  5
44D
330
124
100
AcDbEntity
  8
0
100
AcDbBlockBegin
  2
WL7800
 70
     0
 10
0.0
 20
0.0
 30
0.0
  3
WL7800
  1
WL7800
  0
LWPOLYLINE
  5
167
330
124
100
AcDbEntity
  8
HA-PHASE 1 BOUNDARY
 62
     1
100
AcDbPolyline
 90
       53
 70
     0
 43
1.0
 10
180.4637529680622
 20
13.15160294953967
 10
176.5428849680466
 20
21.79799594954238
 10
172.6278149680584
 20
30.6308809495531
 10
172.6278149680584
 20
30.6308809495531
 10
166.411704968079
 20
44.56296444954933
 10
153.805060968094
 20
72.83934694953496
 10
148.4045024681254
 20
84.87390794954263
 10
138.9474559680675
 20
106.1191319495556
 10
127.6387321386137
 20
131.3863937868446
 10
123.2113147096825
 20
141.689621169935
 10
118.9510146318935
 20
149.5073497077101
 10
107.0667801200179
 20
173.7494639903889
 10
94.82012424734421
 20
200.1964639533544
 10
89.2677379680681
 20
212.0903239495528
 10
66.66334132140037
 20
205.359384905285
 10
28.08281938295113
 20
193.8805622136279
 10
23.46578744769795
 20
193.3398508977261
 10
23.17732962995069
 20
184.3288901094347
 10
20.37866295222193
 20
152.2399767881434
 10
18.80551528726937
 20
120.6278196808707
 10
10.57507980044466
 20
100.5499428361072
 10
1.525924787507392
 20
80.09728014958091
 10
0.0
 20
75.40574854996521
 10
17.28037352266256
 20
74.70403148047626
 10
16.10070350527531
 20
61.13941837276798
 10
24.52895433444064
 20
60.51395166103612
 10
25.47003569902154
 20
69.63728218403412
 10
36.8216500665294
 20
69.04086560648284
 10
38.27981710119639
 20
90.82653138693422
 10
48.3486526288907
 20
90.31287543123472
 10
48.14316613739356
 20
84.86812089310843
 10
54.6675925446325
 20
83.223029849265
 10
64.29593899450265
 20
125.1601343834773
 10
88.55484320345568
 20
119.0208918412682
 10
98.00681505072862
 20
128.780977074668
 10
114.7049383123522
 20
140.2727696820803
 10
123.2113147096825
 20
141.689621169935
 10
127.6387321386137
 20
131.3863937868446
 10
120.2186359690968
 20
127.678981473
 10
113.7599118127255
 20
113.5109138329572
 10
108.4163303049281
 20
90.62572108249879
 10
102.7456023567938
 20
66.22528437979054
 10
86.13395954546286
 20
70.27189809887204
 10
85.57581927085994
 20
67.8554686200805
 10
78.44573372398736
 20
69.8380767784256
 10
75.22149219881976
 20
60.85395029862411
 10
86.630084234057
 20
54.72007461811882
 10
103.8840719689615
 20
44.52437911034212
 10
141.077493000601
 20
24.07797776247025
 10
164.3373204285163
 20
10.95287024541176
 10
183.0136839906918
 20
0.0
 10
184.0510939680971
 20
5.14928394954768
 10
180.4637529680622
 20
13.15160294953967
  0
POLYLINE
  5
168
330
124
100
AcDbEntity
  8
HA-304
100
AcDb3dPolyline
 66
     1
 10
0.0
 20
0.0
 30
0.0
 70
     8
  0
VERTEX
  5
169
330
168
100
AcDbEntity
  8
HA-304
100
AcDbVertex
100
AcDb3dPolylineVertex
 10
56.80792741425103
 20
185.4513905394706
 30
58.864
 70
    32
  0
VERTEX
  5
16A
330
168
100
AcDbEntity
  8
HA-304
100
AcDbVertex
100
AcDb3dPolylineVertex
 10
58.76086510927416
 20
185.6304665482894
 30
58.864
 70
    32
  0
VERTEX
  5
16B
330
168
100
AcDbEntity
  8
HA-304
100
AcDbVertex
100
AcDb3dPolylineVertex
 10
59.09634899516823
 20
185.6479257556493
 30
58.864
 70
    32
  0
SEQEND
  5
16C
330
168
100
AcDbEntity
  8
HA-304
  0
POLYLINE
  5
16D
330
124
100
AcDbEntity
  8
HA-304
100
AcDb3dPolyline
 66
     1
 10
0.0
 20
0.0
 30
0.0
 70
     8
  0
VERTEX
  5
16E
330
16D
100
AcDbEntity
  8
HA-304
100
AcDbVertex
100
AcDb3dPolylineVertex
 10
59.4623504509218
 20
186.1275454739516
 30
58.864
 70
    32
  0
VERTEX
  5
16F
330
16D
100
AcDbEntity
  8
HA-304
100
AcDbVertex
100
AcDb3dPolylineVertex
 10
57.16703599848552
 20
185.9219776240643
 30
58.864
 70
    32
  0
SEQEND
  5
170
330
16D
100
AcDbEntity
  8
HA-304
  0
POLYLINE
  5
171
330
124
100
AcDbEntity
  8
HA-302
100
AcDb3dPolyline
 66
     1
 10
0.0
 20
0.0
 30
0.0
 70
     8
  0
VERTEX
  5
172
330
171
100
AcDbEntity
  8
HA-302
100
AcDbVertex
100
AcDb3dPolylineVertex
 10
55.39633924054215
 20
183.6016013879853
 30
58.864
 70
    32
  0
VERTEX
  5
173
330
171
100
AcDbEntity
  8
HA-302
100
AcDbVertex
100
AcDb3dPolylineVertex
 10
55.98418223339831
 20
182.2793580785219
 30
58.86399999999999
 70
    32
  0
VERTEX
  5
174
330
171
100
AcDbEntity
  8
HA-302
100
AcDbVertex
100
AcDb3dPolylineVertex
 10
56.17616591701517
 20
181.8212268084462
 30
58.864
 70
    32
  0
SEQEND
  5
175
330
171
100
AcDbEntity
  8
HA-302
  0
POLYLINE
  5
176
330
124
100
AcDbEntity
  8
HA-302
100
AcDb3dPolyline
 66
     1
 10
0.0
 20
0.0
 30
0.0
 70
     8
  0
VERTEX
  5
177
330
176
100
AcDbEntity
  8
HA-302
100
AcDbVertex
100
AcDb3dPolylineVertex
 10
56.69524351635482
 20
182.5014422777167
 30
58.864
 70
    32
  0
VERTEX
  5
178
330
176
100
AcDbEntity
  8
HA-302
100
AcDbVertex
100
AcDb3dPolylineVertex
 10
55.85882606456289
 20
184.2076585409523
 30
58.864
 70
    32
  0
SEQEND
  5
179
330
176
100
AcDbEntity
  8
HA-302
  0
LWPOLYLINE
  5
17A
330
124
100
AcDbEntity
  8
TR-2
100
AcDbPolyline
 90
        4
 70
     1
 43
0.0
 38
58.864
 10
42.73130520869745
 20
167.0049459387083
 10
60.93074688105844
 20
190.8540617046528
 10
62.2821967744967
 20
189.8227600098471
 10
44.08275510201929
 20
165.9736442439607
  0
LWPOLYLINE
  5
17B
330
124
100
AcDbEntity
  8
TR-1
100
AcDbPolyline
 90
        4
 70
     1
 43
0.0
 38
58.843
 10
86.02658796525793
 20
164.1074204615434
 10
98.5891154090641
 20
171.4137198107201
 10
99.44333507720148
 20
169.9439209269476
 10
86.8808076333371
 20
162.6376215778291
  0
LWPOLYLINE
  5
17C
330
124
100
AcDbEntity
  8
HA-SONDAGE
100
AcDbPolyline
 90
        2
 70
     0
 43
0.0
 38
58.843
 10
95.9106524104136
 20
169.855939933128
 10
96.78907478309702
 20
168.4002172139881
  0
LWPOLYLINE
  5
17D
330
124
100
AcDbEntity
  8
HA-SONDAGE
100
AcDbPolyline
 90
        3
 70
     1
 43
0.0
 38
58.843
 10
95.93916588072898
 20
169.8086873723369
 10
96.00022524310043
 20
169.8133203688485
 10
95.96579990239115
 20
169.7645494363969
  0
LWPOLYLINE
  5
17E
330
124
100
AcDbEntity
  8
HA-SONDAGE
100
AcDbPolyline
 90
        3
 70
     1
 43
0.0
 38
58.843
 10
96.07987022364978
 20
169.5755119489331
 10
96.14092958602123
 20
169.5801449454448
 10
96.10650424531195
 20
169.5313740129932
  0
LWPOLYLINE
  5
17F
330
124
100
AcDbEntity
  8
HA-SONDAGE
100
AcDbPolyline
 90
        3
 70
     1
 43
0.0
 38
60.12900000000001
 10
96.22057456657058
 20
169.3423365255294
 10
96.28163392894203
 20
169.346969522041
 10
96.24720858823275
 20
169.2981985895894
  0
LWPOLYLINE
  5
180
330
124
100
AcDbEntity
  8
HA-SONDAGE
100
AcDbPolyline
 90
        3
 70
     1
 43
0.0
 38
61.41500000000002
 10
96.36127890949138
 20
169.1091611021257
 10
96.42233827186283
 20
169.1137940986373
 10
96.38791293115355
 20
169.0650231661857
  0
LWPOLYLINE
  5
181
330
124
100
AcDbEntity
  8
HA-SONDAGE
100
AcDbPolyline
 90
        3
 70
     1
 43
0.0
 38
62.70100000000003
 10
96.50198325241217
 20
168.8759856787219
 10
96.56304261478363
 20
168.8806186752336
 10
96.52861727407435
 20
168.831847742782
  0
LWPOLYLINE
  5
182
330
124
100
AcDbEntity
  8
HA-SONDAGE
100
AcDbPolyline
 90
        3
 70
     1
 43
0.0
 38
63.98700000000004
 10
96.64268759533297
 20
168.6428102553182
 10
96.70374695770442
 20
168.6474432518298
 10
96.66932161699515
 20
168.5986723193782
  0
POLYLINE
  5
183
330
124
100
AcDbEntity
  8
HA-201
100
AcDb3dPolyline
 66
     1
 10
0.0
 20
0.0
 30
0.0
 70
     8
  0
VERTEX
  5
184
330
183
100
AcDbEntity
  8
HA-201
100
AcDbVertex
100
AcDb3dPolylineVertex
 10
66.38554382766597
 20
145.5488084881217
 30
59.901
 70
    32
  0
VERTEX
  5
185
330
183
100
AcDbEntity
  8
HA-201
100
AcDbVertex
100
AcDb3dPolylineVertex
 10
66.40608102449914
 20
145.4327554073825
 30
59.402
 70
    32
  0
VERTEX
  5
186
330
183
100
AcDbEntity
  8
HA-201
100
AcDbVertex
100
AcDb3dPolylineVertex
 10
66.53108102449914
 20
145.0287554074021
 30
59.4
 70
    32
  0
VERTEX
  5
187
330
183
100
AcDbEntity
  8
HA-201
100
AcDbVertex
100
AcDb3dPolylineVertex
 10
66.6040810245322
 20
144.5607554073795
 30
59.409
 70
    32
  0
VERTEX
  5
188
330
183
100
AcDbEntity
  8
HA-201
100
AcDbVertex
100
AcDb3dPolylineVertex
 10
66.68281845020829
 20
144.0548758414516
 30
59.901
 70
    32
  0
VERTEX
  5
189
330
183
100
AcDbEntity
  8
HA-201
100
AcDbVertex
100
AcDb3dPolylineVertex
 10
66.71499525307445
 20
143.8777744878607
 30
59.901
 70
    32
  0
SEQEND
  5
18A
330
183
100
AcDbEntity
  8
HA-201
  0
POLYLINE
  5
18B
330
124
100
AcDbEntity
  8
HA-201
100
AcDb3dPolyline
 66
     1
 10
0.0
 20
0.0
 30
0.0
 70
     8
  0
VERTEX
  5
18C
330
18B
100
AcDbEntity
  8
HA-201
100
AcDbVertex
100
AcDb3dPolylineVertex
 10
67.6614603419439
 20
144.0047306219931
 30
59.901
 70
    32
  0
VERTEX
  5
18D
330
18B
100
AcDbEntity
  8
HA-201
100
AcDbVertex
100
AcDb3dPolylineVertex
 10
67.47522524307715
 20
144.7323203688138
 30
59.417
 70
    32
  0
VERTEX
  5
18E
330
18B
100
AcDbEntity
  8
HA-201
100
AcDbVertex
100
AcDb3dPolylineVertex
 10
67.38322524307296
 20
145.2653203688387
 30
59.396
 70
    32
  0
VERTEX
  5
18F
330
18B
100
AcDbEntity
  8
HA-201
100
AcDbVertex
100
AcDb3dPolylineVertex
 10
67.29278622276615
 20
145.6705034016923
 30
59.90099999996373
 70
    32
  0
SEQEND
  5
190
330
18B
100
AcDbEntity
  8
HA-201
  0
LWPOLYLINE
  5
191
330
124
100
AcDbEntity
  8
TR-3
100
AcDbPolyline
 90
        4
 70
     1
 43
0.0
 38
59.901
 10
60.41083585302113
 20
144.7473781596636
 10
90.14453252049861
 20
148.7357716322294
 10
90.37054148392053
 20
147.0508621543995
 10
60.63684481655946
 20
143.0624686818919
  0
POINT
  5
192
330
124
100
AcDbEntity
  8
wall
100
AcDbPoint
 10
39.4582252430846
 20
108.6273203688324
 30
59.843
  0
POINT
  5
193
330
124
100
AcDbEntity
  8
wall
100
AcDbPoint
 10
39.26122524309903
 20
108.9143203688145
 30
59.86600000000001
  0
POLYLINE
  5
194
330
124
100
AcDbEntity
  8
HA-402
100
AcDb3dPolyline
 66
     1
 10
0.0
 20
0.0
 30
0.0
 70
     9
  0
VERTEX
  5
195
330
194
100
AcDbEntity
  8
HA-402
100
AcDbVertex
100
AcDb3dPolylineVertex
 10
38.33086116070626
 20
111.1077946971054
 30
59.902
 70
    32
  0
VERTEX
  5
196
330
194
100
AcDbEntity
  8
HA-402
100
AcDbVertex
100
AcDb3dPolylineVertex
 10
38.423225243052
 20
111.0233203688404
 30
59.86
 70
    32
  0
VERTEX
  5
197
330
194
100
AcDbEntity
  8
HA-402
100
AcDbVertex
100
AcDb3dPolylineVertex
 10
38.60022524307715
 20
111.0073203688371
 30
59.89
 70
    32
  0
VERTEX
  5
198
330
194
100
AcDbEntity
  8
HA-402
100
AcDbVertex
100
AcDb3dPolylineVertex
 10
38.68422524310881
 20
111.1083203688322
 30
59.9
 70
    32
  0
VERTEX
  5
199
330
194
100
AcDbEntity
  8
HA-402
100
AcDbVertex
100
AcDb3dPolylineVertex
 10
38.62522524310043
 20
111.1733203688345
 30
59.867
 70
    32
  0
VERTEX
  5
19A
330
194
100
AcDbEntity
  8
HA-402
100
AcDbVertex
100
AcDb3dPolylineVertex
 10
38.51022524310974
 20
111.2013203688257
 30
59.885
 70
    32
  0
VERTEX
  5
19B
330
194
100
AcDbEntity
  8
HA-402
100
AcDbVertex
100
AcDb3dPolylineVertex
 10
38.37543422303861
 20
111.193297831167
 30
59.89100000000001
 70
    32
  0
SEQEND
  5
19C
330
194
100
AcDbEntity
  8
HA-402
  0
POLYLINE
  5
19D
330
124
100
AcDbEntity
  8
HA-404
100
AcDb3dPolyline
 66
     1
 10
0.0
 20
0.0
 30
0.0
 70
     9
  0
VERTEX
  5
19E
330
19D
100
AcDbEntity
  8
HA-404
100
AcDbVertex
100
AcDb3dPolylineVertex
 10
36.57861180824693
 20
113.0704854109208
 30
59.941
 70
    32
  0
VERTEX
  5
19F
330
19D
100
AcDbEntity
  8
HA-404
100
AcDbVertex
100
AcDb3dPolylineVertex
 10
38.17569579253905
 20
113.7125452212349
 30
59.941
 70
    32
  0
VERTEX
  5
1A0
330
19D
100
AcDbEntity
  8
HA-404
100
AcDbVertex
100
AcDb3dPolylineVertex
 10
37.75022524310043
 20
114.4193203688192
 30
59.794
 70
    32
  0
VERTEX
  5
1A1
330
19D
100
AcDbEntity
  8
HA-404
100
AcDbVertex
100
AcDb3dPolylineVertex
 10
36.22192040260416
 20
113.6658422034525
 30
59.941
 70
    32
  0
SEQEND
  5
1A2
330
19D
100
AcDbEntity
  8
HA-404
  0
LWPOLYLINE
  5
1A3
330
124
100
AcDbEntity
  8
TR-4
100
AcDbPolyline
 90
        4
 70
     1
 43
0.0
 38
59.941
 10
31.84901976934634
 20
124.2724563509692
 10
47.26727685966762
 20
98.53770653100219
 10
45.80897436983651
 20
97.66400529581006
 10
30.39071727957344
 20
123.3987551158934
  0
POLYLINE
  5
1A4
330
124
100
AcDbEntity
  8
HA-406
100
AcDb3dPolyline
 66
     1
 10
0.0
 20
0.0
 30
0.0
 70
     9
  0
VERTEX
  5
1A5
330
1A4
100
AcDbEntity
  8
HA-406
100
AcDbVertex
100
AcDb3dPolylineVertex
 10
41.33489984291373
 20
106.8075299313641
 30
60.014
 70
    32
  0
VERTEX
  5
1A6
330
1A4
100
AcDbEntity
  8
HA-406
100
AcDbVertex
100
AcDb3dPolylineVertex
 10
41.54722524312092
 20
106.8293203688227
 30
59.98399999999999
 70
    32
  0
VERTEX
  5
1A7
330
1A4
100
AcDbEntity
  8
HA-406
100
AcDbVertex
100
AcDb3dPolylineVertex
 10
41.74722524313256
 20
107.0393203688145
 30
59.968
 70
    32
  0
VERTEX
  5
1A8
330
1A4
100
AcDbEntity
  8
HA-406
100
AcDbVertex
100
AcDb3dPolylineVertex
 10
41.64422524307156
 20
107.1873203688301
 30
60.051
 70
    32
  0
VERTEX
  5
1A9
330
1A4
100
AcDbEntity
  8
HA-406
100
AcDbVertex
100
AcDb3dPolylineVertex
 10
41.49922524311114
 20
107.2383203688369
 30
60.095
 70
    32
  0
VERTEX
  5
1AA
330
1A4
100
AcDbEntity
  8
HA-406
100
AcDbVertex
100
AcDb3dPolylineVertex
 10
41.31622524309205
 20
107.0693203688134
 30
60.058
 70
    32
  0
VERTEX
  5
1AB
330
1A4
100
AcDbEntity
  8
HA-406
100
AcDbVertex
100
AcDb3dPolylineVertex
 10
41.25318256177707
 20
106.8998190285056
 30
60.005
 70
    32
  0
SEQEND
  5
1AC
330
1A4
100
AcDbEntity
  8
HA-406
  0
LWPOLYLINE
  5
1AD
330
124
100
AcDbEntity
  8
TR-5
100
AcDbPolyline
 90
        4
 70
     1
 43
0.0
 38
60.242
 10
14.4228463031468
 20
105.6449176709866
 10
25.31266913143918
 20
102.3583100183751
 10
24.81978135468671
 20
100.7313307192817
 10
13.92995852645254
 20
104.0179383719806
  0
LWPOLYLINE
  5
1AE
330
124
100
AcDbEntity
  8
TR-7
100
AcDbPolyline
 90
        4
 70
     1
 43
0.0
 38
61.22600000000001
 10
114.8509660507552
 20
76.80468128068605
 10
143.514099964872
 20
85.66045647108695
 10
144.0159272256424
 20
84.03621221595677
 10
115.3527933115256
 20
75.18043702555588
  0
LWPOLYLINE
  5
1AF
330
124
100
AcDbEntity
  8
HA-LANDDRAIN
100
AcDbPolyline
 90
        2
 70
     0
 43
0.0
 38
61.22600000000001
 10
132.140600540326
 20
82.14649479705258
 10
133.2311245559249
 20
80.704134565196
  0
LWPOLYLINE
  5
1B0
330
124
100
AcDbEntity
  8
HA-LANDDRAIN
100
AcDbPolyline
 90
        2
 70
     0
 43
0.0
 38
61.22600000000001
 10
124.5758292500395
 20
79.80927953947685
 10
125.5876221788349
 20
78.34259451442631
  0
LWPOLYLINE
  5
1B1
330
124
100
AcDbEntity
  8
HA-LANDDRAIN
100
AcDbPolyline
 90
        2
 70
     0
 43
0.0
 38
61.22600000000001
 10
131.9017410910456
 20
82.0726966704533
 10
132.9922651066445
 20
80.63033643859671
  0
LWPOLYLINE
  5
1B2
330
124
100
AcDbEntity
  8
HA-LANDDRAIN
100
AcDbPolyline
 90
        2
 70
     0
 43
0.0
 38
61.22600000000001
 10
124.3369698007591
 20
79.73548141290667
 10
125.3487627295544
 20
78.26879638785613
  0
LWPOLYLINE
  5
1B3
330
124
100
AcDbEntity
  8
TR-8
100
AcDbPolyline
 90
        4
 70
     1
 43
0.0
 38
61.217
 10
120.2914508484537
 20
49.42107661996852
 10
146.290027943207
 20
34.45197547634598
 10
145.4417788783903
 20
32.97872277430724
 10
119.4432017836371
 20
47.94782391792978
  0
LWPOLYLINE
  5
1B4
330
124
100
AcDbEntity
  8
HA-LANDDRAIN
100
AcDbPolyline
 90
        3
 70
     0
 43
0.0
 38
61.217
 10
137.9072137424373
 20
37.31687048071763
 10
138.6312252430944
 20
37.93032036884688
 10
139.2452658250695
 20
38.50811117541161
  0
LWPOLYLINE
  5
1B5
330
124
100
AcDbEntity
  8
HA-803
100
AcDbPolyline
 90
        3
 70
     0
 43
0.0
 38
61.217
 10
139.5064190042322
 20
38.35774800984655
 10
138.8572252431186
 20
37.78332036884967
 10
138.1767740083742
 20
37.16166679895832
  0
LWPOLYLINE
  5
1B6
330
124
100
AcDbEntity
  8
HA-803
100
AcDbPolyline
 90
        3
 70
     0
 43
0.0
 38
61.217
 10
140.1612933968427
 20
36.01904767256929
 10
140.6642252430902
 20
36.75232036883244
 10
141.1625102502294
 20
37.40422669696272
  0
LWPOLYLINE
  5
1B7
330
124
100
AcDbEntity
  8
HA-803
100
AcDbPolyline
 90
        2
 70
     0
 43
0.0
 38
61.01
 10
138.6312252430944
 20
37.93032036884688
 10
140.6642252430902
 20
36.75232036883244
  0
POLYLINE
  5
1B8
330
124
100
AcDbEntity
  8
HA-GRAVEL PATCH
100
AcDb3dPolyline
 66
     1
 10
0.0
 20
0.0
 30
0.0
 70
     8
  0
VERTEX
  5
1B9
330
1B8
100
AcDbEntity
  8
HA-GRAVEL PATCH
100
AcDbVertex
100
AcDb3dPolylineVertex
 10
126.771375195065
 20
45.69015540095279
 30
61.217
 70
    32
  0
VERTEX
  5
1BA
330
1B8
100
AcDbEntity
  8
HA-GRAVEL PATCH
100
AcDbVertex
100
AcDb3dPolylineVertex
 10
126.2782252430916
 20
45.52632036880823
 30
61.152
 70
    32
  0
VERTEX
  5
1BB
330
1B8
100
AcDbEntity
  8
HA-GRAVEL PATCH
100
AcDbVertex
100
AcDb3dPolylineVertex
 10
125.5712252430967
 20
45.21332036884269
 30
61.13
 70
    32
  0
SEQEND
  5
1BC
330
1B8
100
AcDbEntity
  8
HA-GRAVEL PATCH
  0
POLYLINE
  5
1BD
330
124
100
AcDbEntity
  8
HA-809
100
AcDb3dPolyline
 66
     1
 10
0.0
 20
0.0
 30
0.0
 70
     9
  0
VERTEX
  5
1BE
330
1BD
100
AcDbEntity
  8
HA-809
100
AcDbVertex
100
AcDb3dPolylineVertex
 10
130.1240929980995
 20
43.7597739144112
 30
61.217
 70
    32
  0
VERTEX
  5
1BF
330
1BD
100
AcDbEntity
  8
HA-809
100
AcDbVertex
100
AcDb3dPolylineVertex
 10
129.4074415552313
 20
42.21075175370788
 30
61.217
 70
    32
  0
VERTEX
  5
1C0
330
1BD
100
AcDbEntity
  8
HA-809
100
AcDbVertex
100
AcDb3dPolylineVertex
 10
130.9183576162905
 20
41.3408174009237
 30
61.217
 70
    32
  0
VERTEX
  5
1C1
330
1BD
100
AcDbEntity
  8
HA-809
100
AcDbVertex
100
AcDb3dPolylineVertex
 10
131.7262252431246
 20
42.83732036882429
 30
61.217
 70
    32
  0
SEQEND
  5
1C2
330
1BD
100
AcDbEntity
  8
HA-809
  0
POLYLINE
  5
1C3
330
124
100
AcDbEntity
  8
HA-GRAVEL PATCH
100
AcDb3dPolyline
 66
     1
 10
0.0
 20
0.0
 30
0.0
 70
     9
  0
VERTEX
  5
1C4
330
1C3
100
AcDbEntity
  8
HA-GRAVEL PATCH
100
AcDbVertex
100
AcDb3dPolylineVertex
 10
126.6352427153033
 20
45.6449292601028
 30
61.19905695619018
 70
    32
  0
VERTEX
  5
1C5
330
1C3
100
AcDbEntity
  8
HA-GRAVEL PATCH
100
AcDbVertex
100
AcDb3dPolylineVertex
 10
126.5687663151184
 20
45.69285281034536
 30
24.47795049266714
 70
    32
  0
VERTEX
  5
1C6
330
1C3
100
AcDbEntity
  8
HA-GRAVEL PATCH
100
AcDbVertex
100
AcDb3dPolylineVertex
 10
126.5718050506548
 20
45.62385390201234
 30
61.19069550714553
 70
    32
  0
SEQEND
  5
1C7
330
1C3
100
AcDbEntity
  8
HA-GRAVEL PATCH
  0
POLYLINE
  5
1C8
330
124
100
AcDbEntity
  8
HA-GRAVEL PATCH
100
AcDb3dPolyline
 66
     1
 10
0.0
 20
0.0
 30
0.0
 70
     9
  0
VERTEX
  5
1C9
330
1C8
100
AcDbEntity
  8
HA-GRAVEL PATCH
100
AcDbVertex
100
AcDb3dPolylineVertex
 10
126.2817851310829
 20
45.52547606662847
 30
61.15431630337908
 70
    32
  0
VERTEX
  5
1CA
330
1C8
100
AcDbEntity
  8
HA-GRAVEL PATCH
100
AcDbVertex
100
AcDb3dPolylineVertex
 10
126.2222375940182
 20
45.56225363432895
 30
30.57542916314582
 70
    32
  0
VERTEX
  5
1CB
330
1C8
100
AcDbEntity
  8
HA-GRAVEL PATCH
100
AcDbVertex
100
AcDb3dPolylineVertex
 10
126.2231913809082
 20
45.50195601402083
 30
61.15028748943746
 70
    32
  0
VERTEX
  5
1CC
330
1C8
100
AcDbEntity
  8
HA-GRAVEL PATCH
100
AcDbVertex
100
AcDb3dPolylineVertex
 10
126.259880622325
 20
45.51819891721243
 30
61.15142916314582
 70
    32
  0
SEQEND
  5
1CD
330
1C8
100
AcDbEntity
  8
HA-GRAVEL PATCH
  0
POLYLINE
  5
1CE
330
124
100
AcDbEntity
  8
HA-GRAVEL PATCH
100
AcDb3dPolyline
 66
     1
 10
0.0
 20
0.0
 30
0.0
 70
     9
  0
VERTEX
  5
1CF
330
1CE
100
AcDbEntity
  8
HA-GRAVEL PATCH
100
AcDbVertex
100
AcDb3dPolylineVertex
 10
125.9880849401816
 20
45.39787070147577
 30
61.14297158887803
 70
    32
  0
VERTEX
  5
1D0
330
1CE
100
AcDbEntity
  8
HA-GRAVEL PATCH
100
AcDbVertex
100
AcDb3dPolylineVertex
 10
125.956932511006
 20
45.4232265012979
 30
36.68544496666201
 70
    32
  0
VERTEX
  5
1D1
330
1CE
100
AcDbEntity
  8
HA-GRAVEL PATCH
100
AcDbVertex
100
AcDb3dPolylineVertex
 10
125.9518793989555
 20
45.3818419399613
 30
61.14184496666201
 70
    32
  0
SEQEND
  5
1D2
330
1CE
100
AcDbEntity
  8
HA-GRAVEL PATCH
  0
POLYLINE
  5
1D3
330
124
100
AcDbEntity
  8
HA-GRAVEL PATCH
100
AcDb3dPolyline
 66
     1
 10
0.0
 20
0.0
 30
0.0
 70
     9
  0
VERTEX
  5
1D4
330
1D3
100
AcDbEntity
  8
HA-GRAVEL PATCH
100
AcDbVertex
100
AcDb3dPolylineVertex
 10
125.6918955769506
 20
45.26674302021274
 30
61.13375494674083
 70
    32
  0
VERTEX
  5
1D5
330
1D3
100
AcDbEntity
  8
HA-GRAVEL PATCH
100
AcDbVertex
100
AcDb3dPolylineVertex
 10
125.6666189381504
 20
45.28310214326484
 30
42.7933851502986
 70
    32
  0
VERTEX
  5
1D6
330
1D3
100
AcDbEntity
  8
HA-GRAVEL PATCH
100
AcDbVertex
100
AcDb3dPolylineVertex
 10
125.6695550729637
 20
45.25685252831317
 30
61.13305976839804
 70
    32
  0
SEQEND
  5
1D7
330
1D3
100
AcDbEntity
  8
HA-GRAVEL PATCH
  0
POLYLINE
  5
1D8
330
124
100
AcDbEntity
  8
HA-811
100
AcDb2dPolyline
 66
     1
 10
0.0
 20
0.0
 30
61.151
 70
     5
 75
     6
  0
VERTEX
  5
1D9
330
1D8
100
AcDbEntity
  8
HA-811
100
AcDbVertex
100
AcDb2dVertex
 10
129.3672252431279
 20
44.13632036882336
 30
61.151
 70
    16
  0
VERTEX
  5
1DA
330
1D8
100
AcDbEntity
  8
HA-811
100
AcDbVertex
100
AcDb2dVertex
 10
129.2794969671522
 20
44.13156266903388
 30
61.151
 70
     8
  0
VERTEX
  5
1DB
330
1D8
100
AcDbEntity
  8
HA-811
100
AcDbVertex
100
AcDb2dVertex
 10
129.2715702817077
 20
44.1309266066819
 30
61.151
 70
     8
  0
VERTEX
  5
1DC
330
1D8
100
AcDbEntity
  8
HA-811
100
AcDbVertex
100
AcDb2dVertex
 10
129.2644941669423
 20
44.13026893156348
 30
61.151
 70
     8
  0
VERTEX
  5
1DD
330
1D8
100
AcDbEntity
  8
HA-811
100
AcDbVertex
100
AcDb2dVertex
 10
129.2581533311168
 20
44.12958061331301
 30
61.151
 70
     8
  0
VERTEX
  5
1DE
330
1D8
100
AcDbEntity
  8
HA-811
100
AcDbVertex
100
AcDb2dVertex
 10
129.2524324824335
 20
44.12885262179771
 30
61.151
 70
     8
  0
VERTEX
  5
1DF
330
1D8
100
AcDbEntity
  8
HA-811
100
AcDbVertex
100
AcDb2dVertex
 10
129.247216329095
 20
44.12807592671015
 30
61.151
 70
     8
  0
VERTEX
  5
1E0
330
1D8
100
AcDbEntity
  8
HA-811
100
AcDbVertex
100
AcDb2dVertex
 10
129.2423895795364
 20
44.12724149783025
 30
61.151
 70
     8
  0
VERTEX
  5
1E1
330
1D8
100
AcDbEntity
  8
HA-811
100
AcDbVertex
100
AcDb2dVertex
 10
129.2378369417274
 20
44.12634030490881
 30
61.151
 70
     8
  0
VERTEX
  5
1E2
330
1D8
100
AcDbEntity
  8
HA-811
100
AcDbVertex
100
AcDb2dVertex
 10
129.2334431241034
 20
44.1253633176384
 30
61.151
 70
     8
  0
VERTEX
  5
1E3
330
1D8
100
AcDbEntity
  8
HA-811
100
AcDbVertex
100
AcDb2dVertex
 10
129.2290896814084
 20
44.12428467645077
 30
61.151
 70
     8
  0
VERTEX
  5
1E4
330
1D8
100
AcDbEntity
  8
HA-811
100
AcDbVertex
100
AcDb2dVertex
 10
129.2246455546119
 20
44.1230112038902
 30
61.151
 70
     8
  0
VERTEX
  5
1E5
330
1D8
100
AcDbEntity
  8
HA-811
100
AcDbVertex
100
AcDb2dVertex
 10
129.219976531167
 20
44.12143289315281
 30
61.151
 70
     8
  0
VERTEX
  5
1E6
330
1D8
100
AcDbEntity
  8
HA-811
100
AcDbVertex
100
AcDb2dVertex
 10
129.214948398585
 20
44.11943973743473
 30
61.151
 70
     8
  0
VERTEX
  5
1E7
330
1D8
100
AcDbEntity
  8
HA-811
100
AcDbVertex
100
AcDb2dVertex
 10
129.2094269443769
 20
44.11692172984476
 30
61.151
 70
     8
  0
VERTEX
  5
1E8
330
1D8
100
AcDbEntity
  8
HA-811
100
AcDbVertex
100
AcDb2dVertex
 10
129.2032779558795
 20
44.11376886363723
 30
61.151
 70
     8
  0
VERTEX
  5
1E9
330
1D8
100
AcDbEntity
  8
HA-811
100
AcDbVertex
100
AcDb2dVertex
 10
129.1963672208367
 20
44.10987113192095
 30
61.151
 70
     8
  0
VERTEX
  5
1EA
330
1D8
100
AcDbEntity
  8
HA-811
100
AcDbVertex
100
AcDb2dVertex
 10
129.1885605266434
 20
44.10511852795025
 30
61.151
 70
     8
  0
VERTEX
  5
1EB
330
1D8
100
AcDbEntity
  8
HA-811
100
AcDbVertex
100
AcDb2dVertex
 10
129.1797913714545
 20
44.09945693184272
 30
61.151
 70
     8
  0
VERTEX
  5
1EC
330
1D8
100
AcDbEntity
  8
HA-811
100
AcDbVertex
100
AcDb2dVertex
 10
129.170264097047
 20
44.0930557718093
 30
61.151
 70
     8
  0
VERTEX
  5
1ED
330
1D8
100
AcDbEntity
  8
HA-811
100
AcDbVertex
100
AcDb2dVertex
 10
129.1602507557254
 20
44.08614036298241
 30
61.151
 70
     8
  0
VERTEX
  5
1EE
330
1D8
100
AcDbEntity
  8
HA-811
100
AcDbVertex
100
AcDb2dVertex
 10
129.1500233998522
 20
44.07893602063996
 30
61.151
 70
     8
  0
VERTEX
  5
1EF
330
1D8
100
AcDbEntity
  8
HA-811
100
AcDbVertex
100
AcDb2dVertex
 10
129.1398540817318
 20
44.07166805982706
 30
61.151
 70
     8
  0
VERTEX
  5
1F0
330
1D8
100
AcDbEntity
  8
HA-811
100
AcDbVertex
100
AcDb2dVertex
 10
129.1300148539012
 20
44.06456179582165
 30
61.151
 70
     8
  0
VERTEX
  5
1F1
330
1D8
100
AcDbEntity
  8
HA-811
100
AcDbVertex
100
AcDb2dVertex
 10
129.120777768665
 20
44.05784254375612
 30
61.151
 70
     8
  0
VERTEX
  5
1F2
330
1D8
100
AcDbEntity
  8
HA-811
100
AcDbVertex
100
AcDb2dVertex
 10
129.1124148784438
 20
44.05173561887932
 30
61.151
 70
     8
  0
VERTEX
  5
1F3
330
1D8
100
AcDbEntity
  8
HA-811
100
AcDbVertex
100
AcDb2dVertex
 10
129.105134152167
 20
44.04641177464509
 30
61.151
 70
     8
  0
VERTEX
  5
1F4
330
1D8
100
AcDbEntity
  8
HA-811
100
AcDbVertex
100
AcDb2dVertex
 10
129.0988872249145
 20
44.04182351820054
 30
61.151
 70
     8
  0
VERTEX
  5
1F5
330
1D8
100
AcDbEntity
  8
HA-811
100
AcDbVertex
100
AcDb2dVertex
 10
129.0935616483912
 20
44.03786879504332
 30
61.151
 70
     8
  0
VERTEX
  5
1F6
330
1D8
100
AcDbEntity
  8
HA-811
100
AcDbVertex
100
AcDb2dVertex
 10
129.0890449742437
 20
44.03444555061287
 30
61.151
 70
     8
  0
VERTEX
  5
1F7
330
1D8
100
AcDbEntity
  8
HA-811
100
AcDbVertex
100
AcDb2dVertex
 10
129.0852247542352
 20
44.03145173043595
 30
61.151
 70
     8
  0
VERTEX
  5
1F8
330
1D8
100
AcDbEntity
  8
HA-811
100
AcDbVertex
100
AcDb2dVertex
 10
129.0819885400706
 20
44.02878527992289
 30
61.151
 70
     8
  0
VERTEX
  5
1F9
330
1D8
100
AcDbEntity
  8
HA-811
100
AcDbVertex
100
AcDb2dVertex
 10
129.0792238833383
 20
44.02634414457134
 30
61.151
 70
     8
  0
VERTEX
  5
1FA
330
1D8
100
AcDbEntity
  8
HA-811
100
AcDbVertex
100
AcDb2dVertex
 10
129.0768183356849
 20
44.02402626987896
 30
61.151
 70
     8
  0
VERTEX
  5
1FB
330
1D8
100
AcDbEntity
  8
HA-811
100
AcDbVertex
100
AcDb2dVertex
 10
129.074661867111
 20
44.02173092673183
 30
61.151
 70
     8
  0
VERTEX
  5
1FC
330
1D8
100
AcDbEntity
  8
HA-811
100
AcDbVertex
100
AcDb2dVertex
 10
129.0726541206241
 20
44.0193626875116
 30
61.151
 70
     8
  0
VERTEX
  5
1FD
330
1D8
100
AcDbEntity
  8
HA-811
100
AcDbVertex
100
AcDb2dVertex
 10
129.0706971570617
 20
44.01682744995924
 30
61.151
 70
     8
  0
VERTEX
  5
1FE
330
1D8
100
AcDbEntity
  8
HA-811
100
AcDbVertex
100
AcDb2dVertex
 10
129.0686930379015
 20
44.01403111187392
 30
61.151
 70
     8
  0
VERTEX
  5
1FF
330
1D8
100
AcDbEntity
  8
HA-811
100
AcDbVertex
100
AcDb2dVertex
 10
129.0665438240394
 20
44.01087957102573
 30
61.151
 70
     8
  0
VERTEX
  5
200
330
1D8
100
AcDbEntity
  8
HA-811
100
AcDbVertex
100
AcDb2dVertex
 10
129.0641515767784
 20
44.00727872521384
 30
61.151
 70
     8
  0
VERTEX
  5
201
330
1D8
100
AcDbEntity
  8
HA-811
100
AcDbVertex
100
AcDb2dVertex
 10
129.0614183571306
 20
44.00313447223743
 30
61.151
 70
     8
  0
VERTEX
  5
202
330
1D8
100
AcDbEntity
  8
HA-811
100
AcDbVertex
100
AcDb2dVertex
 10
129.058246226341
 20
43.99835270986659
 30
61.151
 70
     8
  0
VERTEX
  5
203
330
1D8
100
AcDbEntity
  8
HA-811
100
AcDbVertex
100
AcDb2dVertex
 10
129.0545771465404
 20
43.99286716888309
 30
61.151
 70
     8
  0
VERTEX
  5
204
330
1D8
100
AcDbEntity
  8
HA-811
100
AcDbVertex
100
AcDb2dVertex
 10
129.0505126839271
 20
43.98672291231924
 30
61.151
 70
     8
  0
VERTEX
  5
205
330
1D8
100
AcDbEntity
  8
HA-811
100
AcDbVertex
100
AcDb2dVertex
 10
129.0461943057599
 20
43.97999283627723
 30
61.151
 70
     8
  0
VERTEX
  5
206
330
1D8
100
AcDbEntity
  8
HA-811
100
AcDbVertex
100
AcDb2dVertex
 10
129.0417634793557
 20
43.9727498368884
 30
61.151
 70
     8
  0
VERTEX
  5
207
330
1D8
100
AcDbEntity
  8
HA-811
100
AcDbVertex
100
AcDb2dVertex
 10
129.0373616717989
 20
43.96506681019673
 30
61.151
 70
     8
  0
VERTEX
  5
208
330
1D8
100
AcDbEntity
  8
HA-811
100
AcDbVertex
100
AcDb2dVertex
 10
129.0331303504063
 20
43.95701665230445
 30
61.151
 70
     8
  0
VERTEX
  5
209
330
1D8
100
AcDbEntity
  8
HA-811
100
AcDbVertex
100
AcDb2dVertex
 10
129.0292109824368
 20
43.94867225928465
 30
61.151
 70
     8
  0
VERTEX
  5
20A
330
1D8
100
AcDbEntity
  8
HA-811
100
AcDbVertex
100
AcDb2dVertex
 10
129.0257450351492
 20
43.94010652723955
 30
61.151
 70
     8
  0
VERTEX
  5
20B
330
1D8
100
AcDbEntity
  8
HA-811
100
AcDbVertex
100
AcDb2dVertex
 10
129.0228398179752
 20
43.93137865661993
 30
61.151
 70
     8
  0
VERTEX
  5
20C
330
1D8
100
AcDbEntity
  8
HA-811
100
AcDbVertex
100
AcDb2dVertex
 10
129.020466009737
 20
43.92249306541635
 30
61.151
 70
     8
  0
VERTEX
  5
20D
330
1D8
100
AcDbEntity
  8
HA-811
100
AcDbVertex
100
AcDb2dVertex
 10
129.0185601316625
 20
43.91344047588063
 30
61.151
 70
     8
  0
VERTEX
  5
20E
330
1D8
100
AcDbEntity
  8
HA-811
100
AcDbVertex
100
AcDb2dVertex
 10
129.0170587048051
 20
43.90421161035192
 30
61.151
 70
     8
  0
VERTEX
  5
20F
330
1D8
100
AcDbEntity
  8
HA-811
100
AcDbVertex
100
AcDb2dVertex
 10
129.0158982502762
 20
43.89479719116935
 30
61.151
 70
     8
  0
VERTEX
  5
210
330
1D8
100
AcDbEntity
  8
HA-811
100
AcDbVertex
100
AcDb2dVertex
 10
129.015015289071
 20
43.88518794061383
 30
61.151
 70
     8
  0
VERTEX
  5
211
330
1D8
100
AcDbEntity
  8
HA-811
100
AcDbVertex
100
AcDb2dVertex
 10
129.0143463425338
 20
43.87537458099541
 30
61.151
 70
     8
  0
VERTEX
  5
212
330
1D8
100
AcDbEntity
  8
HA-811
100
AcDbVertex
100
AcDb2dVertex
 10
129.0138279316016
 20
43.86534783462412
 30
61.151
 70
     8
  0
VERTEX
  5
213
330
1D8
100
AcDbEntity
  8
HA-811
100
AcDbVertex
100
AcDb2dVertex
 10
129.0134125982877
 20
43.85510880607762
 30
61.151
 70
     8
  0
VERTEX
  5
214
330
1D8
100
AcDbEntity
  8
HA-811
100
AcDbVertex
100
AcDb2dVertex
 10
129.0131169679807
 20
43.84470012839301
 30
61.151
 70
     8
  0
VERTEX
  5
215
330
1D8
100
AcDbEntity
  8
HA-811
100
AcDbVertex
100
AcDb2dVertex
 10
129.0129736871459
 20
43.83417481699144
 30
61.151
 70
     8
  0
VERTEX
  5
216
330
1D8
100
AcDbEntity
  8
HA-811
100
AcDbVertex
100
AcDb2dVertex
 10
129.0130154017825
 20
43.82358588717761
 30
61.151
 70
     8
  0
VERTEX
  5
217
330
1D8
100
AcDbEntity
  8
HA-811
100
AcDbVertex
100
AcDb2dVertex
 10
129.0132747584139
 20
43.81298635431449
 30
61.151
 70
     8
  0
VERTEX
  5
218
330
1D8
100
AcDbEntity
  8
HA-811
100
AcDbVertex
100
AcDb2dVertex
 10
129.0137844032142
 20
43.80242923373589
 30
61.151
 70
     8
  0
VERTEX
  5
219
330
1D8
100
AcDbEntity
  8
HA-811
100
AcDbVertex
100
AcDb2dVertex
 10
129.014576982474
 20
43.79196754071745
 30
61.151
 70
     8
  0
VERTEX
  5
21A
330
1D8
100
AcDbEntity
  8
HA-811
100
AcDbVertex
100
AcDb2dVertex
 10
129.0156851425418
 20
43.78165429068031
 30
61.151
 70
     8
  0
VERTEX
  5
21B
330
1D8
100
AcDbEntity
  8
HA-811
100
AcDbVertex
100
AcDb2dVertex
 10
129.0171339726076
 20
43.77152151367045
 30
61.151
 70
     8
  0
VERTEX
  5
21C
330
1D8
100
AcDbEntity
  8
HA-811
100
AcDbVertex
100
AcDb2dVertex
 10
129.0189183339244
 20
43.76151729884441
 30
61.151
 70
     8
  0
VERTEX
  5
21D
330
1D8
100
AcDbEntity
  8
HA-811
100
AcDbVertex
100
AcDb2dVertex
 10
129.0210255308193
 20
43.75156875015819
 30
61.151
 70
     8
  0
VERTEX
  5
21E
330
1D8
100
AcDbEntity
  8
HA-811
100
AcDbVertex
100
AcDb2dVertex
 10
129.0234428673284
 20
43.74160297142225
 30
61.151
 70
     8
  0
VERTEX
  5
21F
330
1D8
100
AcDbEntity
  8
HA-811
100
AcDbVertex
100
AcDb2dVertex
 10
129.026157647837
 20
43.73154706665082
 30
61.151
 70
     8
  0
VERTEX
  5
220
330
1D8
100
AcDbEntity
  8
HA-811
100
AcDbVertex
100
AcDb2dVertex
 10
129.0291571764974
 20
43.72132813974167
 30
61.151
 70
     8
  0
VERTEX
  5
221
330
1D8
100
AcDbEntity
  8
HA-811
100
AcDbVertex
100
AcDb2dVertex
 10
129.0324287575204
 20
43.7108732945635
 30
61.151
 70
     8
  0
VERTEX
  5
222
330
1D8
100
AcDbEntity
  8
HA-811
100
AcDbVertex
100
AcDb2dVertex
 10
129.0359596951166
 20
43.70010963504319
 30
61.151
 70
     8
  0
VERTEX
  5
223
330
1D8
100
AcDbEntity
  8
HA-811
100
AcDbVertex
100
AcDb2dVertex
 10
129.039743036963
 20
43.68899231907562
 30
61.151
 70
     8
  0
VERTEX
  5
224
330
1D8
100
AcDbEntity
  8
HA-811
100
AcDbVertex
100
AcDb2dVertex
 10
129.043794803787
 20
43.67758872025297
 30
61.151
 70
     8
  0
VERTEX
  5
225
330
1D8
100
AcDbEntity
  8
HA-811
100
AcDbVertex
100
AcDb2dVertex
 10
129.0481367598404
 20
43.6659942662518
 30
61.151
 70
     8
  0
VERTEX
  5
226
330
1D8
100
AcDbEntity
  8
HA-811
100
AcDbVertex
100
AcDb2dVertex
 10
129.0527906692587
 20
43.65430438466137
 30
61.151
 70
     8
  0
VERTEX
  5
227
330
1D8
100
AcDbEntity
  8
HA-811
100
AcDbVertex
100
AcDb2dVertex
 10
129.0577782962937
 20
43.64261450301274
 30
61.151
 70
     8
  0
VERTEX
  5
228
330
1D8
100
AcDbEntity
  8
HA-811
100
AcDbVertex
100
AcDb2dVertex
 10
129.0631214050809
 20
43.63102004904067
 30
61.151
 70
     8
  0
VERTEX
  5
229
330
1D8
100
AcDbEntity
  8
HA-811
100
AcDbVertex
100
AcDb2dVertex
 10
129.0688417598722
 20
43.61961645021802
 30
61.151
 70
     8
  0
VERTEX
  5
22A
330
1D8
100
AcDbEntity
  8
HA-811
100
AcDbVertex
100
AcDb2dVertex
 10
129.0749611248029
 20
43.60849913427955
 30
61.151
 70
     8
  0
VERTEX
  5
22B
330
1D8
100
AcDbEntity
  8
HA-811
100
AcDbVertex
100
AcDb2dVertex
 10
129.0814852432813
 20
43.59775977345998
 30
61.151
 70
     8
  0
VERTEX
  5
22C
330
1D8
100
AcDbEntity
  8
HA-811
100
AcDbVertex
100
AcDb2dVertex
 10
129.0883557750494
 20
43.58747501918697
 30
61.151
 70
     8
  0
VERTEX
  5
22D
330
1D8
100
AcDbEntity
  8
HA-811
100
AcDbVertex
100
AcDb2dVertex
 10
129.0954983591801
 20
43.57771776747541
 30
61.151
 70
     8
  0
VERTEX
  5
22E
330
1D8
100
AcDbEntity
  8
HA-811
100
AcDbVertex
100
AcDb2dVertex
 10
129.1028386347461
 20
43.56856091442751
 30
61.151
 70
     8
  0
VERTEX
  5
22F
330
1D8
100
AcDbEntity
  8
HA-811
100
AcDbVertex
100
AcDb2dVertex
 10
129.1103022407042
 20
43.56007735620369
 30
61.151
 70
     8
  0
VERTEX
  5
230
330
1D8
100
AcDbEntity
  8
HA-811
100
AcDbVertex
100
AcDb2dVertex
 10
129.1178148160689
 20
43.55233998878975
 30
61.151
 70
     8
  0
VERTEX
  5
231
330
1D8
100
AcDbEntity
  8
HA-811
100
AcDbVertex
100
AcDb2dVertex
 10
129.1253019999713
 20
43.54542170831701
 30
61.151
 70
     8
  0
VERTEX
  5
232
330
1D8
100
AcDbEntity
  8
HA-811
100
AcDbVertex
100
AcDb2dVertex
 10
129.1326894311933
 20
43.53939541085856
 30
61.151
 70
     8
  0
VERTEX
  5
233
330
1D8
100
AcDbEntity
  8
HA-811
100
AcDbVertex
100
AcDb2dVertex
 10
129.1399236063589
 20
43.53430218333961
 30
61.151
 70
     8
  0
VERTEX
  5
234
330
1D8
100
AcDbEntity
  8
HA-811
100
AcDbVertex
100
AcDb2dVertex
 10
129.1470344510162
 20
43.53005587583175
 30
61.151
 70
     8
  0
VERTEX
  5
235
330
1D8
100
AcDbEntity
  8
HA-811
100
AcDbVertex
100
AcDb2dVertex
 10
129.1540727484971
 20
43.52653852917138
 30
61.151
 70
     8
  0
VERTEX
  5
236
330
1D8
100
AcDbEntity
  8
HA-811
100
AcDbVertex
100
AcDb2dVertex
 10
129.161089281668
 20
43.52363218428218
 30
61.151
 70
     8
  0
VERTEX
  5
237
330
1D8
100
AcDbEntity
  8
HA-811
100
AcDbVertex
100
AcDb2dVertex
 10
129.1681348338025
 20
43.52121888200054
 30
61.151
 70
     8
  0
VERTEX
  5
238
330
1D8
100
AcDbEntity
  8
HA-811
100
AcDbVertex
100
AcDb2dVertex
 10
129.175260188058
 20
43.51918066322105
 30
61.151
 70
     8
  0
VERTEX
  5
239
330
1D8
100
AcDbEntity
  8
HA-811
100
AcDbVertex
100
AcDb2dVertex
 10
129.1825161273591
 20
43.5173995688383
 30
61.151
 70
     8
  0
VERTEX
  5
23A
330
1D8
100
AcDbEntity
  8
HA-811
100
AcDbVertex
100
AcDb2dVertex
 10
129.1899534349795
 20
43.51575763968867
 30
61.151
 70
     8
  0
VERTEX
  5
23B
330
1D8
100
AcDbEntity
  8
HA-811
100
AcDbVertex
100
AcDb2dVertex
 10
129.1976280327071
 20
43.51418396778172
 30
61.151
 70
     8
  0
VERTEX
  5
23C
330
1D8
100
AcDbEntity
  8
HA-811
100
AcDbVertex
100
AcDb2dVertex
 10
129.2056163974339
 20
43.51279584955773
 30
61.151
 70
     8
  0
VERTEX
  5
23D
330
1D8
100
AcDbEntity
  8
HA-811
100
AcDbVertex
100
AcDb2dVertex
 10
129.2140001450316
 20
43.51175763257197
 30
61.151
 70
     8
  0
VERTEX
  5
23E
330
1D8
100
AcDbEntity
  8
HA-811
100
AcDbVertex
100
AcDb2dVertex
 10
129.2228608911973
 20
43.51123366432148
 30
61.151
 70
     8
  0
VERTEX
  5
23F
330
1D8
100
AcDbEntity
  8
HA-811
100
AcDbVertex
100
AcDb2dVertex
 10
129.2322802514536
 20
43.51138829239062
 30
61.151
 70
     8
  0
VERTEX
  5
240
330
1D8
100
AcDbEntity
  8
HA-811
100
AcDbVertex
100
AcDb2dVertex
 10
129.2423398417886
 20
43.51238586433465
 30
61.151
 70
     8
  0
VERTEX
  5
241
330
1D8
100
AcDbEntity
  8
HA-811
100
AcDbVertex
100
AcDb2dVertex
 10
129.2531212776667
 20
43.5143907275924
 30
61.151
 70
     8
  0
VERTEX
  5
242
330
1D8
100
AcDbEntity
  8
HA-811
100
AcDbVertex
100
AcDb2dVertex
 10
129.2647061749594
 20
43.51756722986465
 30
61.151
 70
     8
  0
VERTEX
  5
243
330
1D8
100
AcDbEntity
  8
HA-811
100
AcDbVertex
100
AcDb2dVertex
 10
129.2771299004671
 20
43.52202206436777
 30
61.151
 70
     8
  0
VERTEX
  5
244
330
1D8
100
AcDbEntity
  8
HA-811
100
AcDbVertex
100
AcDb2dVertex
 10
129.2902428252855
 20
43.52763130786479
 30
61.151
 70
     8
  0
VERTEX
  5
245
330
1D8
100
AcDbEntity
  8
HA-811
100
AcDbVertex
100
AcDb2dVertex
 10
129.3038490717881
 20
43.53421338272165
 30
61.151
 70
     8
  0
VERTEX
  5
246
330
1D8
100
AcDbEntity
  8
HA-811
100
AcDbVertex
100
AcDb2dVertex
 10
129.317752762232
 20
43.54158671147889
 30
61.151
 70
     8
  0
VERTEX
  5
247
330
1D8
100
AcDbEntity
  8
HA-811
100
AcDbVertex
100
AcDb2dVertex
 10
129.3317580188741
 20
43.54956971661886
 30
61.151
 70
     8
  0
VERTEX
  5
248
330
1D8
100
AcDbEntity
  8
HA-811
100
AcDbVertex
100
AcDb2dVertex
 10
129.3456689639715
 20
43.55798082059482
 30
61.151
 70
     8
  0
VERTEX
  5
249
330
1D8
100
AcDbEntity
  8
HA-811
100
AcDbVertex
100
AcDb2dVertex
 10
129.359289719956
 20
43.56663844588911
 30
61.151
 70
     8
  0
VERTEX
  5
24A
330
1D8
100
AcDbEntity
  8
HA-811
100
AcDbVertex
100
AcDb2dVertex
 10
129.3724244089099
 20
43.57536101489677
 30
61.151
 70
     8
  0
VERTEX
  5
24B
330
1D8
100
AcDbEntity
  8
HA-811
100
AcDbVertex
100
AcDb2dVertex
 10
129.3849091950106
 20
43.58399500415544
 30
61.151
 70
     8
  0
VERTEX
  5
24C
330
1D8
100
AcDbEntity
  8
HA-811
100
AcDbVertex
100
AcDb2dVertex
 10
129.3967084091273
 20
43.59249910590006
 30
61.151
 70
     8
  0
VERTEX
  5
24D
330
1D8
100
AcDbEntity
  8
HA-811
100
AcDbVertex
100
AcDb2dVertex
 10
129.4078184238751
 20
43.60086006618803
 30
61.151
 70
     8
  0
VERTEX
  5
24E
330
1D8
100
AcDbEntity
  8
HA-811
100
AcDbVertex
100
AcDb2dVertex
 10
129.4182356119272
 20
43.60906463122228
 30
61.151
 70
     8
  0
VERTEX
  5
24F
330
1D8
100
AcDbEntity
  8
HA-811
100
AcDbVertex
100
AcDb2dVertex
 10
129.4279563457821
 20
43.61709954720573
 30
61.151
 70
     8
  0
VERTEX
  5
250
330
1D8
100
AcDbEntity
  8
HA-811
100
AcDbVertex
100
AcDb2dVertex
 10
129.4369769982295
 20
43.62495156025398
 30
61.151
 70
     8
  0
VERTEX
  5
251
330
1D8
100
AcDbEntity
  8
HA-811
100
AcDbVertex
100
AcDb2dVertex
 10
129.4452939418843
 20
43.63260741656995
 30
61.151
 70
     8
  0
VERTEX
  5
252
330
1D8
100
AcDbEntity
  8
HA-811
100
AcDbVertex
100
AcDb2dVertex
 10
129.4529035493033
 20
43.64005386232748
 30
61.151
 70
     8
  0
VERTEX
  5
253
330
1D8
100
AcDbEntity
  8
HA-811
100
AcDbVertex
100
AcDb2dVertex
 10
129.4598106570193
 20
43.64729244375485
 30
61.151
 70
     8
  0
VERTEX
  5
254
330
1D8
100
AcDbEntity
  8
HA-811
100
AcDbVertex
100
AcDb2dVertex
 10
129.466053956945
 20
43.65438390764757
 30
61.151
 70
     8
  0
VERTEX
  5
255
330
1D8
100
AcDbEntity
  8
HA-811
100
AcDbVertex
100
AcDb2dVertex
 10
129.4716806048527
 20
43.66140380085562
 30
61.151
 70
     8
  0
VERTEX
  5
256
330
1D8
100
AcDbEntity
  8
HA-811
100
AcDbVertex
100
AcDb2dVertex
 10
129.4767377563403
 20
43.66842767019989
 30
61.151
 70
     8
  0
VERTEX
  5
257
330
1D8
100
AcDbEntity
  8
HA-811
100
AcDbVertex
100
AcDb2dVertex
 10
129.4812725672964
 20
43.67553106250125
 30
61.151
 70
     8
  0
VERTEX
  5
258
330
1D8
100
AcDbEntity
  8
HA-811
100
AcDbVertex
100
AcDb2dVertex
 10
129.485332193377
 20
43.6827895247261
 30
61.151
 70
     8
  0
VERTEX
  5
259
330
1D8
100
AcDbEntity
  8
HA-811
100
AcDbVertex
100
AcDb2dVertex
 10
129.4889637904707
 20
43.69027860363713
 30
61.151
 70
     8
  0
VERTEX
  5
25A
330
1D8
100
AcDbEntity
  8
HA-811
100
AcDbVertex
100
AcDb2dVertex
 10
129.492214514059
 20
43.69807384614251
 30
61.151
 70
     8
  0
VERTEX
  5
25B
330
1D8
100
AcDbEntity
  8
HA-811
100
AcDbVertex
100
AcDb2dVertex
 10
129.4951278928202
 20
43.70624947367469
 30
61.151
 70
     8
  0
VERTEX
  5
25C
330
1D8
100
AcDbEntity
  8
HA-811
100
AcDbVertex
100
AcDb2dVertex
 10
129.4977329455432
 20
43.71487440617057
 30
61.151
 70
     8
  0
VERTEX
  5
25D
330
1D8
100
AcDbEntity
  8
HA-811
100
AcDbVertex
100
AcDb2dVertex
 10
129.5000550637487
 20
43.72401623817859
 30
61.151
 70
     8
  0
VERTEX
  5
25E
330
1D8
100
AcDbEntity
  8
HA-811
100
AcDbVertex
100
AcDb2dVertex
 10
129.5021196390153
 20
43.73374256427633
 30
61.151
 70
     8
  0
VERTEX
  5
25F
330
1D8
100
AcDbEntity
  8
HA-811
100
AcDbVertex
100
AcDb2dVertex
 10
129.5039520629798
 20
43.74412097901222
 30
61.151
 70
     8
  0
VERTEX
  5
260
330
1D8
100
AcDbEntity
  8
HA-811
100
AcDbVertex
100
AcDb2dVertex
 10
129.5055777271045
 20
43.75521907693474
 30
61.151
 70
     8
  0
VERTEX
  5
261
330
1D8
100
AcDbEntity
  8
HA-811
100
AcDbVertex
100
AcDb2dVertex
 10
129.5070220229682
 20
43.76710445256322
 30
61.151
 70
     8
  0
VERTEX
  5
262
330
1D8
100
AcDbEntity
  8
HA-811
100
AcDbVertex
100
AcDb2dVertex
 10
129.5083103422076
 20
43.77984470053343
 30
61.151
 70
     8
  0
VERTEX
  5
263
330
1D8
100
AcDbEntity
  8
HA-811
100
AcDbVertex
100
AcDb2dVertex
 10
129.5094581009471
 20
43.79346964191063
 30
61.151
 70
     8
  0
VERTEX
  5
264
330
1D8
100
AcDbEntity
  8
HA-811
100
AcDbVertex
100
AcDb2dVertex
 10
129.5104408145999
 20
43.80785800414742
 30
61.151
 70
     8
  0
VERTEX
  5
265
330
1D8
100
AcDbEntity
  8
HA-811
100
AcDbVertex
100
AcDb2dVertex
 10
129.5112240231829
 20
43.82285074118408
 30
61.151
 70
     8
  0
VERTEX
  5
266
330
1D8
100
AcDbEntity
  8
HA-811
100
AcDbVertex
100
AcDb2dVertex
 10
129.5117732667131
 20
43.83828880704823
 30
61.151
 70
     8
  0
VERTEX
  5
267
330
1D8
100
AcDbEntity
  8
HA-811
100
AcDbVertex
100
AcDb2dVertex
 10
129.5120540852658
 20
43.85401315573836
 30
61.151
 70
     8
  0
VERTEX
  5
268
330
1D8
100
AcDbEntity
  8
HA-811
100
AcDbVertex
100
AcDb2dVertex
 10
129.5120320187998
 20
43.86986474125297
 30
61.151
 70
     8
  0
VERTEX
  5
269
330
1D8
100
AcDbEntity
  8
HA-811
100
AcDbVertex
100
AcDb2dVertex
 10
129.5116726073902
 20
43.88568451750325
 30
61.151
 70
     8
  0
VERTEX
  5
26A
330
1D8
100
AcDbEntity
  8
HA-811
100
AcDbVertex
100
AcDb2dVertex
 10
129.5109413909377
 20
43.90131343860412
 30
61.151
 70
     8
  0
VERTEX
  5
26B
330
1D8
100
AcDbEntity
  8
HA-811
100
AcDbVertex
100
AcDb2dVertex
 10
129.5098147917306
 20
43.91660990935634
 30
61.151
 70
     8
  0
VERTEX
  5
26C
330
1D8
100
AcDbEntity
  8
HA-811
100
AcDbVertex
100
AcDb2dVertex
 10
129.5083127603866
 20
43.93150213817717
 30
61.151
 70
     8
  0
VERTEX
  5
26D
330
1D8
100
AcDbEntity
  8
HA-811
100
AcDbVertex
100
AcDb2dVertex
 10
129.5064661292126
 20
43.94593578431522
 30
61.151
 70
     8
  0
VERTEX
  5
26E
330
1D8
100
AcDbEntity
  8
HA-811
100
AcDbVertex
100
AcDb2dVertex
 10
129.5043057310395
 20
43.95985650707735
 30
61.151
 70
     8
  0
VERTEX
  5
26F
330
1D8
100
AcDbEntity
  8
HA-811
100
AcDbVertex
100
AcDb2dVertex
 10
129.5018623983487
 20
43.97320996577037
 30
61.151
 70
     8
  0
VERTEX
  5
270
330
1D8
100
AcDbEntity
  8
HA-811
100
AcDbVertex
100
AcDb2dVertex
 10
129.4991669637384
 20
43.9859418196429
 30
61.151
 70
     8
  0
VERTEX
  5
271
330
1D8
100
AcDbEntity
  8
HA-811
100
AcDbVertex
100
AcDb2dVertex
 10
129.496250259981
 20
43.99799772797269
 30
61.151
 70
     8
  0
VERTEX
  5
272
330
1D8
100
AcDbEntity
  8
HA-811
100
AcDbVertex
100
AcDb2dVertex
 10
129.4931431195
 20
44.00932335000834
 30
61.151
 70
     8
  0
VERTEX
  5
273
330
1D8
100
AcDbEntity
  8
HA-811
100
AcDbVertex
100
AcDb2dVertex
 10
129.4898654928547
 20
44.01988356318907
 30
61.151
 70
     8
  0
VERTEX
  5
274
330
1D8
100
AcDbEntity
  8
HA-811
100
AcDbVertex
100
AcDb2dVertex
 10
129.486393802159
 20
44.02972011701786
 30
61.151
 70
     8
  0
VERTEX
  5
275
330
1D8
100
AcDbEntity
  8
HA-811
100
AcDbVertex
100
AcDb2dVertex
 10
129.482693587488
 20
44.03889397910098
 30
61.151
 70
     8
  0
VERTEX
  5
276
330
1D8
100
AcDbEntity
  8
HA-811
100
AcDbVertex
100
AcDb2dVertex
 10
129.4787303888006
 20
44.04746611716109
 30
61.151
 70
     8
  0
VERTEX
  5
277
330
1D8
100
AcDbEntity
  8
HA-811
100
AcDbVertex
100
AcDb2dVertex
 10
129.4744697462884
 20
44.05549749877537
 30
61.151
 70
     8
  0
VERTEX
  5
278
330
1D8
100
AcDbEntity
  8
HA-811
100
AcDbVertex
100
AcDb2dVertex
 10
129.4698771997937
 20
44.06304909163737
 30
61.151
 70
     8
  0
VERTEX
  5
279
330
1D8
100
AcDbEntity
  8
HA-811
100
AcDbVertex
100
AcDb2dVertex
 10
129.4649182893918
 20
44.07018186329515
 30
61.151
 70
     8
  0
VERTEX
  5
27A
330
1D8
100
AcDbEntity
  8
HA-811
100
AcDbVertex
100
AcDb2dVertex
 10
129.4595585551579
 20
44.07695678141317
 30
61.151
 70
     8
  0
VERTEX
  5
27B
330
1D8
100
AcDbEntity
  8
HA-811
100
AcDbVertex
100
AcDb2dVertex
 10
129.453784868354
 20
44.08342085595359
 30
61.151
 70
     8
  0
VERTEX
  5
27C
330
1D8
100
AcDbEntity
  8
HA-811
100
AcDbVertex
100
AcDb2dVertex
 10
129.447669425339
 20
44.0895652656036
 30
61.151
 70
     8
  0
VERTEX
  5
27D
330
1D8
100
AcDbEntity
  8
HA-811
100
AcDbVertex
100
AcDb2dVertex
 10
129.4413057536585
 20
44.09536723146448
 30
61.151
 70
     8
  0
VERTEX
  5
27E
330
1D8
100
AcDbEntity
  8
HA-811
100
AcDbVertex
100
AcDb2dVertex
 10
129.4347873808001
 20
44.10080397460843
 30
61.151
 70
     8
  0
VERTEX
  5
27F
330
1D8
100
AcDbEntity
  8
HA-811
100
AcDbVertex
100
AcDb2dVertex
 10
129.4282078344841
 20
44.1058527159912
 30
61.151
 70
     8
  0
VERTEX
  5
280
330
1D8
100
AcDbEntity
  8
HA-811
100
AcDbVertex
100
AcDb2dVertex
 10
129.4216606421396
 20
44.11049067677232
 30
61.151
 70
     8
  0
VERTEX
  5
281
330
1D8
100
AcDbEntity
  8
HA-811
100
AcDbVertex
100
AcDb2dVertex
 10
129.4152393313125
 20
44.11469507790753
 30
61.151
 70
     8
  0
VERTEX
  5
282
330
1D8
100
AcDbEntity
  8
HA-811
100
AcDbVertex
100
AcDb2dVertex
 10
129.409037429723
 20
44.11844314046903
 30
61.151
 70
     8
  0
VERTEX
  5
283
330
1D8
100
AcDbEntity
  8
HA-811
100
AcDbVertex
100
AcDb2dVertex
 10
129.4031069704797
 20
44.12172020276194
 30
61.151
 70
     8
  0
VERTEX
  5
284
330
1D8
100
AcDbEntity
  8
HA-811
100
AcDbVertex
100
AcDb2dVertex
 10
129.3973340092925
 20
44.12454407213954
 30
61.151
 70
     8
  0
VERTEX
  5
285
330
1D8
100
AcDbEntity
  8
HA-811
100
AcDbVertex
100
AcDb2dVertex
 10
129.3915631076088
 20
44.12694067315897
 30
61.151
 70
     8
  0
VERTEX
  5
286
330
1D8
100
AcDbEntity
  8
HA-811
100
AcDbVertex
100
AcDb2dVertex
 10
129.3856388268177
 20
44.12893593046465
 30
61.151
 70
     8
  0
VERTEX
  5
287
330
1D8
100
AcDbEntity
  8
HA-811
100
AcDbVertex
100
AcDb2dVertex
 10
129.3794057283667
 20
44.13055576864281
 30
61.151
 70
     8
  0
VERTEX
  5
288
330
1D8
100
AcDbEntity
  8
HA-811
100
AcDbVertex
100
AcDb2dVertex
 10
129.3727083737031
 20
44.13182611225056
 30
61.151
 70
     8
  0
VERTEX
  5
289
330
1D8
100
AcDbEntity
  8
HA-811
100
AcDbVertex
100
AcDb2dVertex
 10
129.3653913240414
 20
44.13277288593235
 30
61.151
 70
     8
  0
VERTEX
  5
28A
330
1D8
100
AcDbEntity
  8
HA-811
100
AcDbVertex
100
AcDb2dVertex
 10
129.3572991408873
 20
44.13342201433261
 30
61.151
 70
     8
  0
VERTEX
  5
28B
330
1D8
100
AcDbEntity
  8
HA-811
100
AcDbVertex
100
AcDb2dVertex
 10
129.3483418012038
 20
44.13380049989792
 30
61.151
 70
     8
  0
VERTEX
  5
28C
330
1D8
100
AcDbEntity
  8
HA-811
100
AcDbVertex
100
AcDb2dVertex
 10
129.3386909436667
 20
44.13393965704017
 30
61.151
 70
     8
  0
VERTEX
  5
28D
330
1D8
100
AcDbEntity
  8
HA-811
100
AcDbVertex
100
AcDb2dVertex
 10
129.3285836227005
 20
44.13387187794433
 30
61.151
 70
     8
  0
VERTEX
  5
28E
330
1D8
100
AcDbEntity
  8
HA-811
100
AcDbVertex
100
AcDb2dVertex
 10
129.3182568926131
 20
44.13362955491175
 30
61.151
 70
     8
  0
VERTEX
  5
28F
330
1D8
100
AcDbEntity
  8
HA-811
100
AcDbVertex
100
AcDb2dVertex
 10
129.3079478077125
 20
44.1332450802729
 30
61.151
 70
     8
  0
VERTEX
  5
290
330
1D8
100
AcDbEntity
  8
HA-811
100
AcDbVertex
100
AcDb2dVertex
 10
129.2978934223065
 20
44.13275084618363
 30
61.151
 70
     8
  0
VERTEX
  5
291
330
1D8
100
AcDbEntity
  8
HA-811
100
AcDbVertex
100
AcDb2dVertex
 10
129.288330790645
 20
44.13217924506171
 30
61.151
 70
     8
  0
VERTEX
  5
292
330
1D8
100
AcDbEntity
  8
HA-811
100
AcDbVertex
100
AcDb2dVertex
 10
129.2691944345715
 20
44.13169688318158
 30
61.151
 70
    16
  0
VERTEX
  5
293
330
1D8
100
AcDbEntity
  8
HA-811
100
AcDbVertex
100
AcDb2dVertex
 10
129.2329788214411
 20
44.12626811274095
 30
61.151
 70
    16
  0
VERTEX
  5
294
330
1D8
100
AcDbEntity
  8
HA-811
100
AcDbVertex
100
AcDb2dVertex
 10
129.1995490246336
 20
44.11541057185968
 30
61.151
 70
    16
  0
VERTEX
  5
295
330
1D8
100
AcDbEntity
  8
HA-811
100
AcDbVertex
100
AcDb2dVertex
 10
129.100188239885
 20
44.04280076752184
 30
61.151
 70
    16
  0
VERTEX
  5
296
330
1D8
100
AcDbEntity
  8
HA-811
100
AcDbVertex
100
AcDb2dVertex
 10
129.0741872868384
 20
44.02380007115426
 30
61.151
 70
    16
  0
VERTEX
  5
297
330
1D8
100
AcDbEntity
  8
HA-811
100
AcDbVertex
100
AcDb2dVertex
 10
129.0639726267545
 20
44.00615656730952
 30
61.151
 70
    16
  0
VERTEX
  5
298
330
1D8
100
AcDbEntity
  8
HA-811
100
AcDbVertex
100
AcDb2dVertex
 10
129.0193995644222
 20
43.94168991857441
 30
61.151
 70
    16
  0
VERTEX
  5
299
330
1D8
100
AcDbEntity
  8
HA-811
100
AcDbVertex
100
AcDb2dVertex
 10
129.0128993261023
 20
43.86772292171372
 30
61.151
 70
    16
  0
VERTEX
  5
29A
330
1D8
100
AcDbEntity
  8
HA-811
100
AcDbVertex
100
AcDb2dVertex
 10
129.0119707206613
 20
43.77950540237362
 30
61.151
 70
    16
  0
VERTEX
  5
29B
330
1D8
100
AcDbEntity
  8
HA-811
100
AcDbVertex
100
AcDb2dVertex
 10
129.0333286462701
 20
43.70418121287366
 30
61.151
 70
    16
  0
VERTEX
  5
29C
330
1D8
100
AcDbEntity
  8
HA-811
100
AcDbVertex
100
AcDb2dVertex
 10
129.0704728650744
 20
43.60442755644908
 30
61.151
 70
    16
  0
VERTEX
  5
29D
330
1D8
100
AcDbEntity
  8
HA-811
100
AcDbVertex
100
AcDb2dVertex
 10
129.1345466421335
 20
43.52910336694913
 30
61.151
 70
    16
  0
VERTEX
  5
29E
330
1D8
100
AcDbEntity
  8
HA-811
100
AcDbVertex
100
AcDb2dVertex
 10
129.1874771536677
 20
43.51553144090576
 30
61.151
 70
    16
  0
VERTEX
  5
29F
330
1D8
100
AcDbEntity
  8
HA-811
100
AcDbVertex
100
AcDb2dVertex
 10
129.2552653527237
 20
43.50331670750165
 30
61.151
 70
    16
  0
VERTEX
  5
2A0
330
1D8
100
AcDbEntity
  8
HA-811
100
AcDbVertex
100
AcDb2dVertex
 10
129.3796984850778
 20
43.57660510815913
 30
61.151
 70
    16
  0
VERTEX
  5
2A1
330
1D8
100
AcDbEntity
  8
HA-811
100
AcDbVertex
100
AcDb2dVertex
 10
129.4604871605407
 20
43.64242894941708
 30
61.151
 70
    16
  0
VERTEX
  5
2A2
330
1D8
100
AcDbEntity
  8
HA-811
100
AcDbVertex
100
AcDb2dVertex
 10
129.495774168463
 20
43.69400226831203
 30
61.151
 70
    16
  0
VERTEX
  5
2A3
330
1D8
100
AcDbEntity
  8
HA-811
100
AcDbVertex
100
AcDb2dVertex
 10
129.5097032503108
 20
43.77000505413162
 30
61.151
 70
    16
  0
VERTEX
  5
2A4
330
1D8
100
AcDbEntity
  8
HA-811
100
AcDbVertex
100
AcDb2dVertex
 10
129.5152748831897
 20
43.90504571824567
 30
61.151
 70
    16
  0
VERTEX
  5
2A5
330
1D8
100
AcDbEntity
  8
HA-811
100
AcDbVertex
100
AcDb2dVertex
 10
129.4948455627891
 20
44.01769270439399
 30
61.151
 70
    16
  0
VERTEX
  5
2A6
330
1D8
100
AcDbEntity
  8
HA-811
100
AcDbVertex
100
AcDb2dVertex
 10
129.4642015825375
 20
44.08012356417021
 30
61.151
 70
    16
  0
VERTEX
  5
2A7
330
1D8
100
AcDbEntity
  8
HA-811
100
AcDbVertex
100
AcDb2dVertex
 10
129.4056994381244
 20
44.12355372746242
 30
61.151
 70
    16
  0
SEQEND
  5
2A8
330
1D8
100
AcDbEntity
  8
HA-811
390
F
  0
POLYLINE
  5
2A9
330
124
100
AcDbEntity
  8
HA-807
100
AcDb3dPolyline
 66
     1
 10
0.0
 20
0.0
 30
0.0
 70
    13
 75
     6
  0
VERTEX
  5
2AA
330
2A9
100
AcDbEntity
  8
HA-807
100
AcDbVertex
100
AcDb3dPolylineVertex
 10
131.5182252430823
 20
42.27032036884339
 30
61.191
 70
    48
  0
VERTEX
  5
2AB
330
2A9
100
AcDbEntity
  8
HA-807
100
AcDbVertex
100
AcDb3dPolylineVertex
 10
131.4897910338477
 20
42.17881201574346
 30
10.1985
 70
    40
  0
VERTEX
  5
2AC
330
2A9
100
AcDbEntity
  8
HA-807
100
AcDbVertex
100
AcDb3dPolylineVertex
 10
131.4868780771503
 20
42.16941476622014
 30
6.832198242187499
 70
    40
  0
VERTEX
  5
2AD
330
2A9
100
AcDbEntity
  8
HA-807
100
AcDbVertex
100
AcDb3dPolylineVertex
 10
131.4841711744666
 20
42.16061942043598
 30
4.3024921875
 70
    40
  0
VERTEX
  5
2AE
330
2A9
100
AcDbEntity
  8
HA-807
100
AcDbVertex
100
AcDb3dPolylineVertex
 10
131.4816740539391
 20
42.15238088971819
 30
2.4898681640625
 70
    40
  0
VERTEX
  5
2AF
330
2A9
100
AcDbEntity
  8
HA-807
100
AcDbVertex
100
AcDb3dPolylineVertex
 10
131.4793904436519
 20
42.14465408533579
 30
1.274812500000001
 70
    40
  0
VERTEX
  5
2B0
330
2A9
100
AcDbEntity
  8
HA-807
100
AcDbVertex
100
AcDb3dPolylineVertex
 10
131.4773240719223
 20
42.13739391855779
 30
0.5378115234374986
 70
    40
  0
VERTEX
  5
2B1
330
2A9
100
AcDbEntity
  8
HA-807
100
AcDbVertex
100
AcDb3dPolylineVertex
 10
131.4754786669509
 20
42.13055530071142
 30
0.1593515625000007
 70
    40
  0
VERTEX
  5
2B2
330
2A9
100
AcDbEntity
  8
HA-807
100
AcDbVertex
100
AcDb3dPolylineVertex
 10
131.4738579569967
 20
42.1240931430948
 30
0.0199189453124996
 70
    40
  0
VERTEX
  5
2B3
330
2A9
100
AcDbEntity
  8
HA-807
100
AcDbVertex
100
AcDb3dPolylineVertex
 10
131.4724656700855
 20
42.11796235697693
 30
0.0
 70
    40
  0
VERTEX
  5
2B4
330
2A9
100
AcDbEntity
  8
HA-807
100
AcDbVertex
100
AcDb3dPolylineVertex
 10
131.4712994722649
 20
42.11212315951707
 30
0.0
 70
    40
  0
VERTEX
  5
2B5
330
2A9
100
AcDbEntity
  8
HA-807
100
AcDbVertex
100
AcDb3dPolylineVertex
 10
131.4703327793395
 20
42.1065569910279
 30
0.0
 70
    40
  0
VERTEX
  5
2B6
330
2A9
100
AcDbEntity
  8
HA-807
100
AcDbVertex
100
AcDb3dPolylineVertex
 10
131.4695329453098
 20
42.10125059768325
 30
0.0
 70
    40
  0
VERTEX
  5
2B7
330
2A9
100
AcDbEntity
  8
HA-807
100
AcDbVertex
100
AcDb3dPolylineVertex
 10
131.4688673238852
 20
42.09619072565692
 30
0.0
 70
    40
  0
VERTEX
  5
2B8
330
2A9
100
AcDbEntity
  8
HA-807
100
AcDbVertex
100
AcDb3dPolylineVertex
 10
131.4683032685425
 20
42.09136412109365
 30
0.0
 70
    40
  0
VERTEX
  5
2B9
330
2A9
100
AcDbEntity
  8
HA-807
100
AcDbVertex
100
AcDb3dPolylineVertex
 10
131.467808133224
 20
42.08675753019634
 30
0.0
 70
    40
  0
VERTEX
  5
2BA
330
2A9
100
AcDbEntity
  8
HA-807
100
AcDbVertex
100
AcDb3dPolylineVertex
 10
131.4673492715228
 20
42.08235769910971
 30
0.0
 70
    40
  0
VERTEX
  5
2BB
330
2A9
100
AcDbEntity
  8
HA-807
100
AcDbVertex
100
AcDb3dPolylineVertex
 10
131.4668940372067
 20
42.07815137397847
 30
0.0
 70
    40
  0
VERTEX
  5
2BC
330
2A9
100
AcDbEntity
  8
HA-807
100
AcDbVertex
100
AcDb3dPolylineVertex
 10
131.4664173410274
 20
42.0741118262813
 30
0.0
 70
    40
  0
VERTEX
  5
2BD
330
2A9
100
AcDbEntity
  8
HA-807
100
AcDbVertex
100
AcDb3dPolylineVertex
 10
131.4659243216738
 20
42.07015842848341
 30
0.0
 70
    40
  0
VERTEX
  5
2BE
330
2A9
100
AcDbEntity
  8
HA-807
100
AcDbVertex
100
AcDb3dPolylineVertex
 10
131.465427674877
 20
42.06619707838399
 30
0.0
 70
    40
  0
VERTEX
  5
2BF
330
2A9
100
AcDbEntity
  8
HA-807
100
AcDbVertex
100
AcDb3dPolylineVertex
 10
131.4649400965427
 20
42.06213367378223
 30
0.0
 70
    40
  0
VERTEX
  5
2C0
330
2A9
100
AcDbEntity
  8
HA-807
100
AcDbVertex
100
AcDb3dPolylineVertex
 10
131.4644742824603
 20
42.05787411241909
 30
0.0
 70
    40
  0
VERTEX
  5
2C1
330
2A9
100
AcDbEntity
  8
HA-807
100
AcDbVertex
100
AcDb3dPolylineVertex
 10
131.4640429283027
 20
42.05332429209375
 30
0.0
 70
    40
  0
VERTEX
  5
2C2
330
2A9
100
AcDbEntity
  8
HA-807
100
AcDbVertex
100
AcDb3dPolylineVertex
 10
131.4636587298592
 20
42.04839011057629
 30
0.0
 70
    40
  0
VERTEX
  5
2C3
330
2A9
100
AcDbEntity
  8
HA-807
100
AcDbVertex
100
AcDb3dPolylineVertex
 10
131.4633343830355
 20
42.0429774656368
 30
0.0
 70
    40
  0
VERTEX
  5
2C4
330
2A9
100
AcDbEntity
  8
HA-807
100
AcDbVertex
100
AcDb3dPolylineVertex
 10
131.4630789561197
 20
42.03702826137305
 30
0.0
 70
    40
  0
VERTEX
  5
2C5
330
2A9
100
AcDbEntity
  8
HA-807
100
AcDbVertex
100
AcDb3dPolylineVertex
 10
131.4628870080342
 20
42.03062842666986
 30
0.0
 70
    40
  0
VERTEX
  5
2C6
330
2A9
100
AcDbEntity
  8
HA-807
100
AcDbVertex
100
AcDb3dPolylineVertex
 10
131.4627494703745
 20
42.02389989694348
 30
0.0
 70
    40
  0
VERTEX
  5
2C7
330
2A9
100
AcDbEntity
  8
HA-807
100
AcDbVertex
100
AcDb3dPolylineVertex
 10
131.4626572749112
 20
42.0169646073773
 30
0.0
 70
    40
  0
VERTEX
  5
2C8
330
2A9
100
AcDbEntity
  8
HA-807
100
AcDbVertex
100
AcDb3dPolylineVertex
 10
131.4626013530069
 20
42.00994449332939
 30
0.0
 70
    40
  0
VERTEX
  5
2C9
330
2A9
100
AcDbEntity
  8
HA-807
100
AcDbVertex
100
AcDb3dPolylineVertex
 10
131.4625726363738
 20
42.00296148992493
 30
0.0
 70
    40
  0
VERTEX
  5
2CA
330
2A9
100
AcDbEntity
  8
HA-807
100
AcDbVertex
100
AcDb3dPolylineVertex
 10
131.4625620565494
 20
41.99613753258018
 30
0.0
 70
    40
  0
VERTEX
  5
2CB
330
2A9
100
AcDbEntity
  8
HA-807
100
AcDbVertex
100
AcDb3dPolylineVertex
 10
131.4625605451874
 20
41.98959455653676
 30
0.0
 70
    40
  0
VERTEX
  5
2CC
330
2A9
100
AcDbEntity
  8
HA-807
100
AcDbVertex
100
AcDb3dPolylineVertex
 10
131.4625717295567
 20
41.98341804897063
 30
0.0
 70
    40
  0
VERTEX
  5
2CD
330
2A9
100
AcDbEntity
  8
HA-807
100
AcDbVertex
100
AcDb3dPolylineVertex
 10
131.4626500201994
 20
41.97754770496977
 30
0.0
 70
    40
  0
VERTEX
  5
2CE
330
2A9
100
AcDbEntity
  8
HA-807
100
AcDbVertex
100
AcDb3dPolylineVertex
 10
131.4628625233308
 20
41.97188677155646
 30
0.0
 70
    40
  0
VERTEX
  5
2CF
330
2A9
100
AcDbEntity
  8
HA-807
100
AcDbVertex
100
AcDb3dPolylineVertex
 10
131.4632763451664
 20
41.96633849575301
 30
0.0
 70
    40
  0
VERTEX
  5
2D0
330
2A9
100
AcDbEntity
  8
HA-807
100
AcDbVertex
100
AcDb3dPolylineVertex
 10
131.4639585921541
 20
41.96080612452351
 30
0.0
 70
    40
  0
VERTEX
  5
2D1
330
2A9
100
AcDbEntity
  8
HA-807
100
AcDbVertex
100
AcDb3dPolylineVertex
 10
131.4649763703346
 20
41.95519290489028
 30
0.0
 70
    40
  0
VERTEX
  5
2D2
330
2A9
100
AcDbEntity
  8
HA-807
100
AcDbVertex
100
AcDb3dPolylineVertex
 10
131.4663967860397
 20
41.94940208393382
 30
0.0
 70
    40
  0
VERTEX
  5
2D3
330
2A9
100
AcDbEntity
  8
HA-807
100
AcDbVertex
100
AcDb3dPolylineVertex
 10
131.4682869455428
 20
41.94333690856001
 30
0.0
 70
    40
  0
VERTEX
  5
2D4
330
2A9
100
AcDbEntity
  8
HA-807
100
AcDbVertex
100
AcDb3dPolylineVertex
 10
131.4706849361537
 20
41.93693221415742
 30
0.0
 70
    40
  0
VERTEX
  5
2D5
330
2A9
100
AcDbEntity
  8
HA-807
100
AcDbVertex
100
AcDb3dPolylineVertex
 10
131.4735127695021
 20
41.93024918928859
 30
0.0
 70
    40
  0
VERTEX
  5
2D6
330
2A9
100
AcDbEntity
  8
HA-807
100
AcDbVertex
100
AcDb3dPolylineVertex
 10
131.4766634384287
 20
41.92338061067858
 30
0.0
 70
    40
  0
VERTEX
  5
2D7
330
2A9
100
AcDbEntity
  8
HA-807
100
AcDbVertex
100
AcDb3dPolylineVertex
 10
131.4800299354829
 20
41.91641925525619
 30
0.0
 70
    40
  0
VERTEX
  5
2D8
330
2A9
100
AcDbEntity
  8
HA-807
100
AcDbVertex
100
AcDb3dPolylineVertex
 10
131.4835052535054
 20
41.9094578998338
 30
0.0
 70
    40
  0
VERTEX
  5
2D9
330
2A9
100
AcDbEntity
  8
HA-807
100
AcDbVertex
100
AcDb3dPolylineVertex
 10
131.4869823852787
 20
41.90258932128199
 30
0.0
 70
    40
  0
VERTEX
  5
2DA
330
2A9
100
AcDbEntity
  8
HA-807
100
AcDbVertex
100
AcDb3dPolylineVertex
 10
131.4903543234104
 20
41.89590629635495
 30
0.0
 70
    40
  0
VERTEX
  5
2DB
330
2A9
100
AcDbEntity
  8
HA-807
100
AcDbVertex
100
AcDb3dPolylineVertex
 10
131.4935140606249
 20
41.88950160195236
 30
0.0
 70
    40
  0
VERTEX
  5
2DC
330
2A9
100
AcDbEntity
  8
HA-807
100
AcDbVertex
100
AcDb3dPolylineVertex
 10
131.4963884452009
 20
41.88344747148221
 30
0.0
 70
    40
  0
VERTEX
  5
2DD
330
2A9
100
AcDbEntity
  8
HA-807
100
AcDbVertex
100
AcDb3dPolylineVertex
 10
131.4990397468209
 20
41.87773396453122
 30
0.0
 70
    40
  0
VERTEX
  5
2DE
330
2A9
100
AcDbEntity
  8
HA-807
100
AcDbVertex
100
AcDb3dPolylineVertex
 10
131.501564090664
 20
41.87233059728169
 30
0.0
 70
    40
  0
VERTEX
  5
2DF
330
2A9
100
AcDbEntity
  8
HA-807
100
AcDbVertex
100
AcDb3dPolylineVertex
 10
131.5040576018509
 20
41.86720688597416
 30
0.0
 70
    40
  0
VERTEX
  5
2E0
330
2A9
100
AcDbEntity
  8
HA-807
100
AcDbVertex
100
AcDb3dPolylineVertex
 10
131.5066164056771
 20
41.86233234670362
 30
0.0
 70
    40
  0
VERTEX
  5
2E1
330
2A9
100
AcDbEntity
  8
HA-807
100
AcDbVertex
100
AcDb3dPolylineVertex
 10
131.5093366271467
 20
41.85767649571062
 30
0.0
 70
    40
  0
VERTEX
  5
2E2
330
2A9
100
AcDbEntity
  8
HA-807
100
AcDbVertex
100
AcDb3dPolylineVertex
 10
131.5123143916135
 20
41.85320884914836
 30
0.0
 70
    40
  0
VERTEX
  5
2E3
330
2A9
100
AcDbEntity
  8
HA-807
100
AcDbVertex
100
AcDb3dPolylineVertex
 10
131.5156458241981
 20
41.84889892328647
 30
0.0
 70
    40
  0
VERTEX
  5
2E4
330
2A9
100
AcDbEntity
  8
HA-807
100
AcDbVertex
100
AcDb3dPolylineVertex
 10
131.519401053898
 20
41.84470982811763
 30
0.0
 70
    40
  0
VERTEX
  5
2E5
330
2A9
100
AcDbEntity
  8
HA-807
100
AcDbVertex
100
AcDb3dPolylineVertex
 10
131.5235462253913
 20
41.84057904986548
 30
0.0
 70
    40
  0
VERTEX
  5
2E6
330
2A9
100
AcDbEntity
  8
HA-807
100
AcDbVertex
100
AcDb3dPolylineVertex
 10
131.5280214870581
 20
41.83643766850582
 30
0.0
 70
    40
  0
VERTEX
  5
2E7
330
2A9
100
AcDbEntity
  8
HA-807
100
AcDbVertex
100
AcDb3dPolylineVertex
 10
131.5327669874532
 20
41.83221676415997
 30
0.0
 70
    40
  0
VERTEX
  5
2E8
330
2A9
100
AcDbEntity
  8
HA-807
100
AcDbVertex
100
AcDb3dPolylineVertex
 10
131.5377228750149
 20
41.82784741689102
 30
0.0
 70
    40
  0
VERTEX
  5
2E9
330
2A9
100
AcDbEntity
  8
HA-807
100
AcDbVertex
100
AcDb3dPolylineVertex
 10
131.5428292982397
 20
41.82326070670388
 30
0.0
 70
    40
  0
VERTEX
  5
2EA
330
2A9
100
AcDbEntity
  8
HA-807
100
AcDbVertex
100
AcDb3dPolylineVertex
 10
131.5480264055659
 20
41.81838771371986
 30
0.0
 70
    40
  0
VERTEX
  5
2EB
330
2A9
100
AcDbEntity
  8
HA-807
100
AcDbVertex
100
AcDb3dPolylineVertex
 10
131.5532543454901
 20
41.81315951800207
 30
0.0
 70
    40
  0
VERTEX
  5
2EC
330
2A9
100
AcDbEntity
  8
HA-807
100
AcDbVertex
100
AcDb3dPolylineVertex
 10
131.5584786580876
 20
41.80753436993109
 30
0.0
 70
    40
  0
VERTEX
  5
2ED
330
2A9
100
AcDbEntity
  8
HA-807
100
AcDbVertex
100
AcDb3dPolylineVertex
 10
131.5637664495734
 20
41.80157920141937
 30
0.0
 70
    40
  0
VERTEX
  5
2EE
330
2A9
100
AcDbEntity
  8
HA-807
100
AcDbVertex
100
AcDb3dPolylineVertex
 10
131.5692102178
 20
41.79538811466773
 30
0.0
 70
    40
  0
VERTEX
  5
2EF
330
2A9
100
AcDbEntity
  8
HA-807
100
AcDbVertex
100
AcDb3dPolylineVertex
 10
131.5749024604447
 20
41.78905521187698
 30
0.0
 70
    40
  0
VERTEX
  5
2F0
330
2A9
100
AcDbEntity
  8
HA-807
100
AcDbVertex
100
AcDb3dPolylineVertex
 10
131.5809356754762
 20
41.78267459527706
 30
0.0
 70
    40
  0
VERTEX
  5
2F1
330
2A9
100
AcDbEntity
  8
HA-807
100
AcDbVertex
100
AcDb3dPolylineVertex
 10
131.5874023606302
 20
41.77634036709787
 30
0.0
 70
    40
  0
VERTEX
  5
2F2
330
2A9
100
AcDbEntity
  8
HA-807
100
AcDbVertex
100
AcDb3dPolylineVertex
 10
131.5943950137589
 20
41.77014662956935
 30
0.0
 70
    40
  0
VERTEX
  5
2F3
330
2A9
100
AcDbEntity
  8
HA-807
100
AcDbVertex
100
AcDb3dPolylineVertex
 10
131.6020061325398
 20
41.76418748483411
 30
0.0
 70
    40
  0
VERTEX
  5
2F4
330
2A9
100
AcDbEntity
  8
HA-807
100
AcDbVertex
100
AcDb3dPolylineVertex
 10
131.6102913367213
 20
41.75854113063542
 30
0.0
 70
    40
  0
VERTEX
  5
2F5
330
2A9
100
AcDbEntity
  8
HA-807
100
AcDbVertex
100
AcDb3dPolylineVertex
 10
131.6191587329959
 20
41.75322214615881
 30
0.0
 70
    40
  0
VERTEX
  5
2F6
330
2A9
100
AcDbEntity
  8
HA-807
100
AcDbVertex
100
AcDb3dPolylineVertex
 10
131.6284795498941
 20
41.74822920598672
 30
0.0
 70
    40
  0
VERTEX
  5
2F7
330
2A9
100
AcDbEntity
  8
HA-807
100
AcDbVertex
100
AcDb3dPolylineVertex
 10
131.6381250160048
 20
41.74356098475982
 30
0.0
 70
    40
  0
VERTEX
  5
2F8
330
2A9
100
AcDbEntity
  8
HA-807
100
AcDbVertex
100
AcDb3dPolylineVertex
 10
131.6479663598002
 20
41.73921615706058
 30
0.0
 70
    40
  0
VERTEX
  5
2F9
330
2A9
100
AcDbEntity
  8
HA-807
100
AcDbVertex
100
AcDb3dPolylineVertex
 10
131.6578748098691
 20
41.73519339755876
 30
0.0
 70
    40
  0
VERTEX
  5
2FA
330
2A9
100
AcDbEntity
  8
HA-807
100
AcDbVertex
100
AcDb3dPolylineVertex
 10
131.667721594742
 20
41.73149138080771
 30
0.0
 70
    40
  0
VERTEX
  5
2FB
330
2A9
100
AcDbEntity
  8
HA-807
100
AcDbVertex
100
AcDb3dPolylineVertex
 10
131.6773779428331
 20
41.7281087814772
 30
0.0
 70
    40
  0
VERTEX
  5
2FC
330
2A9
100
AcDbEntity
  8
HA-807
100
AcDbVertex
100
AcDb3dPolylineVertex
 10
131.686751961126
 20
41.7250376472366
 30
0.0
 70
    40
  0
VERTEX
  5
2FD
330
2A9
100
AcDbEntity
  8
HA-807
100
AcDbVertex
100
AcDb3dPolylineVertex
 10
131.6958992690779
 20
41.72224351816112
 30
0.0
 70
    40
  0
VERTEX
  5
2FE
330
2A9
100
AcDbEntity
  8
HA-807
100
AcDbVertex
100
AcDb3dPolylineVertex
 10
131.7049123645411
 20
41.71968530729646
 30
0.0
 70
    40
  0
VERTEX
  5
2FF
330
2A9
100
AcDbEntity
  8
HA-807
100
AcDbVertex
100
AcDb3dPolylineVertex
 10
131.7138837452512
 20
41.71732192780473
 30
0.0
 70
    40
  0
VERTEX
  5
300
330
2A9
100
AcDbEntity
  8
HA-807
100
AcDbVertex
100
AcDb3dPolylineVertex
 10
131.7229059090605
 20
41.71511229276075
 30
0.0
 70
    40
  0
VERTEX
  5
301
330
2A9
100
AcDbEntity
  8
HA-807
100
AcDbVertex
100
AcDb3dPolylineVertex
 10
131.7320713538793
 20
41.71301531532663
 30
0.0
 70
    40
  0
VERTEX
  5
302
330
2A9
100
AcDbEntity
  8
HA-807
100
AcDbVertex
100
AcDb3dPolylineVertex
 10
131.7414725774433
 20
41.71098990860628
 30
0.0
 70
    40
  0
VERTEX
  5
303
330
2A9
100
AcDbEntity
  8
HA-807
100
AcDbVertex
100
AcDb3dPolylineVertex
 10
131.7512020774302
 20
41.7089949856454
 30
0.0
 70
    40
  0
VERTEX
  5
304
330
2A9
100
AcDbEntity
  8
HA-807
100
AcDbVertex
100
AcDb3dPolylineVertex
 10
131.7613260534126
 20
41.70700182992732
 30
0.0
 70
    40
  0
VERTEX
  5
305
330
2A9
100
AcDbEntity
  8
HA-807
100
AcDbVertex
100
AcDb3dPolylineVertex
 10
131.7718055112055
 20
41.70503120569629
 30
0.0
 70
    40
  0
VERTEX
  5
306
330
2A9
100
AcDbEntity
  8
HA-807
100
AcDbVertex
100
AcDb3dPolylineVertex
 10
131.7825751581695
 20
41.70311624757596
 30
0.0
 70
    40
  0
VERTEX
  5
307
330
2A9
100
AcDbEntity
  8
HA-807
100
AcDbVertex
100
AcDb3dPolylineVertex
 10
131.793569701782
 20
41.70129009013181
 30
0.0
 70
    40
  0
VERTEX
  5
308
330
2A9
100
AcDbEntity
  8
HA-807
100
AcDbVertex
100
AcDb3dPolylineVertex
 10
131.8047238494037
 20
41.69958586795838
 30
0.0
 70
    40
  0
VERTEX
  5
309
330
2A9
100
AcDbEntity
  8
HA-807
100
AcDbVertex
100
AcDb3dPolylineVertex
 10
131.8159723086283
 20
41.69803671565023
 30
0.0
 70
    40
  0
VERTEX
  5
30A
330
2A9
100
AcDbEntity
  8
HA-807
100
AcDbVertex
100
AcDb3dPolylineVertex
 10
131.8272497867001
 20
41.69667576780193
 30
0.0
 70
    40
  0
VERTEX
  5
30B
330
2A9
100
AcDbEntity
  8
HA-807
100
AcDbVertex
100
AcDb3dPolylineVertex
 10
131.8384909911547
 20
41.69553615900804
 30
0.0
 70
    40
  0
VERTEX
  5
30C
330
2A9
100
AcDbEntity
  8
HA-807
100
AcDbVertex
100
AcDb3dPolylineVertex
 10
131.8496251882752
 20
41.69464461776079
 30
0.0
 70
    40
  0
VERTEX
  5
30D
330
2A9
100
AcDbEntity
  8
HA-807
100
AcDbVertex
100
AcDb3dPolylineVertex
 10
131.8605598803842
 20
41.69400224860874
 30
0.0
 70
    40
  0
VERTEX
  5
30E
330
2A9
100
AcDbEntity
  8
HA-807
100
AcDbVertex
100
AcDb3dPolylineVertex
 10
131.871197128552
 20
41.69360374999815
 30
0.0
 70
    40
  0
VERTEX
  5
30F
330
2A9
100
AcDbEntity
  8
HA-807
100
AcDbVertex
100
AcDb3dPolylineVertex
 10
131.8814389939071
 20
41.69344382040435
 30
0.0
 70
    40
  0
VERTEX
  5
310
330
2A9
100
AcDbEntity
  8
HA-807
100
AcDbVertex
100
AcDb3dPolylineVertex
 10
131.8911875375779
 20
41.6935171582445
 30
0.0
 70
    40
  0
VERTEX
  5
311
330
2A9
100
AcDbEntity
  8
HA-807
100
AcDbVertex
100
AcDb3dPolylineVertex
 10
131.9003448208096
 20
41.69381846211036
 30
0.0
 70
    40
  0
VERTEX
  5
312
330
2A9
100
AcDbEntity
  8
HA-807
100
AcDbVertex
100
AcDb3dPolylineVertex
 10
131.908812904614
 20
41.69434243036085
 30
0.0
 70
    40
  0
VERTEX
  5
313
330
2A9
100
AcDbEntity
  8
HA-807
100
AcDbVertex
100
AcDb3dPolylineVertex
 10
131.9164938502945
 20
41.69508376141312
 30
0.0
 70
    40
  0
VERTEX
  5
314
330
2A9
100
AcDbEntity
  8
HA-807
100
AcDbVertex
100
AcDb3dPolylineVertex
 10
131.9233510817867
 20
41.69603892104351
 30
0.0
 70
    40
  0
VERTEX
  5
315
330
2A9
100
AcDbEntity
  8
HA-807
100
AcDbVertex
100
AcDb3dPolylineVertex
 10
131.929593474837
 20
41.6972114435921
 30
0.0
 70
    40
  0
VERTEX
  5
316
330
2A9
100
AcDbEntity
  8
HA-807
100
AcDbVertex
100
AcDb3dPolylineVertex
 10
131.9354912681738
 20
41.69860663049622
 30
0.0
 70
    40
  0
VERTEX
  5
317
330
2A9
100
AcDbEntity
  8
HA-807
100
AcDbVertex
100
AcDb3dPolylineVertex
 10
131.9413147005835
 20
41.70022978336783
 30
0.0
 70
    40
  0
VERTEX
  5
318
330
2A9
100
AcDbEntity
  8
HA-807
100
AcDbVertex
100
AcDb3dPolylineVertex
 10
131.9473340106779
 20
41.70208620370249
 30
0.0
 70
    40
  0
VERTEX
  5
319
330
2A9
100
AcDbEntity
  8
HA-807
100
AcDbVertex
100
AcDb3dPolylineVertex
 10
131.9538194372435
 20
41.70418119308306
 30
0.0
 70
    40
  0
VERTEX
  5
31A
330
2A9
100
AcDbEntity
  8
HA-807
100
AcDbVertex
100
AcDb3dPolylineVertex
 10
131.9610412188922
 20
41.70652005300508
 30
0.0
 70
    40
  0
VERTEX
  5
31B
330
2A9
100
AcDbEntity
  8
HA-807
100
AcDbVertex
100
AcDb3dPolylineVertex
 10
131.969269594294
 20
41.7091080849932
 30
0.0
 70
    40
  0
VERTEX
  5
31C
330
2A9
100
AcDbEntity
  8
HA-807
100
AcDbVertex
100
AcDb3dPolylineVertex
 10
131.9786762588774
 20
41.71195014883415
 30
0.0
 70
    40
  0
VERTEX
  5
31D
330
2A9
100
AcDbEntity
  8
HA-807
100
AcDbVertex
100
AcDb3dPolylineVertex
 10
131.9890387341147
 20
41.71504933698452
 30
0.0
 70
    40
  0
VERTEX
  5
31E
330
2A9
100
AcDbEntity
  8
HA-807
100
AcDbVertex
100
AcDb3dPolylineVertex
 10
132.0000359982369
 20
41.71840830033761
 30
0.0
 70
    40
  0
VERTEX
  5
31F
330
2A9
100
AcDbEntity
  8
HA-807
100
AcDbVertex
100
AcDb3dPolylineVertex
 10
132.0113470294164
 20
41.72202968955389
 30
0.0
 70
    40
  0
VERTEX
  5
320
330
2A9
100
AcDbEntity
  8
HA-807
100
AcDbVertex
100
AcDb3dPolylineVertex
 10
132.022650805884
 20
41.72591615552665
 30
0.0
 70
    40
  0
VERTEX
  5
321
330
2A9
100
AcDbEntity
  8
HA-807
100
AcDbVertex
100
AcDb3dPolylineVertex
 10
132.0336263058707
 20
41.73007034888724
 30
0.0
 70
    40
  0
VERTEX
  5
322
330
2A9
100
AcDbEntity
  8
HA-807
100
AcDbVertex
100
AcDb3dPolylineVertex
 10
132.0439525074908
 20
41.73449492049986
 30
0.0
 70
    40
  0
VERTEX
  5
323
330
2A9
100
AcDbEntity
  8
HA-807
100
AcDbVertex
100
AcDb3dPolylineVertex
 10
132.0533083889168
 20
41.73919252105406
 30
0.0
 70
    40
  0
VERTEX
  5
324
330
2A9
100
AcDbEntity
  8
HA-807
100
AcDbVertex
100
AcDb3dPolylineVertex
 10
132.0614581714035
 20
41.74415895357379
 30
0.0
 70
    40
  0
VERTEX
  5
325
330
2A9
100
AcDbEntity
  8
HA-807
100
AcDbVertex
100
AcDb3dPolylineVertex
 10
132.0685070486506
 20
41.74936262969277
 30
0.0
 70
    40
  0
VERTEX
  5
326
330
2A9
100
AcDbEntity
  8
HA-807
100
AcDbVertex
100
AcDb3dPolylineVertex
 10
132.0746454573236
 20
41.75476511337911
 30
0.0
 70
    40
  0
VERTEX
  5
327
330
2A9
100
AcDbEntity
  8
HA-807
100
AcDbVertex
100
AcDb3dPolylineVertex
 10
132.0800638339133
 20
41.76032796842628
 30
0.0
 70
    40
  0
VERTEX
  5
328
330
2A9
100
AcDbEntity
  8
HA-807
100
AcDbVertex
100
AcDb3dPolylineVertex
 10
132.0849526152597
 20
41.76601275874418
 30
0.0
 70
    40
  0
VERTEX
  5
329
330
2A9
100
AcDbEntity
  8
HA-807
100
AcDbVertex
100
AcDb3dPolylineVertex
 10
132.08950223797
 20
41.77178104818449
 30
0.0
 70
    40
  0
VERTEX
  5
32A
330
2A9
100
AcDbEntity
  8
HA-807
100
AcDbVertex
100
AcDb3dPolylineVertex
 10
132.0939031386515
 20
41.77759440071532
 30
0.0
 70
    40
  0
VERTEX
  5
32B
330
2A9
100
AcDbEntity
  8
HA-807
100
AcDbVertex
100
AcDb3dPolylineVertex
 10
132.098345754086
 20
41.78341438010102
 30
0.0
 70
    40
  0
VERTEX
  5
32C
330
2A9
100
AcDbEntity
  8
HA-807
100
AcDbVertex
100
AcDb3dPolylineVertex
 10
132.1029712491436
 20
41.78920961901895
 30
0.0
 70
    40
  0
VERTEX
  5
32D
330
2A9
100
AcDbEntity
  8
HA-807
100
AcDbVertex
100
AcDb3dPolylineVertex
 10
132.1077237020363
 20
41.79497702492517
 30
0.0
 70
    40
  0
VERTEX
  5
32E
330
2A9
100
AcDbEntity
  8
HA-807
100
AcDbVertex
100
AcDb3dPolylineVertex
 10
132.1124979190645
 20
41.80072057389771
 30
0.0
 70
    40
  0
VERTEX
  5
32F
330
2A9
100
AcDbEntity
  8
HA-807
100
AcDbVertex
100
AcDb3dPolylineVertex
 10
132.1171887066448
 20
41.80644424210186
 30
0.0
 70
    40
  0
VERTEX
  5
330
330
2A9
100
AcDbEntity
  8
HA-807
100
AcDbVertex
100
AcDb3dPolylineVertex
 10
132.1216908713104
 20
41.81215200576116
 30
0.0
 70
    40
  0
VERTEX
  5
331
330
2A9
100
AcDbEntity
  8
HA-807
100
AcDbVertex
100
AcDb3dPolylineVertex
 10
132.1258992194198
 20
41.81784784092451
 30
0.0
 70
    40
  0
VERTEX
  5
332
330
2A9
100
AcDbEntity
  8
HA-807
100
AcDbVertex
100
AcDb3dPolylineVertex
 10
132.1297085572733
 20
41.82353572378634
 30
0.0
 70
    40
  0
VERTEX
  5
333
330
2A9
100
AcDbEntity
  8
HA-807
100
AcDbVertex
100
AcDb3dPolylineVertex
 10
132.1330136915203
 20
41.82921963048284
 30
0.0
 70
    40
  0
VERTEX
  5
334
330
2A9
100
AcDbEntity
  8
HA-807
100
AcDbVertex
100
AcDb3dPolylineVertex
 10
132.1357402608846
 20
41.83491391935968
 30
0.0
 70
    40
  0
VERTEX
  5
335
330
2A9
100
AcDbEntity
  8
HA-807
100
AcDbVertex
100
AcDb3dPolylineVertex
 10
132.1379372350057
 20
41.84067447742564
 30
0.0
 70
    40
  0
VERTEX
  5
336
330
2A9
100
AcDbEntity
  8
HA-807
100
AcDbVertex
100
AcDb3dPolylineVertex
 10
132.139684415888
 20
41.84656757381163
 30
0.0
 70
    40
  0
VERTEX
  5
337
330
2A9
100
AcDbEntity
  8
HA-807
100
AcDbVertex
100
AcDb3dPolylineVertex
 10
132.1410616054782
 20
41.85265947776497
 30
0.0
 70
    40
  0
VERTEX
  5
338
330
2A9
100
AcDbEntity
  8
HA-807
100
AcDbVertex
100
AcDb3dPolylineVertex
 10
132.1421486058971
 20
41.85901645832928
 30
0.0
 70
    40
  0
VERTEX
  5
339
330
2A9
100
AcDbEntity
  8
HA-807
100
AcDbVertex
100
AcDb3dPolylineVertex
 10
132.1430252190912
 20
41.86570478478097
 30
0.0
 70
    40
  0
VERTEX
  5
33A
330
2A9
100
AcDbEntity
  8
HA-807
100
AcDbVertex
100
AcDb3dPolylineVertex
 10
132.1437712472398
 20
41.87279072622187
 30
0.0
 70
    40
  0
VERTEX
  5
33B
330
2A9
100
AcDbEntity
  8
HA-807
100
AcDbVertex
100
AcDb3dPolylineVertex
 10
132.1444664921728
 20
41.88034055189928
 30
0.0
 70
    40
  0
VERTEX
  5
33C
330
2A9
100
AcDbEntity
  8
HA-807
100
AcDbVertex
100
AcDb3dPolylineVertex
 10
132.1451813853928
 20
41.88840418451582
 30
0.0
 70
    40
  0
VERTEX
  5
33D
330
2A9
100
AcDbEntity
  8
HA-807
100
AcDbVertex
100
AcDb3dPolylineVertex
 10
132.1459488753462
 20
41.89696616129368
 30
0.0
 70
    40
  0
VERTEX
  5
33E
330
2A9
100
AcDbEntity
  8
HA-807
100
AcDbVertex
100
AcDb3dPolylineVertex
 10
132.1467925400939
 20
41.90599467305583
 30
0.0
 70
    40
  0
VERTEX
  5
33F
330
2A9
100
AcDbEntity
  8
HA-807
100
AcDbVertex
100
AcDb3dPolylineVertex
 10
132.1477359572891
 20
41.91545791053795
 30
0.0
 70
    40
  0
VERTEX
  5
340
330
2A9
100
AcDbEntity
  8
HA-807
100
AcDbVertex
100
AcDb3dPolylineVertex
 10
132.1488027049345
 20
41.92532406453392
 30
0.0
 70
    40
  0
VERTEX
  5
341
330
2A9
100
AcDbEntity
  8
HA-807
100
AcDbVertex
100
AcDb3dPolylineVertex
 10
132.1500163607998
 20
41.93556132595404
 30
0.0
 70
    40
  0
VERTEX
  5
342
330
2A9
100
AcDbEntity
  8
HA-807
100
AcDbVertex
100
AcDb3dPolylineVertex
 10
132.1514005028876
 20
41.94613788550487
 30
0.0
 70
    40
  0
VERTEX
  5
343
330
2A9
100
AcDbEntity
  8
HA-807
100
AcDbVertex
100
AcDb3dPolylineVertex
 10
132.1529787089676
 20
41.95702193400939
 30
0.0
 70
    40
  0
VERTEX
  5
344
330
2A9
100
AcDbEntity
  8
HA-807
100
AcDbVertex
100
AcDb3dPolylineVertex
 10
132.1547588383546
 20
41.96817547714454
 30
0.0
 70
    40
  0
VERTEX
  5
345
330
2A9
100
AcDbEntity
  8
HA-807
100
AcDbVertex
100
AcDb3dPolylineVertex
 10
132.156685876078
 20
41.97953578006127
 30
0.0
 70
    40
  0
VERTEX
  5
346
330
2A9
100
AcDbEntity
  8
HA-807
100
AcDbVertex
100
AcDb3dPolylineVertex
 10
132.1586890884792
 20
41.99103392285178
 30
0.0
 70
    40
  0
VERTEX
  5
347
330
2A9
100
AcDbEntity
  8
HA-807
100
AcDbVertex
100
AcDb3dPolylineVertex
 10
132.1606977418996
 20
42.0026009856083
 30
0.0
 70
    40
  0
VERTEX
  5
348
330
2A9
100
AcDbEntity
  8
HA-807
100
AcDbVertex
100
AcDb3dPolylineVertex
 10
132.1626411027391
 20
42.0141680483357
 30
0.0
 70
    40
  0
VERTEX
  5
349
330
2A9
100
AcDbEntity
  8
HA-807
100
AcDbVertex
100
AcDb3dPolylineVertex
 10
132.1644484373392
 20
42.02566619115532
 30
0.0
 70
    40
  0
VERTEX
  5
34A
330
2A9
100
AcDbEntity
  8
HA-807
100
AcDbVertex
100
AcDb3dPolylineVertex
 10
132.1660490122158
 20
42.03702649407205
 30
0.0
 70
    40
  0
VERTEX
  5
34B
330
2A9
100
AcDbEntity
  8
HA-807
100
AcDbVertex
100
AcDb3dPolylineVertex
 10
132.1673720935942
 20
42.0481800372072
 30
0.0
 70
    40
  0
VERTEX
  5
34C
330
2A9
100
AcDbEntity
  8
HA-807
100
AcDbVertex
100
AcDb3dPolylineVertex
 10
132.1683590391767
 20
42.05906563196913
 30
0.0
 70
    40
  0
VERTEX
  5
34D
330
2A9
100
AcDbEntity
  8
HA-807
100
AcDbVertex
100
AcDb3dPolylineVertex
 10
132.1689995714114
 20
42.06965301549644
 30
0.0
 70
    40
  0
VERTEX
  5
34E
330
2A9
100
AcDbEntity
  8
HA-807
100
AcDbVertex
100
AcDb3dPolylineVertex
 10
132.1692955039907
 20
42.07991965621477
 30
0.0
 70
    40
  0
VERTEX
  5
34F
330
2A9
100
AcDbEntity
  8
HA-807
100
AcDbVertex
100
AcDb3dPolylineVertex
 10
132.1692486504326
 20
42.08984302266617
 30
0.0
 70
    40
  0
VERTEX
  5
350
330
2A9
100
AcDbEntity
  8
HA-807
100
AcDbVertex
100
AcDb3dPolylineVertex
 10
132.1688608246623
 20
42.09940058324719
 30
0.0
 70
    40
  0
VERTEX
  5
351
330
2A9
100
AcDbEntity
  8
HA-807
100
AcDbVertex
100
AcDb3dPolylineVertex
 10
132.1681338402559
 20
42.10856980652898
 30
0.0
 70
    40
  0
VERTEX
  5
352
330
2A9
100
AcDbEntity
  8
HA-807
100
AcDbVertex
100
AcDb3dPolylineVertex
 10
132.167069510906
 20
42.11732816093718
 30
0.0
 70
    40
  0
VERTEX
  5
353
330
2A9
100
AcDbEntity
  8
HA-807
100
AcDbVertex
100
AcDb3dPolylineVertex
 10
132.1656696503051
 20
42.12565311501385
 30
0.0
 70
    40
  0
VERTEX
  5
354
330
2A9
100
AcDbEntity
  8
HA-807
100
AcDbVertex
100
AcDb3dPolylineVertex
 10
132.1639257945353
 20
42.13354709855048
 30
0.0
 70
    40
  0
VERTEX
  5
355
330
2A9
100
AcDbEntity
  8
HA-807
100
AcDbVertex
100
AcDb3dPolylineVertex
 10
132.1617883696454
 20
42.14111238700571
 30
0.0
 70
    40
  0
VERTEX
  5
356
330
2A9
100
AcDbEntity
  8
HA-807
100
AcDbVertex
100
AcDb3dPolylineVertex
 10
132.1591975241899
 20
42.14847621720401
 30
0.0
 70
    40
  0
VERTEX
  5
357
330
2A9
100
AcDbEntity
  8
HA-807
100
AcDbVertex
100
AcDb3dPolylineVertex
 10
132.156093406491
 20
42.15576582591166
 30
0.0
 70
    40
  0
VERTEX
  5
358
330
2A9
100
AcDbEntity
  8
HA-807
100
AcDbVertex
100
AcDb3dPolylineVertex
 10
132.1524161651032
 20
42.16310844995314
 30
0.0
 70
    40
  0
VERTEX
  5
359
330
2A9
100
AcDbEntity
  8
HA-807
100
AcDbVertex
100
AcDb3dPolylineVertex
 10
132.1481059485232
 20
42.17063132618205
 30
0.0
 70
    40
  0
VERTEX
  5
35A
330
2A9
100
AcDbEntity
  8
HA-807
100
AcDbVertex
100
AcDb3dPolylineVertex
 10
132.1431029052474
 20
42.17846169130644
 30
0.0
 70
    40
  0
VERTEX
  5
35B
330
2A9
100
AcDbEntity
  8
HA-807
100
AcDbVertex
100
AcDb3dPolylineVertex
 10
132.1373471837142
 20
42.1867267821799
 30
0.0
 70
    40
  0
VERTEX
  5
35C
330
2A9
100
AcDbEntity
  8
HA-807
100
AcDbVertex
100
AcDb3dPolylineVertex
 10
132.1308170196717
 20
42.19550833079848
 30
0.0
 70
    40
  0
VERTEX
  5
35D
330
2A9
100
AcDbEntity
  8
HA-807
100
AcDbVertex
100
AcDb3dPolylineVertex
 10
132.1236429983401
 20
42.20470604981529
 30
0.0
 70
    40
  0
VERTEX
  5
35E
330
2A9
100
AcDbEntity
  8
HA-807
100
AcDbVertex
100
AcDb3dPolylineVertex
 10
132.1159937921911
 20
42.21417414705502
 30
0.0
 70
    40
  0
VERTEX
  5
35F
330
2A9
100
AcDbEntity
  8
HA-807
100
AcDbVertex
100
AcDb3dPolylineVertex
 10
132.1080380736967
 20
42.22376683034236
 30
0.0
 70
    40
  0
VERTEX
  5
360
330
2A9
100
AcDbEntity
  8
HA-807
100
AcDbVertex
100
AcDb3dPolylineVertex
 10
132.0999445152702
 20
42.23333830750198
 30
0.0
 70
    40
  0
VERTEX
  5
361
330
2A9
100
AcDbEntity
  8
HA-807
100
AcDbVertex
100
AcDb3dPolylineVertex
 10
132.0918817894999
 20
42.24274278632947
 30
0.0
 70
    40
  0
VERTEX
  5
362
330
2A9
100
AcDbEntity
  8
HA-807
100
AcDbVertex
100
AcDb3dPolylineVertex
 10
132.0840185687994
 20
42.25183447464951
 30
0.0
 70
    40
  0
VERTEX
  5
363
330
2A9
100
AcDbEntity
  8
HA-807
100
AcDbVertex
100
AcDb3dPolylineVertex
 10
132.0765235256404
 20
42.2604675803741
 30
0.0
 70
    40
  0
VERTEX
  5
364
330
2A9
100
AcDbEntity
  8
HA-807
100
AcDbVertex
100
AcDb3dPolylineVertex
 10
132.0695151539985
 20
42.26853408469469
 30
0.0
 70
    40
  0
VERTEX
  5
365
330
2A9
100
AcDbEntity
  8
HA-807
100
AcDbVertex
100
AcDb3dPolylineVertex
 10
132.0629112335155
 20
42.27607706250274
 30
0.0
 70
    40
  0
VERTEX
  5
366
330
2A9
100
AcDbEntity
  8
HA-807
100
AcDbVertex
100
AcDb3dPolylineVertex
 10
132.0565793654532
 20
42.28317736226018
 30
0.0
 70
    40
  0
VERTEX
  5
367
330
2A9
100
AcDbEntity
  8
HA-807
100
AcDbVertex
100
AcDb3dPolylineVertex
 10
132.050387150899
 20
42.28991583239986
 30
0.0
 70
    40
  0
VERTEX
  5
368
330
2A9
100
AcDbEntity
  8
HA-807
100
AcDbVertex
100
AcDb3dPolylineVertex
 10
132.0442021911149
 20
42.29637332123821
 30
0.0
 70
    40
  0
VERTEX
  5
369
330
2A9
100
AcDbEntity
  8
HA-807
100
AcDbVertex
100
AcDb3dPolylineVertex
 10
132.0378920872463
 20
42.30263067717897
 30
0.0
 70
    40
  0
VERTEX
  5
36A
330
2A9
100
AcDbEntity
  8
HA-807
100
AcDbVertex
100
AcDb3dPolylineVertex
 10
132.031324440497
 20
42.30876874859678
 30
0.0
 70
    40
  0
VERTEX
  5
36B
330
2A9
100
AcDbEntity
  8
HA-807
100
AcDbVertex
100
AcDb3dPolylineVertex
 10
132.0243668519543
 20
42.31486838389537
 30
0.0
 70
    40
  0
VERTEX
  5
36C
330
2A9
100
AcDbEntity
  8
HA-807
100
AcDbVertex
100
AcDb3dPolylineVertex
 10
132.0169262192794
 20
42.32098701637005
 30
0.0
 70
    40
  0
VERTEX
  5
36D
330
2A9
100
AcDbEntity
  8
HA-807
100
AcDbVertex
100
AcDb3dPolylineVertex
 10
132.0090666259639
 20
42.32708841885324
 30
0.0
 70
    40
  0
VERTEX
  5
36E
330
2A9
100
AcDbEntity
  8
HA-807
100
AcDbVertex
100
AcDb3dPolylineVertex
 10
132.0008914518403
 20
42.3331129491271
 30
0.0
 70
    40
  0
VERTEX
  5
36F
330
2A9
100
AcDbEntity
  8
HA-807
100
AcDbVertex
100
AcDb3dPolylineVertex
 10
131.9925040769158
 20
42.33900096491561
 30
0.0
 70
    40
  0
VERTEX
  5
370
330
2A9
100
AcDbEntity
  8
HA-807
100
AcDbVertex
100
AcDb3dPolylineVertex
 10
131.9840078810812
 20
42.34469282391365
 30
0.0
 70
    40
  0
VERTEX
  5
371
330
2A9
100
AcDbEntity
  8
HA-807
100
AcDbVertex
100
AcDb3dPolylineVertex
 10
131.9755062441109
 20
42.35012888393248
 30
0.0
 70
    40
  0
VERTEX
  5
372
330
2A9
100
AcDbEntity
  8
HA-807
100
AcDbVertex
100
AcDb3dPolylineVertex
 10
131.967102546012
 20
42.3552495027252
 30
0.0
 70
    40
  0
VERTEX
  5
373
330
2A9
100
AcDbEntity
  8
HA-807
100
AcDbVertex
100
AcDb3dPolylineVertex
 10
131.9589001666754
 20
42.35999503798666
 30
0.0
 70
    40
  0
VERTEX
  5
374
330
2A9
100
AcDbEntity
  8
HA-807
100
AcDbVertex
100
AcDb3dPolylineVertex
 10
131.9509798149229
 20
42.36432131033507
 30
0.0
 70
    40
  0
VERTEX
  5
375
330
2A9
100
AcDbEntity
  8
HA-807
100
AcDbVertex
100
AcDb3dPolylineVertex
 10
131.9433315156493
 20
42.36824599147076
 30
0.0
 70
    40
  0
VERTEX
  5
376
330
2A9
100
AcDbEntity
  8
HA-807
100
AcDbVertex
100
AcDb3dPolylineVertex
 10
131.9359226223314
 20
42.37180221601739
 30
0.0
 70
    40
  0
VERTEX
  5
377
330
2A9
100
AcDbEntity
  8
HA-807
100
AcDbVertex
100
AcDb3dPolylineVertex
 10
131.9287204889697
 20
42.37502311859862
 30
0.0
 70
    40
  0
VERTEX
  5
378
330
2A9
100
AcDbEntity
  8
HA-807
100
AcDbVertex
100
AcDb3dPolylineVertex
 10
131.9216924690409
 20
42.37794183375081
 30
0.0
 70
    40
  0
VERTEX
  5
379
330
2A9
100
AcDbEntity
  8
HA-807
100
AcDbVertex
100
AcDb3dPolylineVertex
 10
131.9148059163708
 20
42.38059149606852
 30
0.0
 70
    40
  0
VERTEX
  5
37A
330
2A9
100
AcDbEntity
  8
HA-807
100
AcDbVertex
100
AcDb3dPolylineVertex
 10
131.9080281846691
 20
42.3830052401463
 30
0.0
 70
    40
  0
VERTEX
  5
37B
330
2A9
100
AcDbEntity
  8
HA-807
100
AcDbVertex
100
AcDb3dPolylineVertex
 10
131.9013266277034
 20
42.38521620057872
 30
0.0
 70
    40
  0
VERTEX
  5
37C
330
2A9
100
AcDbEntity
  8
HA-807
100
AcDbVertex
100
AcDb3dPolylineVertex
 10
131.8946619488415
 20
42.38725176858134
 30
0.0
 70
    40
  0
VERTEX
  5
37D
330
2A9
100
AcDbEntity
  8
HA-807
100
AcDbVertex
100
AcDb3dPolylineVertex
 10
131.8879682511324
 20
42.3891163621447
 30
0.0
 70
    40
  0
VERTEX
  5
37E
330
2A9
100
AcDbEntity
  8
HA-807
100
AcDbVertex
100
AcDb3dPolylineVertex
 10
131.8811729871668
 20
42.39080865585129
 30
0.0
 70
    40
  0
VERTEX
  5
37F
330
2A9
100
AcDbEntity
  8
HA-807
100
AcDbVertex
100
AcDb3dPolylineVertex
 10
131.8742036096519
 20
42.39232732434175
 30
0.0
 70
    40
  0
VERTEX
  5
380
330
2A9
100
AcDbEntity
  8
HA-807
100
AcDbVertex
100
AcDb3dPolylineVertex
 10
131.8669875713531
 20
42.39367104222765
 30
0.0
 70
    40
  0
VERTEX
  5
381
330
2A9
100
AcDbEntity
  8
HA-807
100
AcDbVertex
100
AcDb3dPolylineVertex
 10
131.8594523249194
 20
42.39483848414966
 30
0.0
 70
    40
  0
VERTEX
  5
382
330
2A9
100
AcDbEntity
  8
HA-807
100
AcDbVertex
100
AcDb3dPolylineVertex
 10
131.851525323058
 20
42.39582832463202
 30
0.0
 70
    40
  0
VERTEX
  5
383
330
2A9
100
AcDbEntity
  8
HA-807
100
AcDbVertex
100
AcDb3dPolylineVertex
 10
131.8431340184761
 20
42.39663923837361
 30
0.0
 70
    40
  0
VERTEX
  5
384
330
2A9
100
AcDbEntity
  8
HA-807
100
AcDbVertex
100
AcDb3dPolylineVertex
 10
131.8342270234716
 20
42.39727232983569
 30
0.0
 70
    40
  0
VERTEX
  5
385
330
2A9
100
AcDbEntity
  8
HA-807
100
AcDbVertex
100
AcDb3dPolylineVertex
 10
131.824837588938
 20
42.39773842302384
 30
0.0
 70
    40
  0
VERTEX
  5
386
330
2A9
100
AcDbEntity
  8
HA-807
100
AcDbVertex
100
AcDb3dPolylineVertex
 10
131.8150201252429
 20
42.39805077170604
 30
0.0
 70
    40
  0
VERTEX
  5
387
330
2A9
100
AcDbEntity
  8
HA-807
100
AcDbVertex
100
AcDb3dPolylineVertex
 10
131.804829042987
 20
42.39822262973757
 30
0.0
 70
    40
  0
VERTEX
  5
388
330
2A9
100
AcDbEntity
  8
HA-807
100
AcDbVertex
100
AcDb3dPolylineVertex
 10
131.7943187526544
 20
42.39826725100284
 30
0.0
 70
    40
  0
VERTEX
  5
389
330
2A9
100
AcDbEntity
  8
HA-807
100
AcDbVertex
100
AcDb3dPolylineVertex
 10
131.7835436646128
 20
42.3981978892698
 30
0.0
 70
    40
  0
VERTEX
  5
38A
330
2A9
100
AcDbEntity
  8
HA-807
100
AcDbVertex
100
AcDb3dPolylineVertex
 10
131.7725581894629
 20
42.39802779836464
 30
0.0
 70
    40
  0
VERTEX
  5
38B
330
2A9
100
AcDbEntity
  8
HA-807
100
AcDbVertex
100
AcDb3dPolylineVertex
 10
131.7614167375141
 20
42.39777023222996
 30
0.0
 70
    40
  0
VERTEX
  5
38C
330
2A9
100
AcDbEntity
  8
HA-807
100
AcDbVertex
100
AcDb3dPolylineVertex
 10
131.7501821832266
 20
42.39743645649287
 30
0.0
 70
    40
  0
VERTEX
  5
38D
330
2A9
100
AcDbEntity
  8
HA-807
100
AcDbVertex
100
AcDb3dPolylineVertex
 10
131.7389512563241
 20
42.39702978468267
 30
0.0
 70
    40
  0
VERTEX
  5
38E
330
2A9
100
AcDbEntity
  8
HA-807
100
AcDbVertex
100
AcDb3dPolylineVertex
 10
131.7278291503899
 20
42.39655154218781
 30
0.0
 70
    40
  0
VERTEX
  5
38F
330
2A9
100
AcDbEntity
  8
HA-807
100
AcDbVertex
100
AcDb3dPolylineVertex
 10
131.7169210590073
 20
42.39600305436761
 30
0.0
 70
    40
  0
VERTEX
  5
390
330
2A9
100
AcDbEntity
  8
HA-807
100
AcDbVertex
100
AcDb3dPolylineVertex
 10
131.7063321757596
 20
42.39538564658142
 30
0.0
 70
    40
  0
VERTEX
  5
391
330
2A9
100
AcDbEntity
  8
HA-807
100
AcDbVertex
100
AcDb3dPolylineVertex
 10
131.6961676941719
 20
42.39470064427587
 30
0.0
 70
    40
  0
VERTEX
  5
392
330
2A9
100
AcDbEntity
  8
HA-807
100
AcDbVertex
100
AcDb3dPolylineVertex
 10
131.6865328078857
 20
42.39394937278121
 30
0.0
 70
    40
  0
VERTEX
  5
393
330
2A9
100
AcDbEntity
  8
HA-807
100
AcDbVertex
100
AcDb3dPolylineVertex
 10
131.6775327104842
 20
42.39313315748586
 30
0.0
 70
    40
  0
VERTEX
  5
394
330
2A9
100
AcDbEntity
  8
HA-807
100
AcDbVertex
100
AcDb3dPolylineVertex
 10
131.669231485459
 20
42.39224625509814
 30
0.0
 70
    40
  0
VERTEX
  5
395
330
2A9
100
AcDbEntity
  8
HA-807
100
AcDbVertex
100
AcDb3dPolylineVertex
 10
131.6615287757013
 20
42.3912546474312
 30
0.0
 70
    40
  0
VERTEX
  5
396
330
2A9
100
AcDbEntity
  8
HA-807
100
AcDbVertex
100
AcDb3dPolylineVertex
 10
131.6542831138358
 20
42.39011724755983
 30
0.0
 70
    40
  0
VERTEX
  5
397
330
2A9
100
AcDbEntity
  8
HA-807
100
AcDbVertex
100
AcDb3dPolylineVertex
 10
131.6473530328367
 20
42.38879296864616
 30
0.0
 70
    40
  0
VERTEX
  5
398
330
2A9
100
AcDbEntity
  8
HA-807
100
AcDbVertex
100
AcDb3dPolylineVertex
 10
131.6405970653286
 20
42.38724072376499
 30
0.0
 70
    40
  0
VERTEX
  5
399
330
2A9
100
AcDbEntity
  8
HA-807
100
AcDbVertex
100
AcDb3dPolylineVertex
 10
131.6338737440528
 20
42.38541942607844
 30
0.0
 70
    40
  0
VERTEX
  5
39A
330
2A9
100
AcDbEntity
  8
HA-807
100
AcDbVertex
100
AcDb3dPolylineVertex
 10
131.6270416018669
 20
42.38328798866132
 30
0.0
 70
    40
  0
VERTEX
  5
39B
330
2A9
100
AcDbEntity
  8
HA-807
100
AcDbVertex
100
AcDb3dPolylineVertex
 10
131.6199591715122
 20
42.38080532467575
 30
0.0
 70
    40
  0
VERTEX
  5
39C
330
2A9
100
AcDbEntity
  8
HA-807
100
AcDbVertex
100
AcDb3dPolylineVertex
 10
131.6125281950226
 20
42.37793013054761
 30
0.0199189453125
 70
    40
  0
VERTEX
  5
39D
330
2A9
100
AcDbEntity
  8
HA-807
100
AcDbVertex
100
AcDb3dPolylineVertex
 10
131.6048232516041
 20
42.37462023631088
 30
0.1593515625
 70
    40
  0
VERTEX
  5
39E
330
2A9
100
AcDbEntity
  8
HA-807
100
AcDbVertex
100
AcDb3dPolylineVertex
 10
131.5969621298136
 20
42.3708332554379
 30
0.5378115234375
 70
    40
  0
VERTEX
  5
39F
330
2A9
100
AcDbEntity
  8
HA-807
100
AcDbVertex
100
AcDb3dPolylineVertex
 10
131.5890626182081
 20
42.36652680122643
 30
1.2748125
 70
    40
  0
VERTEX
  5
3A0
330
2A9
100
AcDbEntity
  8
HA-807
100
AcDbVertex
100
AcDb3dPolylineVertex
 10
131.5812425052281
 20
42.36165848717792
 30
2.4898681640625
 70
    40
  0
VERTEX
  5
3A1
330
2A9
100
AcDbEntity
  8
HA-807
100
AcDbVertex
100
AcDb3dPolylineVertex
 10
131.5736195794889
 20
42.35618592661922
 30
4.3024921875
 70
    40
  0
VERTEX
  5
3A2
330
2A9
100
AcDbEntity
  8
HA-807
100
AcDbVertex
100
AcDb3dPolylineVertex
 10
131.5663116294891
 20
42.35006673293537
 30
6.832198242187499
 70
    40
  0
VERTEX
  5
3A3
330
2A9
100
AcDbEntity
  8
HA-807
100
AcDbVertex
100
AcDb3dPolylineVertex
 10
131.559436443611
 20
42.34325851959875
 30
10.1985
 70
    40
  0
VERTEX
  5
3A4
330
2A9
100
AcDbEntity
  8
HA-807
100
AcDbVertex
100
AcDb3dPolylineVertex
 10
131.553082254366
 20
42.33573545012041
 30
14.4412353515625
 70
    40
  0
VERTEX
  5
3A5
330
2A9
100
AcDbEntity
  8
HA-807
100
AcDbVertex
100
AcDb3dPolylineVertex
 10
131.5472190688597
 20
42.32753788886475
 30
19.2815390625
 70
    40
  0
VERTEX
  5
3A6
330
2A9
100
AcDbEntity
  8
HA-807
100
AcDbVertex
100
AcDb3dPolylineVertex
 10
131.5417873382103
 20
42.31872275026399
 30
24.3608701171875
 70
    40
  0
VERTEX
  5
3A7
330
2A9
100
AcDbEntity
  8
HA-807
100
AcDbVertex
100
AcDb3dPolylineVertex
 10
131.5367275132448
 20
42.30934694880852
 30
29.3206875
 70
    40
  0
VERTEX
  5
3A8
330
2A9
100
AcDbEntity
  8
HA-807
100
AcDbVertex
100
AcDb3dPolylineVertex
 10
131.5319800450234
 20
42.29946739898878
 30
33.8024501953125
 70
    40
  0
VERTEX
  5
3A9
330
2A9
100
AcDbEntity
  8
HA-807
100
AcDbVertex
100
AcDb3dPolylineVertex
 10
131.5274853846058
 20
42.28914101529517
 30
37.4476171875
 70
    40
  0
VERTEX
  5
3AA
330
2A9
100
AcDbEntity
  8
HA-807
100
AcDbVertex
100
AcDb3dPolylineVertex
 10
131.5231839828775
 20
42.27842471218901
 30
39.8976474609375
 70
    40
  0
VERTEX
  5
3AB
330
2A9
100
AcDbEntity
  8
HA-807
100
AcDbVertex
100
AcDb3dPolylineVertex
 10
131.5190162908984
 20
42.2673754041607
 30
40.794
 70
    40
  0
VERTEX
  5
3AC
330
2A9
100
AcDbEntity
  8
HA-807
100
AcDbVertex
100
AcDb3dPolylineVertex
 10
131.5149353547022
 20
42.25605975085637
 30
39.8976474609375
 70
    40
  0
VERTEX
  5
3AD
330
2A9
100
AcDbEntity
  8
HA-807
100
AcDbVertex
100
AcDb3dPolylineVertex
 10
131.5109445997514
 20
42.24458339245757
 30
37.4476171875
 70
    40
  0
VERTEX
  5
3AE
330
2A9
100
AcDbEntity
  8
HA-807
100
AcDbVertex
100
AcDb3dPolylineVertex
 10
131.5070600468316
 20
42.23306171435979
 30
33.8024501953125
 70
    40
  0
VERTEX
  5
3AF
330
2A9
100
AcDbEntity
  8
HA-807
100
AcDbVertex
100
AcDb3dPolylineVertex
 10
131.5032977164956
 20
42.2216101019003
 30
29.3206875
 70
    40
  0
VERTEX
  5
3B0
330
2A9
100
AcDbEntity
  8
HA-807
100
AcDbVertex
100
AcDb3dPolylineVertex
 10
131.4996736294124
 20
42.21034394044545
 30
24.3608701171875
 70
    40
  0
VERTEX
  5
3B1
330
2A9
100
AcDbEntity
  8
HA-807
100
AcDbVertex
100
AcDb3dPolylineVertex
 10
131.4962038062513
 20
42.19937861533253
 30
19.2815390625
 70
    40
  0
VERTEX
  5
3B2
330
2A9
100
AcDbEntity
  8
HA-807
100
AcDbVertex
100
AcDb3dPolylineVertex
 10
131.4929042675067
 20
42.18882951195701
 30
14.4412353515625
 70
    40
  0
VERTEX
  5
3B3
330
2A9
100
AcDbEntity
  8
HA-807
100
AcDbVertex
100
AcDb3dPolylineVertex
 10
131.4876328927348
 20
42.17191076296149
 30
0.0
 70
    48
  0
VERTEX
  5
3B4
330
2A9
100
AcDbEntity
  8
HA-807
100
AcDbVertex
100
AcDb3dPolylineVertex
 10
131.4699893888901
 20
42.11490867362591
 30
0.0
 70
    48
  0
VERTEX
  5
3B5
330
2A9
100
AcDbEntity
  8
HA-807
100
AcDbVertex
100
AcDb3dPolylineVertex
 10
131.4672035723343
 20
42.07622868445469
 30
0.0
 70
    48
  0
VERTEX
  5
3B6
330
2A9
100
AcDbEntity
  8
HA-807
100
AcDbVertex
100
AcDb3dPolylineVertex
 10
131.4625605451292
 20
42.04908483236795
 30
0.0
 70
    48
  0
VERTEX
  5
3B7
330
2A9
100
AcDbEntity
  8
HA-807
100
AcDbVertex
100
AcDb3dPolylineVertex
 10
131.4625605451292
 20
41.98529677995248
 30
0.0
 70
    48
  0
VERTEX
  5
3B8
330
2A9
100
AcDbEntity
  8
HA-807
100
AcDbVertex
100
AcDb3dPolylineVertex
 10
131.4625605451292
 20
41.94729538698448
 30
0.0
 70
    48
  0
VERTEX
  5
3B9
330
2A9
100
AcDbEntity
  8
HA-807
100
AcDbVertex
100
AcDb3dPolylineVertex
 10
131.4969189473777
 20
41.8855431235279
 30
0.0
 70
    48
  0
VERTEX
  5
3BA
330
2A9
100
AcDbEntity
  8
HA-807
100
AcDbVertex
100
AcDb3dPolylineVertex
 10
131.5108480292256
 20
41.84754173067631
 30
0.0
 70
    48
  0
VERTEX
  5
3BB
330
2A9
100
AcDbEntity
  8
HA-807
100
AcDbVertex
100
AcDb3dPolylineVertex
 10
131.5535638806759
 20
41.81768349331105
 30
0.0
 70
    48
  0
VERTEX
  5
3BC
330
2A9
100
AcDbEntity
  8
HA-807
100
AcDbVertex
100
AcDb3dPolylineVertex
 10
131.5944225212443
 20
41.76068140397547
 30
0.0
 70
    48
  0
VERTEX
  5
3BD
330
2A9
100
AcDbEntity
  8
HA-807
100
AcDbVertex
100
AcDb3dPolylineVertex
 10
131.680782829586
 20
41.72471579996636
 30
0.0
 70
    48
  0
VERTEX
  5
3BE
330
2A9
100
AcDbEntity
  8
HA-807
100
AcDbVertex
100
AcDb3dPolylineVertex
 10
131.7467138177599
 20
41.70910808508052
 30
0.0
 70
    48
  0
VERTEX
  5
3BF
330
2A9
100
AcDbEntity
  8
HA-807
100
AcDbVertex
100
AcDb3dPolylineVertex
 10
131.8395743641886
 20
41.69282177375862
 30
0.0
 70
    48
  0
VERTEX
  5
3C0
330
2A9
100
AcDbEntity
  8
HA-807
100
AcDbVertex
100
AcDb3dPolylineVertex
 10
131.9259346725303
 20
41.69282177375862
 30
0.0
 70
    48
  0
VERTEX
  5
3C1
330
2A9
100
AcDbEntity
  8
HA-807
100
AcDbVertex
100
AcDb3dPolylineVertex
 10
131.9556500475737
 20
41.70639369980199
 30
0.0
 70
    48
  0
VERTEX
  5
3C2
330
2A9
100
AcDbEntity
  8
HA-807
100
AcDbVertex
100
AcDb3dPolylineVertex
 10
132.0670827032882
 20
41.73625193705084
 30
0.0
 70
    48
  0
VERTEX
  5
3C3
330
2A9
100
AcDbEntity
  8
HA-807
100
AcDbVertex
100
AcDb3dPolylineVertex
 10
132.0958694728906
 20
41.78375367826084
 30
0.0
 70
    48
  0
VERTEX
  5
3C4
330
2A9
100
AcDbEntity
  8
HA-807
100
AcDbVertex
100
AcDb3dPolylineVertex
 10
132.139513929782
 20
41.82921963051194
 30
0.0
 70
    48
  0
VERTEX
  5
3C5
330
2A9
100
AcDbEntity
  8
HA-807
100
AcDbVertex
100
AcDb3dPolylineVertex
 10
132.144156956987
 20
41.87468558276305
 30
0.0
 70
    48
  0
VERTEX
  5
3C6
330
2A9
100
AcDbEntity
  8
HA-807
100
AcDbVertex
100
AcDb3dPolylineVertex
 10
132.1506571953068
 20
41.95408135006437
 30
0.0
 70
    48
  0
VERTEX
  5
3C7
330
2A9
100
AcDbEntity
  8
HA-807
100
AcDbVertex
100
AcDb3dPolylineVertex
 10
132.1710865154746
 20
42.05112062121043
 30
0.0
 70
    48
  0
VERTEX
  5
3C8
330
2A9
100
AcDbEntity
  8
HA-807
100
AcDbVertex
100
AcDb3dPolylineVertex
 10
132.1692293045926
 20
42.13051638851175
 30
0.0
 70
    48
  0
VERTEX
  5
3C9
330
2A9
100
AcDbEntity
  8
HA-807
100
AcDbVertex
100
AcDb3dPolylineVertex
 10
132.1460141681018
 20
42.18073251488386
 30
0.0
 70
    48
  0
VERTEX
  5
3CA
330
2A9
100
AcDbEntity
  8
HA-807
100
AcDbVertex
100
AcDb3dPolylineVertex
 10
132.070797125285
 20
42.26691424526507
 30
0.0
 70
    48
  0
VERTEX
  5
3CB
330
2A9
100
AcDbEntity
  8
HA-807
100
AcDbVertex
100
AcDb3dPolylineVertex
 10
132.0299384847167
 20
42.31441598635865
 30
0.0
 70
    48
  0
VERTEX
  5
3CC
330
2A9
100
AcDbEntity
  8
HA-807
100
AcDbVertex
100
AcDb3dPolylineVertex
 10
131.9556500475737
 20
42.36463211273076
 30
0.0
 70
    48
  0
VERTEX
  5
3CD
330
2A9
100
AcDbEntity
  8
HA-807
100
AcDbVertex
100
AcDb3dPolylineVertex
 10
131.9008623249247
 20
42.3870257906965
 30
0.0
 70
    48
  0
VERTEX
  5
3CE
330
2A9
100
AcDbEntity
  8
HA-807
100
AcDbVertex
100
AcDb3dPolylineVertex
 10
131.8488604188315
 20
42.39856192789739
 30
0.0
 70
    48
  0
VERTEX
  5
3CF
330
2A9
100
AcDbEntity
  8
HA-807
100
AcDbVertex
100
AcDb3dPolylineVertex
 10
131.7625001104898
 20
42.39856192789739
 30
0.0
 70
    48
  0
VERTEX
  5
3D0
330
2A9
100
AcDbEntity
  8
HA-807
100
AcDbVertex
100
AcDb3dPolylineVertex
 10
131.6696395640611
 20
42.39381175377639
 30
0.0
 70
    48
  0
VERTEX
  5
3D1
330
2A9
100
AcDbEntity
  8
HA-807
100
AcDbVertex
100
AcDb3dPolylineVertex
 10
131.6241378960549
 20
42.38499000185402
 30
0.0
 70
    48
  0
VERTEX
  5
3D2
330
2A9
100
AcDbEntity
  8
HA-807
100
AcDbVertex
100
AcDb3dPolylineVertex
 10
131.5535638806759
 20
42.35106018668739
 30
0.0
 70
    48
  0
SEQEND
  5
3D3
330
2A9
100
AcDbEntity
  8
HA-807
  0
POLYLINE
  5
3D4
330
124
100
AcDbEntity
  8
HA-811
100
AcDb3dPolyline
 66
     1
 10
0.0
 20
0.0
 30
0.0
 70
     8
  0
VERTEX
  5
3D5
330
3D4
100
AcDbEntity
  8
HA-811
100
AcDbVertex
100
AcDb3dPolylineVertex
 10
129.0340375339729
 20
43.95874258389813
 30
0.0
 70
    32
  0
VERTEX
  5
3D6
330
3D4
100
AcDbEntity
  8
HA-811
100
AcDbVertex
100
AcDb3dPolylineVertex
 10
129.485332193377
 20
43.6827895247261
 30
61.151
 70
    32
  0
SEQEND
  5
3D7
330
3D4
100
AcDbEntity
  8
HA-811
  0
POLYLINE
  5
3D8
330
124
100
AcDbEntity
  8
HA-807
100
AcDb3dPolyline
 66
     1
 10
0.0
 20
0.0
 30
0.0
 70
     8
  0
VERTEX
  5
3D9
330
3D8
100
AcDbEntity
  8
HA-807
100
AcDbVertex
100
AcDb3dPolylineVertex
 10
131.5109445997514
 20
42.24458339245757
 30
37.4476171875
 70
    32
  0
VERTEX
  5
3DA
330
3D8
100
AcDbEntity
  8
HA-807
100
AcDbVertex
100
AcDb3dPolylineVertex
 10
132.1297085572733
 20
41.82353572378634
 30
0.0
 70
    32
  0
SEQEND
  5
3DB
330
3D8
100
AcDbEntity
  8
HA-807
  0
LWPOLYLINE
  5
3DC
330
124
100
AcDbEntity
  8
HA-809
100
AcDbPolyline
 90
        2
 70
     0
 43
0.0
 38
61.217
 10
129.8304586378508
 20
43.12509141193004
 10
131.4187178981956
 20
42.26769034631434
  0
POLYLINE
  5
3DD
330
124
100
AcDbEntity
  8
HA-805
100
AcDb3dPolyline
 66
     1
 10
0.0
 20
0.0
 30
0.0
 70
    13
 75
     6
  0
VERTEX
  5
3DE
330
3DD
100
AcDbEntity
  8
HA-805
100
AcDbVertex
100
AcDb3dPolylineVertex
 10
132.5341712526861
 20
41.5632098800852
 30
0.0
 70
    48
  0
VERTEX
  5
3DF
330
3DD
100
AcDbEntity
  8
HA-805
100
AcDbVertex
100
AcDb3dPolylineVertex
 10
132.4971818015911
 20
41.54613187321229
 30
0.0
 70
    40
  0
VERTEX
  5
3E0
330
3DD
100
AcDbEntity
  8
HA-805
100
AcDbVertex
100
AcDb3dPolylineVertex
 10
132.4937049721484
 20
41.54215903644217
 30
0.0
 70
    40
  0
VERTEX
  5
3E1
330
3DD
100
AcDbEntity
  8
HA-805
100
AcDbVertex
100
AcDb3dPolylineVertex
 10
132.4905799970729
 20
41.53765472097439
 30
0.0
 70
    40
  0
VERTEX
  5
3E2
330
3DD
100
AcDbEntity
  8
HA-805
100
AcDbVertex
100
AcDb3dPolylineVertex
 10
132.4877959943842
 20
41.53267061666702
 30
0.0
 70
    40
  0
VERTEX
  5
3E3
330
3DD
100
AcDbEntity
  8
HA-805
100
AcDbVertex
100
AcDb3dPolylineVertex
 10
132.485342081869
 20
41.52725841355277
 30
0.0
 70
    40
  0
VERTEX
  5
3E4
330
3DD
100
AcDbEntity
  8
HA-805
100
AcDbVertex
100
AcDb3dPolylineVertex
 10
132.4832073774887
 20
41.52146980151883
 30
0.0
 70
    40
  0
VERTEX
  5
3E5
330
3DD
100
AcDbEntity
  8
HA-805
100
AcDbVertex
100
AcDb3dPolylineVertex
 10
132.4813809991465
 20
41.5153564705688
 30
0.0
 70
    40
  0
VERTEX
  5
3E6
330
3DD
100
AcDbEntity
  8
HA-805
100
AcDbVertex
100
AcDb3dPolylineVertex
 10
132.4798520648037
 20
41.50897011064808
 30
0.0
 70
    40
  0
VERTEX
  5
3E7
330
3DD
100
AcDbEntity
  8
HA-805
100
AcDbVertex
100
AcDb3dPolylineVertex
 10
132.4786096923053
 20
41.50236241167295
 30
0.0
 70
    40
  0
VERTEX
  5
3E8
330
3DD
100
AcDbEntity
  8
HA-805
100
AcDbVertex
100
AcDb3dPolylineVertex
 10
132.4776411858038
 20
41.49558793529286
 30
0.0
 70
    40
  0
VERTEX
  5
3E9
330
3DD
100
AcDbEntity
  8
HA-805
100
AcDbVertex
100
AcDb3dPolylineVertex
 10
132.4769265948562
 20
41.48871272979886
 30
0.0
 70
    40
  0
VERTEX
  5
3EA
330
3DD
100
AcDbEntity
  8
HA-805
100
AcDbVertex
100
AcDb3dPolylineVertex
 10
132.476444155327
 20
41.48180571509874
 30
0.0
 70
    40
  0
VERTEX
  5
3EB
330
3DD
100
AcDbEntity
  8
HA-805
100
AcDbVertex
100
AcDb3dPolylineVertex
 10
132.4761721029063
 20
41.47493581110029
 30
0.0
 70
    40
  0
VERTEX
  5
3EC
330
3DD
100
AcDbEntity
  8
HA-805
100
AcDbVertex
100
AcDb3dPolylineVertex
 10
132.4760886735748
 20
41.46817193782772
 30
0.0
 70
    40
  0
VERTEX
  5
3ED
330
3DD
100
AcDbEntity
  8
HA-805
100
AcDbVertex
100
AcDb3dPolylineVertex
 10
132.4761721029063
 20
41.4615830151306
 30
0.0
 70
    40
  0
VERTEX
  5
3EE
330
3DD
100
AcDbEntity
  8
HA-805
100
AcDbVertex
100
AcDb3dPolylineVertex
 10
132.4764006269397
 20
41.45523796297493
 30
0.0
 70
    40
  0
VERTEX
  5
3EF
330
3DD
100
AcDbEntity
  8
HA-805
100
AcDbVertex
100
AcDb3dPolylineVertex
 10
132.4767524813069
 20
41.44920570132672
 30
0.0
 70
    40
  0
VERTEX
  5
3F0
330
3DD
100
AcDbEntity
  8
HA-805
100
AcDbVertex
100
AcDb3dPolylineVertex
 10
132.4772279684548
 20
41.44353792010224
 30
0.0
 70
    40
  0
VERTEX
  5
3F1
330
3DD
100
AcDbEntity
  8
HA-805
100
AcDbVertex
100
AcDb3dPolylineVertex
 10
132.4779156564036
 20
41.43821738933912
 30
0.0
 70
    40
  0
VERTEX
  5
3F2
330
3DD
100
AcDbEntity
  8
HA-805
100
AcDbVertex
100
AcDb3dPolylineVertex
 10
132.4789261799306
 20
41.43320964908344
 30
0.0
 70
    40
  0
VERTEX
  5
3F3
330
3DD
100
AcDbEntity
  8
HA-805
100
AcDbVertex
100
AcDb3dPolylineVertex
 10
132.4803701735218
 20
41.428480239294
 30
0.0
 70
    40
  0
VERTEX
  5
3F4
330
3DD
100
AcDbEntity
  8
HA-805
100
AcDbVertex
100
AcDb3dPolylineVertex
 10
132.4823582718382
 20
41.42399470004602
 30
0.0
 70
    40
  0
VERTEX
  5
3F5
330
3DD
100
AcDbEntity
  8
HA-805
100
AcDbVertex
100
AcDb3dPolylineVertex
 10
132.4850011095987
 20
41.41971857141471
 30
0.0
 70
    40
  0
VERTEX
  5
3F6
330
3DD
100
AcDbEntity
  8
HA-805
100
AcDbVertex
100
AcDb3dPolylineVertex
 10
132.4884093214059
 20
41.41561739338795
 30
0.0
 70
    40
  0
VERTEX
  5
3F7
330
3DD
100
AcDbEntity
  8
HA-805
100
AcDbVertex
100
AcDb3dPolylineVertex
 10
132.4926935418625
 20
41.41165670595365
 30
0.0
 70
    40
  0
VERTEX
  5
3F8
330
3DD
100
AcDbEntity
  8
HA-805
100
AcDbVertex
100
AcDb3dPolylineVertex
 10
132.4979118088377
 20
41.40781022241572
 30
0.0
 70
    40
  0
VERTEX
  5
3F9
330
3DD
100
AcDbEntity
  8
HA-805
100
AcDbVertex
100
AcDb3dPolylineVertex
 10
132.5039117730339
 20
41.40408434878918
 30
0.0
 70
    40
  0
VERTEX
  5
3FA
330
3DD
100
AcDbEntity
  8
HA-805
100
AcDbVertex
100
AcDb3dPolylineVertex
 10
132.5104884882458
 20
41.40049366425956
 30
0.0
 70
    40
  0
VERTEX
  5
3FB
330
3DD
100
AcDbEntity
  8
HA-805
100
AcDbVertex
100
AcDb3dPolylineVertex
 10
132.5174370083259
 20
41.39705274804146
 30
0.0
 70
    40
  0
VERTEX
  5
3FC
330
3DD
100
AcDbEntity
  8
HA-805
100
AcDbVertex
100
AcDb3dPolylineVertex
 10
132.5245523872436
 20
41.39377617934952
 30
0.0
 70
    40
  0
VERTEX
  5
3FD
330
3DD
100
AcDbEntity
  8
HA-805
100
AcDbVertex
100
AcDb3dPolylineVertex
 10
132.5316296788515
 20
41.39067853745655
 30
0.0
 70
    40
  0
VERTEX
  5
3FE
330
3DD
100
AcDbEntity
  8
HA-805
100
AcDbVertex
100
AcDb3dPolylineVertex
 10
132.5384639370022
 20
41.38777440151898
 30
0.0
 70
    40
  0
VERTEX
  5
3FF
330
3DD
100
AcDbEntity
  8
HA-805
100
AcDbVertex
100
AcDb3dPolylineVertex
 10
132.5448502155486
 20
41.38507835080964
 30
0.0
 70
    40
  0
VERTEX
  5
400
330
3DD
100
AcDbEntity
  8
HA-805
100
AcDbVertex
100
AcDb3dPolylineVertex
 10
132.5506425130297
 20
41.38261247499031
 30
0.0
 70
    40
  0
VERTEX
  5
401
330
3DD
100
AcDbEntity
  8
HA-805
100
AcDbVertex
100
AcDb3dPolylineVertex
 10
132.555930606788
 20
41.38042890580255
 30
0.0
 70
    40
  0
VERTEX
  5
402
330
3DD
100
AcDbEntity
  8
HA-805
100
AcDbVertex
100
AcDb3dPolylineVertex
 10
132.5608632187359
 20
41.37858728558058
 30
0.0
 70
    40
  0
VERTEX
  5
403
330
3DD
100
AcDbEntity
  8
HA-805
100
AcDbVertex
100
AcDb3dPolylineVertex
 10
132.5655890709022
 20
41.37714725654223
 30
0.0
 70
    40
  0
VERTEX
  5
404
330
3DD
100
AcDbEntity
  8
HA-805
100
AcDbVertex
100
AcDb3dPolylineVertex
 10
132.5702568851993
 20
41.37616846087622
 30
0.0
 70
    40
  0
VERTEX
  5
405
330
3DD
100
AcDbEntity
  8
HA-805
100
AcDbVertex
100
AcDb3dPolylineVertex
 10
132.5750153836561
 20
41.37571054088767
 30
0.0
 70
    40
  0
VERTEX
  5
406
330
3DD
100
AcDbEntity
  8
HA-805
100
AcDbVertex
100
AcDb3dPolylineVertex
 10
132.5800132882432
 20
41.37583313888172
 30
0.0
 70
    40
  0
VERTEX
  5
407
330
3DD
100
AcDbEntity
  8
HA-805
100
AcDbVertex
100
AcDb3dPolylineVertex
 10
132.585399320873
 20
41.37659589698887
 30
0.0
 70
    40
  0
VERTEX
  5
408
330
3DD
100
AcDbEntity
  8
HA-805
100
AcDbVertex
100
AcDb3dPolylineVertex
 10
132.5912705135997
 20
41.37804409925593
 30
0.0
 70
    40
  0
VERTEX
  5
409
330
3DD
100
AcDbEntity
  8
HA-805
100
AcDbVertex
100
AcDb3dPolylineVertex
 10
132.5975171385799
 20
41.38016559628886
 30
0.0
 70
    40
  0
VERTEX
  5
40A
330
3DD
100
AcDbEntity
  8
HA-805
100
AcDbVertex
100
AcDb3dPolylineVertex
 10
132.6039777781116
 20
41.3829338804062
 30
0.0
 70
    40
  0
VERTEX
  5
40B
330
3DD
100
AcDbEntity
  8
HA-805
100
AcDbVertex
100
AcDb3dPolylineVertex
 10
132.610491014435
 20
41.38632244401379
 30
0.0
 70
    40
  0
VERTEX
  5
40C
330
3DD
100
AcDbEntity
  8
HA-805
100
AcDbVertex
100
AcDb3dPolylineVertex
 10
132.6168954298482
 20
41.39030477934284
 30
0.0
 70
    40
  0
VERTEX
  5
40D
330
3DD
100
AcDbEntity
  8
HA-805
100
AcDbVertex
100
AcDb3dPolylineVertex
 10
132.623029606475
 20
41.394854378741
 30
0.0
 70
    40
  0
VERTEX
  5
40E
330
3DD
100
AcDbEntity
  8
HA-805
100
AcDbVertex
100
AcDb3dPolylineVertex
 10
132.62873212673
 20
41.39994473461411
 30
0.0
 70
    40
  0
VERTEX
  5
40F
330
3DD
100
AcDbEntity
  8
HA-805
100
AcDbVertex
100
AcDb3dPolylineVertex
 10
132.6338415727951
 20
41.4055493392807
 30
0.0
 70
    40
  0
VERTEX
  5
410
330
3DD
100
AcDbEntity
  8
HA-805
100
AcDbVertex
100
AcDb3dPolylineVertex
 10
132.63823461422
 20
41.41163704617065
 30
0.0
 70
    40
  0
VERTEX
  5
411
330
3DD
100
AcDbEntity
  8
HA-805
100
AcDbVertex
100
AcDb3dPolylineVertex
 10
132.6419402699103
 20
41.41815815339214
 30
0.0
 70
    40
  0
VERTEX
  5
412
330
3DD
100
AcDbEntity
  8
HA-805
100
AcDbVertex
100
AcDb3dPolylineVertex
 10
132.6450256461976
 20
41.4250583203102
 30
0.0
 70
    40
  0
VERTEX
  5
413
330
3DD
100
AcDbEntity
  8
HA-805
100
AcDbVertex
100
AcDb3dPolylineVertex
 10
132.6475578493555
 20
41.43228320611524
 30
0.0
 70
    40
  0
VERTEX
  5
414
330
3DD
100
AcDbEntity
  8
HA-805
100
AcDbVertex
100
AcDb3dPolylineVertex
 10
132.649603985541
 20
41.43977847017231
 30
0.0
 70
    40
  0
VERTEX
  5
415
330
3DD
100
AcDbEntity
  8
HA-805
100
AcDbVertex
100
AcDb3dPolylineVertex
 10
132.6512311610859
 20
41.44748977170093
 30
0.0
 70
    40
  0
VERTEX
  5
416
330
3DD
100
AcDbEntity
  8
HA-805
100
AcDbVertex
100
AcDb3dPolylineVertex
 10
132.6525064821471
 20
41.45536277003703
 30
0.0
 70
    40
  0
VERTEX
  5
417
330
3DD
100
AcDbEntity
  8
HA-805
100
AcDbVertex
100
AcDb3dPolylineVertex
 10
132.6534970550565
 20
41.46334312434192
 30
0.0
 70
    40
  0
VERTEX
  5
418
330
3DD
100
AcDbEntity
  8
HA-805
100
AcDbVertex
100
AcDb3dPolylineVertex
 10
132.6542521515512
 20
41.47137538954848
 30
0.0
 70
    40
  0
VERTEX
  5
419
330
3DD
100
AcDbEntity
  8
HA-805
100
AcDbVertex
100
AcDb3dPolylineVertex
 10
132.654749705107
 20
41.47939970248262
 30
0.0
 70
    40
  0
VERTEX
  5
41A
330
3DD
100
AcDbEntity
  8
HA-805
100
AcDbVertex
100
AcDb3dPolylineVertex
 10
132.6549498147797
 20
41.48735509547987
 30
0.0
 70
    40
  0
VERTEX
  5
41B
330
3DD
100
AcDbEntity
  8
HA-805
100
AcDbVertex
100
AcDb3dPolylineVertex
 10
132.6548125795089
 20
41.49518060084665
 30
0.0
 70
    40
  0
VERTEX
  5
41C
330
3DD
100
AcDbEntity
  8
HA-805
100
AcDbVertex
100
AcDb3dPolylineVertex
 10
132.6542980981758
 20
41.50281525106402
 30
0.0
 70
    40
  0
VERTEX
  5
41D
330
3DD
100
AcDbEntity
  8
HA-805
100
AcDbVertex
100
AcDb3dPolylineVertex
 10
132.6533664698945
 20
41.5101980783802
 30
0.0
 70
    40
  0
VERTEX
  5
41E
330
3DD
100
AcDbEntity
  8
HA-805
100
AcDbVertex
100
AcDb3dPolylineVertex
 10
132.6519777936046
 20
41.51726811524713
 30
0.0
 70
    40
  0
VERTEX
  5
41F
330
3DD
100
AcDbEntity
  8
HA-805
100
AcDbVertex
100
AcDb3dPolylineVertex
 10
132.6500921683037
 20
41.52396439397126
 30
0.0
 70
    40
  0
VERTEX
  5
420
330
3DD
100
AcDbEntity
  8
HA-805
100
AcDbVertex
100
AcDb3dPolylineVertex
 10
132.6476851092884
 20
41.53023610825767
 30
0.0
 70
    40
  0
VERTEX
  5
421
330
3DD
100
AcDbEntity
  8
HA-805
100
AcDbVertex
100
AcDb3dPolylineVertex
 10
132.6447937970515
 20
41.5360730967368
 30
0.0
 70
    40
  0
VERTEX
  5
422
330
3DD
100
AcDbEntity
  8
HA-805
100
AcDbVertex
100
AcDb3dPolylineVertex
 10
132.6414708283264
 20
41.54147535949596
 30
0.0
 70
    40
  0
VERTEX
  5
423
330
3DD
100
AcDbEntity
  8
HA-805
100
AcDbVertex
100
AcDb3dPolylineVertex
 10
132.6377687999629
 20
41.54644289644784
 30
0.0
 70
    40
  0
VERTEX
  5
424
330
3DD
100
AcDbEntity
  8
HA-805
100
AcDbVertex
100
AcDb3dPolylineVertex
 10
132.6337403086945
 20
41.55097570767975
 30
0.0
 70
    40
  0
VERTEX
  5
425
330
3DD
100
AcDbEntity
  8
HA-805
100
AcDbVertex
100
AcDb3dPolylineVertex
 10
132.6294379514293
 20
41.5550737931917
 30
0.0
 70
    40
  0
VERTEX
  5
426
330
3DD
100
AcDbEntity
  8
HA-805
100
AcDbVertex
100
AcDb3dPolylineVertex
 10
132.6249143248424
 20
41.55873715289636
 30
0.0
 70
    40
  0
VERTEX
  5
427
330
3DD
100
AcDbEntity
  8
HA-805
100
AcDbVertex
100
AcDb3dPolylineVertex
 10
132.6202220258419
 20
41.56196578688105
 30
0.0
 70
    40
  0
VERTEX
  5
428
330
3DD
100
AcDbEntity
  8
HA-805
100
AcDbVertex
100
AcDb3dPolylineVertex
 10
132.615406094119
 20
41.56476102044689
 30
0.0
 70
    40
  0
VERTEX
  5
429
330
3DD
100
AcDbEntity
  8
HA-805
100
AcDbVertex
100
AcDb3dPolylineVertex
 10
132.6104813414277
 20
41.5671294805943
 30
0.0
 70
    40
  0
VERTEX
  5
42A
330
3DD
100
AcDbEntity
  8
HA-805
100
AcDbVertex
100
AcDb3dPolylineVertex
 10
132.6054550225381
 20
41.5690791195666
 30
0.0
 70
    40
  0
VERTEX
  5
42B
330
3DD
100
AcDbEntity
  8
HA-805
100
AcDbVertex
100
AcDb3dPolylineVertex
 10
132.6003343920456
 20
41.57061788972351
 30
0.0
 70
    40
  0
VERTEX
  5
42C
330
3DD
100
AcDbEntity
  8
HA-805
100
AcDbVertex
100
AcDb3dPolylineVertex
 10
132.5951267048949
 20
41.57175374330836
 30
0.0
 70
    40
  0
VERTEX
  5
42D
330
3DD
100
AcDbEntity
  8
HA-805
100
AcDbVertex
100
AcDb3dPolylineVertex
 10
132.5898392156814
 20
41.57249463262269
 30
0.0
 70
    40
  0
VERTEX
  5
42E
330
3DD
100
AcDbEntity
  8
HA-805
100
AcDbVertex
100
AcDb3dPolylineVertex
 10
132.5844791792333
 20
41.57284850996803
 30
0.0
 70
    40
  0
VERTEX
  5
42F
330
3DD
100
AcDbEntity
  8
HA-805
100
AcDbVertex
100
AcDb3dPolylineVertex
 10
132.579053850146
 20
41.572823327675
 30
0.0
 70
    40
  0
VERTEX
  5
430
330
3DD
100
AcDbEntity
  8
HA-805
100
AcDbVertex
100
AcDb3dPolylineVertex
 10
132.5735719946679
 20
41.57243432765245
 30
0.0
 70
    40
  0
VERTEX
  5
431
330
3DD
100
AcDbEntity
  8
HA-805
100
AcDbVertex
100
AcDb3dPolylineVertex
 10
132.5680484244367
 20
41.57172591023846
 30
0.0
 70
    40
  0
VERTEX
  5
432
330
3DD
100
AcDbEntity
  8
HA-805
100
AcDbVertex
100
AcDb3dPolylineVertex
 10
132.5624994626851
 20
41.57074976534932
 30
0.0
 70
    40
  0
VERTEX
  5
433
330
3DD
100
AcDbEntity
  8
HA-805
100
AcDbVertex
100
AcDb3dPolylineVertex
 10
132.5569414324709
 20
41.56955758298864
 30
0.0
 70
    40
  0
VERTEX
  5
434
330
3DD
100
AcDbEntity
  8
HA-805
100
AcDbVertex
100
AcDb3dPolylineVertex
 10
132.5513906570268
 20
41.56820105304359
 30
0.0
 70
    40
  0
VERTEX
  5
435
330
3DD
100
AcDbEntity
  8
HA-805
100
AcDbVertex
100
AcDb3dPolylineVertex
 10
132.5458634594688
 20
41.566731865576
 30
0.0
 70
    40
  0
VERTEX
  5
436
330
3DD
100
AcDbEntity
  8
HA-805
100
AcDbVertex
100
AcDb3dPolylineVertex
 10
132.5403761629132
 20
41.56520171041484
 30
0.0
 70
    40
  0
VERTEX
  5
437
330
3DD
100
AcDbEntity
  8
HA-805
100
AcDbVertex
100
AcDb3dPolylineVertex
 10
132.5349450905924
 20
41.56366227762192
 30
0.0
 70
    40
  0
VERTEX
  5
438
330
3DD
100
AcDbEntity
  8
HA-805
100
AcDbVertex
100
AcDb3dPolylineVertex
 10
132.5295898905606
 20
41.56214360913145
 30
0.0
 70
    40
  0
VERTEX
  5
439
330
3DD
100
AcDbEntity
  8
HA-805
100
AcDbVertex
100
AcDb3dPolylineVertex
 10
132.5243435115553
 20
41.56058915532776
 30
0.0
 70
    40
  0
VERTEX
  5
43A
330
3DD
100
AcDbEntity
  8
HA-805
100
AcDbVertex
100
AcDb3dPolylineVertex
 10
132.5192422270775
 20
41.55892071852577
 30
0.0
 70
    40
  0
VERTEX
  5
43B
330
3DD
100
AcDbEntity
  8
HA-805
100
AcDbVertex
100
AcDb3dPolylineVertex
 10
132.5143223108025
 20
41.55706010112772
 30
0.0
 70
    40
  0
VERTEX
  5
43C
330
3DD
100
AcDbEntity
  8
HA-805
100
AcDbVertex
100
AcDb3dPolylineVertex
 10
132.5096200365224
 20
41.55492910550674
 30
0.0
 70
    40
  0
VERTEX
  5
43D
330
3DD
100
AcDbEntity
  8
HA-805
100
AcDbVertex
100
AcDb3dPolylineVertex
 10
132.5051716777962
 20
41.55244953409419
 30
0.0
 70
    40
  0
VERTEX
  5
43E
330
3DD
100
AcDbEntity
  8
HA-805
100
AcDbVertex
100
AcDb3dPolylineVertex
 10
132.5010135082994
 20
41.54954318917589
 30
0.0
 70
    40
  0
VERTEX
  5
43F
330
3DD
100
AcDbEntity
  8
HA-805
100
AcDbVertex
100
AcDb3dPolylineVertex
 10
132.4933126121177
 20
41.55235233932035
 30
0.0
 70
    48
  0
VERTEX
  5
440
330
3DD
100
AcDbEntity
  8
HA-805
100
AcDbVertex
100
AcDb3dPolylineVertex
 10
132.475669108273
 20
41.50417200179072
 30
0.0
 70
    48
  0
VERTEX
  5
441
330
3DD
100
AcDbEntity
  8
HA-805
100
AcDbVertex
100
AcDb3dPolylineVertex
 10
132.475669108273
 20
41.44513412349625
 30
0.0
 70
    48
  0
VERTEX
  5
442
330
3DD
100
AcDbEntity
  8
HA-805
100
AcDbVertex
100
AcDb3dPolylineVertex
 10
132.4821693465929
 20
41.4105257121264
 30
0.0
 70
    48
  0
VERTEX
  5
443
330
3DD
100
AcDbEntity
  8
HA-805
100
AcDbVertex
100
AcDb3dPolylineVertex
 10
132.5518147565308
 20
41.38270326372003
 30
0.0
 70
    48
  0
VERTEX
  5
444
330
3DD
100
AcDbEntity
  8
HA-805
100
AcDbVertex
100
AcDb3dPolylineVertex
 10
132.5796729204594
 20
41.36913133767666
 30
0.0
 70
    48
  0
VERTEX
  5
445
330
3DD
100
AcDbEntity
  8
HA-805
100
AcDbVertex
100
AcDb3dPolylineVertex
 10
132.6418894868693
 20
41.40034676756477
 30
0.0
 70
    48
  0
VERTEX
  5
446
330
3DD
100
AcDbEntity
  8
HA-805
100
AcDbVertex
100
AcDb3dPolylineVertex
 10
132.6558185687172
 20
41.4627776274574
 30
0.0
 70
    48
  0
VERTEX
  5
447
330
3DD
100
AcDbEntity
  8
HA-805
100
AcDbVertex
100
AcDb3dPolylineVertex
 10
132.6558185687172
 20
41.52860146871535
 30
0.0
 70
    48
  0
VERTEX
  5
448
330
3DD
100
AcDbEntity
  8
HA-805
100
AcDbVertex
100
AcDb3dPolylineVertex
 10
132.6214601664688
 20
41.56660286156693
 30
0.0
 70
    48
  0
VERTEX
  5
449
330
3DD
100
AcDbEntity
  8
HA-805
100
AcDbVertex
100
AcDb3dPolylineVertex
 10
132.5796729204594
 20
41.57678180612857
 30
0.0
 70
    48
  0
SEQEND
  5
44A
330
3DD
100
AcDbEntity
  8
HA-805
  0
LWPOLYLINE
  5
44B
330
124
100
AcDbEntity
  8
HA-805
100
AcDbPolyline
 90
        2
 70
     0
 43
0.0
 10
132.4865690381266
 20
41.52996451512445
 10
132.6419402699103
 20
41.41815815339214
  0
LWPOLYLINE
  5
44C
330
124
100
AcDbEntity
  8
TR-6
100
AcDbPolyline
 90
        4
 70
     1
 43
0.0
 38
60.633
 10
28.37307475227863
 20
86.80018915180699
 10
32.39271515863948
 20
86.57863565749722
 10
32.28573532763403
 20
84.88200508017326
 10
28.26609492133139
 20
85.10355857457034
  0
ENDBLK
  5
44E
330
124
100
AcDbEntity
  8
0
100
AcDbBlockEnd
  0
ENDSEC
  0
SECTION
  2
ENTITIES
  0
LWPOLYLINE
  5
450
330
1F
100
AcDbEntity
  8
HA-PHASE 1 BOUNDARY
 62
     1
100
AcDbPolyline
 90
       53
 70
     0
 43
1.0
 10
396428.583527725
 20
229647.2792825807
 10
396424.6626597249
 20
229655.9256755807
 10
396420.747589725
 20
229664.7585605807
 10
396420.747589725
 20
229664.7585605807
 10
396414.531479725
 20
229678.6906440807
 10
396401.924835725
 20
229706.9670265807
 10
396396.524277225
 20
229719.0015875807
 10
396387.067230725
 20
229740.2468115807
 10
396375.7585068955
 20
229765.514073418
 10
396371.3310894666
 20
229775.8173008011
 10
396367.0707893888
 20
229783.6350293389
 10
396355.1865548769
 20
229807.8771436216
 10
396342.9398990042
 20
229834.3241435845
 10
396337.387512725
 20
229846.2180035807
 10
396314.7831160783
 20
229839.4870645365
 10
396276.2025941398
 20
229828.0082418448
 10
396271.5855622046
 20
229827.4675305289
 10
396271.2971043868
 20
229818.4565697406
 10
396268.4984377091
 20
229786.3676564193
 10
396266.9252900442
 20
229754.755499312
 10
396258.6948545573
 20
229734.6776224673
 10
396249.6456995444
 20
229714.2249597808
 10
396248.1197747569
 20
229709.5334281811
 10
396265.4001482796
 20
229708.8317111116
 10
396264.2204782622
 20
229695.2670980039
 10
396272.6487290913
 20
229694.6416312922
 10
396273.5898104559
 20
229703.7649618152
 10
396284.9414248234
 20
229703.1685452377
 10
396286.3995918581
 20
229724.9542110181
 10
396296.4684273858
 20
229724.4405550624
 10
396296.2629408943
 20
229718.9958005243
 10
396302.7873673015
 20
229717.3507094804
 10
396312.4157137514
 20
229759.2878140146
 10
396336.6746179604
 20
229753.1485714724
 10
396346.1265898076
 20
229762.9086567058
 10
396362.8247130692
 20
229774.4004493133
 10
396371.3310894666
 20
229775.8173008011
 10
396375.7585068955
 20
229765.514073418
 10
396368.338410726
 20
229761.8066611042
 10
396361.8796865696
 20
229747.6385934641
 10
396356.5361050618
 20
229724.7534007137
 10
396350.8653771137
 20
229700.352964011
 10
396334.2537343024
 20
229704.39957773
 10
396333.6955940278
 20
229701.9831482513
 10
396326.5655084809
 20
229703.9657564096
 10
396323.3412669557
 20
229694.9816299298
 10
396334.749858991
 20
229688.8477542493
 10
396352.0038467259
 20
229678.6520587415
 10
396389.1972677575
 20
229658.2056573936
 10
396412.4570951854
 20
229645.0805498766
 10
396431.1334587476
 20
229634.1276796312
 10
396432.170868725
 20
229639.2769635807
 10
396428.583527725
 20
229647.2792825807
  0
POLYLINE
  5
451
330
1F
100
AcDbEntity
  8
HA-304
100
AcDb3dPolyline
 66
     1
 10
0.0
 20
0.0
 30
0.0
 70
     8
  0
VERTEX
  5
452
330
451
100
AcDbEntity
  8
HA-304
100
AcDbVertex
100
AcDb3dPolylineVertex
 10
396304.9277021711
 20
229819.5790701706
 30
58.864
 70
    32
  0
VERTEX
  5
453
330
451
100
AcDbEntity
  8
HA-304
100
AcDbVertex
100
AcDb3dPolylineVertex
 10
396306.8806398662
 20
229819.7581461795
 30
58.864
 70
    32
  0
VERTEX
  5
454
330
451
100
AcDbEntity
  8
HA-304
100
AcDbVertex
100
AcDb3dPolylineVertex
 10
396307.2161237521
 20
229819.7756053868
 30
58.864
 70
    32
  0
SEQEND
  5
455
330
451
100
AcDbEntity
  8
HA-304
  0
POLYLINE
  5
456
330
1F
100
AcDbEntity
  8
HA-304
100
AcDb3dPolyline
 66
     1
 10
0.0
 20
0.0
 30
0.0
 70
     8
  0
VERTEX
  5
457
330
456
100
AcDbEntity
  8
HA-304
100
AcDbVertex
100
AcDb3dPolylineVertex
 10
396307.5821252078
 20
229820.2552251051
 30
58.864
 70
    32
  0
VERTEX
  5
458
330
456
100
AcDbEntity
  8
HA-304
100
AcDbVertex
100
AcDb3dPolylineVertex
 10
396305.2868107554
 20
229820.0496572552
 30
58.864
 70
    32
  0
SEQEND
  5
459
330
456
100
AcDbEntity
  8
HA-304
  0
POLYLINE
  5
45A
330
1F
100
AcDbEntity
  8
HA-302
100
AcDb3dPolyline
 66
     1
 10
0.0
 20
0.0
 30
0.0
 70
     8
  0
VERTEX
  5
45B
330
45A
100
AcDbEntity
  8
HA-302
100
AcDbVertex
100
AcDb3dPolylineVertex
 10
396303.5161139974
 20
229817.7292810192
 30
58.864
 70
    32
  0
VERTEX
  5
45C
330
45A
100
AcDbEntity
  8
HA-302
100
AcDbVertex
100
AcDb3dPolylineVertex
 10
396304.1039569903
 20
229816.4070377097
 30
58.86399999999999
 70
    32
  0
VERTEX
  5
45D
330
45A
100
AcDbEntity
  8
HA-302
100
AcDbVertex
100
AcDb3dPolylineVertex
 10
396304.2959406739
 20
229815.9489064396
 30
58.864
 70
    32
  0
SEQEND
  5
45E
330
45A
100
AcDbEntity
  8
HA-302
  0
POLYLINE
  5
45F
330
1F
100
AcDbEntity
  8
HA-302
100
AcDb3dPolyline
 66
     1
 10
0.0
 20
0.0
 30
0.0
 70
     8
  0
VERTEX
  5
460
330
45F
100
AcDbEntity
  8
HA-302
100
AcDbVertex
100
AcDb3dPolylineVertex
 10
396304.8150182732
 20
229816.6291219089
 30
58.864
 70
    32
  0
VERTEX
  5
461
330
45F
100
AcDbEntity
  8
HA-302
100
AcDbVertex
100
AcDb3dPolylineVertex
 10
396303.9786008215
 20
229818.3353381721
 30
58.864
 70
    32
  0
SEQEND
  5
462
330
45F
100
AcDbEntity
  8
HA-302
  0
LWPOLYLINE
  5
463
330
1F
100
AcDbEntity
  8
TR-2
100
AcDbPolyline
 90
        4
 70
     1
 43
0.0
 38
58.864
 10
396290.8510799656
 20
229801.1326255699
 10
396309.050521638
 20
229824.9817413358
 10
396310.4019715314
 20
229823.950439641
 10
396292.2025298589
 20
229800.1013238751
  0
LWPOLYLINE
  5
464
330
1F
100
AcDbEntity
  8
TR-1
100
AcDbPolyline
 90
        4
 70
     1
 43
0.0
 38
58.843
 10
396334.1463627222
 20
229798.2351000927
 10
396346.708890166
 20
229805.5413994419
 10
396347.5631098341
 20
229804.0716005581
 10
396335.0005823902
 20
229796.765301209
  0
LWPOLYLINE
  5
465
330
1F
100
AcDbEntity
  8
HA-SONDAGE
100
AcDbPolyline
 90
        2
 70
     0
 43
0.0
 38
58.843
 10
396344.0304271673
 20
229803.9836195643
 10
396344.90884954
 20
229802.5278968452
  0
LWPOLYLINE
  5
466
330
1F
100
AcDbEntity
  8
HA-SONDAGE
100
AcDbPolyline
 90
        3
 70
     1
 43
0.0
 38
58.843
 10
396344.0589406376
 20
229803.9363670035
 10
396344.12
 20
229803.941
 10
396344.0855746593
 20
229803.8922290676
  0
LWPOLYLINE
  5
467
330
1F
100
AcDbEntity
  8
HA-SONDAGE
100
AcDbPolyline
 90
        3
 70
     1
 43
0.0
 38
58.843
 10
396344.1996449805
 20
229803.7031915801
 10
396344.2607043429
 20
229803.7078245766
 10
396344.2262790022
 20
229803.6590536442
  0
LWPOLYLINE
  5
468
330
1F
100
AcDbEntity
  8
HA-SONDAGE
100
AcDbPolyline
 90
        3
 70
     1
 43
0.0
 38
60.12900000000001
 10
396344.3403493235
 20
229803.4700161567
 10
396344.4014086858
 20
229803.4746491532
 10
396344.3669833451
 20
229803.4258782208
  0
LWPOLYLINE
  5
469
330
1F
100
AcDbEntity
  8
HA-SONDAGE
100
AcDbPolyline
 90
        3
 70
     1
 43
0.0
 38
61.41500000000002
 10
396344.4810536664
 20
229803.2368407333
 10
396344.5421130288
 20
229803.2414737298
 10
396344.507687688
 20
229803.1927027974
  0
LWPOLYLINE
  5
46A
330
1F
100
AcDbEntity
  8
HA-SONDAGE
100
AcDbPolyline
 90
        3
 70
     1
 43
0.0
 38
62.70100000000003
 10
396344.6217580093
 20
229803.0036653099
 10
396344.6828173717
 20
229803.0082983064
 10
396344.648392031
 20
229802.959527374
  0
LWPOLYLINE
  5
46B
330
1F
100
AcDbEntity
  8
HA-SONDAGE
100
AcDbPolyline
 90
        3
 70
     1
 43
0.0
 38
63.98700000000004
 10
396344.7624623522
 20
229802.7704898865
 10
396344.8235217146
 20
229802.775122883
 10
396344.7890963739
 20
229802.7263519506
  0
POLYLINE
  5
46C
330
1F
100
AcDbEntity
  8
HA-201
100
AcDb3dPolyline
 66
     1
 10
0.0
 20
0.0
 30
0.0
 70
     8
  0
VERTEX
  5
46D
330
46C
100
AcDbEntity
  8
HA-201
100
AcDbVertex
100
AcDb3dPolylineVertex
 10
396314.5053185846
 20
229779.6764881193
 30
59.901
 70
    32
  0
VERTEX
  5
46E
330
46C
100
AcDbEntity
  8
HA-201
100
AcDbVertex
100
AcDb3dPolylineVertex
 10
396314.5258557814
 20
229779.5604350386
 30
59.402
 70
    32
  0
VERTEX
  5
46F
330
46C
100
AcDbEntity
  8
HA-201
100
AcDbVertex
100
AcDb3dPolylineVertex
 10
396314.6508557814
 20
229779.1564350386
 30
59.4
 70
    32
  0
VERTEX
  5
470
330
46C
100
AcDbEntity
  8
HA-201
100
AcDbVertex
100
AcDb3dPolylineVertex
 10
396314.7238557814
 20
229778.6884350386
 30
59.409
 70
    32
  0
VERTEX
  5
471
330
46C
100
AcDbEntity
  8
HA-201
100
AcDbVertex
100
AcDb3dPolylineVertex
 10
396314.8025932071
 20
229778.1825554726
 30
59.901
 70
    32
  0
VERTEX
  5
472
330
46C
100
AcDbEntity
  8
HA-201
100
AcDbVertex
100
AcDb3dPolylineVertex
 10
396314.83477001
 20
229778.005454119
 30
59.901
 70
    32
  0
SEQEND
  5
473
330
46C
100
AcDbEntity
  8
HA-201
  0
POLYLINE
  5
474
330
1F
100
AcDbEntity
  8
HA-201
100
AcDb3dPolyline
 66
     1
 10
0.0
 20
0.0
 30
0.0
 70
     8
  0
VERTEX
  5
475
330
474
100
AcDbEntity
  8
HA-201
100
AcDbVertex
100
AcDb3dPolylineVertex
 10
396315.7812350988
 20
229778.1324102532
 30
59.901
 70
    32
  0
VERTEX
  5
476
330
474
100
AcDbEntity
  8
HA-201
100
AcDbVertex
100
AcDb3dPolylineVertex
 10
396315.595
 20
229778.86
 30
59.417
 70
    32
  0
VERTEX
  5
477
330
474
100
AcDbEntity
  8
HA-201
100
AcDbVertex
100
AcDb3dPolylineVertex
 10
396315.503
 20
229779.393
 30
59.396
 70
    32
  0
VERTEX
  5
478
330
474
100
AcDbEntity
  8
HA-201
100
AcDbVertex
100
AcDb3dPolylineVertex
 10
396315.4125609797
 20
229779.7981830329
 30
59.90099999996373
 70
    32
  0
SEQEND
  5
479
330
474
100
AcDbEntity
  8
HA-201
  0
LWPOLYLINE
  5
47A
330
1F
100
AcDbEntity
  8
TR-3
100
AcDbPolyline
 90
        4
 70
     1
 43
0.0
 38
59.901
 10
396308.5306106099
 20
229778.8750577908
 10
396338.2643072774
 20
229782.8634512634
 10
396338.4903162408
 20
229781.1785417856
 10
396308.7566195735
 20
229777.1901483131
  0
POINT
  5
47B
330
1F
100
AcDbEntity
  8
wall
100
AcDbPoint
 10
396287.578
 20
229742.755
 30
59.843
  0
POINT
  5
47C
330
1F
100
AcDbEntity
  8
wall
100
AcDbPoint
 10
396287.381
 20
229743.042
 30
59.86600000000001
  0
POLYLINE
  5
47D
330
1F
100
AcDbEntity
  8
HA-402
100
AcDb3dPolyline
 66
     1
 10
0.0
 20
0.0
 30
0.0
 70
     9
  0
VERTEX
  5
47E
330
47D
100
AcDbEntity
  8
HA-402
100
AcDbVertex
100
AcDb3dPolylineVertex
 10
396286.4506359176
 20
229745.2354743283
 30
59.902
 70
    32
  0
VERTEX
  5
47F
330
47D
100
AcDbEntity
  8
HA-402
100
AcDbVertex
100
AcDb3dPolylineVertex
 10
396286.5429999999
 20
229745.151
 30
59.86
 70
    32
  0
VERTEX
  5
480
330
47D
100
AcDbEntity
  8
HA-402
100
AcDbVertex
100
AcDb3dPolylineVertex
 10
396286.72
 20
229745.135
 30
59.89
 70
    32
  0
VERTEX
  5
481
330
47D
100
AcDbEntity
  8
HA-402
100
AcDbVertex
100
AcDb3dPolylineVertex
 10
396286.804
 20
229745.236
 30
59.9
 70
    32
  0
VERTEX
  5
482
330
47D
100
AcDbEntity
  8
HA-402
100
AcDbVertex
100
AcDb3dPolylineVertex
 10
396286.745
 20
229745.301
 30
59.867
 70
    32
  0
VERTEX
  5
483
330
47D
100
AcDbEntity
  8
HA-402
100
AcDbVertex
100
AcDb3dPolylineVertex
 10
396286.63
 20
229745.329
 30
59.885
 70
    32
  0
VERTEX
  5
484
330
47D
100
AcDbEntity
  8
HA-402
100
AcDbVertex
100
AcDb3dPolylineVertex
 10
396286.4952089799
 20
229745.3209774623
 30
59.89100000000001
 70
    32
  0
SEQEND
  5
485
330
47D
100
AcDbEntity
  8
HA-402
  0
POLYLINE
  5
486
330
1F
100
AcDbEntity
  8
HA-404
100
AcDb3dPolyline
 66
     1
 10
0.0
 20
0.0
 30
0.0
 70
     9
  0
VERTEX
  5
487
330
486
100
AcDbEntity
  8
HA-404
100
AcDbVertex
100
AcDb3dPolylineVertex
 10
396284.6983865651
 20
229747.1981650421
 30
59.941
 70
    32
  0
VERTEX
  5
488
330
486
100
AcDbEntity
  8
HA-404
100
AcDbVertex
100
AcDb3dPolylineVertex
 10
396286.2954705494
 20
229747.8402248524
 30
59.941
 70
    32
  0
VERTEX
  5
489
330
486
100
AcDbEntity
  8
HA-404
100
AcDbVertex
100
AcDb3dPolylineVertex
 10
396285.87
 20
229748.547
 30
59.794
 70
    32
  0
VERTEX
  5
48A
330
486
100
AcDbEntity
  8
HA-404
100
AcDbVertex
100
AcDb3dPolylineVertex
 10
396284.3416951595
 20
229747.7935218346
 30
59.941
 70
    32
  0
SEQEND
  5
48B
330
486
100
AcDbEntity
  8
HA-404
  0
LWPOLYLINE
  5
48C
330
1F
100
AcDbEntity
  8
TR-4
100
AcDbPolyline
 90
        4
 70
     1
 43
0.0
 38
59.941
 10
396279.9687945262
 20
229758.4001359821
 10
396295.3870516166
 20
229732.6653861622
 10
396293.9287491267
 20
229731.791684927
 10
396278.5104920365
 20
229757.5264347471
  0
POLYLINE
  5
48D
330
1F
100
AcDbEntity
  8
HA-406
100
AcDb3dPolyline
 66
     1
 10
0.0
 20
0.0
 30
0.0
 70
     9
  0
VERTEX
  5
48E
330
48D
100
AcDbEntity
  8
HA-406
100
AcDbVertex
100
AcDb3dPolylineVertex
 10
396289.4546745998
 20
229740.9352095625
 30
60.014
 70
    32
  0
VERTEX
  5
48F
330
48D
100
AcDbEntity
  8
HA-406
100
AcDbVertex
100
AcDb3dPolylineVertex
 10
396289.667
 20
229740.957
 30
59.98399999999999
 70
    32
  0
VERTEX
  5
490
330
48D
100
AcDbEntity
  8
HA-406
100
AcDbVertex
100
AcDb3dPolylineVertex
 10
396289.867
 20
229741.167
 30
59.968
 70
    32
  0
VERTEX
  5
491
330
48D
100
AcDbEntity
  8
HA-406
100
AcDbVertex
100
AcDb3dPolylineVertex
 10
396289.764
 20
229741.315
 30
60.051
 70
    32
  0
VERTEX
  5
492
330
48D
100
AcDbEntity
  8
HA-406
100
AcDbVertex
100
AcDb3dPolylineVertex
 10
396289.619
 20
229741.366
 30
60.095
 70
    32
  0
VERTEX
  5
493
330
48D
100
AcDbEntity
  8
HA-406
100
AcDbVertex
100
AcDb3dPolylineVertex
 10
396289.436
 20
229741.197
 30
60.058
 70
    32
  0
VERTEX
  5
494
330
48D
100
AcDbEntity
  8
HA-406
100
AcDbVertex
100
AcDb3dPolylineVertex
 10
396289.3729573187
 20
229741.0274986597
 30
60.005
 70
    32
  0
SEQEND
  5
495
330
48D
100
AcDbEntity
  8
HA-406
  0
LWPOLYLINE
  5
496
330
1F
100
AcDbEntity
  8
TR-5
100
AcDbPolyline
 90
        4
 70
     1
 43
0.0
 38
60.242
 10
396262.54262106
 20
229739.7725973022
 10
396273.4324438883
 20
229736.4859896495
 10
396272.9395561116
 20
229734.8590103505
 10
396262.0497332833
 20
229738.1456180032
  0
LWPOLYLINE
  5
497
330
1F
100
AcDbEntity
  8
TR-7
100
AcDbPolyline
 90
        4
 70
     1
 43
0.0
 38
61.22600000000001
 10
396362.9707408077
 20
229710.9323609119
 10
396391.6338747218
 20
229719.7881361023
 10
396392.1357019825
 20
229718.1638918471
 10
396363.4725680684
 20
229709.3081166567
  0
LWPOLYLINE
  5
498
330
1F
100
AcDbEntity
  8
HA-LANDDRAIN
100
AcDbPolyline
 90
        2
 70
     0
 43
0.0
 38
61.22600000000001
 10
396380.2603752972
 20
229716.2741744282
 10
396381.3508993128
 20
229714.8318141964
  0
LWPOLYLINE
  5
499
330
1F
100
AcDbEntity
  8
HA-LANDDRAIN
100
AcDbPolyline
 90
        2
 70
     0
 43
0.0
 38
61.22600000000001
 10
396372.6956040069
 20
229713.9369591706
 10
396373.7073969357
 20
229712.4702741456
  0
LWPOLYLINE
  5
49A
330
1F
100
AcDbEntity
  8
HA-LANDDRAIN
100
AcDbPolyline
 90
        2
 70
     0
 43
0.0
 38
61.22600000000001
 10
396380.0215158479
 20
229716.2003763016
 10
396381.1120398635
 20
229714.7580160698
  0
LWPOLYLINE
  5
49B
330
1F
100
AcDbEntity
  8
HA-LANDDRAIN
100
AcDbPolyline
 90
        2
 70
     0
 43
0.0
 38
61.22600000000001
 10
396372.4567445577
 20
229713.8631610441
 10
396373.4685374864
 20
229712.396476019
  0
LWPOLYLINE
  5
49C
330
1F
100
AcDbEntity
  8
TR-8
100
AcDbPolyline
 90
        4
 70
     1
 43
0.0
 38
61.217
 10
396368.4112256053
 20
229683.5487562511
 10
396394.4098027001
 20
229668.5796551075
 10
396393.5615536353
 20
229667.1064024055
 10
396367.5629765405
 20
229682.0755035491
  0
LWPOLYLINE
  5
49D
330
1F
100
AcDbEntity
  8
HA-LANDDRAIN
100
AcDbPolyline
 90
        3
 70
     0
 43
0.0
 38
61.217
 10
396386.0269884993
 20
229671.4445501119
 10
396386.751
 20
229672.058
 10
396387.365040582
 20
229672.6357908066
  0
LWPOLYLINE
  5
49E
330
1F
100
AcDbEntity
  8
HA-803
100
AcDbPolyline
 90
        3
 70
     0
 43
0.0
 38
61.217
 10
396387.6261937611
 20
229672.485427641
 10
396386.977
 20
229671.911
 10
396386.2965487653
 20
229671.2893464301
  0
LWPOLYLINE
  5
49F
330
1F
100
AcDbEntity
  8
HA-803
100
AcDbPolyline
 90
        3
 70
     0
 43
0.0
 38
61.217
 10
396388.2810681537
 20
229670.1467273037
 10
396388.784
 20
229670.88
 10
396389.2822850071
 20
229671.5319063281
  0
LWPOLYLINE
  5
4A0
330
1F
100
AcDbEntity
  8
HA-803
100
AcDbPolyline
 90
        2
 70
     0
 43
0.0
 38
61.01
 10
396386.751
 20
229672.058
 10
396388.784
 20
229670.88
  0
POLYLINE
  5
4A1
330
1F
100
AcDbEntity
  8
HA-GRAVEL PATCH
100
AcDb3dPolyline
 66
     1
 10
0.0
 20
0.0
 30
0.0
 70
     8
  0
VERTEX
  5
4A2
330
4A1
100
AcDbEntity
  8
HA-GRAVEL PATCH
100
AcDbVertex
100
AcDb3dPolylineVertex
 10
396374.891149952
 20
229679.8178350321
 30
61.217
 70
    32
  0
VERTEX
  5
4A3
330
4A1
100
AcDbEntity
  8
HA-GRAVEL PATCH
100
AcDbVertex
100
AcDb3dPolylineVertex
 10
396374.398
 20
229679.654
 30
61.152
 70
    32
  0
VERTEX
  5
4A4
330
4A1
100
AcDbEntity
  8
HA-GRAVEL PATCH
100
AcDbVertex
100
AcDb3dPolylineVertex
 10
396373.691
 20
229679.341
 30
61.13
 70
    32
  0
SEQEND
  5
4A5
330
4A1
100
AcDbEntity
  8
HA-GRAVEL PATCH
  0
POLYLINE
  5
4A6
330
1F
100
AcDbEntity
  8
HA-809
100
AcDb3dPolyline
 66
     1
 10
0.0
 20
0.0
 30
0.0
 70
     9
  0
VERTEX
  5
4A7
330
4A6
100
AcDbEntity
  8
HA-809
100
AcDbVertex
100
AcDb3dPolylineVertex
 10
396378.243867755
 20
229677.8874535456
 30
61.217
 70
    32
  0
VERTEX
  5
4A8
330
4A6
100
AcDbEntity
  8
HA-809
100
AcDbVertex
100
AcDb3dPolylineVertex
 10
396377.5272163121
 20
229676.3384313849
 30
61.217
 70
    32
  0
VERTEX
  5
4A9
330
4A6
100
AcDbEntity
  8
HA-809
100
AcDbVertex
100
AcDb3dPolylineVertex
 10
396379.0381323732
 20
229675.4684970321
 30
61.217
 70
    32
  0
VERTEX
  5
4AA
330
4A6
100
AcDbEntity
  8
HA-809
100
AcDbVertex
100
AcDb3dPolylineVertex
 10
396379.846
 20
229676.965
 30
61.217
 70
    32
  0
SEQEND
  5
4AB
330
4A6
100
AcDbEntity
  8
HA-809
  0
POLYLINE
  5
4AC
330
1F
100
AcDbEntity
  8
HA-GRAVEL PATCH
100
AcDb3dPolyline
 66
     1
 10
0.0
 20
0.0
 30
0.0
 70
     9
  0
VERTEX
  5
4AD
330
4AC
100
AcDbEntity
  8
HA-GRAVEL PATCH
100
AcDbVertex
100
AcDb3dPolylineVertex
 10
396374.7550174722
 20
229679.7726088913
 30
61.19905695619018
 70
    32
  0
VERTEX
  5
4AE
330
4AC
100
AcDbEntity
  8
HA-GRAVEL PATCH
100
AcDbVertex
100
AcDb3dPolylineVertex
 10
396374.688541072
 20
229679.8205324415
 30
24.47795049266714
 70
    32
  0
VERTEX
  5
4AF
330
4AC
100
AcDbEntity
  8
HA-GRAVEL PATCH
100
AcDbVertex
100
AcDb3dPolylineVertex
 10
396374.6915798075
 20
229679.7515335332
 30
61.19069550714553
 70
    32
  0
SEQEND
  5
4B0
330
4AC
100
AcDbEntity
  8
HA-GRAVEL PATCH
  0
POLYLINE
  5
4B1
330
1F
100
AcDbEntity
  8
HA-GRAVEL PATCH
100
AcDb3dPolyline
 66
     1
 10
0.0
 20
0.0
 30
0.0
 70
     9
  0
VERTEX
  5
4B2
330
4B1
100
AcDbEntity
  8
HA-GRAVEL PATCH
100
AcDbVertex
100
AcDb3dPolylineVertex
 10
396374.401559888
 20
229679.6531556978
 30
61.15431630337908
 70
    32
  0
VERTEX
  5
4B3
330
4B1
100
AcDbEntity
  8
HA-GRAVEL PATCH
100
AcDbVertex
100
AcDb3dPolylineVertex
 10
396374.3420123509
 20
229679.6899332655
 30
30.57542916314582
 70
    32
  0
VERTEX
  5
4B4
330
4B1
100
AcDbEntity
  8
HA-GRAVEL PATCH
100
AcDbVertex
100
AcDb3dPolylineVertex
 10
396374.3429661378
 20
229679.6296356452
 30
61.15028748943746
 70
    32
  0
VERTEX
  5
4B5
330
4B1
100
AcDbEntity
  8
HA-GRAVEL PATCH
100
AcDbVertex
100
AcDb3dPolylineVertex
 10
396374.3796553792
 20
229679.6458785484
 30
61.15142916314582
 70
    32
  0
SEQEND
  5
4B6
330
4B1
100
AcDbEntity
  8
HA-GRAVEL PATCH
  0
POLYLINE
  5
4B7
330
1F
100
AcDbEntity
  8
HA-GRAVEL PATCH
100
AcDb3dPolyline
 66
     1
 10
0.0
 20
0.0
 30
0.0
 70
     9
  0
VERTEX
  5
4B8
330
4B7
100
AcDbEntity
  8
HA-GRAVEL PATCH
100
AcDbVertex
100
AcDb3dPolylineVertex
 10
396374.1078596971
 20
229679.5255503326
 30
61.14297158887803
 70
    32
  0
VERTEX
  5
4B9
330
4B7
100
AcDbEntity
  8
HA-GRAVEL PATCH
100
AcDbVertex
100
AcDb3dPolylineVertex
 10
396374.0767072679
 20
229679.5509061325
 30
36.68544496666201
 70
    32
  0
VERTEX
  5
4BA
330
4B7
100
AcDbEntity
  8
HA-GRAVEL PATCH
100
AcDbVertex
100
AcDb3dPolylineVertex
 10
396374.0716541559
 20
229679.5095215711
 30
61.14184496666201
 70
    32
  0
SEQEND
  5
4BB
330
4B7
100
AcDbEntity
  8
HA-GRAVEL PATCH
  0
POLYLINE
  5
4BC
330
1F
100
AcDbEntity
  8
HA-GRAVEL PATCH
100
AcDb3dPolyline
 66
     1
 10
0.0
 20
0.0
 30
0.0
 70
     9
  0
VERTEX
  5
4BD
330
4BC
100
AcDbEntity
  8
HA-GRAVEL PATCH
100
AcDbVertex
100
AcDb3dPolylineVertex
 10
396373.8116703338
 20
229679.3944226514
 30
61.13375494674083
 70
    32
  0
VERTEX
  5
4BE
330
4BC
100
AcDbEntity
  8
HA-GRAVEL PATCH
100
AcDbVertex
100
AcDb3dPolylineVertex
 10
396373.786393695
 20
229679.4107817744
 30
42.7933851502986
 70
    32
  0
VERTEX
  5
4BF
330
4BC
100
AcDbEntity
  8
HA-GRAVEL PATCH
100
AcDbVertex
100
AcDb3dPolylineVertex
 10
396373.7893298299
 20
229679.3845321595
 30
61.13305976839804
 70
    32
  0
SEQEND
  5
4C0
330
4BC
100
AcDbEntity
  8
HA-GRAVEL PATCH
  0
POLYLINE
  5
4C1
330
1F
100
AcDbEntity
  8
HA-811
100
AcDb2dPolyline
 66
     1
 10
0.0
 20
0.0
 30
61.151
 70
     5
 75
     6
  0
VERTEX
  5
4C2
330
4C1
100
AcDbEntity
  8
HA-811
100
AcDbVertex
100
AcDb2dVertex
 10
396377.487
 20
229678.264
 30
61.151
 70
    16
  0
VERTEX
  5
4C3
330
4C1
100
AcDbEntity
  8
HA-811
100
AcDbVertex
100
AcDb2dVertex
 10
396377.399271724
 20
229678.2592423002
 30
61.151
 70
     8
  0
VERTEX
  5
4C4
330
4C1
100
AcDbEntity
  8
HA-811
100
AcDbVertex
100
AcDb2dVertex
 10
396377.3913450386
 20
229678.2586062379
 30
61.151
 70
     8
  0
VERTEX
  5
4C5
330
4C1
100
AcDbEntity
  8
HA-811
100
AcDbVertex
100
AcDb2dVertex
 10
396377.3842689238
 20
229678.2579485627
 30
61.151
 70
     8
  0
VERTEX
  5
4C6
330
4C1
100
AcDbEntity
  8
HA-811
100
AcDbVertex
100
AcDb2dVertex
 10
396377.377928088
 20
229678.2572602445
 30
61.151
 70
     8
  0
VERTEX
  5
4C7
330
4C1
100
AcDbEntity
  8
HA-811
100
AcDbVertex
100
AcDb2dVertex
 10
396377.3722072393
 20
229678.256532253
 30
61.151
 70
     8
  0
VERTEX
  5
4C8
330
4C1
100
AcDbEntity
  8
HA-811
100
AcDbVertex
100
AcDb2dVertex
 10
396377.366991086
 20
229678.2557555579
 30
61.151
 70
     8
  0
VERTEX
  5
4C9
330
4C1
100
AcDbEntity
  8
HA-811
100
AcDbVertex
100
AcDb2dVertex
 10
396377.3621643364
 20
229678.254921129
 30
61.151
 70
     8
  0
VERTEX
  5
4CA
330
4C1
100
AcDbEntity
  8
HA-811
100
AcDbVertex
100
AcDb2dVertex
 10
396377.3576116986
 20
229678.2540199361
 30
61.151
 70
     8
  0
VERTEX
  5
4CB
330
4C1
100
AcDbEntity
  8
HA-811
100
AcDbVertex
100
AcDb2dVertex
 10
396377.353217881
 20
229678.2530429488
 30
61.151
 70
     8
  0
VERTEX
  5
4CC
330
4C1
100
AcDbEntity
  8
HA-811
100
AcDbVertex
100
AcDb2dVertex
 10
396377.3488644383
 20
229678.2519643076
 30
61.151
 70
     8
  0
VERTEX
  5
4CD
330
4C1
100
AcDbEntity
  8
HA-811
100
AcDbVertex
100
AcDb2dVertex
 10
396377.3444203115
 20
229678.2506908351
 30
61.151
 70
     8
  0
VERTEX
  5
4CE
330
4C1
100
AcDbEntity
  8
HA-811
100
AcDbVertex
100
AcDb2dVertex
 10
396377.3397512881
 20
229678.2491125243
 30
61.151
 70
     8
  0
VERTEX
  5
4CF
330
4C1
100
AcDbEntity
  8
HA-811
100
AcDbVertex
100
AcDb2dVertex
 10
396377.3347231555
 20
229678.2471193686
 30
61.151
 70
     8
  0
VERTEX
  5
4D0
330
4C1
100
AcDbEntity
  8
HA-811
100
AcDbVertex
100
AcDb2dVertex
 10
396377.3292017013
 20
229678.244601361
 30
61.151
 70
     8
  0
VERTEX
  5
4D1
330
4C1
100
AcDbEntity
  8
HA-811
100
AcDbVertex
100
AcDb2dVertex
 10
396377.3230527128
 20
229678.2414484948
 30
61.151
 70
     8
  0
VERTEX
  5
4D2
330
4C1
100
AcDbEntity
  8
HA-811
100
AcDbVertex
100
AcDb2dVertex
 10
396377.3161419777
 20
229678.2375507631
 30
61.151
 70
     8
  0
VERTEX
  5
4D3
330
4C1
100
AcDbEntity
  8
HA-811
100
AcDbVertex
100
AcDb2dVertex
 10
396377.3083352835
 20
229678.2327981591
 30
61.151
 70
     8
  0
VERTEX
  5
4D4
330
4C1
100
AcDbEntity
  8
HA-811
100
AcDbVertex
100
AcDb2dVertex
 10
396377.2995661283
 20
229678.227136563
 30
61.151
 70
     8
  0
VERTEX
  5
4D5
330
4C1
100
AcDbEntity
  8
HA-811
100
AcDbVertex
100
AcDb2dVertex
 10
396377.2900388539
 20
229678.220735403
 30
61.151
 70
     8
  0
VERTEX
  5
4D6
330
4C1
100
AcDbEntity
  8
HA-811
100
AcDbVertex
100
AcDb2dVertex
 10
396377.2800255126
 20
229678.2138199942
 30
61.151
 70
     8
  0
VERTEX
  5
4D7
330
4C1
100
AcDbEntity
  8
HA-811
100
AcDbVertex
100
AcDb2dVertex
 10
396377.2697981567
 20
229678.2066156518
 30
61.151
 70
     8
  0
VERTEX
  5
4D8
330
4C1
100
AcDbEntity
  8
HA-811
100
AcDbVertex
100
AcDb2dVertex
 10
396377.2596288386
 20
229678.199347691
 30
61.151
 70
     8
  0
VERTEX
  5
4D9
330
4C1
100
AcDbEntity
  8
HA-811
100
AcDbVertex
100
AcDb2dVertex
 10
396377.2497896108
 20
229678.192241427
 30
61.151
 70
     8
  0
VERTEX
  5
4DA
330
4C1
100
AcDbEntity
  8
HA-811
100
AcDbVertex
100
AcDb2dVertex
 10
396377.2405525256
 20
229678.1855221749
 30
61.151
 70
     8
  0
VERTEX
  5
4DB
330
4C1
100
AcDbEntity
  8
HA-811
100
AcDbVertex
100
AcDb2dVertex
 10
396377.2321896353
 20
229678.1794152501
 30
61.151
 70
     8
  0
VERTEX
  5
4DC
330
4C1
100
AcDbEntity
  8
HA-811
100
AcDbVertex
100
AcDb2dVertex
 10
396377.2249089091
 20
229678.1740914058
 30
61.151
 70
     8
  0
VERTEX
  5
4DD
330
4C1
100
AcDbEntity
  8
HA-811
100
AcDbVertex
100
AcDb2dVertex
 10
396377.2186619818
 20
229678.1695031494
 30
61.151
 70
     8
  0
VERTEX
  5
4DE
330
4C1
100
AcDbEntity
  8
HA-811
100
AcDbVertex
100
AcDb2dVertex
 10
396377.2133364053
 20
229678.1655484262
 30
61.151
 70
     8
  0
VERTEX
  5
4DF
330
4C1
100
AcDbEntity
  8
HA-811
100
AcDbVertex
100
AcDb2dVertex
 10
396377.2088197311
 20
229678.1621251818
 30
61.151
 70
     8
  0
VERTEX
  5
4E0
330
4C1
100
AcDbEntity
  8
HA-811
100
AcDbVertex
100
AcDb2dVertex
 10
396377.2049995111
 20
229678.1591313616
 30
61.151
 70
     8
  0
VERTEX
  5
4E1
330
4C1
100
AcDbEntity
  8
HA-811
100
AcDbVertex
100
AcDb2dVertex
 10
396377.201763297
 20
229678.1564649111
 30
61.151
 70
     8
  0
VERTEX
  5
4E2
330
4C1
100
AcDbEntity
  8
HA-811
100
AcDbVertex
100
AcDb2dVertex
 10
396377.1989986402
 20
229678.1540237757
 30
61.151
 70
     8
  0
VERTEX
  5
4E3
330
4C1
100
AcDbEntity
  8
HA-811
100
AcDbVertex
100
AcDb2dVertex
 10
396377.1965930926
 20
229678.1517059011
 30
61.151
 70
     8
  0
VERTEX
  5
4E4
330
4C1
100
AcDbEntity
  8
HA-811
100
AcDbVertex
100
AcDb2dVertex
 10
396377.194436624
 20
229678.1494105579
 30
61.151
 70
     8
  0
VERTEX
  5
4E5
330
4C1
100
AcDbEntity
  8
HA-811
100
AcDbVertex
100
AcDb2dVertex
 10
396377.1924288775
 20
229678.1470423187
 30
61.151
 70
     8
  0
VERTEX
  5
4E6
330
4C1
100
AcDbEntity
  8
HA-811
100
AcDbVertex
100
AcDb2dVertex
 10
396377.190471914
 20
229678.1445070811
 30
61.151
 70
     8
  0
VERTEX
  5
4E7
330
4C1
100
AcDbEntity
  8
HA-811
100
AcDbVertex
100
AcDb2dVertex
 10
396377.1884677948
 20
229678.141710743
 30
61.151
 70
     8
  0
VERTEX
  5
4E8
330
4C1
100
AcDbEntity
  8
HA-811
100
AcDbVertex
100
AcDb2dVertex
 10
396377.1863185809
 20
229678.1385592022
 30
61.151
 70
     8
  0
VERTEX
  5
4E9
330
4C1
100
AcDbEntity
  8
HA-811
100
AcDbVertex
100
AcDb2dVertex
 10
396377.1839263337
 20
229678.1349583564
 30
61.151
 70
     8
  0
VERTEX
  5
4EA
330
4C1
100
AcDbEntity
  8
HA-811
100
AcDbVertex
100
AcDb2dVertex
 10
396377.181193114
 20
229678.1308141034
 30
61.151
 70
     8
  0
VERTEX
  5
4EB
330
4C1
100
AcDbEntity
  8
HA-811
100
AcDbVertex
100
AcDb2dVertex
 10
396377.1780209832
 20
229678.126032341
 30
61.151
 70
     8
  0
VERTEX
  5
4EC
330
4C1
100
AcDbEntity
  8
HA-811
100
AcDbVertex
100
AcDb2dVertex
 10
396377.1743519034
 20
229678.1205468001
 30
61.151
 70
     8
  0
VERTEX
  5
4ED
330
4C1
100
AcDbEntity
  8
HA-811
100
AcDbVertex
100
AcDb2dVertex
 10
396377.1702874408
 20
229678.1144025435
 30
61.151
 70
     8
  0
VERTEX
  5
4EE
330
4C1
100
AcDbEntity
  8
HA-811
100
AcDbVertex
100
AcDb2dVertex
 10
396377.1659690627
 20
229678.1076724674
 30
61.151
 70
     8
  0
VERTEX
  5
4EF
330
4C1
100
AcDbEntity
  8
HA-811
100
AcDbVertex
100
AcDb2dVertex
 10
396377.1615382363
 20
229678.1004294681
 30
61.151
 70
     8
  0
VERTEX
  5
4F0
330
4C1
100
AcDbEntity
  8
HA-811
100
AcDbVertex
100
AcDb2dVertex
 10
396377.1571364287
 20
229678.0927464414
 30
61.151
 70
     8
  0
VERTEX
  5
4F1
330
4C1
100
AcDbEntity
  8
HA-811
100
AcDbVertex
100
AcDb2dVertex
 10
396377.1529051073
 20
229678.0846962835
 30
61.151
 70
     8
  0
VERTEX
  5
4F2
330
4C1
100
AcDbEntity
  8
HA-811
100
AcDbVertex
100
AcDb2dVertex
 10
396377.1489857393
 20
229678.0763518905
 30
61.151
 70
     8
  0
VERTEX
  5
4F3
330
4C1
100
AcDbEntity
  8
HA-811
100
AcDbVertex
100
AcDb2dVertex
 10
396377.145519792
 20
229678.0677861584
 30
61.151
 70
     8
  0
VERTEX
  5
4F4
330
4C1
100
AcDbEntity
  8
HA-811
100
AcDbVertex
100
AcDb2dVertex
 10
396377.1426145749
 20
229678.0590582878
 30
61.151
 70
     8
  0
VERTEX
  5
4F5
330
4C1
100
AcDbEntity
  8
HA-811
100
AcDbVertex
100
AcDb2dVertex
 10
396377.1402407666
 20
229678.0501726966
 30
61.151
 70
     8
  0
VERTEX
  5
4F6
330
4C1
100
AcDbEntity
  8
HA-811
100
AcDbVertex
100
AcDb2dVertex
 10
396377.1383348886
 20
229678.0411201071
 30
61.151
 70
     8
  0
VERTEX
  5
4F7
330
4C1
100
AcDbEntity
  8
HA-811
100
AcDbVertex
100
AcDb2dVertex
 10
396377.1368334617
 20
229678.0318912415
 30
61.151
 70
     8
  0
VERTEX
  5
4F8
330
4C1
100
AcDbEntity
  8
HA-811
100
AcDbVertex
100
AcDb2dVertex
 10
396377.1356730072
 20
229678.0224768223
 30
61.151
 70
     8
  0
VERTEX
  5
4F9
330
4C1
100
AcDbEntity
  8
HA-811
100
AcDbVertex
100
AcDb2dVertex
 10
396377.134790046
 20
229678.0128675718
 30
61.151
 70
     8
  0
VERTEX
  5
4FA
330
4C1
100
AcDbEntity
  8
HA-811
100
AcDbVertex
100
AcDb2dVertex
 10
396377.1341210994
 20
229678.0030542122
 30
61.151
 70
     8
  0
VERTEX
  5
4FB
330
4C1
100
AcDbEntity
  8
HA-811
100
AcDbVertex
100
AcDb2dVertex
 10
396377.1336026885
 20
229677.9930274658
 30
61.151
 70
     8
  0
VERTEX
  5
4FC
330
4C1
100
AcDbEntity
  8
HA-811
100
AcDbVertex
100
AcDb2dVertex
 10
396377.1331873552
 20
229677.9827884372
 30
61.151
 70
     8
  0
VERTEX
  5
4FD
330
4C1
100
AcDbEntity
  8
HA-811
100
AcDbVertex
100
AcDb2dVertex
 10
396377.1328917249
 20
229677.9723797596
 30
61.151
 70
     8
  0
VERTEX
  5
4FE
330
4C1
100
AcDbEntity
  8
HA-811
100
AcDbVertex
100
AcDb2dVertex
 10
396377.132748444
 20
229677.9618544482
 30
61.151
 70
     8
  0
VERTEX
  5
4FF
330
4C1
100
AcDbEntity
  8
HA-811
100
AcDbVertex
100
AcDb2dVertex
 10
396377.1327901587
 20
229677.9512655183
 30
61.151
 70
     8
  0
VERTEX
  5
500
330
4C1
100
AcDbEntity
  8
HA-811
100
AcDbVertex
100
AcDb2dVertex
 10
396377.1330495153
 20
229677.9406659855
 30
61.151
 70
     8
  0
VERTEX
  5
501
330
4C1
100
AcDbEntity
  8
HA-811
100
AcDbVertex
100
AcDb2dVertex
 10
396377.1335591601
 20
229677.9301088649
 30
61.151
 70
     8
  0
VERTEX
  5
502
330
4C1
100
AcDbEntity
  8
HA-811
100
AcDbVertex
100
AcDb2dVertex
 10
396377.1343517394
 20
229677.9196471719
 30
61.151
 70
     8
  0
VERTEX
  5
503
330
4C1
100
AcDbEntity
  8
HA-811
100
AcDbVertex
100
AcDb2dVertex
 10
396377.1354598994
 20
229677.9093339219
 30
61.151
 70
     8
  0
VERTEX
  5
504
330
4C1
100
AcDbEntity
  8
HA-811
100
AcDbVertex
100
AcDb2dVertex
 10
396377.1369087295
 20
229677.8992011448
 30
61.151
 70
     8
  0
VERTEX
  5
505
330
4C1
100
AcDbEntity
  8
HA-811
100
AcDbVertex
100
AcDb2dVertex
 10
396377.1386930908
 20
229677.88919693
 30
61.151
 70
     8
  0
VERTEX
  5
506
330
4C1
100
AcDbEntity
  8
HA-811
100
AcDbVertex
100
AcDb2dVertex
 10
396377.1408002877
 20
229677.8792483813
 30
61.151
 70
     8
  0
VERTEX
  5
507
330
4C1
100
AcDbEntity
  8
HA-811
100
AcDbVertex
100
AcDb2dVertex
 10
396377.1432176242
 20
229677.8692826026
 30
61.151
 70
     8
  0
VERTEX
  5
508
330
4C1
100
AcDbEntity
  8
HA-811
100
AcDbVertex
100
AcDb2dVertex
 10
396377.1459324047
 20
229677.8592266978
 30
61.151
 70
     8
  0
VERTEX
  5
509
330
4C1
100
AcDbEntity
  8
HA-811
100
AcDbVertex
100
AcDb2dVertex
 10
396377.1489319334
 20
229677.8490077709
 30
61.151
 70
     8
  0
VERTEX
  5
50A
330
4C1
100
AcDbEntity
  8
HA-811
100
AcDbVertex
100
AcDb2dVertex
 10
396377.1522035144
 20
229677.8385529257
 30
61.151
 70
     8
  0
VERTEX
  5
50B
330
4C1
100
AcDbEntity
  8
HA-811
100
AcDbVertex
100
AcDb2dVertex
 10
396377.155734452
 20
229677.8277892662
 30
61.151
 70
     8
  0
VERTEX
  5
50C
330
4C1
100
AcDbEntity
  8
HA-811
100
AcDbVertex
100
AcDb2dVertex
 10
396377.1595177939
 20
229677.8166719502
 30
61.151
 70
     8
  0
VERTEX
  5
50D
330
4C1
100
AcDbEntity
  8
HA-811
100
AcDbVertex
100
AcDb2dVertex
 10
396377.1635695607
 20
229677.8052683514
 30
61.151
 70
     8
  0
VERTEX
  5
50E
330
4C1
100
AcDbEntity
  8
HA-811
100
AcDbVertex
100
AcDb2dVertex
 10
396377.1679115167
 20
229677.7936738974
 30
61.151
 70
     8
  0
VERTEX
  5
50F
330
4C1
100
AcDbEntity
  8
HA-811
100
AcDbVertex
100
AcDb2dVertex
 10
396377.1725654262
 20
229677.7819840158
 30
61.151
 70
     8
  0
VERTEX
  5
510
330
4C1
100
AcDbEntity
  8
HA-811
100
AcDbVertex
100
AcDb2dVertex
 10
396377.1775530532
 20
229677.7702941342
 30
61.151
 70
     8
  0
VERTEX
  5
511
330
4C1
100
AcDbEntity
  8
HA-811
100
AcDbVertex
100
AcDb2dVertex
 10
396377.182896162
 20
229677.7586996802
 30
61.151
 70
     8
  0
VERTEX
  5
512
330
4C1
100
AcDbEntity
  8
HA-811
100
AcDbVertex
100
AcDb2dVertex
 10
396377.1886165168
 20
229677.7472960814
 30
61.151
 70
     8
  0
VERTEX
  5
513
330
4C1
100
AcDbEntity
  8
HA-811
100
AcDbVertex
100
AcDb2dVertex
 10
396377.1947358817
 20
229677.7361787655
 30
61.151
 70
     8
  0
VERTEX
  5
514
330
4C1
100
AcDbEntity
  8
HA-811
100
AcDbVertex
100
AcDb2dVertex
 10
396377.2012600002
 20
229677.7254394046
 30
61.151
 70
     8
  0
VERTEX
  5
515
330
4C1
100
AcDbEntity
  8
HA-811
100
AcDbVertex
100
AcDb2dVertex
 10
396377.2081305319
 20
229677.7151546504
 30
61.151
 70
     8
  0
VERTEX
  5
516
330
4C1
100
AcDbEntity
  8
HA-811
100
AcDbVertex
100
AcDb2dVertex
 10
396377.2152731161
 20
229677.7053973986
 30
61.151
 70
     8
  0
VERTEX
  5
517
330
4C1
100
AcDbEntity
  8
HA-811
100
AcDbVertex
100
AcDb2dVertex
 10
396377.2226133916
 20
229677.6962405456
 30
61.151
 70
     8
  0
VERTEX
  5
518
330
4C1
100
AcDbEntity
  8
HA-811
100
AcDbVertex
100
AcDb2dVertex
 10
396377.2300769976
 20
229677.6877569874
 30
61.151
 70
     8
  0
VERTEX
  5
519
330
4C1
100
AcDbEntity
  8
HA-811
100
AcDbVertex
100
AcDb2dVertex
 10
396377.237589573
 20
229677.68001962
 30
61.151
 70
     8
  0
VERTEX
  5
51A
330
4C1
100
AcDbEntity
  8
HA-811
100
AcDbVertex
100
AcDb2dVertex
 10
396377.2450767569
 20
229677.6731013395
 30
61.151
 70
     8
  0
VERTEX
  5
51B
330
4C1
100
AcDbEntity
  8
HA-811
100
AcDbVertex
100
AcDb2dVertex
 10
396377.2524641881
 20
229677.667075042
 30
61.151
 70
     8
  0
VERTEX
  5
51C
330
4C1
100
AcDbEntity
  8
HA-811
100
AcDbVertex
100
AcDb2dVertex
 10
396377.2596983633
 20
229677.6619818145
 30
61.151
 70
     8
  0
VERTEX
  5
51D
330
4C1
100
AcDbEntity
  8
HA-811
100
AcDbVertex
100
AcDb2dVertex
 10
396377.2668092079
 20
229677.657735507
 30
61.151
 70
     8
  0
VERTEX
  5
51E
330
4C1
100
AcDbEntity
  8
HA-811
100
AcDbVertex
100
AcDb2dVertex
 10
396377.2738475054
 20
229677.6542181603
 30
61.151
 70
     8
  0
VERTEX
  5
51F
330
4C1
100
AcDbEntity
  8
HA-811
100
AcDbVertex
100
AcDb2dVertex
 10
396377.2808640386
 20
229677.6513118155
 30
61.151
 70
     8
  0
VERTEX
  5
520
330
4C1
100
AcDbEntity
  8
HA-811
100
AcDbVertex
100
AcDb2dVertex
 10
396377.2879095907
 20
229677.6488985132
 30
61.151
 70
     8
  0
VERTEX
  5
521
330
4C1
100
AcDbEntity
  8
HA-811
100
AcDbVertex
100
AcDb2dVertex
 10
396377.295034945
 20
229677.6468602944
 30
61.151
 70
     8
  0
VERTEX
  5
522
330
4C1
100
AcDbEntity
  8
HA-811
100
AcDbVertex
100
AcDb2dVertex
 10
396377.3022908843
 20
229677.6450792
 30
61.151
 70
     8
  0
VERTEX
  5
523
330
4C1
100
AcDbEntity
  8
HA-811
100
AcDbVertex
100
AcDb2dVertex
 10
396377.3097281919
 20
229677.6434372709
 30
61.151
 70
     8
  0
VERTEX
  5
524
330
4C1
100
AcDbEntity
  8
HA-811
100
AcDbVertex
100
AcDb2dVertex
 10
396377.3174027896
 20
229677.641863599
 30
61.151
 70
     8
  0
VERTEX
  5
525
330
4C1
100
AcDbEntity
  8
HA-811
100
AcDbVertex
100
AcDb2dVertex
 10
396377.3253911543
 20
229677.6404754807
 30
61.151
 70
     8
  0
VERTEX
  5
526
330
4C1
100
AcDbEntity
  8
HA-811
100
AcDbVertex
100
AcDb2dVertex
 10
396377.3337749019
 20
229677.6394372637
 30
61.151
 70
     8
  0
VERTEX
  5
527
330
4C1
100
AcDbEntity
  8
HA-811
100
AcDbVertex
100
AcDb2dVertex
 10
396377.3426356481
 20
229677.6389132955
 30
61.151
 70
     8
  0
VERTEX
  5
528
330
4C1
100
AcDbEntity
  8
HA-811
100
AcDbVertex
100
AcDb2dVertex
 10
396377.3520550083
 20
229677.6390679236
 30
61.151
 70
     8
  0
VERTEX
  5
529
330
4C1
100
AcDbEntity
  8
HA-811
100
AcDbVertex
100
AcDb2dVertex
 10
396377.3621145987
 20
229677.6400654955
 30
61.151
 70
     8
  0
VERTEX
  5
52A
330
4C1
100
AcDbEntity
  8
HA-811
100
AcDbVertex
100
AcDb2dVertex
 10
396377.3728960346
 20
229677.6420703588
 30
61.151
 70
     8
  0
VERTEX
  5
52B
330
4C1
100
AcDbEntity
  8
HA-811
100
AcDbVertex
100
AcDb2dVertex
 10
396377.3844809319
 20
229677.645246861
 30
61.151
 70
     8
  0
VERTEX
  5
52C
330
4C1
100
AcDbEntity
  8
HA-811
100
AcDbVertex
100
AcDb2dVertex
 10
396377.3969046574
 20
229677.6497016955
 30
61.151
 70
     8
  0
VERTEX
  5
52D
330
4C1
100
AcDbEntity
  8
HA-811
100
AcDbVertex
100
AcDb2dVertex
 10
396377.4100175822
 20
229677.655310939
 30
61.151
 70
     8
  0
VERTEX
  5
52E
330
4C1
100
AcDbEntity
  8
HA-811
100
AcDbVertex
100
AcDb2dVertex
 10
396377.4236238287
 20
229677.6618930139
 30
61.151
 70
     8
  0
VERTEX
  5
52F
330
4C1
100
AcDbEntity
  8
HA-811
100
AcDbVertex
100
AcDb2dVertex
 10
396377.4375275191
 20
229677.6692663427
 30
61.151
 70
     8
  0
VERTEX
  5
530
330
4C1
100
AcDbEntity
  8
HA-811
100
AcDbVertex
100
AcDb2dVertex
 10
396377.4515327758
 20
229677.6772493478
 30
61.151
 70
     8
  0
VERTEX
  5
531
330
4C1
100
AcDbEntity
  8
HA-811
100
AcDbVertex
100
AcDb2dVertex
 10
396377.4654437209
 20
229677.6856604518
 30
61.151
 70
     8
  0
VERTEX
  5
532
330
4C1
100
AcDbEntity
  8
HA-811
100
AcDbVertex
100
AcDb2dVertex
 10
396377.4790644769
 20
229677.6943180771
 30
61.151
 70
     8
  0
VERTEX
  5
533
330
4C1
100
AcDbEntity
  8
HA-811
100
AcDbVertex
100
AcDb2dVertex
 10
396377.4921991658
 20
229677.7030406461
 30
61.151
 70
     8
  0
VERTEX
  5
534
330
4C1
100
AcDbEntity
  8
HA-811
100
AcDbVertex
100
AcDb2dVertex
 10
396377.5046839519
 20
229677.7116746353
 30
61.151
 70
     8
  0
VERTEX
  5
535
330
4C1
100
AcDbEntity
  8
HA-811
100
AcDbVertex
100
AcDb2dVertex
 10
396377.516483166
 20
229677.7201787371
 30
61.151
 70
     8
  0
VERTEX
  5
536
330
4C1
100
AcDbEntity
  8
HA-811
100
AcDbVertex
100
AcDb2dVertex
 10
396377.5275931808
 20
229677.7285396974
 30
61.151
 70
     8
  0
VERTEX
  5
537
330
4C1
100
AcDbEntity
  8
HA-811
100
AcDbVertex
100
AcDb2dVertex
 10
396377.5380103688
 20
229677.7367442624
 30
61.151
 70
     8
  0
VERTEX
  5
538
330
4C1
100
AcDbEntity
  8
HA-811
100
AcDbVertex
100
AcDb2dVertex
 10
396377.5477311027
 20
229677.7447791784
 30
61.151
 70
     8
  0
VERTEX
  5
539
330
4C1
100
AcDbEntity
  8
HA-811
100
AcDbVertex
100
AcDb2dVertex
 10
396377.5567517551
 20
229677.7526311914
 30
61.151
 70
     8
  0
VERTEX
  5
53A
330
4C1
100
AcDbEntity
  8
HA-811
100
AcDbVertex
100
AcDb2dVertex
 10
396377.5650686988
 20
229677.7602870477
 30
61.151
 70
     8
  0
VERTEX
  5
53B
330
4C1
100
AcDbEntity
  8
HA-811
100
AcDbVertex
100
AcDb2dVertex
 10
396377.5726783062
 20
229677.7677334935
 30
61.151
 70
     8
  0
VERTEX
  5
53C
330
4C1
100
AcDbEntity
  8
HA-811
100
AcDbVertex
100
AcDb2dVertex
 10
396377.5795854139
 20
229677.7749720749
 30
61.151
 70
     8
  0
VERTEX
  5
53D
330
4C1
100
AcDbEntity
  8
HA-811
100
AcDbVertex
100
AcDb2dVertex
 10
396377.5858287138
 20
229677.7820635388
 30
61.151
 70
     8
  0
VERTEX
  5
53E
330
4C1
100
AcDbEntity
  8
HA-811
100
AcDbVertex
100
AcDb2dVertex
 10
396377.5914553617
 20
229677.789083432
 30
61.151
 70
     8
  0
VERTEX
  5
53F
330
4C1
100
AcDbEntity
  8
HA-811
100
AcDbVertex
100
AcDb2dVertex
 10
396377.5965125132
 20
229677.7961073014
 30
61.151
 70
     8
  0
VERTEX
  5
540
330
4C1
100
AcDbEntity
  8
HA-811
100
AcDbVertex
100
AcDb2dVertex
 10
396377.6010473242
 20
229677.8032106937
 30
61.151
 70
     8
  0
VERTEX
  5
541
330
4C1
100
AcDbEntity
  8
HA-811
100
AcDbVertex
100
AcDb2dVertex
 10
396377.6051069503
 20
229677.8104691559
 30
61.151
 70
     8
  0
VERTEX
  5
542
330
4C1
100
AcDbEntity
  8
HA-811
100
AcDbVertex
100
AcDb2dVertex
 10
396377.6087385474
 20
229677.8179582348
 30
61.151
 70
     8
  0
VERTEX
  5
543
330
4C1
100
AcDbEntity
  8
HA-811
100
AcDbVertex
100
AcDb2dVertex
 10
396377.611989271
 20
229677.8257534773
 30
61.151
 70
     8
  0
VERTEX
  5
544
330
4C1
100
AcDbEntity
  8
HA-811
100
AcDbVertex
100
AcDb2dVertex
 10
396377.6149026497
 20
229677.8339291048
 30
61.151
 70
     8
  0
VERTEX
  5
545
330
4C1
100
AcDbEntity
  8
HA-811
100
AcDbVertex
100
AcDb2dVertex
 10
396377.6175077024
 20
229677.8425540373
 30
61.151
 70
     8
  0
VERTEX
  5
546
330
4C1
100
AcDbEntity
  8
HA-811
100
AcDbVertex
100
AcDb2dVertex
 10
396377.6198298206
 20
229677.8516958694
 30
61.151
 70
     8
  0
VERTEX
  5
547
330
4C1
100
AcDbEntity
  8
HA-811
100
AcDbVertex
100
AcDb2dVertex
 10
396377.6218943959
 20
229677.8614221954
 30
61.151
 70
     8
  0
VERTEX
  5
548
330
4C1
100
AcDbEntity
  8
HA-811
100
AcDbVertex
100
AcDb2dVertex
 10
396377.6237268199
 20
229677.8718006102
 30
61.151
 70
     8
  0
VERTEX
  5
549
330
4C1
100
AcDbEntity
  8
HA-811
100
AcDbVertex
100
AcDb2dVertex
 10
396377.625352484
 20
229677.8828987081
 30
61.151
 70
     8
  0
VERTEX
  5
54A
330
4C1
100
AcDbEntity
  8
HA-811
100
AcDbVertex
100
AcDb2dVertex
 10
396377.6267967799
 20
229677.8947840837
 30
61.151
 70
     8
  0
VERTEX
  5
54B
330
4C1
100
AcDbEntity
  8
HA-811
100
AcDbVertex
100
AcDb2dVertex
 10
396377.6280850991
 20
229677.9075243317
 30
61.151
 70
     8
  0
VERTEX
  5
54C
330
4C1
100
AcDbEntity
  8
HA-811
100
AcDbVertex
100
AcDb2dVertex
 10
396377.6292328578
 20
229677.9211492731
 30
61.151
 70
     8
  0
VERTEX
  5
54D
330
4C1
100
AcDbEntity
  8
HA-811
100
AcDbVertex
100
AcDb2dVertex
 10
396377.6302155715
 20
229677.9355376353
 30
61.151
 70
     8
  0
VERTEX
  5
54E
330
4C1
100
AcDbEntity
  8
HA-811
100
AcDbVertex
100
AcDb2dVertex
 10
396377.6309987801
 20
229677.9505303724
 30
61.151
 70
     8
  0
VERTEX
  5
54F
330
4C1
100
AcDbEntity
  8
HA-811
100
AcDbVertex
100
AcDb2dVertex
 10
396377.6315480236
 20
229677.9659684382
 30
61.151
 70
     8
  0
VERTEX
  5
550
330
4C1
100
AcDbEntity
  8
HA-811
100
AcDbVertex
100
AcDb2dVertex
 10
396377.6318288422
 20
229677.9816927869
 30
61.151
 70
     8
  0
VERTEX
  5
551
330
4C1
100
AcDbEntity
  8
HA-811
100
AcDbVertex
100
AcDb2dVertex
 10
396377.6318067757
 20
229677.9975443724
 30
61.151
 70
     8
  0
VERTEX
  5
552
330
4C1
100
AcDbEntity
  8
HA-811
100
AcDbVertex
100
AcDb2dVertex
 10
396377.6314473643
 20
229678.0133641487
 30
61.151
 70
     8
  0
VERTEX
  5
553
330
4C1
100
AcDbEntity
  8
HA-811
100
AcDbVertex
100
AcDb2dVertex
 10
396377.6307161478
 20
229678.0289930698
 30
61.151
 70
     8
  0
VERTEX
  5
554
330
4C1
100
AcDbEntity
  8
HA-811
100
AcDbVertex
100
AcDb2dVertex
 10
396377.6295895486
 20
229678.0442895405
 30
61.151
 70
     8
  0
VERTEX
  5
555
330
4C1
100
AcDbEntity
  8
HA-811
100
AcDbVertex
100
AcDb2dVertex
 10
396377.6280875173
 20
229678.0591817693
 30
61.151
 70
     8
  0
VERTEX
  5
556
330
4C1
100
AcDbEntity
  8
HA-811
100
AcDbVertex
100
AcDb2dVertex
 10
396377.6262408861
 20
229678.0736154155
 30
61.151
 70
     8
  0
VERTEX
  5
557
330
4C1
100
AcDbEntity
  8
HA-811
100
AcDbVertex
100
AcDb2dVertex
 10
396377.6240804879
 20
229678.0875361382
 30
61.151
 70
     8
  0
VERTEX
  5
558
330
4C1
100
AcDbEntity
  8
HA-811
100
AcDbVertex
100
AcDb2dVertex
 10
396377.6216371552
 20
229678.1008895969
 30
61.151
 70
     8
  0
VERTEX
  5
559
330
4C1
100
AcDbEntity
  8
HA-811
100
AcDbVertex
100
AcDb2dVertex
 10
396377.6189417206
 20
229678.1136214508
 30
61.151
 70
     8
  0
VERTEX
  5
55A
330
4C1
100
AcDbEntity
  8
HA-811
100
AcDbVertex
100
AcDb2dVertex
 10
396377.6160250169
 20
229678.1256773591
 30
61.151
 70
     8
  0
VERTEX
  5
55B
330
4C1
100
AcDbEntity
  8
HA-811
100
AcDbVertex
100
AcDb2dVertex
 10
396377.6129178764
 20
229678.1370029812
 30
61.151
 70
     8
  0
VERTEX
  5
55C
330
4C1
100
AcDbEntity
  8
HA-811
100
AcDbVertex
100
AcDb2dVertex
 10
396377.6096402497
 20
229678.1475631944
 30
61.151
 70
     8
  0
VERTEX
  5
55D
330
4C1
100
AcDbEntity
  8
HA-811
100
AcDbVertex
100
AcDb2dVertex
 10
396377.6061685591
 20
229678.1573997482
 30
61.151
 70
     8
  0
VERTEX
  5
55E
330
4C1
100
AcDbEntity
  8
HA-811
100
AcDbVertex
100
AcDb2dVertex
 10
396377.6024683444
 20
229678.1665736103
 30
61.151
 70
     8
  0
VERTEX
  5
55F
330
4C1
100
AcDbEntity
  8
HA-811
100
AcDbVertex
100
AcDb2dVertex
 10
396377.5985051457
 20
229678.1751457483
 30
61.151
 70
     8
  0
VERTEX
  5
560
330
4C1
100
AcDbEntity
  8
HA-811
100
AcDbVertex
100
AcDb2dVertex
 10
396377.5942445032
 20
229678.1831771299
 30
61.151
 70
     8
  0
VERTEX
  5
561
330
4C1
100
AcDbEntity
  8
HA-811
100
AcDbVertex
100
AcDb2dVertex
 10
396377.5896519567
 20
229678.1907287228
 30
61.151
 70
     8
  0
VERTEX
  5
562
330
4C1
100
AcDbEntity
  8
HA-811
100
AcDbVertex
100
AcDb2dVertex
 10
396377.5846930463
 20
229678.1978614945
 30
61.151
 70
     8
  0
VERTEX
  5
563
330
4C1
100
AcDbEntity
  8
HA-811
100
AcDbVertex
100
AcDb2dVertex
 10
396377.5793333121
 20
229678.2046364126
 30
61.151
 70
     8
  0
VERTEX
  5
564
330
4C1
100
AcDbEntity
  8
HA-811
100
AcDbVertex
100
AcDb2dVertex
 10
396377.5735596252
 20
229678.2111004871
 30
61.151
 70
     8
  0
VERTEX
  5
565
330
4C1
100
AcDbEntity
  8
HA-811
100
AcDbVertex
100
AcDb2dVertex
 10
396377.5674441822
 20
229678.2172448968
 30
61.151
 70
     8
  0
VERTEX
  5
566
330
4C1
100
AcDbEntity
  8
HA-811
100
AcDbVertex
100
AcDb2dVertex
 10
396377.5610805106
 20
229678.2230468626
 30
61.151
 70
     8
  0
VERTEX
  5
567
330
4C1
100
AcDbEntity
  8
HA-811
100
AcDbVertex
100
AcDb2dVertex
 10
396377.5545621377
 20
229678.2284836058
 30
61.151
 70
     8
  0
VERTEX
  5
568
330
4C1
100
AcDbEntity
  8
HA-811
100
AcDbVertex
100
AcDb2dVertex
 10
396377.5479825914
 20
229678.2335323472
 30
61.151
 70
     8
  0
VERTEX
  5
569
330
4C1
100
AcDbEntity
  8
HA-811
100
AcDbVertex
100
AcDb2dVertex
 10
396377.541435399
 20
229678.2381703079
 30
61.151
 70
     8
  0
VERTEX
  5
56A
330
4C1
100
AcDbEntity
  8
HA-811
100
AcDbVertex
100
AcDb2dVertex
 10
396377.5350140882
 20
229678.2423747091
 30
61.151
 70
     8
  0
VERTEX
  5
56B
330
4C1
100
AcDbEntity
  8
HA-811
100
AcDbVertex
100
AcDb2dVertex
 10
396377.5288121866
 20
229678.2461227716
 30
61.151
 70
     8
  0
VERTEX
  5
56C
330
4C1
100
AcDbEntity
  8
HA-811
100
AcDbVertex
100
AcDb2dVertex
 10
396377.5228817274
 20
229678.2493998339
 30
61.151
 70
     8
  0
VERTEX
  5
56D
330
4C1
100
AcDbEntity
  8
HA-811
100
AcDbVertex
100
AcDb2dVertex
 10
396377.5171087662
 20
229678.2522237033
 30
61.151
 70
     8
  0
VERTEX
  5
56E
330
4C1
100
AcDbEntity
  8
HA-811
100
AcDbVertex
100
AcDb2dVertex
 10
396377.5113378645
 20
229678.2546203043
 30
61.151
 70
     8
  0
VERTEX
  5
56F
330
4C1
100
AcDbEntity
  8
HA-811
100
AcDbVertex
100
AcDb2dVertex
 10
396377.5054135837
 20
229678.2566155616
 30
61.151
 70
     8
  0
VERTEX
  5
570
330
4C1
100
AcDbEntity
  8
HA-811
100
AcDbVertex
100
AcDb2dVertex
 10
396377.4991804853
 20
229678.2582353998
 30
61.151
 70
     8
  0
VERTEX
  5
571
330
4C1
100
AcDbEntity
  8
HA-811
100
AcDbVertex
100
AcDb2dVertex
 10
396377.4924831306
 20
229678.2595057434
 30
61.151
 70
     8
  0
VERTEX
  5
572
330
4C1
100
AcDbEntity
  8
HA-811
100
AcDbVertex
100
AcDb2dVertex
 10
396377.4851660809
 20
229678.2604525171
 30
61.151
 70
     8
  0
VERTEX
  5
573
330
4C1
100
AcDbEntity
  8
HA-811
100
AcDbVertex
100
AcDb2dVertex
 10
396377.4770738978
 20
229678.2611016455
 30
61.151
 70
     8
  0
VERTEX
  5
574
330
4C1
100
AcDbEntity
  8
HA-811
100
AcDbVertex
100
AcDb2dVertex
 10
396377.4681165581
 20
229678.2614801311
 30
61.151
 70
     8
  0
VERTEX
  5
575
330
4C1
100
AcDbEntity
  8
HA-811
100
AcDbVertex
100
AcDb2dVertex
 10
396377.4584657006
 20
229678.2616192882
 30
61.151
 70
     8
  0
VERTEX
  5
576
330
4C1
100
AcDbEntity
  8
HA-811
100
AcDbVertex
100
AcDb2dVertex
 10
396377.4483583796
 20
229678.2615515091
 30
61.151
 70
     8
  0
VERTEX
  5
577
330
4C1
100
AcDbEntity
  8
HA-811
100
AcDbVertex
100
AcDb2dVertex
 10
396377.4380316495
 20
229678.2613091861
 30
61.151
 70
     8
  0
VERTEX
  5
578
330
4C1
100
AcDbEntity
  8
HA-811
100
AcDbVertex
100
AcDb2dVertex
 10
396377.4277225646
 20
229678.2609247114
 30
61.151
 70
     8
  0
VERTEX
  5
579
330
4C1
100
AcDbEntity
  8
HA-811
100
AcDbVertex
100
AcDb2dVertex
 10
396377.4176681792
 20
229678.2604304774
 30
61.151
 70
     8
  0
VERTEX
  5
57A
330
4C1
100
AcDbEntity
  8
HA-811
100
AcDbVertex
100
AcDb2dVertex
 10
396377.4081055475
 20
229678.2598588762
 30
61.151
 70
     8
  0
VERTEX
  5
57B
330
4C1
100
AcDbEntity
  8
HA-811
100
AcDbVertex
100
AcDb2dVertex
 10
396377.3889691915
 20
229678.2593765144
 30
61.151
 70
    16
  0
VERTEX
  5
57C
330
4C1
100
AcDbEntity
  8
HA-811
100
AcDbVertex
100
AcDb2dVertex
 10
396377.3527535783
 20
229678.2539477439
 30
61.151
 70
    16
  0
VERTEX
  5
57D
330
4C1
100
AcDbEntity
  8
HA-811
100
AcDbVertex
100
AcDb2dVertex
 10
396377.3193237815
 20
229678.243090203
 30
61.151
 70
    16
  0
VERTEX
  5
57E
330
4C1
100
AcDbEntity
  8
HA-811
100
AcDbVertex
100
AcDb2dVertex
 10
396377.2199629968
 20
229678.1704803987
 30
61.151
 70
    16
  0
VERTEX
  5
57F
330
4C1
100
AcDbEntity
  8
HA-811
100
AcDbVertex
100
AcDb2dVertex
 10
396377.1939620437
 20
229678.1514797023
 30
61.151
 70
    16
  0
VERTEX
  5
580
330
4C1
100
AcDbEntity
  8
HA-811
100
AcDbVertex
100
AcDb2dVertex
 10
396377.1837473836
 20
229678.1338361985
 30
61.151
 70
    16
  0
VERTEX
  5
581
330
4C1
100
AcDbEntity
  8
HA-811
100
AcDbVertex
100
AcDb2dVertex
 10
396377.1391743213
 20
229678.0693695497
 30
61.151
 70
    16
  0
VERTEX
  5
582
330
4C1
100
AcDbEntity
  8
HA-811
100
AcDbVertex
100
AcDb2dVertex
 10
396377.132674083
 20
229677.9954025529
 30
61.151
 70
    16
  0
VERTEX
  5
583
330
4C1
100
AcDbEntity
  8
HA-811
100
AcDbVertex
100
AcDb2dVertex
 10
396377.1317454776
 20
229677.9071850335
 30
61.151
 70
    16
  0
VERTEX
  5
584
330
4C1
100
AcDbEntity
  8
HA-811
100
AcDbVertex
100
AcDb2dVertex
 10
396377.1531034032
 20
229677.831860844
 30
61.151
 70
    16
  0
VERTEX
  5
585
330
4C1
100
AcDbEntity
  8
HA-811
100
AcDbVertex
100
AcDb2dVertex
 10
396377.190247622
 20
229677.7321071876
 30
61.151
 70
    16
  0
VERTEX
  5
586
330
4C1
100
AcDbEntity
  8
HA-811
100
AcDbVertex
100
AcDb2dVertex
 10
396377.254321399
 20
229677.6567829981
 30
61.151
 70
    16
  0
VERTEX
  5
587
330
4C1
100
AcDbEntity
  8
HA-811
100
AcDbVertex
100
AcDb2dVertex
 10
396377.3072519106
 20
229677.6432110721
 30
61.151
 70
    16
  0
VERTEX
  5
588
330
4C1
100
AcDbEntity
  8
HA-811
100
AcDbVertex
100
AcDb2dVertex
 10
396377.3750401096
 20
229677.6309963387
 30
61.151
 70
    16
  0
VERTEX
  5
589
330
4C1
100
AcDbEntity
  8
HA-811
100
AcDbVertex
100
AcDb2dVertex
 10
396377.499473242
 20
229677.7042847393
 30
61.151
 70
    16
  0
VERTEX
  5
58A
330
4C1
100
AcDbEntity
  8
HA-811
100
AcDbVertex
100
AcDb2dVertex
 10
396377.5802619174
 20
229677.7701085806
 30
61.151
 70
    16
  0
VERTEX
  5
58B
330
4C1
100
AcDbEntity
  8
HA-811
100
AcDbVertex
100
AcDb2dVertex
 10
396377.6155489254
 20
229677.8216818995
 30
61.151
 70
    16
  0
VERTEX
  5
58C
330
4C1
100
AcDbEntity
  8
HA-811
100
AcDbVertex
100
AcDb2dVertex
 10
396377.6294780072
 20
229677.8976846853
 30
61.151
 70
    16
  0
VERTEX
  5
58D
330
4C1
100
AcDbEntity
  8
HA-811
100
AcDbVertex
100
AcDb2dVertex
 10
396377.6350496401
 20
229678.0327253494
 30
61.151
 70
    16
  0
VERTEX
  5
58E
330
4C1
100
AcDbEntity
  8
HA-811
100
AcDbVertex
100
AcDb2dVertex
 10
396377.6146203197
 20
229678.1453723356
 30
61.151
 70
    16
  0
VERTEX
  5
58F
330
4C1
100
AcDbEntity
  8
HA-811
100
AcDbVertex
100
AcDb2dVertex
 10
396377.5839763394
 20
229678.2078031953
 30
61.151
 70
    16
  0
VERTEX
  5
590
330
4C1
100
AcDbEntity
  8
HA-811
100
AcDbVertex
100
AcDb2dVertex
 10
396377.525474195
 20
229678.2512333586
 30
61.151
 70
    16
  0
SEQEND
  5
591
330
4C1
100
AcDbEntity
  8
HA-811
390
F
  0
POLYLINE
  5
592
330
1F
100
AcDbEntity
  8
HA-807
100
AcDb3dPolyline
 66
     1
 10
0.0
 20
0.0
 30
0.0
 70
    13
 75
     6
  0
VERTEX
  5
593
330
592
100
AcDbEntity
  8
HA-807
100
AcDbVertex
100
AcDb3dPolylineVertex
 10
396379.638
 20
229676.398
 30
61.191
 70
    48
  0
VERTEX
  5
594
330
592
100
AcDbEntity
  8
HA-807
100
AcDbVertex
100
AcDb3dPolylineVertex
 10
396379.6095657907
 20
229676.3064916469
 30
10.1985
 70
    40
  0
VERTEX
  5
595
330
592
100
AcDbEntity
  8
HA-807
100
AcDbVertex
100
AcDb3dPolylineVertex
 10
396379.606652834
 20
229676.2970943974
 30
6.832198242187499
 70
    40
  0
VERTEX
  5
596
330
592
100
AcDbEntity
  8
HA-807
100
AcDbVertex
100
AcDb3dPolylineVertex
 10
396379.6039459314
 20
229676.2882990516
 30
4.3024921875
 70
    40
  0
VERTEX
  5
597
330
592
100
AcDbEntity
  8
HA-807
100
AcDbVertex
100
AcDb3dPolylineVertex
 10
396379.6014488108
 20
229676.2800605209
 30
2.4898681640625
 70
    40
  0
VERTEX
  5
598
330
592
100
AcDbEntity
  8
HA-807
100
AcDbVertex
100
AcDb3dPolylineVertex
 10
396379.5991652005
 20
229676.2723337165
 30
1.274812500000001
 70
    40
  0
VERTEX
  5
599
330
592
100
AcDbEntity
  8
HA-807
100
AcDbVertex
100
AcDb3dPolylineVertex
 10
396379.5970988288
 20
229676.2650735497
 30
0.5378115234374986
 70
    40
  0
VERTEX
  5
59A
330
592
100
AcDbEntity
  8
HA-807
100
AcDbVertex
100
AcDb3dPolylineVertex
 10
396379.5952534238
 20
229676.2582349319
 30
0.1593515625000007
 70
    40
  0
VERTEX
  5
59B
330
592
100
AcDbEntity
  8
HA-807
100
AcDbVertex
100
AcDb3dPolylineVertex
 10
396379.5936327139
 20
229676.2517727743
 30
0.0199189453124996
 70
    40
  0
VERTEX
  5
59C
330
592
100
AcDbEntity
  8
HA-807
100
AcDbVertex
100
AcDb3dPolylineVertex
 10
396379.592240427
 20
229676.2456419881
 30
0.0
 70
    40
  0
VERTEX
  5
59D
330
592
100
AcDbEntity
  8
HA-807
100
AcDbVertex
100
AcDb3dPolylineVertex
 10
396379.5910742292
 20
229676.2398027907
 30
0.0
 70
    40
  0
VERTEX
  5
59E
330
592
100
AcDbEntity
  8
HA-807
100
AcDbVertex
100
AcDb3dPolylineVertex
 10
396379.5901075362
 20
229676.2342366222
 30
0.0
 70
    40
  0
VERTEX
  5
59F
330
592
100
AcDbEntity
  8
HA-807
100
AcDbVertex
100
AcDb3dPolylineVertex
 10
396379.5893077022
 20
229676.2289302289
 30
0.0
 70
    40
  0
VERTEX
  5
5A0
330
592
100
AcDbEntity
  8
HA-807
100
AcDbVertex
100
AcDb3dPolylineVertex
 10
396379.5886420808
 20
229676.2238703568
 30
0.0
 70
    40
  0
VERTEX
  5
5A1
330
592
100
AcDbEntity
  8
HA-807
100
AcDbVertex
100
AcDb3dPolylineVertex
 10
396379.5880780254
 20
229676.2190437523
 30
0.0
 70
    40
  0
VERTEX
  5
5A2
330
592
100
AcDbEntity
  8
HA-807
100
AcDbVertex
100
AcDb3dPolylineVertex
 10
396379.5875828901
 20
229676.2144371614
 30
0.0
 70
    40
  0
VERTEX
  5
5A3
330
592
100
AcDbEntity
  8
HA-807
100
AcDbVertex
100
AcDb3dPolylineVertex
 10
396379.5871240284
 20
229676.2100373303
 30
0.0
 70
    40
  0
VERTEX
  5
5A4
330
592
100
AcDbEntity
  8
HA-807
100
AcDbVertex
100
AcDb3dPolylineVertex
 10
396379.5866687941
 20
229676.2058310052
 30
0.0
 70
    40
  0
VERTEX
  5
5A5
330
592
100
AcDbEntity
  8
HA-807
100
AcDbVertex
100
AcDb3dPolylineVertex
 10
396379.5861920979
 20
229676.2017914575
 30
0.0
 70
    40
  0
VERTEX
  5
5A6
330
592
100
AcDbEntity
  8
HA-807
100
AcDbVertex
100
AcDb3dPolylineVertex
 10
396379.5856990786
 20
229676.1978380597
 30
0.0
 70
    40
  0
VERTEX
  5
5A7
330
592
100
AcDbEntity
  8
HA-807
100
AcDbVertex
100
AcDb3dPolylineVertex
 10
396379.5852024318
 20
229676.1938767096
 30
0.0
 70
    40
  0
VERTEX
  5
5A8
330
592
100
AcDbEntity
  8
HA-807
100
AcDbVertex
100
AcDb3dPolylineVertex
 10
396379.5847148534
 20
229676.189813305
 30
0.0
 70
    40
  0
VERTEX
  5
5A9
330
592
100
AcDbEntity
  8
HA-807
100
AcDbVertex
100
AcDb3dPolylineVertex
 10
396379.5842490394
 20
229676.1855537436
 30
0.0
 70
    40
  0
VERTEX
  5
5AA
330
592
100
AcDbEntity
  8
HA-807
100
AcDbVertex
100
AcDb3dPolylineVertex
 10
396379.5838176852
 20
229676.1810039233
 30
0.0
 70
    40
  0
VERTEX
  5
5AB
330
592
100
AcDbEntity
  8
HA-807
100
AcDbVertex
100
AcDb3dPolylineVertex
 10
396379.5834334868
 20
229676.1760697417
 30
0.0
 70
    40
  0
VERTEX
  5
5AC
330
592
100
AcDbEntity
  8
HA-807
100
AcDbVertex
100
AcDb3dPolylineVertex
 10
396379.5831091399
 20
229676.1706570968
 30
0.0
 70
    40
  0
VERTEX
  5
5AD
330
592
100
AcDbEntity
  8
HA-807
100
AcDbVertex
100
AcDb3dPolylineVertex
 10
396379.582853713
 20
229676.1647078925
 30
0.0
 70
    40
  0
VERTEX
  5
5AE
330
592
100
AcDbEntity
  8
HA-807
100
AcDbVertex
100
AcDb3dPolylineVertex
 10
396379.5826617649
 20
229676.1583080578
 30
0.0
 70
    40
  0
VERTEX
  5
5AF
330
592
100
AcDbEntity
  8
HA-807
100
AcDbVertex
100
AcDb3dPolylineVertex
 10
396379.5825242273
 20
229676.1515795281
 30
0.0
 70
    40
  0
VERTEX
  5
5B0
330
592
100
AcDbEntity
  8
HA-807
100
AcDbVertex
100
AcDb3dPolylineVertex
 10
396379.5824320318
 20
229676.1446442385
 30
0.0
 70
    40
  0
VERTEX
  5
5B1
330
592
100
AcDbEntity
  8
HA-807
100
AcDbVertex
100
AcDb3dPolylineVertex
 10
396379.5823761099
 20
229676.1376241245
 30
0.0
 70
    40
  0
VERTEX
  5
5B2
330
592
100
AcDbEntity
  8
HA-807
100
AcDbVertex
100
AcDb3dPolylineVertex
 10
396379.5823473933
 20
229676.1306411211
 30
0.0
 70
    40
  0
VERTEX
  5
5B3
330
592
100
AcDbEntity
  8
HA-807
100
AcDbVertex
100
AcDb3dPolylineVertex
 10
396379.5823368134
 20
229676.1238171638
 30
0.0
 70
    40
  0
VERTEX
  5
5B4
330
592
100
AcDbEntity
  8
HA-807
100
AcDbVertex
100
AcDb3dPolylineVertex
 10
396379.5823353021
 20
229676.1172741877
 30
0.0
 70
    40
  0
VERTEX
  5
5B5
330
592
100
AcDbEntity
  8
HA-807
100
AcDbVertex
100
AcDb3dPolylineVertex
 10
396379.5823464865
 20
229676.1110976801
 30
0.0
 70
    40
  0
VERTEX
  5
5B6
330
592
100
AcDbEntity
  8
HA-807
100
AcDbVertex
100
AcDb3dPolylineVertex
 10
396379.5824247771
 20
229676.1052273361
 30
0.0
 70
    40
  0
VERTEX
  5
5B7
330
592
100
AcDbEntity
  8
HA-807
100
AcDbVertex
100
AcDb3dPolylineVertex
 10
396379.5826372802
 20
229676.0995664027
 30
0.0
 70
    40
  0
VERTEX
  5
5B8
330
592
100
AcDbEntity
  8
HA-807
100
AcDbVertex
100
AcDb3dPolylineVertex
 10
396379.5830511021
 20
229676.0940181269
 30
0.0
 70
    40
  0
VERTEX
  5
5B9
330
592
100
AcDbEntity
  8
HA-807
100
AcDbVertex
100
AcDb3dPolylineVertex
 10
396379.583733349
 20
229676.0884857557
 30
0.0
 70
    40
  0
VERTEX
  5
5BA
330
592
100
AcDbEntity
  8
HA-807
100
AcDbVertex
100
AcDb3dPolylineVertex
 10
396379.5847511272
 20
229676.0828725361
 30
0.0
 70
    40
  0
VERTEX
  5
5BB
330
592
100
AcDbEntity
  8
HA-807
100
AcDbVertex
100
AcDb3dPolylineVertex
 10
396379.5861715429
 20
229676.0770817151
 30
0.0
 70
    40
  0
VERTEX
  5
5BC
330
592
100
AcDbEntity
  8
HA-807
100
AcDbVertex
100
AcDb3dPolylineVertex
 10
396379.5880617024
 20
229676.0710165397
 30
0.0
 70
    40
  0
VERTEX
  5
5BD
330
592
100
AcDbEntity
  8
HA-807
100
AcDbVertex
100
AcDb3dPolylineVertex
 10
396379.590459693
 20
229676.0646118453
 30
0.0
 70
    40
  0
VERTEX
  5
5BE
330
592
100
AcDbEntity
  8
HA-807
100
AcDbVertex
100
AcDb3dPolylineVertex
 10
396379.5932875264
 20
229676.0579288205
 30
0.0
 70
    40
  0
VERTEX
  5
5BF
330
592
100
AcDbEntity
  8
HA-807
100
AcDbVertex
100
AcDb3dPolylineVertex
 10
396379.5964381953
 20
229676.0510602419
 30
0.0
 70
    40
  0
VERTEX
  5
5C0
330
592
100
AcDbEntity
  8
HA-807
100
AcDbVertex
100
AcDb3dPolylineVertex
 10
396379.5998046924
 20
229676.0440988864
 30
0.0
 70
    40
  0
VERTEX
  5
5C1
330
592
100
AcDbEntity
  8
HA-807
100
AcDbVertex
100
AcDb3dPolylineVertex
 10
396379.6032800104
 20
229676.037137531
 30
0.0
 70
    40
  0
VERTEX
  5
5C2
330
592
100
AcDbEntity
  8
HA-807
100
AcDbVertex
100
AcDb3dPolylineVertex
 10
396379.6067571422
 20
229676.0302689525
 30
0.0
 70
    40
  0
VERTEX
  5
5C3
330
592
100
AcDbEntity
  8
HA-807
100
AcDbVertex
100
AcDb3dPolylineVertex
 10
396379.6101290803
 20
229676.0235859275
 30
0.0
 70
    40
  0
VERTEX
  5
5C4
330
592
100
AcDbEntity
  8
HA-807
100
AcDbVertex
100
AcDb3dPolylineVertex
 10
396379.6132888175
 20
229676.0171812331
 30
0.0
 70
    40
  0
VERTEX
  5
5C5
330
592
100
AcDbEntity
  8
HA-807
100
AcDbVertex
100
AcDb3dPolylineVertex
 10
396379.6161632021
 20
229676.0111271027
 30
0.0
 70
    40
  0
VERTEX
  5
5C6
330
592
100
AcDbEntity
  8
HA-807
100
AcDbVertex
100
AcDb3dPolylineVertex
 10
396379.6188145037
 20
229676.0054135957
 30
0.0
 70
    40
  0
VERTEX
  5
5C7
330
592
100
AcDbEntity
  8
HA-807
100
AcDbVertex
100
AcDb3dPolylineVertex
 10
396379.6213388476
 20
229676.0000102285
 30
0.0
 70
    40
  0
VERTEX
  5
5C8
330
592
100
AcDbEntity
  8
HA-807
100
AcDbVertex
100
AcDb3dPolylineVertex
 10
396379.6238323587
 20
229675.9948865171
 30
0.0
 70
    40
  0
VERTEX
  5
5C9
330
592
100
AcDbEntity
  8
HA-807
100
AcDbVertex
100
AcDb3dPolylineVertex
 10
396379.6263911626
 20
229675.9900119779
 30
0.0
 70
    40
  0
VERTEX
  5
5CA
330
592
100
AcDbEntity
  8
HA-807
100
AcDbVertex
100
AcDb3dPolylineVertex
 10
396379.629111384
 20
229675.9853561269
 30
0.0
 70
    40
  0
VERTEX
  5
5CB
330
592
100
AcDbEntity
  8
HA-807
100
AcDbVertex
100
AcDb3dPolylineVertex
 10
396379.6320891485
 20
229675.9808884803
 30
0.0
 70
    40
  0
VERTEX
  5
5CC
330
592
100
AcDbEntity
  8
HA-807
100
AcDbVertex
100
AcDb3dPolylineVertex
 10
396379.6354205811
 20
229675.9765785545
 30
0.0
 70
    40
  0
VERTEX
  5
5CD
330
592
100
AcDbEntity
  8
HA-807
100
AcDbVertex
100
AcDb3dPolylineVertex
 10
396379.6391758108
 20
229675.9723894593
 30
0.0
 70
    40
  0
VERTEX
  5
5CE
330
592
100
AcDbEntity
  8
HA-807
100
AcDbVertex
100
AcDb3dPolylineVertex
 10
396379.6433209823
 20
229675.968258681
 30
0.0
 70
    40
  0
VERTEX
  5
5CF
330
592
100
AcDbEntity
  8
HA-807
100
AcDbVertex
100
AcDb3dPolylineVertex
 10
396379.647796244
 20
229675.9641172997
 30
0.0
 70
    40
  0
VERTEX
  5
5D0
330
592
100
AcDbEntity
  8
HA-807
100
AcDbVertex
100
AcDb3dPolylineVertex
 10
396379.6525417443
 20
229675.9598963953
 30
0.0
 70
    40
  0
VERTEX
  5
5D1
330
592
100
AcDbEntity
  8
HA-807
100
AcDbVertex
100
AcDb3dPolylineVertex
 10
396379.6574976319
 20
229675.9555270481
 30
0.0
 70
    40
  0
VERTEX
  5
5D2
330
592
100
AcDbEntity
  8
HA-807
100
AcDbVertex
100
AcDb3dPolylineVertex
 10
396379.6626040551
 20
229675.9509403379
 30
0.0
 70
    40
  0
VERTEX
  5
5D3
330
592
100
AcDbEntity
  8
HA-807
100
AcDbVertex
100
AcDb3dPolylineVertex
 10
396379.6678011625
 20
229675.9460673449
 30
0.0
 70
    40
  0
VERTEX
  5
5D4
330
592
100
AcDbEntity
  8
HA-807
100
AcDbVertex
100
AcDb3dPolylineVertex
 10
396379.6730291024
 20
229675.9408391492
 30
0.0
 70
    40
  0
VERTEX
  5
5D5
330
592
100
AcDbEntity
  8
HA-807
100
AcDbVertex
100
AcDb3dPolylineVertex
 10
396379.678253415
 20
229675.9352140011
 30
0.0
 70
    40
  0
VERTEX
  5
5D6
330
592
100
AcDbEntity
  8
HA-807
100
AcDbVertex
100
AcDb3dPolylineVertex
 10
396379.6835412065
 20
229675.9292588326
 30
0.0
 70
    40
  0
VERTEX
  5
5D7
330
592
100
AcDbEntity
  8
HA-807
100
AcDbVertex
100
AcDb3dPolylineVertex
 10
396379.6889849747
 20
229675.9230677458
 30
0.0
 70
    40
  0
VERTEX
  5
5D8
330
592
100
AcDbEntity
  8
HA-807
100
AcDbVertex
100
AcDb3dPolylineVertex
 10
396379.6946772173
 20
229675.916734843
 30
0.0
 70
    40
  0
VERTEX
  5
5D9
330
592
100
AcDbEntity
  8
HA-807
100
AcDbVertex
100
AcDb3dPolylineVertex
 10
396379.7007104324
 20
229675.9103542264
 30
0.0
 70
    40
  0
VERTEX
  5
5DA
330
592
100
AcDbEntity
  8
HA-807
100
AcDbVertex
100
AcDb3dPolylineVertex
 10
396379.7071771175
 20
229675.9040199983
 30
0.0
 70
    40
  0
VERTEX
  5
5DB
330
592
100
AcDbEntity
  8
HA-807
100
AcDbVertex
100
AcDb3dPolylineVertex
 10
396379.7141697707
 20
229675.8978262607
 30
0.0
 70
    40
  0
VERTEX
  5
5DC
330
592
100
AcDbEntity
  8
HA-807
100
AcDbVertex
100
AcDb3dPolylineVertex
 10
396379.7217808894
 20
229675.891867116
 30
0.0
 70
    40
  0
VERTEX
  5
5DD
330
592
100
AcDbEntity
  8
HA-807
100
AcDbVertex
100
AcDb3dPolylineVertex
 10
396379.7300660936
 20
229675.8862207618
 30
0.0
 70
    40
  0
VERTEX
  5
5DE
330
592
100
AcDbEntity
  8
HA-807
100
AcDbVertex
100
AcDb3dPolylineVertex
 10
396379.7389334899
 20
229675.8809017773
 30
0.0
 70
    40
  0
VERTEX
  5
5DF
330
592
100
AcDbEntity
  8
HA-807
100
AcDbVertex
100
AcDb3dPolylineVertex
 10
396379.7482543068
 20
229675.8759088372
 30
0.0
 70
    40
  0
VERTEX
  5
5E0
330
592
100
AcDbEntity
  8
HA-807
100
AcDbVertex
100
AcDb3dPolylineVertex
 10
396379.7578997729
 20
229675.8712406159
 30
0.0
 70
    40
  0
VERTEX
  5
5E1
330
592
100
AcDbEntity
  8
HA-807
100
AcDbVertex
100
AcDb3dPolylineVertex
 10
396379.7677411167
 20
229675.8668957882
 30
0.0
 70
    40
  0
VERTEX
  5
5E2
330
592
100
AcDbEntity
  8
HA-807
100
AcDbVertex
100
AcDb3dPolylineVertex
 10
396379.7776495668
 20
229675.8628730287
 30
0.0
 70
    40
  0
VERTEX
  5
5E3
330
592
100
AcDbEntity
  8
HA-807
100
AcDbVertex
100
AcDb3dPolylineVertex
 10
396379.7874963516
 20
229675.859171012
 30
0.0
 70
    40
  0
VERTEX
  5
5E4
330
592
100
AcDbEntity
  8
HA-807
100
AcDbVertex
100
AcDb3dPolylineVertex
 10
396379.7971526997
 20
229675.8557884126
 30
0.0
 70
    40
  0
VERTEX
  5
5E5
330
592
100
AcDbEntity
  8
HA-807
100
AcDbVertex
100
AcDb3dPolylineVertex
 10
396379.806526718
 20
229675.8527172784
 30
0.0
 70
    40
  0
VERTEX
  5
5E6
330
592
100
AcDbEntity
  8
HA-807
100
AcDbVertex
100
AcDb3dPolylineVertex
 10
396379.815674026
 20
229675.8499231493
 30
0.0
 70
    40
  0
VERTEX
  5
5E7
330
592
100
AcDbEntity
  8
HA-807
100
AcDbVertex
100
AcDb3dPolylineVertex
 10
396379.8246871214
 20
229675.8473649385
 30
0.0
 70
    40
  0
VERTEX
  5
5E8
330
592
100
AcDbEntity
  8
HA-807
100
AcDbVertex
100
AcDb3dPolylineVertex
 10
396379.8336585021
 20
229675.845001559
 30
0.0
 70
    40
  0
VERTEX
  5
5E9
330
592
100
AcDbEntity
  8
HA-807
100
AcDbVertex
100
AcDb3dPolylineVertex
 10
396379.842680666
 20
229675.8427919239
 30
0.0
 70
    40
  0
VERTEX
  5
5EA
330
592
100
AcDbEntity
  8
HA-807
100
AcDbVertex
100
AcDb3dPolylineVertex
 10
396379.8518461108
 20
229675.8406949465
 30
0.0
 70
    40
  0
VERTEX
  5
5EB
330
592
100
AcDbEntity
  8
HA-807
100
AcDbVertex
100
AcDb3dPolylineVertex
 10
396379.8612473343
 20
229675.8386695398
 30
0.0
 70
    40
  0
VERTEX
  5
5EC
330
592
100
AcDbEntity
  8
HA-807
100
AcDbVertex
100
AcDb3dPolylineVertex
 10
396379.8709768343
 20
229675.8366746168
 30
0.0
 70
    40
  0
VERTEX
  5
5ED
330
592
100
AcDbEntity
  8
HA-807
100
AcDbVertex
100
AcDb3dPolylineVertex
 10
396379.8811008103
 20
229675.8346814611
 30
0.0
 70
    40
  0
VERTEX
  5
5EE
330
592
100
AcDbEntity
  8
HA-807
100
AcDbVertex
100
AcDb3dPolylineVertex
 10
396379.8915802681
 20
229675.8327108369
 30
0.0
 70
    40
  0
VERTEX
  5
5EF
330
592
100
AcDbEntity
  8
HA-807
100
AcDbVertex
100
AcDb3dPolylineVertex
 10
396379.9023499151
 20
229675.8307958787
 30
0.0
 70
    40
  0
VERTEX
  5
5F0
330
592
100
AcDbEntity
  8
HA-807
100
AcDbVertex
100
AcDb3dPolylineVertex
 10
396379.9133444587
 20
229675.8289697213
 30
0.0
 70
    40
  0
VERTEX
  5
5F1
330
592
100
AcDbEntity
  8
HA-807
100
AcDbVertex
100
AcDb3dPolylineVertex
 10
396379.9244986063
 20
229675.8272654991
 30
0.0
 70
    40
  0
VERTEX
  5
5F2
330
592
100
AcDbEntity
  8
HA-807
100
AcDbVertex
100
AcDb3dPolylineVertex
 10
396379.9357470655
 20
229675.8257163468
 30
0.0
 70
    40
  0
VERTEX
  5
5F3
330
592
100
AcDbEntity
  8
HA-807
100
AcDbVertex
100
AcDb3dPolylineVertex
 10
396379.9470245436
 20
229675.824355399
 30
0.0
 70
    40
  0
VERTEX
  5
5F4
330
592
100
AcDbEntity
  8
HA-807
100
AcDbVertex
100
AcDb3dPolylineVertex
 10
396379.958265748
 20
229675.8232157902
 30
0.0
 70
    40
  0
VERTEX
  5
5F5
330
592
100
AcDbEntity
  8
HA-807
100
AcDbVertex
100
AcDb3dPolylineVertex
 10
396379.9693999452
 20
229675.8223242489
 30
0.0
 70
    40
  0
VERTEX
  5
5F6
330
592
100
AcDbEntity
  8
HA-807
100
AcDbVertex
100
AcDb3dPolylineVertex
 10
396379.9803346373
 20
229675.8216818798
 30
0.0
 70
    40
  0
VERTEX
  5
5F7
330
592
100
AcDbEntity
  8
HA-807
100
AcDbVertex
100
AcDb3dPolylineVertex
 10
396379.9909718854
 20
229675.8212833812
 30
0.0
 70
    40
  0
VERTEX
  5
5F8
330
592
100
AcDbEntity
  8
HA-807
100
AcDbVertex
100
AcDb3dPolylineVertex
 10
396380.0012137508
 20
229675.8211234516
 30
0.0
 70
    40
  0
VERTEX
  5
5F9
330
592
100
AcDbEntity
  8
HA-807
100
AcDbVertex
100
AcDb3dPolylineVertex
 10
396380.0109622945
 20
229675.8211967894
 30
0.0
 70
    40
  0
VERTEX
  5
5FA
330
592
100
AcDbEntity
  8
HA-807
100
AcDbVertex
100
AcDb3dPolylineVertex
 10
396380.0201195777
 20
229675.8214980933
 30
0.0
 70
    40
  0
VERTEX
  5
5FB
330
592
100
AcDbEntity
  8
HA-807
100
AcDbVertex
100
AcDb3dPolylineVertex
 10
396380.0285876615
 20
229675.8220220615
 30
0.0
 70
    40
  0
VERTEX
  5
5FC
330
592
100
AcDbEntity
  8
HA-807
100
AcDbVertex
100
AcDb3dPolylineVertex
 10
396380.0362686072
 20
229675.8227633926
 30
0.0
 70
    40
  0
VERTEX
  5
5FD
330
592
100
AcDbEntity
  8
HA-807
100
AcDbVertex
100
AcDb3dPolylineVertex
 10
396380.0431258387
 20
229675.8237185522
 30
0.0
 70
    40
  0
VERTEX
  5
5FE
330
592
100
AcDbEntity
  8
HA-807
100
AcDbVertex
100
AcDb3dPolylineVertex
 10
396380.0493682317
 20
229675.8248910748
 30
0.0
 70
    40
  0
VERTEX
  5
5FF
330
592
100
AcDbEntity
  8
HA-807
100
AcDbVertex
100
AcDb3dPolylineVertex
 10
396380.0552660251
 20
229675.8262862617
 30
0.0
 70
    40
  0
VERTEX
  5
600
330
592
100
AcDbEntity
  8
HA-807
100
AcDbVertex
100
AcDb3dPolylineVertex
 10
396380.0610894575
 20
229675.8279094145
 30
0.0
 70
    40
  0
VERTEX
  5
601
330
592
100
AcDbEntity
  8
HA-807
100
AcDbVertex
100
AcDb3dPolylineVertex
 10
396380.0671087676
 20
229675.8297658349
 30
0.0
 70
    40
  0
VERTEX
  5
602
330
592
100
AcDbEntity
  8
HA-807
100
AcDbVertex
100
AcDb3dPolylineVertex
 10
396380.0735941941
 20
229675.8318608243
 30
0.0
 70
    40
  0
VERTEX
  5
603
330
592
100
AcDbEntity
  8
HA-807
100
AcDbVertex
100
AcDb3dPolylineVertex
 10
396380.0808159758
 20
229675.8341996842
 30
0.0
 70
    40
  0
VERTEX
  5
604
330
592
100
AcDbEntity
  8
HA-807
100
AcDbVertex
100
AcDb3dPolylineVertex
 10
396380.0890443512
 20
229675.8367877162
 30
0.0
 70
    40
  0
VERTEX
  5
605
330
592
100
AcDbEntity
  8
HA-807
100
AcDbVertex
100
AcDb3dPolylineVertex
 10
396380.0984510158
 20
229675.83962978
 30
0.0
 70
    40
  0
VERTEX
  5
606
330
592
100
AcDbEntity
  8
HA-807
100
AcDbVertex
100
AcDb3dPolylineVertex
 10
396380.108813491
 20
229675.8427289682
 30
0.0
 70
    40
  0
VERTEX
  5
607
330
592
100
AcDbEntity
  8
HA-807
100
AcDbVertex
100
AcDb3dPolylineVertex
 10
396380.1198107551
 20
229675.8460879315
 30
0.0
 70
    40
  0
VERTEX
  5
608
330
592
100
AcDbEntity
  8
HA-807
100
AcDbVertex
100
AcDb3dPolylineVertex
 10
396380.1311217863
 20
229675.8497093207
 30
0.0
 70
    40
  0
VERTEX
  5
609
330
592
100
AcDbEntity
  8
HA-807
100
AcDbVertex
100
AcDb3dPolylineVertex
 10
396380.1424255628
 20
229675.8535957867
 30
0.0
 70
    40
  0
VERTEX
  5
60A
330
592
100
AcDbEntity
  8
HA-807
100
AcDbVertex
100
AcDb3dPolylineVertex
 10
396380.1534010628
 20
229675.8577499801
 30
0.0
 70
    40
  0
VERTEX
  5
60B
330
592
100
AcDbEntity
  8
HA-807
100
AcDbVertex
100
AcDb3dPolylineVertex
 10
396380.1637272644
 20
229675.8621745517
 30
0.0
 70
    40
  0
VERTEX
  5
60C
330
592
100
AcDbEntity
  8
HA-807
100
AcDbVertex
100
AcDb3dPolylineVertex
 10
396380.1730831458
 20
229675.8668721522
 30
0.0
 70
    40
  0
VERTEX
  5
60D
330
592
100
AcDbEntity
  8
HA-807
100
AcDbVertex
100
AcDb3dPolylineVertex
 10
396380.1812329283
 20
229675.8718385847
 30
0.0
 70
    40
  0
VERTEX
  5
60E
330
592
100
AcDbEntity
  8
HA-807
100
AcDbVertex
100
AcDb3dPolylineVertex
 10
396380.1882818055
 20
229675.8770422609
 30
0.0
 70
    40
  0
VERTEX
  5
60F
330
592
100
AcDbEntity
  8
HA-807
100
AcDbVertex
100
AcDb3dPolylineVertex
 10
396380.1944202142
 20
229675.8824447446
 30
0.0
 70
    40
  0
VERTEX
  5
610
330
592
100
AcDbEntity
  8
HA-807
100
AcDbVertex
100
AcDb3dPolylineVertex
 10
396380.1998385908
 20
229675.8880075996
 30
0.0
 70
    40
  0
VERTEX
  5
611
330
592
100
AcDbEntity
  8
HA-807
100
AcDbVertex
100
AcDb3dPolylineVertex
 10
396380.2047273722
 20
229675.8936923899
 30
0.0
 70
    40
  0
VERTEX
  5
612
330
592
100
AcDbEntity
  8
HA-807
100
AcDbVertex
100
AcDb3dPolylineVertex
 10
396380.2092769949
 20
229675.8994606794
 30
0.0
 70
    40
  0
VERTEX
  5
613
330
592
100
AcDbEntity
  8
HA-807
100
AcDbVertex
100
AcDb3dPolylineVertex
 10
396380.2136778955
 20
229675.9052740319
 30
0.0
 70
    40
  0
VERTEX
  5
614
330
592
100
AcDbEntity
  8
HA-807
100
AcDbVertex
100
AcDb3dPolylineVertex
 10
396380.218120511
 20
229675.9110940113
 30
0.0
 70
    40
  0
VERTEX
  5
615
330
592
100
AcDbEntity
  8
HA-807
100
AcDbVertex
100
AcDb3dPolylineVertex
 10
396380.222746006
 20
229675.9168892502
 30
0.0
 70
    40
  0
VERTEX
  5
616
330
592
100
AcDbEntity
  8
HA-807
100
AcDbVertex
100
AcDb3dPolylineVertex
 10
396380.2274984589
 20
229675.9226566561
 30
0.0
 70
    40
  0
VERTEX
  5
617
330
592
100
AcDbEntity
  8
HA-807
100
AcDbVertex
100
AcDb3dPolylineVertex
 10
396380.232272676
 20
229675.9284002051
 30
0.0
 70
    40
  0
VERTEX
  5
618
330
592
100
AcDbEntity
  8
HA-807
100
AcDbVertex
100
AcDb3dPolylineVertex
 10
396380.2369634635
 20
229675.9341238733
 30
0.0
 70
    40
  0
VERTEX
  5
619
330
592
100
AcDbEntity
  8
HA-807
100
AcDbVertex
100
AcDb3dPolylineVertex
 10
396380.2414656282
 20
229675.9398316369
 30
0.0
 70
    40
  0
VERTEX
  5
61A
330
592
100
AcDbEntity
  8
HA-807
100
AcDbVertex
100
AcDb3dPolylineVertex
 10
396380.2456739763
 20
229675.9455274721
 30
0.0
 70
    40
  0
VERTEX
  5
61B
330
592
100
AcDbEntity
  8
HA-807
100
AcDbVertex
100
AcDb3dPolylineVertex
 10
396380.2494833142
 20
229675.951215355
 30
0.0
 70
    40
  0
VERTEX
  5
61C
330
592
100
AcDbEntity
  8
HA-807
100
AcDbVertex
100
AcDb3dPolylineVertex
 10
396380.2527884484
 20
229675.9568992617
 30
0.0
 70
    40
  0
VERTEX
  5
61D
330
592
100
AcDbEntity
  8
HA-807
100
AcDbVertex
100
AcDb3dPolylineVertex
 10
396380.2555150178
 20
229675.9625935505
 30
0.0
 70
    40
  0
VERTEX
  5
61E
330
592
100
AcDbEntity
  8
HA-807
100
AcDbVertex
100
AcDb3dPolylineVertex
 10
396380.2577119919
 20
229675.9683541086
 30
0.0
 70
    40
  0
VERTEX
  5
61F
330
592
100
AcDbEntity
  8
HA-807
100
AcDbVertex
100
AcDb3dPolylineVertex
 10
396380.2594591728
 20
229675.974247205
 30
0.0
 70
    40
  0
VERTEX
  5
620
330
592
100
AcDbEntity
  8
HA-807
100
AcDbVertex
100
AcDb3dPolylineVertex
 10
396380.2608363624
 20
229675.9803391089
 30
0.0
 70
    40
  0
VERTEX
  5
621
330
592
100
AcDbEntity
  8
HA-807
100
AcDbVertex
100
AcDb3dPolylineVertex
 10
396380.2619233628
 20
229675.9866960895
 30
0.0
 70
    40
  0
VERTEX
  5
622
330
592
100
AcDbEntity
  8
HA-807
100
AcDbVertex
100
AcDb3dPolylineVertex
 10
396380.262799976
 20
229675.993384416
 30
0.0
 70
    40
  0
VERTEX
  5
623
330
592
100
AcDbEntity
  8
HA-807
100
AcDbVertex
100
AcDb3dPolylineVertex
 10
396380.2635460041
 20
229676.0004703574
 30
0.0
 70
    40
  0
VERTEX
  5
624
330
592
100
AcDbEntity
  8
HA-807
100
AcDbVertex
100
AcDb3dPolylineVertex
 10
396380.2642412491
 20
229676.0080201831
 30
0.0
 70
    40
  0
VERTEX
  5
625
330
592
100
AcDbEntity
  8
HA-807
100
AcDbVertex
100
AcDb3dPolylineVertex
 10
396380.2649561423
 20
229676.0160838157
 30
0.0
 70
    40
  0
VERTEX
  5
626
330
592
100
AcDbEntity
  8
HA-807
100
AcDbVertex
100
AcDb3dPolylineVertex
 10
396380.2657236322
 20
229676.0246457925
 30
0.0
 70
    40
  0
VERTEX
  5
627
330
592
100
AcDbEntity
  8
HA-807
100
AcDbVertex
100
AcDb3dPolylineVertex
 10
396380.266567297
 20
229676.0336743042
 30
0.0
 70
    40
  0
VERTEX
  5
628
330
592
100
AcDbEntity
  8
HA-807
100
AcDbVertex
100
AcDb3dPolylineVertex
 10
396380.2675107142
 20
229676.0431375417
 30
0.0
 70
    40
  0
VERTEX
  5
629
330
592
100
AcDbEntity
  8
HA-807
100
AcDbVertex
100
AcDb3dPolylineVertex
 10
396380.2685774618
 20
229676.0530036957
 30
0.0
 70
    40
  0
VERTEX
  5
62A
330
592
100
AcDbEntity
  8
HA-807
100
AcDbVertex
100
AcDb3dPolylineVertex
 10
396380.2697911177
 20
229676.0632409571
 30
0.0
 70
    40
  0
VERTEX
  5
62B
330
592
100
AcDbEntity
  8
HA-807
100
AcDbVertex
100
AcDb3dPolylineVertex
 10
396380.2711752598
 20
229676.0738175167
 30
0.0
 70
    40
  0
VERTEX
  5
62C
330
592
100
AcDbEntity
  8
HA-807
100
AcDbVertex
100
AcDb3dPolylineVertex
 10
396380.2727534659
 20
229676.0847015652
 30
0.0
 70
    40
  0
VERTEX
  5
62D
330
592
100
AcDbEntity
  8
HA-807
100
AcDbVertex
100
AcDb3dPolylineVertex
 10
396380.2745335952
 20
229676.0958551083
 30
0.0
 70
    40
  0
VERTEX
  5
62E
330
592
100
AcDbEntity
  8
HA-807
100
AcDbVertex
100
AcDb3dPolylineVertex
 10
396380.276460633
 20
229676.1072154112
 30
0.0
 70
    40
  0
VERTEX
  5
62F
330
592
100
AcDbEntity
  8
HA-807
100
AcDbVertex
100
AcDb3dPolylineVertex
 10
396380.2784638454
 20
229676.118713554
 30
0.0
 70
    40
  0
VERTEX
  5
630
330
592
100
AcDbEntity
  8
HA-807
100
AcDbVertex
100
AcDb3dPolylineVertex
 10
396380.2804724988
 20
229676.1302806168
 30
0.0
 70
    40
  0
VERTEX
  5
631
330
592
100
AcDbEntity
  8
HA-807
100
AcDbVertex
100
AcDb3dPolylineVertex
 10
396380.2824158596
 20
229676.1418476795
 30
0.0
 70
    40
  0
VERTEX
  5
632
330
592
100
AcDbEntity
  8
HA-807
100
AcDbVertex
100
AcDb3dPolylineVertex
 10
396380.2842231942
 20
229676.1533458223
 30
0.0
 70
    40
  0
VERTEX
  5
633
330
592
100
AcDbEntity
  8
HA-807
100
AcDbVertex
100
AcDb3dPolylineVertex
 10
396380.2858237691
 20
229676.1647061252
 30
0.0
 70
    40
  0
VERTEX
  5
634
330
592
100
AcDbEntity
  8
HA-807
100
AcDbVertex
100
AcDb3dPolylineVertex
 10
396380.2871468505
 20
229676.1758596684
 30
0.0
 70
    40
  0
VERTEX
  5
635
330
592
100
AcDbEntity
  8
HA-807
100
AcDbVertex
100
AcDb3dPolylineVertex
 10
396380.2881337961
 20
229676.1867452631
 30
0.0
 70
    40
  0
VERTEX
  5
636
330
592
100
AcDbEntity
  8
HA-807
100
AcDbVertex
100
AcDb3dPolylineVertex
 10
396380.2887743283
 20
229676.1973326467
 30
0.0
 70
    40
  0
VERTEX
  5
637
330
592
100
AcDbEntity
  8
HA-807
100
AcDbVertex
100
AcDb3dPolylineVertex
 10
396380.2890702609
 20
229676.2075992874
 30
0.0
 70
    40
  0
VERTEX
  5
638
330
592
100
AcDbEntity
  8
HA-807
100
AcDbVertex
100
AcDb3dPolylineVertex
 10
396380.2890234073
 20
229676.2175226538
 30
0.0
 70
    40
  0
VERTEX
  5
639
330
592
100
AcDbEntity
  8
HA-807
100
AcDbVertex
100
AcDb3dPolylineVertex
 10
396380.2886355816
 20
229676.2270802144
 30
0.0
 70
    40
  0
VERTEX
  5
63A
330
592
100
AcDbEntity
  8
HA-807
100
AcDbVertex
100
AcDb3dPolylineVertex
 10
396380.2879085972
 20
229676.2362494377
 30
0.0
 70
    40
  0
VERTEX
  5
63B
330
592
100
AcDbEntity
  8
HA-807
100
AcDbVertex
100
AcDb3dPolylineVertex
 10
396380.2868442678
 20
229676.2450077921
 30
0.0
 70
    40
  0
VERTEX
  5
63C
330
592
100
AcDbEntity
  8
HA-807
100
AcDbVertex
100
AcDb3dPolylineVertex
 10
396380.2854444072
 20
229676.2533327462
 30
0.0
 70
    40
  0
VERTEX
  5
63D
330
592
100
AcDbEntity
  8
HA-807
100
AcDbVertex
100
AcDb3dPolylineVertex
 10
396380.2837005514
 20
229676.2612267297
 30
0.0
 70
    40
  0
VERTEX
  5
63E
330
592
100
AcDbEntity
  8
HA-807
100
AcDbVertex
100
AcDb3dPolylineVertex
 10
396380.2815631265
 20
229676.2687920182
 30
0.0
 70
    40
  0
VERTEX
  5
63F
330
592
100
AcDbEntity
  8
HA-807
100
AcDbVertex
100
AcDb3dPolylineVertex
 10
396380.2789722811
 20
229676.2761558484
 30
0.0
 70
    40
  0
VERTEX
  5
640
330
592
100
AcDbEntity
  8
HA-807
100
AcDbVertex
100
AcDb3dPolylineVertex
 10
396380.2758681634
 20
229676.2834454571
 30
0.0
 70
    40
  0
VERTEX
  5
641
330
592
100
AcDbEntity
  8
HA-807
100
AcDbVertex
100
AcDb3dPolylineVertex
 10
396380.272190922
 20
229676.2907880811
 30
0.0
 70
    40
  0
VERTEX
  5
642
330
592
100
AcDbEntity
  8
HA-807
100
AcDbVertex
100
AcDb3dPolylineVertex
 10
396380.2678807054
 20
229676.2983109574
 30
0.0
 70
    40
  0
VERTEX
  5
643
330
592
100
AcDbEntity
  8
HA-807
100
AcDbVertex
100
AcDb3dPolylineVertex
 10
396380.2628776621
 20
229676.3061413225
 30
0.0
 70
    40
  0
VERTEX
  5
644
330
592
100
AcDbEntity
  8
HA-807
100
AcDbVertex
100
AcDb3dPolylineVertex
 10
396380.2571219406
 20
229676.3144064134
 30
0.0
 70
    40
  0
VERTEX
  5
645
330
592
100
AcDbEntity
  8
HA-807
100
AcDbVertex
100
AcDb3dPolylineVertex
 10
396380.2505917766
 20
229676.323187962
 30
0.0
 70
    40
  0
VERTEX
  5
646
330
592
100
AcDbEntity
  8
HA-807
100
AcDbVertex
100
AcDb3dPolylineVertex
 10
396380.2434177552
 20
229676.332385681
 30
0.0
 70
    40
  0
VERTEX
  5
647
330
592
100
AcDbEntity
  8
HA-807
100
AcDbVertex
100
AcDb3dPolylineVertex
 10
396380.2357685491
 20
229676.3418537782
 30
0.0
 70
    40
  0
VERTEX
  5
648
330
592
100
AcDbEntity
  8
HA-807
100
AcDbVertex
100
AcDb3dPolylineVertex
 10
396380.2278128306
 20
229676.3514464615
 30
0.0
 70
    40
  0
VERTEX
  5
649
330
592
100
AcDbEntity
  8
HA-807
100
AcDbVertex
100
AcDb3dPolylineVertex
 10
396380.2197192722
 20
229676.3610179387
 30
0.0
 70
    40
  0
VERTEX
  5
64A
330
592
100
AcDbEntity
  8
HA-807
100
AcDbVertex
100
AcDb3dPolylineVertex
 10
396380.2116565464
 20
229676.3704224175
 30
0.0
 70
    40
  0
VERTEX
  5
64B
330
592
100
AcDbEntity
  8
HA-807
100
AcDbVertex
100
AcDb3dPolylineVertex
 10
396380.2037933257
 20
229676.3795141058
 30
0.0
 70
    40
  0
VERTEX
  5
64C
330
592
100
AcDbEntity
  8
HA-807
100
AcDbVertex
100
AcDb3dPolylineVertex
 10
396380.1962982825
 20
229676.3881472115
 30
0.0
 70
    40
  0
VERTEX
  5
64D
330
592
100
AcDbEntity
  8
HA-807
100
AcDbVertex
100
AcDb3dPolylineVertex
 10
396380.1892899109
 20
229676.3962137159
 30
0.0
 70
    40
  0
VERTEX
  5
64E
330
592
100
AcDbEntity
  8
HA-807
100
AcDbVertex
100
AcDb3dPolylineVertex
 10
396380.1826859904
 20
229676.4037566937
 30
0.0
 70
    40
  0
VERTEX
  5
64F
330
592
100
AcDbEntity
  8
HA-807
100
AcDbVertex
100
AcDb3dPolylineVertex
 10
396380.1763541223
 20
229676.4108569934
 30
0.0
 70
    40
  0
VERTEX
  5
650
330
592
100
AcDbEntity
  8
HA-807
100
AcDbVertex
100
AcDb3dPolylineVertex
 10
396380.1701619078
 20
229676.4175954636
 30
0.0
 70
    40
  0
VERTEX
  5
651
330
592
100
AcDbEntity
  8
HA-807
100
AcDbVertex
100
AcDb3dPolylineVertex
 10
396380.163976948
 20
229676.4240529524
 30
0.0
 70
    40
  0
VERTEX
  5
652
330
592
100
AcDbEntity
  8
HA-807
100
AcDbVertex
100
AcDb3dPolylineVertex
 10
396380.1576668441
 20
229676.4303103084
 30
0.0
 70
    40
  0
VERTEX
  5
653
330
592
100
AcDbEntity
  8
HA-807
100
AcDbVertex
100
AcDb3dPolylineVertex
 10
396380.1510991974
 20
229676.4364483798
 30
0.0
 70
    40
  0
VERTEX
  5
654
330
592
100
AcDbEntity
  8
HA-807
100
AcDbVertex
100
AcDb3dPolylineVertex
 10
396380.1441416088
 20
229676.4425480151
 30
0.0
 70
    40
  0
VERTEX
  5
655
330
592
100
AcDbEntity
  8
HA-807
100
AcDbVertex
100
AcDb3dPolylineVertex
 10
396380.1367009762
 20
229676.4486666475
 30
0.0
 70
    40
  0
VERTEX
  5
656
330
592
100
AcDbEntity
  8
HA-807
100
AcDbVertex
100
AcDb3dPolylineVertex
 10
396380.1288413829
 20
229676.45476805
 30
0.0
 70
    40
  0
VERTEX
  5
657
330
592
100
AcDbEntity
  8
HA-807
100
AcDbVertex
100
AcDb3dPolylineVertex
 10
396380.1206662087
 20
229676.4607925803
 30
0.0
 70
    40
  0
VERTEX
  5
658
330
592
100
AcDbEntity
  8
HA-807
100
AcDbVertex
100
AcDb3dPolylineVertex
 10
396380.1122788338
 20
229676.4666805961
 30
0.0
 70
    40
  0
VERTEX
  5
659
330
592
100
AcDbEntity
  8
HA-807
100
AcDbVertex
100
AcDb3dPolylineVertex
 10
396380.103782638
 20
229676.4723724551
 30
0.0
 70
    40
  0
VERTEX
  5
65A
330
592
100
AcDbEntity
  8
HA-807
100
AcDbVertex
100
AcDb3dPolylineVertex
 10
396380.095281001
 20
229676.4778085151
 30
0.0
 70
    40
  0
VERTEX
  5
65B
330
592
100
AcDbEntity
  8
HA-807
100
AcDbVertex
100
AcDb3dPolylineVertex
 10
396380.0868773029
 20
229676.4829291339
 30
0.0
 70
    40
  0
VERTEX
  5
65C
330
592
100
AcDbEntity
  8
HA-807
100
AcDbVertex
100
AcDb3dPolylineVertex
 10
396380.0786749236
 20
229676.4876746692
 30
0.0
 70
    40
  0
VERTEX
  5
65D
330
592
100
AcDbEntity
  8
HA-807
100
AcDbVertex
100
AcDb3dPolylineVertex
 10
396380.0707545718
 20
229676.4920009415
 30
0.0
 70
    40
  0
VERTEX
  5
65E
330
592
100
AcDbEntity
  8
HA-807
100
AcDbVertex
100
AcDb3dPolylineVertex
 10
396380.0631062725
 20
229676.4959256226
 30
0.0
 70
    40
  0
VERTEX
  5
65F
330
592
100
AcDbEntity
  8
HA-807
100
AcDbVertex
100
AcDb3dPolylineVertex
 10
396380.0556973792
 20
229676.4994818472
 30
0.0
 70
    40
  0
VERTEX
  5
660
330
592
100
AcDbEntity
  8
HA-807
100
AcDbVertex
100
AcDb3dPolylineVertex
 10
396380.0484952459
 20
229676.5027027498
 30
0.0
 70
    40
  0
VERTEX
  5
661
330
592
100
AcDbEntity
  8
HA-807
100
AcDbVertex
100
AcDb3dPolylineVertex
 10
396380.0414672259
 20
229676.5056214649
 30
0.0
 70
    40
  0
VERTEX
  5
662
330
592
100
AcDbEntity
  8
HA-807
100
AcDbVertex
100
AcDb3dPolylineVertex
 10
396380.0345806733
 20
229676.5082711272
 30
0.0
 70
    40
  0
VERTEX
  5
663
330
592
100
AcDbEntity
  8
HA-807
100
AcDbVertex
100
AcDb3dPolylineVertex
 10
396380.0278029416
 20
229676.5106848713
 30
0.0
 70
    40
  0
VERTEX
  5
664
330
592
100
AcDbEntity
  8
HA-807
100
AcDbVertex
100
AcDb3dPolylineVertex
 10
396380.0211013846
 20
229676.5128958318
 30
0.0
 70
    40
  0
VERTEX
  5
665
330
592
100
AcDbEntity
  8
HA-807
100
AcDbVertex
100
AcDb3dPolylineVertex
 10
396380.0144367057
 20
229676.5149313998
 30
0.0
 70
    40
  0
VERTEX
  5
666
330
592
100
AcDbEntity
  8
HA-807
100
AcDbVertex
100
AcDb3dPolylineVertex
 10
396380.007743008
 20
229676.5167959933
 30
0.0
 70
    40
  0
VERTEX
  5
667
330
592
100
AcDbEntity
  8
HA-807
100
AcDbVertex
100
AcDb3dPolylineVertex
 10
396380.0009477441
 20
229676.518488287
 30
0.0
 70
    40
  0
VERTEX
  5
668
330
592
100
AcDbEntity
  8
HA-807
100
AcDbVertex
100
AcDb3dPolylineVertex
 10
396379.9939783665
 20
229676.5200069555
 30
0.0
 70
    40
  0
VERTEX
  5
669
330
592
100
AcDbEntity
  8
HA-807
100
AcDbVertex
100
AcDb3dPolylineVertex
 10
396379.9867623282
 20
229676.5213506734
 30
0.0
 70
    40
  0
VERTEX
  5
66A
330
592
100
AcDbEntity
  8
HA-807
100
AcDbVertex
100
AcDb3dPolylineVertex
 10
396379.9792270818
 20
229676.5225181153
 30
0.0
 70
    40
  0
VERTEX
  5
66B
330
592
100
AcDbEntity
  8
HA-807
100
AcDbVertex
100
AcDb3dPolylineVertex
 10
396379.97130008
 20
229676.5235079558
 30
0.0
 70
    40
  0
VERTEX
  5
66C
330
592
100
AcDbEntity
  8
HA-807
100
AcDbVertex
100
AcDb3dPolylineVertex
 10
396379.9629087754
 20
229676.5243188695
 30
0.0
 70
    40
  0
VERTEX
  5
66D
330
592
100
AcDbEntity
  8
HA-807
100
AcDbVertex
100
AcDb3dPolylineVertex
 10
396379.9540017804
 20
229676.524951961
 30
0.0
 70
    40
  0
VERTEX
  5
66E
330
592
100
AcDbEntity
  8
HA-807
100
AcDbVertex
100
AcDb3dPolylineVertex
 10
396379.9446123458
 20
229676.5254180542
 30
0.0
 70
    40
  0
VERTEX
  5
66F
330
592
100
AcDbEntity
  8
HA-807
100
AcDbVertex
100
AcDb3dPolylineVertex
 10
396379.9347948821
 20
229676.5257304029
 30
0.0
 70
    40
  0
VERTEX
  5
670
330
592
100
AcDbEntity
  8
HA-807
100
AcDbVertex
100
AcDb3dPolylineVertex
 10
396379.9246037999
 20
229676.5259022609
 30
0.0
 70
    40
  0
VERTEX
  5
671
330
592
100
AcDbEntity
  8
HA-807
100
AcDbVertex
100
AcDb3dPolylineVertex
 10
396379.9140935095
 20
229676.5259468822
 30
0.0
 70
    40
  0
VERTEX
  5
672
330
592
100
AcDbEntity
  8
HA-807
100
AcDbVertex
100
AcDb3dPolylineVertex
 10
396379.9033184215
 20
229676.5258775204
 30
0.0
 70
    40
  0
VERTEX
  5
673
330
592
100
AcDbEntity
  8
HA-807
100
AcDbVertex
100
AcDb3dPolylineVertex
 10
396379.8923329464
 20
229676.5257074295
 30
0.0
 70
    40
  0
VERTEX
  5
674
330
592
100
AcDbEntity
  8
HA-807
100
AcDbVertex
100
AcDb3dPolylineVertex
 10
396379.8811914944
 20
229676.5254498634
 30
0.0
 70
    40
  0
VERTEX
  5
675
330
592
100
AcDbEntity
  8
HA-807
100
AcDbVertex
100
AcDb3dPolylineVertex
 10
396379.8699569401
 20
229676.5251160877
 30
0.0
 70
    40
  0
VERTEX
  5
676
330
592
100
AcDbEntity
  8
HA-807
100
AcDbVertex
100
AcDb3dPolylineVertex
 10
396379.8587260132
 20
229676.5247094159
 30
0.0
 70
    40
  0
VERTEX
  5
677
330
592
100
AcDbEntity
  8
HA-807
100
AcDbVertex
100
AcDb3dPolylineVertex
 10
396379.8476039073
 20
229676.5242311734
 30
0.0
 70
    40
  0
VERTEX
  5
678
330
592
100
AcDbEntity
  8
HA-807
100
AcDbVertex
100
AcDb3dPolylineVertex
 10
396379.8366958159
 20
229676.5236826855
 30
0.0
 70
    40
  0
VERTEX
  5
679
330
592
100
AcDbEntity
  8
HA-807
100
AcDbVertex
100
AcDb3dPolylineVertex
 10
396379.8261069327
 20
229676.5230652778
 30
0.0
 70
    40
  0
VERTEX
  5
67A
330
592
100
AcDbEntity
  8
HA-807
100
AcDbVertex
100
AcDb3dPolylineVertex
 10
396379.8159424511
 20
229676.5223802754
 30
0.0
 70
    40
  0
VERTEX
  5
67B
330
592
100
AcDbEntity
  8
HA-807
100
AcDbVertex
100
AcDb3dPolylineVertex
 10
396379.8063075648
 20
229676.521629004
 30
0.0
 70
    40
  0
VERTEX
  5
67C
330
592
100
AcDbEntity
  8
HA-807
100
AcDbVertex
100
AcDb3dPolylineVertex
 10
396379.7973074674
 20
229676.5208127887
 30
0.0
 70
    40
  0
VERTEX
  5
67D
330
592
100
AcDbEntity
  8
HA-807
100
AcDbVertex
100
AcDb3dPolylineVertex
 10
396379.7890062424
 20
229676.5199258863
 30
0.0
 70
    40
  0
VERTEX
  5
67E
330
592
100
AcDbEntity
  8
HA-807
100
AcDbVertex
100
AcDb3dPolylineVertex
 10
396379.7813035326
 20
229676.5189342786
 30
0.0
 70
    40
  0
VERTEX
  5
67F
330
592
100
AcDbEntity
  8
HA-807
100
AcDbVertex
100
AcDb3dPolylineVertex
 10
396379.7740578707
 20
229676.5177968787
 30
0.0
 70
    40
  0
VERTEX
  5
680
330
592
100
AcDbEntity
  8
HA-807
100
AcDbVertex
100
AcDb3dPolylineVertex
 10
396379.7671277897
 20
229676.5164725998
 30
0.0
 70
    40
  0
VERTEX
  5
681
330
592
100
AcDbEntity
  8
HA-807
100
AcDbVertex
100
AcDb3dPolylineVertex
 10
396379.7603718222
 20
229676.5149203549
 30
0.0
 70
    40
  0
VERTEX
  5
682
330
592
100
AcDbEntity
  8
HA-807
100
AcDbVertex
100
AcDb3dPolylineVertex
 10
396379.7536485009
 20
229676.5130990573
 30
0.0
 70
    40
  0
VERTEX
  5
683
330
592
100
AcDbEntity
  8
HA-807
100
AcDbVertex
100
AcDb3dPolylineVertex
 10
396379.7468163588
 20
229676.5109676198
 30
0.0
 70
    40
  0
VERTEX
  5
684
330
592
100
AcDbEntity
  8
HA-807
100
AcDbVertex
100
AcDb3dPolylineVertex
 10
396379.7397339284
 20
229676.5084849558
 30
0.0
 70
    40
  0
VERTEX
  5
685
330
592
100
AcDbEntity
  8
HA-807
100
AcDbVertex
100
AcDb3dPolylineVertex
 10
396379.7323029519
 20
229676.5056097617
 30
0.0199189453125
 70
    40
  0
VERTEX
  5
686
330
592
100
AcDbEntity
  8
HA-807
100
AcDbVertex
100
AcDb3dPolylineVertex
 10
396379.7245980085
 20
229676.5022998675
 30
0.1593515625
 70
    40
  0
VERTEX
  5
687
330
592
100
AcDbEntity
  8
HA-807
100
AcDbVertex
100
AcDb3dPolylineVertex
 10
396379.7167368867
 20
229676.4985128866
 30
0.5378115234375
 70
    40
  0
VERTEX
  5
688
330
592
100
AcDbEntity
  8
HA-807
100
AcDbVertex
100
AcDb3dPolylineVertex
 10
396379.7088373751
 20
229676.4942064324
 30
1.2748125
 70
    40
  0
VERTEX
  5
689
330
592
100
AcDbEntity
  8
HA-807
100
AcDbVertex
100
AcDb3dPolylineVertex
 10
396379.7010172621
 20
229676.4893381184
 30
2.4898681640625
 70
    40
  0
VERTEX
  5
68A
330
592
100
AcDbEntity
  8
HA-807
100
AcDbVertex
100
AcDb3dPolylineVertex
 10
396379.6933943364
 20
229676.4838655578
 30
4.3024921875
 70
    40
  0
VERTEX
  5
68B
330
592
100
AcDbEntity
  8
HA-807
100
AcDbVertex
100
AcDb3dPolylineVertex
 10
396379.6860863864
 20
229676.4777463641
 30
6.832198242187499
 70
    40
  0
VERTEX
  5
68C
330
592
100
AcDbEntity
  8
HA-807
100
AcDbVertex
100
AcDb3dPolylineVertex
 10
396379.6792112005
 20
229676.4709381508
 30
10.1985
 70
    40
  0
VERTEX
  5
68D
330
592
100
AcDbEntity
  8
HA-807
100
AcDbVertex
100
AcDb3dPolylineVertex
 10
396379.6728570113
 20
229676.4634150813
 30
14.4412353515625
 70
    40
  0
VERTEX
  5
68E
330
592
100
AcDbEntity
  8
HA-807
100
AcDbVertex
100
AcDb3dPolylineVertex
 10
396379.6669938258
 20
229676.45521752
 30
19.2815390625
 70
    40
  0
VERTEX
  5
68F
330
592
100
AcDbEntity
  8
HA-807
100
AcDbVertex
100
AcDb3dPolylineVertex
 10
396379.6615620951
 20
229676.4464023814
 30
24.3608701171875
 70
    40
  0
VERTEX
  5
690
330
592
100
AcDbEntity
  8
HA-807
100
AcDbVertex
100
AcDb3dPolylineVertex
 10
396379.6565022701
 20
229676.43702658
 30
29.3206875
 70
    40
  0
VERTEX
  5
691
330
592
100
AcDbEntity
  8
HA-807
100
AcDbVertex
100
AcDb3dPolylineVertex
 10
396379.6517548019
 20
229676.4271470302
 30
33.8024501953125
 70
    40
  0
VERTEX
  5
692
330
592
100
AcDbEntity
  8
HA-807
100
AcDbVertex
100
AcDb3dPolylineVertex
 10
396379.6472601415
 20
229676.4168206465
 30
37.4476171875
 70
    40
  0
VERTEX
  5
693
330
592
100
AcDbEntity
  8
HA-807
100
AcDbVertex
100
AcDb3dPolylineVertex
 10
396379.6429587398
 20
229676.4061043434
 30
39.8976474609375
 70
    40
  0
VERTEX
  5
694
330
592
100
AcDbEntity
  8
HA-807
100
AcDbVertex
100
AcDb3dPolylineVertex
 10
396379.6387910478
 20
229676.3950550353
 30
40.794
 70
    40
  0
VERTEX
  5
695
330
592
100
AcDbEntity
  8
HA-807
100
AcDbVertex
100
AcDb3dPolylineVertex
 10
396379.6347101116
 20
229676.383739382
 30
39.8976474609375
 70
    40
  0
VERTEX
  5
696
330
592
100
AcDbEntity
  8
HA-807
100
AcDbVertex
100
AcDb3dPolylineVertex
 10
396379.6307193566
 20
229676.3722630236
 30
37.4476171875
 70
    40
  0
VERTEX
  5
697
330
592
100
AcDbEntity
  8
HA-807
100
AcDbVertex
100
AcDb3dPolylineVertex
 10
396379.6268348037
 20
229676.3607413455
 30
33.8024501953125
 70
    40
  0
VERTEX
  5
698
330
592
100
AcDbEntity
  8
HA-807
100
AcDbVertex
100
AcDb3dPolylineVertex
 10
396379.6230724734
 20
229676.3492897331
 30
29.3206875
 70
    40
  0
VERTEX
  5
699
330
592
100
AcDbEntity
  8
HA-807
100
AcDbVertex
100
AcDb3dPolylineVertex
 10
396379.6194483863
 20
229676.3380235716
 30
24.3608701171875
 70
    40
  0
VERTEX
  5
69A
330
592
100
AcDbEntity
  8
HA-807
100
AcDbVertex
100
AcDb3dPolylineVertex
 10
396379.6159785631
 20
229676.3270582465
 30
19.2815390625
 70
    40
  0
VERTEX
  5
69B
330
592
100
AcDbEntity
  8
HA-807
100
AcDbVertex
100
AcDb3dPolylineVertex
 10
396379.6126790244
 20
229676.3165091431
 30
14.4412353515625
 70
    40
  0
VERTEX
  5
69C
330
592
100
AcDbEntity
  8
HA-807
100
AcDbVertex
100
AcDb3dPolylineVertex
 10
396379.6074076496
 20
229676.2995903941
 30
0.0
 70
    48
  0
VERTEX
  5
69D
330
592
100
AcDbEntity
  8
HA-807
100
AcDbVertex
100
AcDb3dPolylineVertex
 10
396379.5897641458
 20
229676.2425883048
 30
0.0
 70
    48
  0
VERTEX
  5
69E
330
592
100
AcDbEntity
  8
HA-807
100
AcDbVertex
100
AcDb3dPolylineVertex
 10
396379.5869783292
 20
229676.2039083156
 30
0.0
 70
    48
  0
VERTEX
  5
69F
330
592
100
AcDbEntity
  8
HA-807
100
AcDbVertex
100
AcDb3dPolylineVertex
 10
396379.582335302
 20
229676.1767644635
 30
0.0
 70
    48
  0
VERTEX
  5
6A0
330
592
100
AcDbEntity
  8
HA-807
100
AcDbVertex
100
AcDb3dPolylineVertex
 10
396379.582335302
 20
229676.1129764111
 30
0.0
 70
    48
  0
VERTEX
  5
6A1
330
592
100
AcDbEntity
  8
HA-807
100
AcDbVertex
100
AcDb3dPolylineVertex
 10
396379.582335302
 20
229676.0749750182
 30
0.0
 70
    48
  0
VERTEX
  5
6A2
330
592
100
AcDbEntity
  8
HA-807
100
AcDbVertex
100
AcDb3dPolylineVertex
 10
396379.6166937043
 20
229676.0132227547
 30
0.0
 70
    48
  0
VERTEX
  5
6A3
330
592
100
AcDbEntity
  8
HA-807
100
AcDbVertex
100
AcDb3dPolylineVertex
 10
396379.6306227861
 20
229675.9752213618
 30
0.0
 70
    48
  0
VERTEX
  5
6A4
330
592
100
AcDbEntity
  8
HA-807
100
AcDbVertex
100
AcDb3dPolylineVertex
 10
396379.6733386376
 20
229675.9453631245
 30
0.0
 70
    48
  0
VERTEX
  5
6A5
330
592
100
AcDbEntity
  8
HA-807
100
AcDbVertex
100
AcDb3dPolylineVertex
 10
396379.7141972781
 20
229675.8883610351
 30
0.0
 70
    48
  0
VERTEX
  5
6A6
330
592
100
AcDbEntity
  8
HA-807
100
AcDbVertex
100
AcDb3dPolylineVertex
 10
396379.8005575865
 20
229675.8523954311
 30
0.0
 70
    48
  0
VERTEX
  5
6A7
330
592
100
AcDbEntity
  8
HA-807
100
AcDbVertex
100
AcDb3dPolylineVertex
 10
396379.8664885747
 20
229675.8367877163
 30
0.0
 70
    48
  0
VERTEX
  5
6A8
330
592
100
AcDbEntity
  8
HA-807
100
AcDbVertex
100
AcDb3dPolylineVertex
 10
396379.9593491211
 20
229675.8205014049
 30
0.0
 70
    48
  0
VERTEX
  5
6A9
330
592
100
AcDbEntity
  8
HA-807
100
AcDbVertex
100
AcDb3dPolylineVertex
 10
396380.0457094294
 20
229675.8205014049
 30
0.0
 70
    48
  0
VERTEX
  5
6AA
330
592
100
AcDbEntity
  8
HA-807
100
AcDbVertex
100
AcDb3dPolylineVertex
 10
396380.0754248045
 20
229675.834073331
 30
0.0
 70
    48
  0
VERTEX
  5
6AB
330
592
100
AcDbEntity
  8
HA-807
100
AcDbVertex
100
AcDb3dPolylineVertex
 10
396380.1868574602
 20
229675.8639315682
 30
0.0
 70
    48
  0
VERTEX
  5
6AC
330
592
100
AcDbEntity
  8
HA-807
100
AcDbVertex
100
AcDb3dPolylineVertex
 10
396380.2156442298
 20
229675.9114333094
 30
0.0
 70
    48
  0
VERTEX
  5
6AD
330
592
100
AcDbEntity
  8
HA-807
100
AcDbVertex
100
AcDb3dPolylineVertex
 10
396380.2592886867
 20
229675.9568992617
 30
0.0
 70
    48
  0
VERTEX
  5
6AE
330
592
100
AcDbEntity
  8
HA-807
100
AcDbVertex
100
AcDb3dPolylineVertex
 10
396380.2639317139
 20
229676.0023652139
 30
0.0
 70
    48
  0
VERTEX
  5
6AF
330
592
100
AcDbEntity
  8
HA-807
100
AcDbVertex
100
AcDb3dPolylineVertex
 10
396380.2704319522
 20
229676.0817609812
 30
0.0
 70
    48
  0
VERTEX
  5
6B0
330
592
100
AcDbEntity
  8
HA-807
100
AcDbVertex
100
AcDb3dPolylineVertex
 10
396380.2908612724
 20
229676.1788002524
 30
0.0
 70
    48
  0
VERTEX
  5
6B1
330
592
100
AcDbEntity
  8
HA-807
100
AcDbVertex
100
AcDb3dPolylineVertex
 10
396380.2890040615
 20
229676.2581960197
 30
0.0
 70
    48
  0
VERTEX
  5
6B2
330
592
100
AcDbEntity
  8
HA-807
100
AcDbVertex
100
AcDb3dPolylineVertex
 10
396380.265788925
 20
229676.3084121461
 30
0.0
 70
    48
  0
VERTEX
  5
6B3
330
592
100
AcDbEntity
  8
HA-807
100
AcDbVertex
100
AcDb3dPolylineVertex
 10
396380.1905718822
 20
229676.3945938764
 30
0.0
 70
    48
  0
VERTEX
  5
6B4
330
592
100
AcDbEntity
  8
HA-807
100
AcDbVertex
100
AcDb3dPolylineVertex
 10
396380.1497132416
 20
229676.4420956175
 30
0.0
 70
    48
  0
VERTEX
  5
6B5
330
592
100
AcDbEntity
  8
HA-807
100
AcDbVertex
100
AcDb3dPolylineVertex
 10
396380.0754248045
 20
229676.4923117439
 30
0.0
 70
    48
  0
VERTEX
  5
6B6
330
592
100
AcDbEntity
  8
HA-807
100
AcDbVertex
100
AcDb3dPolylineVertex
 10
396380.0206370818
 20
229676.5147054219
 30
0.0
 70
    48
  0
VERTEX
  5
6B7
330
592
100
AcDbEntity
  8
HA-807
100
AcDbVertex
100
AcDb3dPolylineVertex
 10
396379.9686351757
 20
229676.5262415591
 30
0.0
 70
    48
  0
VERTEX
  5
6B8
330
592
100
AcDbEntity
  8
HA-807
100
AcDbVertex
100
AcDb3dPolylineVertex
 10
396379.8822748674
 20
229676.5262415591
 30
0.0
 70
    48
  0
VERTEX
  5
6B9
330
592
100
AcDbEntity
  8
HA-807
100
AcDbVertex
100
AcDb3dPolylineVertex
 10
396379.789414321
 20
229676.5214913849
 30
0.0
 70
    48
  0
VERTEX
  5
6BA
330
592
100
AcDbEntity
  8
HA-807
100
AcDbVertex
100
AcDb3dPolylineVertex
 10
396379.7439126529
 20
229676.512669633
 30
0.0
 70
    48
  0
VERTEX
  5
6BB
330
592
100
AcDbEntity
  8
HA-807
100
AcDbVertex
100
AcDb3dPolylineVertex
 10
396379.6733386376
 20
229676.4787398179
 30
0.0
 70
    48
  0
SEQEND
  5
6BC
330
592
100
AcDbEntity
  8
HA-807
  0
POLYLINE
  5
6BD
330
1F
100
AcDbEntity
  8
HA-811
100
AcDb3dPolyline
 66
     1
 10
0.0
 20
0.0
 30
0.0
 70
     8
  0
VERTEX
  5
6BE
330
6BD
100
AcDbEntity
  8
HA-811
100
AcDbVertex
100
AcDb3dPolylineVertex
 10
396377.1538122909
 20
229678.0864222151
 30
0.0
 70
    32
  0
VERTEX
  5
6BF
330
6BD
100
AcDbEntity
  8
HA-811
100
AcDbVertex
100
AcDb3dPolylineVertex
 10
396377.6051069503
 20
229677.8104691559
 30
61.151
 70
    32
  0
SEQEND
  5
6C0
330
6BD
100
AcDbEntity
  8
HA-811
  0
POLYLINE
  5
6C1
330
1F
100
AcDbEntity
  8
HA-807
100
AcDb3dPolyline
 66
     1
 10
0.0
 20
0.0
 30
0.0
 70
     8
  0
VERTEX
  5
6C2
330
6C1
100
AcDbEntity
  8
HA-807
100
AcDbVertex
100
AcDb3dPolylineVertex
 10
396379.6307193566
 20
229676.3722630236
 30
37.4476171875
 70
    32
  0
VERTEX
  5
6C3
330
6C1
100
AcDbEntity
  8
HA-807
100
AcDbVertex
100
AcDb3dPolylineVertex
 10
396380.2494833142
 20
229675.951215355
 30
0.0
 70
    32
  0
SEQEND
  5
6C4
330
6C1
100
AcDbEntity
  8
HA-807
  0
LWPOLYLINE
  5
6C5
330
1F
100
AcDbEntity
  8
HA-809
100
AcDbPolyline
 90
        2
 70
     0
 43
0.0
 38
61.217
 10
396377.9502333947
 20
229677.2527710431
 10
396379.5384926551
 20
229676.3953699775
  0
POLYLINE
  5
6C6
330
1F
100
AcDbEntity
  8
HA-805
100
AcDb3dPolyline
 66
     1
 10
0.0
 20
0.0
 30
0.0
 70
    13
 75
     6
  0
VERTEX
  5
6C7
330
6C6
100
AcDbEntity
  8
HA-805
100
AcDbVertex
100
AcDb3dPolylineVertex
 10
396380.6539460096
 20
229675.6908895113
 30
0.0
 70
    48
  0
VERTEX
  5
6C8
330
6C6
100
AcDbEntity
  8
HA-805
100
AcDbVertex
100
AcDb3dPolylineVertex
 10
396380.6169565585
 20
229675.6738115044
 30
0.0
 70
    40
  0
VERTEX
  5
6C9
330
6C6
100
AcDbEntity
  8
HA-805
100
AcDbVertex
100
AcDb3dPolylineVertex
 10
396380.613479729
 20
229675.6698386676
 30
0.0
 70
    40
  0
VERTEX
  5
6CA
330
6C6
100
AcDbEntity
  8
HA-805
100
AcDbVertex
100
AcDb3dPolylineVertex
 10
396380.610354754
 20
229675.6653343521
 30
0.0
 70
    40
  0
VERTEX
  5
6CB
330
6C6
100
AcDbEntity
  8
HA-805
100
AcDbVertex
100
AcDb3dPolylineVertex
 10
396380.6075707513
 20
229675.6603502478
 30
0.0
 70
    40
  0
VERTEX
  5
6CC
330
6C6
100
AcDbEntity
  8
HA-805
100
AcDbVertex
100
AcDb3dPolylineVertex
 10
396380.6051168388
 20
229675.6549380447
 30
0.0
 70
    40
  0
VERTEX
  5
6CD
330
6C6
100
AcDbEntity
  8
HA-805
100
AcDbVertex
100
AcDb3dPolylineVertex
 10
396380.6029821344
 20
229675.6491494327
 30
0.0
 70
    40
  0
VERTEX
  5
6CE
330
6C6
100
AcDbEntity
  8
HA-805
100
AcDbVertex
100
AcDb3dPolylineVertex
 10
396380.601155756
 20
229675.6430361017
 30
0.0
 70
    40
  0
VERTEX
  5
6CF
330
6C6
100
AcDbEntity
  8
HA-805
100
AcDbVertex
100
AcDb3dPolylineVertex
 10
396380.5996268217
 20
229675.6366497418
 30
0.0
 70
    40
  0
VERTEX
  5
6D0
330
6C6
100
AcDbEntity
  8
HA-805
100
AcDbVertex
100
AcDb3dPolylineVertex
 10
396380.5983844492
 20
229675.6300420428
 30
0.0
 70
    40
  0
VERTEX
  5
6D1
330
6C6
100
AcDbEntity
  8
HA-805
100
AcDbVertex
100
AcDb3dPolylineVertex
 10
396380.5974159427
 20
229675.6232675665
 30
0.0
 70
    40
  0
VERTEX
  5
6D2
330
6C6
100
AcDbEntity
  8
HA-805
100
AcDbVertex
100
AcDb3dPolylineVertex
 10
396380.5967013518
 20
229675.616392361
 30
0.0
 70
    40
  0
VERTEX
  5
6D3
330
6C6
100
AcDbEntity
  8
HA-805
100
AcDbVertex
100
AcDb3dPolylineVertex
 10
396380.5962189122
 20
229675.6094853463
 30
0.0
 70
    40
  0
VERTEX
  5
6D4
330
6C6
100
AcDbEntity
  8
HA-805
100
AcDbVertex
100
AcDb3dPolylineVertex
 10
396380.5959468598
 20
229675.6026154423
 30
0.0
 70
    40
  0
VERTEX
  5
6D5
330
6C6
100
AcDbEntity
  8
HA-805
100
AcDbVertex
100
AcDb3dPolylineVertex
 10
396380.5958634305
 20
229675.595851569
 30
0.0
 70
    40
  0
VERTEX
  5
6D6
330
6C6
100
AcDbEntity
  8
HA-805
100
AcDbVertex
100
AcDb3dPolylineVertex
 10
396380.5959468598
 20
229675.5892626463
 30
0.0
 70
    40
  0
VERTEX
  5
6D7
330
6C6
100
AcDbEntity
  8
HA-805
100
AcDbVertex
100
AcDb3dPolylineVertex
 10
396380.5961753838
 20
229675.5829175941
 30
0.0
 70
    40
  0
VERTEX
  5
6D8
330
6C6
100
AcDbEntity
  8
HA-805
100
AcDbVertex
100
AcDb3dPolylineVertex
 10
396380.5965272382
 20
229675.5768853325
 30
0.0
 70
    40
  0
VERTEX
  5
6D9
330
6C6
100
AcDbEntity
  8
HA-805
100
AcDbVertex
100
AcDb3dPolylineVertex
 10
396380.5970027253
 20
229675.5712175513
 30
0.0
 70
    40
  0
VERTEX
  5
6DA
330
6C6
100
AcDbEntity
  8
HA-805
100
AcDbVertex
100
AcDb3dPolylineVertex
 10
396380.5976904133
 20
229675.5658970205
 30
0.0
 70
    40
  0
VERTEX
  5
6DB
330
6C6
100
AcDbEntity
  8
HA-805
100
AcDbVertex
100
AcDb3dPolylineVertex
 10
396380.5987009368
 20
229675.5608892803
 30
0.0
 70
    40
  0
VERTEX
  5
6DC
330
6C6
100
AcDbEntity
  8
HA-805
100
AcDbVertex
100
AcDb3dPolylineVertex
 10
396380.6001449304
 20
229675.5561598705
 30
0.0
 70
    40
  0
VERTEX
  5
6DD
330
6C6
100
AcDbEntity
  8
HA-805
100
AcDbVertex
100
AcDb3dPolylineVertex
 10
396380.6021330287
 20
229675.5516743312
 30
0.0
 70
    40
  0
VERTEX
  5
6DE
330
6C6
100
AcDbEntity
  8
HA-805
100
AcDbVertex
100
AcDb3dPolylineVertex
 10
396380.6047758665
 20
229675.5473982026
 30
0.0
 70
    40
  0
VERTEX
  5
6DF
330
6C6
100
AcDbEntity
  8
HA-805
100
AcDbVertex
100
AcDb3dPolylineVertex
 10
396380.6081840783
 20
229675.5432970246
 30
0.0
 70
    40
  0
VERTEX
  5
6E0
330
6C6
100
AcDbEntity
  8
HA-805
100
AcDbVertex
100
AcDb3dPolylineVertex
 10
396380.6124682988
 20
229675.5393363371
 30
0.0
 70
    40
  0
VERTEX
  5
6E1
330
6C6
100
AcDbEntity
  8
HA-805
100
AcDbVertex
100
AcDb3dPolylineVertex
 10
396380.6176865657
 20
229675.5354898536
 30
0.0
 70
    40
  0
VERTEX
  5
6E2
330
6C6
100
AcDbEntity
  8
HA-805
100
AcDbVertex
100
AcDb3dPolylineVertex
 10
396380.6236865299
 20
229675.53176398
 30
0.0
 70
    40
  0
VERTEX
  5
6E3
330
6C6
100
AcDbEntity
  8
HA-805
100
AcDbVertex
100
AcDb3dPolylineVertex
 10
396380.6302632451
 20
229675.5281732954
 30
0.0
 70
    40
  0
VERTEX
  5
6E4
330
6C6
100
AcDbEntity
  8
HA-805
100
AcDbVertex
100
AcDb3dPolylineVertex
 10
396380.6372117652
 20
229675.5247323792
 30
0.0
 70
    40
  0
VERTEX
  5
6E5
330
6C6
100
AcDbEntity
  8
HA-805
100
AcDbVertex
100
AcDb3dPolylineVertex
 10
396380.6443271441
 20
229675.5214558105
 30
0.0
 70
    40
  0
VERTEX
  5
6E6
330
6C6
100
AcDbEntity
  8
HA-805
100
AcDbVertex
100
AcDb3dPolylineVertex
 10
396380.6514044357
 20
229675.5183581686
 30
0.0
 70
    40
  0
VERTEX
  5
6E7
330
6C6
100
AcDbEntity
  8
HA-805
100
AcDbVertex
100
AcDb3dPolylineVertex
 10
396380.6582386939
 20
229675.5154540327
 30
0.0
 70
    40
  0
VERTEX
  5
6E8
330
6C6
100
AcDbEntity
  8
HA-805
100
AcDbVertex
100
AcDb3dPolylineVertex
 10
396380.6646249724
 20
229675.512757982
 30
0.0
 70
    40
  0
VERTEX
  5
6E9
330
6C6
100
AcDbEntity
  8
HA-805
100
AcDbVertex
100
AcDb3dPolylineVertex
 10
396380.6704172699
 20
229675.5102921062
 30
0.0
 70
    40
  0
VERTEX
  5
6EA
330
6C6
100
AcDbEntity
  8
HA-805
100
AcDbVertex
100
AcDb3dPolylineVertex
 10
396380.6757053637
 20
229675.508108537
 30
0.0
 70
    40
  0
VERTEX
  5
6EB
330
6C6
100
AcDbEntity
  8
HA-805
100
AcDbVertex
100
AcDb3dPolylineVertex
 10
396380.6806379756
 20
229675.5062669168
 30
0.0
 70
    40
  0
VERTEX
  5
6EC
330
6C6
100
AcDbEntity
  8
HA-805
100
AcDbVertex
100
AcDb3dPolylineVertex
 10
396380.6853638278
 20
229675.5048268877
 30
0.0
 70
    40
  0
VERTEX
  5
6ED
330
6C6
100
AcDbEntity
  8
HA-805
100
AcDbVertex
100
AcDb3dPolylineVertex
 10
396380.6900316421
 20
229675.503848092
 30
0.0
 70
    40
  0
VERTEX
  5
6EE
330
6C6
100
AcDbEntity
  8
HA-805
100
AcDbVertex
100
AcDb3dPolylineVertex
 10
396380.6947901406
 20
229675.5033901721
 30
0.0
 70
    40
  0
VERTEX
  5
6EF
330
6C6
100
AcDbEntity
  8
HA-805
100
AcDbVertex
100
AcDb3dPolylineVertex
 10
396380.6997880451
 20
229675.5035127701
 30
0.0
 70
    40
  0
VERTEX
  5
6F0
330
6C6
100
AcDbEntity
  8
HA-805
100
AcDbVertex
100
AcDb3dPolylineVertex
 10
396380.7051740778
 20
229675.5042755282
 30
0.0
 70
    40
  0
VERTEX
  5
6F1
330
6C6
100
AcDbEntity
  8
HA-805
100
AcDbVertex
100
AcDb3dPolylineVertex
 10
396380.7110452705
 20
229675.5057237304
 30
0.0
 70
    40
  0
VERTEX
  5
6F2
330
6C6
100
AcDbEntity
  8
HA-805
100
AcDbVertex
100
AcDb3dPolylineVertex
 10
396380.7172918955
 20
229675.5078452275
 30
0.0
 70
    40
  0
VERTEX
  5
6F3
330
6C6
100
AcDbEntity
  8
HA-805
100
AcDbVertex
100
AcDb3dPolylineVertex
 10
396380.723752535
 20
229675.5106135116
 30
0.0
 70
    40
  0
VERTEX
  5
6F4
330
6C6
100
AcDbEntity
  8
HA-805
100
AcDbVertex
100
AcDb3dPolylineVertex
 10
396380.7302657713
 20
229675.5140020752
 30
0.0
 70
    40
  0
VERTEX
  5
6F5
330
6C6
100
AcDbEntity
  8
HA-805
100
AcDbVertex
100
AcDb3dPolylineVertex
 10
396380.7366701867
 20
229675.5179844105
 30
0.0
 70
    40
  0
VERTEX
  5
6F6
330
6C6
100
AcDbEntity
  8
HA-805
100
AcDbVertex
100
AcDb3dPolylineVertex
 10
396380.7428043634
 20
229675.5225340099
 30
0.0
 70
    40
  0
VERTEX
  5
6F7
330
6C6
100
AcDbEntity
  8
HA-805
100
AcDbVertex
100
AcDb3dPolylineVertex
 10
396380.7485068836
 20
229675.5276243658
 30
0.0
 70
    40
  0
VERTEX
  5
6F8
330
6C6
100
AcDbEntity
  8
HA-805
100
AcDbVertex
100
AcDb3dPolylineVertex
 10
396380.7536163297
 20
229675.5332289705
 30
0.0
 70
    40
  0
VERTEX
  5
6F9
330
6C6
100
AcDbEntity
  8
HA-805
100
AcDbVertex
100
AcDb3dPolylineVertex
 10
396380.7580093711
 20
229675.5393166773
 30
0.0
 70
    40
  0
VERTEX
  5
6FA
330
6C6
100
AcDbEntity
  8
HA-805
100
AcDbVertex
100
AcDb3dPolylineVertex
 10
396380.7617150268
 20
229675.5458377846
 30
0.0
 70
    40
  0
VERTEX
  5
6FB
330
6C6
100
AcDbEntity
  8
HA-805
100
AcDbVertex
100
AcDb3dPolylineVertex
 10
396380.7648004031
 20
229675.5527379515
 30
0.0
 70
    40
  0
VERTEX
  5
6FC
330
6C6
100
AcDbEntity
  8
HA-805
100
AcDbVertex
100
AcDb3dPolylineVertex
 10
396380.7673326063
 20
229675.5599628373
 30
0.0
 70
    40
  0
VERTEX
  5
6FD
330
6C6
100
AcDbEntity
  8
HA-805
100
AcDbVertex
100
AcDb3dPolylineVertex
 10
396380.7693787424
 20
229675.5674581013
 30
0.0
 70
    40
  0
VERTEX
  5
6FE
330
6C6
100
AcDbEntity
  8
HA-805
100
AcDbVertex
100
AcDb3dPolylineVertex
 10
396380.771005918
 20
229675.5751694029
 30
0.0
 70
    40
  0
VERTEX
  5
6FF
330
6C6
100
AcDbEntity
  8
HA-805
100
AcDbVertex
100
AcDb3dPolylineVertex
 10
396380.772281239
 20
229675.5830424012
 30
0.0
 70
    40
  0
VERTEX
  5
700
330
6C6
100
AcDbEntity
  8
HA-805
100
AcDbVertex
100
AcDb3dPolylineVertex
 10
396380.773271812
 20
229675.5910227555
 30
0.0
 70
    40
  0
VERTEX
  5
701
330
6C6
100
AcDbEntity
  8
HA-805
100
AcDbVertex
100
AcDb3dPolylineVertex
 10
396380.7740269084
 20
229675.5990550207
 30
0.0
 70
    40
  0
VERTEX
  5
702
330
6C6
100
AcDbEntity
  8
HA-805
100
AcDbVertex
100
AcDb3dPolylineVertex
 10
396380.774524462
 20
229675.6070793337
 30
0.0
 70
    40
  0
VERTEX
  5
703
330
6C6
100
AcDbEntity
  8
HA-805
100
AcDbVertex
100
AcDb3dPolylineVertex
 10
396380.7747245717
 20
229675.6150347267
 30
0.0
 70
    40
  0
VERTEX
  5
704
330
6C6
100
AcDbEntity
  8
HA-805
100
AcDbVertex
100
AcDb3dPolylineVertex
 10
396380.7745873364
 20
229675.622860232
 30
0.0
 70
    40
  0
VERTEX
  5
705
330
6C6
100
AcDbEntity
  8
HA-805
100
AcDbVertex
100
AcDb3dPolylineVertex
 10
396380.7740728551
 20
229675.6304948822
 30
0.0
 70
    40
  0
VERTEX
  5
706
330
6C6
100
AcDbEntity
  8
HA-805
100
AcDbVertex
100
AcDb3dPolylineVertex
 10
396380.7731412268
 20
229675.6378777096
 30
0.0
 70
    40
  0
VERTEX
  5
707
330
6C6
100
AcDbEntity
  8
HA-805
100
AcDbVertex
100
AcDb3dPolylineVertex
 10
396380.7717525505
 20
229675.6449477464
 30
0.0
 70
    40
  0
VERTEX
  5
708
330
6C6
100
AcDbEntity
  8
HA-805
100
AcDbVertex
100
AcDb3dPolylineVertex
 10
396380.7698669252
 20
229675.6516440251
 30
0.0
 70
    40
  0
VERTEX
  5
709
330
6C6
100
AcDbEntity
  8
HA-805
100
AcDbVertex
100
AcDb3dPolylineVertex
 10
396380.7674598662
 20
229675.6579157394
 30
0.0
 70
    40
  0
VERTEX
  5
70A
330
6C6
100
AcDbEntity
  8
HA-805
100
AcDbVertex
100
AcDb3dPolylineVertex
 10
396380.7645685539
 20
229675.6637527279
 30
0.0
 70
    40
  0
VERTEX
  5
70B
330
6C6
100
AcDbEntity
  8
HA-805
100
AcDbVertex
100
AcDb3dPolylineVertex
 10
396380.7612455852
 20
229675.6691549907
 30
0.0
 70
    40
  0
VERTEX
  5
70C
330
6C6
100
AcDbEntity
  8
HA-805
100
AcDbVertex
100
AcDb3dPolylineVertex
 10
396380.7575435569
 20
229675.6741225276
 30
0.0
 70
    40
  0
VERTEX
  5
70D
330
6C6
100
AcDbEntity
  8
HA-805
100
AcDbVertex
100
AcDb3dPolylineVertex
 10
396380.7535150656
 20
229675.6786553389
 30
0.0
 70
    40
  0
VERTEX
  5
70E
330
6C6
100
AcDbEntity
  8
HA-805
100
AcDbVertex
100
AcDb3dPolylineVertex
 10
396380.7492127083
 20
229675.6827534244
 30
0.0
 70
    40
  0
VERTEX
  5
70F
330
6C6
100
AcDbEntity
  8
HA-805
100
AcDbVertex
100
AcDb3dPolylineVertex
 10
396380.7446890817
 20
229675.6864167841
 30
0.0
 70
    40
  0
VERTEX
  5
710
330
6C6
100
AcDbEntity
  8
HA-805
100
AcDbVertex
100
AcDb3dPolylineVertex
 10
396380.7399967827
 20
229675.6896454181
 30
0.0
 70
    40
  0
VERTEX
  5
711
330
6C6
100
AcDbEntity
  8
HA-805
100
AcDbVertex
100
AcDb3dPolylineVertex
 10
396380.735180851
 20
229675.6924406516
 30
0.0
 70
    40
  0
VERTEX
  5
712
330
6C6
100
AcDbEntity
  8
HA-805
100
AcDbVertex
100
AcDb3dPolylineVertex
 10
396380.7302560983
 20
229675.6948091118
 30
0.0
 70
    40
  0
VERTEX
  5
713
330
6C6
100
AcDbEntity
  8
HA-805
100
AcDbVertex
100
AcDb3dPolylineVertex
 10
396380.7252297794
 20
229675.6967587507
 30
0.0
 70
    40
  0
VERTEX
  5
714
330
6C6
100
AcDbEntity
  8
HA-805
100
AcDbVertex
100
AcDb3dPolylineVertex
 10
396380.7201091489
 20
229675.6982975209
 30
0.0
 70
    40
  0
VERTEX
  5
715
330
6C6
100
AcDbEntity
  8
HA-805
100
AcDbVertex
100
AcDb3dPolylineVertex
 10
396380.7149014618
 20
229675.6994333745
 30
0.0
 70
    40
  0
VERTEX
  5
716
330
6C6
100
AcDbEntity
  8
HA-805
100
AcDbVertex
100
AcDb3dPolylineVertex
 10
396380.7096139726
 20
229675.7001742638
 30
0.0
 70
    40
  0
VERTEX
  5
717
330
6C6
100
AcDbEntity
  8
HA-805
100
AcDbVertex
100
AcDb3dPolylineVertex
 10
396380.7042539361
 20
229675.7005281411
 30
0.0
 70
    40
  0
VERTEX
  5
718
330
6C6
100
AcDbEntity
  8
HA-805
100
AcDbVertex
100
AcDb3dPolylineVertex
 10
396380.698828607
 20
229675.7005029588
 30
0.0
 70
    40
  0
VERTEX
  5
719
330
6C6
100
AcDbEntity
  8
HA-805
100
AcDbVertex
100
AcDb3dPolylineVertex
 10
396380.6933467516
 20
229675.7001139588
 30
0.0
 70
    40
  0
VERTEX
  5
71A
330
6C6
100
AcDbEntity
  8
HA-805
100
AcDbVertex
100
AcDb3dPolylineVertex
 10
396380.6878231813
 20
229675.6994055414
 30
0.0
 70
    40
  0
VERTEX
  5
71B
330
6C6
100
AcDbEntity
  8
HA-805
100
AcDbVertex
100
AcDb3dPolylineVertex
 10
396380.6822742196
 20
229675.6984293965
 30
0.0
 70
    40
  0
VERTEX
  5
71C
330
6C6
100
AcDbEntity
  8
HA-805
100
AcDbVertex
100
AcDb3dPolylineVertex
 10
396380.6767161894
 20
229675.6972372142
 30
0.0
 70
    40
  0
VERTEX
  5
71D
330
6C6
100
AcDbEntity
  8
HA-805
100
AcDbVertex
100
AcDb3dPolylineVertex
 10
396380.6711654139
 20
229675.6958806842
 30
0.0
 70
    40
  0
VERTEX
  5
71E
330
6C6
100
AcDbEntity
  8
HA-805
100
AcDbVertex
100
AcDb3dPolylineVertex
 10
396380.6656382164
 20
229675.6944114967
 30
0.0
 70
    40
  0
VERTEX
  5
71F
330
6C6
100
AcDbEntity
  8
HA-805
100
AcDbVertex
100
AcDb3dPolylineVertex
 10
396380.6601509198
 20
229675.6928813416
 30
0.0
 70
    40
  0
VERTEX
  5
720
330
6C6
100
AcDbEntity
  8
HA-805
100
AcDbVertex
100
AcDb3dPolylineVertex
 10
396380.6547198475
 20
229675.6913419088
 30
0.0
 70
    40
  0
VERTEX
  5
721
330
6C6
100
AcDbEntity
  8
HA-805
100
AcDbVertex
100
AcDb3dPolylineVertex
 10
396380.6493646475
 20
229675.6898232403
 30
0.0
 70
    40
  0
VERTEX
  5
722
330
6C6
100
AcDbEntity
  8
HA-805
100
AcDbVertex
100
AcDb3dPolylineVertex
 10
396380.6441182685
 20
229675.6882687865
 30
0.0
 70
    40
  0
VERTEX
  5
723
330
6C6
100
AcDbEntity
  8
HA-805
100
AcDbVertex
100
AcDb3dPolylineVertex
 10
396380.639016984
 20
229675.6866003497
 30
0.0
 70
    40
  0
VERTEX
  5
724
330
6C6
100
AcDbEntity
  8
HA-805
100
AcDbVertex
100
AcDb3dPolylineVertex
 10
396380.6340970677
 20
229675.6847397323
 30
0.0
 70
    40
  0
VERTEX
  5
725
330
6C6
100
AcDbEntity
  8
HA-805
100
AcDbVertex
100
AcDb3dPolylineVertex
 10
396380.6293947934
 20
229675.6826087367
 30
0.0
 70
    40
  0
VERTEX
  5
726
330
6C6
100
AcDbEntity
  8
HA-805
100
AcDbVertex
100
AcDb3dPolylineVertex
 10
396380.6249464347
 20
229675.6801291653
 30
0.0
 70
    40
  0
VERTEX
  5
727
330
6C6
100
AcDbEntity
  8
HA-805
100
AcDbVertex
100
AcDb3dPolylineVertex
 10
396380.6207882652
 20
229675.6772228203
 30
0.0
 70
    40
  0
VERTEX
  5
728
330
6C6
100
AcDbEntity
  8
HA-805
100
AcDbVertex
100
AcDb3dPolylineVertex
 10
396380.613087369
 20
229675.6800319705
 30
0.0
 70
    48
  0
VERTEX
  5
729
330
6C6
100
AcDbEntity
  8
HA-805
100
AcDbVertex
100
AcDb3dPolylineVertex
 10
396380.5954438652
 20
229675.631851633
 30
0.0
 70
    48
  0
VERTEX
  5
72A
330
6C6
100
AcDbEntity
  8
HA-805
100
AcDbVertex
100
AcDb3dPolylineVertex
 10
396380.5954438652
 20
229675.5728137547
 30
0.0
 70
    48
  0
VERTEX
  5
72B
330
6C6
100
AcDbEntity
  8
HA-805
100
AcDbVertex
100
AcDb3dPolylineVertex
 10
396380.6019441035
 20
229675.5382053433
 30
0.0
 70
    48
  0
VERTEX
  5
72C
330
6C6
100
AcDbEntity
  8
HA-805
100
AcDbVertex
100
AcDb3dPolylineVertex
 10
396380.6715895134
 20
229675.5103828949
 30
0.0
 70
    48
  0
VERTEX
  5
72D
330
6C6
100
AcDbEntity
  8
HA-805
100
AcDbVertex
100
AcDb3dPolylineVertex
 10
396380.6994476774
 20
229675.4968109688
 30
0.0
 70
    48
  0
VERTEX
  5
72E
330
6C6
100
AcDbEntity
  8
HA-805
100
AcDbVertex
100
AcDb3dPolylineVertex
 10
396380.7616642438
 20
229675.5280263987
 30
0.0
 70
    48
  0
VERTEX
  5
72F
330
6C6
100
AcDbEntity
  8
HA-805
100
AcDbVertex
100
AcDb3dPolylineVertex
 10
396380.7755933256
 20
229675.5904572586
 30
0.0
 70
    48
  0
VERTEX
  5
730
330
6C6
100
AcDbEntity
  8
HA-805
100
AcDbVertex
100
AcDb3dPolylineVertex
 10
396380.7755933256
 20
229675.6562810999
 30
0.0
 70
    48
  0
VERTEX
  5
731
330
6C6
100
AcDbEntity
  8
HA-805
100
AcDbVertex
100
AcDb3dPolylineVertex
 10
396380.7412349234
 20
229675.6942824927
 30
0.0
 70
    48
  0
VERTEX
  5
732
330
6C6
100
AcDbEntity
  8
HA-805
100
AcDbVertex
100
AcDb3dPolylineVertex
 10
396380.6994476774
 20
229675.7044614373
 30
0.0
 70
    48
  0
SEQEND
  5
733
330
6C6
100
AcDbEntity
  8
HA-805
  0
LWPOLYLINE
  5
734
330
1F
100
AcDbEntity
  8
HA-805
100
AcDbPolyline
 90
        2
 70
     0
 43
0.0
 10
396380.606343795
 20
229675.6576441463
 10
396380.7617150268
 20
229675.5458377846
  0
LWPOLYLINE
  5
735
330
1F
100
AcDbEntity
  8
TR-6
100
AcDbPolyline
 90
        4
 70
     1
 43
0.0
 38
60.633
 10
396276.4928495092
 20
229720.927868783
 10
396280.5124899155
 20
229720.7063152887
 10
396280.4055100845
 20
229719.0096847113
 10
396276.3858696782
 20
229719.2312382057
  0
ENDSEC
  0
SECTION
  2
OBJECTS
  0
DICTIONARY
  5
C
330
0
100
AcDbDictionary
281
     1
  3
ACAD_COLOR
350
73
  3
ACAD_DETAILVIEWSTYLE
350
122
  3
ACAD_GROUP
350
D
  3
ACAD_IMAGE_VARS
350
DC
  3
ACAD_LAYOUT
350
1A
  3
ACAD_MATERIAL
350
72
  3
ACAD_MLEADERSTYLE
350
B5
  3
ACAD_MLINESTYLE
350
17
  3
ACAD_PLOTSETTINGS
350
19
  3
ACAD_PLOTSTYLENAME
350
E
  3
ACAD_SCALELIST
350
B6
  3
ACAD_SECTIONVIEWSTYLE
350
123
  3
ACAD_TABLESTYLE
350
86
  3
ACAD_VISUALSTYLE
350
99
  3
ACDB_RECOMPOSE_DATA
350
738
  3
AcDbVariableDictionary
350
66
  3
APPDATA
350
E1
  0
SUN
  5
ED
330
94
100
AcDbSun
 90
        1
290
     0
 63
     7
421
 16777215
 40
1.0
291
     1
 91
  2455826
 92
 54000000
292
     0
 70
     2
 71
   256
280
     1
  0
DICTIONARY
  5
131
330
130
100
AcDbDictionary
280
     1
281
     1
  3
ADSK_XREC_LAYER_RECONCILED
360
132
  0
DICTIONARY
  5
165
330
124
100
AcDbDictionary
280
     1
281
     1
  3
ACAD_SORTENTS
360
166
  0
DICTIONARY
  5
73
102
{ACAD_REACTORS
330
C
102
}
330
C
100
AcDbDictionary
281
     1
  0
DICTIONARY
  5
122
102
{ACAD_REACTORS
330
C
102
}
330
C
100
AcDbDictionary
281
     1
  0
DICTIONARY
  5
D
102
{ACAD_REACTORS
330
C
102
}
330
C
100
AcDbDictionary
281
     1
  0
RASTERVARIABLES
  5
DC
102
{ACAD_REACTORS
330
C
102
}
330
C
100
AcDbRasterVariables
 90
        0
 70
     1
 71
     1
 72
     5
  0
DICTIONARY
  5
1A
102
{ACAD_REACTORS
330
C
102
}
330
C
100
AcDbDictionary
281
     1
  3
Model
350
22
  3
Sheet1
350
59
  3
Sheet2
350
5E
  0
DICTIONARY
  5
72
102
{ACAD_REACTORS
330
C
102
}
330
C
100
AcDbDictionary
281
     1
  3
ByBlock
350
E2
  3
ByLayer
350
96
  3
Global
350
98
  0
DICTIONARY
  5
B5
102
{ACAD_REACTORS
330
C
102
}
330
C
100
AcDbDictionary
281
     1
  0
DICTIONARY
  5
17
102
{ACAD_REACTORS
330
C
102
}
330
C
100
AcDbDictionary
281
     1
  3
Standard
350
18
  0
DICTIONARY
  5
19
102
{ACAD_REACTORS
330
C
102
}
330
C
100
AcDbDictionary
281
     1
  0
ACDBDICTIONARYWDFLT
  5
E
102
{ACAD_REACTORS
330
C
102
}
330
C
100
AcDbDictionary
281
     1
  3
Normal
350
F
100
AcDbDictionaryWithDefault
340
F
  0
DICTIONARY
  5
B6
102
{ACAD_REACTORS
330
C
102
}
330
C
100
AcDbDictionary
281
     1
  3
A0
350
B7
  3
A1
350
B8
  3
A2
350
B9
  3
A3
350
BA
  3
A4
350
BB
  3
A5
350
BC
  3
A6
350
BD
  3
A7
350
BE
  3
A8
350
BF
  3
A9
350
C0
  3
B0
350
C1
  3
B1
350
C2
  3
B2
350
C3
  3
B3
350
C4
  3
B4
350
C5
  3
B5
350
C6
  3
B6
350
C7
  3
B7
350
C8
  3
B8
350
C9
  3
B9
350
CA
  3
C0
350
CB
  3
C1
350
CC
  3
C2
350
CD
  3
C3
350
CE
  3
C4
350
CF
  3
C5
350
D0
  3
C6
350
D1
  3
C7
350
D2
  3
C8
350
D3
  3
C9
350
D4
  3
D0
350
D5
  3
D1
350
D6
  3
D2
350
D7
  0
DICTIONARY
  5
123
102
{ACAD_REACTORS
330
C
102
}
330
C
100
AcDbDictionary
281
     1
  0
DICTIONARY
  5
86
102
{ACAD_REACTORS
330
C
102
}
330
C
100
AcDbDictionary
281
     1
  3
Standard
350
87
  0
DICTIONARY
  5
99
102
{ACAD_REACTORS
330
C
102
}
330
C
100
AcDbDictionary
281
     1
  3
2dWireframe
350
9F
  3
3D Hidden
350
A1
  3
3dWireframe
350
A0
  3
Basic
350
9E
  3
Brighten
350
A5
  3
ColorChange
350
A9
  3
Conceptual
350
A2
  3
Dim
350
A4
  3
EdgeColorOff
350
E7
  3
Facepattern
350
A8
  3
Flat
350
9A
  3
FlatWithEdges
350
9B
  3
Gouraud
350
9C
  3
GouraudWithEdges
350
9D
  3
Hidden
350
E4
  3
JitterOff
350
E5
  3
Linepattern
350
A7
  3
OverhangOff
350
E6
  3
Realistic
350
A3
  3
Shaded
350
EC
  3
Shaded with edges
350
EB
  3
Shades of Gray
350
E8
  3
Sketchy
350
E9
  3
Thicken
350
A6
  3
Wireframe
350
E3
  3
X-Ray
350
EA
  0
XRECORD
  5
738
102
{ACAD_REACTORS
330
C
102
}
330
C
100
AcDbXrecord
280
     1
 90
        1
330
87
  0
DICTIONARY
  5
66
102
{ACAD_REACTORS
330
C
102
}
330
C
100
AcDbDictionary
281
     1
  3
CANNOSCALE
350
D8
  3
CTABLESTYLE
350
89
  3
DIMASSOC
350
67
  3
HIDETEXT
350
6B
  3
LIGHTSINBLOCKS
350
DF
  3
XCLIPFRAME
350
E0
  0
DICTIONARY
  5
E1
102
{ACAD_REACTORS
330
C
102
}
330
C
100
AcDbDictionary
281
     1
  0
XRECORD
  5
132
102
{ACAD_REACTORS
330
131
102
}
330
131
100
AcDbXrecord
280
     1
290
     1
  0
SORTENTSTABLE
  5
166
102
{ACAD_REACTORS
330
165
330
165
102
}
330
165
100
AcDbSortentsTable
330
124
331
167
  5
44C
331
168
  5
16D
331
16D
  5
171
331
171
  5
176
331
176
  5
17A
331
17A
  5
192
331
17B
  5
193
331
17C
  5
1A3
331
17D
  5
1A4
331
17E
  5
1AD
331
17F
  5
1AE
331
180
  5
1B3
331
181
  5
1B4
331
182
  5
1B5
331
183
  5
167
331
18B
  5
168
331
192
  5
17C
331
193
  5
17D
331
194
  5
17E
331
19D
  5
17F
331
1A3
  5
18B
331
1A4
  5
17B
331
1AD
  5
194
331
1AE
  5
183
331
1B3
  5
182
331
1B4
  5
1B6
331
1B5
  5
1B8
331
1B6
  5
1BD
331
1B8
  5
180
331
1BD
  5
181
331
44C
  5
19D
  0
LAYOUT
  5
22
102
{ACAD_REACTORS
330
1A
102
}
330
1A
100
AcDbPlotSettings
  1

  2
none_device
  4
ANSI_A_(8.50_x_11.00_Inches)
  6

 40
6.35
 41
19.05
 42
6.35
 43
19.05
 44
215.9
 45
279.4
 46
11.11250000000003
 47
0.0000000000000142
 48
0.0
 49
0.0
140
0.0
141
0.0
142
1.0
143
1.263157894736842
 70
 11444
 72
     0
 73
     1
 74
     1
  7
monochrome.ctb
 75
     0
 76
     0
 77
     2
 78
   300
147
0.7916666666666665
148
-702.8076765758875
149
-496.2830551296954
100
AcDbLayout
  1
Model
 70
     1
 71
     0
 10
0.0
 20
0.0
 11
12.0
 21
9.0
 12
0.0
 22
0.0
 32
0.0
 14
396247.4402084926
 24
229633.3417753732
 34
0.0
 15
396432.6926651995
 25
229846.820287406
 35
63.98700000000004
146
0.0
 13
0.0
 23
0.0
 33
0.0
 16
1.0
 26
0.0
 36
0.0
 17
0.0
 27
1.0
 37
0.0
 76
     0
330
1F
331
94
  0
LAYOUT
  5
59
102
{ACAD_REACTORS
330
1A
102
}
330
1A
100
AcDbPlotSettings
  1

  2
None
  4

  6

 40
0.0
 41
0.0
 42
0.0
 43
0.0
 44
0.0
 45
0.0
 46
0.0
 47
0.0
 48
0.0
 49
0.0
140
0.0
141
0.0
142
1.0
143
1.0
 70
   688
 72
     0
 73
     0
 74
     5
  7

 75
    16
 76
     0
 77
     2
 78
   300
147
1.0
148
0.0
149
0.0
100
AcDbLayout
  1
Sheet1
 70
     1
 71
     1
 10
0.0
 20
0.0
 11
12.0
 21
9.0
 12
0.0
 22
0.0
 32
0.0
 14
0.0
 24
0.0
 34
0.0
 15
0.0
 25
0.0
 35
0.0
146
0.0
 13
0.0
 23
0.0
 33
0.0
 16
1.0
 26
0.0
 36
0.0
 17
0.0
 27
1.0
 37
0.0
 76
     0
330
58
  0
LAYOUT
  5
5E
102
{ACAD_REACTORS
330
1A
102
}
330
1A
100
AcDbPlotSettings
  1

  2
None
  4

  6

 40
0.0
 41
0.0
 42
0.0
 43
0.0
 44
0.0
 45
0.0
 46
0.0
 47
0.0
 48
0.0
 49
0.0
140
0.0
141
0.0
142
1.0
143
1.0
 70
   688
 72
     0
 73
     0
 74
     5
  7

 75
    16
 76
     0
 77
     2
 78
   300
147
1.0
148
0.0
149
0.0
100
AcDbLayout
  1
Sheet2
 70
     1
 71
     2
 10
0.0
 20
0.0
 11
12.0
 21
9.0
 12
0.0
 22
0.0
 32
0.0
 14
0.0
 24
0.0
 34
0.0
 15
0.0
 25
0.0
 35
0.0
146
0.0
 13
0.0
 23
0.0
 33
0.0
 16
1.0
 26
0.0
 36
0.0
 17
0.0
 27
1.0
 37
0.0
 76
     0
330
5D
  0
MATERIAL
  5
E2
102
{ACAD_REACTORS
330
72
102
}
330
72
100
AcDbMaterial
  1
ByBlock
 72
     1
 94
      127
  0
MATERIAL
  5
96
102
{ACAD_REACTORS
330
72
102
}
330
72
100
AcDbMaterial
  1
ByLayer
 72
     1
 94
       63
  0
MATERIAL
  5
98
102
{ACAD_REACTORS
330
72
102
}
330
72
100
AcDbMaterial
  1
Global
 72
     1
 94
       63
  0
MLINESTYLE
  5
18
102
{ACAD_REACTORS
330
17
102
}
330
17
100
AcDbMlineStyle
  2
STANDARD
 70
     0
  3

 62
   256
 51
90.0
 52
90.0
 71
     2
 49
0.5
 62
   256
  6
BYLAYER
 49
-0.5
 62
   256
  6
BYLAYER
  0
ACDBPLACEHOLDER
  5
F
102
{ACAD_REACTORS
330
E
102
}
330
E
  0
SCALE
  5
B7
102
{ACAD_REACTORS
330
B6
102
}
330
B6
100
AcDbScale
 70
     0
300
1:1
140
1.0
141
1.0
290
     1
  0
SCALE
  5
B8
102
{ACAD_REACTORS
330
B6
102
}
330
B6
100
AcDbScale
 70
     0
300
1:2
140
1.0
141
2.0
290
     0
  0
SCALE
  5
B9
102
{ACAD_REACTORS
330
B6
102
}
330
B6
100
AcDbScale
 70
     0
300
1:4
140
1.0
141
4.0
290
     0
  0
SCALE
  5
BA
102
{ACAD_REACTORS
330
B6
102
}
330
B6
100
AcDbScale
 70
     0
300
1:5
140
1.0
141
5.0
290
     0
  0
SCALE
  5
BB
102
{ACAD_REACTORS
330
B6
102
}
330
B6
100
AcDbScale
 70
     0
300
1:8
140
1.0
141
8.0
290
     0
  0
SCALE
  5
BC
102
{ACAD_REACTORS
330
B6
102
}
330
B6
100
AcDbScale
 70
     0
300
1:10
140
1.0
141
10.0
290
     0
  0
SCALE
  5
BD
102
{ACAD_REACTORS
330
B6
102
}
330
B6
100
AcDbScale
 70
     0
300
1:16
140
1.0
141
16.0
290
     0
  0
SCALE
  5
BE
102
{ACAD_REACTORS
330
B6
102
}
330
B6
100
AcDbScale
 70
     0
300
1:20
140
1.0
141
20.0
290
     0
  0
SCALE
  5
BF
102
{ACAD_REACTORS
330
B6
102
}
330
B6
100
AcDbScale
 70
     0
300
1:30
140
1.0
141
30.0
290
     0
  0
SCALE
  5
C0
102
{ACAD_REACTORS
330
B6
102
}
330
B6
100
AcDbScale
 70
     0
300
1:40
140
1.0
141
40.0
290
     0
  0
SCALE
  5
C1
102
{ACAD_REACTORS
330
B6
102
}
330
B6
100
AcDbScale
 70
     0
300
1:50
140
1.0
141
50.0
290
     0
  0
SCALE
  5
C2
102
{ACAD_REACTORS
330
B6
102
}
330
B6
100
AcDbScale
 70
     0
300
1:100
140
1.0
141
100.0
290
     0
  0
SCALE
  5
C3
102
{ACAD_REACTORS
330
B6
102
}
330
B6
100
AcDbScale
 70
     0
300
2:1
140
2.0
141
1.0
290
     0
  0
SCALE
  5
C4
102
{ACAD_REACTORS
330
B6
102
}
330
B6
100
AcDbScale
 70
     0
300
4:1
140
4.0
141
1.0
290
     0
  0
SCALE
  5
C5
102
{ACAD_REACTORS
330
B6
102
}
330
B6
100
AcDbScale
 70
     0
300
8:1
140
8.0
141
1.0
290
     0
  0
SCALE
  5
C6
102
{ACAD_REACTORS
330
B6
102
}
330
B6
100
AcDbScale
 70
     0
300
10:1
140
10.0
141
1.0
290
     0
  0
SCALE
  5
C7
102
{ACAD_REACTORS
330
B6
102
}
330
B6
100
AcDbScale
 70
     0
300
100:1
140
100.0
141
1.0
290
     0
  0
SCALE
  5
C8
102
{ACAD_REACTORS
330
B6
102
}
330
B6
100
AcDbScale
 70
     0
300
1/128" = 1'-0"
140
0.0078125
141
12.0
290
     0
  0
SCALE
  5
C9
102
{ACAD_REACTORS
330
B6
102
}
330
B6
100
AcDbScale
 70
     0
300
1/64" = 1'-0"
140
0.015625
141
12.0
290
     0
  0
SCALE
  5
CA
102
{ACAD_REACTORS
330
B6
102
}
330
B6
100
AcDbScale
 70
     0
300
1/32" = 1'-0"
140
0.03125
141
12.0
290
     0
  0
SCALE
  5
CB
102
{ACAD_REACTORS
330
B6
102
}
330
B6
100
AcDbScale
 70
     0
300
1/16" = 1'-0"
140
0.0625
141
12.0
290
     0
  0
SCALE
  5
CC
102
{ACAD_REACTORS
330
B6
102
}
330
B6
100
AcDbScale
 70
     0
300
3/32" = 1'-0"
140
0.09375
141
12.0
290
     0
  0
SCALE
  5
CD
102
{ACAD_REACTORS
330
B6
102
}
330
B6
100
AcDbScale
 70
     0
300
1/8" = 1'-0"
140
0.125
141
12.0
290
     0
  0
SCALE
  5
CE
102
{ACAD_REACTORS
330
B6
102
}
330
B6
100
AcDbScale
 70
     0
300
3/16" = 1'-0"
140
0.1875
141
12.0
290
     0
  0
SCALE
  5
CF
102
{ACAD_REACTORS
330
B6
102
}
330
B6
100
AcDbScale
 70
     0
300
1/4" = 1'-0"
140
0.25
141
12.0
290
     0
  0
SCALE
  5
D0
102
{ACAD_REACTORS
330
B6
102
}
330
B6
100
AcDbScale
 70
     0
300
3/8" = 1'-0"
140
0.375
141
12.0
290
     0
  0
SCALE
  5
D1
102
{ACAD_REACTORS
330
B6
102
}
330
B6
100
AcDbScale
 70
     0
300
1/2" = 1'-0"
140
0.5
141
12.0
290
     0
  0
SCALE
  5
D2
102
{ACAD_REACTORS
330
B6
102
}
330
B6
100
AcDbScale
 70
     0
300
3/4" = 1'-0"
140
0.75
141
12.0
290
     0
  0
SCALE
  5
D3
102
{ACAD_REACTORS
330
B6
102
}
330
B6
100
AcDbScale
 70
     0
300
1" = 1'-0"
140
1.0
141
12.0
290
     0
  0
SCALE
  5
D4
102
{ACAD_REACTORS
330
B6
102
}
330
B6
100
AcDbScale
 70
     0
300
1-1/2" = 1'-0"
140
1.5
141
12.0
290
     0
  0
SCALE
  5
D5
102
{ACAD_REACTORS
330
B6
102
}
330
B6
100
AcDbScale
 70
     0
300
3" = 1'-0"
140
3.0
141
12.0
290
     0
  0
SCALE
  5
D6
102
{ACAD_REACTORS
330
B6
102
}
330
B6
100
AcDbScale
 70
     0
300
6" = 1'-0"
140
6.0
141
12.0
290
     0
  0
SCALE
  5
D7
102
{ACAD_REACTORS
330
B6
102
}
330
B6
100
AcDbScale
 70
     0
300
1'-0" = 1'-0"
140
12.0
141
12.0
290
     0
  0
TABLESTYLE
  5
87
102
{ACAD_REACTORS
330
86
102
}
102
{ACAD_XDICTIONARY
360
736
102
}
330
86
100
AcDbTableStyle
  3
Standard
 70
     0
 71
     0
 40
0.06
 41
0.06
280
     0
281
     0
  7
Standard
140
0.18
170
     2
 62
     0
 63
   257
283
     0
 90
      512
 91
        0
  1

274
    -2
284
     1
 64
     0
275
    -2
285
     1
 65
     0
276
    -2
286
     1
 66
     0
277
    -2
287
     1
 67
     0
278
    -2
288
     1
 68
     0
279
    -2
289
     1
 69
     0
  7
Standard
140
0.25
170
     5
 62
     0
 63
   257
283
     0
 90
      512
 91
        0
  1

274
    -2
284
     1
 64
     0
275
    -2
285
     1
 65
     0
276
    -2
286
     1
 66
     0
277
    -2
287
     1
 67
     0
278
    -2
288
     1
 68
     0
279
    -2
289
     1
 69
     0
  7
Standard
140
0.18
170
     5
 62
     0
 63
   257
283
     0
 90
      512
 91
        0
  1

274
    -2
284
     1
 64
     0
275
    -2
285
     1
 65
     0
276
    -2
286
     1
 66
     0
277
    -2
287
     1
 67
     0
278
    -2
288
     1
 68
     0
279
    -2
289
     1
 69
     0
  0
VISUALSTYLE
  5
9F
102
{ACAD_REACTORS
330
99
102
}
330
99
100
AcDbVisualStyle
  2
2dWireframe
 70
     4
177
     3
291
     0
 70
    58
 90
        0
176
     1
 90
        2
176
     1
 90
        1
176
     1
 90
        0
176
     1
 40
-0.6
176
     1
 40
-30.0
176
     1
 62
     7
420
 16777215
176
     1
 90
        1
176
     1
 90
        4
176
     1
 62
     7
176
     1
 62
   257
176
     1
 90
        1
176
     1
 90
        1
176
     1
 40
1.0
176
     1
 90
        0
176
     1
 62
   257
176
     1
 40
1.0
176
     1
 90
        1
176
     1
 90
        6
176
     1
 90
        2
176
     1
 62
     7
176
     1
 90
        5
176
     1
 90
        0
176
     1
 90
        0
176
     1
290
     0
176
     1
 90
        1
176
     1
 40
0.0
176
     1
 90
        0
176
     1
290
     1
176
     1
290
     1
176
     1
290
     0
176
     1
290
     0
176
     1
290
     0
176
     1
290
     0
176
     1
290
     0
176
     1
290
     0
176
     1
290
     0
176
     1
 90
       50
176
     1
 40
0.0
176
     1
 40
1.0
176
     1
 90
        0
176
     1
 62
    18
420
        0
176
     1
 90
       50
176
     1
 90
        3
176
     1
 62
     5
420
      255
176
     1
290
     0
176
     1
 90
       50
176
     1
 90
       50
176
     1
 90
       50
176
     1
290
     0
176
     1
 90
       50
176
     1
 62
   256
176
     0
 40
1.0
176
     0
 90
        2
176
     1
  1
strokes_ogs.tif
176
     1
290
     0
176
     1
 40
1.0
176
     1
 40
1.0
176
     1
  0
VISUALSTYLE
  5
A1
102
{ACAD_REACTORS
330
99
102
}
330
99
100
AcDbVisualStyle
  2
3D Hidden
 70
     6
177
     3
291
     0
 70
    58
 90
        1
176
     1
 90
        2
176
     1
 90
        2
176
     1
 90
        0
176
     1
 40
-0.6
176
     1
 40
-30.0
176
     1
 62
     7
420
 16777215
176
     1
 90
        2
176
     1
 90
        2
176
     1
 62
     7
176
     1
 62
   257
176
     1
 90
        2
176
     1
 90
        1
176
     1
 40
40.0
176
     1
 90
        0
176
     1
 62
   257
176
     1
 40
1.0
176
     1
 90
        1
176
     1
 90
        6
176
     1
 90
        2
176
     1
 62
     7
176
     1
 90
        3
176
     1
 90
        0
176
     1
 90
        0
176
     1
290
     0
176
     1
 90
        1
176
     1
 40
0.0
176
     1
 90
        0
176
     1
290
     0
176
     1
290
     1
176
     1
290
     1
176
     1
290
     0
176
     1
290
     0
176
     1
290
     0
176
     1
290
     0
176
     1
290
     0
176
     1
290
     0
176
     1
 90
       50
176
     1
 40
0.0
176
     1
 40
1.0
176
     1
 90
        0
176
     1
 62
    18
420
        0
176
     1
 90
       50
176
     1
 90
        3
176
     1
 62
     5
420
      255
176
     1
290
     0
176
     1
 90
       50
176
     1
 90
       50
176
     1
 90
       50
176
     1
290
     0
176
     1
 90
       50
176
     1
 62
   256
176
     0
 40
1.0
176
     0
 90
        2
176
     1
  1
strokes_ogs.tif
176
     1
290
     0
176
     1
 40
1.0
176
     1
 40
1.0
176
     1
  0
VISUALSTYLE
  5
A0
102
{ACAD_REACTORS
330
99
102
}
330
99
100
AcDbVisualStyle
  2
3dWireframe
 70
     5
177
     3
291
     0
 70
    58
 90
        0
176
     1
 90
        2
176
     1
 90
        1
176
     1
 90
        0
176
     1
 40
-0.6
176
     1
 40
-30.0
176
     1
 62
     7
420
 16777215
176
     1
 90
        1
176
     1
 90
        4
176
     1
 62
     7
176
     1
 62
   257
176
     1
 90
        1
176
     1
 90
        1
176
     1
 40
1.0
176
     1
 90
        0
176
     1
 62
   257
176
     1
 40
1.0
176
     1
 90
        1
176
     1
 90
        6
176
     1
 90
        2
176
     1
 62
     7
176
     1
 90
        5
176
     1
 90
        0
176
     1
 90
        0
176
     1
290
     0
176
     1
 90
        1
176
     1
 40
0.0
176
     1
 90
        0
176
     1
290
     0
176
     1
290
     1
176
     1
290
     1
176
     1
290
     0
176
     1
290
     0
176
     1
290
     0
176
     1
290
     0
176
     1
290
     0
176
     1
290
     0
176
     1
 90
       50
176
     1
 40
0.0
176
     1
 40
1.0
176
     1
 90
        0
176
     1
 62
    18
420
        0
176
     1
 90
       50
176
     1
 90
        3
176
     1
 62
     5
420
      255
176
     1
290
     0
176
     1
 90
       50
176
     1
 90
       50
176
     1
 90
       50
176
     1
290
     0
176
     1
 90
       50
176
     1
 62
   256
176
     0
 40
1.0
176
     0
 90
        2
176
     1
  1
strokes_ogs.tif
176
     1
290
     0
176
     1
 40
1.0
176
     1
 40
1.0
176
     1
  0
VISUALSTYLE
  5
9E
102
{ACAD_REACTORS
330
99
102
}
330
99
100
AcDbVisualStyle
  2
Basic
 70
     7
177
     3
291
     1
 70
    58
 90
        1
176
     1
 90
        0
176
     1
 90
        1
176
     1
 90
        0
176
     1
 40
-0.6
176
     1
 40
-30.0
176
     1
 62
     7
420
 16777215
176
     1
 90
        0
176
     1
 90
        4
176
     1
 62
     7
176
     1
 62
   257
176
     1
 90
        1
176
     1
 90
        1
176
     1
 40
1.0
176
     1
 90
        8
176
     1
 62
     7
176
     1
 40
1.0
176
     1
 90
        1
176
     1
 90
        6
176
     1
 90
        2
176
     1
 62
     7
176
     1
 90
        5
176
     1
 90
        0
176
     1
 90
        0
176
     1
290
     0
176
     1
 90
        1
176
     1
 40
0.0
176
     1
 90
        0
176
     1
290
     0
176
     1
290
     1
176
     1
290
     1
176
     1
290
     0
176
     1
290
     0
176
     1
290
     0
176
     1
290
     0
176
     1
290
     0
176
     1
290
     0
176
     1
 90
       50
176
     1
 40
0.0
176
     1
 40
1.0
176
     1
 90
        0
176
     1
 62
    18
420
        0
176
     1
 90
       50
176
     1
 90
        3
176
     1
 62
     5
420
      255
176
     1
290
     0
176
     1
 90
       50
176
     1
 90
       50
176
     1
 90
       50
176
     1
290
     0
176
     1
 90
       50
176
     1
 62
   256
176
     0
 40
1.0
176
     0
 90
        2
176
     1
  1
strokes_ogs.tif
176
     1
290
     0
176
     1
 40
1.0
176
     1
 40
1.0
176
     1
  0
VISUALSTYLE
  5
A5
102
{ACAD_REACTORS
330
99
102
}
330
99
100
AcDbVisualStyle
  2
Brighten
 70
    12
177
     3
291
     1
 70
    58
 90
        2
176
     1
 90
        2
176
     1
 90
        1
176
     1
 90
        0
176
     1
 40
-0.6
176
     1
 40
-30.0
176
     1
 62
     7
420
 16777215
176
     1
 90
        1
176
     1
 90
        4
176
     1
 62
     7
176
     1
 62
   257
176
     1
 90
        1
176
     1
 90
        1
176
     1
 40
1.0
176
     1
 90
        8
176
     1
 62
     7
176
     1
 40
1.0
176
     1
 90
        1
176
     1
 90
        6
176
     1
 90
        2
176
     1
 62
     7
176
     1
 90
        5
176
     1
 90
        0
176
     1
 90
        0
176
     1
290
     0
176
     1
 90
        1
176
     1
 40
50.0
176
     1
 90
        0
176
     1
290
     0
176
     1
290
     1
176
     1
290
     1
176
     1
290
     0
176
     1
290
     0
176
     1
290
     0
176
     1
290
     0
176
     1
290
     0
176
     1
290
     0
176
     1
 90
       50
176
     1
 40
0.0
176
     1
 40
1.0
176
     1
 90
        0
176
     1
 62
    18
420
        0
176
     1
 90
       50
176
     1
 90
        3
176
     1
 62
     5
420
      255
176
     1
290
     0
176
     1
 90
       50
176
     1
 90
       50
176
     1
 90
       50
176
     1
290
     0
176
     1
 90
       50
176
     1
 62
   256
176
     0
 40
1.0
176
     0
 90
        2
176
     1
  1
strokes_ogs.tif
176
     1
290
     0
176
     1
 40
1.0
176
     1
 40
1.0
176
     1
  0
VISUALSTYLE
  5
A9
102
{ACAD_REACTORS
330
99
102
}
330
99
100
AcDbVisualStyle
  2
ColorChange
 70
    16
177
     3
291
     1
 70
    58
 90
        2
176
     1
 90
        2
176
     1
 90
        3
176
     1
 90
        0
176
     1
 40
-0.6
176
     1
 40
-30.0
176
     1
 62
     8
420
  8421504
176
     1
 90
        1
176
     1
 90
        4
176
     1
 62
     7
176
     1
 62
   257
176
     1
 90
        1
176
     1
 90
        1
176
     1
 40
1.0
176
     1
 90
        8
176
     1
 62
     8
420
  8421504
176
     1
 40
1.0
176
     1
 90
        1
176
     1
 90
        6
176
     1
 90
        2
176
     1
 62
     7
176
     1
 90
        5
176
     1
 90
        0
176
     1
 90
        0
176
     1
290
     0
176
     1
 90
        1
176
     1
 40
0.0
176
     1
 90
        0
176
     1
290
     0
176
     1
290
     1
176
     1
290
     1
176
     1
290
     0
176
     1
290
     0
176
     1
290
     0
176
     1
290
     0
176
     1
290
     0
176
     1
290
     0
176
     1
 90
       50
176
     1
 40
0.0
176
     1
 40
1.0
176
     1
 90
        0
176
     1
 62
    18
420
        0
176
     1
 90
       50
176
     1
 90
        3
176
     1
 62
     5
420
      255
176
     1
290
     0
176
     1
 90
       50
176
     1
 90
       50
176
     1
 90
       50
176
     1
290
     0
176
     1
 90
       50
176
     1
 62
   256
176
     0
 40
1.0
176
     0
 90
        2
176
     1
  1
strokes_ogs.tif
176
     1
290
     0
176
     1
 40
1.0
176
     1
 40
1.0
176
     1
  0
VISUALSTYLE
  5
A2
102
{ACAD_REACTORS
330
99
102
}
330
99
100
AcDbVisualStyle
  2
Conceptual
 70
     9
177
     3
291
     0
 70
    58
 90
        3
176
     1
 90
        2
176
     1
 90
        1
176
     1
 90
        0
176
     1
 40
-0.6
176
     1
 40
-30.0
176
     1
 62
     7
420
 16777215
176
     1
 90
        2
176
     1
 90
        2
176
     1
 62
     7
176
     1
 62
   257
176
     1
 90
        1
176
     1
 90
        1
176
     1
 40
40.0
176
     1
 90
        8
176
     1
 62
     7
176
     1
 40
1.0
176
     1
 90
        1
176
     1
 90
        6
176
     1
 90
        2
176
     1
 62
     7
176
     1
 90
        3
176
     1
 90
        0
176
     1
 90
        0
176
     1
290
     0
176
     1
 90
        1
176
     1
 40
0.0
176
     1
 90
        0
176
     1
290
     0
176
     1
290
     1
176
     1
290
     1
176
     1
290
     0
176
     1
290
     0
176
     1
290
     0
176
     1
290
     0
176
     1
290
     0
176
     1
290
     0
176
     1
 90
       50
176
     1
 40
0.0
176
     1
 40
1.0
176
     1
 90
        0
176
     1
 62
    18
420
        0
176
     1
 90
       50
176
     1
 90
        3
176
     1
 62
     5
420
      255
176
     1
290
     0
176
     1
 90
       50
176
     1
 90
       50
176
     1
 90
       50
176
     1
290
     0
176
     1
 90
       50
176
     1
 62
   256
176
     0
 40
1.0
176
     0
 90
        2
176
     1
  1
strokes_ogs.tif
176
     1
290
     0
176
     1
 40
1.0
176
     1
 40
1.0
176
     1
  0
VISUALSTYLE
  5
A4
102
{ACAD_REACTORS
330
99
102
}
330
99
100
AcDbVisualStyle
  2
Dim
 70
    11
177
     3
291
     1
 70
    58
 90
        2
176
     1
 90
        2
176
     1
 90
        1
176
     1
 90
        0
176
     1
 40
-0.6
176
     1
 40
-30.0
176
     1
 62
     7
420
 16777215
176
     1
 90
        1
176
     1
 90
        4
176
     1
 62
     7
176
     1
 62
   257
176
     1
 90
        1
176
     1
 90
        1
176
     1
 40
1.0
176
     1
 90
        8
176
     1
 62
     7
176
     1
 40
1.0
176
     1
 90
        1
176
     1
 90
        6
176
     1
 90
        2
176
     1
 62
     7
176
     1
 90
        5
176
     1
 90
        0
176
     1
 90
        0
176
     1
290
     0
176
     1
 90
        1
176
     1
 40
-50.0
176
     1
 90
        0
176
     1
290
     0
176
     1
290
     1
176
     1
290
     1
176
     1
290
     0
176
     1
290
     0
176
     1
290
     0
176
     1
290
     0
176
     1
290
     0
176
     1
290
     0
176
     1
 90
       50
176
     1
 40
0.0
176
     1
 40
1.0
176
     1
 90
        0
176
     1
 62
    18
420
        0
176
     1
 90
       50
176
     1
 90
        3
176
     1
 62
     5
420
      255
176
     1
290
     0
176
     1
 90
       50
176
     1
 90
       50
176
     1
 90
       50
176
     1
290
     0
176
     1
 90
       50
176
     1
 62
   256
176
     0
 40
1.0
176
     0
 90
        2
176
     1
  1
strokes_ogs.tif
176
     1
290
     0
176
     1
 40
1.0
176
     1
 40
1.0
176
     1
  0
VISUALSTYLE
  5
E7
102
{ACAD_REACTORS
330
99
102
}
330
99
100
AcDbVisualStyle
  2
EdgeColorOff
 70
    22
177
     3
291
     1
 70
    58
 90
        2
176
     0
 90
        2
176
     0
 90
        0
176
     0
 90
        0
176
     0
 40
0.6
176
     0
 40
30.0
176
     0
 62
     7
420
 16777215
176
     0
 90
        1
176
     0
 90
        4
176
     0
 62
     7
176
     0
 62
   257
176
     0
 90
        1
176
     0
 90
        1
176
     0
 40
1.0
176
     0
 90
        8
176
     2
 62
     7
176
     0
 40
1.0
176
     0
 90
        1
176
     0
 90
        6
176
     0
 90
        2
176
     0
 62
     7
176
     0
 90
        5
176
     0
 90
        0
176
     0
 90
        0
176
     0
290
     0
176
     0
 90
        1
176
     0
 40
0.0
176
     0
 90
        0
176
     0
290
     0
176
     0
290
     1
176
     0
290
     1
176
     0
290
     0
176
     0
290
     0
176
     0
290
     0
176
     0
290
     0
176
     0
290
     0
176
     0
290
     0
176
     0
 90
       50
176
     0
 40
0.0
176
     0
 40
1.0
176
     0
 90
        0
176
     0
 62
    18
420
        0
176
     0
 90
       50
176
     0
 90
        3
176
     0
 62
     5
420
      255
176
     0
290
     0
176
     0
 90
       50
176
     0
 90
       50
176
     0
 90
       50
176
     0
290
     0
176
     0
 90
       50
176
     0
 62
   256
176
     0
 40
1.0
176
     0
 90
        2
176
     0
  1
strokes_ogs.tif
176
     0
290
     0
176
     0
 40
1.0
176
     0
 40
1.0
176
     0
  0
VISUALSTYLE
  5
A8
102
{ACAD_REACTORS
330
99
102
}
330
99
100
AcDbVisualStyle
  2
Facepattern
 70
    15
177
     3
291
     1
 70
    58
 90
        2
176
     1
 90
        2
176
     1
 90
        1
176
     1
 90
        0
176
     1
 40
-0.6
176
     1
 40
-30.0
176
     1
 62
     7
420
 16777215
176
     1
 90
        1
176
     1
 90
        4
176
     1
 62
     7
176
     1
 62
   257
176
     1
 90
        1
176
     1
 90
        1
176
     1
 40
1.0
176
     1
 90
        8
176
     1
 62
     7
176
     1
 40
1.0
176
     1
 90
        1
176
     1
 90
        6
176
     1
 90
        2
176
     1
 62
     7
176
     1
 90
        5
176
     1
 90
        0
176
     1
 90
        0
176
     1
290
     0
176
     1
 90
        1
176
     1
 40
0.0
176
     1
 90
        0
176
     1
290
     0
176
     1
290
     1
176
     1
290
     1
176
     1
290
     0
176
     1
290
     0
176
     1
290
     0
176
     1
290
     0
176
     1
290
     0
176
     1
290
     0
176
     1
 90
       50
176
     1
 40
0.0
176
     1
 40
1.0
176
     1
 90
        0
176
     1
 62
    18
420
        0
176
     1
 90
       50
176
     1
 90
        3
176
     1
 62
     5
420
      255
176
     1
290
     0
176
     1
 90
       50
176
     1
 90
       50
176
     1
 90
       50
176
     1
290
     0
176
     1
 90
       50
176
     1
 62
   256
176
     0
 40
1.0
176
     0
 90
        2
176
     1
  1
strokes_ogs.tif
176
     1
290
     0
176
     1
 40
1.0
176
     1
 40
1.0
176
     1
  0
VISUALSTYLE
  5
9A
102
{ACAD_REACTORS
330
99
102
}
330
99
100
AcDbVisualStyle
  2
Flat
 70
     0
177
     3
291
     1
 70
    58
 90
        2
176
     1
 90
        1
176
     1
 90
        1
176
     1
 90
        2
176
     1
 40
-0.6
176
     1
 40
30.0
176
     1
 62
     7
420
 16777215
176
     1
 90
        0
176
     1
 90
        4
176
     1
 62
     7
176
     1
 62
   257
176
     1
 90
        1
176
     1
 90
        1
176
     1
 40
1.0
176
     1
 90
        8
176
     1
 62
     7
176
     1
 40
1.0
176
     1
 90
        1
176
     1
 90
        6
176
     1
 90
        2
176
     1
 62
     7
176
     1
 90
        5
176
     1
 90
        0
176
     1
 90
        0
176
     1
290
     0
176
     1
 90
        1
176
     1
 40
0.0
176
     1
 90
        0
176
     1
290
     0
176
     1
290
     1
176
     1
290
     1
176
     1
290
     0
176
     1
290
     0
176
     1
290
     0
176
     1
290
     0
176
     1
290
     0
176
     1
290
     0
176
     1
 90
       50
176
     1
 40
0.0
176
     1
 40
1.0
176
     1
 90
        0
176
     1
 62
    18
420
        0
176
     1
 90
       50
176
     1
 90
        3
176
     1
 62
     5
420
      255
176
     1
290
     0
176
     1
 90
       50
176
     1
 90
       50
176
     1
 90
       50
176
     1
290
     0
176
     1
 90
       50
176
     1
 62
   256
176
     0
 40
1.0
176
     0
 90
        2
176
     1
  1
strokes_ogs.tif
176
     1
290
     0
176
     1
 40
1.0
176
     1
 40
1.0
176
     1
  0
VISUALSTYLE
  5
9B
102
{ACAD_REACTORS
330
99
102
}
330
99
100
AcDbVisualStyle
  2
FlatWithEdges
 70
     1
177
     3
291
     1
 70
    58
 90
        2
176
     1
 90
        1
176
     1
 90
        1
176
     1
 90
        2
176
     1
 40
-0.6
176
     1
 40
30.0
176
     1
 62
     7
420
 16777215
176
     1
 90
        1
176
     1
 90
        4
176
     1
 62
     7
176
     1
 62
   257
176
     1
 90
        1
176
     1
 90
        1
176
     1
 40
1.0
176
     1
 90
        0
176
     1
 62
   257
176
     1
 40
1.0
176
     1
 90
        1
176
     1
 90
        6
176
     1
 90
        2
176
     1
 62
     7
176
     1
 90
        5
176
     1
 90
        0
176
     1
 90
        0
176
     1
290
     0
176
     1
 90
        1
176
     1
 40
0.0
176
     1
 90
        0
176
     1
290
     0
176
     1
290
     1
176
     1
290
     1
176
     1
290
     0
176
     1
290
     0
176
     1
290
     0
176
     1
290
     0
176
     1
290
     0
176
     1
290
     0
176
     1
 90
       50
176
     1
 40
0.0
176
     1
 40
1.0
176
     1
 90
        0
176
     1
 62
    18
420
        0
176
     1
 90
       50
176
     1
 90
        3
176
     1
 62
     5
420
      255
176
     1
290
     0
176
     1
 90
       50
176
     1
 90
       50
176
     1
 90
       50
176
     1
290
     0
176
     1
 90
       50
176
     1
 62
   256
176
     0
 40
1.0
176
     0
 90
        2
176
     1
  1
strokes_ogs.tif
176
     1
290
     0
176
     1
 40
1.0
176
     1
 40
1.0
176
     1
  0
VISUALSTYLE
  5
9C
102
{ACAD_REACTORS
330
99
102
}
330
99
100
AcDbVisualStyle
  2
Gouraud
 70
     2
177
     3
291
     1
 70
    58
 90
        2
176
     1
 90
        2
176
     1
 90
        1
176
     1
 90
        2
176
     1
 40
-0.6
176
     1
 40
30.0
176
     1
 62
     7
420
 16777215
176
     1
 90
        0
176
     1
 90
        4
176
     1
 62
     7
176
     1
 62
   257
176
     1
 90
        1
176
     1
 90
        1
176
     1
 40
1.0
176
     1
 90
        0
176
     1
 62
     7
176
     1
 40
1.0
176
     1
 90
        1
176
     1
 90
        6
176
     1
 90
        2
176
     1
 62
     7
176
     1
 90
        5
176
     1
 90
        0
176
     1
 90
        0
176
     1
290
     0
176
     1
 90
        1
176
     1
 40
0.0
176
     1
 90
        0
176
     1
290
     0
176
     1
290
     1
176
     1
290
     1
176
     1
290
     0
176
     1
290
     0
176
     1
290
     0
176
     1
290
     0
176
     1
290
     0
176
     1
290
     0
176
     1
 90
       50
176
     1
 40
0.0
176
     1
 40
1.0
176
     1
 90
        0
176
     1
 62
    18
420
        0
176
     1
 90
       50
176
     1
 90
        3
176
     1
 62
     5
420
      255
176
     1
290
     0
176
     1
 90
       50
176
     1
 90
       50
176
     1
 90
       50
176
     1
290
     0
176
     1
 90
       50
176
     1
 62
   256
176
     0
 40
1.0
176
     0
 90
        2
176
     1
  1
strokes_ogs.tif
176
     1
290
     0
176
     1
 40
1.0
176
     1
 40
1.0
176
     1
  0
VISUALSTYLE
  5
9D
102
{ACAD_REACTORS
330
99
102
}
330
99
100
AcDbVisualStyle
  2
GouraudWithEdges
 70
     3
177
     3
291
     1
 70
    58
 90
        2
176
     1
 90
        2
176
     1
 90
        1
176
     1
 90
        2
176
     1
 40
-0.6
176
     1
 40
30.0
176
     1
 62
     7
420
 16777215
176
     1
 90
        1
176
     1
 90
        4
176
     1
 62
     7
176
     1
 62
   257
176
     1
 90
        1
176
     1
 90
        1
176
     1
 40
1.0
176
     1
 90
        0
176
     1
 62
   257
176
     1
 40
1.0
176
     1
 90
        1
176
     1
 90
        6
176
     1
 90
        2
176
     1
 62
     7
176
     1
 90
        5
176
     1
 90
        0
176
     1
 90
        0
176
     1
290
     0
176
     1
 90
        1
176
     1
 40
0.0
176
     1
 90
        0
176
     1
290
     0
176
     1
290
     1
176
     1
290
     1
176
     1
290
     0
176
     1
290
     0
176
     1
290
     0
176
     1
290
     0
176
     1
290
     0
176
     1
290
     0
176
     1
 90
       50
176
     1
 40
0.0
176
     1
 40
1.0
176
     1
 90
        0
176
     1
 62
    18
420
        0
176
     1
 90
       50
176
     1
 90
        3
176
     1
 62
     5
420
      255
176
     1
290
     0
176
     1
 90
       50
176
     1
 90
       50
176
     1
 90
       50
176
     1
290
     0
176
     1
 90
       50
176
     1
 62
   256
176
     0
 40
1.0
176
     0
 90
        2
176
     1
  1
strokes_ogs.tif
176
     1
290
     0
176
     1
 40
1.0
176
     1
 40
1.0
176
     1
  0
VISUALSTYLE
  5
E4
102
{ACAD_REACTORS
330
99
102
}
330
99
100
AcDbVisualStyle
  2
Hidden
 70
     6
177
     3
291
     0
 70
    58
 90
        1
176
     1
 90
        2
176
     1
 90
        2
176
     1
 90
        0
176
     1
 40
0.6
176
     1
 40
30.0
176
     1
 62
     7
420
 16777215
176
     1
 90
        2
176
     1
 90
        2
176
     1
 62
     7
176
     1
 62
   257
176
     1
 90
        2
176
     1
 90
        1
176
     1
 40
40.0
176
     1
 90
        0
176
     1
 62
   257
176
     1
 40
1.0
176
     1
 90
        1
176
     1
 90
        6
176
     1
 90
        2
176
     1
 62
     7
176
     1
 90
        3
176
     1
 90
        0
176
     1
 90
        0
176
     1
290
     0
176
     1
 90
        1
176
     1
 40
0.0
176
     1
 90
        0
176
     1
290
     0
176
     1
290
     1
176
     1
290
     1
176
     1
290
     0
176
     1
290
     0
176
     1
290
     0
176
     1
290
     0
176
     1
290
     0
176
     1
290
     0
176
     1
 90
       50
176
     1
 40
0.0
176
     1
 40
1.0
176
     1
 90
        0
176
     1
 62
    18
420
        0
176
     1
 90
       50
176
     1
 90
        3
176
     1
 62
     5
420
      255
176
     1
290
     0
176
     1
 90
       50
176
     1
 90
       50
176
     1
 90
       50
176
     1
290
     0
176
     1
 90
       50
176
     1
 62
   256
176
     0
 40
1.0
176
     0
 90
        2
176
     1
  1
strokes_ogs.tif
176
     1
290
     0
176
     1
 40
1.0
176
     1
 40
1.0
176
     1
  0
VISUALSTYLE
  5
E5
102
{ACAD_REACTORS
330
99
102
}
330
99
100
AcDbVisualStyle
  2
JitterOff
 70
    20
177
     3
291
     1
 70
    58
 90
        2
176
     0
 90
        2
176
     0
 90
        0
176
     0
 90
        0
176
     0
 40
0.6
176
     0
 40
30.0
176
     0
 62
     7
420
 16777215
176
     0
 90
        1
176
     0
 90
        4
176
     0
 62
     7
176
     0
 62
   257
176
     0
 90
        1
176
     0
 90
        1
176
     0
 40
1.0
176
     0
 90
       10
176
     2
 62
     7
176
     0
 40
1.0
176
     0
 90
        1
176
     0
 90
        6
176
     0
 90
        2
176
     0
 62
     7
176
     0
 90
        5
176
     0
 90
        0
176
     0
 90
        0
176
     0
290
     0
176
     0
 90
        1
176
     0
 40
0.0
176
     0
 90
        0
176
     0
290
     0
176
     0
290
     1
176
     0
290
     1
176
     0
290
     0
176
     0
290
     0
176
     0
290
     0
176
     0
290
     0
176
     0
290
     0
176
     0
290
     0
176
     0
 90
       50
176
     0
 40
0.0
176
     0
 40
1.0
176
     0
 90
        0
176
     0
 62
    18
420
        0
176
     0
 90
       50
176
     0
 90
        3
176
     0
 62
     5
420
      255
176
     0
290
     0
176
     0
 90
       50
176
     0
 90
       50
176
     0
 90
       50
176
     0
290
     0
176
     0
 90
       50
176
     0
 62
   256
176
     0
 40
1.0
176
     0
 90
        2
176
     0
  1
strokes_ogs.tif
176
     0
290
     0
176
     0
 40
1.0
176
     0
 40
1.0
176
     0
  0
VISUALSTYLE
  5
A7
102
{ACAD_REACTORS
330
99
102
}
330
99
100
AcDbVisualStyle
  2
Linepattern
 70
    14
177
     3
291
     1
 70
    58
 90
        2
176
     1
 90
        2
176
     1
 90
        1
176
     1
 90
        0
176
     1
 40
-0.6
176
     1
 40
-30.0
176
     1
 62
     7
420
 16777215
176
     1
 90
        1
176
     1
 90
        4
176
     1
 62
     7
176
     1
 62
   257
176
     1
 90
        7
176
     1
 90
        7
176
     1
 40
1.0
176
     1
 90
        8
176
     1
 62
     7
176
     1
 40
1.0
176
     1
 90
        1
176
     1
 90
        6
176
     1
 90
        2
176
     1
 62
     7
176
     1
 90
        5
176
     1
 90
        0
176
     1
 90
        0
176
     1
290
     0
176
     1
 90
        1
176
     1
 40
0.0
176
     1
 90
        0
176
     1
290
     0
176
     1
290
     1
176
     1
290
     1
176
     1
290
     0
176
     1
290
     0
176
     1
290
     0
176
     1
290
     0
176
     1
290
     0
176
     1
290
     0
176
     1
 90
       50
176
     1
 40
0.0
176
     1
 40
1.0
176
     1
 90
        0
176
     1
 62
    18
420
        0
176
     1
 90
       50
176
     1
 90
        3
176
     1
 62
     5
420
      255
176
     1
290
     0
176
     1
 90
       50
176
     1
 90
       50
176
     1
 90
       50
176
     1
290
     0
176
     1
 90
       50
176
     1
 62
   256
176
     0
 40
1.0
176
     0
 90
        2
176
     1
  1
strokes_ogs.tif
176
     1
290
     0
176
     1
 40
1.0
176
     1
 40
1.0
176
     1
  0
VISUALSTYLE
  5
E6
102
{ACAD_REACTORS
330
99
102
}
330
99
100
AcDbVisualStyle
  2
OverhangOff
 70
    21
177
     3
291
     1
 70
    58
 90
        2
176
     0
 90
        2
176
     0
 90
        0
176
     0
 90
        0
176
     0
 40
0.6
176
     0
 40
30.0
176
     0
 62
     7
420
 16777215
176
     0
 90
        1
176
     0
 90
        4
176
     0
 62
     7
176
     0
 62
   257
176
     0
 90
        1
176
     0
 90
        1
176
     0
 40
1.0
176
     0
 90
        9
176
     2
 62
     7
176
     0
 40
1.0
176
     0
 90
        1
176
     0
 90
        6
176
     0
 90
        2
176
     0
 62
     7
176
     0
 90
        5
176
     0
 90
        0
176
     0
 90
        0
176
     0
290
     0
176
     0
 90
        1
176
     0
 40
0.0
176
     0
 90
        0
176
     0
290
     0
176
     0
290
     1
176
     0
290
     1
176
     0
290
     0
176
     0
290
     0
176
     0
290
     0
176
     0
290
     0
176
     0
290
     0
176
     0
290
     0
176
     0
 90
       50
176
     0
 40
0.0
176
     0
 40
1.0
176
     0
 90
        0
176
     0
 62
    18
420
        0
176
     0
 90
       50
176
     0
 90
        3
176
     0
 62
     5
420
      255
176
     0
290
     0
176
     0
 90
       50
176
     0
 90
       50
176
     0
 90
       50
176
     0
290
     0
176
     0
 90
       50
176
     0
 62
   256
176
     0
 40
1.0
176
     0
 90
        2
176
     0
  1
strokes_ogs.tif
176
     0
290
     0
176
     0
 40
1.0
176
     0
 40
1.0
176
     0
  0
VISUALSTYLE
  5
A3
102
{ACAD_REACTORS
330
99
102
}
330
99
100
AcDbVisualStyle
  2
Realistic
 70
     8
177
     3
291
     0
 70
    58
 90
        2
176
     1
 90
        2
176
     1
 90
        1
176
     1
 90
        0
176
     1
 40
-0.6
176
     1
 40
-30.0
176
     1
 62
     7
420
 16777215
176
     1
 90
        1
176
     1
 90
        0
176
     1
 62
     7
176
     1
 62
   257
176
     1
 90
        1
176
     1
 90
        1
176
     1
 40
1.0
176
     1
 90
        8
176
     1
 62
     8
420
  7895160
176
     1
 40
1.0
176
     1
 90
        1
176
     1
 90
        6
176
     1
 90
        2
176
     1
 62
     7
176
     1
 90
        5
176
     1
 90
        0
176
     1
 90
        0
176
     1
290
     0
176
     1
 90
       13
176
     1
 40
0.0
176
     1
 90
        0
176
     1
290
     0
176
     1
290
     1
176
     1
290
     1
176
     1
290
     0
176
     1
290
     0
176
     1
290
     0
176
     1
290
     0
176
     1
290
     0
176
     1
290
     0
176
     1
 90
       50
176
     1
 40
0.0
176
     1
 40
1.0
176
     1
 90
        0
176
     1
 62
    18
420
        0
176
     1
 90
       50
176
     1
 90
        3
176
     1
 62
     5
420
      255
176
     1
290
     0
176
     1
 90
       50
176
     1
 90
       50
176
     1
 90
       50
176
     1
290
     0
176
     1
 90
       50
176
     1
 62
   256
176
     0
 40
1.0
176
     0
 90
        2
176
     1
  1
strokes_ogs.tif
176
     1
290
     0
176
     1
 40
1.0
176
     1
 40
1.0
176
     1
  0
VISUALSTYLE
  5
EC
102
{ACAD_REACTORS
330
99
102
}
330
99
100
AcDbVisualStyle
  2
Shaded
 70
    27
177
     3
291
     0
 70
    58
 90
        2
176
     1
 90
        2
176
     1
 90
        1
176
     1
 90
        2
176
     1
 40
0.6
176
     1
 40
30.0
176
     1
 62
     7
420
 16777215
176
     1
 90
        0
176
     1
 90
        4
176
     1
 62
     7
176
     1
 62
   257
176
     1
 90
        1
176
     1
 90
        1
176
     1
 40
1.0
176
     1
 90
        8
176
     1
 62
   257
176
     1
 40
1.0
176
     1
 90
        1
176
     1
 90
        6
176
     1
 90
        2
176
     1
 62
     8
420
  7895160
176
     1
 90
        3
176
     1
 90
        0
176
     1
 90
        0
176
     1
290
     0
176
     1
 90
        5
176
     1
 40
0.0
176
     1
 90
        0
176
     1
290
     0
176
     1
290
     1
176
     1
290
     1
176
     1
290
     0
176
     1
290
     0
176
     1
290
     0
176
     1
290
     0
176
     1
290
     0
176
     1
290
     0
176
     1
 90
       50
176
     1
 40
0.0
176
     1
 40
1.0
176
     1
 90
        0
176
     1
 62
    18
420
        0
176
     1
 90
       50
176
     1
 90
        3
176
     1
 62
     5
420
      255
176
     1
290
     0
176
     1
 90
       50
176
     1
 90
       50
176
     1
 90
       50
176
     1
290
     0
176
     1
 90
       50
176
     1
 62
   256
176
     0
 40
1.0
176
     0
 90
        2
176
     1
  1
strokes_ogs.tif
176
     1
290
     0
176
     1
 40
1.0
176
     1
 40
1.0
176
     1
  0
VISUALSTYLE
  5
EB
102
{ACAD_REACTORS
330
99
102
}
330
99
100
AcDbVisualStyle
  2
Shaded with edges
 70
    26
177
     3
291
     0
 70
    58
 90
        2
176
     1
 90
        2
176
     1
 90
        1
176
     1
 90
        2
176
     1
 40
0.6
176
     1
 40
30.0
176
     1
 62
     7
420
 16777215
176
     1
 90
        1
176
     1
 90
       10
176
     1
 62
     7
176
     1
 62
   257
176
     1
 90
        2
176
     1
 90
        1
176
     1
 40
1.0
176
     1
 90
        8
176
     1
 62
   257
176
     1
 40
1.0
176
     1
 90
        1
176
     1
 90
        6
176
     1
 90
        2
176
     1
 62
     7
176
     1
 90
        3
176
     1
 90
        0
176
     1
 90
        0
176
     1
290
     0
176
     1
 90
        5
176
     1
 40
0.0
176
     1
 90
        0
176
     1
290
     0
176
     1
290
     1
176
     1
290
     1
176
     1
290
     0
176
     1
290
     0
176
     1
290
     0
176
     1
290
     0
176
     1
290
     0
176
     1
290
     0
176
     1
 90
       50
176
     1
 40
0.0
176
     1
 40
1.0
176
     1
 90
        0
176
     1
 62
    18
420
        0
176
     1
 90
       50
176
     1
 90
        3
176
     1
 62
     5
420
      255
176
     1
290
     0
176
     1
 90
       50
176
     1
 90
       50
176
     1
 90
       50
176
     1
290
     0
176
     1
 90
       50
176
     1
 62
   256
176
     0
 40
1.0
176
     0
 90
        2
176
     1
  1
strokes_ogs.tif
176
     1
290
     0
176
     1
 40
1.0
176
     1
 40
1.0
176
     1
  0
VISUALSTYLE
  5
E8
102
{ACAD_REACTORS
330
99
102
}
330
99
100
AcDbVisualStyle
  2
Shades of Gray
 70
    23
177
     3
291
     0
 70
    58
 90
        2
176
     1
 90
        2
176
     1
 90
        3
176
     1
 90
        0
176
     1
 40
0.6
176
     1
 40
30.0
176
     1
 62
     7
420
 16777215
176
     1
 90
        2
176
     1
 90
        2
176
     1
 62
     7
176
     1
 62
     7
176
     1
 90
        1
176
     1
 90
        1
176
     1
 40
40.0
176
     1
 90
        8
176
     1
 62
     7
176
     1
 40
1.0
176
     1
 90
        1
176
     1
 90
        6
176
     1
 90
        2
176
     1
 62
     7
176
     1
 90
        3
176
     1
 90
        0
176
     1
 90
        0
176
     1
290
     0
176
     1
 90
        1
176
     1
 40
0.0
176
     1
 90
        0
176
     1
290
     0
176
     1
290
     1
176
     1
290
     1
176
     1
290
     0
176
     1
290
     0
176
     1
290
     0
176
     1
290
     0
176
     1
290
     0
176
     1
290
     0
176
     1
 90
       50
176
     1
 40
0.0
176
     1
 40
1.0
176
     1
 90
        0
176
     1
 62
    18
420
        0
176
     1
 90
       50
176
     1
 90
        3
176
     1
 62
     5
420
      255
176
     1
290
     0
176
     1
 90
       50
176
     1
 90
       50
176
     1
 90
       50
176
     1
290
     0
176
     1
 90
       50
176
     1
 62
   256
176
     0
 40
1.0
176
     0
 90
        2
176
     1
  1
strokes_ogs.tif
176
     1
290
     0
176
     1
 40
1.0
176
     1
 40
1.0
176
     1
  0
VISUALSTYLE
  5
E9
102
{ACAD_REACTORS
330
99
102
}
330
99
100
AcDbVisualStyle
  2
Sketchy
 70
    24
177
     3
291
     0
 70
    58
 90
        1
176
     1
 90
        2
176
     1
 90
        2
176
     1
 90
        0
176
     1
 40
0.6
176
     1
 40
30.0
176
     1
 62
     7
420
 16777215
176
     1
 90
        2
176
     1
 90
        2
176
     1
 62
     7
176
     1
 62
     7
176
     1
 90
        1
176
     1
 90
        1
176
     1
 40
40.0
176
     1
 90
       11
176
     1
 62
     7
176
     1
 40
1.0
176
     1
 90
        1
176
     1
 90
        6
176
     1
 90
        2
176
     1
 62
     7
176
     1
 90
        6
176
     1
 90
        0
176
     1
 90
        0
176
     1
290
     0
176
     1
 90
        1
176
     1
 40
0.0
176
     1
 90
        0
176
     1
290
     0
176
     1
290
     1
176
     1
290
     1
176
     1
290
     0
176
     1
290
     0
176
     1
290
     0
176
     1
290
     0
176
     1
290
     0
176
     1
290
     0
176
     1
 90
       50
176
     1
 40
0.0
176
     1
 40
1.0
176
     1
 90
        0
176
     1
 62
    18
420
        0
176
     1
 90
       50
176
     1
 90
        3
176
     1
 62
     5
420
      255
176
     1
290
     0
176
     1
 90
       50
176
     1
 90
       50
176
     1
 90
       50
176
     1
290
     0
176
     1
 90
       50
176
     1
 62
   256
176
     0
 40
1.0
176
     0
 90
        2
176
     1
  1
strokes_ogs.tif
176
     1
290
     0
176
     1
 40
1.0
176
     1
 40
1.0
176
     1
  0
VISUALSTYLE
  5
A6
102
{ACAD_REACTORS
330
99
102
}
330
99
100
AcDbVisualStyle
  2
Thicken
 70
    13
177
     3
291
     1
 70
    58
 90
        2
176
     1
 90
        2
176
     1
 90
        1
176
     1
 90
        0
176
     1
 40
-0.6
176
     1
 40
-30.0
176
     1
 62
     7
420
 16777215
176
     1
 90
        1
176
     1
 90
        4
176
     1
 62
     7
176
     1
 62
   257
176
     1
 90
        1
176
     1
 90
        1
176
     1
 40
1.0
176
     1
 90
       12
176
     1
 62
     7
176
     1
 40
1.0
176
     1
 90
        1
176
     1
 90
        6
176
     1
 90
        2
176
     1
 62
     7
176
     1
 90
        5
176
     1
 90
        0
176
     1
 90
        0
176
     1
290
     0
176
     1
 90
        1
176
     1
 40
0.0
176
     1
 90
        0
176
     1
290
     0
176
     1
290
     1
176
     1
290
     1
176
     1
290
     0
176
     1
290
     0
176
     1
290
     0
176
     1
290
     0
176
     1
290
     0
176
     1
290
     0
176
     1
 90
       50
176
     1
 40
0.0
176
     1
 40
1.0
176
     1
 90
        0
176
     1
 62
    18
420
        0
176
     1
 90
       50
176
     1
 90
        3
176
     1
 62
     5
420
      255
176
     1
290
     0
176
     1
 90
       50
176
     1
 90
       50
176
     1
 90
       50
176
     1
290
     0
176
     1
 90
       50
176
     1
 62
   256
176
     0
 40
1.0
176
     0
 90
        2
176
     1
  1
strokes_ogs.tif
176
     1
290
     0
176
     1
 40
1.0
176
     1
 40
1.0
176
     1
  0
VISUALSTYLE
  5
E3
102
{ACAD_REACTORS
330
99
102
}
330
99
100
AcDbVisualStyle
  2
Wireframe
 70
     5
177
     3
291
     0
 70
    58
 90
        0
176
     1
 90
        2
176
     1
 90
        0
176
     1
 90
        0
176
     1
 40
0.6
176
     1
 40
30.0
176
     1
 62
     7
420
 16777215
176
     1
 90
        1
176
     1
 90
        4
176
     1
 62
     7
176
     1
 62
   257
176
     1
 90
        1
176
     1
 90
        1
176
     1
 40
1.0
176
     1
 90
        0
176
     1
 62
   257
176
     1
 40
1.0
176
     1
 90
        1
176
     1
 90
        6
176
     1
 90
        2
176
     1
 62
     7
176
     1
 90
        3
176
     1
 90
        0
176
     1
 90
        0
176
     1
290
     0
176
     1
 90
        1
176
     1
 40
0.0
176
     1
 90
        0
176
     1
290
     0
176
     1
290
     1
176
     1
290
     1
176
     1
290
     0
176
     1
290
     0
176
     1
290
     0
176
     1
290
     0
176
     1
290
     0
176
     1
290
     0
176
     1
 90
       50
176
     1
 40
0.0
176
     1
 40
1.0
176
     1
 90
        0
176
     1
 62
    18
420
        0
176
     1
 90
       50
176
     1
 90
        3
176
     1
 62
     5
420
      255
176
     1
290
     0
176
     1
 90
       50
176
     1
 90
       50
176
     1
 90
       50
176
     1
290
     0
176
     1
 90
       50
176
     1
 62
   256
176
     0
 40
1.0
176
     0
 90
        2
176
     1
  1
strokes_ogs.tif
176
     1
290
     0
176
     1
 40
1.0
176
     1
 40
1.0
176
     1
  0
VISUALSTYLE
  5
EA
102
{ACAD_REACTORS
330
99
102
}
330
99
100
AcDbVisualStyle
  2
X-Ray
 70
    25
177
     3
291
     0
 70
    58
 90
        2
176
     1
 90
        2
176
     1
 90
        1
176
     1
 90
        1
176
     1
 40
0.5
176
     1
 40
30.0
176
     1
 62
     7
420
 16777215
176
     1
 90
        1
176
     1
 90
        0
176
     1
 62
     7
176
     1
 62
   257
176
     1
 90
        1
176
     1
 90
        1
176
     1
 40
1.0
176
     1
 90
        8
176
     1
 62
     7
176
     1
 40
1.0
176
     1
 90
        1
176
     1
 90
        6
176
     1
 90
        2
176
     1
 62
     7
176
     1
 90
        3
176
     1
 90
        0
176
     1
 90
        0
176
     1
290
     0
176
     1
 90
       13
176
     1
 40
0.0
176
     1
 90
        0
176
     1
290
     0
176
     1
290
     1
176
     1
290
     1
176
     1
290
     0
176
     1
290
     0
176
     1
290
     0
176
     1
290
     0
176
     1
290
     0
176
     1
290
     0
176
     1
 90
       50
176
     1
 40
0.0
176
     1
 40
1.0
176
     1
 90
        0
176
     1
 62
    18
420
        0
176
     1
 90
       50
176
     1
 90
        3
176
     1
 62
     5
420
      255
176
     1
290
     0
176
     1
 90
       50
176
     1
 90
       50
176
     1
 90
       50
176
     1
290
     0
176
     1
 90
       50
176
     1
 62
   256
176
     0
 40
1.0
176
     0
 90
        2
176
     1
  1
strokes_ogs.tif
176
     1
290
     0
176
     1
 40
1.0
176
     1
 40
1.0
176
     1
  0
DICTIONARYVAR
  5
D8
102
{ACAD_REACTORS
330
66
102
}
330
66
100
DictionaryVariables
280
     0
  1
1:1
  0
DICTIONARYVAR
  5
89
102
{ACAD_REACTORS
330
66
102
}
330
66
100
DictionaryVariables
280
     0
  1
Standard
  0
DICTIONARYVAR
  5
67
102
{ACAD_REACTORS
330
66
102
}
330
66
100
DictionaryVariables
280
     0
  1
2
  0
DICTIONARYVAR
  5
6B
102
{ACAD_REACTORS
330
66
102
}
330
66
100
DictionaryVariables
280
     0
  1
1
  0
DICTIONARYVAR
  5
DF
102
{ACAD_REACTORS
330
66
102
}
330
66
100
DictionaryVariables
280
     0
  1
0
  0
DICTIONARYVAR
  5
E0
102
{ACAD_REACTORS
330
66
102
}
330
66
100
DictionaryVariables
280
     0
  1
0
  0
DICTIONARY
  5
736
330
87
100
AcDbDictionary
280
     1
281
     1
  3
ACAD_ROUNDTRIP_2008_TABLESTYLE_CELLSTYLEMAP
360
737
  0
CELLSTYLEMAP
  5
737
102
{ACAD_REACTORS
330
736
102
}
330
736
100
AcDbCellStyleMap
 90
        3
300
CELLSTYLE
  1
TABLEFORMAT_BEGIN
 90
        5
170
     1
 91
        0
 92
    32768
 62
   257
 93
        1
300
CONTENTFORMAT
  1
CONTENTFORMAT_BEGIN
 90
        0
 91
        0
 92
      512
 93
        0
300

 40
0.0
140
1.0
 94
        5
 62
     0
340
11
144
0.25
309
CONTENTFORMAT_END
171
     0
 94
        6
 95
        1
302
GRIDFORMAT
  1
GRIDFORMAT_BEGIN
 90
        0
 91
        1
 62
     0
 92
       -2
340
0
 93
        0
 40
0.045
309
GRIDFORMAT_END
 95
        2
302
GRIDFORMAT
  1
GRIDFORMAT_BEGIN
 90
        0
 91
        1
 62
     0
 92
       -2
340
0
 93
        0
 40
0.045
309
GRIDFORMAT_END
 95
        4
302
GRIDFORMAT
  1
GRIDFORMAT_BEGIN
 90
        0
 91
        1
 62
     0
 92
       -2
340
0
 93
        0
 40
0.045
309
GRIDFORMAT_END
 95
        8
302
GRIDFORMAT
  1
GRIDFORMAT_BEGIN
 90
        0
 91
        1
 62
     0
 92
       -2
340
0
 93
        0
 40
0.045
309
GRIDFORMAT_END
 95
       16
302
GRIDFORMAT
  1
GRIDFORMAT_BEGIN
 90
        0
 91
        1
 62
     0
 92
       -2
340
0
 93
        0
 40
0.045
309
GRIDFORMAT_END
 95
       32
302
GRIDFORMAT
  1
GRIDFORMAT_BEGIN
 90
        0
 91
        1
 62
     0
 92
       -2
340
0
 93
        0
 40
0.045
309
GRIDFORMAT_END
309
TABLEFORMAT_END
  1
CELLSTYLE_BEGIN
 90
        1
 91
        1
300
_TITLE
309
CELLSTYLE_END
300
CELLSTYLE
  1
TABLEFORMAT_BEGIN
 90
        5
170
     1
 91
        0
 92
        0
 62
   257
 93
        1
300
CONTENTFORMAT
  1
CONTENTFORMAT_BEGIN
 90
        0
 91
        0
 92
      512
 93
        0
300

 40
0.0
140
1.0
 94
        5
 62
     0
340
11
144
0.18
309
CONTENTFORMAT_END
171
     0
 94
        6
 95
        1
302
GRIDFORMAT
  1
GRIDFORMAT_BEGIN
 90
        0
 91
        1
 62
     0
 92
       -2
340
0
 93
        0
 40
0.045
309
GRIDFORMAT_END
 95
        2
302
GRIDFORMAT
  1
GRIDFORMAT_BEGIN
 90
        0
 91
        1
 62
     0
 92
       -2
340
0
 93
        0
 40
0.045
309
GRIDFORMAT_END
 95
        4
302
GRIDFORMAT
  1
GRIDFORMAT_BEGIN
 90
        0
 91
        1
 62
     0
 92
       -2
340
0
 93
        0
 40
0.045
309
GRIDFORMAT_END
 95
        8
302
GRIDFORMAT
  1
GRIDFORMAT_BEGIN
 90
        0
 91
        1
 62
     0
 92
       -2
340
0
 93
        0
 40
0.045
309
GRIDFORMAT_END
 95
       16
302
GRIDFORMAT
  1
GRIDFORMAT_BEGIN
 90
        0
 91
        1
 62
     0
 92
       -2
340
0
 93
        0
 40
0.045
309
GRIDFORMAT_END
 95
       32
302
GRIDFORMAT
  1
GRIDFORMAT_BEGIN
 90
        0
 91
        1
 62
     0
 92
       -2
340
0
 93
        0
 40
0.045
309
GRIDFORMAT_END
309
TABLEFORMAT_END
  1
CELLSTYLE_BEGIN
 90
        2
 91
        1
300
_HEADER
309
CELLSTYLE_END
300
CELLSTYLE
  1
TABLEFORMAT_BEGIN
 90
        5
170
     1
 91
        0
 92
        0
 62
   257
 93
        1
300
CONTENTFORMAT
  1
CONTENTFORMAT_BEGIN
 90
        0
 91
        0
 92
      512
 93
        0
300

 40
0.0
140
1.0
 94
        2
 62
     0
340
11
144
0.18
309
CONTENTFORMAT_END
171
     0
 94
        6
 95
        1
302
GRIDFORMAT
  1
GRIDFORMAT_BEGIN
 90
        0
 91
        1
 62
     0
 92
       -2
340
0
 93
        0
 40
0.045
309
GRIDFORMAT_END
 95
        2
302
GRIDFORMAT
  1
GRIDFORMAT_BEGIN
 90
        0
 91
        1
 62
     0
 92
       -2
340
0
 93
        0
 40
0.045
309
GRIDFORMAT_END
 95
        4
302
GRIDFORMAT
  1
GRIDFORMAT_BEGIN
 90
        0
 91
        1
 62
     0
 92
       -2
340
0
 93
        0
 40
0.045
309
GRIDFORMAT_END
 95
        8
302
GRIDFORMAT
  1
GRIDFORMAT_BEGIN
 90
        0
 91
        1
 62
     0
 92
       -2
340
0
 93
        0
 40
0.045
309
GRIDFORMAT_END
 95
       16
302
GRIDFORMAT
  1
GRIDFORMAT_BEGIN
 90
        0
 91
        1
 62
     0
 92
       -2
340
0
 93
        0
 40
0.045
309
GRIDFORMAT_END
 95
       32
302
GRIDFORMAT
  1
GRIDFORMAT_BEGIN
 90
        0
 91
        1
 62
     0
 92
       -2
340
0
 93
        0
 40
0.045
309
GRIDFORMAT_END
309
TABLEFORMAT_END
  1
CELLSTYLE_BEGIN
 90
        3
 91
        2
300
_DATA
309
CELLSTYLE_END
  0
ENDSEC
  0
EOF
