  0
SECTION
  2
HEADER
  9
$ACADVER
  1
AC1032
  9
$ACADMAINTVER
 90
       55
  9
$DWGCODEPAGE
  3
ANSI_1252
  9
$LASTSAVEDBY
  1
eac573
  9
$REQUIREDVERSIONS
160
                 0
  9
$INSBASE
 10
0.0
 20
0.0
 30
0.0
  9
$EXTMIN
 10
209.9712445273034
 20
69.79967796438716
 30
0.0
  9
$EXTMAX
 10
219.8000209888342
 20
72.92237716052477
 30
0.0
  9
$LIMMIN
 10
0.0
 20
0.0
  9
$LIMMAX
 10
420.0
 20
297.0
  9
$ORTHOMODE
 70
     1
  9
$REGENMODE
 70
     1
  9
$FILLMODE
 70
     1
  9
$QTEXTMODE
 70
     0
  9
$MIRRTEXT
 70
     0
  9
$LTSCALE
 40
1.0
  9
$ATTMODE
 70
     1
  9
$TEXTSIZE
 40
2.5
  9
$TRACEWID
 40
1.0
  9
$TEXTSTYLE
  7
Standard
  9
$CLAYER
  8
Context 1
  9
$CELTYPE
  6
ByLayer
  9
$CECOLOR
 62
     1
  9
$CELTSCALE
 40
1.0
  9
$DISPSILH
 70
     0
  9
$DIMSCALE
 40
1.0
  9
$DIMASZ
 40
2.5
  9
$DIMEXO
 40
0.625
  9
$DIMDLI
 40
3.75
  9
$DIMRND
 40
0.0
  9
$DIMDLE
 40
0.0
  9
$DIMEXE
 40
1.25
  9
$DIMTP
 40
0.0
  9
$DIMTM
 40
0.0
  9
$DIMTXT
 40
2.5
  9
$DIMCEN
 40
-2.5
  9
$DIMTSZ
 40
0.0
  9
$DIMTOL
 70
     0
  9
$DIMLIM
 70
     0
  9
$DIMTIH
 70
     0
  9
$DIMTOH
 70
     0
  9
$DIMSE1
 70
     0
  9
$DIMSE2
 70
     0
  9
$DIMTAD
 70
     1
  9
$DIMZIN
 70
     8
  9
$DIMBLK
  1

  9
$DIMASO
 70
     1
  9
$DIMSHO
 70
     1
  9
$DIMPOST
  1

  9
$DIMAPOST
  1

  9
$DIMALT
 70
     0
  9
$DIMALTD
 70
     3
  9
$DIMALTF
 40
0.03937007874016
  9
$DIMLFAC
 40
1.0
  9
$DIMTOFL
 70
     1
  9
$DIMTVP
 40
0.0
  9
$DIMTIX
 70
     0
  9
$DIMSOXD
 70
     0
  9
$DIMSAH
 70
     0
  9
$DIMBLK1
  1

  9
$DIMBLK2
  1

  9
$DIMSTYLE
  2
ISO-25
  9
$DIMCLRD
 70
     0
  9
$DIMCLRE
 70
     0
  9
$DIMCLRT
 70
     0
  9
$DIMTFAC
 40
1.0
  9
$DIMGAP
 40
0.625
  9
$DIMJUST
 70
     0
  9
$DIMSD1
 70
     0
  9
$DIMSD2
 70
     0
  9
$DIMTOLJ
 70
     0
  9
$DIMTZIN
 70
     8
  9
$DIMALTZ
 70
     0
  9
$DIMALTTZ
 70
     0
  9
$DIMUPT
 70
     0
  9
$DIMDEC
 70
     2
  9
$DIMTDEC
 70
     2
  9
$DIMALTU
 70
     2
  9
$DIMALTTD
 70
     3
  9
$DIMTXSTY
  7
Standard
  9
$DIMAUNIT
 70
     0
  9
$DIMADEC
 70
     0
  9
$DIMALTRND
 40
0.0
  9
$DIMAZIN
 70
     0
  9
$DIMDSEP
 70
    44
  9
$DIMATFIT
 70
     3
  9
$DIMFRAC
 70
     0
  9
$DIMLDRBLK
  1

  9
$DIMLUNIT
 70
     2
  9
$DIMLWD
 70
    -2
  9
$DIMLWE
 70
    -2
  9
$DIMTMOVE
 70
     0
  9
$DIMFXL
 40
1.0
  9
$DIMFXLON
 70
     0
  9
$DIMJOGANG
 40
0.7853981633974483
  9
$DIMTFILL
 70
     0
  9
$DIMTFILLCLR
 70
     0
  9
$DIMARCSYM
 70
     0
  9
$DIMLTYPE
  6

  9
$DIMLTEX1
  6

  9
$DIMLTEX2
  6

  9
$DIMTXTDIRECTION
 70
     0
  9
$LUNITS
 70
     2
  9
$LUPREC
 70
     3
  9
$SKETCHINC
 40
1.0
  9
$FILLETRAD
 40
10.0
  9
$AUNITS
 70
     0
  9
$AUPREC
 70
     0
  9
$MENU
  1
.
  9
$ELEVATION
 40
0.0
  9
$PELEVATION
 40
0.0
  9
$THICKNESS
 40
0.0
  9
$LIMCHECK
 70
     0
  9
$CHAMFERA
 40
10.0
  9
$CHAMFERB
 40
10.0
  9
$CHAMFERC
 40
20.0
  9
$CHAMFERD
 40
0.0
  9
$SKPOLY
 70
     0
  9
$TDCREATE
 40
2455022.637359514
  9
$TDUCREATE
 40
2455022.637359514
  9
$TDUPDATE
 40
2459661.624884896
  9
$TDUUPDATE
 40
2459661.624884896
  9
$TDINDWG
 40
0.0047904514
  9
$TDUSRTIMER
 40
2458948.639274456
  9
$USRTIMER
 70
     1
  9
$ANGBASE
 50
0.0
  9
$ANGDIR
 70
     0
  9
$PDMODE
 70
     0
  9
$PDSIZE
 40
0.0
  9
$PLINEWID
 40
0.0
  9
$SPLFRAME
 70
     0
  9
$SPLINETYPE
 70
     6
  9
$SPLINESEGS
 70
     8
  9
$HANDSEED
  5
402
  9
$SURFTAB1
 70
     6
  9
$SURFTAB2
 70
     6
  9
$SURFTYPE
 70
     6
  9
$SURFU
 70
     6
  9
$SURFV
 70
     6
  9
$UCSBASE
  2

  9
$UCSNAME
  2

  9
$UCSORG
 10
0.0
 20
0.0
 30
0.0
  9
$UCSXDIR
 10
1.0
 20
0.0
 30
0.0
  9
$UCSYDIR
 10
0.0
 20
1.0
 30
0.0
  9
$UCSORTHOREF
  2

  9
$UCSORTHOVIEW
 70
     0
  9
$UCSORGTOP
 10
0.0
 20
0.0
 30
0.0
  9
$UCSORGBOTTOM
 10
0.0
 20
0.0
 30
0.0
  9
$UCSORGLEFT
 10
0.0
 20
0.0
 30
0.0
  9
$UCSORGRIGHT
 10
0.0
 20
0.0
 30
0.0
  9
$UCSORGFRONT
 10
0.0
 20
0.0
 30
0.0
  9
$UCSORGBACK
 10
0.0
 20
0.0
 30
0.0
  9
$PUCSBASE
  2

  9
$PUCSNAME
  2

  9
$PUCSORG
 10
0.0
 20
0.0
 30
0.0
  9
$PUCSXDIR
 10
1.0
 20
0.0
 30
0.0
  9
$PUCSYDIR
 10
0.0
 20
1.0
 30
0.0
  9
$PUCSORTHOREF
  2

  9
$PUCSORTHOVIEW
 70
     0
  9
$PUCSORGTOP
 10
0.0
 20
0.0
 30
0.0
  9
$PUCSORGBOTTOM
 10
0.0
 20
0.0
 30
0.0
  9
$PUCSORGLEFT
 10
0.0
 20
0.0
 30
0.0
  9
$PUCSORGRIGHT
 10
0.0
 20
0.0
 30
0.0
  9
$PUCSORGFRONT
 10
0.0
 20
0.0
 30
0.0
  9
$PUCSORGBACK
 10
0.0
 20
0.0
 30
0.0
  9
$USERI1
 70
     0
  9
$USERI2
 70
     0
  9
$USERI3
 70
     0
  9
$USERI4
 70
     0
  9
$USERI5
 70
     0
  9
$USERR1
 40
0.0
  9
$USERR2
 40
0.0
  9
$USERR3
 40
0.0
  9
$USERR4
 40
0.0
  9
$USERR5
 40
0.0
  9
$WORLDVIEW
 70
     1
  9
$SHADEDGE
 70
     3
  9
$SHADEDIF
 70
    70
  9
$TILEMODE
 70
     1
  9
$MAXACTVP
 70
    64
  9
$PINSBASE
 10
0.0
 20
0.0
 30
0.0
  9
$PLIMCHECK
 70
     0
  9
$PEXTMIN
 10
1.000000000000000E+20
 20
1.000000000000000E+20
 30
1.000000000000000E+20
  9
$PEXTMAX
 10
-1.000000000000000E+20
 20
-1.000000000000000E+20
 30
-1.000000000000000E+20
  9
$PLIMMIN
 10
0.0
 20
0.0
  9
$PLIMMAX
 10
420.0
 20
297.0
  9
$UNITMODE
 70
     0
  9
$VISRETAIN
 70
     1
  9
$PLINEGEN
 70
     0
  9
$PSLTSCALE
 70
     1
  9
$TREEDEPTH
 70
  3020
  9
$CMLSTYLE
  2
Standard
  9
$CMLJUST
 70
     0
  9
$CMLSCALE
 40
20.0
  9
$PROXYGRAPHICS
 70
     1
  9
$MEASUREMENT
 70
     1
  9
$CELWEIGHT
370
    -1
  9
$ENDCAPS
280
     0
  9
$JOINSTYLE
280
     0
  9
$LWDISPLAY
290
     0
  9
$INSUNITS
 70
     4
  9
$HYPERLINKBASE
  1

  9
$STYLESHEET
  1

  9
$XEDIT
290
     1
  9
$CEPSNTYPE
380
     0
  9
$PSTYLEMODE
290
     1
  9
$FINGERPRINTGUID
  2
{EC6BB858-51AA-46EC-B484-6C9CC7AB3E2E}
  9
$VERSIONGUID
  2
{FAEB1C32-E019-11D5-929B-00C0DF256EC4}
  9
$EXTNAMES
290
     1
  9
$PSVPSCALE
 40
0.0
  9
$OLESTARTUP
290
     0
  9
$SORTENTS
280
   127
  9
$INDEXCTL
280
     0
  9
$HIDETEXT
280
     1
  9
$XCLIPFRAME
280
     0
  9
$HALOGAP
280
     0
  9
$OBSCOLOR
 70
   257
  9
$OBSLTYPE
280
     0
  9
$INTERSECTIONDISPLAY
280
     0
  9
$INTERSECTIONCOLOR
 70
   257
  9
$DIMASSOC
280
     2
  9
$PROJECTNAME
  1

  9
$CAMERADISPLAY
290
     0
  9
$LENSLENGTH
 40
50.0
  9
$CAMERAHEIGHT
 40
0.0
  9
$STEPSPERSEC
 40
2.0
  9
$STEPSIZE
 40
6.0
  9
$3DDWFPREC
 40
2.0
  9
$PSOLWIDTH
 40
5.0
  9
$PSOLHEIGHT
 40
80.0
  9
$LOFTANG1
 40
1.570796326794897
  9
$LOFTANG2
 40
1.570796326794897
  9
$LOFTMAG1
 40
0.0
  9
$LOFTMAG2
 40
0.0
  9
$LOFTPARAM
 70
     7
  9
$LOFTNORMALS
280
     1
  9
$LATITUDE
 40
37.795
  9
$LONGITUDE
 40
-122.394
  9
$NORTHDIRECTION
 40
0.0
  9
$TIMEZONE
 70
 -8000
  9
$LIGHTGLYPHDISPLAY
280
     1
  9
$TILEMODELIGHTSYNCH
280
     1
  9
$CMATERIAL
347
73
  9
$SOLIDHIST
280
     1
  9
$SHOWHIST
280
     1
  9
$DWFFRAME
280
     2
  9
$DGNFRAME
280
     2
  9
$REALWORLDSCALE
290
     1
  9
$INTERFERECOLOR
 62
   256
  9
$CSHADOW
280
     0
  9
$SHADOWPLANELOCATION
 40
0.0
  0
ENDSEC
  0
SECTION
  2
CLASSES
  0
CLASS
  1
ACDBDICTIONARYWDFLT
  2
AcDbDictionaryWithDefault
  3
ObjectDBX Classes
 90
        0
 91
        3
280
     0
281
     0
  0
CLASS
  1
VISUALSTYLE
  2
AcDbVisualStyle
  3
ObjectDBX Classes
 90
     4095
 91
        3
280
     0
281
     0
  0
CLASS
  1
TABLESTYLE
  2
AcDbTableStyle
  3
ObjectDBX Classes
 90
     4095
 91
        3
280
     0
281
     0
  0
CLASS
  1
DICTIONARYVAR
  2
AcDbDictionaryVar
  3
ObjectDBX Classes
 90
        0
 91
        3
280
     0
281
     0
  0
CLASS
  1
SCALE
  2
AcDbScale
  3
ObjectDBX Classes
 90
     1153
 91
        3
280
     0
281
     0
  0
CLASS
  1
CELLSTYLEMAP
  2
AcDbCellStyleMap
  3
ObjectDBX Classes
 90
     1152
 91
        3
280
     0
281
     0
  0
CLASS
  1
RASTERVARIABLES
  2
AcDbRasterVariables
  3
ISM
 90
        0
 91
        3
280
     0
281
     0
  0
CLASS
  1
MATERIAL
  2
AcDbMaterial
  3
ObjectDBX Classes
 90
     1153
 91
        3
280
     0
281
     0
  0
CLASS
  1
SUN
  2
AcDbSun
  3
SCENEOE
 90
     1153
 91
        3
280
     0
281
     0
  0
CLASS
  1
MLEADERSTYLE
  2
AcDbMLeaderStyle
  3
ACDB_MLEADERSTYLE_CLASS
 90
     4095
 91
        3
280
     0
281
     0
  0
CLASS
  1
IMAGEDEF
  2
AcDbRasterImageDef
  3
ISM
 90
        0
 91
        3
280
     0
281
     0
  0
CLASS
  1
IMAGE
  2
AcDbRasterImage
  3
ISM
 90
      127
 91
        4
280
     0
281
     1
  0
CLASS
  1
IMAGEDEF_REACTOR
  2
AcDbRasterImageDefReactor
  3
ISM
 90
        1
 91
        3
280
     0
281
     0
  0
CLASS
  1
SORTENTSTABLE
  2
AcDbSortentsTable
  3
ObjectDBX Classes
 90
        0
 91
        3
280
     0
281
     0
  0
ENDSEC
  0
SECTION
  2
TABLES
  0
TABLE
  2
VPORT
  5
8
330
0
100
AcDbSymbolTable
 70
     1
  0
VPORT
  5
29
330
8
100
AcDbSymbolTableRecord
100
AcDbViewportTableRecord
  2
*Active
 70
     0
 10
0.0
 20
0.0
 11
1.0
 21
1.0
 12
349.0725486459094
 22
71.36102756245597
 13
0.0
 23
0.0
 14
10.0
 24
10.0
 15
10.0
 25
10.0
 16
0.0
 26
0.0
 36
1.0
 17
-134.1869158878405
 27
0.0
 37
0.0
 40
3.807608432854838
 41
2.632978723404255
 42
50.0
 43
0.0
 44
0.0
 50
0.0
 51
0.0
 71
    16
 72
  1000
 73
     1
 74
     3
 75
     0
 76
     0
 77
     0
 78
     0
281
     0
 65
     1
110
0.0
120
0.0
130
0.0
111
1.0
121
0.0
131
0.0
112
0.0
122
1.0
132
0.0
 79
     0
146
0.0
348
2F
 60
     3
 61
     5
292
     1
282
     1
141
0.0
142
0.0
 63
   256
361
80
  0
ENDTAB
  0
TABLE
  2
LTYPE
  5
5
330
0
100
AcDbSymbolTable
 70
     2
  0
LTYPE
  5
14
330
5
100
AcDbSymbolTableRecord
100
AcDbLinetypeTableRecord
  2
ByBlock
 70
     0
  3

 72
    65
 73
     0
 40
0.0
  0
LTYPE
  5
15
330
5
100
AcDbSymbolTableRecord
100
AcDbLinetypeTableRecord
  2
ByLayer
 70
     0
  3

 72
    65
 73
     0
 40
0.0
  0
LTYPE
  5
16
330
5
100
AcDbSymbolTableRecord
100
AcDbLinetypeTableRecord
  2
Continuous
 70
     0
  3
Solid line
 72
    65
 73
     0
 40
0.0
  0
LTYPE
  5
FF
330
5
100
AcDbSymbolTableRecord
100
AcDbLinetypeTableRecord
  2
DASHDOT
 70
     0
  3
DashDot __  . __  . __  . __  . __  . __  . __ 
 72
    65
 73
     4
 40
25.4
 49
12.7
 74
     0
 49
-6.35
 74
     0
 49
0.0
 74
     0
 49
-6.35
 74
     0
  0
ENDTAB
  0
TABLE
  2
LAYER
  5
2
102
{ACAD_XDICTIONARY
360
D6
102
}
330
0
100
AcDbSymbolTable
 70
    10
  0
LAYER
  5
10
330
2
100
AcDbSymbolTableRecord
100
AcDbLayerTableRecord
  2
0
 70
     0
 62
     7
  6
Continuous
370
    -3
390
F
347
75
348
0
  0
LAYER
  5
C2
330
2
100
AcDbSymbolTableRecord
100
AcDbLayerTableRecord
  2
Context 1
 70
     0
 62
     7
  6
Continuous
370
    -3
390
F
347
75
348
0
1001
AcAecLayerStandard
1000

1000

  0
LAYER
  5
F8
330
2
100
AcDbSymbolTableRecord
100
AcDbLayerTableRecord
  2
Annotatons
 70
     0
 62
     7
  6
Continuous
370
    -3
390
F
347
75
348
0
1001
AcAecLayerStandard
1000

1000

  0
LAYER
  5
F9
330
2
100
AcDbSymbolTableRecord
100
AcDbLayerTableRecord
  2
Evaluation trench (LOE)
 70
     0
 62
     7
  6
Continuous
370
    -3
390
F
347
75
348
0
1001
AcAecLayerStandard
1000

1000

  0
LAYER
  5
FA
330
2
100
AcDbSymbolTableRecord
100
AcDbLayerTableRecord
  2
Drawing point
 70
     0
 62
     7
  6
Continuous
370
    -3
390
F
347
75
348
0
1001
AcAecLayerStandard
1000

1000

  0
LAYER
  5
FB
330
2
100
AcDbSymbolTableRecord
100
AcDbLayerTableRecord
  2
Section point
 70
     0
 62
     7
  6
Continuous
370
    -3
390
F
347
75
348
0
1001
AcAecLayerStandard
1000

1000

  0
LAYER
  5
FC
330
2
100
AcDbSymbolTableRecord
100
AcDbLayerTableRecord
  2
Context 2
 70
     0
 62
     7
  6
Continuous
370
    -3
390
F
347
75
348
0
1001
AcAecLayerStandard
1000

1000

  0
LAYER
  5
FD
330
2
100
AcDbSymbolTableRecord
100
AcDbLayerTableRecord
  2
Details
 70
     0
 62
     7
  6
Continuous
370
    -3
390
F
347
75
348
0
1001
AcAecLayerStandard
1000

1000

  0
LAYER
  5
FE
330
2
100
AcDbSymbolTableRecord
100
AcDbLayerTableRecord
  2
Co-ord
 70
     0
 62
     7
  6
Continuous
370
    -3
390
F
347
75
348
0
1001
AcAecLayerStandard
1000

1000

  0
LAYER
  5
279
330
2
100
AcDbSymbolTableRecord
100
AcDbLayerTableRecord
  2
aOD
 70
     0
 62
     7
  6
Continuous
370
    -3
390
F
347
75
348
0
1001
AcAecLayerStandard
1000

1000

  0
ENDTAB
  0
TABLE
  2
STYLE
  5
3
330
0
100
AcDbSymbolTable
 70
     3
  0
STYLE
  5
11
330
3
100
AcDbSymbolTableRecord
100
AcDbTextStyleTableRecord
  2
Standard
 70
     0
 40
0.0
 41
1.0
 50
0.0
 71
     0
 42
2.5
  3
arial.ttf
  4

1001
ACAD
1000
Arial
1071
        0
  0
STYLE
  5
B8
330
3
100
AcDbSymbolTableRecord
100
AcDbTextStyleTableRecord
  2
Annotative
 70
     0
 40
0.0
 41
1.0
 50
0.0
 71
     0
 42
2.5
  3
arial.ttf
  4

1001
ACAD
1000
Arial
1071
        0
1001
AcadAnnotative
1000
AnnotativeData
1002
{
1070
     1
1070
     1
1002
}
  0
STYLE
  5
102
330
3
100
AcDbSymbolTableRecord
100
AcDbTextStyleTableRecord
  2
Text
 70
     0
 40
0.0
 41
1.0
 50
0.0
 71
     0
 42
2.5
  3
ARIALUNI.TTF
  4

1001
ACAD
1000
Arial Unicode MS
1071
        0
  0
ENDTAB
  0
TABLE
  2
VIEW
  5
6
330
0
100
AcDbSymbolTable
 70
     0
  0
ENDTAB
  0
TABLE
  2
UCS
  5
7
330
0
100
AcDbSymbolTable
 70
     0
  0
ENDTAB
  0
TABLE
  2
APPID
  5
9
330
0
100
AcDbSymbolTable
 70
     3
  0
APPID
  5
12
330
9
100
AcDbSymbolTableRecord
100
AcDbRegAppTableRecord
  2
ACAD
 70
     0
  0
APPID
  5
B9
330
9
100
AcDbSymbolTableRecord
100
AcDbRegAppTableRecord
  2
AcadAnnotative
 70
     0
  0
APPID
  5
C4
330
9
100
AcDbSymbolTableRecord
100
AcDbRegAppTableRecord
  2
AcAecLayerStandard
 70
     0
  0
ENDTAB
  0
TABLE
  2
DIMSTYLE
  5
A
330
0
100
AcDbSymbolTable
 70
     2
100
AcDbDimStyleTable
  0
DIMSTYLE
105
27
330
A
100
AcDbSymbolTableRecord
100
AcDbDimStyleTableRecord
  2
ISO-25
 70
     0
 41
2.5
 42
0.625
 43
3.75
 44
1.25
 73
     0
 74
     0
 77
     1
 78
     8
140
2.5
141
-2.5
143
0.03937007874016
147
0.625
171
     3
172
     1
178
     0
271
     2
272
     2
274
     3
278
    44
283
     0
284
     8
340
11
  0
DIMSTYLE
105
BA
330
A
100
AcDbSymbolTableRecord
100
AcDbDimStyleTableRecord
  2
Annotative
 70
     0
 40
0.0
 41
2.5
 42
0.625
 43
3.75
 44
1.25
 73
     0
 74
     0
 77
     1
 78
     8
140
2.5
141
-2.5
143
0.03937007874016
147
0.625
171
     3
172
     1
178
     0
271
     2
272
     2
274
     3
278
    44
283
     0
284
     8
340
11
1001
AcadAnnotative
1000
AnnotativeData
1002
{
1070
     1
1070
     1
1002
}
  0
ENDTAB
  0
TABLE
  2
BLOCK_RECORD
  5
1
330
0
100
AcDbSymbolTable
 70
     1
  0
BLOCK_RECORD
  5
1F
102
{ACAD_XDICTIONARY
360
3FD
102
}
330
1
100
AcDbSymbolTableRecord
100
AcDbBlockTableRecord
  2
*Model_Space
340
22
 70
     0
280
     1
281
     0
  0
BLOCK_RECORD
  5
1B
330
1
100
AcDbSymbolTableRecord
100
AcDbBlockTableRecord
  2
*Paper_Space
340
1E
 70
     0
280
     1
281
     0
  0
BLOCK_RECORD
  5
23
330
1
100
AcDbSymbolTableRecord
100
AcDbBlockTableRecord
  2
*Paper_Space0
340
26
 70
     0
280
     1
281
     0
  0
ENDTAB
  0
ENDSEC
  0
SECTION
  2
BLOCKS
  0
BLOCK
  5
20
330
1F
100
AcDbEntity
  8
0
100
AcDbBlockBegin
  2
*Model_Space
 70
     0
 10
0.0
 20
0.0
 30
0.0
  3
*Model_Space
  1

  0
ENDBLK
  5
21
330
1F
100
AcDbEntity
  8
0
100
AcDbBlockEnd
  0
BLOCK
  5
1C
330
1B
100
AcDbEntity
 67
     1
  8
0
100
AcDbBlockBegin
  2
*Paper_Space
 70
     0
 10
0.0
 20
0.0
 30
0.0
  3
*Paper_Space
  1

  0
ENDBLK
  5
1D
330
1B
100
AcDbEntity
 67
     1
  8
0
100
AcDbBlockEnd
  0
BLOCK
  5
24
330
23
100
AcDbEntity
  8
0
100
AcDbBlockBegin
  2
*Paper_Space0
 70
     0
 10
0.0
 20
0.0
 30
0.0
  3
*Paper_Space0
  1

  0
ENDBLK
  5
25
330
23
100
AcDbEntity
  8
0
100
AcDbBlockEnd
  0
ENDSEC
  0
SECTION
  2
ENTITIES
  0
IMAGE
  5
BF
330
1F
100
AcDbEntity
  8
0
160
               140
310
8C00000001000000840000000600000005000000DD0F6B241A446A4041967C75A07D51400000000000000000201BD99C0ACA6A4041967C75A07D51400000000000000000201BD99C0ACA6A40A4C1363A083B52400000000000000000DD0F6B241A446A40A4C1363A083B52400000000000000000DD0F6B241A446A4041967C
310
75A07D51400000000000000000
100
AcDbRasterImage
 90
        0
 10
210.1281911936811
 20
69.96291863600437
 30
0.0
 11
0.0008438718347644951
 21
0.0
 31
0.0
 12
0.0
 22
0.0008438718347644951
 32
0.0
 13
4960.0
 23
3507.0
340
BE
 70
     7
280
     0
281
    50
282
    50
283
     0
360
C0
 71
     1
 91
        2
 14
-0.5
 24
-0.5
 14
4959.5
 24
3506.5
290
     0
  0
LWPOLYLINE
  5
E6
330
1F
100
AcDbEntity
  8
Context 1
 62
     1
100
AcDbPolyline
 90
       10
 70
     0
 43
0.0
 10
210.2081833789335
 20
72.55868138939528
 10
210.6844053506767
 20
72.55239877763086
 10
211.0060750730152
 20
72.55365529998373
 10
211.2477298445852
 20
72.58138959512034
 10
211.5194528033965
 20
72.57510698335592
 10
211.7801811916201
 20
72.54683523041602
 10
212.001643256316
 20
72.55311784218044
 10
212.3895945327692
 20
72.57667763629703
 10
212.6367637686496
 20
72.58632856237655
 10
212.776551880408
 20
72.58318725649434
  0
LWPOLYLINE
  5
E7
330
1F
100
AcDbEntity
  8
Context 1
 62
     1
100
AcDbPolyline
 90
       12
 70
     0
 43
0.0
 10
212.7449542852037
 20
72.20187050089183
 10
212.5429054908599
 20
72.19684441148028
 10
212.3478932216921
 20
72.20086528300952
 10
212.1438339915837
 20
72.20589137242106
 10
211.8816743458675
 20
72.2163872607
 10
211.6539296694072
 20
72.22581117834663
 10
211.4089078105947
 20
72.2415177077577
 10
211.294250145894
 20
72.23994705481658
 10
210.9642645524759
 20
72.20819900517186
 10
210.6643054258304
 20
72.17634542728266
 10
210.3925824670191
 20
72.14807367434274
 10
210.1850783532646
 20
72.1404106058918
  0
LWPOLYLINE
  5
E8
330
1F
100
AcDbEntity
  8
Context 1
 62
     1
100
AcDbPolyline
 90
        8
 70
     0
 43
0.0
 10
210.3485513366399
 20
72.14644761710483
 10
210.4913556767802
 20
72.08072579412978
 10
210.6185785650098
 20
72.04460077648434
 10
210.7944916944137
 20
72.03831816471993
 10
211.0772092238127
 20
72.03988881766102
 10
211.239747261765
 20
72.04553335166813
 10
211.4219430029333
 20
72.04867465755034
 10
211.468865587113
 20
72.04795972087305
  0
LWPOLYLINE
  5
E9
330
1F
100
AcDbEntity
  8
Context 1
 62
     1
100
AcDbPolyline
 90
        4
 70
     0
 43
0.0
 10
211.4643632562226
 20
72.04802832070708
 10
211.4283352020983
 20
72.0936368214451
 10
211.3827083624204
 20
72.19132138220304
 10
211.3602070132255
 20
72.24085057354716
  0
LWPOLYLINE
  5
EA
330
1F
100
AcDbEntity
  8
Context 1
 62
     1
100
AcDbPolyline
 90
        3
 70
     0
 43
0.0
 10
211.7895510131034
 20
72.22019926067645
 10
211.7228740937933
 20
72.10366638286581
 10
211.6907071215595
 20
72.03772408978642
  0
LWPOLYLINE
  5
EB
330
1F
100
AcDbEntity
  8
Context 1
 62
     1
100
AcDbPolyline
 90
        7
 70
     0
 43
0.0
 10
211.6907071215595
 20
72.03772408978642
 10
211.7726868177985
 20
72.04177207078546
 10
211.8970825307341
 20
72.05936338372584
 10
212.0780217495494
 20
72.09957209901815
 10
212.227027630756
 20
72.1479972925086
 10
212.3174972401636
 20
72.18192339603648
 10
212.370315401323
 20
72.20040297002744
  0
LWPOLYLINE
  5
EC
330
1F
100
AcDbEntity
  8
Context 1
 62
     1
100
AcDbPolyline
 90
        2
 70
     0
 43
0.0
 10
211.6907071215595
 20
72.03772408978642
 10
211.468865587113
 20
72.04795972087305
  0
LWPOLYLINE
  5
EE
330
1F
100
AcDbEntity
  8
Context 1
 62
     1
100
AcDbPolyline
 90
        5
 70
     0
 43
0.0
 10
211.6294779750743
 20
72.04054916470639
 10
211.6294779750743
 20
72.04054916470639
 42
0.0115271809281523
 10
211.62954740355
 20
72.04356027604274
 42
0.9772083614836409
 10
211.4989555766814
 20
72.04657138737909
 10
211.4989555766814
 20
72.04657138737909
  0
LWPOLYLINE
  5
EF
330
1F
100
AcDbEntity
  8
Context 1
 62
     1
100
AcDbPolyline
 90
        9
 70
     0
 43
0.0
 10
210.2190863272697
 20
71.52751635332173
 10
211.2031985606813
 20
71.54714951508555
 10
211.6154949577216
 20
71.55696609596747
 10
212.1504986157857
 20
71.54714951508555
 10
212.694816521882
 20
71.55663286906176
 10
213.1770069748015
 20
71.59275788670719
 10
213.481713645376
 20
71.61474702788267
 10
213.9894321168788
 20
71.6377865432125
 10
214.2230667418683
 20
71.64367649174164
  0
LWPOLYLINE
  5
F0
330
1F
100
AcDbEntity
  8
Context 1
 62
     1
100
AcDbPolyline
 90
       10
 70
     0
 43
0.0
 10
214.2048867408432
 20
71.2982619940906
 10
213.7952604538028
 20
71.3058011282079
 10
213.284827697686
 20
71.31294269079949
 10
212.9275041535845
 20
71.28938289668291
 10
212.627116778598
 20
71.30508942609397
 10
212.3482491895136
 20
71.29734353024186
 10
211.9045397336512
 20
71.28949026553633
 10
211.0319760697141
 20
71.30385468427994
 10
210.4135314741537
 20
71.25477177987038
 10
210.1730252425469
 20
71.23759276332704
  0
LWPOLYLINE
  5
F1
330
1F
100
AcDbEntity
  8
Context 1
 62
     1
100
AcDbPolyline
 90
       28
 70
     0
 43
0.0
 10
210.4135314741537
 20
71.25477177987038
 10
210.5190597186343
 20
71.19341814935844
 10
210.7350244980363
 20
71.13697280928746
 10
210.8724566303831
 20
71.12715622840554
 10
211.0491550862575
 20
71.10016063098028
 10
211.2135828160295
 20
71.05353187179121
 10
211.2945696083053
 20
70.97990751517686
 10
211.4639056285182
 20
70.8645626898144
 10
211.6553289557155
 20
70.77866760709769
 10
211.9007434777633
 20
70.73449299312908
 10
212.0921668049606
 20
70.71485983136526
 10
212.3645769244336
 20
70.75903444533387
 10
212.4797067820132
 20
70.76088126630434
 10
212.6644155678872
 20
70.7721899674803
 10
212.8503808761142
 20
70.78475519100914
 10
213.1054549137498
 20
70.77721605689183
 10
213.24492889492
 20
70.77721605689183
 10
213.3118190770493
 20
70.76630001895114
 10
213.348258225283
 20
70.76630001895114
 10
213.402288686457
 20
70.78137828718576
 10
213.5317104888041
 20
70.86682180718192
 10
213.6209235758589
 20
70.95603489423672
 10
213.7779888699695
 20
71.0490175483502
 10
213.8837613509824
 20
71.12546436829972
 10
213.9736052122584
 20
71.21395809630751
 10
214.0128489183837
 20
71.26092187576893
 10
214.0363627237822
 20
71.28737745129996
 10
214.0440629017005
 20
71.30122194205028
  0
LWPOLYLINE
  5
F2
330
1F
100
AcDbEntity
  8
Context 1
 62
     1
100
AcDbPolyline
 90
       22
 70
     0
 43
0.0
 10
213.8968503962381
 20
71.30393137466615
 10
213.7949817641394
 20
71.26987861840475
 10
213.7584400836818
 20
71.2570118295112
 10
213.7064582565519
 20
71.22819022238967
 10
213.610053840767
 20
71.1837354667625
 10
213.4441928901863
 20
71.12342239382404
 10
213.3319761772213
 20
71.08999670032317
 10
213.2058816460646
 20
71.06040308586803
 10
213.0719866241412
 20
71.045576122104
 10
212.9116507531288
 20
71.03675955710185
 10
212.6711897688918
 20
71.04342133705144
 10
212.4597562603988
 20
71.04187531194846
 10
212.2700213851132
 20
71.01925790959655
 10
212.1217517474728
 20
70.97527962724558
 10
211.9373472756061
 20
70.92999573963733
 10
211.8274015697287
 20
70.91114790434406
 10
211.6750482344414
 20
70.9190011690496
 10
211.5541079579763
 20
70.93627835140175
 10
211.4614394344511
 20
70.98810989845825
 10
211.3750535226903
 20
71.02737622198589
 10
211.2823709984903
 20
71.02344992336548
 10
211.2550563459062
 20
71.01582866281242
  0
LWPOLYLINE
  5
F3
330
1F
100
AcDbEntity
  8
Context 1
 62
     1
100
AcDbPolyline
 90
       15
 70
     0
 43
0.0
 10
212.1377739553543
 20
70.98003197704095
 10
212.0254822282839
 20
71.02729570001262
 10
211.9289813115824
 20
71.08969962614628
 10
211.8595006515573
 20
71.11864990115674
 10
211.8122669710945
 20
71.13331401962385
 10
211.7360955808447
 20
71.14669548007313
 10
211.6655855777081
 20
71.14772482318462
 10
211.5863261581239
 20
71.14051942140424
 10
211.5153014834316
 20
71.15750358274371
 10
211.4748820744711
 20
71.16330007114021
 10
211.4184740719619
 20
71.16124138491725
 10
211.3810059827039
 20
71.16865265531993
 10
211.2643170742284
 20
71.20236685891821
 10
211.1503366248149
 20
71.25261166954748
 10
211.05196893705
 20
71.30352555538062
  0
LWPOLYLINE
  5
238
330
1F
100
AcDbEntity
  8
Section point
 62
     5
100
AcDbPolyline
 90
        9
 70
     0
 43
0.0
 10
210.1686364027138
 20
72.29466283881253
 10
210.2486364027138
 20
72.29466283881253
 10
210.2086364027138
 20
72.29466283881253
 10
210.2086364027138
 20
72.25466283881256
 10
210.2086364027138
 20
72.33466283881249
 10
210.2086364027138
 20
72.29466283881253
 10
210.2486364027138
 20
72.29466283881253
 10
210.2286364027138
 20
72.29466283881253
 10
210.2286364027138
 20
72.29466283881253
  0
CIRCLE
  5
239
330
1F
100
AcDbEntity
  8
Section point
 62
     5
100
AcDbCircle
 10
210.2086364027138
 20
72.29466283881253
 30
0.0
 40
0.0200000000000102
  0
LWPOLYLINE
  5
23A
330
1F
100
AcDbEntity
  8
Section point
 62
     5
100
AcDbPolyline
 90
        9
 70
     0
 43
0.0
 10
212.6980284994711
 20
72.29434599106922
 10
212.778028499471
 20
72.29434599106922
 10
212.738028499471
 20
72.29434599106922
 10
212.738028499471
 20
72.25434599106926
 10
212.738028499471
 20
72.33434599106918
 10
212.738028499471
 20
72.29434599106922
 10
212.778028499471
 20
72.29434599106922
 10
212.758028499471
 20
72.29434599106922
 10
212.758028499471
 20
72.29434599106922
  0
CIRCLE
  5
23B
330
1F
100
AcDbEntity
  8
Section point
 62
     5
100
AcDbCircle
 10
212.738028499471
 20
72.29434599106922
 30
0.0
 40
0.0200000000000102
  0
LWPOLYLINE
  5
23C
330
1F
100
AcDbEntity
  8
Context 2
 62
     1
100
AcDbPolyline
 90
        6
 70
     0
 43
0.0
 10
213.0367494929844
 20
72.29434599106922
 10
213.1167494929843
 20
72.29434599106922
 10
213.0767494929844
 20
72.29434599106922
 10
213.0367494929844
 20
72.25434599106926
 10
213.0767494929844
 20
72.29434599106922
 10
213.1167494929843
 20
72.25434599106926
  0
TEXT
  5
23D
330
1F
100
AcDbEntity
  8
Context 2
 62
     1
100
AcDbText
 10
213.0244482375162
 20
72.29953903661733
 30
0.0
 40
0.025
  1
107.34
  7
Text
 72
     1
 11
213.0778991553634
 21
72.29007154490431
 31
0.0
100
AcDbText
 73
     1
  0
TEXT
  5
23E
330
1F
100
AcDbEntity
  8
Co-ord
100
AcDbText
 10
212.778028499471
 20
72.22934599106925
 30
0.0
 40
0.025
  1
N 258971.96
  7
Text
 11
212.778028499471
 21
72.25434599106926
 31
0.0
100
AcDbText
 73
     3
  0
TEXT
  5
23F
330
1F
100
AcDbEntity
  8
Co-ord
100
AcDbText
 10
209.9704189339081
 20
72.26413033052559
 30
0.0
 40
0.025
  1
E 442844.75
  7
Text
 72
     2
 11
210.1686364027138
 21
72.25466283881256
 31
0.0
100
AcDbText
 73
     1
  0
TEXT
  5
240
330
1F
100
AcDbEntity
  8
Co-ord
100
AcDbText
 10
209.9684925493192
 20
72.22966283881256
 30
0.0
 40
0.025
  1
N 258974.29
  7
Text
 72
     2
 11
210.1686364027138
 21
72.25466283881256
 31
0.0
100
AcDbText
 73
     3
  0
TEXT
  5
241
330
1F
100
AcDbEntity
  8
Co-ord
100
AcDbText
 10
212.778028499471
 20
72.26381348278228
 30
0.0
 40
0.025
  1
E 442845.73
  7
Text
 11
212.778028499471
 21
72.25434599106926
 31
0.0
100
AcDbText
 73
     1
  0
TEXT
  5
242
330
1F
100
AcDbEntity
  8
Annotatons
100
AcDbText
 10
212.778028499471
 20
72.35328097449523
 30
0.0
 40
0.05
  1
SE
  7
Text
 11
212.778028499471
 21
72.33434599106918
 31
0.0
100
AcDbText
 73
     1
  0
TEXT
  5
243
330
1F
100
AcDbEntity
  8
Annotatons
100
AcDbText
 10
210.0522527519649
 20
72.35359782223854
 30
0.0
 40
0.05
  1
NW
  7
Text
 72
     2
 11
210.1686364027138
 21
72.33466283881249
 31
0.0
100
AcDbText
 73
     1
  0
TEXT
  5
244
330
1F
100
AcDbEntity
  8
Section point
100
AcDbText
 10
210.0617428760101
 20
72.30413033052555
 30
0.0
 40
0.025
  1
sp40.1
  7
Text
 72
     2
 11
210.1666682911522
 21
72.29466283881253
 31
0.0
100
AcDbText
 73
     1
  0
TEXT
  5
245
330
1F
100
AcDbEntity
  8
Section point
100
AcDbText
 10
212.778028499471
 20
72.30381348278225
 30
0.0
 40
0.025
  1
sp40.2
  7
Text
 11
212.778028499471
 21
72.29434599106922
 31
0.0
100
AcDbText
 73
     1
  0
LWPOLYLINE
  5
267
330
1F
100
AcDbEntity
  8
Section point
 62
     5
100
AcDbPolyline
 90
        9
 70
     0
 43
0.0
 10
210.1706803839333
 20
71.29656194838753
 10
210.2506803839333
 20
71.29656194838753
 10
210.2106803839333
 20
71.29656194838753
 10
210.2106803839333
 20
71.25656194838757
 10
210.2106803839333
 20
71.3365619483875
 10
210.2106803839333
 20
71.29656194838753
 10
210.2506803839333
 20
71.29656194838753
 10
210.2306803839333
 20
71.29656194838753
 10
210.2306803839333
 20
71.29656194838753
  0
CIRCLE
  5
268
330
1F
100
AcDbEntity
  8
Section point
 62
     5
100
AcDbCircle
 10
210.2106803839333
 20
71.29656194838753
 30
0.0
 40
0.0200000000000102
  0
LWPOLYLINE
  5
269
330
1F
100
AcDbEntity
  8
Section point
 62
     5
100
AcDbPolyline
 90
        9
 70
     0
 43
0.0
 10
214.1664315917404
 20
71.29624510064423
 10
214.2464315917403
 20
71.29624510064423
 10
214.2064315917403
 20
71.29624510064423
 10
214.2064315917403
 20
71.25624510064426
 10
214.2064315917403
 20
71.33624510064419
 10
214.2064315917403
 20
71.29624510064423
 10
214.2464315917403
 20
71.29624510064423
 10
214.2264315917403
 20
71.29624510064423
 10
214.2264315917403
 20
71.29624510064423
  0
CIRCLE
  5
26A
330
1F
100
AcDbEntity
  8
Section point
 62
     5
100
AcDbCircle
 10
214.2064315917403
 20
71.29624510064423
 30
0.0
 40
0.0200000000000102
  0
LWPOLYLINE
  5
26B
330
1F
100
AcDbEntity
  8
Context 2
 62
     1
100
AcDbPolyline
 90
        6
 70
     0
 43
0.0
 10
214.50947062083
 20
71.29624510064423
 10
214.5894706208299
 20
71.29624510064423
 10
214.54947062083
 20
71.29624510064423
 10
214.50947062083
 20
71.25624510064426
 10
214.54947062083
 20
71.29624510064423
 10
214.5894706208299
 20
71.25624510064426
  0
TEXT
  5
26C
330
1F
100
AcDbEntity
  8
Context 2
 62
     1
100
AcDbText
 10
214.4971693653618
 20
71.30143814619234
 30
0.0
 40
0.025
  1
106.40
  7
Text
 72
     1
 11
214.550620283209
 21
71.29197065447931
 31
0.0
100
AcDbText
 73
     1
  0
TEXT
  5
26D
330
1F
100
AcDbEntity
  8
Co-ord
100
AcDbText
 10
214.2464315917403
 20
71.23124510064426
 30
0.0
 40
0.025
  1
N 258942.86
  7
Text
 11
214.2464315917403
 21
71.25624510064426
 31
0.0
100
AcDbText
 73
     3
  0
TEXT
  5
26E
330
1F
100
AcDbEntity
  8
Co-ord
100
AcDbText
 10
209.9724629151276
 20
71.2660294401006
 30
0.0
 40
0.025
  1
E 442815.51
  7
Text
 72
     2
 11
210.1706803839333
 21
71.25656194838757
 31
0.0
100
AcDbText
 73
     1
  0
TEXT
  5
26F
330
1F
100
AcDbEntity
  8
Co-ord
100
AcDbText
 10
209.9705365305387
 20
71.23156194838757
 30
0.0
 40
0.025
  1
N 258938.95
  7
Text
 72
     2
 11
210.1706803839333
 21
71.25656194838757
 31
0.0
100
AcDbText
 73
     3
  0
TEXT
  5
270
330
1F
100
AcDbEntity
  8
Co-ord
100
AcDbText
 10
214.2464315917403
 20
71.26571259235729
 30
0.0
 40
0.025
  1
E 442816.27
  7
Text
 11
214.2464315917403
 21
71.25624510064426
 31
0.0
100
AcDbText
 73
     1
  0
TEXT
  5
271
330
1F
100
AcDbEntity
  8
Annotatons
100
AcDbText
 10
214.2464315917403
 20
71.35518008407024
 30
0.0
 40
0.05
  1
N
  7
Text
 11
214.2464315917403
 21
71.33624510064419
 31
0.0
100
AcDbText
 73
     1
  0
TEXT
  5
272
330
1F
100
AcDbEntity
  8
Annotatons
100
AcDbText
 10
210.1240969020557
 20
71.35549693181355
 30
0.0
 40
0.05
  1
S
  7
Text
 72
     2
 11
210.1706803839333
 21
71.3365619483875
 31
0.0
100
AcDbText
 73
     1
  0
TEXT
  5
273
330
1F
100
AcDbEntity
  8
Section point
100
AcDbText
 10
210.0637868572296
 20
71.30602944010056
 30
0.0
 40
0.025
  1
sp44.1
  7
Text
 72
     2
 11
210.1687122723717
 21
71.29656194838753
 31
0.0
100
AcDbText
 73
     1
  0
TEXT
  5
274
330
1F
100
AcDbEntity
  8
Section point
100
AcDbText
 10
214.2464315917403
 20
71.30571259235725
 30
0.0
 40
0.025
  1
sp44.2
  7
Text
 11
214.2464315917403
 21
71.29624510064423
 31
0.0
100
AcDbText
 73
     1
  0
TEXT
  5
29F
330
1F
100
AcDbEntity
  8
Annotatons
100
AcDbText
 10
211.492161576851
 20
72.13745699014015
 30
0.0
 40
0.05
  1
(512)
  7
Text
 72
     1
 11
211.573745215091
 21
72.1185220067141
 31
0.0
100
AcDbText
 73
     1
  0
TEXT
  5
2B4
330
1F
100
AcDbEntity
  8
Annotatons
100
AcDbText
 10
211.9167627758231
 20
71.9158500134555
 30
0.0
 40
0.05
  1
[511]
  7
Text
 72
     1
 11
211.9944936448853
 21
71.89691503002945
 31
0.0
100
AcDbText
 73
     1
  0
TEXT
  5
2B5
330
1F
100
AcDbEntity
  8
Annotatons
100
AcDbText
 10
211.0563964726355
 20
72.11387694860781
 30
0.0
 40
0.05
  1
(510)
  7
Text
 72
     1
 11
211.1379801108754
 21
72.09494196518176
 31
0.0
100
AcDbText
 73
     1
  0
LINE
  5
2B6
330
1F
100
AcDbEntity
  8
Annotatons
100
AcDbLine
 10
211.9094461357762
 20
71.96992741416096
 30
0.0
 11
211.7462509605795
 21
72.14452270299836
 31
0.0
  0
TEXT
  5
2CA
330
1F
100
AcDbEntity
  8
Annotatons
100
AcDbText
 10
211.3743888386388
 20
71.86590214613192
 30
0.0
 40
0.05
  1
Land drain
  7
Text
 72
     1
 11
211.5395575536527
 21
71.84696716270587
 31
0.0
100
AcDbText
 73
     1
  0
TEXT
  5
2CB
330
1F
100
AcDbEntity
  8
Annotatons
100
AcDbText
 10
211.4784183636163
 20
72.32200871072008
 30
0.0
 40
0.05
  1
(501)
  7
Text
 72
     1
 11
211.5600020018563
 21
72.30307372729403
 31
0.0
100
AcDbText
 73
     1
  0
LINE
  5
2CC
330
1F
100
AcDbEntity
  8
Annotatons
100
AcDbLine
 10
211.5434841860055
 20
71.93335307446668
 30
0.0
 11
211.5663151971574
 21
72.07362494733096
 31
0.0
  0
TEXT
  5
2F0
330
1F
100
AcDbEntity
  8
Annotatons
100
AcDbText
 10
210.9638285991757
 20
71.92046109517752
 30
0.0
 40
0.05
  1
[509]
  7
Text
 72
     1
 11
211.0415594682379
 21
71.90152611175147
 31
0.0
100
AcDbText
 73
     1
  0
LINE
  5
2F1
330
1F
100
AcDbEntity
  8
Context 1
 62
     1
100
AcDbLine
 10
211.0794575481124
 20
71.98135815564555
 30
0.0
 11
211.0963560891543
 21
72.04055373975503
 31
0.0
  0
TEXT
  5
316
330
1F
100
AcDbEntity
  8
Annotatons
100
AcDbText
 10
213.6837069717613
 20
70.63518058698529
 30
0.0
 40
0.05
  1
[1003]
  7
Text
 72
     1
 11
213.7808768125844
 21
70.61624560355924
 31
0.0
100
AcDbText
 73
     1
  0
LINE
  5
317
330
1F
100
AcDbEntity
  8
Annotatons
100
AcDbLine
 10
213.6958293034753
 20
70.68925798769075
 30
0.0
 11
213.5326341282785
 21
70.86385327652815
 31
0.0
  0
TEXT
  5
329
330
1F
100
AcDbEntity
  8
Annotatons
100
AcDbText
 10
212.2308917828451
 20
71.38682670646548
 30
0.0
 40
0.05
  1
(1001)
  7
Text
 72
     1
 11
212.3319143928461
 21
71.36789172303943
 31
0.0
100
AcDbText
 73
     1
  0
TEXT
  5
33B
330
1F
100
AcDbEntity
  8
Annotatons
100
AcDbText
 10
212.2544515769617
 20
71.12374233883027
 30
0.0
 40
0.05
  1
(1006)
  7
Text
 72
     1
 11
212.3554741869627
 21
71.10480735540422
 31
0.0
100
AcDbText
 73
     1
  0
TEXT
  5
34D
330
1F
100
AcDbEntity
  8
Annotatons
100
AcDbText
 10
211.5608066708922
 20
71.00688634900683
 30
0.0
 40
0.05
  1
(1005)
  7
Text
 72
     1
 11
211.6618292808931
 21
70.98795136558078
 31
0.0
100
AcDbText
 73
     1
  0
TEXT
  5
35F
330
1F
100
AcDbEntity
  8
Annotatons
100
AcDbText
 10
212.4522858677185
 20
70.86915662701064
 30
0.0
 40
0.05
  1
(1004)
  7
Text
 72
     1
 11
212.5533084777194
 21
70.85022164358459
 31
0.0
100
AcDbText
 73
     1
  0
LWPOLYLINE
  5
3BB
330
1F
100
AcDbEntity
  8
Context 1
100
AcDbPolyline
 90
       10
 70
     0
 43
0.0
 10
215.4061705323626
 20
71.73708278804105
 10
215.8819394803255
 20
71.73080615284366
 10
216.203609202664
 20
71.73206267519653
 10
216.445263974234
 20
71.75979697033314
 10
216.7169869330453
 20
71.75351435856872
 10
216.9777153212688
 20
71.72524260562882
 10
217.1991773859648
 20
71.73152521739324
 10
217.5871286624179
 20
71.75508501150983
 10
217.8342978982983
 20
71.76473593758935
 10
217.9355626291198
 20
71.76246032566078
  0
LWPOLYLINE
  5
3BC
330
1F
100
AcDbEntity
  8
Context 1
100
AcDbPolyline
 90
       12
 70
     0
 43
0.0
 10
217.9355626291198
 20
71.38010559287744
 10
217.7404396205086
 20
71.37525178669308
 10
217.5454273513409
 20
71.37927265822232
 10
217.3413681212324
 20
71.38429874763386
 10
217.0792084755163
 20
71.3947946359128
 10
216.8514637990559
 20
71.40421855355943
 10
216.6064419402434
 20
71.4199250829705
 10
216.4917842755427
 20
71.41835443002938
 10
216.1617986821247
 20
71.38660638038466
 10
215.8618395554792
 20
71.35475280249545
 10
215.5901165966678
 20
71.32648104955554
 10
215.4061705323626
 20
71.31968797323263
  0
LWPOLYLINE
  5
3BD
330
1F
100
AcDbEntity
  8
Context 1
100
AcDbPolyline
 90
        8
 70
     0
 43
0.0
 10
215.5460854662886
 20
71.32485499231763
 10
215.688889806429
 20
71.25913316934258
 10
215.8161126946586
 20
71.22300815169714
 10
215.9920258240624
 20
71.21672553993272
 10
216.2747433534614
 20
71.21829619287382
 10
216.4372813914137
 20
71.22394072688093
 10
216.619477132582
 20
71.22708203276314
 10
216.6663997167617
 20
71.22636709608585
  0
LWPOLYLINE
  5
3BE
330
1F
100
AcDbEntity
  8
Context 1
100
AcDbPolyline
 90
        4
 70
     0
 43
0.0
 10
216.6618973858714
 20
71.22643569591988
 10
216.6258693317471
 20
71.2720441966579
 10
216.5802424920691
 20
71.36972875741584
 10
216.5577411428743
 20
71.41925794875996
  0
LWPOLYLINE
  5
3BF
330
1F
100
AcDbEntity
  8
Context 1
100
AcDbPolyline
 90
        3
 70
     0
 43
0.0
 10
216.9870851427522
 20
71.39860663588925
 10
216.9204082234421
 20
71.28207375807861
 10
216.8882412512082
 20
71.21613146499922
  0
LWPOLYLINE
  5
3C0
330
1F
100
AcDbEntity
  8
Context 1
100
AcDbPolyline
 90
        7
 70
     0
 43
0.0
 10
216.8882412512082
 20
71.21613146499922
 10
216.9702209474472
 20
71.22017944599826
 10
217.0946166603828
 20
71.23777075893864
 10
217.2755558791982
 20
71.27797947423095
 10
217.4245617604047
 20
71.3264046677214
 10
217.5150313698124
 20
71.36033077124928
 10
217.5678495309718
 20
71.37881034524024
  0
LWPOLYLINE
  5
3C1
330
1F
100
AcDbEntity
  8
Context 1
  6
DASHDOT
 48
0.002
100
AcDbPolyline
 90
        2
 70
   128
 43
0.0
 10
216.8882412512082
 20
71.21613146499922
 10
216.6663997167617
 20
71.22636709608585
  0
LWPOLYLINE
  5
3C2
330
1F
100
AcDbEntity
  8
Context 1
100
AcDbPolyline
 90
        5
 70
     0
 43
0.0
 10
216.8270121047231
 20
71.21895653991919
 10
216.8270121047231
 20
71.21895653991919
 42
0.0115271809281523
 10
216.8270815331988
 20
71.22196765125554
 42
0.9772083614836409
 10
216.6964897063302
 20
71.22497876259189
 10
216.6964897063302
 20
71.22497876259189
  0
LWPOLYLINE
  5
3C3
330
1F
100
AcDbEntity
  8
Context 1
100
AcDbPolyline
 90
        9
 70
     0
 43
0.0
 10
215.408214513582
 20
70.70592372853453
 10
216.40073269033
 20
70.72555689029835
 10
216.8130290873703
 20
70.73537347118027
 10
217.3480327454345
 20
70.72555689029835
 10
217.8923506515307
 20
70.73504024427456
 10
218.3745411044502
 20
70.77116526191999
 10
218.6792477750247
 20
70.79315440309547
 10
219.1869662465276
 20
70.8161939184253
 10
219.4039374714583
 20
70.82166378123868
  0
LWPOLYLINE
  5
3C4
330
1F
100
AcDbEntity
  8
Context 1
100
AcDbPolyline
 90
       10
 70
     0
 43
0.0
 10
219.4024208704919
 20
70.4766693693034
 10
218.9927945834515
 20
70.4842085034207
 10
218.4823618273348
 20
70.49135006601229
 10
218.1250382832332
 20
70.46779027189571
 10
217.8246509082467
 20
70.48349680130677
 10
217.5457833191623
 20
70.47575090545466
 10
217.1020738632999
 20
70.46789764074913
 10
216.2295101993629
 20
70.48226205949274
 10
215.6110656038025
 20
70.43317915508318
 10
215.4076195210182
 20
70.41864729202716
  0
LWPOLYLINE
  5
3C5
330
1F
100
AcDbEntity
  8
Context 1
100
AcDbPolyline
 90
       28
 70
     0
 43
0.0
 10
215.6110656038025
 20
70.43317915508318
 10
215.716593848283
 20
70.37182552457124
 10
215.9325586276851
 20
70.31538018450026
 10
216.0699907600318
 20
70.30556360361834
 10
216.2466892159062
 20
70.27856800619308
 10
216.4111169456783
 20
70.23193924700401
 10
216.492103737954
 20
70.15831489038966
 10
216.661439758167
 20
70.0429700650272
 10
216.8528630853642
 20
69.95707498231049
 10
217.098277607412
 20
69.91290036834188
 10
217.2897009346093
 20
69.89326720657806
 10
217.5621110540824
 20
69.93744182054667
 10
217.6772409116619
 20
69.93928864151714
 10
217.861949697536
 20
69.9505973426931
 10
218.0479150057629
 20
69.96316256622194
 10
218.3029890433985
 20
69.95562343210463
 10
218.4424630245687
 20
69.95562343210463
 10
218.5093532066981
 20
69.94470739416394
 10
218.5457923549317
 20
69.94470739416394
 10
218.5998228161058
 20
69.95978566239856
 10
218.7292446184529
 20
70.04522918239472
 10
218.8184577055077
 20
70.13444226944952
 10
218.9755229996182
 20
70.22742492356299
 10
219.0812954806312
 20
70.30387174351252
 10
219.1711393419071
 20
70.3923654715203
 10
219.2103830480324
 20
70.43932925098173
 10
219.2338968534309
 20
70.46578482651276
 10
219.2415970313493
 20
70.47962931726308
  0
LWPOLYLINE
  5
3C6
330
1F
100
AcDbEntity
  8
Context 1
100
AcDbPolyline
 90
       22
 70
     0
 43
0.0
 10
219.0943845258868
 20
70.48233874987895
 10
218.9925158937882
 20
70.44828599361755
 10
218.9559742133305
 20
70.435419204724
 10
218.9039923862006
 20
70.40659759760247
 10
218.8075879704158
 20
70.3621428419753
 10
218.641727019835
 20
70.30182976903684
 10
218.52951030687
 20
70.26840407553597
 10
218.4034157757134
 20
70.23881046108083
 10
218.26952075379
 20
70.2239834973168
 10
218.1091848827775
 20
70.21516693231465
 10
217.8687238985406
 20
70.22182871226424
 10
217.6572903900475
 20
70.22028268716126
 10
217.467555514762
 20
70.19766528480935
 10
217.3192858771216
 20
70.15368700245838
 10
217.1348814052549
 20
70.10840311485013
 10
217.0249356993775
 20
70.08955527955686
 10
216.8725823640902
 20
70.0974085442624
 10
216.751642087625
 20
70.11468572661455
 10
216.6589735640998
 20
70.16651727367105
 10
216.572587652339
 20
70.20578359719869
 10
216.4799051281391
 20
70.20185729857828
 10
216.4525904755549
 20
70.19423603802522
  0
LWPOLYLINE
  5
3C7
330
1F
100
AcDbEntity
  8
Context 1
100
AcDbPolyline
 90
       15
 70
     0
 43
0.0
 10
217.335308085003
 20
70.15843935225375
 10
217.2230163579326
 20
70.20570307522541
 10
217.1265154412311
 20
70.26810700135908
 10
217.057034781206
 20
70.29705727636954
 10
217.0098011007432
 20
70.31172139483665
 10
216.9336297104934
 20
70.32510285528593
 10
216.8631197073569
 20
70.32613219839742
 10
216.7838602877727
 20
70.31892679661703
 10
216.7128356130803
 20
70.33591095795651
 10
216.6724162041199
 20
70.34170744635301
 10
216.6160082016106
 20
70.33964876013005
 10
216.5785401123526
 20
70.34706003053273
 10
216.4618512038771
 20
70.38077423413101
 10
216.3478707544637
 20
70.43101904476028
 10
216.2495030666988
 20
70.48193293059342
  0
LWPOLYLINE
  5
3C8
330
1F
100
AcDbEntity
  8
Section point
 62
     5
100
AcDbPolyline
 90
        9
 70
     0
 43
0.0
 10
215.3661705323626
 20
71.47307021402533
 10
215.4461705323625
 20
71.47307021402533
 10
215.4061705323626
 20
71.47307021402533
 10
215.4061705323626
 20
71.43307021402536
 10
215.4061705323626
 20
71.51307021402529
 10
215.4061705323626
 20
71.47307021402533
 10
215.4461705323625
 20
71.47307021402533
 10
215.4261705323625
 20
71.47307021402533
 10
215.4261705323625
 20
71.47307021402533
  0
CIRCLE
  5
3C9
330
1F
100
AcDbEntity
  8
Section point
 62
     5
100
AcDbCircle
 10
215.4061705323626
 20
71.47307021402533
 30
0.0
 40
0.0200000000000102
  0
LWPOLYLINE
  5
3CA
330
1F
100
AcDbEntity
  8
Section point
 62
     5
100
AcDbPolyline
 90
        9
 70
     0
 43
0.0
 10
217.8955626291198
 20
71.47275336628202
 10
217.9755626291197
 20
71.47275336628202
 10
217.9355626291198
 20
71.47275336628202
 10
217.9355626291198
 20
71.43275336628206
 10
217.9355626291198
 20
71.51275336628198
 10
217.9355626291198
 20
71.47275336628202
 10
217.9755626291197
 20
71.47275336628202
 10
217.9555626291198
 20
71.47275336628202
 10
217.9555626291198
 20
71.47275336628202
  0
CIRCLE
  5
3CB
330
1F
100
AcDbEntity
  8
Section point
 62
     5
100
AcDbCircle
 10
217.9355626291198
 20
71.47275336628202
 30
0.0
 40
0.0200000000000102
  0
LWPOLYLINE
  5
3CC
330
1F
100
AcDbEntity
  8
aOD
 62
     1
100
AcDbPolyline
 90
        6
 70
     0
 43
0.0
 10
218.2342836226331
 20
71.47275336628202
 10
218.3142836226331
 20
71.47275336628202
 10
218.2742836226331
 20
71.47275336628202
 10
218.2342836226331
 20
71.43275336628206
 10
218.2742836226331
 20
71.47275336628202
 10
218.3142836226331
 20
71.43275336628206
  0
TEXT
  5
3CD
330
1F
100
AcDbEntity
  8
aOD
 62
     1
100
AcDbText
 10
218.2219823671649
 20
71.47794641183013
 30
0.0
 40
0.025
  1
107.34
  7
Text
 72
     1
 11
218.2754332850121
 21
71.46847892011711
 31
0.0
100
AcDbText
 73
     1
  0
TEXT
  5
3CE
330
1F
100
AcDbEntity
  8
Co-ord
100
AcDbText
 10
217.9755626291197
 20
71.40775336628205
 30
0.0
 40
0.025
  1
N 258971.96
  7
Text
 11
217.9755626291197
 21
71.43275336628206
 31
0.0
100
AcDbText
 73
     3
  0
TEXT
  5
3CF
330
1F
100
AcDbEntity
  8
Co-ord
100
AcDbText
 10
215.1679530635569
 20
71.44253770573839
 30
0.0
 40
0.025
  1
E 442844.75
  7
Text
 72
     2
 11
215.3661705323626
 21
71.43307021402536
 31
0.0
100
AcDbText
 73
     1
  0
TEXT
  5
3D0
330
1F
100
AcDbEntity
  8
Co-ord
100
AcDbText
 10
215.166026678968
 20
71.40807021402536
 30
0.0
 40
0.025
  1
N 258974.29
  7
Text
 72
     2
 11
215.3661705323626
 21
71.43307021402536
 31
0.0
100
AcDbText
 73
     3
  0
TEXT
  5
3D1
330
1F
100
AcDbEntity
  8
Co-ord
100
AcDbText
 10
217.9755626291197
 20
71.44222085799508
 30
0.0
 40
0.025
  1
E 442845.73
  7
Text
 11
217.9755626291197
 21
71.43275336628206
 31
0.0
100
AcDbText
 73
     1
  0
TEXT
  5
3D2
330
1F
100
AcDbEntity
  8
Annotatons
100
AcDbText
 10
217.9755626291197
 20
71.53168834970803
 30
0.0
 40
0.05
  1
SE
  7
Text
 11
217.9755626291197
 21
71.51275336628198
 31
0.0
100
AcDbText
 73
     1
  0
TEXT
  5
3D3
330
1F
100
AcDbEntity
  8
Annotatons
100
AcDbText
 10
215.2497868816136
 20
71.53200519745134
 30
0.0
 40
0.05
  1
NW
  7
Text
 72
     2
 11
215.3661705323626
 21
71.51307021402529
 31
0.0
100
AcDbText
 73
     1
  0
TEXT
  5
3D4
330
1F
100
AcDbEntity
  8
Section point
100
AcDbText
 10
215.2592770056588
 20
71.48253770573835
 30
0.0
 40
0.025
  1
sp40.1
  7
Text
 72
     2
 11
215.364202420801
 21
71.47307021402533
 31
0.0
100
AcDbText
 73
     1
  0
TEXT
  5
3D5
330
1F
100
AcDbEntity
  8
Section point
100
AcDbText
 10
217.9755626291197
 20
71.48222085799505
 30
0.0
 40
0.025
  1
sp40.2
  7
Text
 11
217.9755626291197
 21
71.47275336628202
 31
0.0
100
AcDbText
 73
     1
  0
LWPOLYLINE
  5
3D6
330
1F
100
AcDbEntity
  8
Section point
 62
     5
100
AcDbPolyline
 90
        9
 70
     0
 43
0.0
 10
215.3682145135821
 20
70.47496932360033
 10
215.448214513582
 20
70.47496932360033
 10
215.408214513582
 20
70.47496932360033
 10
215.408214513582
 20
70.43496932360037
 10
215.408214513582
 20
70.5149693236003
 10
215.408214513582
 20
70.47496932360033
 10
215.448214513582
 20
70.47496932360033
 10
215.428214513582
 20
70.47496932360033
 10
215.428214513582
 20
70.47496932360033
  0
CIRCLE
  5
3D7
330
1F
100
AcDbEntity
  8
Section point
 62
     5
100
AcDbCircle
 10
215.408214513582
 20
70.47496932360033
 30
0.0
 40
0.0200000000000102
  0
LWPOLYLINE
  5
3D8
330
1F
100
AcDbEntity
  8
Section point
 62
     5
100
AcDbPolyline
 90
        9
 70
     0
 43
0.0
 10
219.3639657213891
 20
70.47465247585703
 10
219.443965721389
 20
70.47465247585703
 10
219.4039657213891
 20
70.47465247585703
 10
219.4039657213891
 20
70.43465247585706
 10
219.4039657213891
 20
70.51465247585699
 10
219.4039657213891
 20
70.47465247585703
 10
219.443965721389
 20
70.47465247585703
 10
219.4239657213891
 20
70.47465247585703
 10
219.4239657213891
 20
70.47465247585703
  0
CIRCLE
  5
3D9
330
1F
100
AcDbEntity
  8
Section point
 62
     5
100
AcDbCircle
 10
219.4039657213891
 20
70.47465247585703
 30
0.0
 40
0.0200000000000102
  0
LWPOLYLINE
  5
3DA
330
1F
100
AcDbEntity
  8
aOD
 62
     1
100
AcDbPolyline
 90
        6
 70
     0
 43
0.0
 10
219.7070047504787
 20
70.47465247585703
 10
219.7870047504787
 20
70.47465247585703
 10
219.7470047504787
 20
70.47465247585703
 10
219.7070047504787
 20
70.43465247585706
 10
219.7470047504787
 20
70.47465247585703
 10
219.7870047504787
 20
70.43465247585706
  0
TEXT
  5
3DB
330
1F
100
AcDbEntity
  8
aOD
 62
     1
100
AcDbText
 10
219.6947034950105
 20
70.47984552140514
 30
0.0
 40
0.025
  1
106.40
  7
Text
 72
     1
 11
219.7481544128577
 21
70.47037802969211
 31
0.0
100
AcDbText
 73
     1
  0
TEXT
  5
3DC
330
1F
100
AcDbEntity
  8
Co-ord
100
AcDbText
 10
219.443965721389
 20
70.40965247585706
 30
0.0
 40
0.025
  1
N 258942.86
  7
Text
 11
219.443965721389
 21
70.43465247585706
 31
0.0
100
AcDbText
 73
     3
  0
TEXT
  5
3DD
330
1F
100
AcDbEntity
  8
Co-ord
100
AcDbText
 10
215.1699970447764
 20
70.4444368153134
 30
0.0
 40
0.025
  1
E 442815.51
  7
Text
 72
     2
 11
215.3682145135821
 21
70.43496932360037
 31
0.0
100
AcDbText
 73
     1
  0
TEXT
  5
3DE
330
1F
100
AcDbEntity
  8
Co-ord
100
AcDbText
 10
215.1680706601875
 20
70.40996932360036
 30
0.0
 40
0.025
  1
N 258938.95
  7
Text
 72
     2
 11
215.3682145135821
 21
70.43496932360037
 31
0.0
100
AcDbText
 73
     3
  0
TEXT
  5
3DF
330
1F
100
AcDbEntity
  8
Co-ord
100
AcDbText
 10
219.443965721389
 20
70.44411996757009
 30
0.0
 40
0.025
  1
E 442816.27
  7
Text
 11
219.443965721389
 21
70.43465247585706
 31
0.0
100
AcDbText
 73
     1
  0
TEXT
  5
3E0
330
1F
100
AcDbEntity
  8
Annotatons
100
AcDbText
 10
219.443965721389
 20
70.53358745928304
 30
0.0
 40
0.05
  1
N
  7
Text
 11
219.443965721389
 21
70.51465247585699
 31
0.0
100
AcDbText
 73
     1
  0
TEXT
  5
3E1
330
1F
100
AcDbEntity
  8
Annotatons
100
AcDbText
 10
215.3216310317045
 20
70.53390430702635
 30
0.0
 40
0.05
  1
S
  7
Text
 72
     2
 11
215.3682145135821
 21
70.5149693236003
 31
0.0
100
AcDbText
 73
     1
  0
TEXT
  5
3E2
330
1F
100
AcDbEntity
  8
Section point
100
AcDbText
 10
215.2613209868783
 20
70.48443681531336
 30
0.0
 40
0.025
  1
sp44.1
  7
Text
 72
     2
 11
215.3662464020205
 21
70.47496932360033
 31
0.0
100
AcDbText
 73
     1
  0
TEXT
  5
3E3
330
1F
100
AcDbEntity
  8
Section point
100
AcDbText
 10
219.443965721389
 20
70.48411996757005
 30
0.0
 40
0.025
  1
sp44.2
  7
Text
 11
219.443965721389
 21
70.47465247585703
 31
0.0
100
AcDbText
 73
     1
  0
TEXT
  5
3E4
330
1F
100
AcDbEntity
  8
Annotatons
100
AcDbText
 10
216.6896957064997
 20
71.31586436535295
 30
0.0
 40
0.05
  1
(512)
  7
Text
 72
     1
 11
216.7712793447397
 21
71.2969293819269
 31
0.0
100
AcDbText
 73
     1
  0
TEXT
  5
3E5
330
1F
100
AcDbEntity
  8
Annotatons
100
AcDbText
 10
217.1142969054719
 20
71.0942573886683
 30
0.0
 40
0.05
  1
[511]
  7
Text
 72
     1
 11
217.192027774534
 21
71.07532240524225
 31
0.0
100
AcDbText
 73
     1
  0
TEXT
  5
3E6
330
1F
100
AcDbEntity
  8
Annotatons
100
AcDbText
 10
216.2539306022842
 20
71.29228432382061
 30
0.0
 40
0.05
  1
(510)
  7
Text
 72
     1
 11
216.3355142405242
 21
71.27334934039456
 31
0.0
100
AcDbText
 73
     1
  0
LINE
  5
3E7
330
1F
100
AcDbEntity
  8
Annotatons
100
AcDbLine
 10
217.106980265425
 20
71.14833478937376
 30
0.0
 11
216.9437850902282
 21
71.32293007821116
 31
0.0
  0
TEXT
  5
3E8
330
1F
100
AcDbEntity
  8
Annotatons
100
AcDbText
 10
216.5719229682875
 20
71.04430952134472
 30
0.0
 40
0.05
  1
Land drain
  7
Text
 72
     1
 11
216.7370916833015
 21
71.02537453791867
 31
0.0
100
AcDbText
 73
     1
  0
TEXT
  5
3E9
330
1F
100
AcDbEntity
  8
Annotatons
100
AcDbText
 10
216.6759524932651
 20
71.50041608593288
 30
0.0
 40
0.05
  1
(501)
  7
Text
 72
     1
 11
216.757536131505
 21
71.48148110250683
 31
0.0
100
AcDbText
 73
     1
  0
LINE
  5
3EA
330
1F
100
AcDbEntity
  8
Annotatons
100
AcDbLine
 10
216.7410183156542
 20
71.11176044967948
 30
0.0
 11
216.7638493268061
 21
71.25203232254376
 31
0.0
  0
TEXT
  5
3EB
330
1F
100
AcDbEntity
  8
Annotatons
100
AcDbText
 10
216.1613627288245
 20
71.09886847039031
 30
0.0
 40
0.05
  1
[509]
  7
Text
 72
     1
 11
216.2390935978866
 21
71.07993348696426
 31
0.0
100
AcDbText
 73
     1
  0
LINE
  5
3EC
330
1F
100
AcDbEntity
  8
Context 1
100
AcDbLine
 10
216.2769916777612
 20
71.15976553085835
 30
0.0
 11
216.2938902188031
 21
71.21896111496783
 31
0.0
  0
TEXT
  5
3ED
330
1F
100
AcDbEntity
  8
Annotatons
100
AcDbText
 10
218.88124110141
 20
69.81358796219808
 30
0.0
 40
0.05
  1
[1003]
  7
Text
 72
     1
 11
218.9784109422331
 21
69.79465297877204
 31
0.0
100
AcDbText
 73
     1
  0
LINE
  5
3EE
330
1F
100
AcDbEntity
  8
Annotatons
100
AcDbLine
 10
218.8933634331241
 20
69.86766536290355
 30
0.0
 11
218.7301682579273
 21
70.04226065174095
 31
0.0
  0
TEXT
  5
3EF
330
1F
100
AcDbEntity
  8
Annotatons
100
AcDbText
 10
217.4284259124939
 20
70.56523408167828
 30
0.0
 40
0.05
  1
(1001)
  7
Text
 72
     1
 11
217.5294485224948
 21
70.54629909825223
 31
0.0
100
AcDbText
 73
     1
  0
TEXT
  5
3F0
330
1F
100
AcDbEntity
  8
Annotatons
100
AcDbText
 10
217.4519857066105
 20
70.30214971404307
 30
0.0
 40
0.05
  1
(1006)
  7
Text
 72
     1
 11
217.5530083166114
 21
70.28321473061702
 31
0.0
100
AcDbText
 73
     1
  0
TEXT
  5
3F1
330
1F
100
AcDbEntity
  8
Annotatons
100
AcDbText
 10
216.7583408005409
 20
70.18529372421963
 30
0.0
 40
0.05
  1
(1005)
  7
Text
 72
     1
 11
216.8593634105419
 21
70.16635874079358
 31
0.0
100
AcDbText
 73
     1
  0
TEXT
  5
3F2
330
1F
100
AcDbEntity
  8
Annotatons
100
AcDbText
 10
217.6498199973672
 20
70.04756400222344
 30
0.0
 40
0.05
  1
(1004)
  7
Text
 72
     1
 11
217.7508426073682
 21
70.02862901879739
 31
0.0
100
AcDbText
 73
     1
  0
LWPOLYLINE
  5
3F6
330
1F
100
AcDbEntity
  8
Details
  6
DASHDOT
 48
0.005
100
AcDbPolyline
 90
        2
 70
     0
 43
0.0
 10
219.4039657213891
 20
70.47465247585703
 10
219.4039374714583
 20
70.82166378123868
  0
LWPOLYLINE
  5
3F9
330
1F
100
AcDbEntity
  8
Details
  6
DASHDOT
 48
0.005
100
AcDbPolyline
 90
        2
 70
     0
 43
0.0
 10
215.4061705323626
 20
71.31968797323263
 10
215.4061705323626
 20
71.73708278804105
  0
LWPOLYLINE
  5
3FB
330
1F
100
AcDbEntity
  8
Details
  6
DASHDOT
 48
0.005
100
AcDbPolyline
 90
        2
 70
     0
 43
0.0
 10
215.408214513582
 20
70.70592372853453
 10
215.4076195210182
 20
70.41864729202716
  0
LWPOLYLINE
  5
3FC
330
1F
100
AcDbEntity
  8
Details
  6
DASHDOT
 48
0.005
100
AcDbPolyline
 90
        2
 70
     0
 43
0.0
 10
217.9355626291198
 20
71.38010559287744
 10
217.9355626291198
 20
71.76246032566078
  0
ENDSEC
  0
SECTION
  2
OBJECTS
  0
DICTIONARY
  5
C
330
0
100
AcDbDictionary
281
     1
  3
ACAD_DETAILVIEWSTYLE
350
B5
  3
ACAD_GROUP
350
D
  3
ACAD_IMAGE_DICT
350
BD
  3
ACAD_IMAGE_VARS
350
6A
  3
ACAD_LAYOUT
350
1A
  3
ACAD_MATERIAL
350
72
  3
ACAD_MLEADERSTYLE
350
3F
  3
ACAD_MLINESTYLE
350
17
  3
ACAD_PLOTSETTINGS
350
19
  3
ACAD_PLOTSTYLENAME
350
E
  3
ACAD_SCALELIST
350
40
  3
ACAD_SECTIONVIEWSTYLE
350
B6
  3
ACAD_TABLESTYLE
350
3B
  3
ACAD_VISUALSTYLE
350
2A
  3
ACDB_RECOMPOSE_DATA
350
401
  3
AcDbVariableDictionary
350
3D
  3
APPDATA
350
71
  0
SUN
  5
80
330
29
100
AcDbSun
 90
        1
290
     0
 63
     7
421
 16777215
 40
1.0
291
     1
 91
  2455826
 92
 54000000
292
     0
 70
     2
 71
   256
280
     1
  0
DICTIONARY
  5
D6
330
2
100
AcDbDictionary
280
     1
281
     1
  3
ACAD_LAYERSTATES
360
D7
  0
DICTIONARY
  5
3FD
330
1F
100
AcDbDictionary
280
     1
281
     1
  3
ACAD_SORTENTS
360
3FE
  0
IMAGEDEF_REACTOR
  5
C0
330
BF
100
AcDbRasterImageDefReactor
 90
        2
330
BF
  0
DICTIONARY
  5
B5
102
{ACAD_REACTORS
330
C
102
}
330
C
100
AcDbDictionary
281
     1
  0
DICTIONARY
  5
D
102
{ACAD_REACTORS
330
C
102
}
330
C
100
AcDbDictionary
281
     1
  0
DICTIONARY
  5
BD
102
{ACAD_REACTORS
330
C
102
}
330
C
100
AcDbDictionary
281
     1
  3
1C20LADTT_SH_16
350
CD
  3
1C20LADTT_SH_17
350
BE
  0
RASTERVARIABLES
  5
6A
102
{ACAD_REACTORS
330
C
102
}
330
C
100
AcDbRasterVariables
 90
        0
 70
     1
 71
     1
 72
     1
  0
DICTIONARY
  5
1A
102
{ACAD_REACTORS
330
C
102
}
330
C
100
AcDbDictionary
281
     1
  3
Model
350
22
  3
Sheet1
350
1E
  3
Sheet2
350
26
  0
DICTIONARY
  5
72
102
{ACAD_REACTORS
330
C
102
}
330
C
100
AcDbDictionary
281
     1
  3
ByBlock
350
74
  3
ByLayer
350
73
  3
Global
350
75
  0
DICTIONARY
  5
3F
102
{ACAD_REACTORS
330
C
102
}
330
C
100
AcDbDictionary
281
     1
  3
Annotative
350
BC
  3
Standard
350
B7
  0
DICTIONARY
  5
17
102
{ACAD_REACTORS
330
C
102
}
330
C
100
AcDbDictionary
281
     1
  3
Standard
350
18
  0
DICTIONARY
  5
19
102
{ACAD_REACTORS
330
C
102
}
330
C
100
AcDbDictionary
281
     1
  0
ACDBDICTIONARYWDFLT
  5
E
102
{ACAD_REACTORS
330
C
102
}
330
C
100
AcDbDictionary
281
     1
  3
Normal
350
F
100
AcDbDictionaryWithDefault
340
F
  0
DICTIONARY
  5
40
102
{ACAD_REACTORS
330
C
102
}
330
C
100
AcDbDictionary
281
     1
  3
A0
350
41
  3
A1
350
42
  3
A2
350
43
  3
A3
350
44
  3
A4
350
45
  3
A5
350
46
  3
A6
350
47
  3
A7
350
48
  3
A8
350
49
  3
A9
350
4A
  3
B0
350
4B
  3
B1
350
4C
  3
B2
350
4D
  3
B3
350
4E
  3
B4
350
4F
  3
B5
350
50
  3
B6
350
51
  3
B7
350
52
  3
B8
350
53
  3
B9
350
54
  3
C0
350
55
  3
C1
350
56
  3
C2
350
57
  3
C3
350
58
  3
C4
350
59
  3
C5
350
5A
  3
C6
350
5B
  3
C7
350
5C
  3
C8
350
5D
  3
C9
350
5E
  3
D0
350
5F
  3
D1
350
60
  3
D2
350
61
  0
DICTIONARY
  5
B6
102
{ACAD_REACTORS
330
C
102
}
330
C
100
AcDbDictionary
281
     1
  0
DICTIONARY
  5
3B
102
{ACAD_REACTORS
330
C
102
}
330
C
100
AcDbDictionary
281
     1
  3
Standard
350
3C
  0
DICTIONARY
  5
2A
102
{ACAD_REACTORS
330
C
102
}
330
C
100
AcDbDictionary
281
     1
  3
2dWireframe
350
2F
  3
3D Hidden
350
31
  3
3dWireframe
350
30
  3
Basic
350
32
  3
Brighten
350
36
  3
ColorChange
350
3A
  3
Conceptual
350
34
  3
Dim
350
35
  3
EdgeColorOff
350
7A
  3
Facepattern
350
39
  3
Flat
350
2B
  3
FlatWithEdges
350
2C
  3
Gouraud
350
2D
  3
GouraudWithEdges
350
2E
  3
Hidden
350
77
  3
JitterOff
350
78
  3
Linepattern
350
38
  3
OverhangOff
350
79
  3
Realistic
350
33
  3
Shaded
350
7F
  3
Shaded with edges
350
7E
  3
Shades of Gray
350
7B
  3
Sketchy
350
7C
  3
Thicken
350
37
  3
Wireframe
350
76
  3
X-Ray
350
7D
  0
XRECORD
  5
401
102
{ACAD_REACTORS
330
C
102
}
330
C
100
AcDbXrecord
280
     1
 90
        1
330
3C
  0
DICTIONARY
  5
3D
102
{ACAD_REACTORS
330
C
102
}
330
C
100
AcDbDictionary
281
     1
  3
CANNOSCALE
350
62
  3
CMLEADERSTYLE
350
BB
  3
CTABLESTYLE
350
3E
  3
LIGHTSINBLOCKS
350
6F
  3
XCLIPFRAME
350
70
  0
DICTIONARY
  5
71
102
{ACAD_REACTORS
330
C
102
}
330
C
100
AcDbDictionary
281
     1
  0
DICTIONARY
  5
D7
102
{ACAD_REACTORS
330
D6
102
}
330
D6
100
AcDbDictionary
281
     1
  0
SORTENTSTABLE
  5
3FE
102
{ACAD_REACTORS
330
3FD
102
}
330
3FD
100
AcDbSortentsTable
330
1F
331
0
  5
DF
331
BF
  5
DE
331
E6
  5
EA
331
E7
  5
EB
331
E8
  5
EC
331
E9
  5
ED
331
EA
  5
EE
331
EB
  5
EF
331
EC
  5
F0
331
EE
  5
F2
331
EF
  5
F3
331
F0
  5
191
331
F1
  5
192
331
F2
  5
193
331
F3
  5
194
331
238
  5
23C
331
239
  5
23D
331
23A
  5
23E
331
23B
  5
23F
331
23C
  5
240
331
23D
  5
241
331
23E
  5
242
331
23F
  5
243
331
240
  5
244
331
241
  5
245
331
242
  5
266
331
243
  5
267
331
244
  5
268
331
245
  5
269
331
267
  5
26B
331
268
  5
26C
331
269
  5
26D
331
26A
  5
26E
331
26B
  5
26F
331
26C
  5
270
331
26D
  5
271
331
26E
  5
272
331
26F
  5
273
331
270
  5
274
331
271
  5
288
331
272
  5
289
331
273
  5
28A
331
274
  5
29D
331
29F
  5
2B5
331
2B4
  5
2CA
331
2B5
  5
2CB
331
2B6
  5
2CC
331
2CA
  5
2F0
331
2CB
  5
2F1
331
2CC
  5
314
331
2F0
  5
316
331
2F1
  5
317
331
316
  5
33A
331
317
  5
33B
331
329
  5
34D
331
33B
  5
35F
331
34D
  5
3BB
331
35F
  5
3BD
331
3BB
  5
3BF
331
3BC
  5
3C0
331
3BD
  5
3C1
331
3BE
  5
3C2
331
3BF
  5
3C3
331
3C0
  5
3C4
331
3C1
  5
3C5
331
3C2
  5
3C6
331
3C3
  5
3C7
331
3C4
  5
3C8
331
3C5
  5
3C9
331
3C6
  5
3CA
331
3C7
  5
3CB
331
3C8
  5
3CC
331
3C9
  5
3CD
331
3CA
  5
3CE
331
3CB
  5
3CF
331
3CC
  5
3D0
331
3CD
  5
3D1
331
3CE
  5
3D2
331
3CF
  5
3D3
331
3D0
  5
3D4
331
3D1
  5
3D5
331
3D2
  5
3D6
331
3D3
  5
3D7
331
3D4
  5
3D8
331
3D5
  5
3D9
331
3D6
  5
3DA
331
3D7
  5
3DB
331
3D8
  5
3DC
331
3D9
  5
3DD
331
3DA
  5
3DE
331
3DB
  5
3DF
331
3DC
  5
3E0
331
3DD
  5
3E1
331
3DE
  5
3E2
331
3DF
  5
3E3
331
3E0
  5
3E4
331
3E1
  5
3E5
331
3E2
  5
3E6
331
3E3
  5
3E7
331
3E4
  5
3E8
331
3E5
  5
3E9
331
3E6
  5
3EA
331
3E7
  5
3EB
331
3E8
  5
3EC
331
3E9
  5
3ED
331
3EA
  5
3EE
331
3EB
  5
3EF
331
3EC
  5
3F0
331
3ED
  5
3F1
331
3EE
  5
3F2
331
3EF
  5
3F3
331
3F0
  5
3F4
331
3F1
  5
3F5
331
3F2
  5
3F6
331
3F6
  5
BF
331
3F9
  5
DA
331
3FB
  5
DB
331
3FC
  5
DD
  0
IMAGEDEF
  5
CD
102
{ACAD_REACTORS
330
BD
102
}
330
BD
100
AcDbRasterImageDef
 90
        0
  1
Z:\HS2\Evaluations\Ladbroke_AC32031\Fieldwork\Evaluation\Draftsight\Scanned_Drawings\1C20LADTT_SH_17.tif
 10
4960.0
 20
3507.0
 11
0.08466683600033867
 21
0.08466683600033867
280
     1
281
     3
  0
IMAGEDEF
  5
BE
102
{ACAD_REACTORS
330
BD
330
C0
102
}
330
BD
100
AcDbRasterImageDef
 90
        0
  1
C:/Users/Fieldwork1/Desktop/Scanned_Drawings/1C20LADTT_SH_17.tif
 10
4960.0
 20
3507.0
 11
0.08466683600033867
 21
0.08466683600033867
280
     1
281
     3
  0
LAYOUT
  5
22
102
{ACAD_REACTORS
330
1A
102
}
330
1A
100
AcDbPlotSettings
  1

  2
none_device
  4
ISO_A3_(420.00_x_297.00_MM)
  6

 40
7.5
 41
20.0
 42
7.5
 43
20.0
 44
420.0
 45
297.0
 46
20.78282828282826
 47
0.0
 48
0.0
 49
0.0
140
0.0
141
0.0
142
1.0
143
1.155642023346303
 70
  1204
 72
     1
 73
     0
 74
     1
  7
monochrome.ctb
 75
     0
 76
     0
 77
     2
 78
   300
147
0.8653198653198654
148
-134.1869158878504
149
0.0
100
AcDbLayout
  1
Model
 70
     1
 71
     0
 10
0.0
 20
0.0
 11
420.0
 21
297.0
 12
0.0
 22
0.0
 32
0.0
 14
209.9712445273034
 24
69.79967796438716
 34
0.0
 15
219.8000209888342
 25
72.92237716052477
 35
0.0
146
0.0
 13
0.0
 23
0.0
 33
0.0
 16
1.0
 26
0.0
 36
0.0
 17
0.0
 27
1.0
 37
0.0
 76
     0
330
1F
331
29
  0
LAYOUT
  5
1E
102
{ACAD_REACTORS
330
1A
102
}
330
1A
100
AcDbPlotSettings
  1

  2
none_device
  4

  6

 40
0.0
 41
0.0
 42
0.0
 43
0.0
 44
0.0
 45
0.0
 46
0.0
 47
0.0
 48
0.0
 49
0.0
140
0.0
141
0.0
142
1.0
143
1.0
 70
   688
 72
     0
 73
     0
 74
     5
  7

 75
    16
 76
     0
 77
     2
 78
   300
147
1.0
148
0.0
149
0.0
100
AcDbLayout
  1
Sheet1
 70
     1
 71
     1
 10
0.0
 20
0.0
 11
420.0
 21
297.0
 12
0.0
 22
0.0
 32
0.0
 14
1.000000000000000E+20
 24
1.000000000000000E+20
 34
1.000000000000000E+20
 15
-1.000000000000000E+20
 25
-1.000000000000000E+20
 35
-1.000000000000000E+20
146
0.0
 13
0.0
 23
0.0
 33
0.0
 16
1.0
 26
0.0
 36
0.0
 17
0.0
 27
1.0
 37
0.0
 76
     0
330
1B
  0
LAYOUT
  5
26
102
{ACAD_REACTORS
330
1A
102
}
330
1A
100
AcDbPlotSettings
  1

  2
none_device
  4

  6

 40
0.0
 41
0.0
 42
0.0
 43
0.0
 44
0.0
 45
0.0
 46
0.0
 47
0.0
 48
0.0
 49
0.0
140
0.0
141
0.0
142
1.0
143
1.0
 70
   688
 72
     0
 73
     0
 74
     5
  7

 75
    16
 76
     0
 77
     2
 78
   300
147
1.0
148
0.0
149
0.0
100
AcDbLayout
  1
Sheet2
 70
     1
 71
     2
 10
0.0
 20
0.0
 11
0.0
 21
0.0
 12
0.0
 22
0.0
 32
0.0
 14
0.0
 24
0.0
 34
0.0
 15
0.0
 25
0.0
 35
0.0
146
0.0
 13
0.0
 23
0.0
 33
0.0
 16
1.0
 26
0.0
 36
0.0
 17
0.0
 27
1.0
 37
0.0
 76
     0
330
23
  0
MATERIAL
  5
74
102
{ACAD_REACTORS
330
72
102
}
330
72
100
AcDbMaterial
  1
ByBlock
 72
     1
 94
      127
  0
MATERIAL
  5
73
102
{ACAD_REACTORS
330
72
102
}
330
72
100
AcDbMaterial
  1
ByLayer
 72
     1
 94
      127
  0
MATERIAL
  5
75
102
{ACAD_REACTORS
330
72
102
}
330
72
100
AcDbMaterial
  1
Global
 72
     1
 94
      127
  0
MLEADERSTYLE
  5
BC
102
{ACAD_REACTORS
330
3F
102
}
330
3F
100
AcDbMLeaderStyle
179
     2
170
     2
171
     1
172
     0
 90
        2
 40
0.0
 41
0.0
173
     1
 91
-1056964608
340
14
 92
       -2
290
     1
 42
2.0
291
     1
 43
8.0
  3
Annotative
341
0
 44
4.0
300

342
11
174
     1
178
     1
175
     1
176
     0
 93
-1056964608
 45
4.0
292
     0
297
     0
 46
4.0
343
0
 94
-1056964608
 47
1.0
 49
1.0
140
1.0
293
     1
141
0.0
294
     1
177
     0
142
1.0
295
     0
296
     1
143
3.75
271
     0
272
     9
273
     9
298
     0
  0
MLEADERSTYLE
  5
B7
102
{ACAD_REACTORS
330
3F
102
}
330
3F
100
AcDbMLeaderStyle
179
     2
170
     2
171
     1
172
     0
 90
        2
 40
0.0
 41
0.0
173
     1
 91
-1056964608
340
14
 92
       -2
290
     1
 42
2.0
291
     1
 43
8.0
  3
Standard
341
0
 44
4.0
300

342
11
174
     1
178
     6
175
     1
176
     0
 93
-1056964608
 45
4.0
292
     0
297
     0
 46
4.0
343
0
 94
-1056964608
 47
1.0
 49
1.0
140
1.0
293
     1
141
0.0
294
     1
177
     0
142
1.0
295
     0
296
     0
143
3.75
271
     0
272
     9
273
     9
298
     0
  0
MLINESTYLE
  5
18
102
{ACAD_REACTORS
330
17
102
}
330
17
100
AcDbMlineStyle
  2
Standard
 70
     0
  3

 62
   256
 51
90.0
 52
90.0
 71
     2
 49
0.5
 62
   256
  6
BYLAYER
 49
-0.5
 62
   256
  6
BYLAYER
  0
ACDBPLACEHOLDER
  5
F
102
{ACAD_REACTORS
330
E
102
}
330
E
  0
SCALE
  5
41
102
{ACAD_REACTORS
330
40
102
}
330
40
100
AcDbScale
 70
     0
300
1:1
140
1.0
141
1.0
290
     1
  0
SCALE
  5
42
102
{ACAD_REACTORS
330
40
102
}
330
40
100
AcDbScale
 70
     0
300
1:2
140
1.0
141
2.0
290
     0
  0
SCALE
  5
43
102
{ACAD_REACTORS
330
40
102
}
330
40
100
AcDbScale
 70
     0
300
1:4
140
1.0
141
4.0
290
     0
  0
SCALE
  5
44
102
{ACAD_REACTORS
330
40
102
}
330
40
100
AcDbScale
 70
     0
300
1:5
140
1.0
141
5.0
290
     0
  0
SCALE
  5
45
102
{ACAD_REACTORS
330
40
102
}
330
40
100
AcDbScale
 70
     0
300
1:8
140
1.0
141
8.0
290
     0
  0
SCALE
  5
46
102
{ACAD_REACTORS
330
40
102
}
330
40
100
AcDbScale
 70
     0
300
1:10
140
1.0
141
10.0
290
     0
  0
SCALE
  5
47
102
{ACAD_REACTORS
330
40
102
}
330
40
100
AcDbScale
 70
     0
300
1:16
140
1.0
141
16.0
290
     0
  0
SCALE
  5
48
102
{ACAD_REACTORS
330
40
102
}
330
40
100
AcDbScale
 70
     0
300
1:20
140
1.0
141
20.0
290
     0
  0
SCALE
  5
49
102
{ACAD_REACTORS
330
40
102
}
330
40
100
AcDbScale
 70
     0
300
1:30
140
1.0
141
30.0
290
     0
  0
SCALE
  5
4A
102
{ACAD_REACTORS
330
40
102
}
330
40
100
AcDbScale
 70
     0
300
1:40
140
1.0
141
40.0
290
     0
  0
SCALE
  5
4B
102
{ACAD_REACTORS
330
40
102
}
330
40
100
AcDbScale
 70
     0
300
1:50
140
1.0
141
50.0
290
     0
  0
SCALE
  5
4C
102
{ACAD_REACTORS
330
40
102
}
330
40
100
AcDbScale
 70
     0
300
1:100
140
1.0
141
100.0
290
     0
  0
SCALE
  5
4D
102
{ACAD_REACTORS
330
40
102
}
330
40
100
AcDbScale
 70
     0
300
2:1
140
2.0
141
1.0
290
     0
  0
SCALE
  5
4E
102
{ACAD_REACTORS
330
40
102
}
330
40
100
AcDbScale
 70
     0
300
4:1
140
4.0
141
1.0
290
     0
  0
SCALE
  5
4F
102
{ACAD_REACTORS
330
40
102
}
330
40
100
AcDbScale
 70
     0
300
8:1
140
8.0
141
1.0
290
     0
  0
SCALE
  5
50
102
{ACAD_REACTORS
330
40
102
}
330
40
100
AcDbScale
 70
     0
300
10:1
140
10.0
141
1.0
290
     0
  0
SCALE
  5
51
102
{ACAD_REACTORS
330
40
102
}
330
40
100
AcDbScale
 70
     0
300
100:1
140
100.0
141
1.0
290
     0
  0
SCALE
  5
52
102
{ACAD_REACTORS
330
40
102
}
330
40
100
AcDbScale
 70
     0
300
1/128" = 1'-0"
140
0.0078125
141
12.0
290
     0
  0
SCALE
  5
53
102
{ACAD_REACTORS
330
40
102
}
330
40
100
AcDbScale
 70
     0
300
1/64" = 1'-0"
140
0.015625
141
12.0
290
     0
  0
SCALE
  5
54
102
{ACAD_REACTORS
330
40
102
}
330
40
100
AcDbScale
 70
     0
300
1/32" = 1'-0"
140
0.03125
141
12.0
290
     0
  0
SCALE
  5
55
102
{ACAD_REACTORS
330
40
102
}
330
40
100
AcDbScale
 70
     0
300
1/16" = 1'-0"
140
0.0625
141
12.0
290
     0
  0
SCALE
  5
56
102
{ACAD_REACTORS
330
40
102
}
330
40
100
AcDbScale
 70
     0
300
3/32" = 1'-0"
140
0.09375
141
12.0
290
     0
  0
SCALE
  5
57
102
{ACAD_REACTORS
330
40
102
}
330
40
100
AcDbScale
 70
     0
300
1/8" = 1'-0"
140
0.125
141
12.0
290
     0
  0
SCALE
  5
58
102
{ACAD_REACTORS
330
40
102
}
330
40
100
AcDbScale
 70
     0
300
3/16" = 1'-0"
140
0.1875
141
12.0
290
     0
  0
SCALE
  5
59
102
{ACAD_REACTORS
330
40
102
}
330
40
100
AcDbScale
 70
     0
300
1/4" = 1'-0"
140
0.25
141
12.0
290
     0
  0
SCALE
  5
5A
102
{ACAD_REACTORS
330
40
102
}
330
40
100
AcDbScale
 70
     0
300
3/8" = 1'-0"
140
0.375
141
12.0
290
     0
  0
SCALE
  5
5B
102
{ACAD_REACTORS
330
40
102
}
330
40
100
AcDbScale
 70
     0
300
1/2" = 1'-0"
140
0.5
141
12.0
290
     0
  0
SCALE
  5
5C
102
{ACAD_REACTORS
330
40
102
}
330
40
100
AcDbScale
 70
     0
300
3/4" = 1'-0"
140
0.75
141
12.0
290
     0
  0
SCALE
  5
5D
102
{ACAD_REACTORS
330
40
102
}
330
40
100
AcDbScale
 70
     0
300
1" = 1'-0"
140
1.0
141
12.0
290
     0
  0
SCALE
  5
5E
102
{ACAD_REACTORS
330
40
102
}
330
40
100
AcDbScale
 70
     0
300
1-1/2" = 1'-0"
140
1.5
141
12.0
290
     0
  0
SCALE
  5
5F
102
{ACAD_REACTORS
330
40
102
}
330
40
100
AcDbScale
 70
     0
300
3" = 1'-0"
140
3.0
141
12.0
290
     0
  0
SCALE
  5
60
102
{ACAD_REACTORS
330
40
102
}
330
40
100
AcDbScale
 70
     0
300
6" = 1'-0"
140
6.0
141
12.0
290
     0
  0
SCALE
  5
61
102
{ACAD_REACTORS
330
40
102
}
330
40
100
AcDbScale
 70
     0
300
1'-0" = 1'-0"
140
12.0
141
12.0
290
     0
  0
TABLESTYLE
  5
3C
102
{ACAD_REACTORS
330
3B
102
}
102
{ACAD_XDICTIONARY
360
3FF
102
}
330
3B
100
AcDbTableStyle
  3
Standard
 70
     0
 71
     0
 40
1.5
 41
1.5
280
     0
281
     0
  7
Standard
140
4.5
170
     2
 62
     0
 63
   257
283
     0
 90
      512
 91
        0
  1

274
    -2
284
     1
 64
     0
275
    -2
285
     1
 65
     0
276
    -2
286
     1
 66
     0
277
    -2
287
     1
 67
     0
278
    -2
288
     1
 68
     0
279
    -2
289
     1
 69
     0
  7
Standard
140
6.0
170
     5
 62
     0
 63
   257
283
     0
 90
      512
 91
        0
  1

274
    -2
284
     1
 64
     0
275
    -2
285
     1
 65
     0
276
    -2
286
     1
 66
     0
277
    -2
287
     1
 67
     0
278
    -2
288
     1
 68
     0
279
    -2
289
     1
 69
     0
  7
Standard
140
4.5
170
     5
 62
     0
 63
   257
283
     0
 90
      512
 91
        0
  1

274
    -2
284
     1
 64
     0
275
    -2
285
     1
 65
     0
276
    -2
286
     1
 66
     0
277
    -2
287
     1
 67
     0
278
    -2
288
     1
 68
     0
279
    -2
289
     1
 69
     0
  0
VISUALSTYLE
  5
2F
102
{ACAD_REACTORS
330
2A
102
}
330
2A
100
AcDbVisualStyle
  2
2dWireframe
 70
     4
177
     3
291
     0
 70
    58
 90
        0
176
     1
 90
        2
176
     1
 90
        0
176
     1
 90
        0
176
     1
 40
-0.6
176
     1
 40
-30.0
176
     1
 62
     7
420
 16777215
176
     1
 90
        1
176
     1
 90
        4
176
     1
 62
     7
176
     1
 62
   257
176
     1
 90
        1
176
     1
 90
        1
176
     1
 40
1.0
176
     1
 90
        0
176
     1
 62
   257
176
     1
 40
1.0
176
     1
 90
        1
176
     1
 90
        6
176
     1
 90
        2
176
     1
 62
     7
176
     1
 90
        5
176
     1
 90
        0
176
     1
 90
        0
176
     1
290
     0
176
     1
 90
        1
176
     1
 40
0.0
176
     1
 90
        0
176
     1
290
     1
176
     1
290
     1
176
     1
290
     0
176
     1
290
     0
176
     1
290
     0
176
     1
290
     0
176
     1
290
     0
176
     1
290
     0
176
     1
290
     0
176
     1
 90
       50
176
     1
 40
0.0
176
     1
 40
1.0
176
     1
 90
        0
176
     1
 62
    18
420
        0
176
     1
 90
       50
176
     1
 90
        3
176
     1
 62
     5
420
      255
176
     1
290
     0
176
     1
 90
       50
176
     1
 90
       50
176
     1
 90
       50
176
     1
290
     0
176
     1
 90
       50
176
     1
 62
   256
176
     0
 40
1.0
176
     0
 90
        2
176
     1
  1
strokes_ogs.tif
176
     1
290
     0
176
     1
 40
1.0
176
     1
 40
1.0
176
     1
  0
VISUALSTYLE
  5
31
102
{ACAD_REACTORS
330
2A
102
}
330
2A
100
AcDbVisualStyle
  2
3D Hidden
 70
     6
177
     3
291
     0
 70
    58
 90
        1
176
     1
 90
        2
176
     1
 90
        2
176
     1
 90
        0
176
     1
 40
-0.6
176
     1
 40
-30.0
176
     1
 62
     7
420
 16777215
176
     1
 90
        2
176
     1
 90
        2
176
     1
 62
     7
176
     1
 62
   257
176
     1
 90
        2
176
     1
 90
        1
176
     1
 40
40.0
176
     1
 90
        0
176
     1
 62
   257
176
     1
 40
1.0
176
     1
 90
        1
176
     1
 90
        6
176
     1
 90
        2
176
     1
 62
     7
176
     1
 90
        3
176
     1
 90
        0
176
     1
 90
        0
176
     1
290
     0
176
     1
 90
        1
176
     1
 40
0.0
176
     1
 90
        0
176
     1
290
     0
176
     1
290
     1
176
     1
290
     1
176
     1
290
     0
176
     1
290
     0
176
     1
290
     0
176
     1
290
     0
176
     1
290
     0
176
     1
290
     0
176
     1
 90
       50
176
     1
 40
0.0
176
     1
 40
1.0
176
     1
 90
        0
176
     1
 62
    18
420
        0
176
     1
 90
       50
176
     1
 90
        3
176
     1
 62
     5
420
      255
176
     1
290
     0
176
     1
 90
       50
176
     1
 90
       50
176
     1
 90
       50
176
     1
290
     0
176
     1
 90
       50
176
     1
 62
   256
176
     0
 40
1.0
176
     0
 90
        2
176
     1
  1
strokes_ogs.tif
176
     1
290
     0
176
     1
 40
1.0
176
     1
 40
1.0
176
     1
  0
VISUALSTYLE
  5
30
102
{ACAD_REACTORS
330
2A
102
}
330
2A
100
AcDbVisualStyle
  2
3dWireframe
 70
     5
177
     3
291
     0
 70
    58
 90
        0
176
     1
 90
        2
176
     1
 90
        0
176
     1
 90
        0
176
     1
 40
-0.6
176
     1
 40
-30.0
176
     1
 62
     7
420
 16777215
176
     1
 90
        1
176
     1
 90
        4
176
     1
 62
     7
176
     1
 62
   257
176
     1
 90
        1
176
     1
 90
        1
176
     1
 40
1.0
176
     1
 90
        0
176
     1
 62
   257
176
     1
 40
1.0
176
     1
 90
        1
176
     1
 90
        6
176
     1
 90
        2
176
     1
 62
     7
176
     1
 90
        5
176
     1
 90
        0
176
     1
 90
        0
176
     1
290
     0
176
     1
 90
        1
176
     1
 40
0.0
176
     1
 90
        0
176
     1
290
     0
176
     1
290
     1
176
     1
290
     1
176
     1
290
     0
176
     1
290
     0
176
     1
290
     0
176
     1
290
     0
176
     1
290
     0
176
     1
290
     0
176
     1
 90
       50
176
     1
 40
0.0
176
     1
 40
1.0
176
     1
 90
        0
176
     1
 62
    18
420
        0
176
     1
 90
       50
176
     1
 90
        3
176
     1
 62
     5
420
      255
176
     1
290
     0
176
     1
 90
       50
176
     1
 90
       50
176
     1
 90
       50
176
     1
290
     0
176
     1
 90
       50
176
     1
 62
   256
176
     0
 40
1.0
176
     0
 90
        2
176
     1
  1
strokes_ogs.tif
176
     1
290
     0
176
     1
 40
1.0
176
     1
 40
1.0
176
     1
  0
VISUALSTYLE
  5
32
102
{ACAD_REACTORS
330
2A
102
}
330
2A
100
AcDbVisualStyle
  2
Basic
 70
     7
177
     3
291
     1
 70
    58
 90
        1
176
     1
 90
        0
176
     1
 90
        1
176
     1
 90
        0
176
     1
 40
-0.6
176
     1
 40
-30.0
176
     1
 62
     7
420
 16777215
176
     1
 90
        0
176
     1
 90
        4
176
     1
 62
     7
176
     1
 62
   257
176
     1
 90
        1
176
     1
 90
        1
176
     1
 40
1.0
176
     1
 90
        8
176
     1
 62
     7
176
     1
 40
1.0
176
     1
 90
        1
176
     1
 90
        6
176
     1
 90
        2
176
     1
 62
     7
176
     1
 90
        5
176
     1
 90
        0
176
     1
 90
        0
176
     1
290
     0
176
     1
 90
        1
176
     1
 40
0.0
176
     1
 90
        0
176
     1
290
     0
176
     1
290
     1
176
     1
290
     1
176
     1
290
     0
176
     1
290
     0
176
     1
290
     0
176
     1
290
     0
176
     1
290
     0
176
     1
290
     0
176
     1
 90
       50
176
     1
 40
0.0
176
     1
 40
1.0
176
     1
 90
        0
176
     1
 62
    18
420
        0
176
     1
 90
       50
176
     1
 90
        3
176
     1
 62
     5
420
      255
176
     1
290
     0
176
     1
 90
       50
176
     1
 90
       50
176
     1
 90
       50
176
     1
290
     0
176
     1
 90
       50
176
     1
 62
   256
176
     0
 40
1.0
176
     0
 90
        2
176
     1
  1
strokes_ogs.tif
176
     1
290
     0
176
     1
 40
1.0
176
     1
 40
1.0
176
     1
  0
VISUALSTYLE
  5
36
102
{ACAD_REACTORS
330
2A
102
}
330
2A
100
AcDbVisualStyle
  2
Brighten
 70
    12
177
     3
291
     1
 70
    58
 90
        2
176
     1
 90
        2
176
     1
 90
        0
176
     1
 90
        0
176
     1
 40
-0.6
176
     1
 40
-30.0
176
     1
 62
     7
420
 16777215
176
     1
 90
        1
176
     1
 90
        4
176
     1
 62
     7
176
     1
 62
   257
176
     1
 90
        1
176
     1
 90
        1
176
     1
 40
1.0
176
     1
 90
        8
176
     1
 62
     7
176
     1
 40
1.0
176
     1
 90
        1
176
     1
 90
        6
176
     1
 90
        2
176
     1
 62
     7
176
     1
 90
        5
176
     1
 90
        0
176
     1
 90
        0
176
     1
290
     0
176
     1
 90
        1
176
     1
 40
50.0
176
     1
 90
        0
176
     1
290
     0
176
     1
290
     1
176
     1
290
     1
176
     1
290
     0
176
     1
290
     0
176
     1
290
     0
176
     1
290
     0
176
     1
290
     0
176
     1
290
     0
176
     1
 90
       50
176
     1
 40
0.0
176
     1
 40
1.0
176
     1
 90
        0
176
     1
 62
    18
420
        0
176
     1
 90
       50
176
     1
 90
        3
176
     1
 62
     5
420
      255
176
     1
290
     0
176
     1
 90
       50
176
     1
 90
       50
176
     1
 90
       50
176
     1
290
     0
176
     1
 90
       50
176
     1
 62
   256
176
     0
 40
1.0
176
     0
 90
        2
176
     1
  1
strokes_ogs.tif
176
     1
290
     0
176
     1
 40
1.0
176
     1
 40
1.0
176
     1
  0
VISUALSTYLE
  5
3A
102
{ACAD_REACTORS
330
2A
102
}
330
2A
100
AcDbVisualStyle
  2
ColorChange
 70
    16
177
     3
291
     1
 70
    58
 90
        2
176
     1
 90
        2
176
     1
 90
        3
176
     1
 90
        0
176
     1
 40
-0.6
176
     1
 40
-30.0
176
     1
 62
     8
420
  8421504
176
     1
 90
        1
176
     1
 90
        4
176
     1
 62
     7
176
     1
 62
   257
176
     1
 90
        1
176
     1
 90
        1
176
     1
 40
1.0
176
     1
 90
        8
176
     1
 62
     8
420
  8421504
176
     1
 40
1.0
176
     1
 90
        1
176
     1
 90
        6
176
     1
 90
        2
176
     1
 62
     7
176
     1
 90
        5
176
     1
 90
        0
176
     1
 90
        0
176
     1
290
     0
176
     1
 90
        1
176
     1
 40
0.0
176
     1
 90
        0
176
     1
290
     0
176
     1
290
     1
176
     1
290
     1
176
     1
290
     0
176
     1
290
     0
176
     1
290
     0
176
     1
290
     0
176
     1
290
     0
176
     1
290
     0
176
     1
 90
       50
176
     1
 40
0.0
176
     1
 40
1.0
176
     1
 90
        0
176
     1
 62
    18
420
        0
176
     1
 90
       50
176
     1
 90
        3
176
     1
 62
     5
420
      255
176
     1
290
     0
176
     1
 90
       50
176
     1
 90
       50
176
     1
 90
       50
176
     1
290
     0
176
     1
 90
       50
176
     1
 62
   256
176
     0
 40
1.0
176
     0
 90
        2
176
     1
  1
strokes_ogs.tif
176
     1
290
     0
176
     1
 40
1.0
176
     1
 40
1.0
176
     1
  0
VISUALSTYLE
  5
34
102
{ACAD_REACTORS
330
2A
102
}
330
2A
100
AcDbVisualStyle
  2
Conceptual
 70
     9
177
     3
291
     0
 70
    58
 90
        3
176
     1
 90
        2
176
     1
 90
        0
176
     1
 90
        0
176
     1
 40
-0.6
176
     1
 40
-30.0
176
     1
 62
     7
420
 16777215
176
     1
 90
        2
176
     1
 90
        2
176
     1
 62
     7
176
     1
 62
   257
176
     1
 90
        1
176
     1
 90
        1
176
     1
 40
40.0
176
     1
 90
        8
176
     1
 62
     7
176
     1
 40
1.0
176
     1
 90
        1
176
     1
 90
        6
176
     1
 90
        2
176
     1
 62
     7
176
     1
 90
        3
176
     1
 90
        0
176
     1
 90
        0
176
     1
290
     0
176
     1
 90
        1
176
     1
 40
0.0
176
     1
 90
        0
176
     1
290
     0
176
     1
290
     1
176
     1
290
     1
176
     1
290
     0
176
     1
290
     0
176
     1
290
     0
176
     1
290
     0
176
     1
290
     0
176
     1
290
     0
176
     1
 90
       50
176
     1
 40
0.0
176
     1
 40
1.0
176
     1
 90
        0
176
     1
 62
    18
420
        0
176
     1
 90
       50
176
     1
 90
        3
176
     1
 62
     5
420
      255
176
     1
290
     0
176
     1
 90
       50
176
     1
 90
       50
176
     1
 90
       50
176
     1
290
     0
176
     1
 90
       50
176
     1
 62
   256
176
     0
 40
1.0
176
     0
 90
        2
176
     1
  1
strokes_ogs.tif
176
     1
290
     0
176
     1
 40
1.0
176
     1
 40
1.0
176
     1
  0
VISUALSTYLE
  5
35
102
{ACAD_REACTORS
330
2A
102
}
330
2A
100
AcDbVisualStyle
  2
Dim
 70
    11
177
     3
291
     1
 70
    58
 90
        2
176
     1
 90
        2
176
     1
 90
        0
176
     1
 90
        0
176
     1
 40
-0.6
176
     1
 40
-30.0
176
     1
 62
     7
420
 16777215
176
     1
 90
        1
176
     1
 90
        4
176
     1
 62
     7
176
     1
 62
   257
176
     1
 90
        1
176
     1
 90
        1
176
     1
 40
1.0
176
     1
 90
        8
176
     1
 62
     7
176
     1
 40
1.0
176
     1
 90
        1
176
     1
 90
        6
176
     1
 90
        2
176
     1
 62
     7
176
     1
 90
        5
176
     1
 90
        0
176
     1
 90
        0
176
     1
290
     0
176
     1
 90
        1
176
     1
 40
-50.0
176
     1
 90
        0
176
     1
290
     0
176
     1
290
     1
176
     1
290
     1
176
     1
290
     0
176
     1
290
     0
176
     1
290
     0
176
     1
290
     0
176
     1
290
     0
176
     1
290
     0
176
     1
 90
       50
176
     1
 40
0.0
176
     1
 40
1.0
176
     1
 90
        0
176
     1
 62
    18
420
        0
176
     1
 90
       50
176
     1
 90
        3
176
     1
 62
     5
420
      255
176
     1
290
     0
176
     1
 90
       50
176
     1
 90
       50
176
     1
 90
       50
176
     1
290
     0
176
     1
 90
       50
176
     1
 62
   256
176
     0
 40
1.0
176
     0
 90
        2
176
     1
  1
strokes_ogs.tif
176
     1
290
     0
176
     1
 40
1.0
176
     1
 40
1.0
176
     1
  0
VISUALSTYLE
  5
7A
102
{ACAD_REACTORS
330
2A
102
}
330
2A
100
AcDbVisualStyle
  2
EdgeColorOff
 70
    22
177
     3
291
     1
 70
    58
 90
        2
176
     0
 90
        2
176
     0
 90
        0
176
     0
 90
        0
176
     0
 40
0.6
176
     0
 40
30.0
176
     0
 62
     7
420
 16777215
176
     0
 90
        1
176
     0
 90
        4
176
     0
 62
     7
176
     0
 62
   257
176
     0
 90
        1
176
     0
 90
        1
176
     0
 40
1.0
176
     0
 90
        8
176
     2
 62
     7
176
     0
 40
1.0
176
     0
 90
        1
176
     0
 90
        6
176
     0
 90
        2
176
     0
 62
     7
176
     0
 90
        5
176
     0
 90
        0
176
     0
 90
        0
176
     0
290
     0
176
     0
 90
        1
176
     0
 40
0.0
176
     0
 90
        0
176
     0
290
     0
176
     0
290
     1
176
     0
290
     1
176
     0
290
     0
176
     0
290
     0
176
     0
290
     0
176
     0
290
     0
176
     0
290
     0
176
     0
290
     0
176
     0
 90
       50
176
     0
 40
0.0
176
     0
 40
1.0
176
     0
 90
        0
176
     0
 62
    18
420
        0
176
     0
 90
       50
176
     0
 90
        3
176
     0
 62
     5
420
      255
176
     0
290
     0
176
     0
 90
       50
176
     0
 90
       50
176
     0
 90
       50
176
     0
290
     0
176
     0
 90
       50
176
     0
 62
   256
176
     0
 40
1.0
176
     0
 90
        2
176
     0
  1
strokes_ogs.tif
176
     0
290
     0
176
     0
 40
1.0
176
     0
 40
1.0
176
     0
  0
VISUALSTYLE
  5
39
102
{ACAD_REACTORS
330
2A
102
}
330
2A
100
AcDbVisualStyle
  2
Facepattern
 70
    15
177
     3
291
     1
 70
    58
 90
        2
176
     1
 90
        2
176
     1
 90
        0
176
     1
 90
        0
176
     1
 40
-0.6
176
     1
 40
-30.0
176
     1
 62
     7
420
 16777215
176
     1
 90
        1
176
     1
 90
        4
176
     1
 62
     7
176
     1
 62
   257
176
     1
 90
        1
176
     1
 90
        1
176
     1
 40
1.0
176
     1
 90
        8
176
     1
 62
     7
176
     1
 40
1.0
176
     1
 90
        1
176
     1
 90
        6
176
     1
 90
        2
176
     1
 62
     7
176
     1
 90
        5
176
     1
 90
        0
176
     1
 90
        0
176
     1
290
     0
176
     1
 90
        1
176
     1
 40
0.0
176
     1
 90
        0
176
     1
290
     0
176
     1
290
     1
176
     1
290
     1
176
     1
290
     0
176
     1
290
     0
176
     1
290
     0
176
     1
290
     0
176
     1
290
     0
176
     1
290
     0
176
     1
 90
       50
176
     1
 40
0.0
176
     1
 40
1.0
176
     1
 90
        0
176
     1
 62
    18
420
        0
176
     1
 90
       50
176
     1
 90
        3
176
     1
 62
     5
420
      255
176
     1
290
     0
176
     1
 90
       50
176
     1
 90
       50
176
     1
 90
       50
176
     1
290
     0
176
     1
 90
       50
176
     1
 62
   256
176
     0
 40
1.0
176
     0
 90
        2
176
     1
  1
strokes_ogs.tif
176
     1
290
     0
176
     1
 40
1.0
176
     1
 40
1.0
176
     1
  0
VISUALSTYLE
  5
2B
102
{ACAD_REACTORS
330
2A
102
}
330
2A
100
AcDbVisualStyle
  2
Flat
 70
     0
177
     3
291
     1
 70
    58
 90
        2
176
     1
 90
        1
176
     1
 90
        1
176
     1
 90
        2
176
     1
 40
-0.6
176
     1
 40
30.0
176
     1
 62
     7
420
 16777215
176
     1
 90
        0
176
     1
 90
        4
176
     1
 62
     7
176
     1
 62
   257
176
     1
 90
        1
176
     1
 90
        1
176
     1
 40
1.0
176
     1
 90
        8
176
     1
 62
     7
176
     1
 40
1.0
176
     1
 90
        1
176
     1
 90
        6
176
     1
 90
        2
176
     1
 62
     7
176
     1
 90
        5
176
     1
 90
        0
176
     1
 90
        0
176
     1
290
     0
176
     1
 90
       13
176
     1
 40
0.0
176
     1
 90
        0
176
     1
290
     0
176
     1
290
     1
176
     1
290
     1
176
     1
290
     0
176
     1
290
     0
176
     1
290
     0
176
     1
290
     0
176
     1
290
     0
176
     1
290
     0
176
     1
 90
       50
176
     1
 40
0.0
176
     1
 40
1.0
176
     1
 90
        0
176
     1
 62
    18
420
        0
176
     1
 90
       50
176
     1
 90
        3
176
     1
 62
     5
420
      255
176
     1
290
     0
176
     1
 90
       50
176
     1
 90
       50
176
     1
 90
       50
176
     1
290
     0
176
     1
 90
       50
176
     1
 62
   256
176
     0
 40
1.0
176
     0
 90
        2
176
     1
  1
strokes_ogs.tif
176
     1
290
     0
176
     1
 40
1.0
176
     1
 40
1.0
176
     1
  0
VISUALSTYLE
  5
2C
102
{ACAD_REACTORS
330
2A
102
}
330
2A
100
AcDbVisualStyle
  2
FlatWithEdges
 70
     1
177
     3
291
     1
 70
    58
 90
        2
176
     1
 90
        1
176
     1
 90
        1
176
     1
 90
        2
176
     1
 40
-0.6
176
     1
 40
30.0
176
     1
 62
     7
420
 16777215
176
     1
 90
        1
176
     1
 90
        4
176
     1
 62
     7
176
     1
 62
   257
176
     1
 90
        1
176
     1
 90
        1
176
     1
 40
1.0
176
     1
 90
        0
176
     1
 62
   257
176
     1
 40
1.0
176
     1
 90
        1
176
     1
 90
        6
176
     1
 90
        2
176
     1
 62
     7
176
     1
 90
        5
176
     1
 90
        0
176
     1
 90
        0
176
     1
290
     0
176
     1
 90
       13
176
     1
 40
0.0
176
     1
 90
        0
176
     1
290
     0
176
     1
290
     1
176
     1
290
     1
176
     1
290
     0
176
     1
290
     0
176
     1
290
     0
176
     1
290
     0
176
     1
290
     0
176
     1
290
     0
176
     1
 90
       50
176
     1
 40
0.0
176
     1
 40
1.0
176
     1
 90
        0
176
     1
 62
    18
420
        0
176
     1
 90
       50
176
     1
 90
        3
176
     1
 62
     5
420
      255
176
     1
290
     0
176
     1
 90
       50
176
     1
 90
       50
176
     1
 90
       50
176
     1
290
     0
176
     1
 90
       50
176
     1
 62
   256
176
     0
 40
1.0
176
     0
 90
        2
176
     1
  1
strokes_ogs.tif
176
     1
290
     0
176
     1
 40
1.0
176
     1
 40
1.0
176
     1
  0
VISUALSTYLE
  5
2D
102
{ACAD_REACTORS
330
2A
102
}
330
2A
100
AcDbVisualStyle
  2
Gouraud
 70
     2
177
     3
291
     1
 70
    58
 90
        2
176
     1
 90
        2
176
     1
 90
        1
176
     1
 90
        2
176
     1
 40
-0.6
176
     1
 40
30.0
176
     1
 62
     7
420
 16777215
176
     1
 90
        0
176
     1
 90
        4
176
     1
 62
     7
176
     1
 62
   257
176
     1
 90
        1
176
     1
 90
        1
176
     1
 40
1.0
176
     1
 90
        0
176
     1
 62
     7
176
     1
 40
1.0
176
     1
 90
        1
176
     1
 90
        6
176
     1
 90
        2
176
     1
 62
     7
176
     1
 90
        5
176
     1
 90
        0
176
     1
 90
        0
176
     1
290
     0
176
     1
 90
       13
176
     1
 40
0.0
176
     1
 90
        0
176
     1
290
     0
176
     1
290
     1
176
     1
290
     1
176
     1
290
     0
176
     1
290
     0
176
     1
290
     0
176
     1
290
     0
176
     1
290
     0
176
     1
290
     0
176
     1
 90
       50
176
     1
 40
0.0
176
     1
 40
1.0
176
     1
 90
        0
176
     1
 62
    18
420
        0
176
     1
 90
       50
176
     1
 90
        3
176
     1
 62
     5
420
      255
176
     1
290
     0
176
     1
 90
       50
176
     1
 90
       50
176
     1
 90
       50
176
     1
290
     0
176
     1
 90
       50
176
     1
 62
   256
176
     0
 40
1.0
176
     0
 90
        2
176
     1
  1
strokes_ogs.tif
176
     1
290
     0
176
     1
 40
1.0
176
     1
 40
1.0
176
     1
  0
VISUALSTYLE
  5
2E
102
{ACAD_REACTORS
330
2A
102
}
330
2A
100
AcDbVisualStyle
  2
GouraudWithEdges
 70
     3
177
     3
291
     1
 70
    58
 90
        2
176
     1
 90
        2
176
     1
 90
        1
176
     1
 90
        2
176
     1
 40
-0.6
176
     1
 40
30.0
176
     1
 62
     7
420
 16777215
176
     1
 90
        1
176
     1
 90
        4
176
     1
 62
     7
176
     1
 62
   257
176
     1
 90
        1
176
     1
 90
        1
176
     1
 40
1.0
176
     1
 90
        0
176
     1
 62
   257
176
     1
 40
1.0
176
     1
 90
        1
176
     1
 90
        6
176
     1
 90
        2
176
     1
 62
     7
176
     1
 90
        5
176
     1
 90
        0
176
     1
 90
        0
176
     1
290
     0
176
     1
 90
       13
176
     1
 40
0.0
176
     1
 90
        0
176
     1
290
     0
176
     1
290
     1
176
     1
290
     1
176
     1
290
     0
176
     1
290
     0
176
     1
290
     0
176
     1
290
     0
176
     1
290
     0
176
     1
290
     0
176
     1
 90
       50
176
     1
 40
0.0
176
     1
 40
1.0
176
     1
 90
        0
176
     1
 62
    18
420
        0
176
     1
 90
       50
176
     1
 90
        3
176
     1
 62
     5
420
      255
176
     1
290
     0
176
     1
 90
       50
176
     1
 90
       50
176
     1
 90
       50
176
     1
290
     0
176
     1
 90
       50
176
     1
 62
   256
176
     0
 40
1.0
176
     0
 90
        2
176
     1
  1
strokes_ogs.tif
176
     1
290
     0
176
     1
 40
1.0
176
     1
 40
1.0
176
     1
  0
VISUALSTYLE
  5
77
102
{ACAD_REACTORS
330
2A
102
}
330
2A
100
AcDbVisualStyle
  2
Hidden
 70
     6
177
     3
291
     0
 70
    58
 90
        1
176
     1
 90
        2
176
     1
 90
        2
176
     1
 90
        0
176
     1
 40
0.6
176
     1
 40
30.0
176
     1
 62
     7
420
 16777215
176
     1
 90
        2
176
     1
 90
        2
176
     1
 62
     7
176
     1
 62
   257
176
     1
 90
        2
176
     1
 90
        1
176
     1
 40
40.0
176
     1
 90
        0
176
     1
 62
   257
176
     1
 40
1.0
176
     1
 90
        1
176
     1
 90
        6
176
     1
 90
        2
176
     1
 62
     7
176
     1
 90
        3
176
     1
 90
        0
176
     1
 90
        0
176
     1
290
     0
176
     1
 90
        1
176
     1
 40
0.0
176
     1
 90
        0
176
     1
290
     0
176
     1
290
     1
176
     1
290
     1
176
     1
290
     0
176
     1
290
     0
176
     1
290
     0
176
     1
290
     0
176
     1
290
     0
176
     1
290
     0
176
     1
 90
       50
176
     1
 40
0.0
176
     1
 40
1.0
176
     1
 90
        0
176
     1
 62
    18
420
        0
176
     1
 90
       50
176
     1
 90
        3
176
     1
 62
     5
420
      255
176
     1
290
     0
176
     1
 90
       50
176
     1
 90
       50
176
     1
 90
       50
176
     1
290
     0
176
     1
 90
       50
176
     1
 62
   256
176
     0
 40
1.0
176
     0
 90
        2
176
     1
  1
strokes_ogs.tif
176
     1
290
     0
176
     1
 40
1.0
176
     1
 40
1.0
176
     1
  0
VISUALSTYLE
  5
78
102
{ACAD_REACTORS
330
2A
102
}
330
2A
100
AcDbVisualStyle
  2
JitterOff
 70
    20
177
     3
291
     1
 70
    58
 90
        2
176
     0
 90
        2
176
     0
 90
        0
176
     0
 90
        0
176
     0
 40
0.6
176
     0
 40
30.0
176
     0
 62
     7
420
 16777215
176
     0
 90
        1
176
     0
 90
        4
176
     0
 62
     7
176
     0
 62
   257
176
     0
 90
        1
176
     0
 90
        1
176
     0
 40
1.0
176
     0
 90
       10
176
     2
 62
     7
176
     0
 40
1.0
176
     0
 90
        1
176
     0
 90
        6
176
     0
 90
        2
176
     0
 62
     7
176
     0
 90
        5
176
     0
 90
        0
176
     0
 90
        0
176
     0
290
     0
176
     0
 90
        1
176
     0
 40
0.0
176
     0
 90
        0
176
     0
290
     0
176
     0
290
     1
176
     0
290
     1
176
     0
290
     0
176
     0
290
     0
176
     0
290
     0
176
     0
290
     0
176
     0
290
     0
176
     0
290
     0
176
     0
 90
       50
176
     0
 40
0.0
176
     0
 40
1.0
176
     0
 90
        0
176
     0
 62
    18
420
        0
176
     0
 90
       50
176
     0
 90
        3
176
     0
 62
     5
420
      255
176
     0
290
     0
176
     0
 90
       50
176
     0
 90
       50
176
     0
 90
       50
176
     0
290
     0
176
     0
 90
       50
176
     0
 62
   256
176
     0
 40
1.0
176
     0
 90
        2
176
     0
  1
strokes_ogs.tif
176
     0
290
     0
176
     0
 40
1.0
176
     0
 40
1.0
176
     0
  0
VISUALSTYLE
  5
38
102
{ACAD_REACTORS
330
2A
102
}
330
2A
100
AcDbVisualStyle
  2
Linepattern
 70
    14
177
     3
291
     1
 70
    58
 90
        2
176
     1
 90
        2
176
     1
 90
        0
176
     1
 90
        0
176
     1
 40
-0.6
176
     1
 40
-30.0
176
     1
 62
     7
420
 16777215
176
     1
 90
        1
176
     1
 90
        4
176
     1
 62
     7
176
     1
 62
   257
176
     1
 90
        7
176
     1
 90
        7
176
     1
 40
1.0
176
     1
 90
        8
176
     1
 62
     7
176
     1
 40
1.0
176
     1
 90
        1
176
     1
 90
        6
176
     1
 90
        2
176
     1
 62
     7
176
     1
 90
        5
176
     1
 90
        0
176
     1
 90
        0
176
     1
290
     0
176
     1
 90
        1
176
     1
 40
0.0
176
     1
 90
        0
176
     1
290
     0
176
     1
290
     1
176
     1
290
     1
176
     1
290
     0
176
     1
290
     0
176
     1
290
     0
176
     1
290
     0
176
     1
290
     0
176
     1
290
     0
176
     1
 90
       50
176
     1
 40
0.0
176
     1
 40
1.0
176
     1
 90
        0
176
     1
 62
    18
420
        0
176
     1
 90
       50
176
     1
 90
        3
176
     1
 62
     5
420
      255
176
     1
290
     0
176
     1
 90
       50
176
     1
 90
       50
176
     1
 90
       50
176
     1
290
     0
176
     1
 90
       50
176
     1
 62
   256
176
     0
 40
1.0
176
     0
 90
        2
176
     1
  1
strokes_ogs.tif
176
     1
290
     0
176
     1
 40
1.0
176
     1
 40
1.0
176
     1
  0
VISUALSTYLE
  5
79
102
{ACAD_REACTORS
330
2A
102
}
330
2A
100
AcDbVisualStyle
  2
OverhangOff
 70
    21
177
     3
291
     1
 70
    58
 90
        2
176
     0
 90
        2
176
     0
 90
        0
176
     0
 90
        0
176
     0
 40
0.6
176
     0
 40
30.0
176
     0
 62
     7
420
 16777215
176
     0
 90
        1
176
     0
 90
        4
176
     0
 62
     7
176
     0
 62
   257
176
     0
 90
        1
176
     0
 90
        1
176
     0
 40
1.0
176
     0
 90
        9
176
     2
 62
     7
176
     0
 40
1.0
176
     0
 90
        1
176
     0
 90
        6
176
     0
 90
        2
176
     0
 62
     7
176
     0
 90
        5
176
     0
 90
        0
176
     0
 90
        0
176
     0
290
     0
176
     0
 90
        1
176
     0
 40
0.0
176
     0
 90
        0
176
     0
290
     0
176
     0
290
     1
176
     0
290
     1
176
     0
290
     0
176
     0
290
     0
176
     0
290
     0
176
     0
290
     0
176
     0
290
     0
176
     0
290
     0
176
     0
 90
       50
176
     0
 40
0.0
176
     0
 40
1.0
176
     0
 90
        0
176
     0
 62
    18
420
        0
176
     0
 90
       50
176
     0
 90
        3
176
     0
 62
     5
420
      255
176
     0
290
     0
176
     0
 90
       50
176
     0
 90
       50
176
     0
 90
       50
176
     0
290
     0
176
     0
 90
       50
176
     0
 62
   256
176
     0
 40
1.0
176
     0
 90
        2
176
     0
  1
strokes_ogs.tif
176
     0
290
     0
176
     0
 40
1.0
176
     0
 40
1.0
176
     0
  0
VISUALSTYLE
  5
33
102
{ACAD_REACTORS
330
2A
102
}
330
2A
100
AcDbVisualStyle
  2
Realistic
 70
     8
177
     3
291
     0
 70
    58
 90
        2
176
     1
 90
        2
176
     1
 90
        0
176
     1
 90
        0
176
     1
 40
-0.6
176
     1
 40
-30.0
176
     1
 62
     7
420
 16777215
176
     1
 90
        1
176
     1
 90
        0
176
     1
 62
     7
176
     1
 62
   257
176
     1
 90
        1
176
     1
 90
        1
176
     1
 40
1.0
176
     1
 90
        8
176
     1
 62
     8
420
  7895160
176
     1
 40
1.0
176
     1
 90
        1
176
     1
 90
        6
176
     1
 90
        2
176
     1
 62
     7
176
     1
 90
        5
176
     1
 90
        0
176
     1
 90
        0
176
     1
290
     0
176
     1
 90
       13
176
     1
 40
0.0
176
     1
 90
        0
176
     1
290
     0
176
     1
290
     1
176
     1
290
     1
176
     1
290
     0
176
     1
290
     0
176
     1
290
     0
176
     1
290
     0
176
     1
290
     0
176
     1
290
     0
176
     1
 90
       50
176
     1
 40
0.0
176
     1
 40
1.0
176
     1
 90
        0
176
     1
 62
    18
420
        0
176
     1
 90
       50
176
     1
 90
        3
176
     1
 62
     5
420
      255
176
     1
290
     0
176
     1
 90
       50
176
     1
 90
       50
176
     1
 90
       50
176
     1
290
     0
176
     1
 90
       50
176
     1
 62
   256
176
     0
 40
1.0
176
     0
 90
        2
176
     1
  1
strokes_ogs.tif
176
     1
290
     0
176
     1
 40
1.0
176
     1
 40
1.0
176
     1
  0
VISUALSTYLE
  5
7F
102
{ACAD_REACTORS
330
2A
102
}
330
2A
100
AcDbVisualStyle
  2
Shaded
 70
    27
177
     3
291
     0
 70
    58
 90
        2
176
     1
 90
        2
176
     1
 90
        1
176
     1
 90
        2
176
     1
 40
0.6
176
     1
 40
30.0
176
     1
 62
     7
420
 16777215
176
     1
 90
        0
176
     1
 90
        4
176
     1
 62
     7
176
     1
 62
   257
176
     1
 90
        1
176
     1
 90
        1
176
     1
 40
1.0
176
     1
 90
        8
176
     1
 62
   257
176
     1
 40
1.0
176
     1
 90
        1
176
     1
 90
        6
176
     1
 90
        2
176
     1
 62
     8
420
  7895160
176
     1
 90
        3
176
     1
 90
        0
176
     1
 90
        0
176
     1
290
     0
176
     1
 90
        5
176
     1
 40
0.0
176
     1
 90
        0
176
     1
290
     0
176
     1
290
     1
176
     1
290
     1
176
     1
290
     0
176
     1
290
     0
176
     1
290
     0
176
     1
290
     0
176
     1
290
     0
176
     1
290
     0
176
     1
 90
       50
176
     1
 40
0.0
176
     1
 40
1.0
176
     1
 90
        0
176
     1
 62
    18
420
        0
176
     1
 90
       50
176
     1
 90
        3
176
     1
 62
     5
420
      255
176
     1
290
     0
176
     1
 90
       50
176
     1
 90
       50
176
     1
 90
       50
176
     1
290
     0
176
     1
 90
       50
176
     1
 62
   256
176
     0
 40
1.0
176
     0
 90
        2
176
     1
  1
strokes_ogs.tif
176
     1
290
     0
176
     1
 40
1.0
176
     1
 40
1.0
176
     1
  0
VISUALSTYLE
  5
7E
102
{ACAD_REACTORS
330
2A
102
}
330
2A
100
AcDbVisualStyle
  2
Shaded with edges
 70
    26
177
     3
291
     0
 70
    58
 90
        2
176
     1
 90
        2
176
     1
 90
        1
176
     1
 90
        2
176
     1
 40
0.6
176
     1
 40
30.0
176
     1
 62
     7
420
 16777215
176
     1
 90
        1
176
     1
 90
       10
176
     1
 62
     7
176
     1
 62
   257
176
     1
 90
        2
176
     1
 90
        1
176
     1
 40
1.0
176
     1
 90
        8
176
     1
 62
   257
176
     1
 40
1.0
176
     1
 90
        1
176
     1
 90
        6
176
     1
 90
        2
176
     1
 62
     7
176
     1
 90
        3
176
     1
 90
        0
176
     1
 90
        0
176
     1
290
     0
176
     1
 90
        5
176
     1
 40
0.0
176
     1
 90
        0
176
     1
290
     0
176
     1
290
     1
176
     1
290
     1
176
     1
290
     0
176
     1
290
     0
176
     1
290
     0
176
     1
290
     0
176
     1
290
     0
176
     1
290
     0
176
     1
 90
       50
176
     1
 40
0.0
176
     1
 40
1.0
176
     1
 90
        0
176
     1
 62
    18
420
        0
176
     1
 90
       50
176
     1
 90
        3
176
     1
 62
     5
420
      255
176
     1
290
     0
176
     1
 90
       50
176
     1
 90
       50
176
     1
 90
       50
176
     1
290
     0
176
     1
 90
       50
176
     1
 62
   256
176
     0
 40
1.0
176
     0
 90
        2
176
     1
  1
strokes_ogs.tif
176
     1
290
     0
176
     1
 40
1.0
176
     1
 40
1.0
176
     1
  0
VISUALSTYLE
  5
7B
102
{ACAD_REACTORS
330
2A
102
}
330
2A
100
AcDbVisualStyle
  2
Shades of Gray
 70
    23
177
     3
291
     0
 70
    58
 90
        2
176
     1
 90
        2
176
     1
 90
        3
176
     1
 90
        0
176
     1
 40
0.6
176
     1
 40
30.0
176
     1
 62
     7
420
 16777215
176
     1
 90
        2
176
     1
 90
        2
176
     1
 62
     7
176
     1
 62
     7
176
     1
 90
        1
176
     1
 90
        1
176
     1
 40
40.0
176
     1
 90
        8
176
     1
 62
     7
176
     1
 40
1.0
176
     1
 90
        1
176
     1
 90
        6
176
     1
 90
        2
176
     1
 62
     7
176
     1
 90
        3
176
     1
 90
        0
176
     1
 90
        0
176
     1
290
     0
176
     1
 90
        1
176
     1
 40
0.0
176
     1
 90
        0
176
     1
290
     0
176
     1
290
     1
176
     1
290
     1
176
     1
290
     0
176
     1
290
     0
176
     1
290
     0
176
     1
290
     0
176
     1
290
     0
176
     1
290
     0
176
     1
 90
       50
176
     1
 40
0.0
176
     1
 40
1.0
176
     1
 90
        0
176
     1
 62
    18
420
        0
176
     1
 90
       50
176
     1
 90
        3
176
     1
 62
     5
420
      255
176
     1
290
     0
176
     1
 90
       50
176
     1
 90
       50
176
     1
 90
       50
176
     1
290
     0
176
     1
 90
       50
176
     1
 62
   256
176
     0
 40
1.0
176
     0
 90
        2
176
     1
  1
strokes_ogs.tif
176
     1
290
     0
176
     1
 40
1.0
176
     1
 40
1.0
176
     1
  0
VISUALSTYLE
  5
7C
102
{ACAD_REACTORS
330
2A
102
}
330
2A
100
AcDbVisualStyle
  2
Sketchy
 70
    24
177
     3
291
     0
 70
    58
 90
        1
176
     1
 90
        2
176
     1
 90
        2
176
     1
 90
        0
176
     1
 40
0.6
176
     1
 40
30.0
176
     1
 62
     7
420
 16777215
176
     1
 90
        2
176
     1
 90
        2
176
     1
 62
     7
176
     1
 62
     7
176
     1
 90
        1
176
     1
 90
        1
176
     1
 40
40.0
176
     1
 90
       11
176
     1
 62
     7
176
     1
 40
1.0
176
     1
 90
        1
176
     1
 90
        6
176
     1
 90
        2
176
     1
 62
     7
176
     1
 90
        6
176
     1
 90
        0
176
     1
 90
        0
176
     1
290
     0
176
     1
 90
        1
176
     1
 40
0.0
176
     1
 90
        0
176
     1
290
     0
176
     1
290
     1
176
     1
290
     1
176
     1
290
     0
176
     1
290
     0
176
     1
290
     0
176
     1
290
     0
176
     1
290
     0
176
     1
290
     0
176
     1
 90
       50
176
     1
 40
0.0
176
     1
 40
1.0
176
     1
 90
        0
176
     1
 62
    18
420
        0
176
     1
 90
       50
176
     1
 90
        3
176
     1
 62
     5
420
      255
176
     1
290
     0
176
     1
 90
       50
176
     1
 90
       50
176
     1
 90
       50
176
     1
290
     0
176
     1
 90
       50
176
     1
 62
   256
176
     0
 40
1.0
176
     0
 90
        2
176
     1
  1
strokes_ogs.tif
176
     1
290
     0
176
     1
 40
1.0
176
     1
 40
1.0
176
     1
  0
VISUALSTYLE
  5
37
102
{ACAD_REACTORS
330
2A
102
}
330
2A
100
AcDbVisualStyle
  2
Thicken
 70
    13
177
     3
291
     1
 70
    58
 90
        2
176
     1
 90
        2
176
     1
 90
        0
176
     1
 90
        0
176
     1
 40
-0.6
176
     1
 40
-30.0
176
     1
 62
     7
420
 16777215
176
     1
 90
        1
176
     1
 90
        4
176
     1
 62
     7
176
     1
 62
   257
176
     1
 90
        1
176
     1
 90
        1
176
     1
 40
1.0
176
     1
 90
       12
176
     1
 62
     7
176
     1
 40
1.0
176
     1
 90
        1
176
     1
 90
        6
176
     1
 90
        2
176
     1
 62
     7
176
     1
 90
        5
176
     1
 90
        0
176
     1
 90
        0
176
     1
290
     0
176
     1
 90
        1
176
     1
 40
0.0
176
     1
 90
        0
176
     1
290
     0
176
     1
290
     1
176
     1
290
     1
176
     1
290
     0
176
     1
290
     0
176
     1
290
     0
176
     1
290
     0
176
     1
290
     0
176
     1
290
     0
176
     1
 90
       50
176
     1
 40
0.0
176
     1
 40
1.0
176
     1
 90
        0
176
     1
 62
    18
420
        0
176
     1
 90
       50
176
     1
 90
        3
176
     1
 62
     5
420
      255
176
     1
290
     0
176
     1
 90
       50
176
     1
 90
       50
176
     1
 90
       50
176
     1
290
     0
176
     1
 90
       50
176
     1
 62
   256
176
     0
 40
1.0
176
     0
 90
        2
176
     1
  1
strokes_ogs.tif
176
     1
290
     0
176
     1
 40
1.0
176
     1
 40
1.0
176
     1
  0
VISUALSTYLE
  5
76
102
{ACAD_REACTORS
330
2A
102
}
330
2A
100
AcDbVisualStyle
  2
Wireframe
 70
     5
177
     3
291
     0
 70
    58
 90
        0
176
     1
 90
        2
176
     1
 90
        0
176
     1
 90
        0
176
     1
 40
0.6
176
     1
 40
30.0
176
     1
 62
     7
420
 16777215
176
     1
 90
        1
176
     1
 90
        4
176
     1
 62
     7
176
     1
 62
   257
176
     1
 90
        1
176
     1
 90
        1
176
     1
 40
1.0
176
     1
 90
        0
176
     1
 62
   257
176
     1
 40
1.0
176
     1
 90
        1
176
     1
 90
        6
176
     1
 90
        2
176
     1
 62
     7
176
     1
 90
        3
176
     1
 90
        0
176
     1
 90
        0
176
     1
290
     0
176
     1
 90
        1
176
     1
 40
0.0
176
     1
 90
        0
176
     1
290
     0
176
     1
290
     1
176
     1
290
     1
176
     1
290
     0
176
     1
290
     0
176
     1
290
     0
176
     1
290
     0
176
     1
290
     0
176
     1
290
     0
176
     1
 90
       50
176
     1
 40
0.0
176
     1
 40
1.0
176
     1
 90
        0
176
     1
 62
    18
420
        0
176
     1
 90
       50
176
     1
 90
        3
176
     1
 62
     5
420
      255
176
     1
290
     0
176
     1
 90
       50
176
     1
 90
       50
176
     1
 90
       50
176
     1
290
     0
176
     1
 90
       50
176
     1
 62
   256
176
     0
 40
1.0
176
     0
 90
        2
176
     1
  1
strokes_ogs.tif
176
     1
290
     0
176
     1
 40
1.0
176
     1
 40
1.0
176
     1
  0
VISUALSTYLE
  5
7D
102
{ACAD_REACTORS
330
2A
102
}
330
2A
100
AcDbVisualStyle
  2
X-Ray
 70
    25
177
     3
291
     0
 70
    58
 90
        2
176
     1
 90
        2
176
     1
 90
        1
176
     1
 90
        1
176
     1
 40
0.5
176
     1
 40
30.0
176
     1
 62
     7
420
 16777215
176
     1
 90
        1
176
     1
 90
        0
176
     1
 62
     7
176
     1
 62
   257
176
     1
 90
        1
176
     1
 90
        1
176
     1
 40
1.0
176
     1
 90
        8
176
     1
 62
     7
176
     1
 40
1.0
176
     1
 90
        1
176
     1
 90
        6
176
     1
 90
        2
176
     1
 62
     7
176
     1
 90
        3
176
     1
 90
        0
176
     1
 90
        0
176
     1
290
     0
176
     1
 90
       13
176
     1
 40
0.0
176
     1
 90
        0
176
     1
290
     0
176
     1
290
     1
176
     1
290
     1
176
     1
290
     0
176
     1
290
     0
176
     1
290
     0
176
     1
290
     0
176
     1
290
     0
176
     1
290
     0
176
     1
 90
       50
176
     1
 40
0.0
176
     1
 40
1.0
176
     1
 90
        0
176
     1
 62
    18
420
        0
176
     1
 90
       50
176
     1
 90
        3
176
     1
 62
     5
420
      255
176
     1
290
     0
176
     1
 90
       50
176
     1
 90
       50
176
     1
 90
       50
176
     1
290
     0
176
     1
 90
       50
176
     1
 62
   256
176
     0
 40
1.0
176
     0
 90
        2
176
     1
  1
strokes_ogs.tif
176
     1
290
     0
176
     1
 40
1.0
176
     1
 40
1.0
176
     1
  0
DICTIONARYVAR
  5
62
102
{ACAD_REACTORS
330
3D
102
}
330
3D
100
DictionaryVariables
280
     0
  1
1:1
  0
DICTIONARYVAR
  5
BB
102
{ACAD_REACTORS
330
3D
102
}
330
3D
100
DictionaryVariables
280
     0
  1
Standard
  0
DICTIONARYVAR
  5
3E
102
{ACAD_REACTORS
330
3D
102
}
330
3D
100
DictionaryVariables
280
     0
  1
Standard
  0
DICTIONARYVAR
  5
6F
102
{ACAD_REACTORS
330
3D
102
}
330
3D
100
DictionaryVariables
280
     0
  1
0
  0
DICTIONARYVAR
  5
70
102
{ACAD_REACTORS
330
3D
102
}
330
3D
100
DictionaryVariables
280
     0
  1
0
  0
DICTIONARY
  5
3FF
330
3C
100
AcDbDictionary
280
     1
281
     1
  3
ACAD_ROUNDTRIP_2008_TABLESTYLE_CELLSTYLEMAP
360
400
  0
CELLSTYLEMAP
  5
400
102
{ACAD_REACTORS
330
3FF
102
}
330
3FF
100
AcDbCellStyleMap
 90
        3
300
CELLSTYLE
  1
TABLEFORMAT_BEGIN
 90
        5
170
     1
 91
        0
 92
    32768
 62
   257
 93
        1
300
CONTENTFORMAT
  1
CONTENTFORMAT_BEGIN
 90
        0
 91
        0
 92
      512
 93
        0
300

 40
0.0
140
1.0
 94
        5
 62
     0
340
11
144
6.0
309
CONTENTFORMAT_END
171
     1
301
MARGIN
  1
CELLMARGIN_BEGIN
 40
1.5
 40
1.5
 40
1.5
 40
1.5
 40
0.18
 40
0.18
309
CELLMARGIN_END
 94
        6
 95
        1
302
GRIDFORMAT
  1
GRIDFORMAT_BEGIN
 90
        0
 91
        1
 62
     0
 92
       -2
340
0
 93
        0
 40
0.045
309
GRIDFORMAT_END
 95
        2
302
GRIDFORMAT
  1
GRIDFORMAT_BEGIN
 90
        0
 91
        1
 62
     0
 92
       -2
340
0
 93
        0
 40
0.045
309
GRIDFORMAT_END
 95
        4
302
GRIDFORMAT
  1
GRIDFORMAT_BEGIN
 90
        0
 91
        1
 62
     0
 92
       -2
340
0
 93
        0
 40
0.045
309
GRIDFORMAT_END
 95
        8
302
GRIDFORMAT
  1
GRIDFORMAT_BEGIN
 90
        0
 91
        1
 62
     0
 92
       -2
340
0
 93
        0
 40
0.045
309
GRIDFORMAT_END
 95
       16
302
GRIDFORMAT
  1
GRIDFORMAT_BEGIN
 90
        0
 91
        1
 62
     0
 92
       -2
340
0
 93
        0
 40
0.045
309
GRIDFORMAT_END
 95
       32
302
GRIDFORMAT
  1
GRIDFORMAT_BEGIN
 90
        0
 91
        1
 62
     0
 92
       -2
340
0
 93
        0
 40
0.045
309
GRIDFORMAT_END
309
TABLEFORMAT_END
  1
CELLSTYLE_BEGIN
 90
        1
 91
        1
300
_TITLE
309
CELLSTYLE_END
300
CELLSTYLE
  1
TABLEFORMAT_BEGIN
 90
        5
170
     1
 91
        0
 92
        0
 62
   257
 93
        1
300
CONTENTFORMAT
  1
CONTENTFORMAT_BEGIN
 90
        0
 91
        0
 92
      512
 93
        0
300

 40
0.0
140
1.0
 94
        5
 62
     0
340
11
144
4.5
309
CONTENTFORMAT_END
171
     1
301
MARGIN
  1
CELLMARGIN_BEGIN
 40
1.5
 40
1.5
 40
1.5
 40
1.5
 40
0.18
 40
0.18
309
CELLMARGIN_END
 94
        6
 95
        1
302
GRIDFORMAT
  1
GRIDFORMAT_BEGIN
 90
        0
 91
        1
 62
     0
 92
       -2
340
0
 93
        0
 40
0.045
309
GRIDFORMAT_END
 95
        2
302
GRIDFORMAT
  1
GRIDFORMAT_BEGIN
 90
        0
 91
        1
 62
     0
 92
       -2
340
0
 93
        0
 40
0.045
309
GRIDFORMAT_END
 95
        4
302
GRIDFORMAT
  1
GRIDFORMAT_BEGIN
 90
        0
 91
        1
 62
     0
 92
       -2
340
0
 93
        0
 40
0.045
309
GRIDFORMAT_END
 95
        8
302
GRIDFORMAT
  1
GRIDFORMAT_BEGIN
 90
        0
 91
        1
 62
     0
 92
       -2
340
0
 93
        0
 40
0.045
309
GRIDFORMAT_END
 95
       16
302
GRIDFORMAT
  1
GRIDFORMAT_BEGIN
 90
        0
 91
        1
 62
     0
 92
       -2
340
0
 93
        0
 40
0.045
309
GRIDFORMAT_END
 95
       32
302
GRIDFORMAT
  1
GRIDFORMAT_BEGIN
 90
        0
 91
        1
 62
     0
 92
       -2
340
0
 93
        0
 40
0.045
309
GRIDFORMAT_END
309
TABLEFORMAT_END
  1
CELLSTYLE_BEGIN
 90
        2
 91
        1
300
_HEADER
309
CELLSTYLE_END
300
CELLSTYLE
  1
TABLEFORMAT_BEGIN
 90
        5
170
     1
 91
        0
 92
        0
 62
   257
 93
        1
300
CONTENTFORMAT
  1
CONTENTFORMAT_BEGIN
 90
        0
 91
        0
 92
      512
 93
        0
300

 40
0.0
140
1.0
 94
        2
 62
     0
340
11
144
4.5
309
CONTENTFORMAT_END
171
     1
301
MARGIN
  1
CELLMARGIN_BEGIN
 40
1.5
 40
1.5
 40
1.5
 40
1.5
 40
0.18
 40
0.18
309
CELLMARGIN_END
 94
        6
 95
        1
302
GRIDFORMAT
  1
GRIDFORMAT_BEGIN
 90
        0
 91
        1
 62
     0
 92
       -2
340
0
 93
        0
 40
0.045
309
GRIDFORMAT_END
 95
        2
302
GRIDFORMAT
  1
GRIDFORMAT_BEGIN
 90
        0
 91
        1
 62
     0
 92
       -2
340
0
 93
        0
 40
0.045
309
GRIDFORMAT_END
 95
        4
302
GRIDFORMAT
  1
GRIDFORMAT_BEGIN
 90
        0
 91
        1
 62
     0
 92
       -2
340
0
 93
        0
 40
0.045
309
GRIDFORMAT_END
 95
        8
302
GRIDFORMAT
  1
GRIDFORMAT_BEGIN
 90
        0
 91
        1
 62
     0
 92
       -2
340
0
 93
        0
 40
0.045
309
GRIDFORMAT_END
 95
       16
302
GRIDFORMAT
  1
GRIDFORMAT_BEGIN
 90
        0
 91
        1
 62
     0
 92
       -2
340
0
 93
        0
 40
0.045
309
GRIDFORMAT_END
 95
       32
302
GRIDFORMAT
  1
GRIDFORMAT_BEGIN
 90
        0
 91
        1
 62
     0
 92
       -2
340
0
 93
        0
 40
0.045
309
GRIDFORMAT_END
309
TABLEFORMAT_END
  1
CELLSTYLE_BEGIN
 90
        3
 91
        2
300
_DATA
309
CELLSTYLE_END
  0
ENDSEC
  0
EOF
