  0
SECTION
  2
HEADER
  9
$ACADVER
  1
AC1032
  9
$ACADMAINTVER
 90
       55
  9
$DWGCODEPAGE
  3
ANSI_1252
  9
$LASTSAVEDBY
  1
eac573
  9
$REQUIREDVERSIONS
160
                 0
  9
$INSBASE
 10
0.0
 20
0.0
 30
0.0
  9
$EXTMIN
 10
45.94951194731368
 20
459.8927523102222
 30
0.0
  9
$EXTMAX
 10
56.53096391551907
 20
462.8490264782059
 30
0.0
  9
$LIMMIN
 10
0.0
 20
0.0
  9
$LIMMAX
 10
420.0
 20
297.0
  9
$ORTHOMODE
 70
     0
  9
$REGENMODE
 70
     1
  9
$FILLMODE
 70
     1
  9
$QTEXTMODE
 70
     0
  9
$MIRRTEXT
 70
     0
  9
$LTSCALE
 40
1.0
  9
$ATTMODE
 70
     1
  9
$TEXTSIZE
 40
2.5
  9
$TRACEWID
 40
1.0
  9
$TEXTSTYLE
  7
Standard
  9
$CLAYER
  8
Context 1
  9
$CELTYPE
  6
ByLayer
  9
$CECOLOR
 62
     1
  9
$CELTSCALE
 40
1.0
  9
$DISPSILH
 70
     0
  9
$DIMSCALE
 40
1.0
  9
$DIMASZ
 40
2.5
  9
$DIMEXO
 40
0.625
  9
$DIMDLI
 40
3.75
  9
$DIMRND
 40
0.0
  9
$DIMDLE
 40
0.0
  9
$DIMEXE
 40
1.25
  9
$DIMTP
 40
0.0
  9
$DIMTM
 40
0.0
  9
$DIMTXT
 40
2.5
  9
$DIMCEN
 40
-2.5
  9
$DIMTSZ
 40
0.0
  9
$DIMTOL
 70
     0
  9
$DIMLIM
 70
     0
  9
$DIMTIH
 70
     0
  9
$DIMTOH
 70
     0
  9
$DIMSE1
 70
     0
  9
$DIMSE2
 70
     0
  9
$DIMTAD
 70
     1
  9
$DIMZIN
 70
     8
  9
$DIMBLK
  1

  9
$DIMASO
 70
     1
  9
$DIMSHO
 70
     1
  9
$DIMPOST
  1

  9
$DIMAPOST
  1

  9
$DIMALT
 70
     0
  9
$DIMALTD
 70
     3
  9
$DIMALTF
 40
0.03937007874016
  9
$DIMLFAC
 40
1.0
  9
$DIMTOFL
 70
     1
  9
$DIMTVP
 40
0.0
  9
$DIMTIX
 70
     0
  9
$DIMSOXD
 70
     0
  9
$DIMSAH
 70
     0
  9
$DIMBLK1
  1

  9
$DIMBLK2
  1

  9
$DIMSTYLE
  2
ISO-25
  9
$DIMCLRD
 70
     0
  9
$DIMCLRE
 70
     0
  9
$DIMCLRT
 70
     0
  9
$DIMTFAC
 40
1.0
  9
$DIMGAP
 40
0.625
  9
$DIMJUST
 70
     0
  9
$DIMSD1
 70
     0
  9
$DIMSD2
 70
     0
  9
$DIMTOLJ
 70
     0
  9
$DIMTZIN
 70
     8
  9
$DIMALTZ
 70
     0
  9
$DIMALTTZ
 70
     0
  9
$DIMUPT
 70
     0
  9
$DIMDEC
 70
     2
  9
$DIMTDEC
 70
     2
  9
$DIMALTU
 70
     2
  9
$DIMALTTD
 70
     3
  9
$DIMTXSTY
  7
Standard
  9
$DIMAUNIT
 70
     0
  9
$DIMADEC
 70
     0
  9
$DIMALTRND
 40
0.0
  9
$DIMAZIN
 70
     0
  9
$DIMDSEP
 70
    44
  9
$DIMATFIT
 70
     3
  9
$DIMFRAC
 70
     0
  9
$DIMLDRBLK
  1

  9
$DIMLUNIT
 70
     2
  9
$DIMLWD
 70
    -2
  9
$DIMLWE
 70
    -2
  9
$DIMTMOVE
 70
     0
  9
$DIMFXL
 40
1.0
  9
$DIMFXLON
 70
     0
  9
$DIMJOGANG
 40
0.7853981633974483
  9
$DIMTFILL
 70
     0
  9
$DIMTFILLCLR
 70
     0
  9
$DIMARCSYM
 70
     0
  9
$DIMLTYPE
  6

  9
$DIMLTEX1
  6

  9
$DIMLTEX2
  6

  9
$DIMTXTDIRECTION
 70
     0
  9
$LUNITS
 70
     2
  9
$LUPREC
 70
     3
  9
$SKETCHINC
 40
1.0
  9
$FILLETRAD
 40
10.0
  9
$AUNITS
 70
     0
  9
$AUPREC
 70
     0
  9
$MENU
  1
.
  9
$ELEVATION
 40
0.0
  9
$PELEVATION
 40
0.0
  9
$THICKNESS
 40
0.0
  9
$LIMCHECK
 70
     0
  9
$CHAMFERA
 40
10.0
  9
$CHAMFERB
 40
10.0
  9
$CHAMFERC
 40
20.0
  9
$CHAMFERD
 40
0.0
  9
$SKPOLY
 70
     0
  9
$TDCREATE
 40
2455022.637359514
  9
$TDUCREATE
 40
2455022.637359514
  9
$TDUPDATE
 40
2459661.624885312
  9
$TDUUPDATE
 40
2459661.624885312
  9
$TDINDWG
 40
0.0047528819
  9
$TDUSRTIMER
 40
2458948.64021191
  9
$USRTIMER
 70
     1
  9
$ANGBASE
 50
0.0
  9
$ANGDIR
 70
     0
  9
$PDMODE
 70
     0
  9
$PDSIZE
 40
0.0
  9
$PLINEWID
 40
0.0
  9
$SPLFRAME
 70
     0
  9
$SPLINETYPE
 70
     6
  9
$SPLINESEGS
 70
     8
  9
$HANDSEED
  5
41F
  9
$SURFTAB1
 70
     6
  9
$SURFTAB2
 70
     6
  9
$SURFTYPE
 70
     6
  9
$SURFU
 70
     6
  9
$SURFV
 70
     6
  9
$UCSBASE
  2

  9
$UCSNAME
  2

  9
$UCSORG
 10
0.0
 20
0.0
 30
0.0
  9
$UCSXDIR
 10
1.0
 20
0.0
 30
0.0
  9
$UCSYDIR
 10
0.0
 20
1.0
 30
0.0
  9
$UCSORTHOREF
  2

  9
$UCSORTHOVIEW
 70
     0
  9
$UCSORGTOP
 10
0.0
 20
0.0
 30
0.0
  9
$UCSORGBOTTOM
 10
0.0
 20
0.0
 30
0.0
  9
$UCSORGLEFT
 10
0.0
 20
0.0
 30
0.0
  9
$UCSORGRIGHT
 10
0.0
 20
0.0
 30
0.0
  9
$UCSORGFRONT
 10
0.0
 20
0.0
 30
0.0
  9
$UCSORGBACK
 10
0.0
 20
0.0
 30
0.0
  9
$PUCSBASE
  2

  9
$PUCSNAME
  2

  9
$PUCSORG
 10
0.0
 20
0.0
 30
0.0
  9
$PUCSXDIR
 10
1.0
 20
0.0
 30
0.0
  9
$PUCSYDIR
 10
0.0
 20
1.0
 30
0.0
  9
$PUCSORTHOREF
  2

  9
$PUCSORTHOVIEW
 70
     0
  9
$PUCSORGTOP
 10
0.0
 20
0.0
 30
0.0
  9
$PUCSORGBOTTOM
 10
0.0
 20
0.0
 30
0.0
  9
$PUCSORGLEFT
 10
0.0
 20
0.0
 30
0.0
  9
$PUCSORGRIGHT
 10
0.0
 20
0.0
 30
0.0
  9
$PUCSORGFRONT
 10
0.0
 20
0.0
 30
0.0
  9
$PUCSORGBACK
 10
0.0
 20
0.0
 30
0.0
  9
$USERI1
 70
     0
  9
$USERI2
 70
     0
  9
$USERI3
 70
     0
  9
$USERI4
 70
     0
  9
$USERI5
 70
     0
  9
$USERR1
 40
0.0
  9
$USERR2
 40
0.0
  9
$USERR3
 40
0.0
  9
$USERR4
 40
0.0
  9
$USERR5
 40
0.0
  9
$WORLDVIEW
 70
     1
  9
$SHADEDGE
 70
     3
  9
$SHADEDIF
 70
    70
  9
$TILEMODE
 70
     1
  9
$MAXACTVP
 70
    64
  9
$PINSBASE
 10
0.0
 20
0.0
 30
0.0
  9
$PLIMCHECK
 70
     0
  9
$PEXTMIN
 10
40.5
 20
25.69999999999999
 30
0.0
  9
$PEXTMAX
 10
364.5
 20
231.3
 30
0.0
  9
$PLIMMIN
 10
0.0
 20
0.0
  9
$PLIMMAX
 10
412.5
 20
277.0
  9
$UNITMODE
 70
     0
  9
$VISRETAIN
 70
     1
  9
$PLINEGEN
 70
     0
  9
$PSLTSCALE
 70
     1
  9
$TREEDEPTH
 70
  3020
  9
$CMLSTYLE
  2
Standard
  9
$CMLJUST
 70
     0
  9
$CMLSCALE
 40
20.0
  9
$PROXYGRAPHICS
 70
     1
  9
$MEASUREMENT
 70
     1
  9
$CELWEIGHT
370
    -1
  9
$ENDCAPS
280
     0
  9
$JOINSTYLE
280
     0
  9
$LWDISPLAY
290
     0
  9
$INSUNITS
 70
     4
  9
$HYPERLINKBASE
  1

  9
$STYLESHEET
  1

  9
$XEDIT
290
     1
  9
$CEPSNTYPE
380
     0
  9
$PSTYLEMODE
290
     1
  9
$FINGERPRINTGUID
  2
{EC6BB858-51AA-46EC-B484-6C9CC7AB3E2E}
  9
$VERSIONGUID
  2
{FAEB1C32-E019-11D5-929B-00C0DF256EC4}
  9
$EXTNAMES
290
     1
  9
$PSVPSCALE
 40
0.0
  9
$OLESTARTUP
290
     0
  9
$SORTENTS
280
   127
  9
$INDEXCTL
280
     0
  9
$HIDETEXT
280
     1
  9
$XCLIPFRAME
280
     0
  9
$HALOGAP
280
     0
  9
$OBSCOLOR
 70
   257
  9
$OBSLTYPE
280
     0
  9
$INTERSECTIONDISPLAY
280
     0
  9
$INTERSECTIONCOLOR
 70
   257
  9
$DIMASSOC
280
     2
  9
$PROJECTNAME
  1

  9
$CAMERADISPLAY
290
     0
  9
$LENSLENGTH
 40
50.0
  9
$CAMERAHEIGHT
 40
0.0
  9
$STEPSPERSEC
 40
2.0
  9
$STEPSIZE
 40
6.0
  9
$3DDWFPREC
 40
2.0
  9
$PSOLWIDTH
 40
5.0
  9
$PSOLHEIGHT
 40
80.0
  9
$LOFTANG1
 40
1.570796326794897
  9
$LOFTANG2
 40
1.570796326794897
  9
$LOFTMAG1
 40
0.0
  9
$LOFTMAG2
 40
0.0
  9
$LOFTPARAM
 70
     7
  9
$LOFTNORMALS
280
     1
  9
$LATITUDE
 40
37.795
  9
$LONGITUDE
 40
-122.394
  9
$NORTHDIRECTION
 40
0.0
  9
$TIMEZONE
 70
 -8000
  9
$LIGHTGLYPHDISPLAY
280
     1
  9
$TILEMODELIGHTSYNCH
280
     1
  9
$CMATERIAL
347
73
  9
$SOLIDHIST
280
     1
  9
$SHOWHIST
280
     1
  9
$DWFFRAME
280
     2
  9
$DGNFRAME
280
     2
  9
$REALWORLDSCALE
290
     1
  9
$INTERFERECOLOR
 62
   256
  9
$CSHADOW
280
     0
  9
$SHADOWPLANELOCATION
 40
0.0
  0
ENDSEC
  0
SECTION
  2
CLASSES
  0
CLASS
  1
ACDBDICTIONARYWDFLT
  2
AcDbDictionaryWithDefault
  3
ObjectDBX Classes
 90
        0
 91
        3
280
     0
281
     0
  0
CLASS
  1
VISUALSTYLE
  2
AcDbVisualStyle
  3
ObjectDBX Classes
 90
     4095
 91
        3
280
     0
281
     0
  0
CLASS
  1
TABLESTYLE
  2
AcDbTableStyle
  3
ObjectDBX Classes
 90
     4095
 91
        3
280
     0
281
     0
  0
CLASS
  1
DICTIONARYVAR
  2
AcDbDictionaryVar
  3
ObjectDBX Classes
 90
        0
 91
        3
280
     0
281
     0
  0
CLASS
  1
SCALE
  2
AcDbScale
  3
ObjectDBX Classes
 90
     1153
 91
        3
280
     0
281
     0
  0
CLASS
  1
CELLSTYLEMAP
  2
AcDbCellStyleMap
  3
ObjectDBX Classes
 90
     1152
 91
        3
280
     0
281
     0
  0
CLASS
  1
RASTERVARIABLES
  2
AcDbRasterVariables
  3
ISM
 90
        0
 91
        3
280
     0
281
     0
  0
CLASS
  1
MATERIAL
  2
AcDbMaterial
  3
ObjectDBX Classes
 90
     1153
 91
        3
280
     0
281
     0
  0
CLASS
  1
SUN
  2
AcDbSun
  3
SCENEOE
 90
     1153
 91
        3
280
     0
281
     0
  0
CLASS
  1
MLEADERSTYLE
  2
AcDbMLeaderStyle
  3
ACDB_MLEADERSTYLE_CLASS
 90
     4095
 91
        3
280
     0
281
     0
  0
CLASS
  1
IMAGEDEF
  2
AcDbRasterImageDef
  3
ISM
 90
        0
 91
        3
280
     0
281
     0
  0
CLASS
  1
IMAGE
  2
AcDbRasterImage
  3
ISM
 90
      127
 91
        4
280
     0
281
     1
  0
CLASS
  1
IMAGEDEF_REACTOR
  2
AcDbRasterImageDefReactor
  3
ISM
 90
        1
 91
        3
280
     0
281
     0
  0
CLASS
  1
SORTENTSTABLE
  2
AcDbSortentsTable
  3
ObjectDBX Classes
 90
        0
 91
        3
280
     0
281
     0
  0
ENDSEC
  0
SECTION
  2
TABLES
  0
TABLE
  2
VPORT
  5
8
330
0
100
AcDbSymbolTable
 70
     1
  0
VPORT
  5
29
330
8
100
AcDbSymbolTableRecord
100
AcDbViewportTableRecord
  2
*Active
 70
     0
 10
0.0
 20
0.0
 11
1.0
 21
1.0
 12
185.4271538192671
 22
461.3708893942141
 13
0.0
 23
0.0
 14
10.0
 24
10.0
 15
10.0
 25
10.0
 16
0.0
 26
0.0
 36
1.0
 17
-134.1869158878508
 27
0.0
 37
0.0
 40
4.099190362470838
 41
2.632978723404255
 42
50.0
 43
0.0
 44
0.0
 50
0.0
 51
0.0
 71
    16
 72
  1000
 73
     1
 74
     3
 75
     0
 76
     0
 77
     0
 78
     0
281
     0
 65
     1
110
0.0
120
0.0
130
0.0
111
1.0
121
0.0
131
0.0
112
0.0
122
1.0
132
0.0
 79
     0
146
0.0
348
2F
 60
     3
 61
     5
292
     1
282
     1
141
0.0
142
0.0
 63
   256
361
80
  0
ENDTAB
  0
TABLE
  2
LTYPE
  5
5
330
0
100
AcDbSymbolTable
 70
     2
  0
LTYPE
  5
14
330
5
100
AcDbSymbolTableRecord
100
AcDbLinetypeTableRecord
  2
ByBlock
 70
     0
  3

 72
    65
 73
     0
 40
0.0
  0
LTYPE
  5
15
330
5
100
AcDbSymbolTableRecord
100
AcDbLinetypeTableRecord
  2
ByLayer
 70
     0
  3

 72
    65
 73
     0
 40
0.0
  0
LTYPE
  5
16
330
5
100
AcDbSymbolTableRecord
100
AcDbLinetypeTableRecord
  2
Continuous
 70
     0
  3
Solid line
 72
    65
 73
     0
 40
0.0
  0
LTYPE
  5
102
330
5
100
AcDbSymbolTableRecord
100
AcDbLinetypeTableRecord
  2
DASHDOT
 70
     0
  3
DashDot __  . __  . __  . __  . __  . __  . __ 
 72
    65
 73
     4
 40
25.4
 49
12.7
 74
     0
 49
-6.35
 74
     0
 49
0.0
 74
     0
 49
-6.35
 74
     0
  0
ENDTAB
  0
TABLE
  2
LAYER
  5
2
102
{ACAD_XDICTIONARY
360
D6
102
}
330
0
100
AcDbSymbolTable
 70
    10
  0
LAYER
  5
10
330
2
100
AcDbSymbolTableRecord
100
AcDbLayerTableRecord
  2
0
 70
     0
 62
     7
  6
Continuous
370
    -3
390
F
347
75
348
0
  0
LAYER
  5
C2
330
2
100
AcDbSymbolTableRecord
100
AcDbLayerTableRecord
  2
Context 1
 70
     0
 62
     7
  6
Continuous
370
    -3
390
F
347
75
348
0
1001
AcAecLayerStandard
1000

1000

  0
LAYER
  5
FB
330
2
100
AcDbSymbolTableRecord
100
AcDbLayerTableRecord
  2
Annotatons
 70
     0
 62
     7
  6
Continuous
370
    -3
390
F
347
75
348
0
1001
AcAecLayerStandard
1000

1000

  0
LAYER
  5
FC
330
2
100
AcDbSymbolTableRecord
100
AcDbLayerTableRecord
  2
Evaluation trench (LOE)
 70
     0
 62
     7
  6
Continuous
370
    -3
390
F
347
75
348
0
1001
AcAecLayerStandard
1000

1000

  0
LAYER
  5
FD
330
2
100
AcDbSymbolTableRecord
100
AcDbLayerTableRecord
  2
Drawing point
 70
     0
 62
     7
  6
Continuous
370
    -3
390
F
347
75
348
0
1001
AcAecLayerStandard
1000

1000

  0
LAYER
  5
FE
330
2
100
AcDbSymbolTableRecord
100
AcDbLayerTableRecord
  2
Section point
 70
     0
 62
     7
  6
Continuous
370
    -3
390
F
347
75
348
0
1001
AcAecLayerStandard
1000

1000

  0
LAYER
  5
FF
330
2
100
AcDbSymbolTableRecord
100
AcDbLayerTableRecord
  2
Context 2
 70
     0
 62
     7
  6
Continuous
370
    -3
390
F
347
75
348
0
1001
AcAecLayerStandard
1000

1000

  0
LAYER
  5
100
330
2
100
AcDbSymbolTableRecord
100
AcDbLayerTableRecord
  2
Details
 70
     0
 62
     7
  6
Continuous
370
    -3
390
F
347
75
348
0
1001
AcAecLayerStandard
1000

1000

  0
LAYER
  5
101
330
2
100
AcDbSymbolTableRecord
100
AcDbLayerTableRecord
  2
Co-ord
 70
     0
 62
     7
  6
Continuous
370
    -3
390
F
347
75
348
0
1001
AcAecLayerStandard
1000

1000

  0
LAYER
  5
40A
330
2
100
AcDbSymbolTableRecord
100
AcDbLayerTableRecord
  2
aOD
 70
     0
 62
     7
  6
Continuous
370
    -3
390
F
347
75
348
0
1001
AcAecLayerStandard
1000

1000

  0
ENDTAB
  0
TABLE
  2
STYLE
  5
3
330
0
100
AcDbSymbolTable
 70
     3
  0
STYLE
  5
11
330
3
100
AcDbSymbolTableRecord
100
AcDbTextStyleTableRecord
  2
Standard
 70
     0
 40
0.0
 41
1.0
 50
0.0
 71
     0
 42
2.5
  3
arial.ttf
  4

1001
ACAD
1000
Arial
1071
        0
  0
STYLE
  5
B8
330
3
100
AcDbSymbolTableRecord
100
AcDbTextStyleTableRecord
  2
Annotative
 70
     0
 40
0.0
 41
1.0
 50
0.0
 71
     0
 42
2.5
  3
arial.ttf
  4

1001
ACAD
1000
Arial
1071
        0
1001
AcadAnnotative
1000
AnnotativeData
1002
{
1070
     1
1070
     1
1002
}
  0
STYLE
  5
105
330
3
100
AcDbSymbolTableRecord
100
AcDbTextStyleTableRecord
  2
Text
 70
     0
 40
0.0
 41
1.0
 50
0.0
 71
     0
 42
2.5
  3
ARIALUNI.TTF
  4

1001
ACAD
1000
Arial Unicode MS
1071
        0
  0
ENDTAB
  0
TABLE
  2
VIEW
  5
6
330
0
100
AcDbSymbolTable
 70
     0
  0
ENDTAB
  0
TABLE
  2
UCS
  5
7
330
0
100
AcDbSymbolTable
 70
     0
  0
ENDTAB
  0
TABLE
  2
APPID
  5
9
330
0
100
AcDbSymbolTable
 70
     4
  0
APPID
  5
12
330
9
100
AcDbSymbolTableRecord
100
AcDbRegAppTableRecord
  2
ACAD
 70
     0
  0
APPID
  5
B9
330
9
100
AcDbSymbolTableRecord
100
AcDbRegAppTableRecord
  2
AcadAnnotative
 70
     0
  0
APPID
  5
C4
330
9
100
AcDbSymbolTableRecord
100
AcDbRegAppTableRecord
  2
AcAecLayerStandard
 70
     0
  0
APPID
  5
EB
330
9
100
AcDbSymbolTableRecord
100
AcDbRegAppTableRecord
  2
PLOTTRANSPARENCY
 70
     0
  0
ENDTAB
  0
TABLE
  2
DIMSTYLE
  5
A
330
0
100
AcDbSymbolTable
 70
     2
100
AcDbDimStyleTable
  0
DIMSTYLE
105
27
330
A
100
AcDbSymbolTableRecord
100
AcDbDimStyleTableRecord
  2
ISO-25
 70
     0
 41
2.5
 42
0.625
 43
3.75
 44
1.25
 73
     0
 74
     0
 77
     1
 78
     8
140
2.5
141
-2.5
143
0.03937007874016
147
0.625
171
     3
172
     1
178
     0
271
     2
272
     2
274
     3
278
    44
283
     0
284
     8
340
11
  0
DIMSTYLE
105
BA
330
A
100
AcDbSymbolTableRecord
100
AcDbDimStyleTableRecord
  2
Annotative
 70
     0
 40
0.0
 41
2.5
 42
0.625
 43
3.75
 44
1.25
 73
     0
 74
     0
 77
     1
 78
     8
140
2.5
141
-2.5
143
0.03937007874016
147
0.625
171
     3
172
     1
178
     0
271
     2
272
     2
274
     3
278
    44
283
     0
284
     8
340
11
1001
AcadAnnotative
1000
AnnotativeData
1002
{
1070
     1
1070
     1
1002
}
  0
ENDTAB
  0
TABLE
  2
BLOCK_RECORD
  5
1
330
0
100
AcDbSymbolTable
 70
     1
  0
BLOCK_RECORD
  5
1F
102
{ACAD_XDICTIONARY
360
379
102
}
330
1
100
AcDbSymbolTableRecord
100
AcDbBlockTableRecord
  2
*Model_Space
340
22
 70
     0
280
     1
281
     0
  0
BLOCK_RECORD
  5
1B
330
1
100
AcDbSymbolTableRecord
100
AcDbBlockTableRecord
  2
*Paper_Space
340
1E
 70
     0
280
     1
281
     0
  0
BLOCK_RECORD
  5
23
330
1
100
AcDbSymbolTableRecord
100
AcDbBlockTableRecord
  2
*Paper_Space0
340
26
 70
     0
280
     1
281
     0
  0
ENDTAB
  0
ENDSEC
  0
SECTION
  2
BLOCKS
  0
BLOCK
  5
20
330
1F
100
AcDbEntity
  8
0
100
AcDbBlockBegin
  2
*Model_Space
 70
     0
 10
0.0
 20
0.0
 30
0.0
  3
*Model_Space
  1

  0
ENDBLK
  5
21
330
1F
100
AcDbEntity
  8
0
100
AcDbBlockEnd
  0
BLOCK
  5
1C
330
1B
100
AcDbEntity
 67
     1
  8
0
100
AcDbBlockBegin
  2
*Paper_Space
 70
     0
 10
0.0
 20
0.0
 30
0.0
  3
*Paper_Space
  1

  0
ENDBLK
  5
1D
330
1B
100
AcDbEntity
 67
     1
  8
0
100
AcDbBlockEnd
  0
BLOCK
  5
24
330
23
100
AcDbEntity
  8
0
100
AcDbBlockBegin
  2
*Paper_Space0
 70
     0
 10
0.0
 20
0.0
 30
0.0
  3
*Paper_Space0
  1

  0
ENDBLK
  5
25
330
23
100
AcDbEntity
  8
0
100
AcDbBlockEnd
  0
ENDSEC
  0
SECTION
  2
ENTITIES
  0
IMAGE
  5
BF
330
1F
100
AcDbEntity
  8
0
160
               140
310
8C00000001000000840000000600000005000000F1E9CAEA9E0B4740547DA5B648BE7C400000000000000000C64EE638CD224940547DA5B648BE7C400000000000000000C64EE638CD22494052D5C99C95ED7C400000000000000000F1E9CAEA9E0B474052D5C99C95ED7C400000000000000000F1E9CAEA9E0B4740547DA5
310
B648BE7C400000000000000000
100
AcDbRasterImage
 90
        0
 10
46.09078726680662
 20
459.8927523102222
 30
0.0
 11
0.0008429638346118143
 21
0.0
 31
0.0
 12
0.0
 22
0.0008429638346118145
 32
0.0
 13
4960.0
 23
3507.0
340
BE
 70
     7
280
     0
281
    50
282
    50
283
     0
360
C0
 71
     1
 91
        2
 14
-0.5
 24
-0.5
 14
4959.5
 24
3506.5
290
     0
  0
LWPOLYLINE
  5
E5
330
1F
100
AcDbEntity
  8
Context 1
 62
     1
100
AcDbPolyline
 90
        4
 70
     0
 43
0.0
 10
46.18127057732247
 20
462.7200705176318
 10
46.4893617061683
 20
462.7507553439704
 10
46.85397784885622
 20
462.760663391326
 10
47.20140198124969
 20
462.7930735431058
  0
LWPOLYLINE
  5
E6
330
1F
100
AcDbEntity
  8
Context 1
 62
     1
100
AcDbPolyline
 90
        7
 70
     0
 43
0.0
 10
47.20894246972706
 20
462.5009633453485
 10
47.10951323290363
 20
462.4877737527086
 10
46.82847345127009
 20
462.4715404079211
 10
46.60932329663888
 20
462.461394567429
 10
46.45984653101257
 20
462.4611290317599
 10
46.28127973835011
 20
462.4388081826771
 10
46.16663174078841
 20
462.4164873335943
  0
LWPOLYLINE
  5
E7
330
1F
100
AcDbEntity
  8
Context 1
 62
     1
100
AcDbPolyline
 90
        6
 70
     0
 43
0.0
 10
46.2642810727492
 20
462.4354987079583
 10
46.3188193481712
 20
462.2683580624084
 10
46.36535414042571
 20
462.1955579834358
 10
46.37918443071762
 20
462.180929791781
 10
46.38716344434757
 20
462.175078515119
 10
46.4395548500282
 20
462.17599128174
  0
LWPOLYLINE
  5
E8
330
1F
100
AcDbEntity
  8
Context 1
 62
     1
100
AcDbPolyline
 90
        5
 70
     0
 43
0.0
 10
47.02444769233168
 20
462.2342535726054
 10
47.05995813405433
 20
462.3042598720015
 10
47.0914102395801
 20
462.3783245075944
 10
47.10561441626916
 20
462.4371703824491
 10
47.12357802274043
 20
462.4896394901359
  0
LWPOLYLINE
  5
E9
330
1F
100
AcDbEntity
  8
Context 1
 62
     1
100
AcDbPolyline
 90
        7
 70
     0
 43
0.0
 10
46.4395548500282
 20
462.17599128174
 10
46.56292898972725
 20
462.1786869188005
 10
46.74266458321441
 20
462.1786869188005
 10
46.90180980217312
 20
462.1925988952834
 10
46.98575567473822
 20
462.2125464293583
 10
47.01484582859742
 20
462.2270915062879
 10
47.02444769233168
 20
462.2342535726054
  0
LWPOLYLINE
  5
F0
330
1F
100
AcDbEntity
  8
Context 1
 62
     1
100
AcDbPolyline
 90
        6
 70
     0
 43
0.0
 10
46.1636793966095
 20
461.7151097742677
 10
46.42366655922176
 20
461.7138415442062
 10
46.77116159607912
 20
461.6998910135295
 10
46.97669413042473
 20
461.6946595645256
 10
47.17200155989931
 20
461.6845137240334
 10
47.22780368260633
 20
461.6718314234182
  0
LWPOLYLINE
  5
F1
330
1F
100
AcDbEntity
  8
Context 1
 62
     1
100
AcDbPolyline
 90
       11
 70
     0
 43
0.0
 10
47.19102251921104
 20
461.6801907787353
 10
47.13014996786904
 20
461.5729094786194
 10
47.08829837583878
 20
461.5133026657278
 10
47.02488687276261
 20
461.4841333743128
 10
46.88918625617963
 20
461.441013552221
 10
46.72938926842771
 20
461.4334041718518
 10
46.53027714876856
 20
461.4536958528362
 10
46.36667547083206
 20
461.5006203651125
 10
46.27663113646392
 20
461.5919329295422
 10
46.23351131437213
 20
461.6718314234182
 10
46.2119695870191
 20
461.7148742123633
  0
LWPOLYLINE
  5
F2
330
1F
100
AcDbEntity
  8
Context 1
 62
     1
100
AcDbPolyline
 90
       12
 70
     0
 43
0.0
 10
47.68323627430814
 20
462.295161437171
 10
48.01196150625496
 20
462.2982051893187
 10
48.17530953817914
 20
462.3022635255155
 10
48.35894925108771
 20
462.3316864629429
 10
48.49021613537559
 20
462.3409667364181
 10
48.64151090879506
 20
462.3403174026266
 10
48.76098832643105
 20
462.3338240647116
 10
48.90495019363479
 20
462.3218950927529
 10
49.03494377494091
 20
462.3298215306374
 10
49.31712496362983
 20
462.320309805176
 10
49.5041888977045
 20
462.2965304915224
 10
49.59750605827517
 20
462.2967294451133
  0
LWPOLYLINE
  5
F3
330
1F
100
AcDbEntity
  8
Context 1
 62
     1
100
AcDbPolyline
 90
       14
 70
     0
 43
0.0
 10
49.34196363380214
 20
462.3171523471033
 10
49.22971934043343
 20
462.2891200647442
 10
49.13206562569614
 20
462.2561460831446
 10
49.02784782958574
 20
462.215329882063
 10
48.94414464552521
 20
462.2013793513862
 10
48.878196682326
 20
462.1950382010786
 10
48.83761332035726
 20
462.2013793513862
 10
48.74867868729293
 20
462.2064819957745
 10
48.63580621181736
 20
462.2293101368819
 10
48.46713161363478
 20
462.2572111982354
 10
48.29304028596286
 20
462.2671737398515
 10
48.14998393502304
 20
462.2813779165406
 10
48.0931672282668
 20
462.2905091729835
 10
48.05464755119901
 20
462.2992657121744
  0
LWPOLYLINE
  5
F4
330
1F
100
AcDbEntity
  8
Context 1
 62
     1
100
AcDbPolyline
 90
        5
 70
     0
 43
0.0
 10
46.17866732485069
 20
461.1671634292704
 10
47.45742468668928
 20
461.1981260772569
 10
48.37701533188555
 20
461.21360740125
 10
48.67582302713093
 20
461.2075025588396
 10
49.0086714929848
 20
461.1804102418515
  0
LWPOLYLINE
  5
F5
330
1F
100
AcDbEntity
  8
Context 1
 62
     1
100
AcDbPolyline
 90
       11
 70
     0
 43
0.0
 10
48.9380935126815
 20
460.8532393701503
 10
48.65819117488439
 20
460.8854405240562
 10
48.41048999099313
 20
460.8780094885394
 10
48.12554307306161
 20
460.8647957759968
 10
47.8308692206876
 20
460.8854405240562
 10
47.61231356437904
 20
460.8756776141129
 10
47.32894341000745
 20
460.8756776141129
 10
46.94549423668179
 20
460.8460076566799
 10
46.63438154971438
 20
460.8341179998532
 10
46.42234933630347
 20
460.8400628282666
 10
46.18738154139663
 20
460.8360763873383
  0
LWPOLYLINE
  5
F6
330
1F
100
AcDbEntity
  8
Context 1
 62
     1
100
AcDbPolyline
 90
       14
 70
     0
 43
0.0
 10
46.37957595828883
 20
460.8393371392639
 10
46.55397929355568
 20
460.7310510853684
 10
46.76402989749546
 20
460.6993453338304
 10
46.96020923513733
 20
460.7052901622437
 10
47.18611271484616
 20
460.7112349906571
 10
47.38427366195916
 20
460.738977523253
 10
47.63197484585042
 20
460.7706832747911
 10
47.95101397070235
 20
460.7647384463776
 10
48.15511819809633
 20
460.754206114632
 10
48.34535270732481
 20
460.7605472649396
 10
48.53083135382258
 20
460.7811560034393
 10
48.59582814447565
 20
460.8065206046698
 10
48.63070447116754
 20
460.8524939444
 10
48.65819117488439
 20
460.8854405240562
  0
LWPOLYLINE
  5
23B
330
1F
100
AcDbEntity
  8
Section point
 62
     5
100
AcDbPolyline
 90
        9
 70
     0
 43
0.0
 10
46.14928727514567
 20
462.5228141662078
 10
46.22928727514559
 20
462.5228141662078
 10
46.18928727514563
 20
462.5228141662078
 10
46.18928727514563
 20
462.4828141662078
 10
46.18928727514563
 20
462.5628141662077
 10
46.18928727514563
 20
462.5228141662078
 10
46.22928727514559
 20
462.5228141662078
 10
46.20928727514561
 20
462.5228141662078
 10
46.20928727514561
 20
462.5228141662078
  0
CIRCLE
  5
23C
330
1F
100
AcDbEntity
  8
Section point
 62
     5
100
AcDbCircle
 10
46.18928727514563
 20
462.5228141662078
 30
0.0
 40
0.0200000000000102
  0
LWPOLYLINE
  5
23D
330
1F
100
AcDbEntity
  8
Section point
 62
     5
100
AcDbPolyline
 90
        9
 70
     0
 43
0.0
 10
47.16726294391781
 20
462.5224973184644
 10
47.24726294391773
 20
462.5224973184644
 10
47.20726294391777
 20
462.5224973184644
 10
47.20726294391777
 20
462.4824973184645
 10
47.20726294391777
 20
462.5624973184644
 10
47.20726294391777
 20
462.5224973184644
 10
47.24726294391773
 20
462.5224973184644
 10
47.22726294391775
 20
462.5224973184644
 10
47.22726294391775
 20
462.5224973184644
  0
CIRCLE
  5
23E
330
1F
100
AcDbEntity
  8
Section point
 62
     5
100
AcDbCircle
 10
47.20726294391777
 20
462.5224973184644
 30
0.0
 40
0.0200000000000102
  0
LWPOLYLINE
  5
23F
330
1F
100
AcDbEntity
  8
Context 2
 62
     1
100
AcDbPolyline
 90
        6
 70
     0
 43
0.0
 10
47.50598393743114
 20
462.5224973184644
 10
47.58598393743107
 20
462.5224973184644
 10
47.5459839374311
 20
462.5224973184644
 10
47.50598393743114
 20
462.4824973184645
 10
47.5459839374311
 20
462.5224973184644
 10
47.58598393743107
 20
462.4824973184645
  0
TEXT
  5
240
330
1F
100
AcDbEntity
  8
Context 2
 62
     1
100
AcDbText
 10
47.49368268196292
 20
462.5276903640125
 30
0.0
 40
0.025
  1
108.67
  7
Text
 72
     1
 11
47.54713359981012
 21
462.5182228722995
 31
0.0
100
AcDbText
 73
     1
  0
TEXT
  5
241
330
1F
100
AcDbEntity
  8
Co-ord
100
AcDbText
 10
47.24726294391773
 20
462.4574973184645
 30
0.0
 40
0.025
  1
N 258909.29
  7
Text
 11
47.24726294391773
 21
462.4824973184645
 31
0.0
100
AcDbText
 73
     3
  0
TEXT
  5
242
330
1F
100
AcDbEntity
  8
Co-ord
100
AcDbText
 10
45.95106980633997
 20
462.4922816579208
 30
0.0
 40
0.025
  1
E 442940.17
  7
Text
 72
     2
 11
46.14928727514567
 21
462.4828141662078
 31
0.0
100
AcDbText
 73
     1
  0
TEXT
  5
243
330
1F
100
AcDbEntity
  8
Co-ord
100
AcDbText
 10
45.94914342175104
 20
462.4578141662078
 30
0.0
 40
0.025
  1
N 258907.30
  7
Text
 72
     2
 11
46.14928727514567
 21
462.4828141662078
 31
0.0
100
AcDbText
 73
     3
  0
TEXT
  5
244
330
1F
100
AcDbEntity
  8
Co-ord
100
AcDbText
 10
47.24726294391773
 20
462.4919648101775
 30
0.0
 40
0.025
  1
E 442940.28
  7
Text
 11
47.24726294391773
 21
462.4824973184645
 31
0.0
100
AcDbText
 73
     1
  0
TEXT
  5
245
330
1F
100
AcDbEntity
  8
Annotatons
 62
     3
100
AcDbText
 10
47.24726294391773
 20
462.5814323018905
 30
0.0
 40
0.05
  1
S
  7
Text
 11
47.24726294391773
 21
462.5624973184644
 31
0.0
100
AcDbText
 73
     1
  0
TEXT
  5
246
330
1F
100
AcDbEntity
  8
Annotatons
 62
     3
100
AcDbText
 10
46.09885102409022
 20
462.5817491496338
 30
0.0
 40
0.05
  1
N
  7
Text
 72
     2
 11
46.14928727514567
 21
462.5628141662077
 31
0.0
100
AcDbText
 73
     1
  0
TEXT
  5
247
330
1F
100
AcDbEntity
  8
Section point
100
AcDbText
 10
46.04239374844192
 20
462.5322816579207
 30
0.0
 40
0.025
  1
sp32.1
  7
Text
 72
     2
 11
46.14731916358406
 21
462.5228141662078
 31
0.0
100
AcDbText
 73
     1
  0
TEXT
  5
248
330
1F
100
AcDbEntity
  8
Section point
100
AcDbText
 10
47.24726294391773
 20
462.5319648101774
 30
0.0
 40
0.025
  1
sp32.2
  7
Text
 11
47.24726294391773
 21
462.5224973184644
 31
0.0
100
AcDbText
 73
     1
  0
LWPOLYLINE
  5
26A
330
1F
100
AcDbEntity
  8
Section point
 62
     5
100
AcDbPolyline
 90
        9
 70
     0
 43
0.0
 10
47.64953396572809
 20
462.4225166827922
 10
47.72953396572802
 20
462.4225166827922
 10
47.68953396572805
 20
462.4225166827922
 10
47.68953396572805
 20
462.3825166827922
 10
47.68953396572805
 20
462.4625166827922
 10
47.68953396572805
 20
462.4225166827922
 10
47.72953396572802
 20
462.4225166827922
 10
47.70953396572803
 20
462.4225166827922
 10
47.70953396572803
 20
462.4225166827922
  0
CIRCLE
  5
26B
330
1F
100
AcDbEntity
  8
Section point
 62
     5
100
AcDbCircle
 10
47.68953396572805
 20
462.4225166827922
 30
0.0
 40
0.0200000000000102
  0
LWPOLYLINE
  5
26C
330
1F
100
AcDbEntity
  8
Section point
 62
     5
100
AcDbPolyline
 90
        9
 70
     0
 43
0.0
 10
49.54010276804294
 20
462.4221998350488
 10
49.62010276804286
 20
462.4221998350488
 10
49.5801027680429
 20
462.4221998350488
 10
49.5801027680429
 20
462.3821998350489
 10
49.5801027680429
 20
462.4621998350488
 10
49.5801027680429
 20
462.4221998350488
 10
49.62010276804286
 20
462.4221998350488
 10
49.60010276804288
 20
462.4221998350488
 10
49.60010276804288
 20
462.4221998350488
  0
CIRCLE
  5
26D
330
1F
100
AcDbEntity
  8
Section point
 62
     5
100
AcDbCircle
 10
49.5801027680429
 20
462.4221998350488
 30
0.0
 40
0.0200000000000102
  0
LWPOLYLINE
  5
26E
330
1F
100
AcDbEntity
  8
Context 2
 62
     1
100
AcDbPolyline
 90
        6
 70
     0
 43
0.0
 10
49.87882376155627
 20
462.4221998350488
 10
49.9588237615562
 20
462.4221998350488
 10
49.91882376155623
 20
462.4221998350488
 10
49.87882376155627
 20
462.3821998350489
 10
49.91882376155623
 20
462.4221998350488
 10
49.9588237615562
 20
462.3821998350489
  0
TEXT
  5
26F
330
1F
100
AcDbEntity
  8
Context 2
 62
     1
100
AcDbText
 10
49.86652250608805
 20
462.4273928805969
 30
0.0
 40
0.025
  1
108.09
  7
Text
 72
     1
 11
49.91997342393525
 21
462.4179253888839
 31
0.0
100
AcDbText
 73
     1
  0
TEXT
  5
270
330
1F
100
AcDbEntity
  8
Co-ord
100
AcDbText
 10
49.62010276804286
 20
462.3571998350489
 30
0.0
 40
0.025
  1
N 258965.42
  7
Text
 11
49.62010276804286
 21
462.3821998350489
 31
0.0
100
AcDbText
 73
     3
  0
TEXT
  5
271
330
1F
100
AcDbEntity
  8
Co-ord
100
AcDbText
 10
47.45131649692239
 20
462.3919841745052
 30
0.0
 40
0.025
  1
E 442878.53
  7
Text
 72
     2
 11
47.64953396572809
 21
462.3825166827922
 31
0.0
100
AcDbText
 73
     1
  0
TEXT
  5
272
330
1F
100
AcDbEntity
  8
Co-ord
100
AcDbText
 10
47.44939011233346
 20
462.3575166827923
 30
0.0
 40
0.025
  1
N 258965.90
  7
Text
 72
     2
 11
47.64953396572809
 21
462.3825166827922
 31
0.0
100
AcDbText
 73
     3
  0
TEXT
  5
273
330
1F
100
AcDbEntity
  8
Co-ord
100
AcDbText
 10
49.62010276804286
 20
462.3916673267619
 30
0.0
 40
0.025
  1
E 442877.27
  7
Text
 11
49.62010276804286
 21
462.3821998350489
 31
0.0
100
AcDbText
 73
     1
  0
TEXT
  5
274
330
1F
100
AcDbEntity
  8
Annotatons
100
AcDbText
 10
49.62010276804286
 20
462.4811348184749
 30
0.0
 40
0.05
  1
E
  7
Text
 11
49.62010276804286
 21
462.4621998350488
 31
0.0
100
AcDbText
 73
     1
  0
TEXT
  5
275
330
1F
100
AcDbEntity
  8
Annotatons
100
AcDbText
 10
47.58358656603456
 20
462.4814516662182
 30
0.0
 40
0.05
  1
W
  7
Text
 72
     2
 11
47.64953396572809
 21
462.4625166827922
 31
0.0
100
AcDbText
 73
     1
  0
TEXT
  5
276
330
1F
100
AcDbEntity
  8
Section point
100
AcDbText
 10
47.54264043902435
 20
462.4319841745052
 30
0.0
 40
0.025
  1
sp36.1
  7
Text
 72
     2
 11
47.64756585416648
 21
462.4225166827922
 31
0.0
100
AcDbText
 73
     1
  0
TEXT
  5
277
330
1F
100
AcDbEntity
  8
Section point
100
AcDbText
 10
49.62010276804286
 20
462.4316673267618
 30
0.0
 40
0.025
  1
sp36.2
  7
Text
 11
49.62010276804286
 21
462.4221998350488
 31
0.0
100
AcDbText
 73
     1
  0
LWPOLYLINE
  5
299
330
1F
100
AcDbEntity
  8
Section point
 62
     5
100
AcDbPolyline
 90
        9
 70
     0
 43
0.0
 10
46.14690382272411
 20
461.7240688446427
 10
46.22690382272403
 20
461.7240688446427
 10
46.18690382272407
 20
461.7240688446427
 10
46.18690382272407
 20
461.6840688446427
 10
46.18690382272407
 20
461.7640688446426
 10
46.18690382272407
 20
461.7240688446427
 10
46.22690382272403
 20
461.7240688446427
 10
46.20690382272405
 20
461.7240688446427
 10
46.20690382272405
 20
461.7240688446427
  0
CIRCLE
  5
29A
330
1F
100
AcDbEntity
  8
Section point
 62
     5
100
AcDbCircle
 10
46.18690382272407
 20
461.7240688446427
 30
0.0
 40
0.0200000000000102
  0
LWPOLYLINE
  5
29B
330
1F
100
AcDbEntity
  8
Section point
 62
     5
100
AcDbPolyline
 90
        9
 70
     0
 43
0.0
 10
47.14820806073029
 20
461.7237519968994
 10
47.22820806073022
 20
461.7237519968994
 10
47.18820806073025
 20
461.7237519968994
 10
47.18820806073025
 20
461.6837519968994
 10
47.18820806073025
 20
461.7637519968994
 10
47.18820806073025
 20
461.7237519968994
 10
47.22820806073022
 20
461.7237519968994
 10
47.20820806073024
 20
461.7237519968994
 10
47.20820806073024
 20
461.7237519968994
  0
CIRCLE
  5
29C
330
1F
100
AcDbEntity
  8
Section point
 62
     5
100
AcDbCircle
 10
47.18820806073025
 20
461.7237519968994
 30
0.0
 40
0.0200000000000102
  0
LWPOLYLINE
  5
29D
330
1F
100
AcDbEntity
  8
Context 2
 62
     1
100
AcDbPolyline
 90
        6
 70
     0
 43
0.0
 10
47.48692905424362
 20
461.7237519968994
 10
47.56692905424355
 20
461.7237519968994
 10
47.52692905424359
 20
461.7237519968994
 10
47.48692905424362
 20
461.6837519968994
 10
47.52692905424359
 20
461.7237519968994
 10
47.56692905424355
 20
461.6837519968994
  0
TEXT
  5
29E
330
1F
100
AcDbEntity
  8
Context 2
 62
     1
100
AcDbText
 10
47.47462779877541
 20
461.7289450424475
 30
0.0
 40
0.025
  1
109.07
  7
Text
 72
     1
 11
47.52807871662261
 21
461.7194775507345
 31
0.0
100
AcDbText
 73
     1
  0
TEXT
  5
29F
330
1F
100
AcDbEntity
  8
Co-ord
100
AcDbText
 10
47.22820806073022
 20
461.6587519968995
 30
0.0
 40
0.025
  1
N 258920.48
  7
Text
 11
47.22820806073022
 21
461.6837519968994
 31
0.0
100
AcDbText
 73
     3
  0
TEXT
  5
2A0
330
1F
100
AcDbEntity
  8
Co-ord
100
AcDbText
 10
45.9486863539184
 20
461.6935363363557
 30
0.0
 40
0.025
  1
E 442944.15
  7
Text
 72
     2
 11
46.14690382272411
 21
461.6840688446427
 31
0.0
100
AcDbText
 73
     1
  0
TEXT
  5
2A1
330
1F
100
AcDbEntity
  8
Co-ord
100
AcDbText
 10
45.94675996932948
 20
461.6590688446427
 30
0.0
 40
0.025
  1
N 258920.20
  7
Text
 72
     2
 11
46.14690382272411
 21
461.6840688446427
 31
0.0
100
AcDbText
 73
     3
  0
TEXT
  5
2A2
330
1F
100
AcDbEntity
  8
Co-ord
100
AcDbText
 10
47.22820806073022
 20
461.6932194886124
 30
0.0
 40
0.025
  1
E 442943.18
  7
Text
 11
47.22820806073022
 21
461.6837519968994
 31
0.0
100
AcDbText
 73
     1
  0
TEXT
  5
2A3
330
1F
100
AcDbEntity
  8
Annotatons
100
AcDbText
 10
47.22820806073022
 20
461.7826869803254
 30
0.0
 40
0.05
  1
NW
  7
Text
 11
47.22820806073022
 21
461.7637519968994
 31
0.0
100
AcDbText
 73
     1
  0
TEXT
  5
2A4
330
1F
100
AcDbEntity
  8
Annotatons
100
AcDbText
 10
46.0537368589689
 20
461.7830038280687
 30
0.0
 40
0.05
  1
SE
  7
Text
 72
     2
 11
46.14690382272411
 21
461.7640688446426
 31
0.0
100
AcDbText
 73
     1
  0
TEXT
  5
2A5
330
1F
100
AcDbEntity
  8
Section point
100
AcDbText
 10
46.04001029602036
 20
461.7335363363557
 30
0.0
 40
0.025
  1
sp35.1
  7
Text
 72
     2
 11
46.1449357111625
 21
461.7240688446427
 31
0.0
100
AcDbText
 73
     1
  0
TEXT
  5
2A6
330
1F
100
AcDbEntity
  8
Section point
100
AcDbText
 10
47.22820806073022
 20
461.7332194886124
 30
0.0
 40
0.025
  1
sp35.2
  7
Text
 11
47.22820806073022
 21
461.7237519968994
 31
0.0
100
AcDbText
 73
     1
  0
LWPOLYLINE
  5
2C8
330
1F
100
AcDbEntity
  8
Section point
 62
     5
100
AcDbPolyline
 90
        9
 70
     0
 43
0.0
 10
46.14789230736074
 20
460.9298617481558
 10
46.22789230736067
 20
460.9298617481558
 10
46.18789230736071
 20
460.9298617481558
 10
46.18789230736071
 20
460.8898617481558
 10
46.18789230736071
 20
460.9698617481557
 10
46.18789230736071
 20
460.9298617481558
 10
46.22789230736067
 20
460.9298617481558
 10
46.20789230736069
 20
460.9298617481558
 10
46.20789230736069
 20
460.9298617481558
  0
CIRCLE
  5
2C9
330
1F
100
AcDbEntity
  8
Section point
 62
     5
100
AcDbCircle
 10
46.18789230736071
 20
460.9298617481558
 30
0.0
 40
0.0200000000000102
  0
LWPOLYLINE
  5
2CA
330
1F
100
AcDbEntity
  8
Section point
 62
     5
100
AcDbPolyline
 90
        9
 70
     0
 43
0.0
 10
48.87438977704424
 20
460.9295449004124
 10
48.95438977704416
 20
460.9295449004124
 10
48.9143897770442
 20
460.9295449004124
 10
48.9143897770442
 20
460.8895449004124
 10
48.9143897770442
 20
460.9695449004124
 10
48.9143897770442
 20
460.9295449004124
 10
48.95438977704416
 20
460.9295449004124
 10
48.93438977704418
 20
460.9295449004124
 10
48.93438977704418
 20
460.9295449004124
  0
CIRCLE
  5
2CB
330
1F
100
AcDbEntity
  8
Section point
 62
     5
100
AcDbCircle
 10
48.9143897770442
 20
460.9295449004124
 30
0.0
 40
0.0200000000000102
  0
LWPOLYLINE
  5
2CC
330
1F
100
AcDbEntity
  8
Context 2
 62
     1
100
AcDbPolyline
 90
        6
 70
     0
 43
0.0
 10
49.21311077055757
 20
460.9295449004124
 10
49.2931107705575
 20
460.9295449004124
 10
49.25311077055753
 20
460.9295449004124
 10
49.21311077055757
 20
460.8895449004124
 10
49.25311077055753
 20
460.9295449004124
 10
49.2931107705575
 20
460.8895449004124
  0
TEXT
  5
2CD
330
1F
100
AcDbEntity
  8
Context 2
 62
     1
100
AcDbText
 10
49.20080951508935
 20
460.9347379459605
 30
0.0
 40
0.025
  1
107.88
  7
Text
 72
     1
 11
49.25426043293655
 21
460.9252704542475
 31
0.0
100
AcDbText
 73
     1
  0
TEXT
  5
2CE
330
1F
100
AcDbEntity
  8
Co-ord
100
AcDbText
 10
48.95438977704416
 20
460.8645449004125
 30
0.0
 40
0.025
  1
N 258967.88
  7
Text
 11
48.95438977704416
 21
460.8895449004124
 31
0.0
100
AcDbText
 73
     3
  0
TEXT
  5
2CF
330
1F
100
AcDbEntity
  8
Co-ord
100
AcDbText
 10
45.94967483855504
 20
460.8993292398688
 30
0.0
 40
0.025
  1
E 442866.26
  7
Text
 72
     2
 11
46.14789230736074
 21
460.8898617481558
 31
0.0
100
AcDbText
 73
     1
  0
TEXT
  5
2D0
330
1F
100
AcDbEntity
  8
Co-ord
100
AcDbText
 10
45.94774845396611
 20
460.8648617481558
 30
0.0
 40
0.025
  1
N 258968.71
  7
Text
 72
     2
 11
46.14789230736074
 21
460.8898617481558
 31
0.0
100
AcDbText
 73
     3
  0
TEXT
  5
2D1
330
1F
100
AcDbEntity
  8
Co-ord
100
AcDbText
 10
48.95438977704416
 20
460.8990123921254
 30
0.0
 40
0.025
  1
E 442868.85
  7
Text
 11
48.95438977704416
 21
460.8895449004124
 31
0.0
100
AcDbText
 73
     1
  0
TEXT
  5
2D2
330
1F
100
AcDbEntity
  8
Annotatons
100
AcDbText
 10
48.95438977704416
 20
460.9884798838384
 30
0.0
 40
0.05
  1
E
  7
Text
 11
48.95438977704416
 21
460.9695449004124
 31
0.0
100
AcDbText
 73
     1
  0
TEXT
  5
2D3
330
1F
100
AcDbEntity
  8
Annotatons
100
AcDbText
 10
46.08194490766721
 20
460.9887967315818
 30
0.0
 40
0.05
  1
W
  7
Text
 72
     2
 11
46.14789230736074
 21
460.9698617481557
 31
0.0
100
AcDbText
 73
     1
  0
TEXT
  5
2D4
330
1F
100
AcDbEntity
  8
Section point
100
AcDbText
 10
46.040998780657
 20
460.9393292398688
 30
0.0
 40
0.025
  1
sp38.1
  7
Text
 72
     2
 11
46.14592419579913
 21
460.9298617481558
 31
0.0
100
AcDbText
 73
     1
  0
TEXT
  5
2D5
330
1F
100
AcDbEntity
  8
Section point
100
AcDbText
 10
48.95438977704416
 20
460.9390123921254
 30
0.0
 40
0.025
  1
sp38.2
  7
Text
 11
48.95438977704416
 21
460.9295449004124
 31
0.0
100
AcDbText
 73
     1
  0
LWPOLYLINE
  5
32D
330
1F
100
AcDbEntity
  8
Context 1
100
AcDbPolyline
 90
        4
 70
     0
 43
0.0
 10
52.05220781036327
 20
462.2503901441699
 10
52.35228224138594
 20
462.2802765347292
 10
52.71689838407386
 20
462.2901845820849
 10
53.0701834791354
 20
462.3225947338647
  0
LWPOLYLINE
  5
32E
330
1F
100
AcDbEntity
  8
Context 1
100
AcDbPolyline
 90
        7
 70
     0
 43
0.0
 10
53.0701834791354
 20
462.0304845361073
 10
52.97243376812126
 20
462.0172949434675
 10
52.69139398648772
 20
462.00106159868
 10
52.47224383185651
 20
461.9909157581878
 10
52.32276706623021
 20
461.9906502225188
 10
52.14420027356774
 20
461.968329373436
 10
52.05220781036327
 20
461.950419336352
  0
LWPOLYLINE
  5
32F
330
1F
100
AcDbEntity
  8
Context 1
100
AcDbPolyline
 90
        6
 70
     0
 43
0.0
 10
52.12720160796683
 20
461.9650198987172
 10
52.18173988338883
 20
461.7978792531673
 10
52.22827467564334
 20
461.7250791741947
 10
52.24210496593525
 20
461.7104509825398
 10
52.2500839795652
 20
461.7045997058779
 10
52.30247538524583
 20
461.7055124724989
  0
LWPOLYLINE
  5
330
330
1F
100
AcDbEntity
  8
Context 1
100
AcDbPolyline
 90
        5
 70
     0
 43
0.0
 10
52.88736822754931
 20
461.7637747633643
 10
52.92287866927196
 20
461.8337810627604
 10
52.95433077479773
 20
461.9078456983533
 10
52.9685349514868
 20
461.966691573208
 10
52.98649855795806
 20
462.0191606808948
  0
LWPOLYLINE
  5
331
330
1F
100
AcDbEntity
  8
Context 1
100
AcDbPolyline
 90
        7
 70
     0
 43
0.0
 10
52.30247538524583
 20
461.7055124724989
 10
52.42584952494488
 20
461.7082081095593
 10
52.60558511843205
 20
461.7082081095593
 10
52.76473033739075
 20
461.7221200860423
 10
52.84867620995585
 20
461.7420676201172
 10
52.87776636381505
 20
461.7566126970468
 10
52.88736822754931
 20
461.7637747633643
  0
LWPOLYLINE
  5
332
330
1F
100
AcDbEntity
  8
Context 1
100
AcDbPolyline
 90
        6
 70
     0
 43
0.0
 10
52.02659993182714
 20
461.2446309650266
 10
52.2865870944394
 20
461.2433627349651
 10
52.63408213129676
 20
461.2294122042883
 10
52.83961466564237
 20
461.2241807552845
 10
53.03492209511694
 20
461.2140349147923
 10
53.09072421782396
 20
461.2013526141771
  0
LWPOLYLINE
  5
333
330
1F
100
AcDbEntity
  8
Context 1
100
AcDbPolyline
 90
       11
 70
     0
 43
0.0
 10
53.05394305442867
 20
461.2097119694942
 10
52.99307050308668
 20
461.1024306693782
 10
52.95121891105641
 20
461.0428238564867
 10
52.88780740798025
 20
461.0136545650716
 10
52.75210679139727
 20
460.9705347429799
 10
52.59230980364534
 20
460.9629253626107
 10
52.39319768398619
 20
460.9832170435951
 10
52.2295960060497
 20
461.0301415558714
 10
52.13955167168155
 20
461.1214541203011
 10
52.09643184958976
 20
461.2013526141771
 10
52.07489012223673
 20
461.2443954031222
  0
LWPOLYLINE
  5
334
330
1F
100
AcDbEntity
  8
Context 1
100
AcDbPolyline
 90
       12
 70
     0
 43
0.0
 10
54.24229178137183
 20
461.9452819234897
 10
54.57101701331865
 20
461.9483256756374
 10
54.73436504524283
 20
461.9523840118343
 10
54.9180047581514
 20
461.9818069492616
 10
55.04927164243928
 20
461.9910872227369
 10
55.20056641585875
 20
461.9904378889454
 10
55.32004383349474
 20
461.9839445510304
 10
55.46400570069848
 20
461.9720155790716
 10
55.5939992820046
 20
461.9799420169562
 10
55.87618047069352
 20
461.9704302914948
 10
56.06324440476819
 20
461.9466509778412
 10
56.15656156533885
 20
461.9468499314321
  0
LWPOLYLINE
  5
335
330
1F
100
AcDbEntity
  8
Context 1
100
AcDbPolyline
 90
       14
 70
     0
 43
0.0
 10
55.90101914086583
 20
461.967272833422
 10
55.78877484749712
 20
461.939240551063
 10
55.69112113275983
 20
461.9062665694634
 10
55.58690333664943
 20
461.8654503683817
 10
55.5032001525889
 20
461.851499837705
 10
55.43725218938969
 20
461.8451586873974
 10
55.39666882742095
 20
461.851499837705
 10
55.30773419435662
 20
461.8566024820933
 10
55.19486171888105
 20
461.8794306232007
 10
55.02618712069847
 20
461.9073316845542
 10
54.85209579302655
 20
461.9172942261703
 10
54.70903944208673
 20
461.9314984028593
 10
54.65222273533049
 20
461.9406296593023
 10
54.6137030582627
 20
461.9493861984931
  0
LWPOLYLINE
  5
336
330
1F
100
AcDbEntity
  8
Context 1
100
AcDbPolyline
 90
        5
 70
     0
 43
0.0
 10
52.05081284257834
 20
460.6969079852233
 10
53.32034522190691
 20
460.7276472680157
 10
54.23993586710318
 20
460.7431285920089
 10
54.53874356234856
 20
460.7370237495984
 10
54.77731031226184
 20
460.7176055257683
  0
LWPOLYLINE
  5
337
330
1F
100
AcDbEntity
  8
Context 1
100
AcDbPolyline
 90
       11
 70
     0
 43
0.0
 10
54.77731031226183
 20
460.3854875393453
 10
54.52111171010202
 20
460.414961714815
 10
54.27341052621076
 20
460.4075306792982
 10
53.98846360827924
 20
460.3943169667557
 10
53.69378975590524
 20
460.414961714815
 10
53.47523409959668
 20
460.4051988048718
 10
53.19186394522508
 20
460.4051988048718
 10
52.80841477189942
 20
460.3755288474388
 10
52.49730208493201
 20
460.363639190612
 10
52.2852698715211
 20
460.3695840190255
 10
52.05081284257834
 20
460.3656062437033
  0
LWPOLYLINE
  5
338
330
1F
100
AcDbEntity
  8
Context 1
100
AcDbPolyline
 90
       14
 70
     0
 43
0.0
 10
52.24249649350646
 20
460.3688583300228
 10
52.41689982877331
 20
460.2605722761273
 10
52.62695043271309
 20
460.2288665245893
 10
52.82312977035497
 20
460.2348113530026
 10
53.04903325006379
 20
460.240756181416
 10
53.24719419717679
 20
460.2684987140119
 10
53.49489538106805
 20
460.3002044655499
 10
53.81393450591998
 20
460.2942596371365
 10
54.01803873331396
 20
460.2837273053909
 10
54.20827324254245
 20
460.2900684556985
 10
54.39375188904022
 20
460.3106771941982
 10
54.45874867969328
 20
460.3360417954287
 10
54.49362500638517
 20
460.3820151351589
 10
54.52111171010202
 20
460.414961714815
  0
LWPOLYLINE
  5
339
330
1F
100
AcDbEntity
  8
Section point
 62
     5
100
AcDbPolyline
 90
        9
 70
     0
 43
0.0
 10
52.0122078103633
 20
462.0523353569666
 10
52.09220781036323
 20
462.0523353569666
 10
52.05220781036326
 20
462.0523353569666
 10
52.05220781036326
 20
462.0123353569667
 10
52.05220781036326
 20
462.0923353569666
 10
52.05220781036326
 20
462.0523353569666
 10
52.09220781036323
 20
462.0523353569666
 10
52.07220781036325
 20
462.0523353569666
 10
52.07220781036325
 20
462.0523353569666
  0
CIRCLE
  5
33A
330
1F
100
AcDbEntity
  8
Section point
 62
     5
100
AcDbCircle
 10
52.05220781036326
 20
462.0523353569666
 30
0.0
 40
0.0200000000000102
  0
LWPOLYLINE
  5
33B
330
1F
100
AcDbEntity
  8
Section point
 62
     5
100
AcDbPolyline
 90
        9
 70
     0
 43
0.0
 10
53.03018347913544
 20
462.0520185092233
 10
53.11018347913537
 20
462.0520185092233
 10
53.0701834791354
 20
462.0520185092233
 10
53.0701834791354
 20
462.0120185092234
 10
53.0701834791354
 20
462.0920185092233
 10
53.0701834791354
 20
462.0520185092233
 10
53.11018347913537
 20
462.0520185092233
 10
53.09018347913538
 20
462.0520185092233
 10
53.09018347913538
 20
462.0520185092233
  0
CIRCLE
  5
33C
330
1F
100
AcDbEntity
  8
Section point
 62
     5
100
AcDbCircle
 10
53.0701834791354
 20
462.0520185092233
 30
0.0
 40
0.0200000000000102
  0
LWPOLYLINE
  5
33D
330
1F
100
AcDbEntity
  8
aOD
 62
     1
100
AcDbPolyline
 90
        6
 70
     0
 43
0.0
 10
53.36890447264877
 20
462.0520185092233
 10
53.4489044726487
 20
462.0520185092233
 10
53.40890447264874
 20
462.0520185092233
 10
53.36890447264877
 20
462.0120185092234
 10
53.40890447264874
 20
462.0520185092233
 10
53.4489044726487
 20
462.0120185092234
  0
TEXT
  5
33E
330
1F
100
AcDbEntity
  8
aOD
 62
     1
100
AcDbText
 10
53.35660321718056
 20
462.0572115547714
 30
0.0
 40
0.025
  1
108.67
  7
Text
 72
     1
 11
53.41005413502776
 21
462.0477440630584
 31
0.0
100
AcDbText
 73
     1
  0
TEXT
  5
33F
330
1F
100
AcDbEntity
  8
Co-ord
100
AcDbText
 10
53.11018347913537
 20
461.9870185092234
 30
0.0
 40
0.025
  1
N 258909.29
  7
Text
 11
53.11018347913537
 21
462.0120185092234
 31
0.0
100
AcDbText
 73
     3
  0
TEXT
  5
340
330
1F
100
AcDbEntity
  8
Co-ord
100
AcDbText
 10
51.8139903415576
 20
462.0218028486797
 30
0.0
 40
0.025
  1
E 442940.17
  7
Text
 72
     2
 11
52.0122078103633
 21
462.0123353569667
 31
0.0
100
AcDbText
 73
     1
  0
TEXT
  5
341
330
1F
100
AcDbEntity
  8
Co-ord
100
AcDbText
 10
51.81206395696867
 20
461.9873353569667
 30
0.0
 40
0.025
  1
N 258907.30
  7
Text
 72
     2
 11
52.0122078103633
 21
462.0123353569667
 31
0.0
100
AcDbText
 73
     3
  0
TEXT
  5
342
330
1F
100
AcDbEntity
  8
Co-ord
100
AcDbText
 10
53.11018347913537
 20
462.0214860009364
 30
0.0
 40
0.025
  1
E 442940.28
  7
Text
 11
53.11018347913537
 21
462.0120185092234
 31
0.0
100
AcDbText
 73
     1
  0
TEXT
  5
343
330
1F
100
AcDbEntity
  8
Annotatons
 62
     3
100
AcDbText
 10
53.11018347913537
 20
462.1109534926493
 30
0.0
 40
0.05
  1
S
  7
Text
 11
53.11018347913537
 21
462.0920185092233
 31
0.0
100
AcDbText
 73
     1
  0
TEXT
  5
344
330
1F
100
AcDbEntity
  8
Annotatons
 62
     3
100
AcDbText
 10
51.96177155930786
 20
462.1112703403927
 30
0.0
 40
0.05
  1
N
  7
Text
 72
     2
 11
52.0122078103633
 21
462.0923353569666
 31
0.0
100
AcDbText
 73
     1
  0
TEXT
  5
345
330
1F
100
AcDbEntity
  8
Section point
100
AcDbText
 10
51.90531428365956
 20
462.0618028486796
 30
0.0
 40
0.025
  1
sp32.1
  7
Text
 72
     2
 11
52.01023969880169
 21
462.0523353569666
 31
0.0
100
AcDbText
 73
     1
  0
TEXT
  5
346
330
1F
100
AcDbEntity
  8
Section point
100
AcDbText
 10
53.11018347913537
 20
462.0614860009363
 30
0.0
 40
0.025
  1
sp32.2
  7
Text
 11
53.11018347913537
 21
462.0520185092233
 31
0.0
100
AcDbText
 73
     1
  0
LWPOLYLINE
  5
347
330
1F
100
AcDbEntity
  8
Section point
 62
     5
100
AcDbPolyline
 90
        9
 70
     0
 43
0.0
 10
54.20858947279178
 20
462.072637169111
 10
54.28858947279171
 20
462.072637169111
 10
54.24858947279174
 20
462.072637169111
 10
54.24858947279174
 20
462.032637169111
 10
54.24858947279174
 20
462.1126371691109
 10
54.24858947279174
 20
462.072637169111
 10
54.28858947279171
 20
462.072637169111
 10
54.26858947279172
 20
462.072637169111
 10
54.26858947279172
 20
462.072637169111
  0
CIRCLE
  5
348
330
1F
100
AcDbEntity
  8
Section point
 62
     5
100
AcDbCircle
 10
54.24858947279174
 20
462.072637169111
 30
0.0
 40
0.0200000000000102
  0
LWPOLYLINE
  5
349
330
1F
100
AcDbEntity
  8
Section point
 62
     5
100
AcDbPolyline
 90
        9
 70
     0
 43
0.0
 10
56.09915827510662
 20
462.0723203213676
 10
56.17915827510655
 20
462.0723203213676
 10
56.13915827510659
 20
462.0723203213676
 10
56.13915827510659
 20
462.0323203213676
 10
56.13915827510659
 20
462.1123203213676
 10
56.13915827510659
 20
462.0723203213676
 10
56.17915827510655
 20
462.0723203213676
 10
56.15915827510657
 20
462.0723203213676
 10
56.15915827510657
 20
462.0723203213676
  0
CIRCLE
  5
34A
330
1F
100
AcDbEntity
  8
Section point
 62
     5
100
AcDbCircle
 10
56.13915827510659
 20
462.0723203213676
 30
0.0
 40
0.0200000000000102
  0
LWPOLYLINE
  5
34B
330
1F
100
AcDbEntity
  8
aOD
 62
     1
100
AcDbPolyline
 90
        6
 70
     0
 43
0.0
 10
56.43787926861996
 20
462.0723203213676
 10
56.51787926861989
 20
462.0723203213676
 10
56.47787926861992
 20
462.0723203213676
 10
56.43787926861996
 20
462.0323203213676
 10
56.47787926861992
 20
462.0723203213676
 10
56.51787926861989
 20
462.0323203213676
  0
TEXT
  5
34C
330
1F
100
AcDbEntity
  8
aOD
 62
     1
100
AcDbText
 10
56.42557801315174
 20
462.0775133669157
 30
0.0
 40
0.025
  1
108.09
  7
Text
 72
     1
 11
56.47902893099894
 21
462.0680458752027
 31
0.0
100
AcDbText
 73
     1
  0
TEXT
  5
34D
330
1F
100
AcDbEntity
  8
Co-ord
100
AcDbText
 10
56.17915827510655
 20
462.0073203213677
 30
0.0
 40
0.025
  1
N 258965.42
  7
Text
 11
56.17915827510655
 21
462.0323203213676
 31
0.0
100
AcDbText
 73
     3
  0
TEXT
  5
34E
330
1F
100
AcDbEntity
  8
Co-ord
100
AcDbText
 10
54.01037200398608
 20
462.042104660824
 30
0.0
 40
0.025
  1
E 442878.53
  7
Text
 72
     2
 11
54.20858947279178
 21
462.032637169111
 31
0.0
100
AcDbText
 73
     1
  0
TEXT
  5
34F
330
1F
100
AcDbEntity
  8
Co-ord
100
AcDbText
 10
54.00844561939715
 20
462.007637169111
 30
0.0
 40
0.025
  1
N 258965.90
  7
Text
 72
     2
 11
54.20858947279178
 21
462.032637169111
 31
0.0
100
AcDbText
 73
     3
  0
TEXT
  5
350
330
1F
100
AcDbEntity
  8
Co-ord
100
AcDbText
 10
56.17915827510655
 20
462.0417878130806
 30
0.0
 40
0.025
  1
E 442877.27
  7
Text
 11
56.17915827510655
 21
462.0323203213676
 31
0.0
100
AcDbText
 73
     1
  0
TEXT
  5
351
330
1F
100
AcDbEntity
  8
Annotatons
100
AcDbText
 10
56.17915827510655
 20
462.1312553047936
 30
0.0
 40
0.05
  1
E
  7
Text
 11
56.17915827510655
 21
462.1123203213676
 31
0.0
100
AcDbText
 73
     1
  0
TEXT
  5
352
330
1F
100
AcDbEntity
  8
Annotatons
100
AcDbText
 10
54.14264207309825
 20
462.131572152537
 30
0.0
 40
0.05
  1
W
  7
Text
 72
     2
 11
54.20858947279178
 21
462.1126371691109
 31
0.0
100
AcDbText
 73
     1
  0
TEXT
  5
353
330
1F
100
AcDbEntity
  8
Section point
100
AcDbText
 10
54.10169594608804
 20
462.082104660824
 30
0.0
 40
0.025
  1
sp36.1
  7
Text
 72
     2
 11
54.20662136123017
 21
462.072637169111
 31
0.0
100
AcDbText
 73
     1
  0
TEXT
  5
354
330
1F
100
AcDbEntity
  8
Section point
100
AcDbText
 10
56.17915827510655
 20
462.0817878130806
 30
0.0
 40
0.025
  1
sp36.2
  7
Text
 11
56.17915827510655
 21
462.0723203213676
 31
0.0
100
AcDbText
 73
     1
  0
LWPOLYLINE
  5
355
330
1F
100
AcDbEntity
  8
Section point
 62
     5
100
AcDbPolyline
 90
        9
 70
     0
 43
0.0
 10
52.00982435794174
 20
461.2535900354015
 10
52.08982435794167
 20
461.2535900354015
 10
52.0498243579417
 20
461.2535900354015
 10
52.0498243579417
 20
461.2135900354016
 10
52.0498243579417
 20
461.2935900354015
 10
52.0498243579417
 20
461.2535900354015
 10
52.08982435794167
 20
461.2535900354015
 10
52.06982435794168
 20
461.2535900354015
 10
52.06982435794168
 20
461.2535900354015
  0
CIRCLE
  5
356
330
1F
100
AcDbEntity
  8
Section point
 62
     5
100
AcDbCircle
 10
52.0498243579417
 20
461.2535900354015
 30
0.0
 40
0.0200000000000102
  0
LWPOLYLINE
  5
357
330
1F
100
AcDbEntity
  8
Section point
 62
     5
100
AcDbPolyline
 90
        9
 70
     0
 43
0.0
 10
53.01112859594792
 20
461.2532731876583
 10
53.09112859594785
 20
461.2532731876583
 10
53.05112859594789
 20
461.2532731876583
 10
53.05112859594789
 20
461.2132731876583
 10
53.05112859594789
 20
461.2932731876583
 10
53.05112859594789
 20
461.2532731876583
 10
53.09112859594785
 20
461.2532731876583
 10
53.07112859594787
 20
461.2532731876583
 10
53.07112859594787
 20
461.2532731876583
  0
CIRCLE
  5
358
330
1F
100
AcDbEntity
  8
Section point
 62
     5
100
AcDbCircle
 10
53.05112859594789
 20
461.2532731876583
 30
0.0
 40
0.0200000000000102
  0
LWPOLYLINE
  5
359
330
1F
100
AcDbEntity
  8
aOD
 62
     1
100
AcDbPolyline
 90
        6
 70
     0
 43
0.0
 10
53.34984958946126
 20
461.2532731876583
 10
53.42984958946118
 20
461.2532731876583
 10
53.38984958946122
 20
461.2532731876583
 10
53.34984958946126
 20
461.2132731876583
 10
53.38984958946122
 20
461.2532731876583
 10
53.42984958946118
 20
461.2132731876583
  0
TEXT
  5
35A
330
1F
100
AcDbEntity
  8
aOD
 62
     1
100
AcDbText
 10
53.33754833399304
 20
461.2584662332064
 30
0.0
 40
0.025
  1
109.07
  7
Text
 72
     1
 11
53.39099925184024
 21
461.2489987414934
 31
0.0
100
AcDbText
 73
     1
  0
TEXT
  5
35B
330
1F
100
AcDbEntity
  8
Co-ord
100
AcDbText
 10
53.09112859594785
 20
461.1882731876584
 30
0.0
 40
0.025
  1
N 258920.48
  7
Text
 11
53.09112859594785
 21
461.2132731876583
 31
0.0
100
AcDbText
 73
     3
  0
TEXT
  5
35C
330
1F
100
AcDbEntity
  8
Co-ord
100
AcDbText
 10
51.81160688913604
 20
461.2230575271146
 30
0.0
 40
0.025
  1
E 442944.15
  7
Text
 72
     2
 11
52.00982435794174
 21
461.2135900354016
 31
0.0
100
AcDbText
 73
     1
  0
TEXT
  5
35D
330
1F
100
AcDbEntity
  8
Co-ord
100
AcDbText
 10
51.80968050454711
 20
461.1885900354016
 30
0.0
 40
0.025
  1
N 258920.20
  7
Text
 72
     2
 11
52.00982435794174
 21
461.2135900354016
 31
0.0
100
AcDbText
 73
     3
  0
TEXT
  5
35E
330
1F
100
AcDbEntity
  8
Co-ord
100
AcDbText
 10
53.09112859594785
 20
461.2227406793713
 30
0.0
 40
0.025
  1
E 442943.18
  7
Text
 11
53.09112859594785
 21
461.2132731876583
 31
0.0
100
AcDbText
 73
     1
  0
TEXT
  5
35F
330
1F
100
AcDbEntity
  8
Annotatons
100
AcDbText
 10
53.09112859594785
 20
461.3122081710843
 30
0.0
 40
0.05
  1
NW
  7
Text
 11
53.09112859594785
 21
461.2932731876583
 31
0.0
100
AcDbText
 73
     1
  0
TEXT
  5
360
330
1F
100
AcDbEntity
  8
Annotatons
100
AcDbText
 10
51.91665739418654
 20
461.3125250188276
 30
0.0
 40
0.05
  1
SE
  7
Text
 72
     2
 11
52.00982435794174
 21
461.2935900354015
 31
0.0
100
AcDbText
 73
     1
  0
TEXT
  5
361
330
1F
100
AcDbEntity
  8
Section point
100
AcDbText
 10
51.902930831238
 20
461.2630575271145
 30
0.0
 40
0.025
  1
sp35.1
  7
Text
 72
     2
 11
52.00785624638013
 21
461.2535900354015
 31
0.0
100
AcDbText
 73
     1
  0
TEXT
  5
362
330
1F
100
AcDbEntity
  8
Section point
100
AcDbText
 10
53.09112859594785
 20
461.2627406793713
 30
0.0
 40
0.025
  1
sp35.2
  7
Text
 11
53.09112859594785
 21
461.2532731876583
 31
0.0
100
AcDbText
 73
     1
  0
LWPOLYLINE
  5
363
330
1F
100
AcDbEntity
  8
Section point
 62
     5
100
AcDbPolyline
 90
        9
 70
     0
 43
0.0
 10
52.01081284257837
 20
460.4593829389146
 10
52.0908128425783
 20
460.4593829389146
 10
52.05081284257834
 20
460.4593829389146
 10
52.05081284257834
 20
460.4193829389147
 10
52.05081284257834
 20
460.4993829389146
 10
52.05081284257834
 20
460.4593829389146
 10
52.0908128425783
 20
460.4593829389146
 10
52.07081284257832
 20
460.4593829389146
 10
52.07081284257832
 20
460.4593829389146
  0
CIRCLE
  5
364
330
1F
100
AcDbEntity
  8
Section point
 62
     5
100
AcDbCircle
 10
52.05081284257834
 20
460.4593829389146
 30
0.0
 40
0.0200000000000102
  0
LWPOLYLINE
  5
365
330
1F
100
AcDbEntity
  8
Section point
 62
     5
100
AcDbPolyline
 90
        9
 70
     0
 43
0.0
 10
54.73731031226187
 20
460.4590660911713
 10
54.8173103122618
 20
460.4590660911713
 10
54.77731031226183
 20
460.4590660911713
 10
54.77731031226183
 20
460.4190660911713
 10
54.77731031226183
 20
460.4990660911712
 10
54.77731031226183
 20
460.4590660911713
 10
54.8173103122618
 20
460.4590660911713
 10
54.79731031226181
 20
460.4590660911713
 10
54.79731031226181
 20
460.4590660911713
  0
CIRCLE
  5
366
330
1F
100
AcDbEntity
  8
Section point
 62
     5
100
AcDbCircle
 10
54.77731031226183
 20
460.4590660911713
 30
0.0
 40
0.0200000000000102
  0
LWPOLYLINE
  5
367
330
1F
100
AcDbEntity
  8
aOD
 62
     1
100
AcDbPolyline
 90
        6
 70
     0
 43
0.0
 10
55.0760313057752
 20
460.4590660911713
 10
55.15603130577513
 20
460.4590660911713
 10
55.11603130577517
 20
460.4590660911713
 10
55.0760313057752
 20
460.4190660911713
 10
55.11603130577517
 20
460.4590660911713
 10
55.15603130577513
 20
460.4190660911713
  0
TEXT
  5
368
330
1F
100
AcDbEntity
  8
aOD
 62
     1
100
AcDbText
 10
55.06373005030699
 20
460.4642591367194
 30
0.0
 40
0.025
  1
107.88
  7
Text
 72
     1
 11
55.11718096815419
 21
460.4547916450064
 31
0.0
100
AcDbText
 73
     1
  0
TEXT
  5
369
330
1F
100
AcDbEntity
  8
Co-ord
100
AcDbText
 10
54.8173103122618
 20
460.3940660911713
 30
0.0
 40
0.025
  1
N 258967.88
  7
Text
 11
54.8173103122618
 21
460.4190660911713
 31
0.0
100
AcDbText
 73
     3
  0
TEXT
  5
36A
330
1F
100
AcDbEntity
  8
Co-ord
100
AcDbText
 10
51.81259537377267
 20
460.4288504306277
 30
0.0
 40
0.025
  1
E 442866.26
  7
Text
 72
     2
 11
52.01081284257837
 21
460.4193829389147
 31
0.0
100
AcDbText
 73
     1
  0
TEXT
  5
36B
330
1F
100
AcDbEntity
  8
Co-ord
100
AcDbText
 10
51.81066898918375
 20
460.3943829389147
 30
0.0
 40
0.025
  1
N 258968.71
  7
Text
 72
     2
 11
52.01081284257837
 21
460.4193829389147
 31
0.0
100
AcDbText
 73
     3
  0
TEXT
  5
36C
330
1F
100
AcDbEntity
  8
Co-ord
100
AcDbText
 10
54.8173103122618
 20
460.4285335828843
 30
0.0
 40
0.025
  1
E 442868.85
  7
Text
 11
54.8173103122618
 21
460.4190660911713
 31
0.0
100
AcDbText
 73
     1
  0
TEXT
  5
36D
330
1F
100
AcDbEntity
  8
Annotatons
100
AcDbText
 10
54.8173103122618
 20
460.5180010745973
 30
0.0
 40
0.05
  1
E
  7
Text
 11
54.8173103122618
 21
460.4990660911712
 31
0.0
100
AcDbText
 73
     1
  0
TEXT
  5
36E
330
1F
100
AcDbEntity
  8
Annotatons
100
AcDbText
 10
51.94486544288485
 20
460.5183179223407
 30
0.0
 40
0.05
  1
W
  7
Text
 72
     2
 11
52.01081284257837
 21
460.4993829389146
 31
0.0
100
AcDbText
 73
     1
  0
TEXT
  5
36F
330
1F
100
AcDbEntity
  8
Section point
100
AcDbText
 10
51.90391931587463
 20
460.4688504306276
 30
0.0
 40
0.025
  1
sp38.1
  7
Text
 72
     2
 11
52.00884473101677
 21
460.4593829389146
 31
0.0
100
AcDbText
 73
     1
  0
TEXT
  5
370
330
1F
100
AcDbEntity
  8
Section point
100
AcDbText
 10
54.8173103122618
 20
460.4685335828843
 30
0.0
 40
0.025
  1
sp38.2
  7
Text
 11
54.8173103122618
 21
460.4590660911713
 31
0.0
100
AcDbText
 73
     1
  0
LWPOLYLINE
  5
378
330
1F
100
AcDbEntity
  8
Details
  6
DASHDOT
 48
0.005
100
AcDbPolyline
 90
        2
 70
     0
 43
0.0
 10
52.05220781036327
 20
461.950419336352
 10
52.05220781036327
 20
462.2503901441699
  0
LINE
  5
37B
330
1F
100
AcDbEntity
  8
Details
  6
DASHDOT
 48
0.005
100
AcDbLine
 10
53.0701834791354
 20
462.3225947338647
 30
0.0
 11
53.0701834791354
 21
462.0304845361073
 31
0.0
  0
LWPOLYLINE
  5
37C
330
1F
100
AcDbEntity
  8
Details
  6
DASHDOT
 48
0.005
100
AcDbPolyline
 90
        2
 70
     0
 43
0.0
 10
52.05081284257834
 20
460.3656062437033
 10
52.05081284257834
 20
460.6969079852233
  0
LWPOLYLINE
  5
37D
330
1F
100
AcDbEntity
  8
Details
  6
DASHDOT
 48
0.005
100
AcDbPolyline
 90
        2
 70
     0
 43
0.0
 10
54.77731031226183
 20
460.3854875393453
 10
54.77731031226184
 20
460.7176055257683
  0
TEXT
  5
393
330
1F
100
AcDbEntity
  8
Annotatons
100
AcDbText
 10
52.99397108604441
 20
461.6376610375991
 30
0.0
 40
0.05
  1
[1307]
  7
Text
 72
     1
 11
53.0911409268675
 21
461.618726054173
 31
0.0
100
AcDbText
 73
     1
  0
TEXT
  5
394
330
1F
100
AcDbEntity
  8
Annotatons
100
AcDbText
 10
52.45572304656455
 20
461.8424322579041
 30
0.0
 40
0.05
  1
(1308)
  7
Text
 72
     1
 11
52.55674565656549
 21
461.8234972744781
 31
0.0
100
AcDbText
 73
     1
  0
LINE
  5
395
330
1F
100
AcDbEntity
  8
Annotatons
100
AcDbLine
 10
53.00609341775849
 20
461.6917384383045
 30
0.0
 11
52.88956803833512
 21
461.7603797294267
 31
0.0
  0
TEXT
  5
3A9
330
1F
100
AcDbEntity
  8
Annotatons
100
AcDbText
 10
52.45254576446556
 20
462.1108941107451
 30
0.0
 40
0.05
  1
(1301)
  7
Text
 72
     1
 11
52.5535683744665
 21
462.091959127319
 31
0.0
100
AcDbText
 73
     1
  0
TEXT
  5
3BF
330
1F
100
AcDbEntity
  8
Annotatons
100
AcDbText
 10
55.73535077704179
 20
461.7483497515681
 30
0.0
 40
0.05
  1
[603]
  7
Text
 72
     1
 11
55.81308164610393
 21
461.729414768142
 31
0.0
100
AcDbText
 73
     1
  0
TEXT
  5
3C0
330
1F
100
AcDbEntity
  8
Annotatons
100
AcDbText
 10
55.33173513471028
 20
461.8960506191046
 30
0.0
 40
0.05
  1
(604)
  7
Text
 72
     1
 11
55.41331877295026
 21
461.8771156356785
 31
0.0
100
AcDbText
 73
     1
  0
LINE
  5
3C1
330
1F
100
AcDbEntity
  8
Annotatons
100
AcDbLine
 10
55.72803413699491
 20
461.8024271522735
 30
0.0
 11
55.61150875757155
 21
461.8710684433957
 31
0.0
  0
TEXT
  5
3D7
330
1F
100
AcDbEntity
  8
Annotatons
100
AcDbText
 10
53.00477786805435
 20
460.8945202296808
 30
0.0
 40
0.05
  1
[1303]
  7
Text
 72
     1
 11
53.10194770887744
 21
460.8755852462548
 31
0.0
100
AcDbText
 73
     1
  0
TEXT
  5
3D8
330
1F
100
AcDbEntity
  8
Annotatons
100
AcDbText
 10
52.46652982857449
 20
461.0992914499859
 30
0.0
 40
0.05
  1
(1304)
  7
Text
 72
     1
 11
52.56755243857543
 21
461.0803564665599
 31
0.0
100
AcDbText
 73
     1
  0
LINE
  5
3D9
330
1F
100
AcDbEntity
  8
Annotatons
100
AcDbLine
 10
53.01690019976842
 20
460.9485976303863
 30
0.0
 11
52.90037482034506
 21
461.0172389215085
 31
0.0
  0
TEXT
  5
3EF
330
1F
100
AcDbEntity
  8
Annotatons
100
AcDbText
 10
54.33095247340838
 20
460.1610361139112
 30
0.0
 40
0.05
  1
[605]
  7
Text
 72
     1
 11
54.40868334247052
 21
460.1421011304852
 31
0.0
100
AcDbText
 73
     1
  0
TEXT
  5
3F0
330
1F
100
AcDbEntity
  8
Annotatons
100
AcDbText
 10
53.03111679258073
 20
460.3072507743444
 30
0.0
 40
0.05
  1
(606)
  7
Text
 72
     1
 11
53.11270043082072
 21
460.2883157909183
 31
0.0
100
AcDbText
 73
     1
  0
LINE
  5
3F1
330
1F
100
AcDbEntity
  8
Annotatons
100
AcDbLine
 10
54.3236358333615
 20
460.2151135146167
 30
0.0
 11
54.20711045393814
 21
460.2837548057389
 31
0.0
  0
TEXT
  5
405
330
1F
100
AcDbEntity
  8
Annotatons
100
AcDbText
 10
53.35775606027942
 20
460.5361308259647
 30
0.0
 40
0.05
  1
(601)
  7
Text
 72
     1
 11
53.4393396985194
 21
460.5171958425387
 31
0.0
100
AcDbText
 73
     1
  0
VIEWPORT
  5
EA
330
1B
100
AcDbEntity
 67
     1
  8
0
100
AcDbViewport
 10
0.0
 20
0.0
 30
0.0
 40
821.0944148936171
 41
311.85
 68
     1
 69
     1
 12
288.0136592783826
 22
81.94005243828954
 13
0.0
 23
0.0
 14
0.5
 24
0.5
 15
0.0
 25
0.0
 16
0.0
 26
0.0
 36
1.0
 17
0.0
 27
0.0
 37
0.0
 42
50.0
 43
0.0
 44
0.0
 45
311.85
 50
0.0
 51
0.0
 72
   100
 90
   557168
  1

281
     0
 71
     1
 74
     0
110
0.0
120
0.0
130
0.0
111
1.0
121
0.0
131
0.0
112
0.0
122
1.0
132
0.0
 79
     0
146
0.0
170
     0
 61
     5
348
2F
292
     1
282
     1
141
0.0
142
0.0
 63
   256
361
EF
  0
VIEWPORT
  5
EC
102
{ACAD_XDICTIONARY
360
ED
102
}
330
1B
100
AcDbEntity
 67
     1
  8
0
100
AcDbViewport
 10
202.5
 20
128.5
 30
0.0
 40
324.0
 41
205.6
 68
     2
 69
     2
 12
45.39409957519018
 22
461.2040688703763
 13
0.0
 23
0.0
 14
0.5
 24
0.5
 15
0.0
 25
0.0
 16
0.0
 26
0.0
 36
1.0
 17
0.0
 27
0.0
 37
0.0
 42
50.0
 43
0.0
 44
0.0
 45
6.314387298379427
 50
0.0
 51
0.0
 72
   100
 90
   557152
  1

281
     0
 71
     1
 74
     0
110
0.0
120
0.0
130
0.0
111
1.0
121
0.0
131
0.0
112
0.0
122
1.0
132
0.0
 79
     0
146
0.0
170
     0
 61
     5
348
2F
292
     1
282
     1
141
0.0
142
0.0
 63
   256
  0
ENDSEC
  0
SECTION
  2
OBJECTS
  0
DICTIONARY
  5
C
330
0
100
AcDbDictionary
281
     1
  3
ACAD_DETAILVIEWSTYLE
350
B5
  3
ACAD_GROUP
350
D
  3
ACAD_IMAGE_DICT
350
BD
  3
ACAD_IMAGE_VARS
350
6A
  3
ACAD_LAYOUT
350
1A
  3
ACAD_MATERIAL
350
72
  3
ACAD_MLEADERSTYLE
350
3F
  3
ACAD_MLINESTYLE
350
17
  3
ACAD_PLOTSETTINGS
350
19
  3
ACAD_PLOTSTYLENAME
350
E
  3
ACAD_SCALELIST
350
40
  3
ACAD_SECTIONVIEWSTYLE
350
B6
  3
ACAD_TABLESTYLE
350
3B
  3
ACAD_VISUALSTYLE
350
2A
  3
ACDB_RECOMPOSE_DATA
350
41E
  3
AcDbVariableDictionary
350
3D
  3
APPDATA
350
71
  0
SUN
  5
80
330
29
100
AcDbSun
 90
        1
290
     0
 63
     7
421
 16777215
 40
1.0
291
     1
 91
  2455826
 92
 54000000
292
     0
 70
     2
 71
   256
280
     1
  0
DICTIONARY
  5
D6
330
2
100
AcDbDictionary
280
     1
281
     1
  3
ACAD_LAYERSTATES
360
D7
  0
DICTIONARY
  5
379
330
1F
100
AcDbDictionary
280
     1
281
     1
  3
ACAD_SORTENTS
360
37A
  0
IMAGEDEF_REACTOR
  5
C0
330
BF
100
AcDbRasterImageDefReactor
 90
        2
330
BF
  0
SUN
  5
EF
330
EA
100
AcDbSun
 90
        1
290
     0
 63
     7
421
 16777215
 40
1.0
291
     1
 91
  2455826
 92
 54000000
292
     0
 70
     2
 71
   256
280
     1
  0
DICTIONARY
  5
ED
330
EC
100
AcDbDictionary
280
     1
281
     1
  3
ASDK_XREC_ANNOTATION_SCALE_INFO
360
EE
  0
DICTIONARY
  5
B5
102
{ACAD_REACTORS
330
C
102
}
330
C
100
AcDbDictionary
281
     1
  0
DICTIONARY
  5
D
102
{ACAD_REACTORS
330
C
102
}
330
C
100
AcDbDictionary
281
     1
  0
DICTIONARY
  5
BD
102
{ACAD_REACTORS
330
C
102
}
330
C
100
AcDbDictionary
281
     1
  3
1C20LADTT_SH_18
350
BE
  0
RASTERVARIABLES
  5
6A
102
{ACAD_REACTORS
330
C
102
}
330
C
100
AcDbRasterVariables
 90
        0
 70
     1
 71
     1
 72
     1
  0
DICTIONARY
  5
1A
102
{ACAD_REACTORS
330
C
102
}
330
C
100
AcDbDictionary
281
     1
  3
Model
350
22
  3
Sheet1
350
1E
  3
Sheet2
350
26
  0
DICTIONARY
  5
72
102
{ACAD_REACTORS
330
C
102
}
330
C
100
AcDbDictionary
281
     1
  3
ByBlock
350
74
  3
ByLayer
350
73
  3
Global
350
75
  0
DICTIONARY
  5
3F
102
{ACAD_REACTORS
330
C
102
}
330
C
100
AcDbDictionary
281
     1
  3
Annotative
350
BC
  3
Standard
350
B7
  0
DICTIONARY
  5
17
102
{ACAD_REACTORS
330
C
102
}
330
C
100
AcDbDictionary
281
     1
  3
Standard
350
18
  0
DICTIONARY
  5
19
102
{ACAD_REACTORS
330
C
102
}
330
C
100
AcDbDictionary
281
     1
  0
ACDBDICTIONARYWDFLT
  5
E
102
{ACAD_REACTORS
330
C
102
}
330
C
100
AcDbDictionary
281
     1
  3
Normal
350
F
100
AcDbDictionaryWithDefault
340
F
  0
DICTIONARY
  5
40
102
{ACAD_REACTORS
330
C
102
}
330
C
100
AcDbDictionary
281
     1
  3
A0
350
41
  3
A1
350
42
  3
A2
350
43
  3
A3
350
44
  3
A4
350
45
  3
A5
350
46
  3
A6
350
47
  3
A7
350
48
  3
A8
350
49
  3
A9
350
4A
  3
B0
350
4B
  3
B1
350
4C
  3
B2
350
4D
  3
B3
350
4E
  3
B4
350
4F
  3
B5
350
50
  3
B6
350
51
  3
B7
350
52
  3
B8
350
53
  3
B9
350
54
  3
C0
350
55
  3
C1
350
56
  3
C2
350
57
  3
C3
350
58
  3
C4
350
59
  3
C5
350
5A
  3
C6
350
5B
  3
C7
350
5C
  3
C8
350
5D
  3
C9
350
5E
  3
D0
350
5F
  3
D1
350
60
  3
D2
350
61
  0
DICTIONARY
  5
B6
102
{ACAD_REACTORS
330
C
102
}
330
C
100
AcDbDictionary
281
     1
  0
DICTIONARY
  5
3B
102
{ACAD_REACTORS
330
C
102
}
330
C
100
AcDbDictionary
281
     1
  3
Standard
350
3C
  0
DICTIONARY
  5
2A
102
{ACAD_REACTORS
330
C
102
}
330
C
100
AcDbDictionary
281
     1
  3
2dWireframe
350
2F
  3
3D Hidden
350
31
  3
3dWireframe
350
30
  3
Basic
350
32
  3
Brighten
350
36
  3
ColorChange
350
3A
  3
Conceptual
350
34
  3
Dim
350
35
  3
EdgeColorOff
350
7A
  3
Facepattern
350
39
  3
Flat
350
2B
  3
FlatWithEdges
350
2C
  3
Gouraud
350
2D
  3
GouraudWithEdges
350
2E
  3
Hidden
350
77
  3
JitterOff
350
78
  3
Linepattern
350
38
  3
OverhangOff
350
79
  3
Realistic
350
33
  3
Shaded
350
7F
  3
Shaded with edges
350
7E
  3
Shades of Gray
350
7B
  3
Sketchy
350
7C
  3
Thicken
350
37
  3
Wireframe
350
76
  3
X-Ray
350
7D
  0
XRECORD
  5
41E
102
{ACAD_REACTORS
330
C
102
}
330
C
100
AcDbXrecord
280
     1
 90
        1
330
3C
  0
DICTIONARY
  5
3D
102
{ACAD_REACTORS
330
C
102
}
330
C
100
AcDbDictionary
281
     1
  3
CANNOSCALE
350
62
  3
CMLEADERSTYLE
350
BB
  3
CTABLESTYLE
350
3E
  3
LIGHTSINBLOCKS
350
6F
  3
XCLIPFRAME
350
70
  0
DICTIONARY
  5
71
102
{ACAD_REACTORS
330
C
102
}
330
C
100
AcDbDictionary
281
     1
  0
DICTIONARY
  5
D7
102
{ACAD_REACTORS
330
D6
102
}
330
D6
100
AcDbDictionary
281
     1
  0
SORTENTSTABLE
  5
37A
102
{ACAD_REACTORS
330
379
102
}
330
379
100
AcDbSortentsTable
330
1F
331
0
  5
DF
331
BF
  5
DE
331
E5
  5
E9
331
E6
  5
F0
331
E7
  5
F1
331
E8
  5
F2
331
E9
  5
F3
331
F0
  5
F4
331
F1
  5
F5
331
F2
  5
F6
331
F3
  5
194
331
F4
  5
195
331
F5
  5
196
331
F6
  5
197
331
23B
  5
23F
331
23C
  5
240
331
23D
  5
241
331
23E
  5
242
331
23F
  5
243
331
240
  5
244
331
241
  5
245
331
242
  5
246
331
243
  5
247
331
244
  5
248
331
245
  5
269
331
246
  5
26A
331
247
  5
26B
331
248
  5
26C
331
26A
  5
26E
331
26B
  5
26F
331
26C
  5
270
331
26D
  5
271
331
26E
  5
272
331
26F
  5
273
331
270
  5
274
331
271
  5
275
331
272
  5
276
331
273
  5
277
331
274
  5
298
331
275
  5
299
331
276
  5
29A
331
277
  5
29B
331
299
  5
29D
331
29A
  5
29E
331
29B
  5
29F
331
29C
  5
2A0
331
29D
  5
2A1
331
29E
  5
2A2
331
29F
  5
2A3
331
2A0
  5
2A4
331
2A1
  5
2A5
331
2A2
  5
2A6
331
2A3
  5
2C7
331
2A4
  5
2C8
331
2A5
  5
2C9
331
2A6
  5
2CA
331
2C8
  5
2CC
331
2C9
  5
2CD
331
2CA
  5
2CE
331
2CB
  5
2CF
331
2CC
  5
2D0
331
2CD
  5
2D1
331
2CE
  5
2D2
331
2CF
  5
2D3
331
2D0
  5
2D4
331
2D1
  5
2D5
331
2D2
  5
32C
331
2D3
  5
32D
331
2D4
  5
32E
331
2D5
  5
32F
331
32D
  5
331
331
32E
  5
332
331
32F
  5
333
331
330
  5
334
331
331
  5
335
331
332
  5
336
331
333
  5
337
331
334
  5
338
331
335
  5
339
331
336
  5
33A
331
337
  5
33B
331
338
  5
33C
331
339
  5
33D
331
33A
  5
33E
331
33B
  5
33F
331
33C
  5
340
331
33D
  5
341
331
33E
  5
342
331
33F
  5
343
331
340
  5
344
331
341
  5
345
331
342
  5
346
331
343
  5
347
331
344
  5
348
331
345
  5
349
331
346
  5
34A
331
347
  5
34B
331
348
  5
34C
331
349
  5
34D
331
34A
  5
34E
331
34B
  5
34F
331
34C
  5
350
331
34D
  5
351
331
34E
  5
352
331
34F
  5
353
331
350
  5
354
331
351
  5
355
331
352
  5
356
331
353
  5
357
331
354
  5
358
331
355
  5
359
331
356
  5
35A
331
357
  5
35B
331
358
  5
35C
331
359
  5
35D
331
35A
  5
35E
331
35B
  5
35F
331
35C
  5
360
331
35D
  5
361
331
35E
  5
362
331
35F
  5
363
331
360
  5
364
331
361
  5
365
331
362
  5
366
331
363
  5
367
331
364
  5
368
331
365
  5
369
331
366
  5
36A
331
367
  5
36B
331
368
  5
36C
331
369
  5
36D
331
36A
  5
36E
331
36B
  5
36F
331
36C
  5
370
331
36D
  5
371
331
36E
  5
372
331
36F
  5
373
331
370
  5
374
331
378
  5
DD
331
37B
  5
DB
331
37C
  5
BF
331
37D
  5
DA
  0
XRECORD
  5
EE
102
{ACAD_REACTORS
330
ED
102
}
330
ED
100
AcDbXrecord
280
     1
 90
        1
340
41
  0
IMAGEDEF
  5
BE
102
{ACAD_REACTORS
330
BD
330
C0
102
}
330
BD
100
AcDbRasterImageDef
 90
        0
  1
Z:\HS2\Evaluations\Ladbroke_AC32031\Fieldwork\Evaluation\Draftsight\Scanned_Drawings\1C20LADTT_SH_18.tif
 10
4960.0
 20
3507.0
 11
0.08466683600033867
 21
0.08466683600033867
280
     1
281
     3
  0
LAYOUT
  5
22
102
{ACAD_REACTORS
330
1A
102
}
330
1A
100
AcDbPlotSettings
  1

  2
none_device
  4
ISO_A3_(420.00_x_297.00_MM)
  6

 40
7.5
 41
20.0
 42
7.5
 43
20.0
 44
420.0
 45
297.0
 46
20.78282828282826
 47
0.0
 48
0.0
 49
0.0
140
0.0
141
0.0
142
1.0
143
1.155642023346303
 70
  1204
 72
     1
 73
     0
 74
     1
  7
monochrome.ctb
 75
     0
 76
     0
 77
     2
 78
   300
147
0.8653198653198654
148
-134.1869158878504
149
0.0
100
AcDbLayout
  1
Model
 70
     1
 71
     0
 10
0.0
 20
0.0
 11
420.0
 21
297.0
 12
0.0
 22
0.0
 32
0.0
 14
45.94951194731368
 24
459.8927523102222
 34
0.0
 15
56.53096391551907
 25
462.8490264782059
 35
0.0
146
0.0
 13
0.0
 23
0.0
 33
0.0
 16
1.0
 26
0.0
 36
0.0
 17
0.0
 27
1.0
 37
0.0
 76
     0
330
1F
331
29
  0
LAYOUT
  5
1E
102
{ACAD_REACTORS
330
1A
102
}
330
1A
100
AcDbPlotSettings
  1

  2
none_device
  4
ISO_A3_(420.00_x_297.00_MM)
  6

 40
7.5
 41
20.0
 42
7.5
 43
20.0
 44
420.0
 45
297.0
 46
0.0
 47
0.0
 48
0.0
 49
0.0
140
0.0
141
0.0
142
1.0
143
1.0
 70
   688
 72
     1
 73
     0
 74
     5
  7

 75
    16
 76
     0
 77
     2
 78
   300
147
1.0
148
0.0
149
0.0
100
AcDbLayout
  1
Sheet1
 70
     1
 71
     1
 10
0.0
 20
0.0
 11
412.5
 21
277.0
 12
0.0
 22
0.0
 32
0.0
 14
40.5
 24
25.69999999999999
 34
0.0
 15
364.5
 25
231.3
 35
0.0
146
0.0
 13
0.0
 23
0.0
 33
0.0
 16
1.0
 26
0.0
 36
0.0
 17
0.0
 27
1.0
 37
0.0
 76
     0
330
1B
331
EA
  0
LAYOUT
  5
26
102
{ACAD_REACTORS
330
1A
102
}
330
1A
100
AcDbPlotSettings
  1

  2
none_device
  4

  6

 40
0.0
 41
0.0
 42
0.0
 43
0.0
 44
0.0
 45
0.0
 46
0.0
 47
0.0
 48
0.0
 49
0.0
140
0.0
141
0.0
142
1.0
143
1.0
 70
   688
 72
     0
 73
     0
 74
     5
  7

 75
    16
 76
     0
 77
     2
 78
   300
147
1.0
148
0.0
149
0.0
100
AcDbLayout
  1
Sheet2
 70
     1
 71
     2
 10
0.0
 20
0.0
 11
0.0
 21
0.0
 12
0.0
 22
0.0
 32
0.0
 14
0.0
 24
0.0
 34
0.0
 15
0.0
 25
0.0
 35
0.0
146
0.0
 13
0.0
 23
0.0
 33
0.0
 16
1.0
 26
0.0
 36
0.0
 17
0.0
 27
1.0
 37
0.0
 76
     0
330
23
  0
MATERIAL
  5
74
102
{ACAD_REACTORS
330
72
102
}
330
72
100
AcDbMaterial
  1
ByBlock
 72
     1
 94
      127
  0
MATERIAL
  5
73
102
{ACAD_REACTORS
330
72
102
}
330
72
100
AcDbMaterial
  1
ByLayer
 72
     1
 94
      127
  0
MATERIAL
  5
75
102
{ACAD_REACTORS
330
72
102
}
330
72
100
AcDbMaterial
  1
Global
 72
     1
 94
      127
  0
MLEADERSTYLE
  5
BC
102
{ACAD_REACTORS
330
3F
102
}
330
3F
100
AcDbMLeaderStyle
179
     2
170
     2
171
     1
172
     0
 90
        2
 40
0.0
 41
0.0
173
     1
 91
-1056964608
340
14
 92
       -2
290
     1
 42
2.0
291
     1
 43
8.0
  3
Annotative
341
0
 44
4.0
300

342
11
174
     1
178
     1
175
     1
176
     0
 93
-1056964608
 45
4.0
292
     0
297
     0
 46
4.0
343
0
 94
-1056964608
 47
1.0
 49
1.0
140
1.0
293
     1
141
0.0
294
     1
177
     0
142
1.0
295
     0
296
     1
143
3.75
271
     0
272
     9
273
     9
298
     0
  0
MLEADERSTYLE
  5
B7
102
{ACAD_REACTORS
330
3F
102
}
330
3F
100
AcDbMLeaderStyle
179
     2
170
     2
171
     1
172
     0
 90
        2
 40
0.0
 41
0.0
173
     1
 91
-1056964608
340
14
 92
       -2
290
     1
 42
2.0
291
     1
 43
8.0
  3
Standard
341
0
 44
4.0
300

342
11
174
     1
178
     6
175
     1
176
     0
 93
-1056964608
 45
4.0
292
     0
297
     0
 46
4.0
343
0
 94
-1056964608
 47
1.0
 49
1.0
140
1.0
293
     1
141
0.0
294
     1
177
     0
142
1.0
295
     0
296
     0
143
3.75
271
     0
272
     9
273
     9
298
     0
  0
MLINESTYLE
  5
18
102
{ACAD_REACTORS
330
17
102
}
330
17
100
AcDbMlineStyle
  2
Standard
 70
     0
  3

 62
   256
 51
90.0
 52
90.0
 71
     2
 49
0.5
 62
   256
  6
BYLAYER
 49
-0.5
 62
   256
  6
BYLAYER
  0
ACDBPLACEHOLDER
  5
F
102
{ACAD_REACTORS
330
E
102
}
330
E
  0
SCALE
  5
41
102
{ACAD_REACTORS
330
40
102
}
330
40
100
AcDbScale
 70
     0
300
1:1
140
1.0
141
1.0
290
     1
  0
SCALE
  5
42
102
{ACAD_REACTORS
330
40
102
}
330
40
100
AcDbScale
 70
     0
300
1:2
140
1.0
141
2.0
290
     0
  0
SCALE
  5
43
102
{ACAD_REACTORS
330
40
102
}
330
40
100
AcDbScale
 70
     0
300
1:4
140
1.0
141
4.0
290
     0
  0
SCALE
  5
44
102
{ACAD_REACTORS
330
40
102
}
330
40
100
AcDbScale
 70
     0
300
1:5
140
1.0
141
5.0
290
     0
  0
SCALE
  5
45
102
{ACAD_REACTORS
330
40
102
}
330
40
100
AcDbScale
 70
     0
300
1:8
140
1.0
141
8.0
290
     0
  0
SCALE
  5
46
102
{ACAD_REACTORS
330
40
102
}
330
40
100
AcDbScale
 70
     0
300
1:10
140
1.0
141
10.0
290
     0
  0
SCALE
  5
47
102
{ACAD_REACTORS
330
40
102
}
330
40
100
AcDbScale
 70
     0
300
1:16
140
1.0
141
16.0
290
     0
  0
SCALE
  5
48
102
{ACAD_REACTORS
330
40
102
}
330
40
100
AcDbScale
 70
     0
300
1:20
140
1.0
141
20.0
290
     0
  0
SCALE
  5
49
102
{ACAD_REACTORS
330
40
102
}
330
40
100
AcDbScale
 70
     0
300
1:30
140
1.0
141
30.0
290
     0
  0
SCALE
  5
4A
102
{ACAD_REACTORS
330
40
102
}
330
40
100
AcDbScale
 70
     0
300
1:40
140
1.0
141
40.0
290
     0
  0
SCALE
  5
4B
102
{ACAD_REACTORS
330
40
102
}
330
40
100
AcDbScale
 70
     0
300
1:50
140
1.0
141
50.0
290
     0
  0
SCALE
  5
4C
102
{ACAD_REACTORS
330
40
102
}
330
40
100
AcDbScale
 70
     0
300
1:100
140
1.0
141
100.0
290
     0
  0
SCALE
  5
4D
102
{ACAD_REACTORS
330
40
102
}
330
40
100
AcDbScale
 70
     0
300
2:1
140
2.0
141
1.0
290
     0
  0
SCALE
  5
4E
102
{ACAD_REACTORS
330
40
102
}
330
40
100
AcDbScale
 70
     0
300
4:1
140
4.0
141
1.0
290
     0
  0
SCALE
  5
4F
102
{ACAD_REACTORS
330
40
102
}
330
40
100
AcDbScale
 70
     0
300
8:1
140
8.0
141
1.0
290
     0
  0
SCALE
  5
50
102
{ACAD_REACTORS
330
40
102
}
330
40
100
AcDbScale
 70
     0
300
10:1
140
10.0
141
1.0
290
     0
  0
SCALE
  5
51
102
{ACAD_REACTORS
330
40
102
}
330
40
100
AcDbScale
 70
     0
300
100:1
140
100.0
141
1.0
290
     0
  0
SCALE
  5
52
102
{ACAD_REACTORS
330
40
102
}
330
40
100
AcDbScale
 70
     0
300
1/128" = 1'-0"
140
0.0078125
141
12.0
290
     0
  0
SCALE
  5
53
102
{ACAD_REACTORS
330
40
102
}
330
40
100
AcDbScale
 70
     0
300
1/64" = 1'-0"
140
0.015625
141
12.0
290
     0
  0
SCALE
  5
54
102
{ACAD_REACTORS
330
40
102
}
330
40
100
AcDbScale
 70
     0
300
1/32" = 1'-0"
140
0.03125
141
12.0
290
     0
  0
SCALE
  5
55
102
{ACAD_REACTORS
330
40
102
}
330
40
100
AcDbScale
 70
     0
300
1/16" = 1'-0"
140
0.0625
141
12.0
290
     0
  0
SCALE
  5
56
102
{ACAD_REACTORS
330
40
102
}
330
40
100
AcDbScale
 70
     0
300
3/32" = 1'-0"
140
0.09375
141
12.0
290
     0
  0
SCALE
  5
57
102
{ACAD_REACTORS
330
40
102
}
330
40
100
AcDbScale
 70
     0
300
1/8" = 1'-0"
140
0.125
141
12.0
290
     0
  0
SCALE
  5
58
102
{ACAD_REACTORS
330
40
102
}
330
40
100
AcDbScale
 70
     0
300
3/16" = 1'-0"
140
0.1875
141
12.0
290
     0
  0
SCALE
  5
59
102
{ACAD_REACTORS
330
40
102
}
330
40
100
AcDbScale
 70
     0
300
1/4" = 1'-0"
140
0.25
141
12.0
290
     0
  0
SCALE
  5
5A
102
{ACAD_REACTORS
330
40
102
}
330
40
100
AcDbScale
 70
     0
300
3/8" = 1'-0"
140
0.375
141
12.0
290
     0
  0
SCALE
  5
5B
102
{ACAD_REACTORS
330
40
102
}
330
40
100
AcDbScale
 70
     0
300
1/2" = 1'-0"
140
0.5
141
12.0
290
     0
  0
SCALE
  5
5C
102
{ACAD_REACTORS
330
40
102
}
330
40
100
AcDbScale
 70
     0
300
3/4" = 1'-0"
140
0.75
141
12.0
290
     0
  0
SCALE
  5
5D
102
{ACAD_REACTORS
330
40
102
}
330
40
100
AcDbScale
 70
     0
300
1" = 1'-0"
140
1.0
141
12.0
290
     0
  0
SCALE
  5
5E
102
{ACAD_REACTORS
330
40
102
}
330
40
100
AcDbScale
 70
     0
300
1-1/2" = 1'-0"
140
1.5
141
12.0
290
     0
  0
SCALE
  5
5F
102
{ACAD_REACTORS
330
40
102
}
330
40
100
AcDbScale
 70
     0
300
3" = 1'-0"
140
3.0
141
12.0
290
     0
  0
SCALE
  5
60
102
{ACAD_REACTORS
330
40
102
}
330
40
100
AcDbScale
 70
     0
300
6" = 1'-0"
140
6.0
141
12.0
290
     0
  0
SCALE
  5
61
102
{ACAD_REACTORS
330
40
102
}
330
40
100
AcDbScale
 70
     0
300
1'-0" = 1'-0"
140
12.0
141
12.0
290
     0
  0
TABLESTYLE
  5
3C
102
{ACAD_REACTORS
330
3B
102
}
102
{ACAD_XDICTIONARY
360
41C
102
}
330
3B
100
AcDbTableStyle
  3
Standard
 70
     0
 71
     0
 40
1.5
 41
1.5
280
     0
281
     0
  7
Standard
140
4.5
170
     2
 62
     0
 63
   257
283
     0
 90
      512
 91
        0
  1

274
    -2
284
     1
 64
     0
275
    -2
285
     1
 65
     0
276
    -2
286
     1
 66
     0
277
    -2
287
     1
 67
     0
278
    -2
288
     1
 68
     0
279
    -2
289
     1
 69
     0
  7
Standard
140
6.0
170
     5
 62
     0
 63
   257
283
     0
 90
      512
 91
        0
  1

274
    -2
284
     1
 64
     0
275
    -2
285
     1
 65
     0
276
    -2
286
     1
 66
     0
277
    -2
287
     1
 67
     0
278
    -2
288
     1
 68
     0
279
    -2
289
     1
 69
     0
  7
Standard
140
4.5
170
     5
 62
     0
 63
   257
283
     0
 90
      512
 91
        0
  1

274
    -2
284
     1
 64
     0
275
    -2
285
     1
 65
     0
276
    -2
286
     1
 66
     0
277
    -2
287
     1
 67
     0
278
    -2
288
     1
 68
     0
279
    -2
289
     1
 69
     0
  0
VISUALSTYLE
  5
2F
102
{ACAD_REACTORS
330
2A
102
}
330
2A
100
AcDbVisualStyle
  2
2dWireframe
 70
     4
177
     3
291
     0
 70
    58
 90
        0
176
     1
 90
        2
176
     1
 90
        0
176
     1
 90
        0
176
     1
 40
-0.6
176
     1
 40
-30.0
176
     1
 62
     7
420
 16777215
176
     1
 90
        1
176
     1
 90
        4
176
     1
 62
     7
176
     1
 62
   257
176
     1
 90
        1
176
     1
 90
        1
176
     1
 40
1.0
176
     1
 90
        0
176
     1
 62
   257
176
     1
 40
1.0
176
     1
 90
        1
176
     1
 90
        6
176
     1
 90
        2
176
     1
 62
     7
176
     1
 90
        5
176
     1
 90
        0
176
     1
 90
        0
176
     1
290
     0
176
     1
 90
        1
176
     1
 40
0.0
176
     1
 90
        0
176
     1
290
     1
176
     1
290
     1
176
     1
290
     0
176
     1
290
     0
176
     1
290
     0
176
     1
290
     0
176
     1
290
     0
176
     1
290
     0
176
     1
290
     0
176
     1
 90
       50
176
     1
 40
0.0
176
     1
 40
1.0
176
     1
 90
        0
176
     1
 62
    18
420
        0
176
     1
 90
       50
176
     1
 90
        3
176
     1
 62
     5
420
      255
176
     1
290
     0
176
     1
 90
       50
176
     1
 90
       50
176
     1
 90
       50
176
     1
290
     0
176
     1
 90
       50
176
     1
 62
   256
176
     0
 40
1.0
176
     0
 90
        2
176
     1
  1
strokes_ogs.tif
176
     1
290
     0
176
     1
 40
1.0
176
     1
 40
1.0
176
     1
  0
VISUALSTYLE
  5
31
102
{ACAD_REACTORS
330
2A
102
}
330
2A
100
AcDbVisualStyle
  2
3D Hidden
 70
     6
177
     3
291
     0
 70
    58
 90
        1
176
     1
 90
        2
176
     1
 90
        2
176
     1
 90
        0
176
     1
 40
-0.6
176
     1
 40
-30.0
176
     1
 62
     7
420
 16777215
176
     1
 90
        2
176
     1
 90
        2
176
     1
 62
     7
176
     1
 62
   257
176
     1
 90
        2
176
     1
 90
        1
176
     1
 40
40.0
176
     1
 90
        0
176
     1
 62
   257
176
     1
 40
1.0
176
     1
 90
        1
176
     1
 90
        6
176
     1
 90
        2
176
     1
 62
     7
176
     1
 90
        3
176
     1
 90
        0
176
     1
 90
        0
176
     1
290
     0
176
     1
 90
        1
176
     1
 40
0.0
176
     1
 90
        0
176
     1
290
     0
176
     1
290
     1
176
     1
290
     1
176
     1
290
     0
176
     1
290
     0
176
     1
290
     0
176
     1
290
     0
176
     1
290
     0
176
     1
290
     0
176
     1
 90
       50
176
     1
 40
0.0
176
     1
 40
1.0
176
     1
 90
        0
176
     1
 62
    18
420
        0
176
     1
 90
       50
176
     1
 90
        3
176
     1
 62
     5
420
      255
176
     1
290
     0
176
     1
 90
       50
176
     1
 90
       50
176
     1
 90
       50
176
     1
290
     0
176
     1
 90
       50
176
     1
 62
   256
176
     0
 40
1.0
176
     0
 90
        2
176
     1
  1
strokes_ogs.tif
176
     1
290
     0
176
     1
 40
1.0
176
     1
 40
1.0
176
     1
  0
VISUALSTYLE
  5
30
102
{ACAD_REACTORS
330
2A
102
}
330
2A
100
AcDbVisualStyle
  2
3dWireframe
 70
     5
177
     3
291
     0
 70
    58
 90
        0
176
     1
 90
        2
176
     1
 90
        0
176
     1
 90
        0
176
     1
 40
-0.6
176
     1
 40
-30.0
176
     1
 62
     7
420
 16777215
176
     1
 90
        1
176
     1
 90
        4
176
     1
 62
     7
176
     1
 62
   257
176
     1
 90
        1
176
     1
 90
        1
176
     1
 40
1.0
176
     1
 90
        0
176
     1
 62
   257
176
     1
 40
1.0
176
     1
 90
        1
176
     1
 90
        6
176
     1
 90
        2
176
     1
 62
     7
176
     1
 90
        5
176
     1
 90
        0
176
     1
 90
        0
176
     1
290
     0
176
     1
 90
        1
176
     1
 40
0.0
176
     1
 90
        0
176
     1
290
     0
176
     1
290
     1
176
     1
290
     1
176
     1
290
     0
176
     1
290
     0
176
     1
290
     0
176
     1
290
     0
176
     1
290
     0
176
     1
290
     0
176
     1
 90
       50
176
     1
 40
0.0
176
     1
 40
1.0
176
     1
 90
        0
176
     1
 62
    18
420
        0
176
     1
 90
       50
176
     1
 90
        3
176
     1
 62
     5
420
      255
176
     1
290
     0
176
     1
 90
       50
176
     1
 90
       50
176
     1
 90
       50
176
     1
290
     0
176
     1
 90
       50
176
     1
 62
   256
176
     0
 40
1.0
176
     0
 90
        2
176
     1
  1
strokes_ogs.tif
176
     1
290
     0
176
     1
 40
1.0
176
     1
 40
1.0
176
     1
  0
VISUALSTYLE
  5
32
102
{ACAD_REACTORS
330
2A
102
}
330
2A
100
AcDbVisualStyle
  2
Basic
 70
     7
177
     3
291
     1
 70
    58
 90
        1
176
     1
 90
        0
176
     1
 90
        1
176
     1
 90
        0
176
     1
 40
-0.6
176
     1
 40
-30.0
176
     1
 62
     7
420
 16777215
176
     1
 90
        0
176
     1
 90
        4
176
     1
 62
     7
176
     1
 62
   257
176
     1
 90
        1
176
     1
 90
        1
176
     1
 40
1.0
176
     1
 90
        8
176
     1
 62
     7
176
     1
 40
1.0
176
     1
 90
        1
176
     1
 90
        6
176
     1
 90
        2
176
     1
 62
     7
176
     1
 90
        5
176
     1
 90
        0
176
     1
 90
        0
176
     1
290
     0
176
     1
 90
        1
176
     1
 40
0.0
176
     1
 90
        0
176
     1
290
     0
176
     1
290
     1
176
     1
290
     1
176
     1
290
     0
176
     1
290
     0
176
     1
290
     0
176
     1
290
     0
176
     1
290
     0
176
     1
290
     0
176
     1
 90
       50
176
     1
 40
0.0
176
     1
 40
1.0
176
     1
 90
        0
176
     1
 62
    18
420
        0
176
     1
 90
       50
176
     1
 90
        3
176
     1
 62
     5
420
      255
176
     1
290
     0
176
     1
 90
       50
176
     1
 90
       50
176
     1
 90
       50
176
     1
290
     0
176
     1
 90
       50
176
     1
 62
   256
176
     0
 40
1.0
176
     0
 90
        2
176
     1
  1
strokes_ogs.tif
176
     1
290
     0
176
     1
 40
1.0
176
     1
 40
1.0
176
     1
  0
VISUALSTYLE
  5
36
102
{ACAD_REACTORS
330
2A
102
}
330
2A
100
AcDbVisualStyle
  2
Brighten
 70
    12
177
     3
291
     1
 70
    58
 90
        2
176
     1
 90
        2
176
     1
 90
        0
176
     1
 90
        0
176
     1
 40
-0.6
176
     1
 40
-30.0
176
     1
 62
     7
420
 16777215
176
     1
 90
        1
176
     1
 90
        4
176
     1
 62
     7
176
     1
 62
   257
176
     1
 90
        1
176
     1
 90
        1
176
     1
 40
1.0
176
     1
 90
        8
176
     1
 62
     7
176
     1
 40
1.0
176
     1
 90
        1
176
     1
 90
        6
176
     1
 90
        2
176
     1
 62
     7
176
     1
 90
        5
176
     1
 90
        0
176
     1
 90
        0
176
     1
290
     0
176
     1
 90
        1
176
     1
 40
50.0
176
     1
 90
        0
176
     1
290
     0
176
     1
290
     1
176
     1
290
     1
176
     1
290
     0
176
     1
290
     0
176
     1
290
     0
176
     1
290
     0
176
     1
290
     0
176
     1
290
     0
176
     1
 90
       50
176
     1
 40
0.0
176
     1
 40
1.0
176
     1
 90
        0
176
     1
 62
    18
420
        0
176
     1
 90
       50
176
     1
 90
        3
176
     1
 62
     5
420
      255
176
     1
290
     0
176
     1
 90
       50
176
     1
 90
       50
176
     1
 90
       50
176
     1
290
     0
176
     1
 90
       50
176
     1
 62
   256
176
     0
 40
1.0
176
     0
 90
        2
176
     1
  1
strokes_ogs.tif
176
     1
290
     0
176
     1
 40
1.0
176
     1
 40
1.0
176
     1
  0
VISUALSTYLE
  5
3A
102
{ACAD_REACTORS
330
2A
102
}
330
2A
100
AcDbVisualStyle
  2
ColorChange
 70
    16
177
     3
291
     1
 70
    58
 90
        2
176
     1
 90
        2
176
     1
 90
        3
176
     1
 90
        0
176
     1
 40
-0.6
176
     1
 40
-30.0
176
     1
 62
     8
420
  8421504
176
     1
 90
        1
176
     1
 90
        4
176
     1
 62
     7
176
     1
 62
   257
176
     1
 90
        1
176
     1
 90
        1
176
     1
 40
1.0
176
     1
 90
        8
176
     1
 62
     8
420
  8421504
176
     1
 40
1.0
176
     1
 90
        1
176
     1
 90
        6
176
     1
 90
        2
176
     1
 62
     7
176
     1
 90
        5
176
     1
 90
        0
176
     1
 90
        0
176
     1
290
     0
176
     1
 90
        1
176
     1
 40
0.0
176
     1
 90
        0
176
     1
290
     0
176
     1
290
     1
176
     1
290
     1
176
     1
290
     0
176
     1
290
     0
176
     1
290
     0
176
     1
290
     0
176
     1
290
     0
176
     1
290
     0
176
     1
 90
       50
176
     1
 40
0.0
176
     1
 40
1.0
176
     1
 90
        0
176
     1
 62
    18
420
        0
176
     1
 90
       50
176
     1
 90
        3
176
     1
 62
     5
420
      255
176
     1
290
     0
176
     1
 90
       50
176
     1
 90
       50
176
     1
 90
       50
176
     1
290
     0
176
     1
 90
       50
176
     1
 62
   256
176
     0
 40
1.0
176
     0
 90
        2
176
     1
  1
strokes_ogs.tif
176
     1
290
     0
176
     1
 40
1.0
176
     1
 40
1.0
176
     1
  0
VISUALSTYLE
  5
34
102
{ACAD_REACTORS
330
2A
102
}
330
2A
100
AcDbVisualStyle
  2
Conceptual
 70
     9
177
     3
291
     0
 70
    58
 90
        3
176
     1
 90
        2
176
     1
 90
        0
176
     1
 90
        0
176
     1
 40
-0.6
176
     1
 40
-30.0
176
     1
 62
     7
420
 16777215
176
     1
 90
        2
176
     1
 90
        2
176
     1
 62
     7
176
     1
 62
   257
176
     1
 90
        1
176
     1
 90
        1
176
     1
 40
40.0
176
     1
 90
        8
176
     1
 62
     7
176
     1
 40
1.0
176
     1
 90
        1
176
     1
 90
        6
176
     1
 90
        2
176
     1
 62
     7
176
     1
 90
        3
176
     1
 90
        0
176
     1
 90
        0
176
     1
290
     0
176
     1
 90
        1
176
     1
 40
0.0
176
     1
 90
        0
176
     1
290
     0
176
     1
290
     1
176
     1
290
     1
176
     1
290
     0
176
     1
290
     0
176
     1
290
     0
176
     1
290
     0
176
     1
290
     0
176
     1
290
     0
176
     1
 90
       50
176
     1
 40
0.0
176
     1
 40
1.0
176
     1
 90
        0
176
     1
 62
    18
420
        0
176
     1
 90
       50
176
     1
 90
        3
176
     1
 62
     5
420
      255
176
     1
290
     0
176
     1
 90
       50
176
     1
 90
       50
176
     1
 90
       50
176
     1
290
     0
176
     1
 90
       50
176
     1
 62
   256
176
     0
 40
1.0
176
     0
 90
        2
176
     1
  1
strokes_ogs.tif
176
     1
290
     0
176
     1
 40
1.0
176
     1
 40
1.0
176
     1
  0
VISUALSTYLE
  5
35
102
{ACAD_REACTORS
330
2A
102
}
330
2A
100
AcDbVisualStyle
  2
Dim
 70
    11
177
     3
291
     1
 70
    58
 90
        2
176
     1
 90
        2
176
     1
 90
        0
176
     1
 90
        0
176
     1
 40
-0.6
176
     1
 40
-30.0
176
     1
 62
     7
420
 16777215
176
     1
 90
        1
176
     1
 90
        4
176
     1
 62
     7
176
     1
 62
   257
176
     1
 90
        1
176
     1
 90
        1
176
     1
 40
1.0
176
     1
 90
        8
176
     1
 62
     7
176
     1
 40
1.0
176
     1
 90
        1
176
     1
 90
        6
176
     1
 90
        2
176
     1
 62
     7
176
     1
 90
        5
176
     1
 90
        0
176
     1
 90
        0
176
     1
290
     0
176
     1
 90
        1
176
     1
 40
-50.0
176
     1
 90
        0
176
     1
290
     0
176
     1
290
     1
176
     1
290
     1
176
     1
290
     0
176
     1
290
     0
176
     1
290
     0
176
     1
290
     0
176
     1
290
     0
176
     1
290
     0
176
     1
 90
       50
176
     1
 40
0.0
176
     1
 40
1.0
176
     1
 90
        0
176
     1
 62
    18
420
        0
176
     1
 90
       50
176
     1
 90
        3
176
     1
 62
     5
420
      255
176
     1
290
     0
176
     1
 90
       50
176
     1
 90
       50
176
     1
 90
       50
176
     1
290
     0
176
     1
 90
       50
176
     1
 62
   256
176
     0
 40
1.0
176
     0
 90
        2
176
     1
  1
strokes_ogs.tif
176
     1
290
     0
176
     1
 40
1.0
176
     1
 40
1.0
176
     1
  0
VISUALSTYLE
  5
7A
102
{ACAD_REACTORS
330
2A
102
}
330
2A
100
AcDbVisualStyle
  2
EdgeColorOff
 70
    22
177
     3
291
     1
 70
    58
 90
        2
176
     0
 90
        2
176
     0
 90
        0
176
     0
 90
        0
176
     0
 40
0.6
176
     0
 40
30.0
176
     0
 62
     7
420
 16777215
176
     0
 90
        1
176
     0
 90
        4
176
     0
 62
     7
176
     0
 62
   257
176
     0
 90
        1
176
     0
 90
        1
176
     0
 40
1.0
176
     0
 90
        8
176
     2
 62
     7
176
     0
 40
1.0
176
     0
 90
        1
176
     0
 90
        6
176
     0
 90
        2
176
     0
 62
     7
176
     0
 90
        5
176
     0
 90
        0
176
     0
 90
        0
176
     0
290
     0
176
     0
 90
        1
176
     0
 40
0.0
176
     0
 90
        0
176
     0
290
     0
176
     0
290
     1
176
     0
290
     1
176
     0
290
     0
176
     0
290
     0
176
     0
290
     0
176
     0
290
     0
176
     0
290
     0
176
     0
290
     0
176
     0
 90
       50
176
     0
 40
0.0
176
     0
 40
1.0
176
     0
 90
        0
176
     0
 62
    18
420
        0
176
     0
 90
       50
176
     0
 90
        3
176
     0
 62
     5
420
      255
176
     0
290
     0
176
     0
 90
       50
176
     0
 90
       50
176
     0
 90
       50
176
     0
290
     0
176
     0
 90
       50
176
     0
 62
   256
176
     0
 40
1.0
176
     0
 90
        2
176
     0
  1
strokes_ogs.tif
176
     0
290
     0
176
     0
 40
1.0
176
     0
 40
1.0
176
     0
  0
VISUALSTYLE
  5
39
102
{ACAD_REACTORS
330
2A
102
}
330
2A
100
AcDbVisualStyle
  2
Facepattern
 70
    15
177
     3
291
     1
 70
    58
 90
        2
176
     1
 90
        2
176
     1
 90
        0
176
     1
 90
        0
176
     1
 40
-0.6
176
     1
 40
-30.0
176
     1
 62
     7
420
 16777215
176
     1
 90
        1
176
     1
 90
        4
176
     1
 62
     7
176
     1
 62
   257
176
     1
 90
        1
176
     1
 90
        1
176
     1
 40
1.0
176
     1
 90
        8
176
     1
 62
     7
176
     1
 40
1.0
176
     1
 90
        1
176
     1
 90
        6
176
     1
 90
        2
176
     1
 62
     7
176
     1
 90
        5
176
     1
 90
        0
176
     1
 90
        0
176
     1
290
     0
176
     1
 90
        1
176
     1
 40
0.0
176
     1
 90
        0
176
     1
290
     0
176
     1
290
     1
176
     1
290
     1
176
     1
290
     0
176
     1
290
     0
176
     1
290
     0
176
     1
290
     0
176
     1
290
     0
176
     1
290
     0
176
     1
 90
       50
176
     1
 40
0.0
176
     1
 40
1.0
176
     1
 90
        0
176
     1
 62
    18
420
        0
176
     1
 90
       50
176
     1
 90
        3
176
     1
 62
     5
420
      255
176
     1
290
     0
176
     1
 90
       50
176
     1
 90
       50
176
     1
 90
       50
176
     1
290
     0
176
     1
 90
       50
176
     1
 62
   256
176
     0
 40
1.0
176
     0
 90
        2
176
     1
  1
strokes_ogs.tif
176
     1
290
     0
176
     1
 40
1.0
176
     1
 40
1.0
176
     1
  0
VISUALSTYLE
  5
2B
102
{ACAD_REACTORS
330
2A
102
}
330
2A
100
AcDbVisualStyle
  2
Flat
 70
     0
177
     3
291
     1
 70
    58
 90
        2
176
     1
 90
        1
176
     1
 90
        1
176
     1
 90
        2
176
     1
 40
-0.6
176
     1
 40
30.0
176
     1
 62
     7
420
 16777215
176
     1
 90
        0
176
     1
 90
        4
176
     1
 62
     7
176
     1
 62
   257
176
     1
 90
        1
176
     1
 90
        1
176
     1
 40
1.0
176
     1
 90
        8
176
     1
 62
     7
176
     1
 40
1.0
176
     1
 90
        1
176
     1
 90
        6
176
     1
 90
        2
176
     1
 62
     7
176
     1
 90
        5
176
     1
 90
        0
176
     1
 90
        0
176
     1
290
     0
176
     1
 90
       13
176
     1
 40
0.0
176
     1
 90
        0
176
     1
290
     0
176
     1
290
     1
176
     1
290
     1
176
     1
290
     0
176
     1
290
     0
176
     1
290
     0
176
     1
290
     0
176
     1
290
     0
176
     1
290
     0
176
     1
 90
       50
176
     1
 40
0.0
176
     1
 40
1.0
176
     1
 90
        0
176
     1
 62
    18
420
        0
176
     1
 90
       50
176
     1
 90
        3
176
     1
 62
     5
420
      255
176
     1
290
     0
176
     1
 90
       50
176
     1
 90
       50
176
     1
 90
       50
176
     1
290
     0
176
     1
 90
       50
176
     1
 62
   256
176
     0
 40
1.0
176
     0
 90
        2
176
     1
  1
strokes_ogs.tif
176
     1
290
     0
176
     1
 40
1.0
176
     1
 40
1.0
176
     1
  0
VISUALSTYLE
  5
2C
102
{ACAD_REACTORS
330
2A
102
}
330
2A
100
AcDbVisualStyle
  2
FlatWithEdges
 70
     1
177
     3
291
     1
 70
    58
 90
        2
176
     1
 90
        1
176
     1
 90
        1
176
     1
 90
        2
176
     1
 40
-0.6
176
     1
 40
30.0
176
     1
 62
     7
420
 16777215
176
     1
 90
        1
176
     1
 90
        4
176
     1
 62
     7
176
     1
 62
   257
176
     1
 90
        1
176
     1
 90
        1
176
     1
 40
1.0
176
     1
 90
        0
176
     1
 62
   257
176
     1
 40
1.0
176
     1
 90
        1
176
     1
 90
        6
176
     1
 90
        2
176
     1
 62
     7
176
     1
 90
        5
176
     1
 90
        0
176
     1
 90
        0
176
     1
290
     0
176
     1
 90
       13
176
     1
 40
0.0
176
     1
 90
        0
176
     1
290
     0
176
     1
290
     1
176
     1
290
     1
176
     1
290
     0
176
     1
290
     0
176
     1
290
     0
176
     1
290
     0
176
     1
290
     0
176
     1
290
     0
176
     1
 90
       50
176
     1
 40
0.0
176
     1
 40
1.0
176
     1
 90
        0
176
     1
 62
    18
420
        0
176
     1
 90
       50
176
     1
 90
        3
176
     1
 62
     5
420
      255
176
     1
290
     0
176
     1
 90
       50
176
     1
 90
       50
176
     1
 90
       50
176
     1
290
     0
176
     1
 90
       50
176
     1
 62
   256
176
     0
 40
1.0
176
     0
 90
        2
176
     1
  1
strokes_ogs.tif
176
     1
290
     0
176
     1
 40
1.0
176
     1
 40
1.0
176
     1
  0
VISUALSTYLE
  5
2D
102
{ACAD_REACTORS
330
2A
102
}
330
2A
100
AcDbVisualStyle
  2
Gouraud
 70
     2
177
     3
291
     1
 70
    58
 90
        2
176
     1
 90
        2
176
     1
 90
        1
176
     1
 90
        2
176
     1
 40
-0.6
176
     1
 40
30.0
176
     1
 62
     7
420
 16777215
176
     1
 90
        0
176
     1
 90
        4
176
     1
 62
     7
176
     1
 62
   257
176
     1
 90
        1
176
     1
 90
        1
176
     1
 40
1.0
176
     1
 90
        0
176
     1
 62
     7
176
     1
 40
1.0
176
     1
 90
        1
176
     1
 90
        6
176
     1
 90
        2
176
     1
 62
     7
176
     1
 90
        5
176
     1
 90
        0
176
     1
 90
        0
176
     1
290
     0
176
     1
 90
       13
176
     1
 40
0.0
176
     1
 90
        0
176
     1
290
     0
176
     1
290
     1
176
     1
290
     1
176
     1
290
     0
176
     1
290
     0
176
     1
290
     0
176
     1
290
     0
176
     1
290
     0
176
     1
290
     0
176
     1
 90
       50
176
     1
 40
0.0
176
     1
 40
1.0
176
     1
 90
        0
176
     1
 62
    18
420
        0
176
     1
 90
       50
176
     1
 90
        3
176
     1
 62
     5
420
      255
176
     1
290
     0
176
     1
 90
       50
176
     1
 90
       50
176
     1
 90
       50
176
     1
290
     0
176
     1
 90
       50
176
     1
 62
   256
176
     0
 40
1.0
176
     0
 90
        2
176
     1
  1
strokes_ogs.tif
176
     1
290
     0
176
     1
 40
1.0
176
     1
 40
1.0
176
     1
  0
VISUALSTYLE
  5
2E
102
{ACAD_REACTORS
330
2A
102
}
330
2A
100
AcDbVisualStyle
  2
GouraudWithEdges
 70
     3
177
     3
291
     1
 70
    58
 90
        2
176
     1
 90
        2
176
     1
 90
        1
176
     1
 90
        2
176
     1
 40
-0.6
176
     1
 40
30.0
176
     1
 62
     7
420
 16777215
176
     1
 90
        1
176
     1
 90
        4
176
     1
 62
     7
176
     1
 62
   257
176
     1
 90
        1
176
     1
 90
        1
176
     1
 40
1.0
176
     1
 90
        0
176
     1
 62
   257
176
     1
 40
1.0
176
     1
 90
        1
176
     1
 90
        6
176
     1
 90
        2
176
     1
 62
     7
176
     1
 90
        5
176
     1
 90
        0
176
     1
 90
        0
176
     1
290
     0
176
     1
 90
       13
176
     1
 40
0.0
176
     1
 90
        0
176
     1
290
     0
176
     1
290
     1
176
     1
290
     1
176
     1
290
     0
176
     1
290
     0
176
     1
290
     0
176
     1
290
     0
176
     1
290
     0
176
     1
290
     0
176
     1
 90
       50
176
     1
 40
0.0
176
     1
 40
1.0
176
     1
 90
        0
176
     1
 62
    18
420
        0
176
     1
 90
       50
176
     1
 90
        3
176
     1
 62
     5
420
      255
176
     1
290
     0
176
     1
 90
       50
176
     1
 90
       50
176
     1
 90
       50
176
     1
290
     0
176
     1
 90
       50
176
     1
 62
   256
176
     0
 40
1.0
176
     0
 90
        2
176
     1
  1
strokes_ogs.tif
176
     1
290
     0
176
     1
 40
1.0
176
     1
 40
1.0
176
     1
  0
VISUALSTYLE
  5
77
102
{ACAD_REACTORS
330
2A
102
}
330
2A
100
AcDbVisualStyle
  2
Hidden
 70
     6
177
     3
291
     0
 70
    58
 90
        1
176
     1
 90
        2
176
     1
 90
        2
176
     1
 90
        0
176
     1
 40
0.6
176
     1
 40
30.0
176
     1
 62
     7
420
 16777215
176
     1
 90
        2
176
     1
 90
        2
176
     1
 62
     7
176
     1
 62
   257
176
     1
 90
        2
176
     1
 90
        1
176
     1
 40
40.0
176
     1
 90
        0
176
     1
 62
   257
176
     1
 40
1.0
176
     1
 90
        1
176
     1
 90
        6
176
     1
 90
        2
176
     1
 62
     7
176
     1
 90
        3
176
     1
 90
        0
176
     1
 90
        0
176
     1
290
     0
176
     1
 90
        1
176
     1
 40
0.0
176
     1
 90
        0
176
     1
290
     0
176
     1
290
     1
176
     1
290
     1
176
     1
290
     0
176
     1
290
     0
176
     1
290
     0
176
     1
290
     0
176
     1
290
     0
176
     1
290
     0
176
     1
 90
       50
176
     1
 40
0.0
176
     1
 40
1.0
176
     1
 90
        0
176
     1
 62
    18
420
        0
176
     1
 90
       50
176
     1
 90
        3
176
     1
 62
     5
420
      255
176
     1
290
     0
176
     1
 90
       50
176
     1
 90
       50
176
     1
 90
       50
176
     1
290
     0
176
     1
 90
       50
176
     1
 62
   256
176
     0
 40
1.0
176
     0
 90
        2
176
     1
  1
strokes_ogs.tif
176
     1
290
     0
176
     1
 40
1.0
176
     1
 40
1.0
176
     1
  0
VISUALSTYLE
  5
78
102
{ACAD_REACTORS
330
2A
102
}
330
2A
100
AcDbVisualStyle
  2
JitterOff
 70
    20
177
     3
291
     1
 70
    58
 90
        2
176
     0
 90
        2
176
     0
 90
        0
176
     0
 90
        0
176
     0
 40
0.6
176
     0
 40
30.0
176
     0
 62
     7
420
 16777215
176
     0
 90
        1
176
     0
 90
        4
176
     0
 62
     7
176
     0
 62
   257
176
     0
 90
        1
176
     0
 90
        1
176
     0
 40
1.0
176
     0
 90
       10
176
     2
 62
     7
176
     0
 40
1.0
176
     0
 90
        1
176
     0
 90
        6
176
     0
 90
        2
176
     0
 62
     7
176
     0
 90
        5
176
     0
 90
        0
176
     0
 90
        0
176
     0
290
     0
176
     0
 90
        1
176
     0
 40
0.0
176
     0
 90
        0
176
     0
290
     0
176
     0
290
     1
176
     0
290
     1
176
     0
290
     0
176
     0
290
     0
176
     0
290
     0
176
     0
290
     0
176
     0
290
     0
176
     0
290
     0
176
     0
 90
       50
176
     0
 40
0.0
176
     0
 40
1.0
176
     0
 90
        0
176
     0
 62
    18
420
        0
176
     0
 90
       50
176
     0
 90
        3
176
     0
 62
     5
420
      255
176
     0
290
     0
176
     0
 90
       50
176
     0
 90
       50
176
     0
 90
       50
176
     0
290
     0
176
     0
 90
       50
176
     0
 62
   256
176
     0
 40
1.0
176
     0
 90
        2
176
     0
  1
strokes_ogs.tif
176
     0
290
     0
176
     0
 40
1.0
176
     0
 40
1.0
176
     0
  0
VISUALSTYLE
  5
38
102
{ACAD_REACTORS
330
2A
102
}
330
2A
100
AcDbVisualStyle
  2
Linepattern
 70
    14
177
     3
291
     1
 70
    58
 90
        2
176
     1
 90
        2
176
     1
 90
        0
176
     1
 90
        0
176
     1
 40
-0.6
176
     1
 40
-30.0
176
     1
 62
     7
420
 16777215
176
     1
 90
        1
176
     1
 90
        4
176
     1
 62
     7
176
     1
 62
   257
176
     1
 90
        7
176
     1
 90
        7
176
     1
 40
1.0
176
     1
 90
        8
176
     1
 62
     7
176
     1
 40
1.0
176
     1
 90
        1
176
     1
 90
        6
176
     1
 90
        2
176
     1
 62
     7
176
     1
 90
        5
176
     1
 90
        0
176
     1
 90
        0
176
     1
290
     0
176
     1
 90
        1
176
     1
 40
0.0
176
     1
 90
        0
176
     1
290
     0
176
     1
290
     1
176
     1
290
     1
176
     1
290
     0
176
     1
290
     0
176
     1
290
     0
176
     1
290
     0
176
     1
290
     0
176
     1
290
     0
176
     1
 90
       50
176
     1
 40
0.0
176
     1
 40
1.0
176
     1
 90
        0
176
     1
 62
    18
420
        0
176
     1
 90
       50
176
     1
 90
        3
176
     1
 62
     5
420
      255
176
     1
290
     0
176
     1
 90
       50
176
     1
 90
       50
176
     1
 90
       50
176
     1
290
     0
176
     1
 90
       50
176
     1
 62
   256
176
     0
 40
1.0
176
     0
 90
        2
176
     1
  1
strokes_ogs.tif
176
     1
290
     0
176
     1
 40
1.0
176
     1
 40
1.0
176
     1
  0
VISUALSTYLE
  5
79
102
{ACAD_REACTORS
330
2A
102
}
330
2A
100
AcDbVisualStyle
  2
OverhangOff
 70
    21
177
     3
291
     1
 70
    58
 90
        2
176
     0
 90
        2
176
     0
 90
        0
176
     0
 90
        0
176
     0
 40
0.6
176
     0
 40
30.0
176
     0
 62
     7
420
 16777215
176
     0
 90
        1
176
     0
 90
        4
176
     0
 62
     7
176
     0
 62
   257
176
     0
 90
        1
176
     0
 90
        1
176
     0
 40
1.0
176
     0
 90
        9
176
     2
 62
     7
176
     0
 40
1.0
176
     0
 90
        1
176
     0
 90
        6
176
     0
 90
        2
176
     0
 62
     7
176
     0
 90
        5
176
     0
 90
        0
176
     0
 90
        0
176
     0
290
     0
176
     0
 90
        1
176
     0
 40
0.0
176
     0
 90
        0
176
     0
290
     0
176
     0
290
     1
176
     0
290
     1
176
     0
290
     0
176
     0
290
     0
176
     0
290
     0
176
     0
290
     0
176
     0
290
     0
176
     0
290
     0
176
     0
 90
       50
176
     0
 40
0.0
176
     0
 40
1.0
176
     0
 90
        0
176
     0
 62
    18
420
        0
176
     0
 90
       50
176
     0
 90
        3
176
     0
 62
     5
420
      255
176
     0
290
     0
176
     0
 90
       50
176
     0
 90
       50
176
     0
 90
       50
176
     0
290
     0
176
     0
 90
       50
176
     0
 62
   256
176
     0
 40
1.0
176
     0
 90
        2
176
     0
  1
strokes_ogs.tif
176
     0
290
     0
176
     0
 40
1.0
176
     0
 40
1.0
176
     0
  0
VISUALSTYLE
  5
33
102
{ACAD_REACTORS
330
2A
102
}
330
2A
100
AcDbVisualStyle
  2
Realistic
 70
     8
177
     3
291
     0
 70
    58
 90
        2
176
     1
 90
        2
176
     1
 90
        0
176
     1
 90
        0
176
     1
 40
-0.6
176
     1
 40
-30.0
176
     1
 62
     7
420
 16777215
176
     1
 90
        1
176
     1
 90
        0
176
     1
 62
     7
176
     1
 62
   257
176
     1
 90
        1
176
     1
 90
        1
176
     1
 40
1.0
176
     1
 90
        8
176
     1
 62
     8
420
  7895160
176
     1
 40
1.0
176
     1
 90
        1
176
     1
 90
        6
176
     1
 90
        2
176
     1
 62
     7
176
     1
 90
        5
176
     1
 90
        0
176
     1
 90
        0
176
     1
290
     0
176
     1
 90
       13
176
     1
 40
0.0
176
     1
 90
        0
176
     1
290
     0
176
     1
290
     1
176
     1
290
     1
176
     1
290
     0
176
     1
290
     0
176
     1
290
     0
176
     1
290
     0
176
     1
290
     0
176
     1
290
     0
176
     1
 90
       50
176
     1
 40
0.0
176
     1
 40
1.0
176
     1
 90
        0
176
     1
 62
    18
420
        0
176
     1
 90
       50
176
     1
 90
        3
176
     1
 62
     5
420
      255
176
     1
290
     0
176
     1
 90
       50
176
     1
 90
       50
176
     1
 90
       50
176
     1
290
     0
176
     1
 90
       50
176
     1
 62
   256
176
     0
 40
1.0
176
     0
 90
        2
176
     1
  1
strokes_ogs.tif
176
     1
290
     0
176
     1
 40
1.0
176
     1
 40
1.0
176
     1
  0
VISUALSTYLE
  5
7F
102
{ACAD_REACTORS
330
2A
102
}
330
2A
100
AcDbVisualStyle
  2
Shaded
 70
    27
177
     3
291
     0
 70
    58
 90
        2
176
     1
 90
        2
176
     1
 90
        1
176
     1
 90
        2
176
     1
 40
0.6
176
     1
 40
30.0
176
     1
 62
     7
420
 16777215
176
     1
 90
        0
176
     1
 90
        4
176
     1
 62
     7
176
     1
 62
   257
176
     1
 90
        1
176
     1
 90
        1
176
     1
 40
1.0
176
     1
 90
        8
176
     1
 62
   257
176
     1
 40
1.0
176
     1
 90
        1
176
     1
 90
        6
176
     1
 90
        2
176
     1
 62
     8
420
  7895160
176
     1
 90
        3
176
     1
 90
        0
176
     1
 90
        0
176
     1
290
     0
176
     1
 90
        5
176
     1
 40
0.0
176
     1
 90
        0
176
     1
290
     0
176
     1
290
     1
176
     1
290
     1
176
     1
290
     0
176
     1
290
     0
176
     1
290
     0
176
     1
290
     0
176
     1
290
     0
176
     1
290
     0
176
     1
 90
       50
176
     1
 40
0.0
176
     1
 40
1.0
176
     1
 90
        0
176
     1
 62
    18
420
        0
176
     1
 90
       50
176
     1
 90
        3
176
     1
 62
     5
420
      255
176
     1
290
     0
176
     1
 90
       50
176
     1
 90
       50
176
     1
 90
       50
176
     1
290
     0
176
     1
 90
       50
176
     1
 62
   256
176
     0
 40
1.0
176
     0
 90
        2
176
     1
  1
strokes_ogs.tif
176
     1
290
     0
176
     1
 40
1.0
176
     1
 40
1.0
176
     1
  0
VISUALSTYLE
  5
7E
102
{ACAD_REACTORS
330
2A
102
}
330
2A
100
AcDbVisualStyle
  2
Shaded with edges
 70
    26
177
     3
291
     0
 70
    58
 90
        2
176
     1
 90
        2
176
     1
 90
        1
176
     1
 90
        2
176
     1
 40
0.6
176
     1
 40
30.0
176
     1
 62
     7
420
 16777215
176
     1
 90
        1
176
     1
 90
       10
176
     1
 62
     7
176
     1
 62
   257
176
     1
 90
        2
176
     1
 90
        1
176
     1
 40
1.0
176
     1
 90
        8
176
     1
 62
   257
176
     1
 40
1.0
176
     1
 90
        1
176
     1
 90
        6
176
     1
 90
        2
176
     1
 62
     7
176
     1
 90
        3
176
     1
 90
        0
176
     1
 90
        0
176
     1
290
     0
176
     1
 90
        5
176
     1
 40
0.0
176
     1
 90
        0
176
     1
290
     0
176
     1
290
     1
176
     1
290
     1
176
     1
290
     0
176
     1
290
     0
176
     1
290
     0
176
     1
290
     0
176
     1
290
     0
176
     1
290
     0
176
     1
 90
       50
176
     1
 40
0.0
176
     1
 40
1.0
176
     1
 90
        0
176
     1
 62
    18
420
        0
176
     1
 90
       50
176
     1
 90
        3
176
     1
 62
     5
420
      255
176
     1
290
     0
176
     1
 90
       50
176
     1
 90
       50
176
     1
 90
       50
176
     1
290
     0
176
     1
 90
       50
176
     1
 62
   256
176
     0
 40
1.0
176
     0
 90
        2
176
     1
  1
strokes_ogs.tif
176
     1
290
     0
176
     1
 40
1.0
176
     1
 40
1.0
176
     1
  0
VISUALSTYLE
  5
7B
102
{ACAD_REACTORS
330
2A
102
}
330
2A
100
AcDbVisualStyle
  2
Shades of Gray
 70
    23
177
     3
291
     0
 70
    58
 90
        2
176
     1
 90
        2
176
     1
 90
        3
176
     1
 90
        0
176
     1
 40
0.6
176
     1
 40
30.0
176
     1
 62
     7
420
 16777215
176
     1
 90
        2
176
     1
 90
        2
176
     1
 62
     7
176
     1
 62
     7
176
     1
 90
        1
176
     1
 90
        1
176
     1
 40
40.0
176
     1
 90
        8
176
     1
 62
     7
176
     1
 40
1.0
176
     1
 90
        1
176
     1
 90
        6
176
     1
 90
        2
176
     1
 62
     7
176
     1
 90
        3
176
     1
 90
        0
176
     1
 90
        0
176
     1
290
     0
176
     1
 90
        1
176
     1
 40
0.0
176
     1
 90
        0
176
     1
290
     0
176
     1
290
     1
176
     1
290
     1
176
     1
290
     0
176
     1
290
     0
176
     1
290
     0
176
     1
290
     0
176
     1
290
     0
176
     1
290
     0
176
     1
 90
       50
176
     1
 40
0.0
176
     1
 40
1.0
176
     1
 90
        0
176
     1
 62
    18
420
        0
176
     1
 90
       50
176
     1
 90
        3
176
     1
 62
     5
420
      255
176
     1
290
     0
176
     1
 90
       50
176
     1
 90
       50
176
     1
 90
       50
176
     1
290
     0
176
     1
 90
       50
176
     1
 62
   256
176
     0
 40
1.0
176
     0
 90
        2
176
     1
  1
strokes_ogs.tif
176
     1
290
     0
176
     1
 40
1.0
176
     1
 40
1.0
176
     1
  0
VISUALSTYLE
  5
7C
102
{ACAD_REACTORS
330
2A
102
}
330
2A
100
AcDbVisualStyle
  2
Sketchy
 70
    24
177
     3
291
     0
 70
    58
 90
        1
176
     1
 90
        2
176
     1
 90
        2
176
     1
 90
        0
176
     1
 40
0.6
176
     1
 40
30.0
176
     1
 62
     7
420
 16777215
176
     1
 90
        2
176
     1
 90
        2
176
     1
 62
     7
176
     1
 62
     7
176
     1
 90
        1
176
     1
 90
        1
176
     1
 40
40.0
176
     1
 90
       11
176
     1
 62
     7
176
     1
 40
1.0
176
     1
 90
        1
176
     1
 90
        6
176
     1
 90
        2
176
     1
 62
     7
176
     1
 90
        6
176
     1
 90
        0
176
     1
 90
        0
176
     1
290
     0
176
     1
 90
        1
176
     1
 40
0.0
176
     1
 90
        0
176
     1
290
     0
176
     1
290
     1
176
     1
290
     1
176
     1
290
     0
176
     1
290
     0
176
     1
290
     0
176
     1
290
     0
176
     1
290
     0
176
     1
290
     0
176
     1
 90
       50
176
     1
 40
0.0
176
     1
 40
1.0
176
     1
 90
        0
176
     1
 62
    18
420
        0
176
     1
 90
       50
176
     1
 90
        3
176
     1
 62
     5
420
      255
176
     1
290
     0
176
     1
 90
       50
176
     1
 90
       50
176
     1
 90
       50
176
     1
290
     0
176
     1
 90
       50
176
     1
 62
   256
176
     0
 40
1.0
176
     0
 90
        2
176
     1
  1
strokes_ogs.tif
176
     1
290
     0
176
     1
 40
1.0
176
     1
 40
1.0
176
     1
  0
VISUALSTYLE
  5
37
102
{ACAD_REACTORS
330
2A
102
}
330
2A
100
AcDbVisualStyle
  2
Thicken
 70
    13
177
     3
291
     1
 70
    58
 90
        2
176
     1
 90
        2
176
     1
 90
        0
176
     1
 90
        0
176
     1
 40
-0.6
176
     1
 40
-30.0
176
     1
 62
     7
420
 16777215
176
     1
 90
        1
176
     1
 90
        4
176
     1
 62
     7
176
     1
 62
   257
176
     1
 90
        1
176
     1
 90
        1
176
     1
 40
1.0
176
     1
 90
       12
176
     1
 62
     7
176
     1
 40
1.0
176
     1
 90
        1
176
     1
 90
        6
176
     1
 90
        2
176
     1
 62
     7
176
     1
 90
        5
176
     1
 90
        0
176
     1
 90
        0
176
     1
290
     0
176
     1
 90
        1
176
     1
 40
0.0
176
     1
 90
        0
176
     1
290
     0
176
     1
290
     1
176
     1
290
     1
176
     1
290
     0
176
     1
290
     0
176
     1
290
     0
176
     1
290
     0
176
     1
290
     0
176
     1
290
     0
176
     1
 90
       50
176
     1
 40
0.0
176
     1
 40
1.0
176
     1
 90
        0
176
     1
 62
    18
420
        0
176
     1
 90
       50
176
     1
 90
        3
176
     1
 62
     5
420
      255
176
     1
290
     0
176
     1
 90
       50
176
     1
 90
       50
176
     1
 90
       50
176
     1
290
     0
176
     1
 90
       50
176
     1
 62
   256
176
     0
 40
1.0
176
     0
 90
        2
176
     1
  1
strokes_ogs.tif
176
     1
290
     0
176
     1
 40
1.0
176
     1
 40
1.0
176
     1
  0
VISUALSTYLE
  5
76
102
{ACAD_REACTORS
330
2A
102
}
330
2A
100
AcDbVisualStyle
  2
Wireframe
 70
     5
177
     3
291
     0
 70
    58
 90
        0
176
     1
 90
        2
176
     1
 90
        0
176
     1
 90
        0
176
     1
 40
0.6
176
     1
 40
30.0
176
     1
 62
     7
420
 16777215
176
     1
 90
        1
176
     1
 90
        4
176
     1
 62
     7
176
     1
 62
   257
176
     1
 90
        1
176
     1
 90
        1
176
     1
 40
1.0
176
     1
 90
        0
176
     1
 62
   257
176
     1
 40
1.0
176
     1
 90
        1
176
     1
 90
        6
176
     1
 90
        2
176
     1
 62
     7
176
     1
 90
        3
176
     1
 90
        0
176
     1
 90
        0
176
     1
290
     0
176
     1
 90
        1
176
     1
 40
0.0
176
     1
 90
        0
176
     1
290
     0
176
     1
290
     1
176
     1
290
     1
176
     1
290
     0
176
     1
290
     0
176
     1
290
     0
176
     1
290
     0
176
     1
290
     0
176
     1
290
     0
176
     1
 90
       50
176
     1
 40
0.0
176
     1
 40
1.0
176
     1
 90
        0
176
     1
 62
    18
420
        0
176
     1
 90
       50
176
     1
 90
        3
176
     1
 62
     5
420
      255
176
     1
290
     0
176
     1
 90
       50
176
     1
 90
       50
176
     1
 90
       50
176
     1
290
     0
176
     1
 90
       50
176
     1
 62
   256
176
     0
 40
1.0
176
     0
 90
        2
176
     1
  1
strokes_ogs.tif
176
     1
290
     0
176
     1
 40
1.0
176
     1
 40
1.0
176
     1
  0
VISUALSTYLE
  5
7D
102
{ACAD_REACTORS
330
2A
102
}
330
2A
100
AcDbVisualStyle
  2
X-Ray
 70
    25
177
     3
291
     0
 70
    58
 90
        2
176
     1
 90
        2
176
     1
 90
        1
176
     1
 90
        1
176
     1
 40
0.5
176
     1
 40
30.0
176
     1
 62
     7
420
 16777215
176
     1
 90
        1
176
     1
 90
        0
176
     1
 62
     7
176
     1
 62
   257
176
     1
 90
        1
176
     1
 90
        1
176
     1
 40
1.0
176
     1
 90
        8
176
     1
 62
     7
176
     1
 40
1.0
176
     1
 90
        1
176
     1
 90
        6
176
     1
 90
        2
176
     1
 62
     7
176
     1
 90
        3
176
     1
 90
        0
176
     1
 90
        0
176
     1
290
     0
176
     1
 90
       13
176
     1
 40
0.0
176
     1
 90
        0
176
     1
290
     0
176
     1
290
     1
176
     1
290
     1
176
     1
290
     0
176
     1
290
     0
176
     1
290
     0
176
     1
290
     0
176
     1
290
     0
176
     1
290
     0
176
     1
 90
       50
176
     1
 40
0.0
176
     1
 40
1.0
176
     1
 90
        0
176
     1
 62
    18
420
        0
176
     1
 90
       50
176
     1
 90
        3
176
     1
 62
     5
420
      255
176
     1
290
     0
176
     1
 90
       50
176
     1
 90
       50
176
     1
 90
       50
176
     1
290
     0
176
     1
 90
       50
176
     1
 62
   256
176
     0
 40
1.0
176
     0
 90
        2
176
     1
  1
strokes_ogs.tif
176
     1
290
     0
176
     1
 40
1.0
176
     1
 40
1.0
176
     1
  0
DICTIONARYVAR
  5
62
102
{ACAD_REACTORS
330
3D
102
}
330
3D
100
DictionaryVariables
280
     0
  1
1:1
  0
DICTIONARYVAR
  5
BB
102
{ACAD_REACTORS
330
3D
102
}
330
3D
100
DictionaryVariables
280
     0
  1
Standard
  0
DICTIONARYVAR
  5
3E
102
{ACAD_REACTORS
330
3D
102
}
330
3D
100
DictionaryVariables
280
     0
  1
Standard
  0
DICTIONARYVAR
  5
6F
102
{ACAD_REACTORS
330
3D
102
}
330
3D
100
DictionaryVariables
280
     0
  1
0
  0
DICTIONARYVAR
  5
70
102
{ACAD_REACTORS
330
3D
102
}
330
3D
100
DictionaryVariables
280
     0
  1
0
  0
DICTIONARY
  5
41C
330
3C
100
AcDbDictionary
280
     1
281
     1
  3
ACAD_ROUNDTRIP_2008_TABLESTYLE_CELLSTYLEMAP
360
41D
  0
CELLSTYLEMAP
  5
41D
102
{ACAD_REACTORS
330
41C
102
}
330
41C
100
AcDbCellStyleMap
 90
        3
300
CELLSTYLE
  1
TABLEFORMAT_BEGIN
 90
        5
170
     1
 91
        0
 92
    32768
 62
   257
 93
        1
300
CONTENTFORMAT
  1
CONTENTFORMAT_BEGIN
 90
        0
 91
        0
 92
      512
 93
        0
300

 40
0.0
140
1.0
 94
        5
 62
     0
340
11
144
6.0
309
CONTENTFORMAT_END
171
     1
301
MARGIN
  1
CELLMARGIN_BEGIN
 40
1.5
 40
1.5
 40
1.5
 40
1.5
 40
0.18
 40
0.18
309
CELLMARGIN_END
 94
        6
 95
        1
302
GRIDFORMAT
  1
GRIDFORMAT_BEGIN
 90
        0
 91
        1
 62
     0
 92
       -2
340
0
 93
        0
 40
0.045
309
GRIDFORMAT_END
 95
        2
302
GRIDFORMAT
  1
GRIDFORMAT_BEGIN
 90
        0
 91
        1
 62
     0
 92
       -2
340
0
 93
        0
 40
0.045
309
GRIDFORMAT_END
 95
        4
302
GRIDFORMAT
  1
GRIDFORMAT_BEGIN
 90
        0
 91
        1
 62
     0
 92
       -2
340
0
 93
        0
 40
0.045
309
GRIDFORMAT_END
 95
        8
302
GRIDFORMAT
  1
GRIDFORMAT_BEGIN
 90
        0
 91
        1
 62
     0
 92
       -2
340
0
 93
        0
 40
0.045
309
GRIDFORMAT_END
 95
       16
302
GRIDFORMAT
  1
GRIDFORMAT_BEGIN
 90
        0
 91
        1
 62
     0
 92
       -2
340
0
 93
        0
 40
0.045
309
GRIDFORMAT_END
 95
       32
302
GRIDFORMAT
  1
GRIDFORMAT_BEGIN
 90
        0
 91
        1
 62
     0
 92
       -2
340
0
 93
        0
 40
0.045
309
GRIDFORMAT_END
309
TABLEFORMAT_END
  1
CELLSTYLE_BEGIN
 90
        1
 91
        1
300
_TITLE
309
CELLSTYLE_END
300
CELLSTYLE
  1
TABLEFORMAT_BEGIN
 90
        5
170
     1
 91
        0
 92
        0
 62
   257
 93
        1
300
CONTENTFORMAT
  1
CONTENTFORMAT_BEGIN
 90
        0
 91
        0
 92
      512
 93
        0
300

 40
0.0
140
1.0
 94
        5
 62
     0
340
11
144
4.5
309
CONTENTFORMAT_END
171
     1
301
MARGIN
  1
CELLMARGIN_BEGIN
 40
1.5
 40
1.5
 40
1.5
 40
1.5
 40
0.18
 40
0.18
309
CELLMARGIN_END
 94
        6
 95
        1
302
GRIDFORMAT
  1
GRIDFORMAT_BEGIN
 90
        0
 91
        1
 62
     0
 92
       -2
340
0
 93
        0
 40
0.045
309
GRIDFORMAT_END
 95
        2
302
GRIDFORMAT
  1
GRIDFORMAT_BEGIN
 90
        0
 91
        1
 62
     0
 92
       -2
340
0
 93
        0
 40
0.045
309
GRIDFORMAT_END
 95
        4
302
GRIDFORMAT
  1
GRIDFORMAT_BEGIN
 90
        0
 91
        1
 62
     0
 92
       -2
340
0
 93
        0
 40
0.045
309
GRIDFORMAT_END
 95
        8
302
GRIDFORMAT
  1
GRIDFORMAT_BEGIN
 90
        0
 91
        1
 62
     0
 92
       -2
340
0
 93
        0
 40
0.045
309
GRIDFORMAT_END
 95
       16
302
GRIDFORMAT
  1
GRIDFORMAT_BEGIN
 90
        0
 91
        1
 62
     0
 92
       -2
340
0
 93
        0
 40
0.045
309
GRIDFORMAT_END
 95
       32
302
GRIDFORMAT
  1
GRIDFORMAT_BEGIN
 90
        0
 91
        1
 62
     0
 92
       -2
340
0
 93
        0
 40
0.045
309
GRIDFORMAT_END
309
TABLEFORMAT_END
  1
CELLSTYLE_BEGIN
 90
        2
 91
        1
300
_HEADER
309
CELLSTYLE_END
300
CELLSTYLE
  1
TABLEFORMAT_BEGIN
 90
        5
170
     1
 91
        0
 92
        0
 62
   257
 93
        1
300
CONTENTFORMAT
  1
CONTENTFORMAT_BEGIN
 90
        0
 91
        0
 92
      512
 93
        0
300

 40
0.0
140
1.0
 94
        2
 62
     0
340
11
144
4.5
309
CONTENTFORMAT_END
171
     1
301
MARGIN
  1
CELLMARGIN_BEGIN
 40
1.5
 40
1.5
 40
1.5
 40
1.5
 40
0.18
 40
0.18
309
CELLMARGIN_END
 94
        6
 95
        1
302
GRIDFORMAT
  1
GRIDFORMAT_BEGIN
 90
        0
 91
        1
 62
     0
 92
       -2
340
0
 93
        0
 40
0.045
309
GRIDFORMAT_END
 95
        2
302
GRIDFORMAT
  1
GRIDFORMAT_BEGIN
 90
        0
 91
        1
 62
     0
 92
       -2
340
0
 93
        0
 40
0.045
309
GRIDFORMAT_END
 95
        4
302
GRIDFORMAT
  1
GRIDFORMAT_BEGIN
 90
        0
 91
        1
 62
     0
 92
       -2
340
0
 93
        0
 40
0.045
309
GRIDFORMAT_END
 95
        8
302
GRIDFORMAT
  1
GRIDFORMAT_BEGIN
 90
        0
 91
        1
 62
     0
 92
       -2
340
0
 93
        0
 40
0.045
309
GRIDFORMAT_END
 95
       16
302
GRIDFORMAT
  1
GRIDFORMAT_BEGIN
 90
        0
 91
        1
 62
     0
 92
       -2
340
0
 93
        0
 40
0.045
309
GRIDFORMAT_END
 95
       32
302
GRIDFORMAT
  1
GRIDFORMAT_BEGIN
 90
        0
 91
        1
 62
     0
 92
       -2
340
0
 93
        0
 40
0.045
309
GRIDFORMAT_END
309
TABLEFORMAT_END
  1
CELLSTYLE_BEGIN
 90
        3
 91
        2
300
_DATA
309
CELLSTYLE_END
  0
ENDSEC
  0
SECTION
  2
ACDSDATA
 70
     2
 71
     2
  0
ACDSSCHEMA
 90
        0
  1
AcDb_Thumbnail_Schema
  2
AcDbDs::ID
280
    10
 91
        8
  2
Thumbnail_Data
280
    15
 91
        0
101
ACDSRECORD
 95
        0
 90
        2
  2
AcDbDs::TreatedAsObjectData
280
     1
291
     1
101
ACDSRECORD
 95
        0
 90
        3
  2
AcDbDs::Legacy
280
     1
291
     1
101
ACDSRECORD
  1
AcDbDs::ID
 90
        4
  2
AcDs:Indexable
280
     1
291
     1
101
ACDSRECORD
  1
AcDbDs::ID
 90
        5
  2
AcDbDs::HandleAttribute
280
     7
282
     1
  0
ACDSSCHEMA
 90
        1
  1
AcDb3DSolid_ASM_Data
  2
AcDbDs::ID
280
    10
 91
        8
  2
ASM_Data
280
    15
 91
        0
101
ACDSRECORD
 95
        1
 90
        2
  2
AcDbDs::TreatedAsObjectData
280
     1
291
     1
101
ACDSRECORD
 95
        1
 90
        3
  2
AcDbDs::Legacy
280
     1
291
     1
101
ACDSRECORD
  1
AcDbDs::ID
 90
        4
  2
AcDs:Indexable
280
     1
291
     1
101
ACDSRECORD
  1
AcDbDs::ID
 90
        5
  2
AcDbDs::HandleAttribute
280
     7
282
     1
  0
ACDSSCHEMA
 90
        2
  1
AcDbDs::TreatedAsObjectDataSchema
  2
AcDbDs::TreatedAsObjectData
280
     1
 91
        0
  0
ACDSSCHEMA
 90
        3
  1
AcDbDs::LegacySchema
  2
AcDbDs::Legacy
280
     1
 91
        0
  0
ACDSSCHEMA
 90
        4
  1
AcDbDs::IndexedPropertySchema
  2
AcDs:Indexable
280
     1
 91
        0
  0
ACDSSCHEMA
 90
        5
  1
AcDbDs::HandleAttributeSchema
  2
AcDbDs::HandleAttribute
280
     7
 91
        1
284
     1
  0
ACDSRECORD
 90
        0
  2
AcDbDs::ID
280
    10
320
1E
  2
Thumbnail_Data
280
    15
 94
     6092
310
89504E470D0A1A0A0000000D4948445200000100000000610802000000B6CFE87A000000097048597300000EC400000EC401952B0E1B0000177E49444154789CED9D596C1BD7B9C7BF59480EF7451B29892665AD966549952CC592EB2DB16B3B30E236D54DDB1BB4595A236E5D04285ADC14B7B7E84391342F2D8A0245D2F6
310
A16E8BF4A170D2A475373B5E6149916C2B922C4B56B45A14AD5DA4B80F6738731F4E3D65489AA29558638BE7F720708667CE39FC74FE33DFF9CE32C4C99327615D0885424D4D4DDBB76F3F7FFEFCE38F3FBE3E8562E24196EFEAEAEAEDED651846EEEA3C14D0725720355EAF777C7C5CEE5A3C3268349AAAAA2AB96BF14822
310
830076EDDAB56A9AEBD7AF373434AC436536067D7D7DC5C5C53A9D2E7DB24C2C9F6DC820008542B16A1A8220CC66F33A546663A0D16844515C35592696CF36C8F52F72686868FD0BC500B67C2A6410C0CCCCCCFA178A016CF954C820000CE6E1410601343636AE7FA118C0964F850C02301A8DEB5F2806B0E553218300A6A6
310
A6D6BF500C60CBA74206018C8E8EAE7FA118C0964F05EE0463B21A19048007EDE5025B3E191904505858B8FE8562005B3E15320860717171FD0BC500B67C2A6410407F7FFFFA178A016CF954E04E3026AB916136E8A64D9BD6BFD007CAA953A7689AF6FBFD4AA552A7D3A9542A0020088220085114458F27363BEBCDCBB358
310
2CE80C4110822090248992A14CA40F1228657271D2B52CCBBA5CAE3B77EE58ADD62D5BB6AC5ACF8D67F94F8E0C02282B2B5BFF421F285AADB659AF67284A100415452908627070B0BABA9A00880902555232E870EC6F68905A7C7F7FFFE6CD9BB55A2D6ADFB76EDD72381C6AB51AE5363E3E6EB1584C26133A74B95C1A8DC6
310
62B1A06BDD6EF7F4F4F4638F3D0600A150E89D77DE999898A0E98CFE8F1BCFF29F1C1904100E87A57FF6C6802088FF7BEBAD9A9A9A13274EA033868A0A282E0682A00000A082E74F9C38B167CF9EAF7CE52B00505A5A4A5114CFF30441D0345D515121DDE963B1584949090088A288EEF4858585D2C3C4E7F3E5E6E6A2608E
310
20081A8DE6D9679F2D2A2A6A6F6FCFA49E1BCFF29F1C1904D0D9D979BF6B827D3E5F676727DCF50A689A965A8C288AE8246A31E833499292FF208AA27498D2A3480FCBB21445D1349DA6CE0A8542A3D1ECDDBB573A333F3F5F5C5C2C0802CCCF4F4F4E5EBC78D162B11C387000D556A3D14422119FCF9793930300E8C98020
310
49D2EFF71B0C0600A0284AFA8BB87AF5EAECEC6C6F6F2F4992050505E84755545464F85BD660F90DCF43BA263881D9D959B3D96CB7DBBD5EAF56ABB5D96C2449B22CAB56ABD14A28511423918842A190FCE34824A2D1689030288AF2FBFD7ABD1E1D0280DFEFD72B144428248A626C71919D9850373581DF2F8E8E92141530
310
1A83454556AB1500CE9C39E376BB878787D3349D582CF6DAD7BE16BC7C599899595E5ECECDCD6D04800B174441582049BBC7F3DF7BF7D23B767477777FEF7BDF7BEDB5D73EFCF0C33367CE389DCE68347AECD831E4DE200882181A1A421E4E32EDEDED369B6DEBD6AD7D7D7D65656506834110845028F4A91A3BBB904100E8
310
B677BF28140A9AE3AA366D1204818A46577CBE3B172F56E6E5A1FB3AC7717D57AFB6B4B612002240381C9E9E98D8525D0D00C14040C530CBD3D39AE2E2B9B93982206C369BCFED566DDA046AB552A5224DA6999292B2E96941ABE577EF9E9D9D6518C65A5080CADDBB77EFCACACAAD5BB7D2D48DA669555D5DCCE522F7EF67
310
0201D0E900607272D2EBF56EDAB429D4DEAEDDB103000882282929B1D96C050505070F1E04005114A3D1E8C2C282C160204992E779BFDF5F5757170E879168351A0D5AC748922441103FFCE10F01E057BFFAD5CE9D3B9F7AEA2994C3A54B971EA8E537363208A0AEAE6E0D57B12CDB7FEAD413ADAD02CF53346D04582C2B8B
310
6CDDAA56AB812068516CD8B38760180020003400A52CDB3330909B9BEB70384451CC0F87698DA6E86E6EC571391300792B2B603492004A51E4A3518BCD86BEE2384EA954E6E5E5A55F4D2B8AE2952B579667668EDCB8A1ABAE5E5E58D068B51441680842D7DD4DDE8DBD3435353534341004110A855896154591E7F9DBB76F
310
330CC3719C42A1502A955AADD6E5724D4C4C78BDDE6DDBB6050201B7DB6D30182A2A2A8A8A8A90CFF3D24B2F49BE1CCBB2C3C3C319DA706D96DFD83C1A2E1000442291532323A75DAEE79E7BAEBEBE1E004AE3BE250842A552C5C70D0982585858A048D2E172214908824088A22008916834C6F386B8EEA091E344962574BA
310
70387CE5D4A998CD16B05A799E3F78F0E0E0E0605B5BDBAABBE8E4E7E7AB54AA00CFEB2E5F360308A268274950A9E0D0A1F864C8A1D7E9743A9D0E55D566B3010072CCD0999292923367CE7CEB5BDF42676A6A6AEEDCB9F3D7BFFE756464C46834BEF0C20B52345314C51FFCE0077ABD3EC328102619190C77E1C2857DFBF6
310
DDEF55DA48E4BF1A1B9B77EED4058370EDDAE4F8B8233737C6F300405194D4BD451D028220940007954AF07860E74E94030900144502686331204988BBA9C72626489E87F2724610724471FFFEFD1D1D1D8220180C862F7CE10B002008429ABA25F444455144F14E5114E11EB1FC8493F1D2A569FAC4891352CF5EAD569796
310
961E3F7E3C168B098290D0D6F7EEDDFBDBDFFE36C32D64D666F98D8D0C02C864038F64F44545AA2B5714F5F5627939CFF3CEAA2AD0E9926B4FA4FAFCB127030024DD2F97BABA94870E69398EA2A883070F26C47C161616E20335C9F03CFFB13AA0F1AF544D3F3E1825F5D70541905246A351A55209490A41B1AF84DCC6C7C7
310
CBCACABEFAD5AFDEBC79334DF5E24BCF24595621C35488B585A283D1A8E1C517894080F3F9143939B0DA2650D23FDBE3F1FCFCE73F7FFBEDB793D3A0B0290402A6A222A3D1A850284892542814090D85E3B8F4655114F5CA2BAFFCE637BF49285AFAF0BBDFFDEEEB5FFF7A2C168B6FD6A8F5279425053D63B118C4C9001D26
310
A4EFEFEFBF73E74E7C10293D78102019199E002D2D2D6BB82A2F2FAFB0B090743A172E5DCA1B1E2648D2979FAFB35AC99C9CF8310148BA779A4CA6175F7C51AFD727642808023133E3BF75CBD7D757F0CD6F26374D89C2C2C2F44E76241271B95C4F3DF594CBE5CACFCF170481E7799EE719866159F69D77DE999F9FA769FA
310
ADB7DEEAECECACAAAA1A1B1BF3FBFD168BC5E170BCFCF2CBF1454B02880FFFA3A10CF4393E92AB542A0B0B0B331C0583B55A7E63F3C8749E241FA0E0AE176B1C19E1C6C7C9BEBEC5A5A5DCDC5C00882D2F535EAFC764D2190C931313E5E5E500C02B9582D51A1A1BD32C2F23F7231C89A81926120A51763B535ACA300CFDC9
310
768A6518E6673FFBD9C2C282C9648A46A3282C3B353565B7DB552AD5D1A3473B3A3ABEFFFDEFDFBC79D366B3353636FAFDFED1D1D1DCDCDC0CC332C9EE1000180C8643870E1104313D3D3D3B3BFB49EA9FCDC82080EEEEEEE6E6E6355C98E0558B65650A820080DCBB676880D0E0A0726282D5E9CA8F1D1350F87C65C53036
310
763B181C0768DABEDD6030A8090200D4A22846221FFDF297A3A5A54F4422684CED5E43C5F1F7E394E4E4E478BD5EBFDFCF308CD7EBD5E9747373732A95AAB2B2726262A2A3A3C36AB52A148AB9B939B3D98CEEFD99FCD294CFB4845A65BEE1E19A2DBF819141008140600D570982E076BB8B8A8AD24C9F04004D7535545707
310
2727B973E7023E9FBABA9AA9A880BA3A9898E03EFAE8DFC3C61C275EBA2402080A85E3A59742232328CA79AF76160804D004CF34D0345D5555E572B9DC6EF7E0E0A0CFE743435DD7AE5D339BCDAFBCF28A5EAFA7280A05709389D79E288AB1580C3DEE2487270D99CFEF589BE537368F8C0BE4F178CC66732C1623491239C4
310
C160B0B3B3D36C36D7D6D626DC05B54E27389D3A8E7BF51BDF682D2EFEDC81034E5154AFAC987A7A388E8B8AA2FA739FA34892025000A48F218AA238333393BE9149DF229F67DBB66DD25799CF4096349010F0B957C034CDF30A93393208207ED258E6582C9684CEA846A3B97EFDFAC8C8485B5B5B7D7DBD56AB4DE8E9D234
310
FD3F6FBC411084C83004808D200040019089C710DF1CCBCBCBDF7FFFFDF4E9EFDCB95354540400B9B9B9A22886C361A55229D536BEB14622918461358EE35246395382F24137025114398EBB7DFB762617C25A2DBFB1914100E963EAF722B9891004515959393939F9E69B6F1E3D7A14CD8DF1FBFD2A954AA95422CF41A3D1
310
40DAF8773018FCD39FFE140E87FFF9CF7F86C3E1575F7D150004414031169EE7CD66734343C3AA2E902008E3E3E3068341ABD5D2348D9A26CFF34AA592E3B8F9F9799D4EA756AB699A562A9582202C2D2D994C26F48B5656568C46A3E4EE23178824C96030280D1827DCEF799E4755522814F9F9F919EE78B536CB6F6C6410
310
C0C0C0404D4DCDA792D5E2E2E2AE5DBB58961D181878FEF9E70180E3B868349A30EB2B8DABA056ABED76FBF8F8B856ABB5582C7FF9CB5F1C0E477B7B3B4551369BCD6EB71B8DC64CA65BF23CCFB2ECBF8351B118121EDC9DA361B7DB13D27777779B4CA69D3B770200BA2ABEB6344D9F3D7BF6E4C9933FFEF18F376FDE0C1F
310
EF0D0B822009922088CCA3FB9FA2E5370C3208607E7E7E6D174A43A7125FFAD297A47B24C262B1484B4932C9331C0EFB7C3E966559960D0402C865AFAFAF2F2E2E6E68686018C666B3B12C9B7EA895E7F95FFFFAD7DBB66DABA8A8A0288AA2A8C48055D2E1EEDDBB1322FDF109DE7BEFBDA9A9A91D3B763CF7DC732D2D2D87
310
EE4E28F2783CCBCBCBC78E1DCBE4A725B366CB6F601E994EB0CFE7E379DEE17048D3074892D4EBF5C9EE4DCADEE1BD24A1D56A9F7EFAE9D1D1D1F2F272A7D379E5CA15E45BF7F4F47CF8E187030303EFBEFBEEEDDBB7D30F06D334FDDDEF7ED768342E2F2F1304613299900600C0E57259AD5692240541100441A9545EBE7C
310
393F3F3F272747AFD77774746CDBB60DCD88AEA8A8080683C160706464A4AAAAAAA5A5656969E9BDF7DE7BF2C92725DF3D12892C2F2FDFEB3762D6800C02585B285AAFD7DBED76695179FCC86842CA940D3DFD03A1ACACACACACCCE572198DC6898909ABD5EA743A1B1B1B038100EA04777777A7B95C10049665150A85C964
310
EAE9E9A9ABAB931E02168B05BD9B717070D0E974F23C5F5454C4F3BC56ABEDECECF4783C5BB66C31994C0CC344A351B48847A9549E3D7BF6EF7FFF7B6B6BEBD34F3F1DAF70954A85D643C6CF1D9A9C9C5CDD7C00B056CB6F6C6410C0AAEF724B49341A0580F6F6F6DBB76F3FF3CC33F15F21BF3FCDDEDF1CC75114B5AA5364
310
B7DB939D7500204932FD40582010C8C9C9114551A150488BB9902418866969698946A3757575A8D59695951104110C063D1E4F5B5B1BCFF31445A1C56B283A5451511189440E1E3C18080412A61525AB9DA6E99C9C1C97CB95FEA721D666F98D8D0C0298989840EBBEEF0B822062B1D8EBAFBF1E8BC5DC6EB7CD66D36AB514
310
45711C373737575050F0C52F7E31E585A228C6AF21CE9C78AF297D8C52AFD7272F1890CE188D46AFD74B1084B42C1300B45A6D5B5B9B9473FCB82F8A3B25F46DEE557FE40766F88BD666F98DCD432C008E83B367E1C927D151381CFED18F7EF4F2CB2FD7D5D599CDE684368DA61F9F3B77EECF7FFEF34F7EF213B4A8FCA73F
310
FD697B7B3B9A07CAF37CCA46FCFAEBAFBFF1C61B6FBFFDB6D3E994A231F1939651CEAB4E85480FAA8F56AB5D35251A43489F32A1039079D7160B209987B8134C5150FA9F555FB158CCE9746E53AB7F79FCB8BDB2525F5FFFCC33CFC0AD5B04CFC71617C37E3FC77156B7FBF306C3EC1FFF18CBCF379B4C3B59B6A6BC5C3C77
310
0E00E66767A5AD61059A26EFBE83F585A6A6D6A6A6D1D1518D462309401A024301A55567DBAF3A5B013D4956F5C190EA1886499F32E169505858F8D1471FA5CF19732F6410C0D6AD5B334A47925059291D29148AE7ABAAF8C9C9FFFDFCE72707078BBBBA40143D2B2B16932948517A8B451484502864B3D9BA7A7A28A75367
310
B3E56DD9F298C1807C27740B475E0D110C027A5FE29E3D4A95EAB1E262D5DDB07D0204415014555B5B3B363696B6A6E4CCCC8CEDEE4A620048389C9D9D457B4C20E6E6E62C168B347D637E7EDE6C36A34351143D1E8F46A391A2FB2B2B2BA2284AFB64452211BFDF9F97970700B1584C14C5CC478233B57C362183000AEE6E
310
B8705FE8F57AAAAA4AB16B17005C78F34D8D46F3B52F7F19AD0431000882B0B2B2625428BABABA4C870F6F763A0980929D3B212F0FED4E858A44F7D5F8FBA7D96A8554415269034300204972D5F9C6EFBEFBAED7EB55ABD5636363A228969797171616A2CB5996D568341CC7A9D56A83C1303D3D1D0A85789EAFAEAE9E9D9D
310
1545916198F875BD68105AA552793C9E03070EA07165A9209224A5DE058AAE4ADA5895B5597E63238300509F750D174A6DF4F8F1E3C95FA137CB3FF1C413FF3979FF39279F478D0FDD71D3E072B9CE9F3FCFF37C7373734E4ECEC2C2C2C8C8085A13A356ABBFF39DEF9C3C79926198DADADA8282825FFCE21714457DFBDBDF
310
BE70E102DA09C2E7F369341AD4A757ABD5A8654F4D4D452291FCFCFCF882D0640AF4193DA03217C09A2DBF81914100376FDE7C10FF8655075F333F8C7F20487BB9A5293A1C0E9BCDE6F2F2F2D1D1D1EAEAEA9C9C1C9AA6398E4301289FCFD7D3D3837658595C5C74BBDD4EA79365D973E7CEDDB871E31FFFF8C7D2D2522814
310
3A7CF8702814224972FBF6ED487509BE0D3A19BFE91D22F3193E0FC8F28F340F7127F8E384C3E1C5C54514EC47FFFEB1B131344F0600BC5EEFBFFEF5AF82820229748306774992442B71878787E3F74FBE76EDDAF6EDDB01A0B0B0B0AAAAAABFBF3F7E71D6AD5BB7AAABABD1679224070707D377732D164B636323DAF327F9
310
5BF4F46869694199984CA69A9A1A34305C53538326E71004118D46FBFAFA00607979196D00A1D56A7B7B7B579D25EAF7FBF1AEB76B460601AC2D12C7B26C454585CFE73B7AF428DA3A212F2F8FE338954AE5F7FB2B2B2BEBEBEBDF7FFFFDE2E2E2FDFBF7FFE10F7FF8E0830FDADADA8E1F3FFEFBDFFFFEC89123FBF7EF8FCF
310
4DDAF4E1F4E9D3555555094B13A5D68FD8B2654BFAE9969FD65ADBC3870FAFEDC2F403D51238069ACC23238060300800269369656565DFBE7D09EB429C4EE7EEDDBB59962D2929D9BC79737171717373B3D1682449F2C68D1BA74E9D8A46A3CDCDCDF9F9F968AE2549922A952A1C0E2F2F2F1F397204569B5D83C6A11F75B0
310
0092916749E4FD8EC9AB54AAB1B1B1AAAAAA5028545959B9B0B09090607272726868C8E7F37577772B148A9B376FCECDCD4D4F4F0F0D0DF5F6F6A2F4A74F9F46894B4B4B4B4A4A044188442224499E3F7F3E3EAB94930EFAFAFAD07A83479A35587EC323CFA2F8FBDDA4DBE170381C8E679F7DF60155695536C6AEE26BB0FC
310
86072F11C2643532082021B08D5937B0E59391410078559E5C60CB27238300D2EFB48C797060CB272383002E5EBCB8FE8562005B3E15B8138CC96A64104026EB42300F026CF9646410C0BD5E818879D060CB27835D204C56238300D02BAF31EB0FB67C323208201C0EAF7FA118C0964F850C02C05B9AC905B67C32320800BF
310
A9532EB0E59379485784F13CDFD5D525772D1E19060707E3D7BB6132470601F4F5F5ADFA72B8C71F7F9C65D9F5A9CF06A0A6A626FDAA65442696CF366410C0D2D2D2AA69689ACEF08D2998CCC9C4F2D9061E07C06435320860C78E1DEB5F2806B0E55321830032F156310F026CF9646410C0E8E8E8FA178A016CF954C82080
310
0C5F6988F9D4C1964F06778231598D0CA146A3D188B6E2696D6D6518667171B1BFBF1F00366DDA545656160E87D19C2D8220D0C8657F7FFFE2E22200ECD8B143A3D12C2F2FF7F6F60240515151656525007CF0C107E84DA6FBF6ED230862606000BD33A2BCBCDC6EB77BBDDE9E9E1E006018A6B5B51500AE5EBDEAF7FB0160
310
CF9E3D1445CDCCCC0C0D0D01406969A9C3E100804B972EC56231A552F9D9CF7E1600AE5FBFBEB2B20200353535F9F9F9737373E88D014EA713EDCD78E5CA9568344AD3F4EEDDBB01607272727C7C1C00AAABABAD56EBC2C2C28D1B370040AFD7373535014047474724120180C6C646A3D1383535859C93CACACAA2A2224110
310
D0D22DAD568B26300F0F0FBBDD6E00F8CC673E63369BA7A7A7D10B017273736B6B6B01E0C2850BA228AAD56AB447DDC8C8087A69526D6D6D6E6EAE64D2CCB7D1CD1E8893274FAE4F49A150A8A9A909EDC8899191AEAEAEDEDEDEE4773A6527D805C26435580098AC060B0093D5600160B29AF58B0229148ABFFDED6F972E5D
310
5AB7123129090402C5C5C572D7E261615D05E0743AD7AD38CCBD90DE068B01EC0261B21C2C004C56830580C96AB00030590D160026ABC102C06435580098AC060B0093D5600160B21A2C004C56830580C96AB00030590D160026ABC102C06435580098ACE6FF01E4A71293837E64D80000000049454E44AE426082
  0
ACDSRECORD
 90
        0
  2
AcDbDs::ID
280
    10
320
22
  2
Thumbnail_Data
280
    15
 94
     2008
310
89504E470D0A1A0A0000000D4948445200000100000000610802000000B6CFE87A000000097048597300000EC400000EC401952B0E1B0000078A49444154789CEDDD7F4C93670207F02FA569014171ACC011115B7E48C3B2280992B8687478ECFC831162C8E925DE398824C423BB9C3913972347223171263B2539B38B07F8
310
0FE939A2981099840CA28C1DD0C3A0B883812B153027B66C8516E8BA96DE1FED212A22206DE9FB7C3F7F95F779DE97E78FE7DBE7799FBE3F42DC6E376885BABABACACBCB232323ABABAB376FDE1CE8E6D04AB4B6DE7238B45A6D5252120059A09B1394B2B3B3EBEAEA001416165EBB762DD0CDA165D3EBCDDBB68D8D8D797A
310
3F18805553A954D7AF5FAFA8A8E8EEEE76381C168B25D02DA265B05AFFAED3252424CC6F08E114E8CD59ADD6A74F9F26272707BA21B424BD7E3C3AFAF79F7C72E5CA950D1B3678B671045803515151ECFDEB9F6362E2776565898989F3BD1F1C014814DDDD7A9B6DFF871F0E0F0FAB54AAF9CDF2003689C84FE6E65C56EB97
310
1D1D3A9D6E61EF07A74024849E9E8ED9D9C6C6C6BCBCBC174A1800923A970B33337FFEF4D3CACACA970B190092BADEDE8A860600070E1C78B990E70024694EA7A1AFAFB6A1E1F2E5CBA1A1A12F9773042049BB77EFB6C5A256ABF7EDDBB768390340D2E574CE9A4CE73EFFFCF0E1C30A8562D12A0C0049576FEF3F0706944A
310
654141C1ABAA30002451365B7767E79F2A2B4F9C38111717F7AA5AFC259824AABDFD3755556EB95CA7D32D518BAB40244536DBBFEFDF1F7DF2E4C68D1B4B57E4148824A8EDB3CFF67CFCF1B163C762626296AEC9291049CECCCC2F63637F7DE1425151914CF69AAF788E002435973EFAC8AC561F3972E4B5BD1F3C07202971
310
B95CA5C5C5FFF9E28B9B8F1F2FBCE87F091C0148221C0EC7F1E3C7675B5AFED1DF1F1F1FBFCCBD180092889E9E9EBADADAA2D2D2F4F4F4E54C7E3C18009208FD37DFFC0AE858E15E0C0049C2F8F831AD76E2BDF712131357B41F974129F8E9F5080FC73BEFAC6257AE0251101B371AA7BFFA4A5358888D1B5777040680828F
310
D96CB6582CFFAAAEBEDFDEFE8B82823FAEB6F78301A020323939B969D3A6B1B1B1D2DCDCE9FE7E6D4ECEDFDADB1112325FA1A9A9A9BEBEBEA6A62664C1C6A5310014040C06C3F9F3E7BBBBBB0FEFDAF5E8F6ED4183E10F972EE5E7E7E3F98E9E9B9BFBE8D1A3151D9927C11404A6A7A74B3FF820DE6E5768B58AD4D4F8F8F8
310
9292923539320340EB9BDB8DEFBFC7C8C87F232214A9A9AFBDBA73A518005AC71E3EC4C8089293F1FFA799AF390680D625DF777D0F068002E3C183071D1D1D5D5D5D6565653B77EE7C56303484D1513F747D0F0680FCC7E9741A8D46A7D359515171F5EA558D46535B5BBB77EF5E6FB1A7EBA7A460EB56BF3589CBA0E47366
310
B3796464A4AAAA6A7676B6BEBEDEF382969A9A9AA3478FCAE5724C4F6368083FFC809414BCFFBE9FDBC611807CEEE0C1832D2D2D6AB5FAE4C9930A85A2A8A808160B060761B301404404542A04E80D230C00F95C4343837572F2B77979B877CFBB69D326A4A5212A2AA0ED021800F2A1B9394C4CA0AF0F006432444763C78E
310
40B7E9450C00ADB5FE7E3C7902B71B3219DE7A0BEFBE1BE8062D8501A037E674E2EE5DEF841E407A3AE2E3B1EC9B12038BAB40B42A26138687BD9D3E34149999EB6142BF0A1C01E839ADADAD4343436AB53A3737F7C532A311A3A3F8F9670078FB6DA8D541DAE917E20840686A6A32994C00323232EAEBEB676666F6ECD903
310
00763B4C263C7C08CFB7645212B2B3F18A07ED07298E00E26A6C6C3C7BF6AC52A92C2E2E8E8D8D55ABD50909099172394647313A0A004A25542AA4A404CB847E15180041E9F5FA73E7CEA5A5A59594946C8B8DC5B7DFC26A0580B0306CD9E2CF8B11028B011092DB0D9B0D7ABDF7CFF0706464ACFABEF2A0C60088C460C0C8
310
08E6E600202A0A5959816E50E03100D26236C360000087030EC773453FFE88CC4C6CDD8AC5DE162A2C062060EAEAEA4C26D3A1438796FB30339BCDDBB9EDF667BF3ABD2026061A0D002895125BAEF1112E83FA9CD168BC75EB96E7736767E7CD9B373D9F7372724E9D3AE57D7F9BC301A31100DC6E3C7EBCF8812223A15603
310
40783822237DDC6A517004F0B9BB3D3D7F292ED668342A956AA8B9392B33333F3F1F405C5CDCB397D72A14DE1BA04242B0654BE01A2B1C06E08D4D4E7A67DB8383F8E9A7452A2CECD3C9C9125E530F46A204606A6AAAADADCDF3592693E5E5E52D6B37BBDDFBCBFF77DF616A6AF13A1B3742A90480D4548485AD415BC98FA4
310
7C0E30303050565666B158B45AED993367743A5D4949C9C58B17CBCBCB01C0E5F22E088E8F637070F143CC9F4A6EDF2EE632B9E4497C04E86D6B9BEAE8888A8CDCB96387B7BBCF93C9BCB391B8386CDF1E90E651C085B83B3BFDF06F6C36DB5F2F5CD89595D5FEF5D79E2DA74F9FDE1011B1364777B960B72F5E141DEDBD21
310
63BEBB132D10E2F65C01E2337D7D7D9E2B0D0168341A83C1B07FFFFE3B77EEB85CAEDDBB7787ADC9A4592EE7E49B5647E25320A2A571564042630048680C00098D0120A131002434068084C60090D01800121A034042630048680C00098D0120A131002434068084C60090D01800121A034042630048680C00098D0120A131
310
002434068084C60090D0180012DA5201686E6E9E7AD52391892461A900B8DDEE969616BF3585C8FFF86844121ACF0148680C00098D0120A131002434068084C60090D01800121A034042630048680C0009ED7FCE1A985C62D29B340000000049454E44AE426082
  0
ENDSEC
  0
EOF
