  0
SECTION
  2
HEADER
  9
$ACADVER
  1
AC1032
  9
$ACADMAINTVER
 90
       55
  9
$DWGCODEPAGE
  3
ANSI_1252
  9
$LASTSAVEDBY
  1
eac573
  9
$REQUIREDVERSIONS
160
                 0
  9
$INSBASE
 10
0.0
 20
0.0
 30
0.0
  9
$EXTMIN
 10
185.6281905904269
 20
110.9161250246645
 30
0.0
  9
$EXTMAX
 10
200.1313824868657
 20
120.6815333279832
 30
0.0
  9
$LIMMIN
 10
0.0
 20
0.0
  9
$LIMMAX
 10
420.0
 20
297.0
  9
$ORTHOMODE
 70
     0
  9
$REGENMODE
 70
     1
  9
$FILLMODE
 70
     1
  9
$QTEXTMODE
 70
     0
  9
$MIRRTEXT
 70
     0
  9
$LTSCALE
 40
1.0
  9
$ATTMODE
 70
     1
  9
$TEXTSIZE
 40
2.5
  9
$TRACEWID
 40
1.0
  9
$TEXTSTYLE
  7
Standard
  9
$CLAYER
  8
Context 1
  9
$CELTYPE
  6
ByLayer
  9
$CECOLOR
 62
     1
  9
$CELTSCALE
 40
1.0
  9
$DISPSILH
 70
     0
  9
$DIMSCALE
 40
1.0
  9
$DIMASZ
 40
2.5
  9
$DIMEXO
 40
0.625
  9
$DIMDLI
 40
3.75
  9
$DIMRND
 40
0.0
  9
$DIMDLE
 40
0.0
  9
$DIMEXE
 40
1.25
  9
$DIMTP
 40
0.0
  9
$DIMTM
 40
0.0
  9
$DIMTXT
 40
2.5
  9
$DIMCEN
 40
-2.5
  9
$DIMTSZ
 40
0.0
  9
$DIMTOL
 70
     0
  9
$DIMLIM
 70
     0
  9
$DIMTIH
 70
     0
  9
$DIMTOH
 70
     0
  9
$DIMSE1
 70
     0
  9
$DIMSE2
 70
     0
  9
$DIMTAD
 70
     1
  9
$DIMZIN
 70
     8
  9
$DIMBLK
  1

  9
$DIMASO
 70
     1
  9
$DIMSHO
 70
     1
  9
$DIMPOST
  1

  9
$DIMAPOST
  1

  9
$DIMALT
 70
     0
  9
$DIMALTD
 70
     3
  9
$DIMALTF
 40
0.03937007874016
  9
$DIMLFAC
 40
1.0
  9
$DIMTOFL
 70
     1
  9
$DIMTVP
 40
0.0
  9
$DIMTIX
 70
     0
  9
$DIMSOXD
 70
     0
  9
$DIMSAH
 70
     0
  9
$DIMBLK1
  1

  9
$DIMBLK2
  1

  9
$DIMSTYLE
  2
ISO-25
  9
$DIMCLRD
 70
     0
  9
$DIMCLRE
 70
     0
  9
$DIMCLRT
 70
     0
  9
$DIMTFAC
 40
1.0
  9
$DIMGAP
 40
0.625
  9
$DIMJUST
 70
     0
  9
$DIMSD1
 70
     0
  9
$DIMSD2
 70
     0
  9
$DIMTOLJ
 70
     0
  9
$DIMTZIN
 70
     8
  9
$DIMALTZ
 70
     0
  9
$DIMALTTZ
 70
     0
  9
$DIMUPT
 70
     0
  9
$DIMDEC
 70
     2
  9
$DIMTDEC
 70
     2
  9
$DIMALTU
 70
     2
  9
$DIMALTTD
 70
     3
  9
$DIMTXSTY
  7
Standard
  9
$DIMAUNIT
 70
     0
  9
$DIMADEC
 70
     0
  9
$DIMALTRND
 40
0.0
  9
$DIMAZIN
 70
     0
  9
$DIMDSEP
 70
    44
  9
$DIMATFIT
 70
     3
  9
$DIMFRAC
 70
     0
  9
$DIMLDRBLK
  1

  9
$DIMLUNIT
 70
     2
  9
$DIMLWD
 70
    -2
  9
$DIMLWE
 70
    -2
  9
$DIMTMOVE
 70
     0
  9
$DIMFXL
 40
1.0
  9
$DIMFXLON
 70
     0
  9
$DIMJOGANG
 40
0.7853981633974483
  9
$DIMTFILL
 70
     0
  9
$DIMTFILLCLR
 70
     0
  9
$DIMARCSYM
 70
     0
  9
$DIMLTYPE
  6

  9
$DIMLTEX1
  6

  9
$DIMLTEX2
  6

  9
$DIMTXTDIRECTION
 70
     0
  9
$LUNITS
 70
     2
  9
$LUPREC
 70
     3
  9
$SKETCHINC
 40
1.0
  9
$FILLETRAD
 40
10.0
  9
$AUNITS
 70
     0
  9
$AUPREC
 70
     0
  9
$MENU
  1
.
  9
$ELEVATION
 40
0.0
  9
$PELEVATION
 40
0.0
  9
$THICKNESS
 40
0.0
  9
$LIMCHECK
 70
     0
  9
$CHAMFERA
 40
10.0
  9
$CHAMFERB
 40
10.0
  9
$CHAMFERC
 40
20.0
  9
$CHAMFERD
 40
0.0
  9
$SKPOLY
 70
     0
  9
$TDCREATE
 40
2455022.637359514
  9
$TDUCREATE
 40
2455022.637359514
  9
$TDUPDATE
 40
2459661.624889016
  9
$TDUUPDATE
 40
2459661.624889016
  9
$TDINDWG
 40
0.0065943866
  9
$TDUSRTIMER
 40
2458948.647681632
  9
$USRTIMER
 70
     1
  9
$ANGBASE
 50
0.0
  9
$ANGDIR
 70
     0
  9
$PDMODE
 70
     0
  9
$PDSIZE
 40
0.0
  9
$PLINEWID
 40
0.0
  9
$SPLFRAME
 70
     0
  9
$SPLINETYPE
 70
     6
  9
$SPLINESEGS
 70
     8
  9
$HANDSEED
  5
6B3
  9
$SURFTAB1
 70
     6
  9
$SURFTAB2
 70
     6
  9
$SURFTYPE
 70
     6
  9
$SURFU
 70
     6
  9
$SURFV
 70
     6
  9
$UCSBASE
  2

  9
$UCSNAME
  2

  9
$UCSORG
 10
0.0
 20
0.0
 30
0.0
  9
$UCSXDIR
 10
1.0
 20
0.0
 30
0.0
  9
$UCSYDIR
 10
0.0
 20
1.0
 30
0.0
  9
$UCSORTHOREF
  2

  9
$UCSORTHOVIEW
 70
     0
  9
$UCSORGTOP
 10
0.0
 20
0.0
 30
0.0
  9
$UCSORGBOTTOM
 10
0.0
 20
0.0
 30
0.0
  9
$UCSORGLEFT
 10
0.0
 20
0.0
 30
0.0
  9
$UCSORGRIGHT
 10
0.0
 20
0.0
 30
0.0
  9
$UCSORGFRONT
 10
0.0
 20
0.0
 30
0.0
  9
$UCSORGBACK
 10
0.0
 20
0.0
 30
0.0
  9
$PUCSBASE
  2

  9
$PUCSNAME
  2

  9
$PUCSORG
 10
0.0
 20
0.0
 30
0.0
  9
$PUCSXDIR
 10
1.0
 20
0.0
 30
0.0
  9
$PUCSYDIR
 10
0.0
 20
1.0
 30
0.0
  9
$PUCSORTHOREF
  2

  9
$PUCSORTHOVIEW
 70
     0
  9
$PUCSORGTOP
 10
0.0
 20
0.0
 30
0.0
  9
$PUCSORGBOTTOM
 10
0.0
 20
0.0
 30
0.0
  9
$PUCSORGLEFT
 10
0.0
 20
0.0
 30
0.0
  9
$PUCSORGRIGHT
 10
0.0
 20
0.0
 30
0.0
  9
$PUCSORGFRONT
 10
0.0
 20
0.0
 30
0.0
  9
$PUCSORGBACK
 10
0.0
 20
0.0
 30
0.0
  9
$USERI1
 70
     0
  9
$USERI2
 70
     0
  9
$USERI3
 70
     0
  9
$USERI4
 70
     0
  9
$USERI5
 70
     0
  9
$USERR1
 40
0.0
  9
$USERR2
 40
0.0
  9
$USERR3
 40
0.0
  9
$USERR4
 40
0.0
  9
$USERR5
 40
0.0
  9
$WORLDVIEW
 70
     1
  9
$SHADEDGE
 70
     3
  9
$SHADEDIF
 70
    70
  9
$TILEMODE
 70
     1
  9
$MAXACTVP
 70
    64
  9
$PINSBASE
 10
0.0
 20
0.0
 30
0.0
  9
$PLIMCHECK
 70
     0
  9
$PEXTMIN
 10
1.000000000000000E+20
 20
1.000000000000000E+20
 30
1.000000000000000E+20
  9
$PEXTMAX
 10
-1.000000000000000E+20
 20
-1.000000000000000E+20
 30
-1.000000000000000E+20
  9
$PLIMMIN
 10
0.0
 20
0.0
  9
$PLIMMAX
 10
420.0
 20
297.0
  9
$UNITMODE
 70
     0
  9
$VISRETAIN
 70
     1
  9
$PLINEGEN
 70
     0
  9
$PSLTSCALE
 70
     1
  9
$TREEDEPTH
 70
  3020
  9
$CMLSTYLE
  2
Standard
  9
$CMLJUST
 70
     0
  9
$CMLSCALE
 40
20.0
  9
$PROXYGRAPHICS
 70
     1
  9
$MEASUREMENT
 70
     1
  9
$CELWEIGHT
370
    -1
  9
$ENDCAPS
280
     0
  9
$JOINSTYLE
280
     0
  9
$LWDISPLAY
290
     0
  9
$INSUNITS
 70
     4
  9
$HYPERLINKBASE
  1

  9
$STYLESHEET
  1

  9
$XEDIT
290
     1
  9
$CEPSNTYPE
380
     0
  9
$PSTYLEMODE
290
     1
  9
$FINGERPRINTGUID
  2
{EC6BB858-51AA-46EC-B484-6C9CC7AB3E2E}
  9
$VERSIONGUID
  2
{FAEB1C32-E019-11D5-929B-00C0DF256EC4}
  9
$EXTNAMES
290
     1
  9
$PSVPSCALE
 40
0.0
  9
$OLESTARTUP
290
     0
  9
$SORTENTS
280
   127
  9
$INDEXCTL
280
     0
  9
$HIDETEXT
280
     1
  9
$XCLIPFRAME
280
     0
  9
$HALOGAP
280
     0
  9
$OBSCOLOR
 70
   257
  9
$OBSLTYPE
280
     0
  9
$INTERSECTIONDISPLAY
280
     0
  9
$INTERSECTIONCOLOR
 70
   257
  9
$DIMASSOC
280
     2
  9
$PROJECTNAME
  1

  9
$CAMERADISPLAY
290
     0
  9
$LENSLENGTH
 40
50.0
  9
$CAMERAHEIGHT
 40
0.0
  9
$STEPSPERSEC
 40
2.0
  9
$STEPSIZE
 40
6.0
  9
$3DDWFPREC
 40
2.0
  9
$PSOLWIDTH
 40
5.0
  9
$PSOLHEIGHT
 40
80.0
  9
$LOFTANG1
 40
1.570796326794897
  9
$LOFTANG2
 40
1.570796326794897
  9
$LOFTMAG1
 40
0.0
  9
$LOFTMAG2
 40
0.0
  9
$LOFTPARAM
 70
     7
  9
$LOFTNORMALS
280
     1
  9
$LATITUDE
 40
37.795
  9
$LONGITUDE
 40
-122.394
  9
$NORTHDIRECTION
 40
0.0
  9
$TIMEZONE
 70
 -8000
  9
$LIGHTGLYPHDISPLAY
280
     1
  9
$TILEMODELIGHTSYNCH
280
     1
  9
$CMATERIAL
347
73
  9
$SOLIDHIST
280
     1
  9
$SHOWHIST
280
     1
  9
$DWFFRAME
280
     2
  9
$DGNFRAME
280
     2
  9
$REALWORLDSCALE
290
     1
  9
$INTERFERECOLOR
 62
   256
  9
$CSHADOW
280
     0
  9
$SHADOWPLANELOCATION
 40
0.0
  0
ENDSEC
  0
SECTION
  2
CLASSES
  0
CLASS
  1
ACDBDICTIONARYWDFLT
  2
AcDbDictionaryWithDefault
  3
ObjectDBX Classes
 90
        0
 91
        3
280
     0
281
     0
  0
CLASS
  1
VISUALSTYLE
  2
AcDbVisualStyle
  3
ObjectDBX Classes
 90
     4095
 91
        3
280
     0
281
     0
  0
CLASS
  1
TABLESTYLE
  2
AcDbTableStyle
  3
ObjectDBX Classes
 90
     4095
 91
        3
280
     0
281
     0
  0
CLASS
  1
DICTIONARYVAR
  2
AcDbDictionaryVar
  3
ObjectDBX Classes
 90
        0
 91
        3
280
     0
281
     0
  0
CLASS
  1
SCALE
  2
AcDbScale
  3
ObjectDBX Classes
 90
     1153
 91
        3
280
     0
281
     0
  0
CLASS
  1
CELLSTYLEMAP
  2
AcDbCellStyleMap
  3
ObjectDBX Classes
 90
     1152
 91
        3
280
     0
281
     0
  0
CLASS
  1
RASTERVARIABLES
  2
AcDbRasterVariables
  3
ISM
 90
        0
 91
        3
280
     0
281
     0
  0
CLASS
  1
MATERIAL
  2
AcDbMaterial
  3
ObjectDBX Classes
 90
     1153
 91
        3
280
     0
281
     0
  0
CLASS
  1
SUN
  2
AcDbSun
  3
SCENEOE
 90
     1153
 91
        3
280
     0
281
     0
  0
CLASS
  1
MLEADERSTYLE
  2
AcDbMLeaderStyle
  3
ACDB_MLEADERSTYLE_CLASS
 90
     4095
 91
        3
280
     0
281
     0
  0
CLASS
  1
SORTENTSTABLE
  2
AcDbSortentsTable
  3
ObjectDBX Classes
 90
        0
 91
        3
280
     0
281
     0
  0
CLASS
  1
IMAGE
  2
AcDbRasterImage
  3
ISM
 90
      127
 91
        4
280
     0
281
     1
  0
CLASS
  1
IMAGEDEF
  2
AcDbRasterImageDef
  3
ISM
 90
        0
 91
        3
280
     0
281
     0
  0
CLASS
  1
IMAGEDEF_REACTOR
  2
AcDbRasterImageDefReactor
  3
ISM
 90
        1
 91
        3
280
     0
281
     0
  0
ENDSEC
  0
SECTION
  2
TABLES
  0
TABLE
  2
VPORT
  5
8
330
0
100
AcDbSymbolTable
 70
     1
  0
VPORT
  5
29
330
8
100
AcDbSymbolTableRecord
100
AcDbViewportTableRecord
  2
*Active
 70
     0
 10
0.0
 20
0.0
 11
1.0
 21
1.0
 12
327.0667024264982
 22
115.7988291763238
 13
0.0
 23
0.0
 14
10.0
 24
10.0
 15
10.0
 25
10.0
 16
0.0
 26
0.0
 36
1.0
 17
-134.1869158878519
 27
0.0
 37
0.0
 40
9.960716469385067
 41
2.632978723404255
 42
50.0
 43
0.0
 44
0.0
 50
0.0
 51
0.0
 71
    16
 72
  1000
 73
     1
 74
     3
 75
     0
 76
     0
 77
     0
 78
     0
281
     0
 65
     1
110
0.0
120
0.0
130
0.0
111
1.0
121
0.0
131
0.0
112
0.0
122
1.0
132
0.0
 79
     0
146
0.0
348
2F
 60
     3
 61
     5
292
     1
282
     1
141
0.0
142
0.0
 63
   256
361
80
  0
ENDTAB
  0
TABLE
  2
LTYPE
  5
5
330
0
100
AcDbSymbolTable
 70
     2
  0
LTYPE
  5
14
330
5
100
AcDbSymbolTableRecord
100
AcDbLinetypeTableRecord
  2
ByBlock
 70
     0
  3

 72
    65
 73
     0
 40
0.0
  0
LTYPE
  5
15
330
5
100
AcDbSymbolTableRecord
100
AcDbLinetypeTableRecord
  2
ByLayer
 70
     0
  3

 72
    65
 73
     0
 40
0.0
  0
LTYPE
  5
16
330
5
100
AcDbSymbolTableRecord
100
AcDbLinetypeTableRecord
  2
Continuous
 70
     0
  3
Solid line
 72
    65
 73
     0
 40
0.0
  0
LTYPE
  5
1B0
330
5
100
AcDbSymbolTableRecord
100
AcDbLinetypeTableRecord
  2
DASHDOT
 70
     0
  3
DashDot __  . __  . __  . __  . __  . __  . __ 
 72
    65
 73
     4
 40
25.4
 49
12.7
 74
     0
 49
-6.35
 74
     0
 49
0.0
 74
     0
 49
-6.35
 74
     0
  0
ENDTAB
  0
TABLE
  2
LAYER
  5
2
102
{ACAD_XDICTIONARY
360
115
102
}
330
0
100
AcDbSymbolTable
 70
    10
  0
LAYER
  5
10
330
2
100
AcDbSymbolTableRecord
100
AcDbLayerTableRecord
  2
0
 70
     0
 62
     7
  6
Continuous
370
    -3
390
F
347
75
348
0
  0
LAYER
  5
BE
330
2
100
AcDbSymbolTableRecord
100
AcDbLayerTableRecord
  2
Context 1
 70
     0
 62
     7
  6
Continuous
370
    -3
390
F
347
75
348
0
1001
AcAecLayerStandard
1000

1000

  0
LAYER
  5
1A9
330
2
100
AcDbSymbolTableRecord
100
AcDbLayerTableRecord
  2
Annotatons
 70
     0
 62
     7
  6
Continuous
370
    -3
390
F
347
75
348
0
1001
AcAecLayerStandard
1000

1000

  0
LAYER
  5
1AA
330
2
100
AcDbSymbolTableRecord
100
AcDbLayerTableRecord
  2
Evaluation trench (LOE)
 70
     0
 62
     7
  6
Continuous
370
    -3
390
F
347
75
348
0
1001
AcAecLayerStandard
1000

1000

  0
LAYER
  5
1AB
330
2
100
AcDbSymbolTableRecord
100
AcDbLayerTableRecord
  2
Drawing point
 70
     0
 62
     7
  6
Continuous
370
    -3
390
F
347
75
348
0
1001
AcAecLayerStandard
1000

1000

  0
LAYER
  5
1AC
330
2
100
AcDbSymbolTableRecord
100
AcDbLayerTableRecord
  2
Section point
 70
     0
 62
     7
  6
Continuous
370
    -3
390
F
347
75
348
0
1001
AcAecLayerStandard
1000

1000

  0
LAYER
  5
1AD
330
2
100
AcDbSymbolTableRecord
100
AcDbLayerTableRecord
  2
Context 2
 70
     0
 62
     7
  6
Continuous
370
    -3
390
F
347
75
348
0
1001
AcAecLayerStandard
1000

1000

  0
LAYER
  5
1AE
330
2
100
AcDbSymbolTableRecord
100
AcDbLayerTableRecord
  2
Details
 70
     0
 62
     7
  6
Continuous
370
    -3
390
F
347
75
348
0
1001
AcAecLayerStandard
1000

1000

  0
LAYER
  5
1AF
330
2
100
AcDbSymbolTableRecord
100
AcDbLayerTableRecord
  2
Co-ord
 70
     0
 62
     7
  6
Continuous
370
    -3
390
F
347
75
348
0
1001
AcAecLayerStandard
1000

1000

  0
LAYER
  5
69E
330
2
100
AcDbSymbolTableRecord
100
AcDbLayerTableRecord
  2
aOD
 70
     0
 62
     7
  6
Continuous
370
    -3
390
F
347
75
348
0
1001
AcAecLayerStandard
1000

1000

  0
ENDTAB
  0
TABLE
  2
STYLE
  5
3
330
0
100
AcDbSymbolTable
 70
     3
  0
STYLE
  5
11
330
3
100
AcDbSymbolTableRecord
100
AcDbTextStyleTableRecord
  2
Standard
 70
     0
 40
0.0
 41
1.0
 50
0.0
 71
     0
 42
2.5
  3
arial.ttf
  4

1001
ACAD
1000
Arial
1071
        0
  0
STYLE
  5
B8
330
3
100
AcDbSymbolTableRecord
100
AcDbTextStyleTableRecord
  2
Annotative
 70
     0
 40
0.0
 41
1.0
 50
0.0
 71
     0
 42
2.5
  3
arial.ttf
  4

1001
ACAD
1000
Arial
1071
        0
1001
AcadAnnotative
1000
AnnotativeData
1002
{
1070
     1
1070
     1
1002
}
  0
STYLE
  5
1B3
330
3
100
AcDbSymbolTableRecord
100
AcDbTextStyleTableRecord
  2
Text
 70
     0
 40
0.0
 41
1.0
 50
0.0
 71
     0
 42
2.5
  3
ARIALUNI.TTF
  4

1001
ACAD
1000
Arial Unicode MS
1071
        0
  0
ENDTAB
  0
TABLE
  2
VIEW
  5
6
330
0
100
AcDbSymbolTable
 70
     0
  0
ENDTAB
  0
TABLE
  2
UCS
  5
7
330
0
100
AcDbSymbolTable
 70
     0
  0
ENDTAB
  0
TABLE
  2
APPID
  5
9
330
0
100
AcDbSymbolTable
 70
     4
  0
APPID
  5
12
330
9
100
AcDbSymbolTableRecord
100
AcDbRegAppTableRecord
  2
ACAD
 70
     0
  0
APPID
  5
B9
330
9
100
AcDbSymbolTableRecord
100
AcDbRegAppTableRecord
  2
AcadAnnotative
 70
     0
  0
APPID
  5
C0
330
9
100
AcDbSymbolTableRecord
100
AcDbRegAppTableRecord
  2
AcAecLayerStandard
 70
     0
  0
APPID
  5
C3
330
9
100
AcDbSymbolTableRecord
100
AcDbRegAppTableRecord
  2
HATCHBACKGROUNDCOLOR
 70
     0
  0
ENDTAB
  0
TABLE
  2
DIMSTYLE
  5
A
330
0
100
AcDbSymbolTable
 70
     2
100
AcDbDimStyleTable
  0
DIMSTYLE
105
27
330
A
100
AcDbSymbolTableRecord
100
AcDbDimStyleTableRecord
  2
ISO-25
 70
     0
 41
2.5
 42
0.625
 43
3.75
 44
1.25
 73
     0
 74
     0
 77
     1
 78
     8
140
2.5
141
-2.5
143
0.03937007874016
147
0.625
171
     3
172
     1
178
     0
271
     2
272
     2
274
     3
278
    44
283
     0
284
     8
340
11
  0
DIMSTYLE
105
BA
330
A
100
AcDbSymbolTableRecord
100
AcDbDimStyleTableRecord
  2
Annotative
 70
     0
 40
0.0
 41
2.5
 42
0.625
 43
3.75
 44
1.25
 73
     0
 74
     0
 77
     1
 78
     8
140
2.5
141
-2.5
143
0.03937007874016
147
0.625
171
     3
172
     1
178
     0
271
     2
272
     2
274
     3
278
    44
283
     0
284
     8
340
11
1001
AcadAnnotative
1000
AnnotativeData
1002
{
1070
     1
1070
     1
1002
}
  0
ENDTAB
  0
TABLE
  2
BLOCK_RECORD
  5
1
330
0
100
AcDbSymbolTable
 70
     1
  0
BLOCK_RECORD
  5
1F
330
1
100
AcDbSymbolTableRecord
100
AcDbBlockTableRecord
  2
*Model_Space
340
22
 70
     0
280
     1
281
     0
  0
BLOCK_RECORD
  5
1B
330
1
100
AcDbSymbolTableRecord
100
AcDbBlockTableRecord
  2
*Paper_Space
340
1E
 70
     0
280
     1
281
     0
  0
BLOCK_RECORD
  5
23
330
1
100
AcDbSymbolTableRecord
100
AcDbBlockTableRecord
  2
*Paper_Space0
340
26
 70
     0
280
     1
281
     0
  0
ENDTAB
  0
ENDSEC
  0
SECTION
  2
BLOCKS
  0
BLOCK
  5
20
330
1F
100
AcDbEntity
  8
0
100
AcDbBlockBegin
  2
*Model_Space
 70
     0
 10
0.0
 20
0.0
 30
0.0
  3
*Model_Space
  1

  0
ENDBLK
  5
21
330
1F
100
AcDbEntity
  8
0
100
AcDbBlockEnd
  0
BLOCK
  5
1C
330
1B
100
AcDbEntity
 67
     1
  8
0
100
AcDbBlockBegin
  2
*Paper_Space
 70
     0
 10
0.0
 20
0.0
 30
0.0
  3
*Paper_Space
  1

  0
ENDBLK
  5
1D
330
1B
100
AcDbEntity
 67
     1
  8
0
100
AcDbBlockEnd
  0
BLOCK
  5
24
330
23
100
AcDbEntity
  8
0
100
AcDbBlockBegin
  2
*Paper_Space0
 70
     0
 10
0.0
 20
0.0
 30
0.0
  3
*Paper_Space0
  1

  0
ENDBLK
  5
25
330
23
100
AcDbEntity
  8
0
100
AcDbBlockEnd
  0
ENDSEC
  0
SECTION
  2
ENTITIES
  0
IMAGE
  5
163
330
1F
100
AcDbEntity
  8
0
160
               140
310
8C000000010000008400000006000000050000006085DDFBCFBD6740C040AA5A6B6E5D4000000000000000006ACC340F9B436840C040AA5A6B6E5D4000000000000000006ACC340F9B43684096B4F63D9E2B5E4000000000000000006085DDFBCFBD674096B4F63D9E2B5E4000000000000000006085DDFBCFBD6740C040AA
310
5A6B6E5D400000000000000000
100
AcDbRasterImage
 90
        0
 10
189.9316386534292
 20
117.7253023779513
 30
0.0
 11
0.0008429515112722812
 21
0.0
 31
0.0
 12
0.0
 22
0.0008429515112722812
 32
0.0
 13
4960.0
 23
3507.0
340
162
 70
     7
280
     0
281
    50
282
    50
283
     0
360
164
 71
     1
 91
        2
 14
-0.5
 24
-0.5
 14
4959.5
 24
3506.5
290
     0
  0
IMAGE
  5
192
330
1F
100
AcDbEntity
  8
0
160
               140
310
8C00000001000000840000000600000005000000702D2B3333356740CAFEDACAA1BA5B400000000000000000AD99C003F4406840CAFEDACAA1BA5B400000000000000000AD99C003F44068401E4A41E643355D400000000000000000702D2B33333567401E4A41E643355D400000000000000000702D2B3333356740CAFEDA
310
CAA1BA5B400000000000000000
100
AcDbRasterImage
 90
        0
 10
185.6624999850569
 20
110.9161250246645
 30
0.0
 11
0.001686953016219868
 21
0.0
 31
0.0
 12
0.0
 22
0.001686953016219868
 32
0.0
 13
4960.0
 23
3507.0
340
162
 70
     7
280
     0
281
    50
282
    50
283
     0
360
193
 71
     1
 91
        2
 14
-0.5
 24
-0.5
 14
4959.5
 24
3506.5
290
     0
  0
LWPOLYLINE
  5
194
330
1F
100
AcDbEntity
  8
Context 1
 62
     1
100
AcDbPolyline
 90
       10
 70
     0
 43
0.0
 10
185.7655312082496
 20
115.867606214409
 10
186.4753892289028
 20
115.9072630870712
 10
187.094036442433
 20
115.8953660252725
 10
187.6809581578335
 20
115.9191601488698
 10
188.1330465061824
 20
115.9389885852009
 10
188.6247917271936
 20
115.9667483960645
 10
188.8678759638402
 20
115.9767245780936
 10
189.3080672503905
 20
116.0520726361517
 10
189.8711948421936
 20
116.0481069488855
 10
190.2750907956785
 20
115.9987682225461
  0
LWPOLYLINE
  5
195
330
1F
100
AcDbEntity
  8
Context 1
 62
     1
100
AcDbPolyline
 90
       12
 70
     0
 43
0.0
 10
190.2724279606068
 20
115.5226924233455
 10
189.8155807875384
 20
115.5003576726621
 10
189.4561943447246
 20
115.4881750813803
 10
189.3201554087441
 20
115.4759924900985
 10
189.0139309865776
 20
115.4629890015526
 10
188.6301793612001
 20
115.4873541841162
 10
188.362162353
 20
115.4670498653132
 10
187.3357879603025
 20
115.4477553096303
 10
186.9271635443914
 20
115.4198368712761
 10
186.6581313202511
 20
115.4528313893311
 10
186.3180339803001
 20
115.4426792299296
 10
185.797170080898
 20
115.3957632906543
  0
LWPOLYLINE
  5
196
330
1F
100
AcDbEntity
  8
Context 1
 62
     1
100
AcDbPolyline
 90
       22
 70
     0
 43
0.0
 10
186.6281852233443
 20
115.4519374759905
 10
186.8819709440888
 20
115.3611798952106
 10
187.0037968569071
 20
115.3281853771557
 10
187.1586172877803
 20
115.3180332177542
 10
187.3210518382046
 20
115.2977288989511
 10
187.4581059901251
 20
115.2825006598488
 10
187.6357687796518
 20
115.236815942542
 10
187.810893529328
 20
115.1936692650855
 10
187.9403335616974
 20
115.1657508267313
 10
188.0012465181065
 20
115.1530606274794
 10
188.1002300722714
 20
115.1429084680779
 10
188.1890614670346
 20
115.0870715913696
 10
188.2525124632941
 20
115.036310794362
 10
188.3468620084378
 20
115.0316507662699
 10
188.4258701737642
 20
115.0607590377059
 10
188.5277491237904
 20
115.0919464713874
 10
188.6569119105579
 20
115.1913644019154
 10
188.7111537667583
 20
115.2289539331207
 10
188.86603799172
 20
115.2850545624483
 10
189.0426855653064
 20
115.3804848608226
 10
189.1563897506035
 20
115.443428249112
 10
189.2114042260212
 20
115.4713744888663
  0
LWPOLYLINE
  5
197
330
1F
100
AcDbEntity
  8
Context 1
 62
     1
100
AcDbPolyline
 90
       10
 70
     0
 43
0.0
 10
189.3539058731992
 20
115.4790149197512
 10
189.3134329491894
 20
115.3637952659627
 10
189.2606417203015
 20
115.2541519444263
 10
189.1895766044909
 20
115.1688738054535
 10
189.0921158742362
 20
115.1018695534034
 10
189.0149594627847
 20
115.0693826433186
 10
188.9418639150937
 20
115.1099912809247
 10
188.8464336167195
 20
115.1891781242565
 10
188.7875510921907
 20
115.2318171937429
 10
188.7633221831966
 20
115.2436616246852
  0
LWPOLYLINE
  5
198
330
1F
100
AcDbEntity
  8
Context 1
 62
     1
100
AcDbPolyline
 90
       22
 70
     0
 43
0.0
 10
188.039339044316
 20
115.1491537017144
 10
187.9641947847232
 20
115.1304814857663
 10
187.9267698643055
 20
115.109689863312
 10
187.8818599598042
 20
115.0730966077924
 10
187.84119874419
 20
115.0460435216378
 10
187.7977658765478
 20
115.0392305227919
 10
187.7479619111984
 20
115.0107217404295
 10
187.7190095769308
 20
114.973787372354
 10
187.6740996724295
 20
114.9513324201033
 10
187.6117248050666
 20
114.9480057605106
 10
187.5476866079072
 20
114.9371941168344
 10
187.5169150066749
 20
114.9313724625472
 10
187.4234761558889
 20
114.8909230108005
 10
187.3294980223953
 20
114.869299723448
 10
187.2496581921707
 20
114.8576564148736
 10
187.0105350418001
 20
114.8360656144312
 10
186.8941019560559
 20
114.8454218445356
 10
186.8301443670424
 20
114.853473522157
 10
186.7326836367877
 20
114.9281934153522
 10
186.5978629599355
 20
115.0743845107341
 10
186.3422379313049
 20
115.3095212126725
 10
186.170195718464
 20
115.4293629472637
  0
LWPOLYLINE
  5
199
330
1F
100
AcDbEntity
  8
Context 1
 62
     1
100
AcDbPolyline
 90
        9
 70
     0
 43
0.0
 10
190.0333411266515
 20
119.2053519948288
 10
190.2330873613415
 20
119.2069372824057
 10
190.3900308314549
 20
119.2212048705979
 10
190.521609700338
 20
119.2307165960593
 10
190.7324529480662
 20
119.2180342954441
 10
190.9052492939487
 20
119.219619583021
 10
191.1430424304843
 20
119.2291313084824
 10
191.3350774176933
 20
119.232320461225
 10
191.4783874146454
 20
119.234856921348
  0
LWPOLYLINE
  5
19A
330
1F
100
AcDbEntity
  8
Context 1
 62
     1
100
AcDbPolyline
 90
       18
 70
     0
 43
0.0
 10
191.294103471054
 20
119.2316400009807
 10
191.2409194649799
 20
119.1898479843399
 10
191.1770873559403
 20
119.1629188133389
 10
191.1096874823833
 20
119.1360221090274
 10
191.0561615992824
 20
119.1160745749525
 10
191.0036330928852
 20
119.1021113011001
 10
190.9501072097843
 20
119.0984542531863
 10
190.815800307018
 20
119.1019762396714
 10
190.7461409953668
 20
119.0988289999508
 10
190.658351066756
 20
119.0848033900544
 10
190.5695222040788
 20
119.0686999120252
 10
190.5090857467867
 20
119.0626651026889
 10
190.4303540245673
 20
119.0675351061252
 10
190.3508106351086
 20
119.0853917853914
 10
190.2785722508042
 20
119.1202934766845
 10
190.2103922026967
 20
119.156006835217
 10
190.1714321752067
 20
119.1909085265101
 10
190.155192476989
 20
119.2063190690379
  0
LWPOLYLINE
  5
19B
330
1F
100
AcDbEntity
  8
Context 1
 62
     1
100
AcDbPolyline
 90
       17
 70
     0
 43
0.0
 10
191.9581015948731
 20
119.1621615903837
 10
192.1437704758801
 20
119.1662199265806
 10
192.3365414452316
 20
119.1763657670728
 10
192.4603206992363
 20
119.1814386873189
 10
192.5394582550753
 20
119.1753511830236
 10
192.727268066955
 20
119.1615655222548
 10
192.7654164272056
 20
119.1566955188186
 10
192.8311614735949
 20
119.1542605171005
 10
192.9033998578993
 20
119.1550721843398
 10
192.9910599197518
 20
119.151013848143
 10
193.0494999609868
 20
119.1558838515792
 10
193.1022583315462
 20
119.1591305205367
 10
193.1761200503292
 20
119.1802338687605
 10
193.2452595144782
 20
119.2032224409706
 10
193.2874662109257
 20
119.2207544533411
 10
193.3290235735817
 20
119.2298451264221
 10
193.3686329348632
 20
119.2363384643371
  0
LWPOLYLINE
  5
19C
330
1F
100
AcDbEntity
  8
Context 1
 62
     1
100
AcDbPolyline
 90
       13
 70
     0
 43
0.0
 10
193.2452595144782
 20
119.2032224409706
 10
193.1951156001908
 20
119.1556975485831
 10
193.1208318144432
 20
119.1073871144956
 10
193.0230969329819
 20
119.0620331783274
 10
192.9233592626076
 20
119.0422934310658
 10
192.6739680353363
 20
119.0242075826274
 10
192.5246212632913
 20
119.0323242550212
 10
192.3866378325976
 20
119.0217725809093
 10
192.3000801400939
 20
119.0265151668566
 10
192.226015504501
 20
119.0397047594964
 10
192.1306446038744
 20
119.0884047938589
 10
192.087017489758
 20
119.1208714834339
 10
192.0404137345676
 20
119.1639607628361
  0
LWPOLYLINE
  5
19D
330
1F
100
AcDbEntity
  8
Context 1
 62
     1
100
AcDbPolyline
 90
        7
 70
     0
 43
0.0
 10
190.0036780700739
 20
118.4988065979142
 10
190.29497466233
 20
118.480972112674
 10
190.5605103314614
 20
118.4928617695008
 10
190.8339724384774
 20
118.4730456747895
 10
191.0618575276573
 20
118.4611560179627
 10
191.2897426168373
 20
118.435395094838
 10
191.4522345934699
 20
118.435395094838
  0
LWPOLYLINE
  5
19E
330
1F
100
AcDbEntity
  8
Context 1
 62
     1
100
AcDbPolyline
 90
       13
 70
     0
 43
0.0
 10
191.3333380252022
 20
118.4353950948381
 10
191.2501104274147
 20
118.3917996864732
 10
191.2045334095787
 20
118.3719835917619
 10
191.0955448886665
 20
118.3561307159928
 10
190.9013471604958
 20
118.3541491065217
 10
190.7467816217476
 20
118.3382962307527
 10
190.6159953966531
 20
118.3541491065217
 10
190.4970988283852
 20
118.3779284201753
 10
190.3940551358865
 20
118.3799100296464
 10
190.2989378812723
 20
118.3997261243577
 10
190.2117470645425
 20
118.4274686569535
 10
190.1364459046396
 20
118.4512479706071
 10
190.0710429251572
 20
118.4946822190315
  0
LWPOLYLINE
  5
19F
330
1F
100
AcDbEntity
  8
Context 1
 62
     1
100
AcDbPolyline
 90
       11
 70
     0
 43
0.0
 10
189.8766271261348
 20
112.5070498305389
 10
190.2621690648379
 20
112.4948748219483
 10
190.805986115219
 20
112.5050206624405
 10
191.177323877233
 20
112.5192248391295
 10
191.599390841708
 20
112.535458183917
 10
191.9085853307072
 20
112.5463966681977
 10
192.3712356571509
 20
112.5155533131015
 10
192.6543223621037
 20
112.4995596637956
 10
192.8880825270437
 20
112.5073516692936
 10
193.1335307002306
 20
112.5086503368766
 10
193.1789840656357
 20
112.5034556665446
  0
LWPOLYLINE
  5
1A0
330
1F
100
AcDbEntity
  8
Context 1
 62
     1
100
AcDbPolyline
 90
       14
 70
     0
 43
0.0
 10
192.9611923195298
 20
112.5077384935925
 10
192.8280039325692
 20
112.3125718235246
 10
192.7043515015707
 20
112.2364780198332
 10
192.5775284954184
 20
112.1984311179875
 10
192.4332546436195
 20
112.1940937711771
 10
192.3277379025008
 20
112.2233137917946
 10
192.2205978269033
 20
112.2541571468909
 10
191.9754743206121
 20
112.2509104779334
 10
191.8683342450146
 20
112.2330537986671
 10
191.7400908211934
 20
112.2541571468909
 10
191.5034327505629
 20
112.3425020529766
 10
191.4040035137395
 20
112.3993187597328
 10
191.3431284707864
 20
112.456135466489
 10
191.3025868217848
 20
112.5240426446892
  0
LWPOLYLINE
  5
1A1
330
1F
100
AcDbEntity
  8
Context 1
 62
     1
100
AcDbPolyline
 90
        3
 70
     0
 43
0.0
 10
192.6744838418887
 20
112.5002317131218
 10
192.6215043728018
 20
112.2511894885469
 10
192.5775284954184
 20
112.1984311179875
  0
LWPOLYLINE
  5
1A2
330
1F
100
AcDbEntity
  8
Context 1
 62
     1
100
AcDbPolyline
 90
        5
 70
     0
 43
0.0
 10
192.3277379025008
 20
112.2233137917946
 10
192.288720804658
 20
112.2917728505156
 10
192.2400207702956
 20
112.3830854149453
 10
192.2225264192849
 20
112.4520206382523
 10
192.213896891175
 20
112.5260425641665
  0
LWPOLYLINE
  5
1A3
330
1F
100
AcDbEntity
  8
Context 1
 62
     1
100
AcDbPolyline
 90
       16
 70
     0
 43
0.0
 10
191.8530822352693
 20
112.2355636230556
 10
191.824089208629
 20
112.1727788796427
 10
191.8157777360978
 20
112.0844694839987
 10
191.7690257031098
 20
112.0210945059483
 10
191.6799046402265
 20
111.9941065702391
 10
191.5884784423833
 20
111.9909897680399
 10
191.4793903654113
 20
112.0055348449695
 10
191.3329006620489
 20
112.0190409878327
 10
191.2238125850769
 20
112.0231967240983
 10
191.0121602065694
 20
112.0470658284403
 10
190.8303467449495
 20
112.1042072020922
 10
190.6095732558395
 20
112.1614449612289
 10
190.4521098114008
 20
112.2442350196451
 10
190.3482164047608
 20
112.3318950814976
 10
190.2352234474293
 20
112.441444794212
 10
190.1979463778325
 20
112.4969029068011
  0
LWPOLYLINE
  5
1A4
330
1F
100
AcDbEntity
  8
Context 1
 62
     1
100
AcDbPolyline
 90
       12
 70
     0
 43
0.0
 10
190.0583250576354
 20
112.5013120011231
 10
190.1426933821405
 20
112.3278113806995
 10
190.2189901026418
 20
112.2239179740595
 10
190.3115201679305
 20
112.110284560547
 10
190.3618435367718
 20
112.0615845261845
 10
190.3923317874508
 20
112.0383505514574
 10
190.5019068647664
 20
111.9957380213903
 10
190.5993069334914
 20
111.9855921808981
 10
190.7210570193976
 20
111.9977671894887
 10
190.8042529114335
 20
112.0261755428668
 10
190.8712154586819
 20
112.0444380557527
 10
190.9986613250299
 20
112.051308334067
  0
LWPOLYLINE
  5
2E9
330
1F
100
AcDbEntity
  8
Section point
 62
     5
100
AcDbPolyline
 90
        9
 70
     0
 43
0.0
 10
189.9901021141961
 20
119.257909806589
 10
190.0701021141961
 20
119.257909806589
 10
190.0301021141962
 20
119.257909806589
 10
190.0301021141962
 20
119.2179098065889
 10
190.0301021141962
 20
119.2979098065889
 10
190.0301021141962
 20
119.257909806589
 10
190.0701021141961
 20
119.257909806589
 10
190.0501021141961
 20
119.257909806589
 10
190.0501021141961
 20
119.257909806589
  0
CIRCLE
  5
2EA
330
1F
100
AcDbEntity
  8
Section point
 62
     5
100
AcDbCircle
 10
190.0301021141962
 20
119.257909806589
 30
0.0
 40
0.0200000000000102
  0
LWPOLYLINE
  5
2EB
330
1F
100
AcDbEntity
  8
Section point
 62
     5
100
AcDbPolyline
 90
        9
 70
     0
 43
0.0
 10
191.4357294121784
 20
119.2575929588456
 10
191.5157294121784
 20
119.2575929588456
 10
191.4757294121784
 20
119.2575929588456
 10
191.4757294121784
 20
119.2175929588456
 10
191.4757294121784
 20
119.2975929588456
 10
191.4757294121784
 20
119.2575929588456
 10
191.5157294121784
 20
119.2575929588456
 10
191.4957294121784
 20
119.2575929588456
 10
191.4957294121784
 20
119.2575929588456
  0
CIRCLE
  5
2EC
330
1F
100
AcDbEntity
  8
Section point
 62
     5
100
AcDbCircle
 10
191.4757294121784
 20
119.2575929588456
 30
0.0
 40
0.0200000000000102
  0
LWPOLYLINE
  5
2ED
330
1F
100
AcDbEntity
  8
Context 2
 62
     1
100
AcDbPolyline
 90
        6
 70
     0
 43
0.0
 10
191.7744504056917
 20
119.2575929588456
 10
191.8544504056918
 20
119.2575929588456
 10
191.8144504056917
 20
119.2575929588456
 10
191.7744504056917
 20
119.2175929588456
 10
191.8144504056917
 20
119.2575929588456
 10
191.8544504056917
 20
119.2175929588456
  0
TEXT
  5
2EE
330
1F
100
AcDbEntity
  8
Context 2
 62
     1
100
AcDbText
 10
191.7621491502236
 20
119.2627860043937
 30
0.0
 40
0.025
  1
107.88
  7
Text
 72
     1
 11
191.8156000680708
 21
119.2533185126807
 31
0.0
100
AcDbText
 73
     1
  0
TEXT
  5
2EF
330
1F
100
AcDbEntity
  8
Co-ord
100
AcDbText
 10
191.5157294121784
 20
119.1925929588456
 30
0.0
 40
0.025
  1
N 258881.10
  7
Text
 11
191.5157294121784
 21
119.2175929588456
 31
0.0
100
AcDbText
 73
     3
  0
TEXT
  5
2F0
330
1F
100
AcDbEntity
  8
Co-ord
100
AcDbText
 10
189.7918846453905
 20
119.227377298302
 30
0.0
 40
0.025
  1
E 442947.49
  7
Text
 72
     2
 11
189.9901021141962
 21
119.2179098065889
 31
0.0
100
AcDbText
 73
     1
  0
TEXT
  5
2F1
330
1F
100
AcDbEntity
  8
Co-ord
100
AcDbText
 10
189.7899582608015
 20
119.1929098065889
 30
0.0
 40
0.025
  1
N 258879.76
  7
Text
 72
     2
 11
189.9901021141962
 21
119.2179098065889
 31
0.0
100
AcDbText
 73
     3
  0
TEXT
  5
2F2
330
1F
100
AcDbEntity
  8
Co-ord
100
AcDbText
 10
191.5157294121784
 20
119.2270604505586
 30
0.0
 40
0.025
  1
E 442948.03
  7
Text
 11
191.5157294121784
 21
119.2175929588456
 31
0.0
100
AcDbText
 73
     1
  0
TEXT
  5
2F3
330
1F
100
AcDbEntity
  8
Annotatons
100
AcDbText
 10
191.5163910002438
 20
119.3165279422717
 30
0.0
 40
0.05
  1
NE
  7
Text
 11
191.5163910002438
 21
119.2975929588456
 31
0.0
100
AcDbText
 73
     1
  0
TEXT
  5
2F4
330
1F
100
AcDbEntity
  8
Annotatons
100
AcDbText
 10
189.877571232625
 20
119.316844790015
 30
0.0
 40
0.05
  1
SW
  7
Text
 72
     2
 11
189.9901021141962
 21
119.2979098065889
 31
0.0
100
AcDbText
 73
     1
  0
TEXT
  5
2F5
330
1F
100
AcDbEntity
  8
Section point
100
AcDbText
 10
189.8832085874923
 20
119.267377298302
 30
0.0
 40
0.025
  1
sp71.1
  7
Text
 72
     2
 11
189.9881340026344
 21
119.257909806589
 31
0.0
100
AcDbText
 73
     1
  0
TEXT
  5
2F6
330
1F
100
AcDbEntity
  8
Section point
100
AcDbText
 10
191.5157294121784
 20
119.2670604505587
 30
0.0
 40
0.025
  1
sp71.2
  7
Text
 11
191.5157294121784
 21
119.2575929588456
 31
0.0
100
AcDbText
 73
     1
  0
LWPOLYLINE
  5
318
330
1F
100
AcDbEntity
  8
Section point
 62
     5
100
AcDbPolyline
 90
        9
 70
     0
 43
0.0
 10
191.9872018884872
 20
119.2553190999066
 10
192.0672018884873
 20
119.2553190999066
 10
192.0272018884873
 20
119.2553190999066
 10
192.0272018884873
 20
119.2153190999066
 10
192.0272018884873
 20
119.2953190999066
 10
192.0272018884873
 20
119.2553190999066
 10
192.0672018884873
 20
119.2553190999066
 10
192.0472018884873
 20
119.2553190999066
 10
192.0472018884873
 20
119.2553190999066
  0
CIRCLE
  5
319
330
1F
100
AcDbEntity
  8
Section point
 62
     5
100
AcDbCircle
 10
192.0272018884873
 20
119.2553190999066
 30
0.0
 40
0.0200000000000102
  0
LWPOLYLINE
  5
31A
330
1F
100
AcDbEntity
  8
Section point
 62
     5
100
AcDbPolyline
 90
        9
 70
     0
 43
0.0
 10
193.3250601203453
 20
119.2550022521633
 10
193.4050601203453
 20
119.2550022521633
 10
193.3650601203453
 20
119.2550022521633
 10
193.3650601203453
 20
119.2150022521633
 10
193.3650601203453
 20
119.2950022521633
 10
193.3650601203453
 20
119.2550022521633
 10
193.4050601203453
 20
119.2550022521633
 10
193.3850601203453
 20
119.2550022521633
 10
193.3850601203453
 20
119.2550022521633
  0
CIRCLE
  5
31B
330
1F
100
AcDbEntity
  8
Section point
 62
     5
100
AcDbCircle
 10
193.3650601203453
 20
119.2550022521633
 30
0.0
 40
0.0200000000000102
  0
LWPOLYLINE
  5
31C
330
1F
100
AcDbEntity
  8
Context 2
 62
     1
100
AcDbPolyline
 90
        6
 70
     0
 43
0.0
 10
193.6637811138586
 20
119.2550022521633
 10
193.7437811138587
 20
119.2550022521633
 10
193.7037811138586
 20
119.2550022521633
 10
193.6637811138586
 20
119.2150022521633
 10
193.7037811138586
 20
119.2550022521633
 10
193.7437811138586
 20
119.2150022521633
  0
TEXT
  5
31D
330
1F
100
AcDbEntity
  8
Context 2
 62
     1
100
AcDbText
 10
193.6514798583905
 20
119.2601952977114
 30
0.0
 40
0.025
  1
107.68
  7
Text
 72
     1
 11
193.7049307762377
 21
119.2507278059984
 31
0.0
100
AcDbText
 73
     1
  0
TEXT
  5
31E
330
1F
100
AcDbEntity
  8
Co-ord
100
AcDbText
 10
193.4050601203453
 20
119.1900022521633
 30
0.0
 40
0.025
  1
N 258877.05
  7
Text
 11
193.4050601203453
 21
119.2150022521633
 31
0.0
100
AcDbText
 73
     3
  0
TEXT
  5
31F
330
1F
100
AcDbEntity
  8
Co-ord
100
AcDbText
 10
191.7889844196816
 20
119.2247865916196
 30
0.0
 40
0.025
  1
E 442945.48
  7
Text
 72
     2
 11
191.9872018884873
 21
119.2153190999066
 31
0.0
100
AcDbText
 73
     1
  0
TEXT
  5
320
330
1F
100
AcDbEntity
  8
Co-ord
100
AcDbText
 10
191.7870580350927
 20
119.1903190999066
 30
0.0
 40
0.025
  1
N 258875.88
  7
Text
 72
     2
 11
191.9872018884873
 21
119.2153190999066
 31
0.0
100
AcDbText
 73
     3
  0
TEXT
  5
321
330
1F
100
AcDbEntity
  8
Co-ord
100
AcDbText
 10
193.4050601203453
 20
119.2244697438763
 30
0.0
 40
0.025
  1
E 442946.05
  7
Text
 11
193.4050601203453
 21
119.2150022521633
 31
0.0
100
AcDbText
 73
     1
  0
TEXT
  5
322
330
1F
100
AcDbEntity
  8
Annotatons
100
AcDbText
 10
193.4050601203453
 20
119.3139372355893
 30
0.0
 40
0.05
  1
NE
  7
Text
 11
193.4050601203453
 21
119.2950022521633
 31
0.0
100
AcDbText
 73
     1
  0
TEXT
  5
323
330
1F
100
AcDbEntity
  8
Annotatons
100
AcDbText
 10
191.8746710069161
 20
119.3142540833327
 30
0.0
 40
0.05
  1
SW
  7
Text
 72
     2
 11
191.9872018884873
 21
119.2953190999066
 31
0.0
100
AcDbText
 73
     1
  0
TEXT
  5
324
330
1F
100
AcDbEntity
  8
Section point
100
AcDbText
 10
191.8803083617834
 20
119.2647865916197
 30
0.0
 40
0.025
  1
sp73.1
  7
Text
 72
     2
 11
191.9852337769256
 21
119.2553190999066
 31
0.0
100
AcDbText
 73
     1
  0
TEXT
  5
325
330
1F
100
AcDbEntity
  8
Section point
100
AcDbText
 10
193.4050601203453
 20
119.2644697438764
 30
0.0
 40
0.025
  1
sp73.2
  7
Text
 11
193.4050601203453
 21
119.2550022521633
 31
0.0
100
AcDbText
 73
     1
  0
LWPOLYLINE
  5
347
330
1F
100
AcDbEntity
  8
Section point
 62
     5
100
AcDbPolyline
 90
        9
 70
     0
 43
0.0
 10
189.9923948944092
 20
118.5584355983423
 10
190.0723948944092
 20
118.5584355983423
 10
190.0323948944092
 20
118.5584355983423
 10
190.0323948944092
 20
118.5184355983422
 10
190.0323948944092
 20
118.5984355983422
 10
190.0323948944092
 20
118.5584355983423
 10
190.0723948944092
 20
118.5584355983423
 10
190.0523948944092
 20
118.5584355983423
 10
190.0523948944092
 20
118.5584355983423
  0
CIRCLE
  5
348
330
1F
100
AcDbEntity
  8
Section point
 62
     5
100
AcDbCircle
 10
190.0323948944092
 20
118.5584355983423
 30
0.0
 40
0.0200000000000102
  0
LWPOLYLINE
  5
349
330
1F
100
AcDbEntity
  8
Section point
 62
     5
100
AcDbPolyline
 90
        9
 70
     0
 43
0.0
 10
191.3815277422358
 20
118.5581187505989
 10
191.4615277422358
 20
118.5581187505989
 10
191.4215277422358
 20
118.5581187505989
 10
191.4215277422358
 20
118.5181187505989
 10
191.4215277422358
 20
118.5981187505989
 10
191.4215277422358
 20
118.5581187505989
 10
191.4615277422358
 20
118.5581187505989
 10
191.4415277422358
 20
118.5581187505989
 10
191.4415277422358
 20
118.5581187505989
  0
CIRCLE
  5
34A
330
1F
100
AcDbEntity
  8
Section point
 62
     5
100
AcDbCircle
 10
191.4215277422358
 20
118.5581187505989
 30
0.0
 40
0.0200000000000102
  0
LWPOLYLINE
  5
34B
330
1F
100
AcDbEntity
  8
Context 2
 62
     1
100
AcDbPolyline
 90
        6
 70
     0
 43
0.0
 10
191.7202487357491
 20
118.5581187505989
 10
191.8002487357491
 20
118.5581187505989
 10
191.7602487357491
 20
118.5581187505989
 10
191.7202487357491
 20
118.5181187505989
 10
191.7602487357491
 20
118.5581187505989
 10
191.8002487357491
 20
118.5181187505989
  0
TEXT
  5
34C
330
1F
100
AcDbEntity
  8
Context 2
 62
     1
100
AcDbText
 10
191.707947480281
 20
118.563311796147
 30
0.0
 40
0.025
  1
107.78
  7
Text
 72
     1
 11
191.7613983981282
 21
118.553844304434
 31
0.0
100
AcDbText
 73
     1
  0
TEXT
  5
34D
330
1F
100
AcDbEntity
  8
Co-ord
100
AcDbText
 10
191.4615277422358
 20
118.4931187505989
 30
0.0
 40
0.025
  1
N 258875.26
  7
Text
 11
191.4615277422358
 21
118.5181187505989
 31
0.0
100
AcDbText
 73
     3
  0
TEXT
  5
34E
330
1F
100
AcDbEntity
  8
Co-ord
100
AcDbText
 10
189.7941774256035
 20
118.5279030900553
 30
0.0
 40
0.025
  1
E 442947.48
  7
Text
 72
     2
 11
189.9923948944092
 21
118.5184355983422
 31
0.0
100
AcDbText
 73
     1
  0
TEXT
  5
34F
330
1F
100
AcDbEntity
  8
Co-ord
100
AcDbText
 10
189.7922510410146
 20
118.4934355983422
 30
0.0
 40
0.025
  1
N 258867.59
  7
Text
 72
     2
 11
189.9923948944092
 21
118.5184355983422
 31
0.0
100
AcDbText
 73
     3
  0
TEXT
  5
350
330
1F
100
AcDbEntity
  8
Co-ord
100
AcDbText
 10
191.4615277422358
 20
118.5275862423119
 30
0.0
 40
0.025
  1
E 442947.06
  7
Text
 11
191.4615277422358
 21
118.5181187505989
 31
0.0
100
AcDbText
 73
     1
  0
TEXT
  5
351
330
1F
100
AcDbEntity
  8
Annotatons
100
AcDbText
 10
191.464886128448
 20
118.617053734025
 30
0.0
 40
0.05
  1
SW
  7
Text
 11
191.464886128448
 21
118.5981187505989
 31
0.0
100
AcDbText
 73
     1
  0
TEXT
  5
352
330
1F
100
AcDbEntity
  8
Annotatons
100
AcDbText
 10
189.8953751614762
 20
118.6173705817683
 30
0.0
 40
0.05
  1
NE
  7
Text
 72
     2
 11
189.9923948944092
 21
118.5984355983422
 31
0.0
100
AcDbText
 73
     1
  0
TEXT
  5
353
330
1F
100
AcDbEntity
  8
Section point
100
AcDbText
 10
189.8855013677054
 20
118.5679030900553
 30
0.0
 40
0.025
  1
sp72.1
  7
Text
 72
     2
 11
189.9904267828475
 21
118.5584355983423
 31
0.0
100
AcDbText
 73
     1
  0
TEXT
  5
354
330
1F
100
AcDbEntity
  8
Section point
100
AcDbText
 10
191.4615277422358
 20
118.567586242312
 30
0.0
 40
0.025
  1
sp72.2
  7
Text
 11
191.4615277422358
 21
118.5581187505989
 31
0.0
100
AcDbText
 73
     1
  0
TEXT
  5
3DB
330
1F
100
AcDbEntity
  8
Annotatons
100
AcDbText
 10
191.2121771372707
 20
119.0190257067695
 30
0.0
 40
0.05
  1
[1603]
  7
Text
 72
     1
 11
191.3093469780937
 21
119.0000907233435
 31
0.0
100
AcDbText
 73
     1
  0
TEXT
  5
3DC
330
1F
100
AcDbEntity
  8
Annotatons
100
AcDbText
 10
190.6070735574538
 20
119.1359918114088
 30
0.0
 40
0.05
  1
(1604)
  7
Text
 72
     1
 11
190.7080961674548
 21
119.1170568279827
 31
0.0
100
AcDbText
 73
     1
  0
LINE
  5
3DD
330
1F
100
AcDbEntity
  8
Annotatons
100
AcDbLine
 10
191.2242994689848
 20
119.073103107475
 30
0.0
 11
191.1077740895615
 21
119.1417443985971
 31
0.0
  0
TEXT
  5
3F1
330
1F
100
AcDbEntity
  8
Annotatons
100
AcDbText
 10
193.1770400019901
 20
118.9607956913683
 30
0.0
 40
0.05
  1
[1615]
  7
Text
 72
     1
 11
193.2742098428131
 21
118.9418607079423
 31
0.0
100
AcDbText
 73
     1
  0
TEXT
  5
3F2
330
1F
100
AcDbEntity
  8
Annotatons
100
AcDbText
 10
192.4649057314186
 20
119.0723321860567
 30
0.0
 40
0.05
  1
(1616)
  7
Text
 72
     1
 11
192.5659283414195
 21
119.0533972026306
 31
0.0
100
AcDbText
 73
     1
  0
LINE
  5
3F3
330
1F
100
AcDbEntity
  8
Annotatons
100
AcDbLine
 10
193.1891623337042
 20
119.0148730920739
 30
0.0
 11
193.0726369542809
 21
119.083514383196
 31
0.0
  0
TEXT
  5
407
330
1F
100
AcDbEntity
  8
Annotatons
100
AcDbText
 10
191.3062514448851
 20
118.2479750448962
 30
0.0
 40
0.05
  1
[1607]
  7
Text
 72
     1
 11
191.4034212857082
 21
118.2290400614702
 31
0.0
100
AcDbText
 73
     1
  0
TEXT
  5
408
330
1F
100
AcDbEntity
  8
Annotatons
100
AcDbText
 10
190.6075723026225
 20
118.3839447843636
 30
0.0
 40
0.05
  1
(1608)
  7
Text
 72
     1
 11
190.7085949126235
 21
118.3650098009376
 31
0.0
100
AcDbText
 73
     1
  0
LINE
  5
409
330
1F
100
AcDbEntity
  8
Annotatons
100
AcDbLine
 10
191.3183737765992
 20
118.3020524456017
 30
0.0
 11
191.2018483971759
 21
118.3706937367239
 31
0.0
  0
LWPOLYLINE
  5
456
330
1F
100
AcDbEntity
  8
Context 1
100
AcDbPolyline
 90
        9
 70
     0
 43
0.0
 10
195.2617107023725
 20
119.4545535222407
 10
195.4614569370625
 20
119.4561388098176
 10
195.6184004071759
 20
119.4704063980097
 10
195.749979276059
 20
119.4799181234711
 10
195.9608225237872
 20
119.4672358228559
 10
196.1336188696697
 20
119.4688211104328
 10
196.3714120062053
 20
119.4783328358942
 10
196.5634469934143
 20
119.4815219886368
 10
196.7067569903664
 20
119.4840584487599
  0
LWPOLYLINE
  5
457
330
1F
100
AcDbEntity
  8
Context 1
100
AcDbPolyline
 90
       18
 70
     0
 43
0.0
 10
196.522473046775
 20
119.4808415283926
 10
196.4692890407009
 20
119.4390495117518
 10
196.4054569316613
 20
119.4121203407507
 10
196.3380570581043
 20
119.3852236364392
 10
196.2845311750034
 20
119.3652761023643
 10
196.2320026686062
 20
119.3513128285119
 10
196.1784767855053
 20
119.3476557805982
 10
196.044169882739
 20
119.3511777670833
 10
195.9745105710878
 20
119.3480305273626
 10
195.886720642477
 20
119.3340049174662
 10
195.7978917797998
 20
119.317901439437
 10
195.7374553225077
 20
119.3118666301007
 10
195.6587236002883
 20
119.316736633537
 10
195.5791802108296
 20
119.3345933128032
 10
195.5069418265252
 20
119.3694950040964
 10
195.4387617784177
 20
119.4052083626289
 10
195.3998017509277
 20
119.440110053922
 10
195.3835620527099
 20
119.4555205964497
  0
LWPOLYLINE
  5
458
330
1F
100
AcDbEntity
  8
Context 1
100
AcDbPolyline
 90
       17
 70
     0
 43
0.0
 10
197.6883796278387
 20
119.3800078739198
 10
197.8740485088457
 20
119.3840662101166
 10
198.0668194781973
 20
119.3942120506088
 10
198.1905987322019
 20
119.3992849708549
 10
198.269736288041
 20
119.3931974665596
 10
198.4575460999206
 20
119.3794118057909
 10
198.4956944601712
 20
119.3745418023546
 10
198.5614395065606
 20
119.3721068006365
 10
198.6336778908649
 20
119.3729184678759
 10
198.7213379527174
 20
119.368860131679
 10
198.7797779939524
 20
119.3737301351152
 10
198.8325363645118
 20
119.3769768040727
 10
198.9063980832949
 20
119.3980801522965
 10
198.9755375474439
 20
119.4210687245067
 10
199.0177442438914
 20
119.4386007368771
 10
199.0593016065474
 20
119.4476914099582
 10
199.0989109678289
 20
119.4541847478732
  0
LWPOLYLINE
  5
459
330
1F
100
AcDbEntity
  8
Context 1
100
AcDbPolyline
 90
       13
 70
     0
 43
0.0
 10
198.9755375474439
 20
119.4210687245067
 10
198.9253936331564
 20
119.3735438321192
 10
198.8511098474088
 20
119.3252333980316
 10
198.7533749659476
 20
119.2798794618634
 10
198.6536372955732
 20
119.2601397146018
 10
198.4042460683019
 20
119.2420538661635
 10
198.254899296257
 20
119.2501705385572
 10
198.1169158655632
 20
119.2396188644453
 10
198.0303581730595
 20
119.2443614503926
 10
197.9562935374666
 20
119.2575510430324
 10
197.86092263684
 20
119.3062510773949
 10
197.8172955227236
 20
119.3387177669699
 10
197.7706917675332
 20
119.3818070463721
  0
LWPOLYLINE
  5
45A
330
1F
100
AcDbEntity
  8
Context 1
100
AcDbPolyline
 90
        7
 70
     0
 43
0.0
 10
195.2320476457949
 20
118.748008125326
 10
195.523344238051
 20
118.7301736400859
 10
195.7888799071824
 20
118.7420632969126
 10
196.0623420141984
 20
118.7222472022013
 10
196.2902271033783
 20
118.7103575453746
 10
196.5181121925582
 20
118.6845966222499
 10
196.6806041691909
 20
118.6845966222499
  0
LWPOLYLINE
  5
45B
330
1F
100
AcDbEntity
  8
Context 1
100
AcDbPolyline
 90
       13
 70
     0
 43
0.0
 10
196.5617076009231
 20
118.6845966222499
 10
196.4784800031356
 20
118.641001213885
 10
196.4329029852996
 20
118.6211851191737
 10
196.3239144643875
 20
118.6053322434047
 10
196.1297167362168
 20
118.6033506339335
 10
195.9751511974686
 20
118.5874977581645
 10
195.8443649723741
 20
118.6033506339335
 10
195.7254684041062
 20
118.6271299475871
 10
195.6224247116075
 20
118.6291115570582
 10
195.5273074569932
 20
118.6489276517695
 10
195.4401166402635
 20
118.6766701843653
 10
195.3648154803606
 20
118.7004494980189
 10
195.2994125008782
 20
118.7438837464434
  0
LWPOLYLINE
  5
45C
330
1F
100
AcDbEntity
  8
Section point
 62
     5
100
AcDbPolyline
 90
        9
 70
     0
 43
0.0
 10
195.2184716899171
 20
119.5071113340008
 10
195.2984716899171
 20
119.5071113340008
 10
195.2584716899171
 20
119.5071113340008
 10
195.2584716899171
 20
119.4671113340008
 10
195.2584716899171
 20
119.5471113340007
 10
195.2584716899171
 20
119.5071113340008
 10
195.2984716899171
 20
119.5071113340008
 10
195.2784716899171
 20
119.5071113340008
 10
195.2784716899171
 20
119.5071113340008
  0
CIRCLE
  5
45D
330
1F
100
AcDbEntity
  8
Section point
 62
     5
100
AcDbCircle
 10
195.2584716899171
 20
119.5071113340008
 30
0.0
 40
0.0200000000000102
  0
LWPOLYLINE
  5
45E
330
1F
100
AcDbEntity
  8
Section point
 62
     5
100
AcDbPolyline
 90
        9
 70
     0
 43
0.0
 10
196.6640989878994
 20
119.5067944862575
 10
196.7440989878994
 20
119.5067944862575
 10
196.7040989878994
 20
119.5067944862575
 10
196.7040989878994
 20
119.4667944862574
 10
196.7040989878994
 20
119.5467944862574
 10
196.7040989878994
 20
119.5067944862575
 10
196.7440989878994
 20
119.5067944862575
 10
196.7240989878994
 20
119.5067944862575
 10
196.7240989878994
 20
119.5067944862575
  0
CIRCLE
  5
45F
330
1F
100
AcDbEntity
  8
Section point
 62
     5
100
AcDbCircle
 10
196.7040989878994
 20
119.5067944862575
 30
0.0
 40
0.0200000000000102
  0
LWPOLYLINE
  5
460
330
1F
100
AcDbEntity
  8
Context 2
 62
     1
100
AcDbPolyline
 90
        6
 70
     0
 43
0.0
 10
197.0028199814127
 20
119.5067944862575
 10
197.0828199814127
 20
119.5067944862575
 10
197.0428199814127
 20
119.5067944862575
 10
197.0028199814127
 20
119.4667944862574
 10
197.0428199814127
 20
119.5067944862575
 10
197.0828199814127
 20
119.4667944862574
  0
TEXT
  5
461
330
1F
100
AcDbEntity
  8
aOD
 62
     1
100
AcDbText
 10
196.9905187259446
 20
119.5119875318056
 30
0.0
 40
0.025
  1
107.88
  7
Text
 72
     1
 11
197.0439696437918
 21
119.5025200400925
 31
0.0
100
AcDbText
 73
     1
  0
TEXT
  5
462
330
1F
100
AcDbEntity
  8
Co-ord
100
AcDbText
 10
196.7440989878994
 20
119.4417944862574
 30
0.0
 40
0.025
  1
N 258881.10
  7
Text
 11
196.7440989878994
 21
119.4667944862574
 31
0.0
100
AcDbText
 73
     3
  0
TEXT
  5
463
330
1F
100
AcDbEntity
  8
Co-ord
100
AcDbText
 10
195.0202542211115
 20
119.4765788257138
 30
0.0
 40
0.025
  1
E 442947.49
  7
Text
 72
     2
 11
195.2184716899172
 21
119.4671113340008
 31
0.0
100
AcDbText
 73
     1
  0
TEXT
  5
464
330
1F
100
AcDbEntity
  8
Co-ord
100
AcDbText
 10
195.0183278365225
 20
119.4421113340008
 30
0.0
 40
0.025
  1
N 258879.76
  7
Text
 72
     2
 11
195.2184716899172
 21
119.4671113340008
 31
0.0
100
AcDbText
 73
     3
  0
TEXT
  5
465
330
1F
100
AcDbEntity
  8
Co-ord
100
AcDbText
 10
196.7440989878994
 20
119.4762619779705
 30
0.0
 40
0.025
  1
E 442948.03
  7
Text
 11
196.7440989878994
 21
119.4667944862574
 31
0.0
100
AcDbText
 73
     1
  0
TEXT
  5
466
330
1F
100
AcDbEntity
  8
Annotatons
100
AcDbText
 10
196.7447605759648
 20
119.5657294696835
 30
0.0
 40
0.05
  1
NE
  7
Text
 11
196.7447605759648
 21
119.5467944862574
 31
0.0
100
AcDbText
 73
     1
  0
TEXT
  5
467
330
1F
100
AcDbEntity
  8
Annotatons
100
AcDbText
 10
195.105940808346
 20
119.5660463174268
 30
0.0
 40
0.05
  1
SW
  7
Text
 72
     2
 11
195.2184716899172
 21
119.5471113340007
 31
0.0
100
AcDbText
 73
     1
  0
TEXT
  5
468
330
1F
100
AcDbEntity
  8
Section point
100
AcDbText
 10
195.1115781632133
 20
119.5165788257138
 30
0.0
 40
0.025
  1
sp71.1
  7
Text
 72
     2
 11
195.2165035783554
 21
119.5071113340008
 31
0.0
100
AcDbText
 73
     1
  0
TEXT
  5
469
330
1F
100
AcDbEntity
  8
Section point
100
AcDbText
 10
196.7440989878994
 20
119.5162619779705
 30
0.0
 40
0.025
  1
sp71.2
  7
Text
 11
196.7440989878994
 21
119.5067944862575
 31
0.0
100
AcDbText
 73
     1
  0
LWPOLYLINE
  5
46A
330
1F
100
AcDbEntity
  8
Section point
 62
     5
100
AcDbPolyline
 90
        9
 70
     0
 43
0.0
 10
197.7174799214529
 20
119.4731653834427
 10
197.7974799214529
 20
119.4731653834427
 10
197.7574799214529
 20
119.4731653834427
 10
197.7574799214529
 20
119.4331653834426
 10
197.7574799214529
 20
119.5131653834426
 10
197.7574799214529
 20
119.4731653834427
 10
197.7974799214529
 20
119.4731653834427
 10
197.7774799214529
 20
119.4731653834427
 10
197.7774799214529
 20
119.4731653834427
  0
CIRCLE
  5
46B
330
1F
100
AcDbEntity
  8
Section point
 62
     5
100
AcDbCircle
 10
197.7574799214529
 20
119.4731653834427
 30
0.0
 40
0.0200000000000102
  0
LWPOLYLINE
  5
46C
330
1F
100
AcDbEntity
  8
Section point
 62
     5
100
AcDbPolyline
 90
        9
 70
     0
 43
0.0
 10
199.0553381533109
 20
119.4728485356994
 10
199.1353381533109
 20
119.4728485356994
 10
199.0953381533109
 20
119.4728485356994
 10
199.0953381533109
 20
119.4328485356993
 10
199.0953381533109
 20
119.5128485356993
 10
199.0953381533109
 20
119.4728485356994
 10
199.1353381533109
 20
119.4728485356994
 10
199.1153381533109
 20
119.4728485356994
 10
199.1153381533109
 20
119.4728485356994
  0
CIRCLE
  5
46D
330
1F
100
AcDbEntity
  8
Section point
 62
     5
100
AcDbCircle
 10
199.0953381533109
 20
119.4728485356994
 30
0.0
 40
0.0200000000000102
  0
LWPOLYLINE
  5
46E
330
1F
100
AcDbEntity
  8
Context 2
 62
     1
100
AcDbPolyline
 90
        6
 70
     0
 43
0.0
 10
199.3940591468243
 20
119.4728485356994
 10
199.4740591468243
 20
119.4728485356994
 10
199.4340591468243
 20
119.4728485356994
 10
199.3940591468243
 20
119.4328485356993
 10
199.4340591468243
 20
119.4728485356994
 10
199.4740591468243
 20
119.4328485356993
  0
TEXT
  5
46F
330
1F
100
AcDbEntity
  8
aOD
 62
     1
100
AcDbText
 10
199.3817578913561
 20
119.4780415812475
 30
0.0
 40
0.025
  1
107.68
  7
Text
 72
     1
 11
199.4352088092033
 21
119.4685740895344
 31
0.0
100
AcDbText
 73
     1
  0
TEXT
  5
470
330
1F
100
AcDbEntity
  8
Co-ord
100
AcDbText
 10
199.1353381533109
 20
119.4078485356993
 30
0.0
 40
0.025
  1
N 258877.05
  7
Text
 11
199.1353381533109
 21
119.4328485356993
 31
0.0
100
AcDbText
 73
     3
  0
TEXT
  5
471
330
1F
100
AcDbEntity
  8
Co-ord
100
AcDbText
 10
197.5192624526472
 20
119.4426328751557
 30
0.0
 40
0.025
  1
E 442945.48
  7
Text
 72
     2
 11
197.7174799214529
 21
119.4331653834426
 31
0.0
100
AcDbText
 73
     1
  0
TEXT
  5
472
330
1F
100
AcDbEntity
  8
Co-ord
100
AcDbText
 10
197.5173360680583
 20
119.4081653834426
 30
0.0
 40
0.025
  1
N 258875.88
  7
Text
 72
     2
 11
197.7174799214529
 21
119.4331653834426
 31
0.0
100
AcDbText
 73
     3
  0
TEXT
  5
473
330
1F
100
AcDbEntity
  8
Co-ord
100
AcDbText
 10
199.1353381533109
 20
119.4423160274124
 30
0.0
 40
0.025
  1
E 442946.05
  7
Text
 11
199.1353381533109
 21
119.4328485356993
 31
0.0
100
AcDbText
 73
     1
  0
TEXT
  5
474
330
1F
100
AcDbEntity
  8
Annotatons
100
AcDbText
 10
199.1353381533109
 20
119.5317835191254
 30
0.0
 40
0.05
  1
NE
  7
Text
 11
199.1353381533109
 21
119.5128485356993
 31
0.0
100
AcDbText
 73
     1
  0
TEXT
  5
475
330
1F
100
AcDbEntity
  8
Annotatons
100
AcDbText
 10
197.6049490398818
 20
119.5321003668687
 30
0.0
 40
0.05
  1
SW
  7
Text
 72
     2
 11
197.7174799214529
 21
119.5131653834426
 31
0.0
100
AcDbText
 73
     1
  0
TEXT
  5
476
330
1F
100
AcDbEntity
  8
Section point
100
AcDbText
 10
197.610586394749
 20
119.4826328751557
 30
0.0
 40
0.025
  1
sp73.1
  7
Text
 72
     2
 11
197.7155118098912
 21
119.4731653834427
 31
0.0
100
AcDbText
 73
     1
  0
TEXT
  5
477
330
1F
100
AcDbEntity
  8
Section point
100
AcDbText
 10
199.1353381533109
 20
119.4823160274124
 30
0.0
 40
0.025
  1
sp73.2
  7
Text
 11
199.1353381533109
 21
119.4728485356994
 31
0.0
100
AcDbText
 73
     1
  0
LWPOLYLINE
  5
478
330
1F
100
AcDbEntity
  8
Section point
 62
     5
100
AcDbPolyline
 90
        9
 70
     0
 43
0.0
 10
195.2207644701302
 20
118.8076371257541
 10
195.3007644701302
 20
118.8076371257541
 10
195.2607644701302
 20
118.8076371257541
 10
195.2607644701302
 20
118.7676371257541
 10
195.2607644701302
 20
118.847637125754
 10
195.2607644701302
 20
118.8076371257541
 10
195.3007644701302
 20
118.8076371257541
 10
195.2807644701302
 20
118.8076371257541
 10
195.2807644701302
 20
118.8076371257541
  0
CIRCLE
  5
479
330
1F
100
AcDbEntity
  8
Section point
 62
     5
100
AcDbCircle
 10
195.2607644701302
 20
118.8076371257541
 30
0.0
 40
0.0200000000000102
  0
LWPOLYLINE
  5
47A
330
1F
100
AcDbEntity
  8
Section point
 62
     5
100
AcDbPolyline
 90
        9
 70
     0
 43
0.0
 10
196.6098973179568
 20
118.8073202780108
 10
196.6898973179568
 20
118.8073202780108
 10
196.6498973179568
 20
118.8073202780108
 10
196.6498973179568
 20
118.7673202780107
 10
196.6498973179568
 20
118.8473202780107
 10
196.6498973179568
 20
118.8073202780108
 10
196.6898973179568
 20
118.8073202780108
 10
196.6698973179568
 20
118.8073202780108
 10
196.6698973179568
 20
118.8073202780108
  0
CIRCLE
  5
47B
330
1F
100
AcDbEntity
  8
Section point
 62
     5
100
AcDbCircle
 10
196.6498973179568
 20
118.8073202780108
 30
0.0
 40
0.0200000000000102
  0
LWPOLYLINE
  5
47C
330
1F
100
AcDbEntity
  8
aOD
 62
     1
100
AcDbPolyline
 90
        6
 70
     0
 43
0.0
 10
196.9486183114701
 20
118.8073202780108
 10
197.0286183114701
 20
118.8073202780108
 10
196.9886183114701
 20
118.8073202780108
 10
196.9486183114701
 20
118.7673202780107
 10
196.9886183114701
 20
118.8073202780108
 10
197.0286183114701
 20
118.7673202780107
  0
TEXT
  5
47D
330
1F
100
AcDbEntity
  8
aOD
 62
     1
100
AcDbText
 10
196.9363170560019
 20
118.8125133235589
 30
0.0
 40
0.025
  1
107.78
  7
Text
 72
     1
 11
196.9897679738492
 21
118.8030458318458
 31
0.0
100
AcDbText
 73
     1
  0
TEXT
  5
47E
330
1F
100
AcDbEntity
  8
Co-ord
100
AcDbText
 10
196.6898973179568
 20
118.7423202780107
 30
0.0
 40
0.025
  1
N 258875.26
  7
Text
 11
196.6898973179568
 21
118.7673202780107
 31
0.0
100
AcDbText
 73
     3
  0
TEXT
  5
47F
330
1F
100
AcDbEntity
  8
Co-ord
100
AcDbText
 10
195.0225470013245
 20
118.7771046174671
 30
0.0
 40
0.025
  1
E 442947.48
  7
Text
 72
     2
 11
195.2207644701302
 21
118.7676371257541
 31
0.0
100
AcDbText
 73
     1
  0
TEXT
  5
480
330
1F
100
AcDbEntity
  8
Co-ord
100
AcDbText
 10
195.0206206167356
 20
118.7426371257541
 30
0.0
 40
0.025
  1
N 258867.59
  7
Text
 72
     2
 11
195.2207644701302
 21
118.7676371257541
 31
0.0
100
AcDbText
 73
     3
  0
TEXT
  5
481
330
1F
100
AcDbEntity
  8
Co-ord
100
AcDbText
 10
196.6898973179568
 20
118.7767877697238
 30
0.0
 40
0.025
  1
E 442947.06
  7
Text
 11
196.6898973179568
 21
118.7673202780107
 31
0.0
100
AcDbText
 73
     1
  0
TEXT
  5
482
330
1F
100
AcDbEntity
  8
Annotatons
100
AcDbText
 10
196.693255704169
 20
118.8662552614368
 30
0.0
 40
0.05
  1
SW
  7
Text
 11
196.693255704169
 21
118.8473202780107
 31
0.0
100
AcDbText
 73
     1
  0
TEXT
  5
483
330
1F
100
AcDbEntity
  8
Annotatons
100
AcDbText
 10
195.1237447371972
 20
118.8665721091801
 30
0.0
 40
0.05
  1
NE
  7
Text
 72
     2
 11
195.2207644701302
 21
118.847637125754
 31
0.0
100
AcDbText
 73
     1
  0
TEXT
  5
484
330
1F
100
AcDbEntity
  8
Section point
100
AcDbText
 10
195.1138709434263
 20
118.8171046174671
 30
0.0
 40
0.025
  1
sp72.1
  7
Text
 72
     2
 11
195.2187963585685
 21
118.8076371257541
 31
0.0
100
AcDbText
 73
     1
  0
TEXT
  5
485
330
1F
100
AcDbEntity
  8
Section point
100
AcDbText
 10
196.6898973179568
 20
118.8167877697238
 30
0.0
 40
0.025
  1
sp72.2
  7
Text
 11
196.6898973179568
 21
118.8073202780108
 31
0.0
100
AcDbText
 73
     1
  0
TEXT
  5
486
330
1F
100
AcDbEntity
  8
Annotatons
100
AcDbText
 10
196.4405467129916
 20
119.2682272341813
 30
0.0
 40
0.05
  1
[1603]
  7
Text
 72
     1
 11
196.5377165538147
 21
119.2492922507553
 31
0.0
100
AcDbText
 73
     1
  0
TEXT
  5
487
330
1F
100
AcDbEntity
  8
Annotatons
100
AcDbText
 10
195.8354431331748
 20
119.3851933388206
 30
0.0
 40
0.05
  1
(1604)
  7
Text
 72
     1
 11
195.9364657431757
 21
119.3662583553945
 31
0.0
100
AcDbText
 73
     1
  0
LINE
  5
488
330
1F
100
AcDbEntity
  8
Annotatons
100
AcDbLine
 10
196.4526690447057
 20
119.3223046348868
 30
0.0
 11
196.3361436652825
 21
119.390945926009
 31
0.0
  0
TEXT
  5
489
330
1F
100
AcDbEntity
  8
Annotatons
100
AcDbText
 10
198.9073180349557
 20
119.1786419749044
 30
0.0
 40
0.05
  1
[1615]
  7
Text
 72
     1
 11
199.0044878757788
 21
119.1597069914783
 31
0.0
100
AcDbText
 73
     1
  0
TEXT
  5
48A
330
1F
100
AcDbEntity
  8
Annotatons
100
AcDbText
 10
198.1951837643842
 20
119.2901784695927
 30
0.0
 40
0.05
  1
(1616)
  7
Text
 72
     1
 11
198.2962063743851
 21
119.2712434861667
 31
0.0
100
AcDbText
 73
     1
  0
LINE
  5
48B
330
1F
100
AcDbEntity
  8
Annotatons
100
AcDbLine
 10
198.9194403666698
 20
119.2327193756099
 30
0.0
 11
198.8029149872465
 21
119.301360666732
 31
0.0
  0
TEXT
  5
48C
330
1F
100
AcDbEntity
  8
Annotatons
100
AcDbText
 10
196.5346210206061
 20
118.4971765723081
 30
0.0
 40
0.05
  1
[1607]
  7
Text
 72
     1
 11
196.6317908614292
 21
118.478241588882
 31
0.0
100
AcDbText
 73
     1
  0
TEXT
  5
48D
330
1F
100
AcDbEntity
  8
Annotatons
100
AcDbText
 10
195.8359418783435
 20
118.6331463117754
 30
0.0
 40
0.05
  1
(1608)
  7
Text
 72
     1
 11
195.9369644883445
 21
118.6142113283494
 31
0.0
100
AcDbText
 73
     1
  0
LINE
  5
48E
330
1F
100
AcDbEntity
  8
Annotatons
100
AcDbLine
 10
196.5467433523202
 20
118.5512539730136
 30
0.0
 11
196.4302179728969
 21
118.6198952641357
 31
0.0
  0
LWPOLYLINE
  5
4B0
330
1F
100
AcDbEntity
  8
Section point
 62
     5
100
AcDbPolyline
 90
        9
 70
     0
 43
0.0
 10
185.8255824658374
 20
115.5810043397347
 10
185.9055824658374
 20
115.5810043397347
 10
185.8655824658374
 20
115.5810043397347
 10
185.8655824658374
 20
115.5410043397347
 10
185.8655824658374
 20
115.6210043397347
 10
185.8655824658374
 20
115.5810043397347
 10
185.9055824658374
 20
115.5810043397347
 10
185.8855824658374
 20
115.5810043397347
 10
185.8855824658374
 20
115.5810043397347
  0
CIRCLE
  5
4B1
330
1F
100
AcDbEntity
  8
Section point
 62
     5
100
AcDbCircle
 10
185.8655824658374
 20
115.5810043397347
 30
0.0
 40
0.0200000000000102
  0
LWPOLYLINE
  5
4B2
330
1F
100
AcDbEntity
  8
Section point
 62
     5
100
AcDbPolyline
 90
        9
 70
     0
 43
0.0
 10
190.216149069285
 20
115.5806874919914
 10
190.296149069285
 20
115.5806874919914
 10
190.256149069285
 20
115.5806874919914
 10
190.256149069285
 20
115.5406874919914
 10
190.256149069285
 20
115.6206874919914
 10
190.256149069285
 20
115.5806874919914
 10
190.296149069285
 20
115.5806874919914
 10
190.276149069285
 20
115.5806874919914
 10
190.276149069285
 20
115.5806874919914
  0
CIRCLE
  5
4B3
330
1F
100
AcDbEntity
  8
Section point
 62
     5
100
AcDbCircle
 10
190.256149069285
 20
115.5806874919914
 30
0.0
 40
0.0200000000000102
  0
LWPOLYLINE
  5
4B4
330
1F
100
AcDbEntity
  8
Context 2
 62
     1
100
AcDbPolyline
 90
        6
 70
     0
 43
0.0
 10
190.5548700627984
 20
115.5806874919914
 10
190.6348700627984
 20
115.5806874919914
 10
190.5948700627984
 20
115.5806874919914
 10
190.5548700627984
 20
115.5406874919914
 10
190.5948700627984
 20
115.5806874919914
 10
190.6348700627984
 20
115.5406874919914
  0
TEXT
  5
4B5
330
1F
100
AcDbEntity
  8
Context 2
 62
     1
100
AcDbText
 10
190.5425688073302
 20
115.5858805375395
 30
0.0
 40
0.025
  1
107.82
  7
Text
 72
     1
 11
190.5960197251774
 21
115.5764130458265
 31
0.0
100
AcDbText
 73
     1
  0
TEXT
  5
4B6
330
1F
100
AcDbEntity
  8
Co-ord
100
AcDbText
 10
190.296149069285
 20
115.5156874919914
 30
0.0
 40
0.025
  1
N 258880.64
  7
Text
 11
190.296149069285
 21
115.5406874919914
 31
0.0
100
AcDbText
 73
     3
  0
TEXT
  5
4B7
330
1F
100
AcDbEntity
  8
Co-ord
100
AcDbText
 10
185.6273649970317
 20
115.5504718314477
 30
0.0
 40
0.025
  1
E 442943.93
  7
Text
 72
     2
 11
185.8255824658374
 21
115.5410043397347
 31
0.0
100
AcDbText
 73
     1
  0
TEXT
  5
4B8
330
1F
100
AcDbEntity
  8
Co-ord
100
AcDbText
 10
185.6254386124428
 20
115.5160043397347
 30
0.0
 40
0.025
  1
N 258876.64
  7
Text
 72
     2
 11
185.8255824658374
 21
115.5410043397347
 31
0.0
100
AcDbText
 73
     3
  0
TEXT
  5
4B9
330
1F
100
AcDbEntity
  8
Co-ord
100
AcDbText
 10
190.296149069285
 20
115.5501549837044
 30
0.0
 40
0.025
  1
E 442945.16
  7
Text
 11
190.296149069285
 21
115.5406874919914
 31
0.0
100
AcDbText
 73
     1
  0
TEXT
  5
4BA
330
1F
100
AcDbEntity
  8
Annotatons
100
AcDbText
 10
190.296149069285
 20
115.6396224754174
 30
0.0
 40
0.05
  1
NE
  7
Text
 11
190.296149069285
 21
115.6206874919914
 31
0.0
100
AcDbText
 73
     1
  0
TEXT
  5
4BB
330
1F
100
AcDbEntity
  8
Annotatons
100
AcDbText
 10
185.7130515842663
 20
115.6399393231607
 30
0.0
 40
0.05
  1
SW
  7
Text
 72
     2
 11
185.8255824658374
 21
115.6210043397347
 31
0.0
100
AcDbText
 73
     1
  0
TEXT
  5
4BC
330
1F
100
AcDbEntity
  8
Section point
100
AcDbText
 10
185.7186889391335
 20
115.5904718314478
 30
0.0
 40
0.025
  1
sp70.1
  7
Text
 72
     2
 11
185.8236143542757
 21
115.5810043397347
 31
0.0
100
AcDbText
 73
     1
  0
TEXT
  5
4BD
330
1F
100
AcDbEntity
  8
Section point
100
AcDbText
 10
190.296149069285
 20
115.5901549837044
 30
0.0
 40
0.025
  1
sp70.2
  7
Text
 11
190.296149069285
 21
115.5806874919914
 31
0.0
100
AcDbText
 73
     1
  0
LWPOLYLINE
  5
4DF
330
1F
100
AcDbEntity
  8
Section point
 62
     5
100
AcDbPolyline
 90
        9
 70
     0
 43
0.0
 10
189.8231313391116
 20
112.5813324887819
 10
189.9031313391116
 20
112.5813324887819
 10
189.8631313391116
 20
112.5813324887819
 10
189.8631313391116
 20
112.5413324887819
 10
189.8631313391116
 20
112.6213324887818
 10
189.8631313391116
 20
112.5813324887819
 10
189.9031313391116
 20
112.5813324887819
 10
189.8831313391116
 20
112.5813324887819
 10
189.8831313391116
 20
112.5813324887819
  0
CIRCLE
  5
4E0
330
1F
100
AcDbEntity
  8
Section point
 62
     5
100
AcDbCircle
 10
189.8631313391116
 20
112.5813324887819
 30
0.0
 40
0.0200000000000102
  0
LWPOLYLINE
  5
4E1
330
1F
100
AcDbEntity
  8
Section point
 62
     5
100
AcDbPolyline
 90
        9
 70
     0
 43
0.0
 10
193.1163442506422
 20
112.5810156410386
 10
193.1963442506422
 20
112.5810156410386
 10
193.1563442506422
 20
112.5810156410386
 10
193.1563442506422
 20
112.5410156410386
 10
193.1563442506422
 20
112.6210156410385
 10
193.1563442506422
 20
112.5810156410386
 10
193.1963442506422
 20
112.5810156410386
 10
193.1763442506422
 20
112.5810156410386
 10
193.1763442506422
 20
112.5810156410386
  0
CIRCLE
  5
4E2
330
1F
100
AcDbEntity
  8
Section point
 62
     5
100
AcDbCircle
 10
193.1563442506422
 20
112.5810156410386
 30
0.0
 40
0.0200000000000102
  0
LWPOLYLINE
  5
4E3
330
1F
100
AcDbEntity
  8
Context 2
 62
     1
100
AcDbPolyline
 90
        6
 70
     0
 43
0.0
 10
193.4550652441555
 20
112.5810156410386
 10
193.5350652441555
 20
112.5810156410386
 10
193.4950652441555
 20
112.5810156410386
 10
193.4550652441555
 20
112.5410156410386
 10
193.4950652441555
 20
112.5810156410386
 10
193.5350652441555
 20
112.5410156410386
  0
TEXT
  5
4E4
330
1F
100
AcDbEntity
  8
Context 2
 62
     1
100
AcDbText
 10
193.4427639886873
 20
112.5862086865867
 30
0.0
 40
0.025
  1
107.39
  7
Text
 72
     1
 11
193.4962149065346
 21
112.5767411948737
 31
0.0
100
AcDbText
 73
     1
  0
TEXT
  5
4E5
330
1F
100
AcDbEntity
  8
Co-ord
100
AcDbText
 10
193.1963442506422
 20
112.5160156410385
 30
0.0
 40
0.025
  1
N 258862.80
  7
Text
 11
193.1963442506422
 21
112.5410156410386
 31
0.0
100
AcDbText
 73
     3
  0
TEXT
  5
4E6
330
1F
100
AcDbEntity
  8
Co-ord
100
AcDbText
 10
189.6249138703059
 20
112.5507999804949
 30
0.0
 40
0.025
  1
E 442876.45
  7
Text
 72
     2
 11
189.8231313391116
 21
112.5413324887819
 31
0.0
100
AcDbText
 73
     1
  0
TEXT
  5
4E7
330
1F
100
AcDbEntity
  8
Co-ord
100
AcDbText
 10
189.622987485717
 20
112.5163324887819
 30
0.0
 40
0.025
  1
N 258952.15
  7
Text
 72
     2
 11
189.8231313391116
 21
112.5413324887819
 31
0.0
100
AcDbText
 73
     3
  0
TEXT
  5
4E8
330
1F
100
AcDbEntity
  8
Co-ord
100
AcDbText
 10
193.1963442506422
 20
112.5504831327516
 30
0.0
 40
0.025
  1
E 442941.02
  7
Text
 11
193.1963442506422
 21
112.5410156410386
 31
0.0
100
AcDbText
 73
     1
  0
TEXT
  5
4E9
330
1F
100
AcDbEntity
  8
Annotatons
100
AcDbText
 10
193.1970848235113
 20
112.6399506244646
 30
0.0
 40
0.05
  1
SW
  7
Text
 11
193.1970848235113
 21
112.6210156410385
 31
0.0
100
AcDbText
 73
     1
  0
TEXT
  5
4EA
330
1F
100
AcDbEntity
  8
Annotatons
100
AcDbText
 10
189.7726950880562
 20
112.6402674722079
 30
0.0
 40
0.05
  1
N
  7
Text
 72
     2
 11
189.8231313391116
 21
112.6213324887818
 31
0.0
100
AcDbText
 73
     1
  0
TEXT
  5
4EB
330
1F
100
AcDbEntity
  8
Section point
100
AcDbText
 10
189.7162378124078
 20
112.5907999804949
 30
0.0
 40
0.025
  1
sp46.1
  7
Text
 72
     2
 11
189.8211632275499
 21
112.5813324887819
 31
0.0
100
AcDbText
 73
     1
  0
TEXT
  5
4EC
330
1F
100
AcDbEntity
  8
Section point
100
AcDbText
 10
193.1963442506422
 20
112.5904831327516
 30
0.0
 40
0.025
  1
sp80.2
  7
Text
 11
193.1963442506422
 21
112.5810156410386
 31
0.0
100
AcDbText
 73
     1
  0
TEXT
  5
500
330
1F
100
AcDbEntity
  8
Annotatons
100
AcDbText
 10
189.2420164402443
 20
115.0095137159908
 30
0.0
 40
0.05
  1
[1611]
  7
Text
 72
     1
 11
189.3391862810674
 21
114.9905787325648
 31
0.0
100
AcDbText
 73
     1
  0
LINE
  5
502
330
1F
100
AcDbEntity
  8
Annotatons
100
AcDbLine
 10
189.2541387719584
 20
115.0635911166963
 30
0.0
 11
189.1376133925352
 21
115.1322324078184
 31
0.0
  0
TEXT
  5
514
330
1F
100
AcDbEntity
  8
Annotatons
100
AcDbText
 10
188.2611003825035
 20
115.6883462463433
 30
0.0
 40
0.05
  1
(1601)
  7
Text
 72
     1
 11
188.3621229925044
 21
115.6694112629173
 31
0.0
100
AcDbText
 73
     1
  0
TEXT
  5
526
330
1F
100
AcDbEntity
  8
Annotatons
100
AcDbText
 10
188.1867900273361
 20
115.2548691745336
 30
0.0
 40
0.05
  1
(1610)
  7
Text
 72
     1
 11
188.2878126373371
 21
115.2359341911076
 31
0.0
100
AcDbText
 73
     1
  0
TEXT
  5
538
330
1F
100
AcDbEntity
  8
Annotatons
100
AcDbText
 10
188.9453749030031
 20
115.2208102617486
 30
0.0
 40
0.05
  1
(1612)
  7
Text
 72
     1
 11
189.046397513004
 21
115.2018752783225
 31
0.0
100
AcDbText
 73
     1
  0
TEXT
  5
54A
330
1F
100
AcDbEntity
  8
Annotatons
100
AcDbText
 10
186.9002557298299
 20
115.0498724799289
 30
0.0
 40
0.05
  1
(1614)
  7
Text
 72
     1
 11
187.0012783398309
 21
115.0309374965029
 31
0.0
100
AcDbText
 73
     1
  0
TEXT
  5
55C
330
1F
100
AcDbEntity
  8
Annotatons
100
AcDbText
 10
186.2478551749359
 20
114.9342269896997
 30
0.0
 40
0.05
  1
[1613]
  7
Text
 72
     1
 11
186.345025015759
 21
114.9152920062736
 31
0.0
100
AcDbText
 73
     1
  0
LINE
  5
56D
330
1F
100
AcDbEntity
  8
Annotatons
100
AcDbLine
 10
186.6021426955174
 20
115.0697438335972
 30
0.0
 11
186.4949164271901
 21
114.9566250265605
 31
0.0
  0
LINE
  5
57E
330
1F
100
AcDbEntity
  8
Annotatons
100
AcDbLine
 10
188.5136323952847
 20
114.9807926118198
 30
0.0
 11
188.3971070158615
 21
115.0494339029419
 31
0.0
  0
TEXT
  5
590
330
1F
100
AcDbEntity
  8
Annotatons
100
AcDbText
 10
188.5224827949456
 20
114.9253215080228
 30
0.0
 40
0.05
  1
[1609]
  7
Text
 72
     1
 11
188.6196526357687
 21
114.9063865245968
 31
0.0
100
AcDbText
 73
     1
  0
TEXT
  5
5A4
330
1F
100
AcDbEntity
  8
Annotatons
100
AcDbText
 10
191.7416361958055
 20
111.8634221047266
 30
0.0
 40
0.05
  1
[1619]
  7
Text
 72
     1
 11
191.8388060366286
 21
111.8444871213006
 31
0.0
100
AcDbText
 73
     1
  0
LINE
  5
5A5
330
1F
100
AcDbEntity
  8
Annotatons
100
AcDbLine
 10
191.7537585275196
 20
111.9174995054321
 30
0.0
 11
191.6372331480964
 21
111.9861407965542
 31
0.0
  0
TEXT
  5
5A6
330
1F
100
AcDbEntity
  8
Annotatons
100
AcDbText
 10
191.0908890108761
 20
112.2086956290644
 30
0.0
 40
0.05
  1
(1620)
  7
Text
 72
     1
 11
191.191911620877
 21
112.1897606456383
 31
0.0
100
AcDbText
 73
     1
  0
TEXT
  5
5BA
330
1F
100
AcDbEntity
  8
Annotatons
100
AcDbText
 10
192.0667439996628
 20
112.1235083478124
 30
0.0
 40
0.05
  1
[1621]
  7
Text
 72
     1
 11
192.1639138404859
 21
112.1045733643864
 31
0.0
100
AcDbText
 73
     1
  0
LINE
  5
5BB
330
1F
100
AcDbEntity
  8
Annotatons
100
AcDbLine
 10
192.0788663313769
 20
112.1775857485179
 30
0.0
 11
191.9623409519536
 21
112.24622703964
 31
0.0
  0
TEXT
  5
5BC
330
1F
100
AcDbEntity
  8
Annotatons
100
AcDbText
 10
191.7701024624215
 20
112.3348048935702
 30
0.0
 40
0.05
  1
(1622)
  7
Text
 72
     1
 11
191.8711250724224
 21
112.3158699101442
 31
0.0
100
AcDbText
 73
     1
  0
TEXT
  5
5D0
330
1F
100
AcDbEntity
  8
Annotatons
100
AcDbText
 10
192.7838084123463
 20
112.1649918514315
 30
0.0
 40
0.05
  1
[1623]
  7
Text
 72
     1
 11
192.8809782531694
 21
112.1460568680055
 31
0.0
100
AcDbText
 73
     1
  0
LINE
  5
5D1
330
1F
100
AcDbEntity
  8
Annotatons
100
AcDbLine
 10
192.7645586967406
 20
112.1980741166226
 30
0.0
 11
192.6406898885149
 21
112.3413754340681
 31
0.0
  0
TEXT
  5
5D2
330
1F
100
AcDbEntity
  8
Annotatons
100
AcDbText
 10
192.3244015921706
 20
112.2796139735344
 30
0.0
 40
0.05
  1
(1624)
  7
Text
 72
     1
 11
192.4254242021716
 21
112.2606789901084
 31
0.0
100
AcDbText
 73
     1
  0
TEXT
  5
5E6
330
1F
100
AcDbEntity
  8
Annotatons
100
AcDbText
 10
190.1419026084504
 20
111.8860016157707
 30
0.0
 40
0.05
  1
[1617]
  7
Text
 72
     1
 11
190.2390724492734
 21
111.8670666323447
 31
0.0
100
AcDbText
 73
     1
  0
LINE
  5
5E7
330
1F
100
AcDbEntity
  8
Annotatons
100
AcDbLine
 10
190.301271051548
 20
111.9632456536318
 30
0.0
 11
190.3497683512125
 21
112.0732701896289
 31
0.0
  0
TEXT
  5
5E8
330
1F
100
AcDbEntity
  8
Annotatons
100
AcDbText
 10
190.4162438739002
 20
112.077297891672
 30
0.0
 40
0.05
  1
(1618)
  7
Text
 72
     1
 11
190.5172664839012
 21
112.058362908246
 31
0.0
100
AcDbText
 73
     1
  0
TEXT
  5
5FA
330
1F
100
AcDbEntity
  8
Annotatons
100
AcDbText
 10
192.6773993882348
 20
112.3981951098259
 30
0.0
 40
0.05
  1
(1622)
  7
Text
 72
     1
 11
192.7784219982357
 21
112.3792601263999
 31
0.0
100
AcDbText
 73
     1
  0
LWPOLYLINE
  5
65C
330
1F
100
AcDbEntity
  8
Context 1
100
AcDbPolyline
 90
       10
 70
     0
 43
0.0
 10
195.2492443467713
 20
116.0389552818104
 10
195.9591023674245
 20
116.0786121544726
 10
196.5777495809547
 20
116.0667150926739
 10
197.1646712963551
 20
116.0905092162712
 10
197.6167596447041
 20
116.1103376526023
 10
198.1085048657152
 20
116.1380974634659
 10
198.3515891023618
 20
116.148073645495
 10
198.7917803889121
 20
116.2234217035531
 10
199.3549079807153
 20
116.2194560162869
 10
199.7588039342001
 20
116.1701172899475
  0
LWPOLYLINE
  5
65D
330
1F
100
AcDbEntity
  8
Context 1
100
AcDbPolyline
 90
       12
 70
     0
 43
0.0
 10
199.7561410991285
 20
115.6940414907469
 10
199.29929392606
 20
115.6717067400635
 10
198.9399074832462
 20
115.6595241487817
 10
198.8038685472658
 20
115.6473415574999
 10
198.4976441250992
 20
115.634338068954
 10
198.1138924997217
 20
115.6587032515176
 10
197.8458754915216
 20
115.6383989327146
 10
196.8195010988242
 20
115.6191043770317
 10
196.410876682913
 20
115.5911859386775
 10
196.1418444587727
 20
115.6241804567325
 10
195.8017471188218
 20
115.6140282973309
 10
195.2808832194196
 20
115.5671123580557
  0
LWPOLYLINE
  5
65E
330
1F
100
AcDbEntity
  8
Context 1
100
AcDbPolyline
 90
       22
 70
     0
 43
0.0
 10
196.1118983618659
 20
115.6232865433919
 10
196.3656840826105
 20
115.532528962612
 10
196.4875099954287
 20
115.4995344445571
 10
196.6423304263019
 20
115.4893822851556
 10
196.8047649767262
 20
115.4690779663525
 10
196.9418191286467
 20
115.4538497272502
 10
197.1194819181734
 20
115.4081650099434
 10
197.2946066678496
 20
115.3650183324869
 10
197.424046700219
 20
115.3370998941327
 10
197.4849596566282
 20
115.3244096948808
 10
197.583943210793
 20
115.3142575354793
 10
197.6727746055562
 20
115.2584206587709
 10
197.7362256018158
 20
115.2076598617633
 10
197.8305751469595
 20
115.2029998336713
 10
197.9095833122859
 20
115.2321081051073
 10
198.011462262312
 20
115.2632955387888
 10
198.1406250490796
 20
115.3627134693168
 10
198.19486690528
 20
115.4003030005221
 10
198.3497511302416
 20
115.4564036298497
 10
198.5263987038281
 20
115.551833928224
 10
198.6401028891251
 20
115.6147773165134
 10
198.6951173645428
 20
115.6427235562677
  0
LWPOLYLINE
  5
65F
330
1F
100
AcDbEntity
  8
Context 1
100
AcDbPolyline
 90
       10
 70
     0
 43
0.0
 10
198.8376190117208
 20
115.6503639871526
 10
198.797146087711
 20
115.5351443333641
 10
198.7443548588231
 20
115.4255010118277
 10
198.6732897430125
 20
115.3402228728549
 10
198.5758290127579
 20
115.2732186208048
 10
198.4986726013063
 20
115.24073171072
 10
198.4255770536154
 20
115.2813403483261
 10
198.3301467552411
 20
115.3605271916579
 10
198.2712642307123
 20
115.4031662611443
 10
198.2470353217183
 20
115.4150106920866
  0
LWPOLYLINE
  5
660
330
1F
100
AcDbEntity
  8
Context 1
100
AcDbPolyline
 90
       22
 70
     0
 43
0.0
 10
197.5230521828376
 20
115.3205027691158
 10
197.4479079232448
 20
115.3018305531677
 10
197.4104830028271
 20
115.2810389307134
 10
197.3655730983258
 20
115.2444456751938
 10
197.3249118827116
 20
115.2173925890392
 10
197.2814790150694
 20
115.2105795901933
 10
197.23167504972
 20
115.1820708078309
 10
197.2027227154524
 20
115.1451364397554
 10
197.1578128109511
 20
115.1226814875047
 10
197.0954379435882
 20
115.119354827912
 10
197.0313997464289
 20
115.1085431842358
 10
197.0006281451965
 20
115.1027215299486
 10
196.9071892944105
 20
115.0622720782019
 10
196.8132111609169
 20
115.0406487908494
 10
196.7333713306924
 20
115.029005482275
 10
196.4942481803217
 20
115.0074146818326
 10
196.3778150945776
 20
115.016770911937
 10
196.313857505564
 20
115.0248225895584
 10
196.2163967753094
 20
115.0995424827536
 10
196.0815760984572
 20
115.2457335781355
 10
195.8259510698265
 20
115.4808702800739
 10
195.6539088569856
 20
115.6007120146651
  0
LWPOLYLINE
  5
661
330
1F
100
AcDbEntity
  8
Context 1
100
AcDbPolyline
 90
       11
 70
     0
 43
0.0
 10
195.9576671259822
 20
113.3127955848118
 10
196.3432090646852
 20
113.3006205762212
 10
196.8870261150664
 20
113.3107664167133
 10
197.2583638770804
 20
113.3249705934024
 10
197.6804308415553
 20
113.3412039381899
 10
197.9896253305546
 20
113.3521424224706
 10
198.4522756569982
 20
113.3212990673743
 10
198.7353623619511
 20
113.3053054180685
 10
198.969122526891
 20
113.3130974235665
 10
199.214570700078
 20
113.3143960911495
 10
199.260024065483
 20
113.3092014208175
  0
LWPOLYLINE
  5
662
330
1F
100
AcDbEntity
  8
Context 1
100
AcDbPolyline
 90
       14
 70
     0
 43
0.0
 10
199.0422323193771
 20
113.3134842478653
 10
198.9090439324166
 20
113.1183175777975
 10
198.785391501418
 20
113.0422237741061
 10
198.6585684952657
 20
113.0041768722604
 10
198.5142946434669
 20
112.99983952545
 10
198.4087779023481
 20
113.0290595460675
 10
198.3016378267506
 20
113.0599029011637
 10
198.0565143204594
 20
113.0566562322062
 10
197.949374244862
 20
113.03879955294
 10
197.8211308210407
 20
113.0599029011637
 10
197.5844727504102
 20
113.1482478072494
 10
197.4850435135868
 20
113.2050645140057
 10
197.4241684706337
 20
113.2618812207619
 10
197.3836268216321
 20
113.3297883989621
  0
LWPOLYLINE
  5
663
330
1F
100
AcDbEntity
  8
Context 1
 62
     1
100
AcDbPolyline
 90
        3
 70
     0
 43
0.0
 10
198.755523841736
 20
113.3059774673946
 10
198.7025443726491
 20
113.0569352428198
 10
198.6585684952657
 20
113.0041768722604
  0
LWPOLYLINE
  5
664
330
1F
100
AcDbEntity
  8
Context 1
100
AcDbPolyline
 90
        5
 70
     0
 43
0.0
 10
198.4087779023481
 20
113.0290595460675
 10
198.3697608045054
 20
113.0975186047885
 10
198.3210607701429
 20
113.1888311692182
 10
198.3035664191323
 20
113.2577663925252
 10
198.2949368910223
 20
113.3317883184394
  0
LWPOLYLINE
  5
665
330
1F
100
AcDbEntity
  8
Context 1
100
AcDbPolyline
 90
       16
 70
     0
 43
0.0
 10
197.9341222351167
 20
113.0413093773285
 10
197.9051292084763
 20
112.9785246339156
 10
197.8968177359451
 20
112.8902152382716
 10
197.8500657029572
 20
112.8268402602212
 10
197.7609446400738
 20
112.799852324512
 10
197.6695184422306
 20
112.7967355223128
 10
197.5604303652586
 20
112.8112805992424
 10
197.4139406618962
 20
112.8247867421056
 10
197.3048525849242
 20
112.8289424783712
 10
197.0932002064168
 20
112.8528115827131
 10
196.9113867447968
 20
112.9099529563651
 10
196.6906132556868
 20
112.9671907155018
 10
196.5331498112481
 20
113.049980773918
 10
196.4292564046081
 20
113.1376408357705
 10
196.3162634472767
 20
113.2471905484849
 10
196.2789863776798
 20
113.3026486610739
  0
LWPOLYLINE
  5
666
330
1F
100
AcDbEntity
  8
Context 1
100
AcDbPolyline
 90
       12
 70
     0
 43
0.0
 10
196.1393650574827
 20
113.307057755396
 10
196.2237333819879
 20
113.1335571349723
 10
196.3000301024892
 20
113.0296637283324
 10
196.3925601677779
 20
112.9160303148199
 10
196.4428835366191
 20
112.8673302804574
 10
196.4733717872981
 20
112.8440963057303
 10
196.5829468646137
 20
112.8014837756631
 10
196.6803469333387
 20
112.7913379351709
 10
196.8020970192449
 20
112.8035129437616
 10
196.8852929112809
 20
112.8319212971397
 10
196.9522554585293
 20
112.8501838100256
 10
197.0797013248772
 20
112.8570540883398
  0
LWPOLYLINE
  5
667
330
1F
100
AcDbEntity
  8
Section point
 62
     5
100
AcDbPolyline
 90
        9
 70
     0
 43
0.0
 10
195.309295604359
 20
115.7523534071361
 10
195.389295604359
 20
115.7523534071361
 10
195.349295604359
 20
115.7523534071361
 10
195.349295604359
 20
115.7123534071361
 10
195.349295604359
 20
115.7923534071361
 10
195.349295604359
 20
115.7523534071361
 10
195.389295604359
 20
115.7523534071361
 10
195.369295604359
 20
115.7523534071361
 10
195.369295604359
 20
115.7523534071361
  0
CIRCLE
  5
668
330
1F
100
AcDbEntity
  8
Section point
 62
     5
100
AcDbCircle
 10
195.349295604359
 20
115.7523534071361
 30
0.0
 40
0.0200000000000102
  0
LWPOLYLINE
  5
669
330
1F
100
AcDbEntity
  8
Section point
 62
     5
100
AcDbPolyline
 90
        9
 70
     0
 43
0.0
 10
199.6998622078067
 20
115.7520365593928
 10
199.7798622078067
 20
115.7520365593928
 10
199.7398622078067
 20
115.7520365593928
 10
199.7398622078067
 20
115.7120365593928
 10
199.7398622078067
 20
115.7920365593928
 10
199.7398622078067
 20
115.7520365593928
 10
199.7798622078067
 20
115.7520365593928
 10
199.7598622078067
 20
115.7520365593928
 10
199.7598622078067
 20
115.7520365593928
  0
CIRCLE
  5
66A
330
1F
100
AcDbEntity
  8
Section point
 62
     5
100
AcDbCircle
 10
199.7398622078067
 20
115.7520365593928
 30
0.0
 40
0.0200000000000102
  0
LWPOLYLINE
  5
66B
330
1F
100
AcDbEntity
  8
aOD
 62
     1
100
AcDbPolyline
 90
        6
 70
     0
 43
0.0
 10
200.03858320132
 20
115.7520365593928
 10
200.11858320132
 20
115.7520365593928
 10
200.07858320132
 20
115.7520365593928
 10
200.03858320132
 20
115.7120365593928
 10
200.07858320132
 20
115.7520365593928
 10
200.11858320132
 20
115.7120365593928
  0
TEXT
  5
66C
330
1F
100
AcDbEntity
  8
aOD
 62
     1
100
AcDbText
 10
200.0262819458518
 20
115.7572296049409
 30
0.0
 40
0.025
  1
107.82
  7
Text
 72
     1
 11
200.0797328636991
 21
115.7477621132279
 31
0.0
100
AcDbText
 73
     1
  0
TEXT
  5
66D
330
1F
100
AcDbEntity
  8
Co-ord
100
AcDbText
 10
199.7798622078067
 20
115.6870365593928
 30
0.0
 40
0.025
  1
N 258880.64
  7
Text
 11
199.7798622078067
 21
115.7120365593928
 31
0.0
100
AcDbText
 73
     3
  0
TEXT
  5
66E
330
1F
100
AcDbEntity
  8
Co-ord
100
AcDbText
 10
195.1110781355533
 20
115.7218208988491
 30
0.0
 40
0.025
  1
E 442943.93
  7
Text
 72
     2
 11
195.309295604359
 21
115.7123534071361
 31
0.0
100
AcDbText
 73
     1
  0
TEXT
  5
66F
330
1F
100
AcDbEntity
  8
Co-ord
100
AcDbText
 10
195.1091517509644
 20
115.6873534071361
 30
0.0
 40
0.025
  1
N 258876.64
  7
Text
 72
     2
 11
195.309295604359
 21
115.7123534071361
 31
0.0
100
AcDbText
 73
     3
  0
TEXT
  5
670
330
1F
100
AcDbEntity
  8
Co-ord
100
AcDbText
 10
199.7798622078067
 20
115.7215040511058
 30
0.0
 40
0.025
  1
E 442945.16
  7
Text
 11
199.7798622078067
 21
115.7120365593928
 31
0.0
100
AcDbText
 73
     1
  0
TEXT
  5
671
330
1F
100
AcDbEntity
  8
Annotatons
100
AcDbText
 10
199.7798622078067
 20
115.8109715428188
 30
0.0
 40
0.05
  1
NE
  7
Text
 11
199.7798622078067
 21
115.7920365593928
 31
0.0
100
AcDbText
 73
     1
  0
TEXT
  5
672
330
1F
100
AcDbEntity
  8
Annotatons
100
AcDbText
 10
195.1967647227879
 20
115.8112883905621
 30
0.0
 40
0.05
  1
SW
  7
Text
 72
     2
 11
195.309295604359
 21
115.7923534071361
 31
0.0
100
AcDbText
 73
     1
  0
TEXT
  5
673
330
1F
100
AcDbEntity
  8
Section point
100
AcDbText
 10
195.2024020776552
 20
115.7618208988492
 30
0.0
 40
0.025
  1
sp70.1
  7
Text
 72
     2
 11
195.3073274927973
 21
115.7523534071361
 31
0.0
100
AcDbText
 73
     1
  0
TEXT
  5
674
330
1F
100
AcDbEntity
  8
Section point
100
AcDbText
 10
199.7798622078067
 20
115.7615040511058
 30
0.0
 40
0.025
  1
sp70.2
  7
Text
 11
199.7798622078067
 21
115.7520365593928
 31
0.0
100
AcDbText
 73
     1
  0
LWPOLYLINE
  5
675
330
1F
100
AcDbEntity
  8
Section point
 62
     5
100
AcDbPolyline
 90
        9
 70
     0
 43
0.0
 10
195.9041713389589
 20
113.3870782430548
 10
195.984171338959
 20
113.3870782430548
 10
195.944171338959
 20
113.3870782430548
 10
195.944171338959
 20
113.3470782430547
 10
195.944171338959
 20
113.4270782430547
 10
195.944171338959
 20
113.3870782430548
 10
195.984171338959
 20
113.3870782430548
 10
195.9641713389589
 20
113.3870782430548
 10
195.9641713389589
 20
113.3870782430548
  0
CIRCLE
  5
676
330
1F
100
AcDbEntity
  8
Section point
 62
     5
100
AcDbCircle
 10
195.944171338959
 20
113.3870782430548
 30
0.0
 40
0.0200000000000102
  0
LWPOLYLINE
  5
677
330
1F
100
AcDbEntity
  8
Section point
 62
     5
100
AcDbPolyline
 90
        9
 70
     0
 43
0.0
 10
199.1973842504895
 20
113.3867613953115
 10
199.2773842504895
 20
113.3867613953115
 10
199.2373842504895
 20
113.3867613953115
 10
199.2373842504895
 20
113.3467613953114
 10
199.2373842504895
 20
113.4267613953114
 10
199.2373842504895
 20
113.3867613953115
 10
199.2773842504895
 20
113.3867613953115
 10
199.2573842504895
 20
113.3867613953115
 10
199.2573842504895
 20
113.3867613953115
  0
CIRCLE
  5
678
330
1F
100
AcDbEntity
  8
Section point
 62
     5
100
AcDbCircle
 10
199.2373842504895
 20
113.3867613953115
 30
0.0
 40
0.0200000000000102
  0
LWPOLYLINE
  5
679
330
1F
100
AcDbEntity
  8
aOD
 62
     1
100
AcDbPolyline
 90
        6
 70
     0
 43
0.0
 10
199.5361052440029
 20
113.3867613953115
 10
199.6161052440029
 20
113.3867613953115
 10
199.5761052440029
 20
113.3867613953115
 10
199.5361052440029
 20
113.3467613953114
 10
199.5761052440029
 20
113.3867613953115
 10
199.6161052440029
 20
113.3467613953114
  0
TEXT
  5
67A
330
1F
100
AcDbEntity
  8
aOD
 62
     1
100
AcDbText
 10
199.5238039885347
 20
113.3919544408596
 30
0.0
 40
0.025
  1
107.39
  7
Text
 72
     1
 11
199.5772549063819
 21
113.3824869491465
 31
0.0
100
AcDbText
 73
     1
  0
TEXT
  5
67B
330
1F
100
AcDbEntity
  8
Co-ord
100
AcDbText
 10
199.2773842504895
 20
113.3217613953114
 30
0.0
 40
0.025
  1
N 258862.80
  7
Text
 11
199.2773842504895
 21
113.3467613953114
 31
0.0
100
AcDbText
 73
     3
  0
TEXT
  5
67C
330
1F
100
AcDbEntity
  8
Co-ord
100
AcDbText
 10
195.7059538701533
 20
113.3565457347678
 30
0.0
 40
0.025
  1
E 442876.45
  7
Text
 72
     2
 11
195.904171338959
 21
113.3470782430547
 31
0.0
100
AcDbText
 73
     1
  0
TEXT
  5
67D
330
1F
100
AcDbEntity
  8
Co-ord
100
AcDbText
 10
195.7040274855644
 20
113.3220782430547
 30
0.0
 40
0.025
  1
N 258952.15
  7
Text
 72
     2
 11
195.904171338959
 21
113.3470782430547
 31
0.0
100
AcDbText
 73
     3
  0
TEXT
  5
67E
330
1F
100
AcDbEntity
  8
Co-ord
100
AcDbText
 10
199.2773842504895
 20
113.3562288870245
 30
0.0
 40
0.025
  1
E 442941.02
  7
Text
 11
199.2773842504895
 21
113.3467613953114
 31
0.0
100
AcDbText
 73
     1
  0
TEXT
  5
67F
330
1F
100
AcDbEntity
  8
Annotatons
100
AcDbText
 10
199.2781248233586
 20
113.4456963787375
 30
0.0
 40
0.05
  1
SW
  7
Text
 11
199.2781248233586
 21
113.4267613953114
 31
0.0
100
AcDbText
 73
     1
  0
TEXT
  5
680
330
1F
100
AcDbEntity
  8
Annotatons
100
AcDbText
 10
195.8537350879035
 20
113.4460132264808
 30
0.0
 40
0.05
  1
N
  7
Text
 72
     2
 11
195.904171338959
 21
113.4270782430547
 31
0.0
100
AcDbText
 73
     1
  0
TEXT
  5
681
330
1F
100
AcDbEntity
  8
Section point
100
AcDbText
 10
195.7972778122551
 20
113.3965457347678
 30
0.0
 40
0.025
  1
sp46.1
  7
Text
 72
     2
 11
195.9022032273973
 21
113.3870782430548
 31
0.0
100
AcDbText
 73
     1
  0
TEXT
  5
682
330
1F
100
AcDbEntity
  8
Section point
100
AcDbText
 10
199.2773842504895
 20
113.3962288870245
 30
0.0
 40
0.025
  1
sp80.2
  7
Text
 11
199.2773842504895
 21
113.3867613953115
 31
0.0
100
AcDbText
 73
     1
  0
TEXT
  5
683
330
1F
100
AcDbEntity
  8
Annotatons
100
AcDbText
 10
198.725729578766
 20
115.1808627833922
 30
0.0
 40
0.05
  1
[1611]
  7
Text
 72
     1
 11
198.822899419589
 21
115.1619277999662
 31
0.0
100
AcDbText
 73
     1
  0
LINE
  5
684
330
1F
100
AcDbEntity
  8
Annotatons
100
AcDbLine
 10
198.7378519104801
 20
115.2349401840977
 30
0.0
 11
198.6213265310568
 21
115.3035814752198
 31
0.0
  0
TEXT
  5
685
330
1F
100
AcDbEntity
  8
Annotatons
100
AcDbText
 10
197.7448135210251
 20
115.8596953137447
 30
0.0
 40
0.05
  1
(1601)
  7
Text
 72
     1
 11
197.8458361310261
 21
115.8407603303187
 31
0.0
100
AcDbText
 73
     1
  0
TEXT
  5
686
330
1F
100
AcDbEntity
  8
Annotatons
100
AcDbText
 10
197.6705031658578
 20
115.426218241935
 30
0.0
 40
0.05
  1
(1610)
  7
Text
 72
     1
 11
197.7715257758587
 21
115.407283258509
 31
0.0
100
AcDbText
 73
     1
  0
TEXT
  5
687
330
1F
100
AcDbEntity
  8
Annotatons
100
AcDbText
 10
198.4290880415247
 20
115.39215932915
 30
0.0
 40
0.05
  1
(1612)
  7
Text
 72
     1
 11
198.5301106515256
 21
115.3732243457239
 31
0.0
100
AcDbText
 73
     1
  0
TEXT
  5
688
330
1F
100
AcDbEntity
  8
Annotatons
100
AcDbText
 10
196.3839688683516
 20
115.2212215473303
 30
0.0
 40
0.05
  1
(1614)
  7
Text
 72
     1
 11
196.4849914783525
 21
115.2022865639043
 31
0.0
100
AcDbText
 73
     1
  0
TEXT
  5
689
330
1F
100
AcDbEntity
  8
Annotatons
100
AcDbText
 10
195.7315683134575
 20
115.1055760571011
 30
0.0
 40
0.05
  1
[1613]
  7
Text
 72
     1
 11
195.8287381542806
 21
115.086641073675
 31
0.0
100
AcDbText
 73
     1
  0
LINE
  5
68A
330
1F
100
AcDbEntity
  8
Annotatons
100
AcDbLine
 10
196.085855834039
 20
115.2410929009986
 30
0.0
 11
195.9786295657117
 21
115.1279740939619
 31
0.0
  0
LINE
  5
68B
330
1F
100
AcDbEntity
  8
Annotatons
100
AcDbLine
 10
197.9973455338064
 20
115.1521416792212
 30
0.0
 11
197.8808201543831
 21
115.2207829703433
 31
0.0
  0
TEXT
  5
68C
330
1F
100
AcDbEntity
  8
Annotatons
100
AcDbText
 10
198.0061959334672
 20
115.0966705754242
 30
0.0
 40
0.05
  1
[1609]
  7
Text
 72
     1
 11
198.1033657742903
 21
115.0777355919981
 31
0.0
100
AcDbText
 73
     1
  0
TEXT
  5
68D
330
1F
100
AcDbEntity
  8
Annotatons
100
AcDbText
 10
197.8226761956529
 20
112.6691678589995
 30
0.0
 40
0.05
  1
[1619]
  7
Text
 72
     1
 11
197.9198460364759
 21
112.6502328755734
 31
0.0
100
AcDbText
 73
     1
  0
LINE
  5
68E
330
1F
100
AcDbEntity
  8
Annotatons
100
AcDbLine
 10
197.834798527367
 20
112.723245259705
 30
0.0
 11
197.7182731479437
 21
112.7918865508271
 31
0.0
  0
TEXT
  5
68F
330
1F
100
AcDbEntity
  8
Annotatons
100
AcDbText
 10
197.1719290107234
 20
113.0144413833372
 30
0.0
 40
0.05
  1
(1620)
  7
Text
 72
     1
 11
197.2729516207243
 21
112.9955063999112
 31
0.0
100
AcDbText
 73
     1
  0
TEXT
  5
690
330
1F
100
AcDbEntity
  8
Annotatons
100
AcDbText
 10
198.1477839995101
 20
112.9292541020853
 30
0.0
 40
0.05
  1
[1621]
  7
Text
 72
     1
 11
198.2449538403332
 21
112.9103191186592
 31
0.0
100
AcDbText
 73
     1
  0
LINE
  5
691
330
1F
100
AcDbEntity
  8
Annotatons
100
AcDbLine
 10
198.1599063312242
 20
112.9833315027908
 30
0.0
 11
198.043380951801
 21
113.0519727939129
 31
0.0
  0
TEXT
  5
692
330
1F
100
AcDbEntity
  8
Annotatons
100
AcDbText
 10
197.8511424622689
 20
113.1405506478431
 30
0.0
 40
0.05
  1
(1622)
  7
Text
 72
     1
 11
197.9521650722698
 21
113.121615664417
 31
0.0
100
AcDbText
 73
     1
  0
TEXT
  5
693
330
1F
100
AcDbEntity
  8
Annotatons
100
AcDbText
 10
198.8648484121937
 20
112.9707376057044
 30
0.0
 40
0.05
  1
[1623]
  7
Text
 72
     1
 11
198.9620182530168
 21
112.9518026222784
 31
0.0
100
AcDbText
 73
     1
  0
LINE
  5
694
330
1F
100
AcDbEntity
  8
Annotatons
100
AcDbLine
 10
198.8455986965879
 20
113.0038198708955
 30
0.0
 11
198.7217298883622
 21
113.1471211883409
 31
0.0
  0
TEXT
  5
695
330
1F
100
AcDbEntity
  8
Annotatons
100
AcDbText
 10
198.405441592018
 20
113.0853597278073
 30
0.0
 40
0.05
  1
(1624)
  7
Text
 72
     1
 11
198.5064642020189
 21
113.0664247443813
 31
0.0
100
AcDbText
 73
     1
  0
TEXT
  5
696
330
1F
100
AcDbEntity
  8
Annotatons
100
AcDbText
 10
196.2229426082977
 20
112.6917473700436
 30
0.0
 40
0.05
  1
[1617]
  7
Text
 72
     1
 11
196.3201124491208
 21
112.6728123866175
 31
0.0
100
AcDbText
 73
     1
  0
LINE
  5
697
330
1F
100
AcDbEntity
  8
Annotatons
100
AcDbLine
 10
196.3823110513954
 20
112.7689914079046
 30
0.0
 11
196.4308083510599
 21
112.8790159439018
 31
0.0
  0
TEXT
  5
698
330
1F
100
AcDbEntity
  8
Annotatons
100
AcDbText
 10
196.4972838737476
 20
112.8830436459449
 30
0.0
 40
0.05
  1
(1618)
  7
Text
 72
     1
 11
196.5983064837485
 21
112.8641086625189
 31
0.0
100
AcDbText
 73
     1
  0
TEXT
  5
699
330
1F
100
AcDbEntity
  8
Annotatons
100
AcDbText
 10
198.7584393880821
 20
113.2039408640988
 30
0.0
 40
0.05
  1
(1622)
  7
Text
 72
     1
 11
198.859461998083
 21
113.1850058806727
 31
0.0
100
AcDbText
 73
     1
  0
ENDSEC
  0
SECTION
  2
OBJECTS
  0
DICTIONARY
  5
C
330
0
100
AcDbDictionary
281
     1
  3
ACAD_DETAILVIEWSTYLE
350
B5
  3
ACAD_GROUP
350
D
  3
ACAD_IMAGE_DICT
350
CD
  3
ACAD_IMAGE_VARS
350
6A
  3
ACAD_LAYOUT
350
1A
  3
ACAD_MATERIAL
350
72
  3
ACAD_MLEADERSTYLE
350
3F
  3
ACAD_MLINESTYLE
350
17
  3
ACAD_PLOTSETTINGS
350
19
  3
ACAD_PLOTSTYLENAME
350
E
  3
ACAD_SCALELIST
350
40
  3
ACAD_SECTIONVIEWSTYLE
350
B6
  3
ACAD_TABLESTYLE
350
3B
  3
ACAD_VISUALSTYLE
350
2A
  3
ACDB_RECOMPOSE_DATA
350
6B2
  3
AcDbVariableDictionary
350
3D
  3
APPDATA
350
71
  0
SUN
  5
80
330
29
100
AcDbSun
 90
        1
290
     0
 63
     7
421
 16777215
 40
1.0
291
     1
 91
  2455826
 92
 54000000
292
     0
 70
     2
 71
   256
280
     1
  0
DICTIONARY
  5
115
330
2
100
AcDbDictionary
280
     1
281
     1
  3
ACAD_LAYERSTATES
360
116
  0
IMAGEDEF_REACTOR
  5
164
330
163
100
AcDbRasterImageDefReactor
 90
        2
330
163
  0
IMAGEDEF_REACTOR
  5
193
330
192
100
AcDbRasterImageDefReactor
 90
        2
330
192
  0
DICTIONARY
  5
B5
102
{ACAD_REACTORS
330
C
102
}
330
C
100
AcDbDictionary
281
     1
  0
DICTIONARY
  5
D
102
{ACAD_REACTORS
330
C
102
}
330
C
100
AcDbDictionary
281
     1
  0
DICTIONARY
  5
CD
102
{ACAD_REACTORS
330
C
102
}
330
C
100
AcDbDictionary
281
     1
  3
1C20LADTT_SH_25
350
162
  0
RASTERVARIABLES
  5
6A
102
{ACAD_REACTORS
330
C
102
}
330
C
100
AcDbRasterVariables
 90
        0
 70
     1
 71
     1
 72
     1
  0
DICTIONARY
  5
1A
102
{ACAD_REACTORS
330
C
102
}
330
C
100
AcDbDictionary
281
     1
  3
Model
350
22
  3
Sheet1
350
1E
  3
Sheet2
350
26
  0
DICTIONARY
  5
72
102
{ACAD_REACTORS
330
C
102
}
330
C
100
AcDbDictionary
281
     1
  3
ByBlock
350
74
  3
ByLayer
350
73
  3
Global
350
75
  0
DICTIONARY
  5
3F
102
{ACAD_REACTORS
330
C
102
}
330
C
100
AcDbDictionary
281
     1
  3
Annotative
350
BC
  3
Standard
350
B7
  0
DICTIONARY
  5
17
102
{ACAD_REACTORS
330
C
102
}
330
C
100
AcDbDictionary
281
     1
  3
Standard
350
18
  0
DICTIONARY
  5
19
102
{ACAD_REACTORS
330
C
102
}
330
C
100
AcDbDictionary
281
     1
  0
ACDBDICTIONARYWDFLT
  5
E
102
{ACAD_REACTORS
330
C
102
}
330
C
100
AcDbDictionary
281
     1
  3
Normal
350
F
100
AcDbDictionaryWithDefault
340
F
  0
DICTIONARY
  5
40
102
{ACAD_REACTORS
330
C
102
}
330
C
100
AcDbDictionary
281
     1
  3
A0
350
41
  3
A1
350
42
  3
A2
350
43
  3
A3
350
44
  3
A4
350
45
  3
A5
350
46
  3
A6
350
47
  3
A7
350
48
  3
A8
350
49
  3
A9
350
4A
  3
B0
350
4B
  3
B1
350
4C
  3
B2
350
4D
  3
B3
350
4E
  3
B4
350
4F
  3
B5
350
50
  3
B6
350
51
  3
B7
350
52
  3
B8
350
53
  3
B9
350
54
  3
C0
350
55
  3
C1
350
56
  3
C2
350
57
  3
C3
350
58
  3
C4
350
59
  3
C5
350
5A
  3
C6
350
5B
  3
C7
350
5C
  3
C8
350
5D
  3
C9
350
5E
  3
D0
350
5F
  3
D1
350
60
  3
D2
350
61
  0
DICTIONARY
  5
B6
102
{ACAD_REACTORS
330
C
102
}
330
C
100
AcDbDictionary
281
     1
  0
DICTIONARY
  5
3B
102
{ACAD_REACTORS
330
C
102
}
330
C
100
AcDbDictionary
281
     1
  3
Standard
350
3C
  0
DICTIONARY
  5
2A
102
{ACAD_REACTORS
330
C
102
}
330
C
100
AcDbDictionary
281
     1
  3
2dWireframe
350
2F
  3
3D Hidden
350
31
  3
3dWireframe
350
30
  3
Basic
350
32
  3
Brighten
350
36
  3
ColorChange
350
3A
  3
Conceptual
350
34
  3
Dim
350
35
  3
EdgeColorOff
350
7A
  3
Facepattern
350
39
  3
Flat
350
2B
  3
FlatWithEdges
350
2C
  3
Gouraud
350
2D
  3
GouraudWithEdges
350
2E
  3
Hidden
350
77
  3
JitterOff
350
78
  3
Linepattern
350
38
  3
OverhangOff
350
79
  3
Realistic
350
33
  3
Shaded
350
7F
  3
Shaded with edges
350
7E
  3
Shades of Gray
350
7B
  3
Sketchy
350
7C
  3
Thicken
350
37
  3
Wireframe
350
76
  3
X-Ray
350
7D
  0
XRECORD
  5
6B2
102
{ACAD_REACTORS
330
C
102
}
330
C
100
AcDbXrecord
280
     1
 90
        1
330
3C
  0
DICTIONARY
  5
3D
102
{ACAD_REACTORS
330
C
102
}
330
C
100
AcDbDictionary
281
     1
  3
CANNOSCALE
350
62
  3
CMLEADERSTYLE
350
BB
  3
CTABLESTYLE
350
3E
  3
LIGHTSINBLOCKS
350
6F
  3
XCLIPFRAME
350
70
  0
DICTIONARY
  5
71
102
{ACAD_REACTORS
330
C
102
}
330
C
100
AcDbDictionary
281
     1
  0
DICTIONARY
  5
116
102
{ACAD_REACTORS
330
115
102
}
330
115
100
AcDbDictionary
281
     1
  0
IMAGEDEF
  5
162
102
{ACAD_REACTORS
330
CD
330
164
330
193
102
}
330
CD
100
AcDbRasterImageDef
 90
        0
  1
Z:\HS2\Evaluations\Ladbroke_AC32031\Fieldwork\Evaluation\Draftsight\Scanned_Drawings\1C20LADTT_SH_25.tif
 10
4960.0
 20
3507.0
 11
0.08466683600033867
 21
0.08466683600033867
280
     1
281
     3
  0
LAYOUT
  5
22
102
{ACAD_REACTORS
330
1A
102
}
330
1A
100
AcDbPlotSettings
  1

  2
none_device
  4
ISO_A3_(420.00_x_297.00_MM)
  6

 40
7.5
 41
20.0
 42
7.5
 43
20.0
 44
420.0
 45
297.0
 46
20.78282828282826
 47
0.0
 48
0.0
 49
0.0
140
0.0
141
0.0
142
1.0
143
1.155642023346303
 70
  1204
 72
     1
 73
     0
 74
     1
  7
monochrome.ctb
 75
     0
 76
     0
 77
     2
 78
   300
147
0.8653198653198654
148
-134.1869158878504
149
0.0
100
AcDbLayout
  1
Model
 70
     1
 71
     0
 10
0.0
 20
0.0
 11
420.0
 21
297.0
 12
0.0
 22
0.0
 32
0.0
 14
185.6281905904269
 24
110.9161250246645
 34
0.0
 15
200.1313824868657
 25
120.6815333279832
 35
0.0
146
0.0
 13
0.0
 23
0.0
 33
0.0
 16
1.0
 26
0.0
 36
0.0
 17
0.0
 27
1.0
 37
0.0
 76
     0
330
1F
331
29
  0
LAYOUT
  5
1E
102
{ACAD_REACTORS
330
1A
102
}
330
1A
100
AcDbPlotSettings
  1

  2
none_device
  4

  6

 40
0.0
 41
0.0
 42
0.0
 43
0.0
 44
0.0
 45
0.0
 46
0.0
 47
0.0
 48
0.0
 49
0.0
140
0.0
141
0.0
142
1.0
143
1.0
 70
   688
 72
     0
 73
     0
 74
     5
  7

 75
    16
 76
     0
 77
     2
 78
   300
147
1.0
148
0.0
149
0.0
100
AcDbLayout
  1
Sheet1
 70
     1
 71
     1
 10
0.0
 20
0.0
 11
420.0
 21
297.0
 12
0.0
 22
0.0
 32
0.0
 14
1.000000000000000E+20
 24
1.000000000000000E+20
 34
1.000000000000000E+20
 15
-1.000000000000000E+20
 25
-1.000000000000000E+20
 35
-1.000000000000000E+20
146
0.0
 13
0.0
 23
0.0
 33
0.0
 16
1.0
 26
0.0
 36
0.0
 17
0.0
 27
1.0
 37
0.0
 76
     0
330
1B
  0
LAYOUT
  5
26
102
{ACAD_REACTORS
330
1A
102
}
330
1A
100
AcDbPlotSettings
  1

  2
none_device
  4

  6

 40
0.0
 41
0.0
 42
0.0
 43
0.0
 44
0.0
 45
0.0
 46
0.0
 47
0.0
 48
0.0
 49
0.0
140
0.0
141
0.0
142
1.0
143
1.0
 70
   688
 72
     0
 73
     0
 74
     5
  7

 75
    16
 76
     0
 77
     2
 78
   300
147
1.0
148
0.0
149
0.0
100
AcDbLayout
  1
Sheet2
 70
     1
 71
     2
 10
0.0
 20
0.0
 11
0.0
 21
0.0
 12
0.0
 22
0.0
 32
0.0
 14
0.0
 24
0.0
 34
0.0
 15
0.0
 25
0.0
 35
0.0
146
0.0
 13
0.0
 23
0.0
 33
0.0
 16
1.0
 26
0.0
 36
0.0
 17
0.0
 27
1.0
 37
0.0
 76
     0
330
23
  0
MATERIAL
  5
74
102
{ACAD_REACTORS
330
72
102
}
330
72
100
AcDbMaterial
  1
ByBlock
 72
     1
 94
      127
  0
MATERIAL
  5
73
102
{ACAD_REACTORS
330
72
102
}
330
72
100
AcDbMaterial
  1
ByLayer
 72
     1
 94
      127
  0
MATERIAL
  5
75
102
{ACAD_REACTORS
330
72
102
}
330
72
100
AcDbMaterial
  1
Global
 72
     1
 94
      127
  0
MLEADERSTYLE
  5
BC
102
{ACAD_REACTORS
330
3F
102
}
330
3F
100
AcDbMLeaderStyle
179
     2
170
     2
171
     1
172
     0
 90
        2
 40
0.0
 41
0.0
173
     1
 91
-1056964608
340
14
 92
       -2
290
     1
 42
2.0
291
     1
 43
8.0
  3
Annotative
341
0
 44
4.0
300

342
11
174
     1
178
     1
175
     1
176
     0
 93
-1056964608
 45
4.0
292
     0
297
     0
 46
4.0
343
0
 94
-1056964608
 47
1.0
 49
1.0
140
1.0
293
     1
141
0.0
294
     1
177
     0
142
1.0
295
     0
296
     1
143
3.75
271
     0
272
     9
273
     9
298
     0
  0
MLEADERSTYLE
  5
B7
102
{ACAD_REACTORS
330
3F
102
}
330
3F
100
AcDbMLeaderStyle
179
     2
170
     2
171
     1
172
     0
 90
        2
 40
0.0
 41
0.0
173
     1
 91
-1056964608
340
14
 92
       -2
290
     1
 42
2.0
291
     1
 43
8.0
  3
Standard
341
0
 44
4.0
300

342
11
174
     1
178
     6
175
     1
176
     0
 93
-1056964608
 45
4.0
292
     0
297
     0
 46
4.0
343
0
 94
-1056964608
 47
1.0
 49
1.0
140
1.0
293
     1
141
0.0
294
     1
177
     0
142
1.0
295
     0
296
     0
143
3.75
271
     0
272
     9
273
     9
298
     0
  0
MLINESTYLE
  5
18
102
{ACAD_REACTORS
330
17
102
}
330
17
100
AcDbMlineStyle
  2
Standard
 70
     0
  3

 62
   256
 51
90.0
 52
90.0
 71
     2
 49
0.5
 62
   256
  6
BYLAYER
 49
-0.5
 62
   256
  6
BYLAYER
  0
ACDBPLACEHOLDER
  5
F
102
{ACAD_REACTORS
330
E
102
}
330
E
  0
SCALE
  5
41
102
{ACAD_REACTORS
330
40
102
}
330
40
100
AcDbScale
 70
     0
300
1:1
140
1.0
141
1.0
290
     1
  0
SCALE
  5
42
102
{ACAD_REACTORS
330
40
102
}
330
40
100
AcDbScale
 70
     0
300
1:2
140
1.0
141
2.0
290
     0
  0
SCALE
  5
43
102
{ACAD_REACTORS
330
40
102
}
330
40
100
AcDbScale
 70
     0
300
1:4
140
1.0
141
4.0
290
     0
  0
SCALE
  5
44
102
{ACAD_REACTORS
330
40
102
}
330
40
100
AcDbScale
 70
     0
300
1:5
140
1.0
141
5.0
290
     0
  0
SCALE
  5
45
102
{ACAD_REACTORS
330
40
102
}
330
40
100
AcDbScale
 70
     0
300
1:8
140
1.0
141
8.0
290
     0
  0
SCALE
  5
46
102
{ACAD_REACTORS
330
40
102
}
330
40
100
AcDbScale
 70
     0
300
1:10
140
1.0
141
10.0
290
     0
  0
SCALE
  5
47
102
{ACAD_REACTORS
330
40
102
}
330
40
100
AcDbScale
 70
     0
300
1:16
140
1.0
141
16.0
290
     0
  0
SCALE
  5
48
102
{ACAD_REACTORS
330
40
102
}
330
40
100
AcDbScale
 70
     0
300
1:20
140
1.0
141
20.0
290
     0
  0
SCALE
  5
49
102
{ACAD_REACTORS
330
40
102
}
330
40
100
AcDbScale
 70
     0
300
1:30
140
1.0
141
30.0
290
     0
  0
SCALE
  5
4A
102
{ACAD_REACTORS
330
40
102
}
330
40
100
AcDbScale
 70
     0
300
1:40
140
1.0
141
40.0
290
     0
  0
SCALE
  5
4B
102
{ACAD_REACTORS
330
40
102
}
330
40
100
AcDbScale
 70
     0
300
1:50
140
1.0
141
50.0
290
     0
  0
SCALE
  5
4C
102
{ACAD_REACTORS
330
40
102
}
330
40
100
AcDbScale
 70
     0
300
1:100
140
1.0
141
100.0
290
     0
  0
SCALE
  5
4D
102
{ACAD_REACTORS
330
40
102
}
330
40
100
AcDbScale
 70
     0
300
2:1
140
2.0
141
1.0
290
     0
  0
SCALE
  5
4E
102
{ACAD_REACTORS
330
40
102
}
330
40
100
AcDbScale
 70
     0
300
4:1
140
4.0
141
1.0
290
     0
  0
SCALE
  5
4F
102
{ACAD_REACTORS
330
40
102
}
330
40
100
AcDbScale
 70
     0
300
8:1
140
8.0
141
1.0
290
     0
  0
SCALE
  5
50
102
{ACAD_REACTORS
330
40
102
}
330
40
100
AcDbScale
 70
     0
300
10:1
140
10.0
141
1.0
290
     0
  0
SCALE
  5
51
102
{ACAD_REACTORS
330
40
102
}
330
40
100
AcDbScale
 70
     0
300
100:1
140
100.0
141
1.0
290
     0
  0
SCALE
  5
52
102
{ACAD_REACTORS
330
40
102
}
330
40
100
AcDbScale
 70
     0
300
1/128" = 1'-0"
140
0.0078125
141
12.0
290
     0
  0
SCALE
  5
53
102
{ACAD_REACTORS
330
40
102
}
330
40
100
AcDbScale
 70
     0
300
1/64" = 1'-0"
140
0.015625
141
12.0
290
     0
  0
SCALE
  5
54
102
{ACAD_REACTORS
330
40
102
}
330
40
100
AcDbScale
 70
     0
300
1/32" = 1'-0"
140
0.03125
141
12.0
290
     0
  0
SCALE
  5
55
102
{ACAD_REACTORS
330
40
102
}
330
40
100
AcDbScale
 70
     0
300
1/16" = 1'-0"
140
0.0625
141
12.0
290
     0
  0
SCALE
  5
56
102
{ACAD_REACTORS
330
40
102
}
330
40
100
AcDbScale
 70
     0
300
3/32" = 1'-0"
140
0.09375
141
12.0
290
     0
  0
SCALE
  5
57
102
{ACAD_REACTORS
330
40
102
}
330
40
100
AcDbScale
 70
     0
300
1/8" = 1'-0"
140
0.125
141
12.0
290
     0
  0
SCALE
  5
58
102
{ACAD_REACTORS
330
40
102
}
330
40
100
AcDbScale
 70
     0
300
3/16" = 1'-0"
140
0.1875
141
12.0
290
     0
  0
SCALE
  5
59
102
{ACAD_REACTORS
330
40
102
}
330
40
100
AcDbScale
 70
     0
300
1/4" = 1'-0"
140
0.25
141
12.0
290
     0
  0
SCALE
  5
5A
102
{ACAD_REACTORS
330
40
102
}
330
40
100
AcDbScale
 70
     0
300
3/8" = 1'-0"
140
0.375
141
12.0
290
     0
  0
SCALE
  5
5B
102
{ACAD_REACTORS
330
40
102
}
330
40
100
AcDbScale
 70
     0
300
1/2" = 1'-0"
140
0.5
141
12.0
290
     0
  0
SCALE
  5
5C
102
{ACAD_REACTORS
330
40
102
}
330
40
100
AcDbScale
 70
     0
300
3/4" = 1'-0"
140
0.75
141
12.0
290
     0
  0
SCALE
  5
5D
102
{ACAD_REACTORS
330
40
102
}
330
40
100
AcDbScale
 70
     0
300
1" = 1'-0"
140
1.0
141
12.0
290
     0
  0
SCALE
  5
5E
102
{ACAD_REACTORS
330
40
102
}
330
40
100
AcDbScale
 70
     0
300
1-1/2" = 1'-0"
140
1.5
141
12.0
290
     0
  0
SCALE
  5
5F
102
{ACAD_REACTORS
330
40
102
}
330
40
100
AcDbScale
 70
     0
300
3" = 1'-0"
140
3.0
141
12.0
290
     0
  0
SCALE
  5
60
102
{ACAD_REACTORS
330
40
102
}
330
40
100
AcDbScale
 70
     0
300
6" = 1'-0"
140
6.0
141
12.0
290
     0
  0
SCALE
  5
61
102
{ACAD_REACTORS
330
40
102
}
330
40
100
AcDbScale
 70
     0
300
1'-0" = 1'-0"
140
12.0
141
12.0
290
     0
  0
TABLESTYLE
  5
3C
102
{ACAD_REACTORS
330
3B
102
}
102
{ACAD_XDICTIONARY
360
6B0
102
}
330
3B
100
AcDbTableStyle
  3
Standard
 70
     0
 71
     0
 40
1.5
 41
1.5
280
     0
281
     0
  7
Standard
140
4.5
170
     2
 62
     0
 63
   257
283
     0
 90
      512
 91
        0
  1

274
    -2
284
     1
 64
     0
275
    -2
285
     1
 65
     0
276
    -2
286
     1
 66
     0
277
    -2
287
     1
 67
     0
278
    -2
288
     1
 68
     0
279
    -2
289
     1
 69
     0
  7
Standard
140
6.0
170
     5
 62
     0
 63
   257
283
     0
 90
      512
 91
        0
  1

274
    -2
284
     1
 64
     0
275
    -2
285
     1
 65
     0
276
    -2
286
     1
 66
     0
277
    -2
287
     1
 67
     0
278
    -2
288
     1
 68
     0
279
    -2
289
     1
 69
     0
  7
Standard
140
4.5
170
     5
 62
     0
 63
   257
283
     0
 90
      512
 91
        0
  1

274
    -2
284
     1
 64
     0
275
    -2
285
     1
 65
     0
276
    -2
286
     1
 66
     0
277
    -2
287
     1
 67
     0
278
    -2
288
     1
 68
     0
279
    -2
289
     1
 69
     0
  0
VISUALSTYLE
  5
2F
102
{ACAD_REACTORS
330
2A
102
}
330
2A
100
AcDbVisualStyle
  2
2dWireframe
 70
     4
177
     3
291
     0
 70
    58
 90
        0
176
     1
 90
        2
176
     1
 90
        0
176
     1
 90
        0
176
     1
 40
-0.6
176
     1
 40
-30.0
176
     1
 62
     7
420
 16777215
176
     1
 90
        1
176
     1
 90
        4
176
     1
 62
     7
176
     1
 62
   257
176
     1
 90
        1
176
     1
 90
        1
176
     1
 40
1.0
176
     1
 90
        0
176
     1
 62
   257
176
     1
 40
1.0
176
     1
 90
        1
176
     1
 90
        6
176
     1
 90
        2
176
     1
 62
     7
176
     1
 90
        5
176
     1
 90
        0
176
     1
 90
        0
176
     1
290
     0
176
     1
 90
        1
176
     1
 40
0.0
176
     1
 90
        0
176
     1
290
     1
176
     1
290
     1
176
     1
290
     0
176
     1
290
     0
176
     1
290
     0
176
     1
290
     0
176
     1
290
     0
176
     1
290
     0
176
     1
290
     0
176
     1
 90
       50
176
     1
 40
0.0
176
     1
 40
1.0
176
     1
 90
        0
176
     1
 62
    18
420
        0
176
     1
 90
       50
176
     1
 90
        3
176
     1
 62
     5
420
      255
176
     1
290
     0
176
     1
 90
       50
176
     1
 90
       50
176
     1
 90
       50
176
     1
290
     0
176
     1
 90
       50
176
     1
 62
   256
176
     0
 40
1.0
176
     0
 90
        2
176
     1
  1
strokes_ogs.tif
176
     1
290
     0
176
     1
 40
1.0
176
     1
 40
1.0
176
     1
  0
VISUALSTYLE
  5
31
102
{ACAD_REACTORS
330
2A
102
}
330
2A
100
AcDbVisualStyle
  2
3D Hidden
 70
     6
177
     3
291
     0
 70
    58
 90
        1
176
     1
 90
        2
176
     1
 90
        2
176
     1
 90
        0
176
     1
 40
-0.6
176
     1
 40
-30.0
176
     1
 62
     7
420
 16777215
176
     1
 90
        2
176
     1
 90
        2
176
     1
 62
     7
176
     1
 62
   257
176
     1
 90
        2
176
     1
 90
        1
176
     1
 40
40.0
176
     1
 90
        0
176
     1
 62
   257
176
     1
 40
1.0
176
     1
 90
        1
176
     1
 90
        6
176
     1
 90
        2
176
     1
 62
     7
176
     1
 90
        3
176
     1
 90
        0
176
     1
 90
        0
176
     1
290
     0
176
     1
 90
        1
176
     1
 40
0.0
176
     1
 90
        0
176
     1
290
     0
176
     1
290
     1
176
     1
290
     1
176
     1
290
     0
176
     1
290
     0
176
     1
290
     0
176
     1
290
     0
176
     1
290
     0
176
     1
290
     0
176
     1
 90
       50
176
     1
 40
0.0
176
     1
 40
1.0
176
     1
 90
        0
176
     1
 62
    18
420
        0
176
     1
 90
       50
176
     1
 90
        3
176
     1
 62
     5
420
      255
176
     1
290
     0
176
     1
 90
       50
176
     1
 90
       50
176
     1
 90
       50
176
     1
290
     0
176
     1
 90
       50
176
     1
 62
   256
176
     0
 40
1.0
176
     0
 90
        2
176
     1
  1
strokes_ogs.tif
176
     1
290
     0
176
     1
 40
1.0
176
     1
 40
1.0
176
     1
  0
VISUALSTYLE
  5
30
102
{ACAD_REACTORS
330
2A
102
}
330
2A
100
AcDbVisualStyle
  2
3dWireframe
 70
     5
177
     3
291
     0
 70
    58
 90
        0
176
     1
 90
        2
176
     1
 90
        0
176
     1
 90
        0
176
     1
 40
-0.6
176
     1
 40
-30.0
176
     1
 62
     7
420
 16777215
176
     1
 90
        1
176
     1
 90
        4
176
     1
 62
     7
176
     1
 62
   257
176
     1
 90
        1
176
     1
 90
        1
176
     1
 40
1.0
176
     1
 90
        0
176
     1
 62
   257
176
     1
 40
1.0
176
     1
 90
        1
176
     1
 90
        6
176
     1
 90
        2
176
     1
 62
     7
176
     1
 90
        5
176
     1
 90
        0
176
     1
 90
        0
176
     1
290
     0
176
     1
 90
        1
176
     1
 40
0.0
176
     1
 90
        0
176
     1
290
     0
176
     1
290
     1
176
     1
290
     1
176
     1
290
     0
176
     1
290
     0
176
     1
290
     0
176
     1
290
     0
176
     1
290
     0
176
     1
290
     0
176
     1
 90
       50
176
     1
 40
0.0
176
     1
 40
1.0
176
     1
 90
        0
176
     1
 62
    18
420
        0
176
     1
 90
       50
176
     1
 90
        3
176
     1
 62
     5
420
      255
176
     1
290
     0
176
     1
 90
       50
176
     1
 90
       50
176
     1
 90
       50
176
     1
290
     0
176
     1
 90
       50
176
     1
 62
   256
176
     0
 40
1.0
176
     0
 90
        2
176
     1
  1
strokes_ogs.tif
176
     1
290
     0
176
     1
 40
1.0
176
     1
 40
1.0
176
     1
  0
VISUALSTYLE
  5
32
102
{ACAD_REACTORS
330
2A
102
}
330
2A
100
AcDbVisualStyle
  2
Basic
 70
     7
177
     3
291
     1
 70
    58
 90
        1
176
     1
 90
        0
176
     1
 90
        1
176
     1
 90
        0
176
     1
 40
-0.6
176
     1
 40
-30.0
176
     1
 62
     7
420
 16777215
176
     1
 90
        0
176
     1
 90
        4
176
     1
 62
     7
176
     1
 62
   257
176
     1
 90
        1
176
     1
 90
        1
176
     1
 40
1.0
176
     1
 90
        8
176
     1
 62
     7
176
     1
 40
1.0
176
     1
 90
        1
176
     1
 90
        6
176
     1
 90
        2
176
     1
 62
     7
176
     1
 90
        5
176
     1
 90
        0
176
     1
 90
        0
176
     1
290
     0
176
     1
 90
        1
176
     1
 40
0.0
176
     1
 90
        0
176
     1
290
     0
176
     1
290
     1
176
     1
290
     1
176
     1
290
     0
176
     1
290
     0
176
     1
290
     0
176
     1
290
     0
176
     1
290
     0
176
     1
290
     0
176
     1
 90
       50
176
     1
 40
0.0
176
     1
 40
1.0
176
     1
 90
        0
176
     1
 62
    18
420
        0
176
     1
 90
       50
176
     1
 90
        3
176
     1
 62
     5
420
      255
176
     1
290
     0
176
     1
 90
       50
176
     1
 90
       50
176
     1
 90
       50
176
     1
290
     0
176
     1
 90
       50
176
     1
 62
   256
176
     0
 40
1.0
176
     0
 90
        2
176
     1
  1
strokes_ogs.tif
176
     1
290
     0
176
     1
 40
1.0
176
     1
 40
1.0
176
     1
  0
VISUALSTYLE
  5
36
102
{ACAD_REACTORS
330
2A
102
}
330
2A
100
AcDbVisualStyle
  2
Brighten
 70
    12
177
     3
291
     1
 70
    58
 90
        2
176
     1
 90
        2
176
     1
 90
        0
176
     1
 90
        0
176
     1
 40
-0.6
176
     1
 40
-30.0
176
     1
 62
     7
420
 16777215
176
     1
 90
        1
176
     1
 90
        4
176
     1
 62
     7
176
     1
 62
   257
176
     1
 90
        1
176
     1
 90
        1
176
     1
 40
1.0
176
     1
 90
        8
176
     1
 62
     7
176
     1
 40
1.0
176
     1
 90
        1
176
     1
 90
        6
176
     1
 90
        2
176
     1
 62
     7
176
     1
 90
        5
176
     1
 90
        0
176
     1
 90
        0
176
     1
290
     0
176
     1
 90
        1
176
     1
 40
50.0
176
     1
 90
        0
176
     1
290
     0
176
     1
290
     1
176
     1
290
     1
176
     1
290
     0
176
     1
290
     0
176
     1
290
     0
176
     1
290
     0
176
     1
290
     0
176
     1
290
     0
176
     1
 90
       50
176
     1
 40
0.0
176
     1
 40
1.0
176
     1
 90
        0
176
     1
 62
    18
420
        0
176
     1
 90
       50
176
     1
 90
        3
176
     1
 62
     5
420
      255
176
     1
290
     0
176
     1
 90
       50
176
     1
 90
       50
176
     1
 90
       50
176
     1
290
     0
176
     1
 90
       50
176
     1
 62
   256
176
     0
 40
1.0
176
     0
 90
        2
176
     1
  1
strokes_ogs.tif
176
     1
290
     0
176
     1
 40
1.0
176
     1
 40
1.0
176
     1
  0
VISUALSTYLE
  5
3A
102
{ACAD_REACTORS
330
2A
102
}
330
2A
100
AcDbVisualStyle
  2
ColorChange
 70
    16
177
     3
291
     1
 70
    58
 90
        2
176
     1
 90
        2
176
     1
 90
        3
176
     1
 90
        0
176
     1
 40
-0.6
176
     1
 40
-30.0
176
     1
 62
     8
420
  8421504
176
     1
 90
        1
176
     1
 90
        4
176
     1
 62
     7
176
     1
 62
   257
176
     1
 90
        1
176
     1
 90
        1
176
     1
 40
1.0
176
     1
 90
        8
176
     1
 62
     8
420
  8421504
176
     1
 40
1.0
176
     1
 90
        1
176
     1
 90
        6
176
     1
 90
        2
176
     1
 62
     7
176
     1
 90
        5
176
     1
 90
        0
176
     1
 90
        0
176
     1
290
     0
176
     1
 90
        1
176
     1
 40
0.0
176
     1
 90
        0
176
     1
290
     0
176
     1
290
     1
176
     1
290
     1
176
     1
290
     0
176
     1
290
     0
176
     1
290
     0
176
     1
290
     0
176
     1
290
     0
176
     1
290
     0
176
     1
 90
       50
176
     1
 40
0.0
176
     1
 40
1.0
176
     1
 90
        0
176
     1
 62
    18
420
        0
176
     1
 90
       50
176
     1
 90
        3
176
     1
 62
     5
420
      255
176
     1
290
     0
176
     1
 90
       50
176
     1
 90
       50
176
     1
 90
       50
176
     1
290
     0
176
     1
 90
       50
176
     1
 62
   256
176
     0
 40
1.0
176
     0
 90
        2
176
     1
  1
strokes_ogs.tif
176
     1
290
     0
176
     1
 40
1.0
176
     1
 40
1.0
176
     1
  0
VISUALSTYLE
  5
34
102
{ACAD_REACTORS
330
2A
102
}
330
2A
100
AcDbVisualStyle
  2
Conceptual
 70
     9
177
     3
291
     0
 70
    58
 90
        3
176
     1
 90
        2
176
     1
 90
        0
176
     1
 90
        0
176
     1
 40
-0.6
176
     1
 40
-30.0
176
     1
 62
     7
420
 16777215
176
     1
 90
        2
176
     1
 90
        2
176
     1
 62
     7
176
     1
 62
   257
176
     1
 90
        1
176
     1
 90
        1
176
     1
 40
40.0
176
     1
 90
        8
176
     1
 62
     7
176
     1
 40
1.0
176
     1
 90
        1
176
     1
 90
        6
176
     1
 90
        2
176
     1
 62
     7
176
     1
 90
        3
176
     1
 90
        0
176
     1
 90
        0
176
     1
290
     0
176
     1
 90
        1
176
     1
 40
0.0
176
     1
 90
        0
176
     1
290
     0
176
     1
290
     1
176
     1
290
     1
176
     1
290
     0
176
     1
290
     0
176
     1
290
     0
176
     1
290
     0
176
     1
290
     0
176
     1
290
     0
176
     1
 90
       50
176
     1
 40
0.0
176
     1
 40
1.0
176
     1
 90
        0
176
     1
 62
    18
420
        0
176
     1
 90
       50
176
     1
 90
        3
176
     1
 62
     5
420
      255
176
     1
290
     0
176
     1
 90
       50
176
     1
 90
       50
176
     1
 90
       50
176
     1
290
     0
176
     1
 90
       50
176
     1
 62
   256
176
     0
 40
1.0
176
     0
 90
        2
176
     1
  1
strokes_ogs.tif
176
     1
290
     0
176
     1
 40
1.0
176
     1
 40
1.0
176
     1
  0
VISUALSTYLE
  5
35
102
{ACAD_REACTORS
330
2A
102
}
330
2A
100
AcDbVisualStyle
  2
Dim
 70
    11
177
     3
291
     1
 70
    58
 90
        2
176
     1
 90
        2
176
     1
 90
        0
176
     1
 90
        0
176
     1
 40
-0.6
176
     1
 40
-30.0
176
     1
 62
     7
420
 16777215
176
     1
 90
        1
176
     1
 90
        4
176
     1
 62
     7
176
     1
 62
   257
176
     1
 90
        1
176
     1
 90
        1
176
     1
 40
1.0
176
     1
 90
        8
176
     1
 62
     7
176
     1
 40
1.0
176
     1
 90
        1
176
     1
 90
        6
176
     1
 90
        2
176
     1
 62
     7
176
     1
 90
        5
176
     1
 90
        0
176
     1
 90
        0
176
     1
290
     0
176
     1
 90
        1
176
     1
 40
-50.0
176
     1
 90
        0
176
     1
290
     0
176
     1
290
     1
176
     1
290
     1
176
     1
290
     0
176
     1
290
     0
176
     1
290
     0
176
     1
290
     0
176
     1
290
     0
176
     1
290
     0
176
     1
 90
       50
176
     1
 40
0.0
176
     1
 40
1.0
176
     1
 90
        0
176
     1
 62
    18
420
        0
176
     1
 90
       50
176
     1
 90
        3
176
     1
 62
     5
420
      255
176
     1
290
     0
176
     1
 90
       50
176
     1
 90
       50
176
     1
 90
       50
176
     1
290
     0
176
     1
 90
       50
176
     1
 62
   256
176
     0
 40
1.0
176
     0
 90
        2
176
     1
  1
strokes_ogs.tif
176
     1
290
     0
176
     1
 40
1.0
176
     1
 40
1.0
176
     1
  0
VISUALSTYLE
  5
7A
102
{ACAD_REACTORS
330
2A
102
}
330
2A
100
AcDbVisualStyle
  2
EdgeColorOff
 70
    22
177
     3
291
     1
 70
    58
 90
        2
176
     0
 90
        2
176
     0
 90
        0
176
     0
 90
        0
176
     0
 40
0.6
176
     0
 40
30.0
176
     0
 62
     7
420
 16777215
176
     0
 90
        1
176
     0
 90
        4
176
     0
 62
     7
176
     0
 62
   257
176
     0
 90
        1
176
     0
 90
        1
176
     0
 40
1.0
176
     0
 90
        8
176
     2
 62
     7
176
     0
 40
1.0
176
     0
 90
        1
176
     0
 90
        6
176
     0
 90
        2
176
     0
 62
     7
176
     0
 90
        5
176
     0
 90
        0
176
     0
 90
        0
176
     0
290
     0
176
     0
 90
        1
176
     0
 40
0.0
176
     0
 90
        0
176
     0
290
     0
176
     0
290
     1
176
     0
290
     1
176
     0
290
     0
176
     0
290
     0
176
     0
290
     0
176
     0
290
     0
176
     0
290
     0
176
     0
290
     0
176
     0
 90
       50
176
     0
 40
0.0
176
     0
 40
1.0
176
     0
 90
        0
176
     0
 62
    18
420
        0
176
     0
 90
       50
176
     0
 90
        3
176
     0
 62
     5
420
      255
176
     0
290
     0
176
     0
 90
       50
176
     0
 90
       50
176
     0
 90
       50
176
     0
290
     0
176
     0
 90
       50
176
     0
 62
   256
176
     0
 40
1.0
176
     0
 90
        2
176
     0
  1
strokes_ogs.tif
176
     0
290
     0
176
     0
 40
1.0
176
     0
 40
1.0
176
     0
  0
VISUALSTYLE
  5
39
102
{ACAD_REACTORS
330
2A
102
}
330
2A
100
AcDbVisualStyle
  2
Facepattern
 70
    15
177
     3
291
     1
 70
    58
 90
        2
176
     1
 90
        2
176
     1
 90
        0
176
     1
 90
        0
176
     1
 40
-0.6
176
     1
 40
-30.0
176
     1
 62
     7
420
 16777215
176
     1
 90
        1
176
     1
 90
        4
176
     1
 62
     7
176
     1
 62
   257
176
     1
 90
        1
176
     1
 90
        1
176
     1
 40
1.0
176
     1
 90
        8
176
     1
 62
     7
176
     1
 40
1.0
176
     1
 90
        1
176
     1
 90
        6
176
     1
 90
        2
176
     1
 62
     7
176
     1
 90
        5
176
     1
 90
        0
176
     1
 90
        0
176
     1
290
     0
176
     1
 90
        1
176
     1
 40
0.0
176
     1
 90
        0
176
     1
290
     0
176
     1
290
     1
176
     1
290
     1
176
     1
290
     0
176
     1
290
     0
176
     1
290
     0
176
     1
290
     0
176
     1
290
     0
176
     1
290
     0
176
     1
 90
       50
176
     1
 40
0.0
176
     1
 40
1.0
176
     1
 90
        0
176
     1
 62
    18
420
        0
176
     1
 90
       50
176
     1
 90
        3
176
     1
 62
     5
420
      255
176
     1
290
     0
176
     1
 90
       50
176
     1
 90
       50
176
     1
 90
       50
176
     1
290
     0
176
     1
 90
       50
176
     1
 62
   256
176
     0
 40
1.0
176
     0
 90
        2
176
     1
  1
strokes_ogs.tif
176
     1
290
     0
176
     1
 40
1.0
176
     1
 40
1.0
176
     1
  0
VISUALSTYLE
  5
2B
102
{ACAD_REACTORS
330
2A
102
}
330
2A
100
AcDbVisualStyle
  2
Flat
 70
     0
177
     3
291
     1
 70
    58
 90
        2
176
     1
 90
        1
176
     1
 90
        1
176
     1
 90
        2
176
     1
 40
-0.6
176
     1
 40
30.0
176
     1
 62
     7
420
 16777215
176
     1
 90
        0
176
     1
 90
        4
176
     1
 62
     7
176
     1
 62
   257
176
     1
 90
        1
176
     1
 90
        1
176
     1
 40
1.0
176
     1
 90
        8
176
     1
 62
     7
176
     1
 40
1.0
176
     1
 90
        1
176
     1
 90
        6
176
     1
 90
        2
176
     1
 62
     7
176
     1
 90
        5
176
     1
 90
        0
176
     1
 90
        0
176
     1
290
     0
176
     1
 90
       13
176
     1
 40
0.0
176
     1
 90
        0
176
     1
290
     0
176
     1
290
     1
176
     1
290
     1
176
     1
290
     0
176
     1
290
     0
176
     1
290
     0
176
     1
290
     0
176
     1
290
     0
176
     1
290
     0
176
     1
 90
       50
176
     1
 40
0.0
176
     1
 40
1.0
176
     1
 90
        0
176
     1
 62
    18
420
        0
176
     1
 90
       50
176
     1
 90
        3
176
     1
 62
     5
420
      255
176
     1
290
     0
176
     1
 90
       50
176
     1
 90
       50
176
     1
 90
       50
176
     1
290
     0
176
     1
 90
       50
176
     1
 62
   256
176
     0
 40
1.0
176
     0
 90
        2
176
     1
  1
strokes_ogs.tif
176
     1
290
     0
176
     1
 40
1.0
176
     1
 40
1.0
176
     1
  0
VISUALSTYLE
  5
2C
102
{ACAD_REACTORS
330
2A
102
}
330
2A
100
AcDbVisualStyle
  2
FlatWithEdges
 70
     1
177
     3
291
     1
 70
    58
 90
        2
176
     1
 90
        1
176
     1
 90
        1
176
     1
 90
        2
176
     1
 40
-0.6
176
     1
 40
30.0
176
     1
 62
     7
420
 16777215
176
     1
 90
        1
176
     1
 90
        4
176
     1
 62
     7
176
     1
 62
   257
176
     1
 90
        1
176
     1
 90
        1
176
     1
 40
1.0
176
     1
 90
        0
176
     1
 62
   257
176
     1
 40
1.0
176
     1
 90
        1
176
     1
 90
        6
176
     1
 90
        2
176
     1
 62
     7
176
     1
 90
        5
176
     1
 90
        0
176
     1
 90
        0
176
     1
290
     0
176
     1
 90
       13
176
     1
 40
0.0
176
     1
 90
        0
176
     1
290
     0
176
     1
290
     1
176
     1
290
     1
176
     1
290
     0
176
     1
290
     0
176
     1
290
     0
176
     1
290
     0
176
     1
290
     0
176
     1
290
     0
176
     1
 90
       50
176
     1
 40
0.0
176
     1
 40
1.0
176
     1
 90
        0
176
     1
 62
    18
420
        0
176
     1
 90
       50
176
     1
 90
        3
176
     1
 62
     5
420
      255
176
     1
290
     0
176
     1
 90
       50
176
     1
 90
       50
176
     1
 90
       50
176
     1
290
     0
176
     1
 90
       50
176
     1
 62
   256
176
     0
 40
1.0
176
     0
 90
        2
176
     1
  1
strokes_ogs.tif
176
     1
290
     0
176
     1
 40
1.0
176
     1
 40
1.0
176
     1
  0
VISUALSTYLE
  5
2D
102
{ACAD_REACTORS
330
2A
102
}
330
2A
100
AcDbVisualStyle
  2
Gouraud
 70
     2
177
     3
291
     1
 70
    58
 90
        2
176
     1
 90
        2
176
     1
 90
        1
176
     1
 90
        2
176
     1
 40
-0.6
176
     1
 40
30.0
176
     1
 62
     7
420
 16777215
176
     1
 90
        0
176
     1
 90
        4
176
     1
 62
     7
176
     1
 62
   257
176
     1
 90
        1
176
     1
 90
        1
176
     1
 40
1.0
176
     1
 90
        0
176
     1
 62
     7
176
     1
 40
1.0
176
     1
 90
        1
176
     1
 90
        6
176
     1
 90
        2
176
     1
 62
     7
176
     1
 90
        5
176
     1
 90
        0
176
     1
 90
        0
176
     1
290
     0
176
     1
 90
       13
176
     1
 40
0.0
176
     1
 90
        0
176
     1
290
     0
176
     1
290
     1
176
     1
290
     1
176
     1
290
     0
176
     1
290
     0
176
     1
290
     0
176
     1
290
     0
176
     1
290
     0
176
     1
290
     0
176
     1
 90
       50
176
     1
 40
0.0
176
     1
 40
1.0
176
     1
 90
        0
176
     1
 62
    18
420
        0
176
     1
 90
       50
176
     1
 90
        3
176
     1
 62
     5
420
      255
176
     1
290
     0
176
     1
 90
       50
176
     1
 90
       50
176
     1
 90
       50
176
     1
290
     0
176
     1
 90
       50
176
     1
 62
   256
176
     0
 40
1.0
176
     0
 90
        2
176
     1
  1
strokes_ogs.tif
176
     1
290
     0
176
     1
 40
1.0
176
     1
 40
1.0
176
     1
  0
VISUALSTYLE
  5
2E
102
{ACAD_REACTORS
330
2A
102
}
330
2A
100
AcDbVisualStyle
  2
GouraudWithEdges
 70
     3
177
     3
291
     1
 70
    58
 90
        2
176
     1
 90
        2
176
     1
 90
        1
176
     1
 90
        2
176
     1
 40
-0.6
176
     1
 40
30.0
176
     1
 62
     7
420
 16777215
176
     1
 90
        1
176
     1
 90
        4
176
     1
 62
     7
176
     1
 62
   257
176
     1
 90
        1
176
     1
 90
        1
176
     1
 40
1.0
176
     1
 90
        0
176
     1
 62
   257
176
     1
 40
1.0
176
     1
 90
        1
176
     1
 90
        6
176
     1
 90
        2
176
     1
 62
     7
176
     1
 90
        5
176
     1
 90
        0
176
     1
 90
        0
176
     1
290
     0
176
     1
 90
       13
176
     1
 40
0.0
176
     1
 90
        0
176
     1
290
     0
176
     1
290
     1
176
     1
290
     1
176
     1
290
     0
176
     1
290
     0
176
     1
290
     0
176
     1
290
     0
176
     1
290
     0
176
     1
290
     0
176
     1
 90
       50
176
     1
 40
0.0
176
     1
 40
1.0
176
     1
 90
        0
176
     1
 62
    18
420
        0
176
     1
 90
       50
176
     1
 90
        3
176
     1
 62
     5
420
      255
176
     1
290
     0
176
     1
 90
       50
176
     1
 90
       50
176
     1
 90
       50
176
     1
290
     0
176
     1
 90
       50
176
     1
 62
   256
176
     0
 40
1.0
176
     0
 90
        2
176
     1
  1
strokes_ogs.tif
176
     1
290
     0
176
     1
 40
1.0
176
     1
 40
1.0
176
     1
  0
VISUALSTYLE
  5
77
102
{ACAD_REACTORS
330
2A
102
}
330
2A
100
AcDbVisualStyle
  2
Hidden
 70
     6
177
     3
291
     0
 70
    58
 90
        1
176
     1
 90
        2
176
     1
 90
        2
176
     1
 90
        0
176
     1
 40
0.6
176
     1
 40
30.0
176
     1
 62
     7
420
 16777215
176
     1
 90
        2
176
     1
 90
        2
176
     1
 62
     7
176
     1
 62
   257
176
     1
 90
        2
176
     1
 90
        1
176
     1
 40
40.0
176
     1
 90
        0
176
     1
 62
   257
176
     1
 40
1.0
176
     1
 90
        1
176
     1
 90
        6
176
     1
 90
        2
176
     1
 62
     7
176
     1
 90
        3
176
     1
 90
        0
176
     1
 90
        0
176
     1
290
     0
176
     1
 90
        1
176
     1
 40
0.0
176
     1
 90
        0
176
     1
290
     0
176
     1
290
     1
176
     1
290
     1
176
     1
290
     0
176
     1
290
     0
176
     1
290
     0
176
     1
290
     0
176
     1
290
     0
176
     1
290
     0
176
     1
 90
       50
176
     1
 40
0.0
176
     1
 40
1.0
176
     1
 90
        0
176
     1
 62
    18
420
        0
176
     1
 90
       50
176
     1
 90
        3
176
     1
 62
     5
420
      255
176
     1
290
     0
176
     1
 90
       50
176
     1
 90
       50
176
     1
 90
       50
176
     1
290
     0
176
     1
 90
       50
176
     1
 62
   256
176
     0
 40
1.0
176
     0
 90
        2
176
     1
  1
strokes_ogs.tif
176
     1
290
     0
176
     1
 40
1.0
176
     1
 40
1.0
176
     1
  0
VISUALSTYLE
  5
78
102
{ACAD_REACTORS
330
2A
102
}
330
2A
100
AcDbVisualStyle
  2
JitterOff
 70
    20
177
     3
291
     1
 70
    58
 90
        2
176
     0
 90
        2
176
     0
 90
        0
176
     0
 90
        0
176
     0
 40
0.6
176
     0
 40
30.0
176
     0
 62
     7
420
 16777215
176
     0
 90
        1
176
     0
 90
        4
176
     0
 62
     7
176
     0
 62
   257
176
     0
 90
        1
176
     0
 90
        1
176
     0
 40
1.0
176
     0
 90
       10
176
     2
 62
     7
176
     0
 40
1.0
176
     0
 90
        1
176
     0
 90
        6
176
     0
 90
        2
176
     0
 62
     7
176
     0
 90
        5
176
     0
 90
        0
176
     0
 90
        0
176
     0
290
     0
176
     0
 90
        1
176
     0
 40
0.0
176
     0
 90
        0
176
     0
290
     0
176
     0
290
     1
176
     0
290
     1
176
     0
290
     0
176
     0
290
     0
176
     0
290
     0
176
     0
290
     0
176
     0
290
     0
176
     0
290
     0
176
     0
 90
       50
176
     0
 40
0.0
176
     0
 40
1.0
176
     0
 90
        0
176
     0
 62
    18
420
        0
176
     0
 90
       50
176
     0
 90
        3
176
     0
 62
     5
420
      255
176
     0
290
     0
176
     0
 90
       50
176
     0
 90
       50
176
     0
 90
       50
176
     0
290
     0
176
     0
 90
       50
176
     0
 62
   256
176
     0
 40
1.0
176
     0
 90
        2
176
     0
  1
strokes_ogs.tif
176
     0
290
     0
176
     0
 40
1.0
176
     0
 40
1.0
176
     0
  0
VISUALSTYLE
  5
38
102
{ACAD_REACTORS
330
2A
102
}
330
2A
100
AcDbVisualStyle
  2
Linepattern
 70
    14
177
     3
291
     1
 70
    58
 90
        2
176
     1
 90
        2
176
     1
 90
        0
176
     1
 90
        0
176
     1
 40
-0.6
176
     1
 40
-30.0
176
     1
 62
     7
420
 16777215
176
     1
 90
        1
176
     1
 90
        4
176
     1
 62
     7
176
     1
 62
   257
176
     1
 90
        7
176
     1
 90
        7
176
     1
 40
1.0
176
     1
 90
        8
176
     1
 62
     7
176
     1
 40
1.0
176
     1
 90
        1
176
     1
 90
        6
176
     1
 90
        2
176
     1
 62
     7
176
     1
 90
        5
176
     1
 90
        0
176
     1
 90
        0
176
     1
290
     0
176
     1
 90
        1
176
     1
 40
0.0
176
     1
 90
        0
176
     1
290
     0
176
     1
290
     1
176
     1
290
     1
176
     1
290
     0
176
     1
290
     0
176
     1
290
     0
176
     1
290
     0
176
     1
290
     0
176
     1
290
     0
176
     1
 90
       50
176
     1
 40
0.0
176
     1
 40
1.0
176
     1
 90
        0
176
     1
 62
    18
420
        0
176
     1
 90
       50
176
     1
 90
        3
176
     1
 62
     5
420
      255
176
     1
290
     0
176
     1
 90
       50
176
     1
 90
       50
176
     1
 90
       50
176
     1
290
     0
176
     1
 90
       50
176
     1
 62
   256
176
     0
 40
1.0
176
     0
 90
        2
176
     1
  1
strokes_ogs.tif
176
     1
290
     0
176
     1
 40
1.0
176
     1
 40
1.0
176
     1
  0
VISUALSTYLE
  5
79
102
{ACAD_REACTORS
330
2A
102
}
330
2A
100
AcDbVisualStyle
  2
OverhangOff
 70
    21
177
     3
291
     1
 70
    58
 90
        2
176
     0
 90
        2
176
     0
 90
        0
176
     0
 90
        0
176
     0
 40
0.6
176
     0
 40
30.0
176
     0
 62
     7
420
 16777215
176
     0
 90
        1
176
     0
 90
        4
176
     0
 62
     7
176
     0
 62
   257
176
     0
 90
        1
176
     0
 90
        1
176
     0
 40
1.0
176
     0
 90
        9
176
     2
 62
     7
176
     0
 40
1.0
176
     0
 90
        1
176
     0
 90
        6
176
     0
 90
        2
176
     0
 62
     7
176
     0
 90
        5
176
     0
 90
        0
176
     0
 90
        0
176
     0
290
     0
176
     0
 90
        1
176
     0
 40
0.0
176
     0
 90
        0
176
     0
290
     0
176
     0
290
     1
176
     0
290
     1
176
     0
290
     0
176
     0
290
     0
176
     0
290
     0
176
     0
290
     0
176
     0
290
     0
176
     0
290
     0
176
     0
 90
       50
176
     0
 40
0.0
176
     0
 40
1.0
176
     0
 90
        0
176
     0
 62
    18
420
        0
176
     0
 90
       50
176
     0
 90
        3
176
     0
 62
     5
420
      255
176
     0
290
     0
176
     0
 90
       50
176
     0
 90
       50
176
     0
 90
       50
176
     0
290
     0
176
     0
 90
       50
176
     0
 62
   256
176
     0
 40
1.0
176
     0
 90
        2
176
     0
  1
strokes_ogs.tif
176
     0
290
     0
176
     0
 40
1.0
176
     0
 40
1.0
176
     0
  0
VISUALSTYLE
  5
33
102
{ACAD_REACTORS
330
2A
102
}
330
2A
100
AcDbVisualStyle
  2
Realistic
 70
     8
177
     3
291
     0
 70
    58
 90
        2
176
     1
 90
        2
176
     1
 90
        0
176
     1
 90
        0
176
     1
 40
-0.6
176
     1
 40
-30.0
176
     1
 62
     7
420
 16777215
176
     1
 90
        1
176
     1
 90
        0
176
     1
 62
     7
176
     1
 62
   257
176
     1
 90
        1
176
     1
 90
        1
176
     1
 40
1.0
176
     1
 90
        8
176
     1
 62
     8
420
  7895160
176
     1
 40
1.0
176
     1
 90
        1
176
     1
 90
        6
176
     1
 90
        2
176
     1
 62
     7
176
     1
 90
        5
176
     1
 90
        0
176
     1
 90
        0
176
     1
290
     0
176
     1
 90
       13
176
     1
 40
0.0
176
     1
 90
        0
176
     1
290
     0
176
     1
290
     1
176
     1
290
     1
176
     1
290
     0
176
     1
290
     0
176
     1
290
     0
176
     1
290
     0
176
     1
290
     0
176
     1
290
     0
176
     1
 90
       50
176
     1
 40
0.0
176
     1
 40
1.0
176
     1
 90
        0
176
     1
 62
    18
420
        0
176
     1
 90
       50
176
     1
 90
        3
176
     1
 62
     5
420
      255
176
     1
290
     0
176
     1
 90
       50
176
     1
 90
       50
176
     1
 90
       50
176
     1
290
     0
176
     1
 90
       50
176
     1
 62
   256
176
     0
 40
1.0
176
     0
 90
        2
176
     1
  1
strokes_ogs.tif
176
     1
290
     0
176
     1
 40
1.0
176
     1
 40
1.0
176
     1
  0
VISUALSTYLE
  5
7F
102
{ACAD_REACTORS
330
2A
102
}
330
2A
100
AcDbVisualStyle
  2
Shaded
 70
    27
177
     3
291
     0
 70
    58
 90
        2
176
     1
 90
        2
176
     1
 90
        1
176
     1
 90
        2
176
     1
 40
0.6
176
     1
 40
30.0
176
     1
 62
     7
420
 16777215
176
     1
 90
        0
176
     1
 90
        4
176
     1
 62
     7
176
     1
 62
   257
176
     1
 90
        1
176
     1
 90
        1
176
     1
 40
1.0
176
     1
 90
        8
176
     1
 62
   257
176
     1
 40
1.0
176
     1
 90
        1
176
     1
 90
        6
176
     1
 90
        2
176
     1
 62
     8
420
  7895160
176
     1
 90
        3
176
     1
 90
        0
176
     1
 90
        0
176
     1
290
     0
176
     1
 90
        5
176
     1
 40
0.0
176
     1
 90
        0
176
     1
290
     0
176
     1
290
     1
176
     1
290
     1
176
     1
290
     0
176
     1
290
     0
176
     1
290
     0
176
     1
290
     0
176
     1
290
     0
176
     1
290
     0
176
     1
 90
       50
176
     1
 40
0.0
176
     1
 40
1.0
176
     1
 90
        0
176
     1
 62
    18
420
        0
176
     1
 90
       50
176
     1
 90
        3
176
     1
 62
     5
420
      255
176
     1
290
     0
176
     1
 90
       50
176
     1
 90
       50
176
     1
 90
       50
176
     1
290
     0
176
     1
 90
       50
176
     1
 62
   256
176
     0
 40
1.0
176
     0
 90
        2
176
     1
  1
strokes_ogs.tif
176
     1
290
     0
176
     1
 40
1.0
176
     1
 40
1.0
176
     1
  0
VISUALSTYLE
  5
7E
102
{ACAD_REACTORS
330
2A
102
}
330
2A
100
AcDbVisualStyle
  2
Shaded with edges
 70
    26
177
     3
291
     0
 70
    58
 90
        2
176
     1
 90
        2
176
     1
 90
        1
176
     1
 90
        2
176
     1
 40
0.6
176
     1
 40
30.0
176
     1
 62
     7
420
 16777215
176
     1
 90
        1
176
     1
 90
       10
176
     1
 62
     7
176
     1
 62
   257
176
     1
 90
        2
176
     1
 90
        1
176
     1
 40
1.0
176
     1
 90
        8
176
     1
 62
   257
176
     1
 40
1.0
176
     1
 90
        1
176
     1
 90
        6
176
     1
 90
        2
176
     1
 62
     7
176
     1
 90
        3
176
     1
 90
        0
176
     1
 90
        0
176
     1
290
     0
176
     1
 90
        5
176
     1
 40
0.0
176
     1
 90
        0
176
     1
290
     0
176
     1
290
     1
176
     1
290
     1
176
     1
290
     0
176
     1
290
     0
176
     1
290
     0
176
     1
290
     0
176
     1
290
     0
176
     1
290
     0
176
     1
 90
       50
176
     1
 40
0.0
176
     1
 40
1.0
176
     1
 90
        0
176
     1
 62
    18
420
        0
176
     1
 90
       50
176
     1
 90
        3
176
     1
 62
     5
420
      255
176
     1
290
     0
176
     1
 90
       50
176
     1
 90
       50
176
     1
 90
       50
176
     1
290
     0
176
     1
 90
       50
176
     1
 62
   256
176
     0
 40
1.0
176
     0
 90
        2
176
     1
  1
strokes_ogs.tif
176
     1
290
     0
176
     1
 40
1.0
176
     1
 40
1.0
176
     1
  0
VISUALSTYLE
  5
7B
102
{ACAD_REACTORS
330
2A
102
}
330
2A
100
AcDbVisualStyle
  2
Shades of Gray
 70
    23
177
     3
291
     0
 70
    58
 90
        2
176
     1
 90
        2
176
     1
 90
        3
176
     1
 90
        0
176
     1
 40
0.6
176
     1
 40
30.0
176
     1
 62
     7
420
 16777215
176
     1
 90
        2
176
     1
 90
        2
176
     1
 62
     7
176
     1
 62
     7
176
     1
 90
        1
176
     1
 90
        1
176
     1
 40
40.0
176
     1
 90
        8
176
     1
 62
     7
176
     1
 40
1.0
176
     1
 90
        1
176
     1
 90
        6
176
     1
 90
        2
176
     1
 62
     7
176
     1
 90
        3
176
     1
 90
        0
176
     1
 90
        0
176
     1
290
     0
176
     1
 90
        1
176
     1
 40
0.0
176
     1
 90
        0
176
     1
290
     0
176
     1
290
     1
176
     1
290
     1
176
     1
290
     0
176
     1
290
     0
176
     1
290
     0
176
     1
290
     0
176
     1
290
     0
176
     1
290
     0
176
     1
 90
       50
176
     1
 40
0.0
176
     1
 40
1.0
176
     1
 90
        0
176
     1
 62
    18
420
        0
176
     1
 90
       50
176
     1
 90
        3
176
     1
 62
     5
420
      255
176
     1
290
     0
176
     1
 90
       50
176
     1
 90
       50
176
     1
 90
       50
176
     1
290
     0
176
     1
 90
       50
176
     1
 62
   256
176
     0
 40
1.0
176
     0
 90
        2
176
     1
  1
strokes_ogs.tif
176
     1
290
     0
176
     1
 40
1.0
176
     1
 40
1.0
176
     1
  0
VISUALSTYLE
  5
7C
102
{ACAD_REACTORS
330
2A
102
}
330
2A
100
AcDbVisualStyle
  2
Sketchy
 70
    24
177
     3
291
     0
 70
    58
 90
        1
176
     1
 90
        2
176
     1
 90
        2
176
     1
 90
        0
176
     1
 40
0.6
176
     1
 40
30.0
176
     1
 62
     7
420
 16777215
176
     1
 90
        2
176
     1
 90
        2
176
     1
 62
     7
176
     1
 62
     7
176
     1
 90
        1
176
     1
 90
        1
176
     1
 40
40.0
176
     1
 90
       11
176
     1
 62
     7
176
     1
 40
1.0
176
     1
 90
        1
176
     1
 90
        6
176
     1
 90
        2
176
     1
 62
     7
176
     1
 90
        6
176
     1
 90
        0
176
     1
 90
        0
176
     1
290
     0
176
     1
 90
        1
176
     1
 40
0.0
176
     1
 90
        0
176
     1
290
     0
176
     1
290
     1
176
     1
290
     1
176
     1
290
     0
176
     1
290
     0
176
     1
290
     0
176
     1
290
     0
176
     1
290
     0
176
     1
290
     0
176
     1
 90
       50
176
     1
 40
0.0
176
     1
 40
1.0
176
     1
 90
        0
176
     1
 62
    18
420
        0
176
     1
 90
       50
176
     1
 90
        3
176
     1
 62
     5
420
      255
176
     1
290
     0
176
     1
 90
       50
176
     1
 90
       50
176
     1
 90
       50
176
     1
290
     0
176
     1
 90
       50
176
     1
 62
   256
176
     0
 40
1.0
176
     0
 90
        2
176
     1
  1
strokes_ogs.tif
176
     1
290
     0
176
     1
 40
1.0
176
     1
 40
1.0
176
     1
  0
VISUALSTYLE
  5
37
102
{ACAD_REACTORS
330
2A
102
}
330
2A
100
AcDbVisualStyle
  2
Thicken
 70
    13
177
     3
291
     1
 70
    58
 90
        2
176
     1
 90
        2
176
     1
 90
        0
176
     1
 90
        0
176
     1
 40
-0.6
176
     1
 40
-30.0
176
     1
 62
     7
420
 16777215
176
     1
 90
        1
176
     1
 90
        4
176
     1
 62
     7
176
     1
 62
   257
176
     1
 90
        1
176
     1
 90
        1
176
     1
 40
1.0
176
     1
 90
       12
176
     1
 62
     7
176
     1
 40
1.0
176
     1
 90
        1
176
     1
 90
        6
176
     1
 90
        2
176
     1
 62
     7
176
     1
 90
        5
176
     1
 90
        0
176
     1
 90
        0
176
     1
290
     0
176
     1
 90
        1
176
     1
 40
0.0
176
     1
 90
        0
176
     1
290
     0
176
     1
290
     1
176
     1
290
     1
176
     1
290
     0
176
     1
290
     0
176
     1
290
     0
176
     1
290
     0
176
     1
290
     0
176
     1
290
     0
176
     1
 90
       50
176
     1
 40
0.0
176
     1
 40
1.0
176
     1
 90
        0
176
     1
 62
    18
420
        0
176
     1
 90
       50
176
     1
 90
        3
176
     1
 62
     5
420
      255
176
     1
290
     0
176
     1
 90
       50
176
     1
 90
       50
176
     1
 90
       50
176
     1
290
     0
176
     1
 90
       50
176
     1
 62
   256
176
     0
 40
1.0
176
     0
 90
        2
176
     1
  1
strokes_ogs.tif
176
     1
290
     0
176
     1
 40
1.0
176
     1
 40
1.0
176
     1
  0
VISUALSTYLE
  5
76
102
{ACAD_REACTORS
330
2A
102
}
330
2A
100
AcDbVisualStyle
  2
Wireframe
 70
     5
177
     3
291
     0
 70
    58
 90
        0
176
     1
 90
        2
176
     1
 90
        0
176
     1
 90
        0
176
     1
 40
0.6
176
     1
 40
30.0
176
     1
 62
     7
420
 16777215
176
     1
 90
        1
176
     1
 90
        4
176
     1
 62
     7
176
     1
 62
   257
176
     1
 90
        1
176
     1
 90
        1
176
     1
 40
1.0
176
     1
 90
        0
176
     1
 62
   257
176
     1
 40
1.0
176
     1
 90
        1
176
     1
 90
        6
176
     1
 90
        2
176
     1
 62
     7
176
     1
 90
        3
176
     1
 90
        0
176
     1
 90
        0
176
     1
290
     0
176
     1
 90
        1
176
     1
 40
0.0
176
     1
 90
        0
176
     1
290
     0
176
     1
290
     1
176
     1
290
     1
176
     1
290
     0
176
     1
290
     0
176
     1
290
     0
176
     1
290
     0
176
     1
290
     0
176
     1
290
     0
176
     1
 90
       50
176
     1
 40
0.0
176
     1
 40
1.0
176
     1
 90
        0
176
     1
 62
    18
420
        0
176
     1
 90
       50
176
     1
 90
        3
176
     1
 62
     5
420
      255
176
     1
290
     0
176
     1
 90
       50
176
     1
 90
       50
176
     1
 90
       50
176
     1
290
     0
176
     1
 90
       50
176
     1
 62
   256
176
     0
 40
1.0
176
     0
 90
        2
176
     1
  1
strokes_ogs.tif
176
     1
290
     0
176
     1
 40
1.0
176
     1
 40
1.0
176
     1
  0
VISUALSTYLE
  5
7D
102
{ACAD_REACTORS
330
2A
102
}
330
2A
100
AcDbVisualStyle
  2
X-Ray
 70
    25
177
     3
291
     0
 70
    58
 90
        2
176
     1
 90
        2
176
     1
 90
        1
176
     1
 90
        1
176
     1
 40
0.5
176
     1
 40
30.0
176
     1
 62
     7
420
 16777215
176
     1
 90
        1
176
     1
 90
        0
176
     1
 62
     7
176
     1
 62
   257
176
     1
 90
        1
176
     1
 90
        1
176
     1
 40
1.0
176
     1
 90
        8
176
     1
 62
     7
176
     1
 40
1.0
176
     1
 90
        1
176
     1
 90
        6
176
     1
 90
        2
176
     1
 62
     7
176
     1
 90
        3
176
     1
 90
        0
176
     1
 90
        0
176
     1
290
     0
176
     1
 90
       13
176
     1
 40
0.0
176
     1
 90
        0
176
     1
290
     0
176
     1
290
     1
176
     1
290
     1
176
     1
290
     0
176
     1
290
     0
176
     1
290
     0
176
     1
290
     0
176
     1
290
     0
176
     1
290
     0
176
     1
 90
       50
176
     1
 40
0.0
176
     1
 40
1.0
176
     1
 90
        0
176
     1
 62
    18
420
        0
176
     1
 90
       50
176
     1
 90
        3
176
     1
 62
     5
420
      255
176
     1
290
     0
176
     1
 90
       50
176
     1
 90
       50
176
     1
 90
       50
176
     1
290
     0
176
     1
 90
       50
176
     1
 62
   256
176
     0
 40
1.0
176
     0
 90
        2
176
     1
  1
strokes_ogs.tif
176
     1
290
     0
176
     1
 40
1.0
176
     1
 40
1.0
176
     1
  0
DICTIONARYVAR
  5
62
102
{ACAD_REACTORS
330
3D
102
}
330
3D
100
DictionaryVariables
280
     0
  1
1:1
  0
DICTIONARYVAR
  5
BB
102
{ACAD_REACTORS
330
3D
102
}
330
3D
100
DictionaryVariables
280
     0
  1
Standard
  0
DICTIONARYVAR
  5
3E
102
{ACAD_REACTORS
330
3D
102
}
330
3D
100
DictionaryVariables
280
     0
  1
Standard
  0
DICTIONARYVAR
  5
6F
102
{ACAD_REACTORS
330
3D
102
}
330
3D
100
DictionaryVariables
280
     0
  1
0
  0
DICTIONARYVAR
  5
70
102
{ACAD_REACTORS
330
3D
102
}
330
3D
100
DictionaryVariables
280
     0
  1
0
  0
DICTIONARY
  5
6B0
330
3C
100
AcDbDictionary
280
     1
281
     1
  3
ACAD_ROUNDTRIP_2008_TABLESTYLE_CELLSTYLEMAP
360
6B1
  0
CELLSTYLEMAP
  5
6B1
102
{ACAD_REACTORS
330
6B0
102
}
330
6B0
100
AcDbCellStyleMap
 90
        3
300
CELLSTYLE
  1
TABLEFORMAT_BEGIN
 90
        5
170
     1
 91
        0
 92
    32768
 62
   257
 93
        1
300
CONTENTFORMAT
  1
CONTENTFORMAT_BEGIN
 90
        0
 91
        0
 92
      512
 93
        0
300

 40
0.0
140
1.0
 94
        5
 62
     0
340
11
144
6.0
309
CONTENTFORMAT_END
171
     1
301
MARGIN
  1
CELLMARGIN_BEGIN
 40
1.5
 40
1.5
 40
1.5
 40
1.5
 40
0.18
 40
0.18
309
CELLMARGIN_END
 94
        6
 95
        1
302
GRIDFORMAT
  1
GRIDFORMAT_BEGIN
 90
        0
 91
        1
 62
     0
 92
       -2
340
0
 93
        0
 40
0.045
309
GRIDFORMAT_END
 95
        2
302
GRIDFORMAT
  1
GRIDFORMAT_BEGIN
 90
        0
 91
        1
 62
     0
 92
       -2
340
0
 93
        0
 40
0.045
309
GRIDFORMAT_END
 95
        4
302
GRIDFORMAT
  1
GRIDFORMAT_BEGIN
 90
        0
 91
        1
 62
     0
 92
       -2
340
0
 93
        0
 40
0.045
309
GRIDFORMAT_END
 95
        8
302
GRIDFORMAT
  1
GRIDFORMAT_BEGIN
 90
        0
 91
        1
 62
     0
 92
       -2
340
0
 93
        0
 40
0.045
309
GRIDFORMAT_END
 95
       16
302
GRIDFORMAT
  1
GRIDFORMAT_BEGIN
 90
        0
 91
        1
 62
     0
 92
       -2
340
0
 93
        0
 40
0.045
309
GRIDFORMAT_END
 95
       32
302
GRIDFORMAT
  1
GRIDFORMAT_BEGIN
 90
        0
 91
        1
 62
     0
 92
       -2
340
0
 93
        0
 40
0.045
309
GRIDFORMAT_END
309
TABLEFORMAT_END
  1
CELLSTYLE_BEGIN
 90
        1
 91
        1
300
_TITLE
309
CELLSTYLE_END
300
CELLSTYLE
  1
TABLEFORMAT_BEGIN
 90
        5
170
     1
 91
        0
 92
        0
 62
   257
 93
        1
300
CONTENTFORMAT
  1
CONTENTFORMAT_BEGIN
 90
        0
 91
        0
 92
      512
 93
        0
300

 40
0.0
140
1.0
 94
        5
 62
     0
340
11
144
4.5
309
CONTENTFORMAT_END
171
     1
301
MARGIN
  1
CELLMARGIN_BEGIN
 40
1.5
 40
1.5
 40
1.5
 40
1.5
 40
0.18
 40
0.18
309
CELLMARGIN_END
 94
        6
 95
        1
302
GRIDFORMAT
  1
GRIDFORMAT_BEGIN
 90
        0
 91
        1
 62
     0
 92
       -2
340
0
 93
        0
 40
0.045
309
GRIDFORMAT_END
 95
        2
302
GRIDFORMAT
  1
GRIDFORMAT_BEGIN
 90
        0
 91
        1
 62
     0
 92
       -2
340
0
 93
        0
 40
0.045
309
GRIDFORMAT_END
 95
        4
302
GRIDFORMAT
  1
GRIDFORMAT_BEGIN
 90
        0
 91
        1
 62
     0
 92
       -2
340
0
 93
        0
 40
0.045
309
GRIDFORMAT_END
 95
        8
302
GRIDFORMAT
  1
GRIDFORMAT_BEGIN
 90
        0
 91
        1
 62
     0
 92
       -2
340
0
 93
        0
 40
0.045
309
GRIDFORMAT_END
 95
       16
302
GRIDFORMAT
  1
GRIDFORMAT_BEGIN
 90
        0
 91
        1
 62
     0
 92
       -2
340
0
 93
        0
 40
0.045
309
GRIDFORMAT_END
 95
       32
302
GRIDFORMAT
  1
GRIDFORMAT_BEGIN
 90
        0
 91
        1
 62
     0
 92
       -2
340
0
 93
        0
 40
0.045
309
GRIDFORMAT_END
309
TABLEFORMAT_END
  1
CELLSTYLE_BEGIN
 90
        2
 91
        1
300
_HEADER
309
CELLSTYLE_END
300
CELLSTYLE
  1
TABLEFORMAT_BEGIN
 90
        5
170
     1
 91
        0
 92
        0
 62
   257
 93
        1
300
CONTENTFORMAT
  1
CONTENTFORMAT_BEGIN
 90
        0
 91
        0
 92
      512
 93
        0
300

 40
0.0
140
1.0
 94
        2
 62
     0
340
11
144
4.5
309
CONTENTFORMAT_END
171
     1
301
MARGIN
  1
CELLMARGIN_BEGIN
 40
1.5
 40
1.5
 40
1.5
 40
1.5
 40
0.18
 40
0.18
309
CELLMARGIN_END
 94
        6
 95
        1
302
GRIDFORMAT
  1
GRIDFORMAT_BEGIN
 90
        0
 91
        1
 62
     0
 92
       -2
340
0
 93
        0
 40
0.045
309
GRIDFORMAT_END
 95
        2
302
GRIDFORMAT
  1
GRIDFORMAT_BEGIN
 90
        0
 91
        1
 62
     0
 92
       -2
340
0
 93
        0
 40
0.045
309
GRIDFORMAT_END
 95
        4
302
GRIDFORMAT
  1
GRIDFORMAT_BEGIN
 90
        0
 91
        1
 62
     0
 92
       -2
340
0
 93
        0
 40
0.045
309
GRIDFORMAT_END
 95
        8
302
GRIDFORMAT
  1
GRIDFORMAT_BEGIN
 90
        0
 91
        1
 62
     0
 92
       -2
340
0
 93
        0
 40
0.045
309
GRIDFORMAT_END
 95
       16
302
GRIDFORMAT
  1
GRIDFORMAT_BEGIN
 90
        0
 91
        1
 62
     0
 92
       -2
340
0
 93
        0
 40
0.045
309
GRIDFORMAT_END
 95
       32
302
GRIDFORMAT
  1
GRIDFORMAT_BEGIN
 90
        0
 91
        1
 62
     0
 92
       -2
340
0
 93
        0
 40
0.045
309
GRIDFORMAT_END
309
TABLEFORMAT_END
  1
CELLSTYLE_BEGIN
 90
        3
 91
        2
300
_DATA
309
CELLSTYLE_END
  0
ENDSEC
  0
EOF
