  0
SECTION
  2
HEADER
  9
$ACADVER
  1
AC1032
  9
$ACADMAINTVER
 90
       55
  9
$DWGCODEPAGE
  3
ANSI_1252
  9
$LASTSAVEDBY
  1
eac573
  9
$REQUIREDVERSIONS
160
                 0
  9
$INSBASE
 10
0.0
 20
0.0
 30
0.0
  9
$EXTMIN
 10
154.685419308156
 20
102.3042330034655
 30
0.0
  9
$EXTMAX
 10
173.9298231904463
 20
108.7980868467209
 30
0.0
  9
$LIMMIN
 10
0.0
 20
0.0
  9
$LIMMAX
 10
420.0
 20
297.0
  9
$ORTHOMODE
 70
     0
  9
$REGENMODE
 70
     1
  9
$FILLMODE
 70
     1
  9
$QTEXTMODE
 70
     0
  9
$MIRRTEXT
 70
     0
  9
$LTSCALE
 40
1.0
  9
$ATTMODE
 70
     1
  9
$TEXTSIZE
 40
2.5
  9
$TRACEWID
 40
1.0
  9
$TEXTSTYLE
  7
Standard
  9
$CLAYER
  8
CONTEXT 1
  9
$CELTYPE
  6
ByLayer
  9
$CECOLOR
 62
     1
  9
$CELTSCALE
 40
1.0
  9
$DISPSILH
 70
     0
  9
$DIMSCALE
 40
1.0
  9
$DIMASZ
 40
2.5
  9
$DIMEXO
 40
0.625
  9
$DIMDLI
 40
3.75
  9
$DIMRND
 40
0.0
  9
$DIMDLE
 40
0.0
  9
$DIMEXE
 40
1.25
  9
$DIMTP
 40
0.0
  9
$DIMTM
 40
0.0
  9
$DIMTXT
 40
2.5
  9
$DIMCEN
 40
-2.5
  9
$DIMTSZ
 40
0.0
  9
$DIMTOL
 70
     0
  9
$DIMLIM
 70
     0
  9
$DIMTIH
 70
     0
  9
$DIMTOH
 70
     0
  9
$DIMSE1
 70
     0
  9
$DIMSE2
 70
     0
  9
$DIMTAD
 70
     1
  9
$DIMZIN
 70
     8
  9
$DIMBLK
  1

  9
$DIMASO
 70
     1
  9
$DIMSHO
 70
     1
  9
$DIMPOST
  1

  9
$DIMAPOST
  1

  9
$DIMALT
 70
     0
  9
$DIMALTD
 70
     3
  9
$DIMALTF
 40
0.03937007874016
  9
$DIMLFAC
 40
1.0
  9
$DIMTOFL
 70
     1
  9
$DIMTVP
 40
0.0
  9
$DIMTIX
 70
     0
  9
$DIMSOXD
 70
     0
  9
$DIMSAH
 70
     0
  9
$DIMBLK1
  1

  9
$DIMBLK2
  1

  9
$DIMSTYLE
  2
ISO-25
  9
$DIMCLRD
 70
     0
  9
$DIMCLRE
 70
     0
  9
$DIMCLRT
 70
     0
  9
$DIMTFAC
 40
1.0
  9
$DIMGAP
 40
0.625
  9
$DIMJUST
 70
     0
  9
$DIMSD1
 70
     0
  9
$DIMSD2
 70
     0
  9
$DIMTOLJ
 70
     0
  9
$DIMTZIN
 70
     8
  9
$DIMALTZ
 70
     0
  9
$DIMALTTZ
 70
     0
  9
$DIMUPT
 70
     0
  9
$DIMDEC
 70
     2
  9
$DIMTDEC
 70
     2
  9
$DIMALTU
 70
     2
  9
$DIMALTTD
 70
     3
  9
$DIMTXSTY
  7
Standard
  9
$DIMAUNIT
 70
     0
  9
$DIMADEC
 70
     0
  9
$DIMALTRND
 40
0.0
  9
$DIMAZIN
 70
     0
  9
$DIMDSEP
 70
    44
  9
$DIMATFIT
 70
     3
  9
$DIMFRAC
 70
     0
  9
$DIMLDRBLK
  1

  9
$DIMLUNIT
 70
     2
  9
$DIMLWD
 70
    -2
  9
$DIMLWE
 70
    -2
  9
$DIMTMOVE
 70
     0
  9
$DIMFXL
 40
1.0
  9
$DIMFXLON
 70
     0
  9
$DIMJOGANG
 40
0.7853981633974483
  9
$DIMTFILL
 70
     0
  9
$DIMTFILLCLR
 70
     0
  9
$DIMARCSYM
 70
     0
  9
$DIMLTYPE
  6

  9
$DIMLTEX1
  6

  9
$DIMLTEX2
  6

  9
$DIMTXTDIRECTION
 70
     0
  9
$LUNITS
 70
     2
  9
$LUPREC
 70
     3
  9
$SKETCHINC
 40
1.0
  9
$FILLETRAD
 40
10.0
  9
$AUNITS
 70
     0
  9
$AUPREC
 70
     0
  9
$MENU
  1
.
  9
$ELEVATION
 40
0.0
  9
$PELEVATION
 40
0.0
  9
$THICKNESS
 40
0.0
  9
$LIMCHECK
 70
     0
  9
$CHAMFERA
 40
10.0
  9
$CHAMFERB
 40
10.0
  9
$CHAMFERC
 40
20.0
  9
$CHAMFERD
 40
0.0
  9
$SKPOLY
 70
     0
  9
$TDCREATE
 40
2455022.637359514
  9
$TDUCREATE
 40
2455022.637359514
  9
$TDUPDATE
 40
2459661.624889607
  9
$TDUUPDATE
 40
2459661.624889607
  9
$TDINDWG
 40
0.0307198148
  9
$TDUSRTIMER
 40
2458957.433165139
  9
$USRTIMER
 70
     1
  9
$ANGBASE
 50
0.0
  9
$ANGDIR
 70
     0
  9
$PDMODE
 70
     0
  9
$PDSIZE
 40
0.0
  9
$PLINEWID
 40
0.0
  9
$SPLFRAME
 70
     0
  9
$SPLINETYPE
 70
     6
  9
$SPLINESEGS
 70
     8
  9
$HANDSEED
  5
A41
  9
$SURFTAB1
 70
     6
  9
$SURFTAB2
 70
     6
  9
$SURFTYPE
 70
     6
  9
$SURFU
 70
     6
  9
$SURFV
 70
     6
  9
$UCSBASE
  2

  9
$UCSNAME
  2

  9
$UCSORG
 10
0.0
 20
0.0
 30
0.0
  9
$UCSXDIR
 10
1.0
 20
0.0
 30
0.0
  9
$UCSYDIR
 10
0.0
 20
1.0
 30
0.0
  9
$UCSORTHOREF
  2

  9
$UCSORTHOVIEW
 70
     0
  9
$UCSORGTOP
 10
0.0
 20
0.0
 30
0.0
  9
$UCSORGBOTTOM
 10
0.0
 20
0.0
 30
0.0
  9
$UCSORGLEFT
 10
0.0
 20
0.0
 30
0.0
  9
$UCSORGRIGHT
 10
0.0
 20
0.0
 30
0.0
  9
$UCSORGFRONT
 10
0.0
 20
0.0
 30
0.0
  9
$UCSORGBACK
 10
0.0
 20
0.0
 30
0.0
  9
$PUCSBASE
  2

  9
$PUCSNAME
  2

  9
$PUCSORG
 10
0.0
 20
0.0
 30
0.0
  9
$PUCSXDIR
 10
1.0
 20
0.0
 30
0.0
  9
$PUCSYDIR
 10
0.0
 20
1.0
 30
0.0
  9
$PUCSORTHOREF
  2

  9
$PUCSORTHOVIEW
 70
     0
  9
$PUCSORGTOP
 10
0.0
 20
0.0
 30
0.0
  9
$PUCSORGBOTTOM
 10
0.0
 20
0.0
 30
0.0
  9
$PUCSORGLEFT
 10
0.0
 20
0.0
 30
0.0
  9
$PUCSORGRIGHT
 10
0.0
 20
0.0
 30
0.0
  9
$PUCSORGFRONT
 10
0.0
 20
0.0
 30
0.0
  9
$PUCSORGBACK
 10
0.0
 20
0.0
 30
0.0
  9
$USERI1
 70
     0
  9
$USERI2
 70
     0
  9
$USERI3
 70
     0
  9
$USERI4
 70
     0
  9
$USERI5
 70
     0
  9
$USERR1
 40
0.0
  9
$USERR2
 40
0.0
  9
$USERR3
 40
0.0
  9
$USERR4
 40
0.0
  9
$USERR5
 40
0.0
  9
$WORLDVIEW
 70
     1
  9
$SHADEDGE
 70
     3
  9
$SHADEDIF
 70
    70
  9
$TILEMODE
 70
     1
  9
$MAXACTVP
 70
    64
  9
$PINSBASE
 10
0.0
 20
0.0
 30
0.0
  9
$PLIMCHECK
 70
     0
  9
$PEXTMIN
 10
1.000000000000000E+20
 20
1.000000000000000E+20
 30
1.000000000000000E+20
  9
$PEXTMAX
 10
-1.000000000000000E+20
 20
-1.000000000000000E+20
 30
-1.000000000000000E+20
  9
$PLIMMIN
 10
0.0
 20
0.0
  9
$PLIMMAX
 10
420.0
 20
297.0
  9
$UNITMODE
 70
     0
  9
$VISRETAIN
 70
     1
  9
$PLINEGEN
 70
     0
  9
$PSLTSCALE
 70
     1
  9
$TREEDEPTH
 70
  3020
  9
$CMLSTYLE
  2
Standard
  9
$CMLJUST
 70
     0
  9
$CMLSCALE
 40
20.0
  9
$PROXYGRAPHICS
 70
     1
  9
$MEASUREMENT
 70
     1
  9
$CELWEIGHT
370
    -1
  9
$ENDCAPS
280
     0
  9
$JOINSTYLE
280
     0
  9
$LWDISPLAY
290
     0
  9
$INSUNITS
 70
     6
  9
$HYPERLINKBASE
  1

  9
$STYLESHEET
  1

  9
$XEDIT
290
     1
  9
$CEPSNTYPE
380
     0
  9
$PSTYLEMODE
290
     1
  9
$FINGERPRINTGUID
  2
{EC6BB858-51AA-46EC-B484-6C9CC7AB3E2E}
  9
$VERSIONGUID
  2
{FAEB1C32-E019-11D5-929B-00C0DF256EC4}
  9
$EXTNAMES
290
     1
  9
$PSVPSCALE
 40
0.0
  9
$OLESTARTUP
290
     0
  9
$SORTENTS
280
   127
  9
$INDEXCTL
280
     0
  9
$HIDETEXT
280
     1
  9
$XCLIPFRAME
280
     0
  9
$HALOGAP
280
     0
  9
$OBSCOLOR
 70
   257
  9
$OBSLTYPE
280
     0
  9
$INTERSECTIONDISPLAY
280
     0
  9
$INTERSECTIONCOLOR
 70
   257
  9
$DIMASSOC
280
     2
  9
$PROJECTNAME
  1

  9
$CAMERADISPLAY
290
     0
  9
$LENSLENGTH
 40
50.0
  9
$CAMERAHEIGHT
 40
0.0
  9
$STEPSPERSEC
 40
2.0
  9
$STEPSIZE
 40
6.0
  9
$3DDWFPREC
 40
2.0
  9
$PSOLWIDTH
 40
5.0
  9
$PSOLHEIGHT
 40
80.0
  9
$LOFTANG1
 40
1.570796326794897
  9
$LOFTANG2
 40
1.570796326794897
  9
$LOFTMAG1
 40
0.0
  9
$LOFTMAG2
 40
0.0
  9
$LOFTPARAM
 70
     7
  9
$LOFTNORMALS
280
     1
  9
$LATITUDE
 40
37.795
  9
$LONGITUDE
 40
-122.394
  9
$NORTHDIRECTION
 40
0.0
  9
$TIMEZONE
 70
 -8000
  9
$LIGHTGLYPHDISPLAY
280
     1
  9
$TILEMODELIGHTSYNCH
280
     1
  9
$CMATERIAL
347
73
  9
$SOLIDHIST
280
     1
  9
$SHOWHIST
280
     1
  9
$DWFFRAME
280
     2
  9
$DGNFRAME
280
     2
  9
$REALWORLDSCALE
290
     1
  9
$INTERFERECOLOR
 62
   256
  9
$CSHADOW
280
     0
  9
$SHADOWPLANELOCATION
 40
0.0
  0
ENDSEC
  0
SECTION
  2
CLASSES
  0
CLASS
  1
ACDBDICTIONARYWDFLT
  2
AcDbDictionaryWithDefault
  3
ObjectDBX Classes
 90
        0
 91
        3
280
     0
281
     0
  0
CLASS
  1
VISUALSTYLE
  2
AcDbVisualStyle
  3
ObjectDBX Classes
 90
     4095
 91
        3
280
     0
281
     0
  0
CLASS
  1
TABLESTYLE
  2
AcDbTableStyle
  3
ObjectDBX Classes
 90
     4095
 91
        3
280
     0
281
     0
  0
CLASS
  1
DICTIONARYVAR
  2
AcDbDictionaryVar
  3
ObjectDBX Classes
 90
        0
 91
        3
280
     0
281
     0
  0
CLASS
  1
SCALE
  2
AcDbScale
  3
ObjectDBX Classes
 90
     1153
 91
        3
280
     0
281
     0
  0
CLASS
  1
CELLSTYLEMAP
  2
AcDbCellStyleMap
  3
ObjectDBX Classes
 90
     1152
 91
        3
280
     0
281
     0
  0
CLASS
  1
RASTERVARIABLES
  2
AcDbRasterVariables
  3
ISM
 90
        0
 91
        3
280
     0
281
     0
  0
CLASS
  1
MATERIAL
  2
AcDbMaterial
  3
ObjectDBX Classes
 90
     1153
 91
        3
280
     0
281
     0
  0
CLASS
  1
SUN
  2
AcDbSun
  3
SCENEOE
 90
     1153
 91
        3
280
     0
281
     0
  0
CLASS
  1
MLEADERSTYLE
  2
AcDbMLeaderStyle
  3
ACDB_MLEADERSTYLE_CLASS
 90
     4095
 91
        3
280
     0
281
     0
  0
CLASS
  1
IMAGE
  2
AcDbRasterImage
  3
ISM
 90
      127
 91
        4
280
     0
281
     1
  0
CLASS
  1
IMAGEDEF
  2
AcDbRasterImageDef
  3
ISM
 90
        0
 91
        3
280
     0
281
     0
  0
CLASS
  1
IMAGEDEF_REACTOR
  2
AcDbRasterImageDefReactor
  3
ISM
 90
        1
 91
        3
280
     0
281
     0
  0
CLASS
  1
SORTENTSTABLE
  2
AcDbSortentsTable
  3
ObjectDBX Classes
 90
        0
 91
        3
280
     0
281
     0
  0
ENDSEC
  0
SECTION
  2
TABLES
  0
TABLE
  2
VPORT
  5
8
330
0
100
AcDbSymbolTable
 70
     1
  0
VPORT
  5
29
330
8
100
AcDbSymbolTableRecord
100
AcDbViewportTableRecord
  2
*Active
 70
     0
 10
0.0
 20
0.0
 11
1.0
 21
1.0
 12
300.254125662441
 22
105.0311925104098
 13
0.0
 23
0.0
 14
10.0
 24
10.0
 15
10.0
 25
10.0
 16
0.0
 26
0.0
 36
1.0
 17
-134.1869158878482
 27
0.0
 37
0.0
 40
11.77757517596166
 41
2.545212765957447
 42
50.0
 43
0.0
 44
0.0
 50
0.0
 51
0.0
 71
    16
 72
  1000
 73
     1
 74
     3
 75
     0
 76
     0
 77
     0
 78
     0
281
     0
 65
     1
110
0.0
120
0.0
130
0.0
111
1.0
121
0.0
131
0.0
112
0.0
122
1.0
132
0.0
 79
     0
146
0.0
348
2F
 60
     3
 61
     5
292
     1
282
     1
141
0.0
142
0.0
 63
   256
361
80
  0
ENDTAB
  0
TABLE
  2
LTYPE
  5
5
330
0
100
AcDbSymbolTable
 70
     2
  0
LTYPE
  5
14
330
5
100
AcDbSymbolTableRecord
100
AcDbLinetypeTableRecord
  2
ByBlock
 70
     0
  3

 72
    65
 73
     0
 40
0.0
  0
LTYPE
  5
15
330
5
100
AcDbSymbolTableRecord
100
AcDbLinetypeTableRecord
  2
ByLayer
 70
     0
  3

 72
    65
 73
     0
 40
0.0
  0
LTYPE
  5
16
330
5
100
AcDbSymbolTableRecord
100
AcDbLinetypeTableRecord
  2
Continuous
 70
     0
  3
Solid line
 72
    65
 73
     0
 40
0.0
  0
LTYPE
  5
3BD
330
5
100
AcDbSymbolTableRecord
100
AcDbLinetypeTableRecord
  2
DASHDOT
 70
     0
  3
DashDot __  . __  . __  . __  . __  . __  . __ 
 72
    65
 73
     4
 40
25.4
 49
12.7
 74
     0
 49
-6.35
 74
     0
 49
0.0
 74
     0
 49
-6.35
 74
     0
  0
ENDTAB
  0
TABLE
  2
LAYER
  5
2
102
{ACAD_XDICTIONARY
360
113
102
}
330
0
100
AcDbSymbolTable
 70
     9
  0
LAYER
  5
10
330
2
100
AcDbSymbolTableRecord
100
AcDbLayerTableRecord
  2
0
 70
     0
 62
     7
  6
Continuous
370
    -3
390
F
347
75
348
0
  0
LAYER
  5
BE
330
2
100
AcDbSymbolTableRecord
100
AcDbLayerTableRecord
  2
CONTEXT 1
 70
     0
 62
     7
  6
Continuous
370
    -3
390
F
347
75
348
0
1001
AcAecLayerStandard
1000

1000

  0
LAYER
  5
3B6
330
2
100
AcDbSymbolTableRecord
100
AcDbLayerTableRecord
  2
Annotatons
 70
     0
 62
     7
  6
Continuous
370
    -3
390
F
347
75
348
0
1001
AcAecLayerStandard
1000

1000

  0
LAYER
  5
3B7
330
2
100
AcDbSymbolTableRecord
100
AcDbLayerTableRecord
  2
EVALUATION TRENCH (LOE)
 70
     0
 62
     7
  6
Continuous
370
    -3
390
F
347
75
348
0
1001
AcAecLayerStandard
1000

1000

  0
LAYER
  5
3B8
330
2
100
AcDbSymbolTableRecord
100
AcDbLayerTableRecord
  2
DRAWING POINT
 70
     0
 62
     7
  6
Continuous
370
    -3
390
F
347
75
348
0
1001
AcAecLayerStandard
1000

1000

  0
LAYER
  5
3B9
330
2
100
AcDbSymbolTableRecord
100
AcDbLayerTableRecord
  2
SECTION POINT
 70
     0
 62
     7
  6
Continuous
370
    -3
390
F
347
75
348
0
1001
AcAecLayerStandard
1000

1000

  0
LAYER
  5
3BA
330
2
100
AcDbSymbolTableRecord
100
AcDbLayerTableRecord
  2
CONTEXT 2
 70
     0
 62
     7
  6
Continuous
370
    -3
390
F
347
75
348
0
1001
AcAecLayerStandard
1000

1000

  0
LAYER
  5
3BB
330
2
100
AcDbSymbolTableRecord
100
AcDbLayerTableRecord
  2
DETAIL
 70
     0
 62
     7
  6
Continuous
370
    -3
390
F
347
75
348
0
1001
AcAecLayerStandard
1000

1000

  0
LAYER
  5
3BC
330
2
100
AcDbSymbolTableRecord
100
AcDbLayerTableRecord
  2
Co-ord
 70
     0
 62
     7
  6
Continuous
370
    -3
390
F
347
75
348
0
1001
AcAecLayerStandard
1000

1000

  0
ENDTAB
  0
TABLE
  2
STYLE
  5
3
330
0
100
AcDbSymbolTable
 70
     3
  0
STYLE
  5
11
330
3
100
AcDbSymbolTableRecord
100
AcDbTextStyleTableRecord
  2
Standard
 70
     0
 40
0.0
 41
1.0
 50
0.0
 71
     0
 42
2.5
  3
arial.ttf
  4

1001
ACAD
1000
Arial
1071
        0
  0
STYLE
  5
B8
330
3
100
AcDbSymbolTableRecord
100
AcDbTextStyleTableRecord
  2
Annotative
 70
     0
 40
0.0
 41
1.0
 50
0.0
 71
     0
 42
2.5
  3
arial.ttf
  4

1001
ACAD
1000
Arial
1071
        0
1001
AcadAnnotative
1000
AnnotativeData
1002
{
1070
     1
1070
     1
1002
}
  0
STYLE
  5
3C0
330
3
100
AcDbSymbolTableRecord
100
AcDbTextStyleTableRecord
  2
Text
 70
     0
 40
0.0
 41
1.0
 50
0.0
 71
     0
 42
2.5
  3
ARIALUNI.TTF
  4

1001
ACAD
1000
Arial Unicode MS
1071
        0
  0
ENDTAB
  0
TABLE
  2
VIEW
  5
6
330
0
100
AcDbSymbolTable
 70
     0
  0
ENDTAB
  0
TABLE
  2
UCS
  5
7
330
0
100
AcDbSymbolTable
 70
     0
  0
ENDTAB
  0
TABLE
  2
APPID
  5
9
330
0
100
AcDbSymbolTable
 70
     4
  0
APPID
  5
12
330
9
100
AcDbSymbolTableRecord
100
AcDbRegAppTableRecord
  2
ACAD
 70
     0
  0
APPID
  5
B9
330
9
100
AcDbSymbolTableRecord
100
AcDbRegAppTableRecord
  2
AcadAnnotative
 70
     0
  0
APPID
  5
C0
330
9
100
AcDbSymbolTableRecord
100
AcDbRegAppTableRecord
  2
AcAecLayerStandard
 70
     0
  0
APPID
  5
C3
330
9
100
AcDbSymbolTableRecord
100
AcDbRegAppTableRecord
  2
HATCHBACKGROUNDCOLOR
 70
     0
  0
ENDTAB
  0
TABLE
  2
DIMSTYLE
  5
A
330
0
100
AcDbSymbolTable
 70
     2
100
AcDbDimStyleTable
  0
DIMSTYLE
105
27
330
A
100
AcDbSymbolTableRecord
100
AcDbDimStyleTableRecord
  2
ISO-25
 70
     0
 41
2.5
 42
0.625
 43
3.75
 44
1.25
 73
     0
 74
     0
 77
     1
 78
     8
140
2.5
141
-2.5
143
0.03937007874016
147
0.625
171
     3
172
     1
178
     0
271
     2
272
     2
274
     3
278
    44
283
     0
284
     8
340
11
  0
DIMSTYLE
105
BA
330
A
100
AcDbSymbolTableRecord
100
AcDbDimStyleTableRecord
  2
Annotative
 70
     0
 40
0.0
 41
2.5
 42
0.625
 43
3.75
 44
1.25
 73
     0
 74
     0
 77
     1
 78
     8
140
2.5
141
-2.5
143
0.03937007874016
147
0.625
171
     3
172
     1
178
     0
271
     2
272
     2
274
     3
278
    44
283
     0
284
     8
340
11
1001
AcadAnnotative
1000
AnnotativeData
1002
{
1070
     1
1070
     1
1002
}
  0
ENDTAB
  0
TABLE
  2
BLOCK_RECORD
  5
1
330
0
100
AcDbSymbolTable
 70
     1
  0
BLOCK_RECORD
  5
1F
102
{ACAD_XDICTIONARY
360
1BA
102
}
330
1
100
AcDbSymbolTableRecord
100
AcDbBlockTableRecord
  2
*Model_Space
340
22
 70
     0
280
     1
281
     0
  0
BLOCK_RECORD
  5
1B
330
1
100
AcDbSymbolTableRecord
100
AcDbBlockTableRecord
  2
*Paper_Space
340
1E
 70
     0
280
     1
281
     0
  0
BLOCK_RECORD
  5
23
330
1
100
AcDbSymbolTableRecord
100
AcDbBlockTableRecord
  2
*Paper_Space0
340
26
 70
     0
280
     1
281
     0
  0
ENDTAB
  0
ENDSEC
  0
SECTION
  2
BLOCKS
  0
BLOCK
  5
20
330
1F
100
AcDbEntity
  8
0
100
AcDbBlockBegin
  2
*Model_Space
 70
     0
 10
0.0
 20
0.0
 30
0.0
  3
*Model_Space
  1

  0
ENDBLK
  5
21
330
1F
100
AcDbEntity
  8
0
100
AcDbBlockEnd
  0
BLOCK
  5
1C
330
1B
100
AcDbEntity
 67
     1
  8
0
100
AcDbBlockBegin
  2
*Paper_Space
 70
     0
 10
0.0
 20
0.0
 30
0.0
  3
*Paper_Space
  1

  0
ENDBLK
  5
1D
330
1B
100
AcDbEntity
 67
     1
  8
0
100
AcDbBlockEnd
  0
BLOCK
  5
24
330
23
100
AcDbEntity
  8
0
100
AcDbBlockBegin
  2
*Paper_Space0
 70
     0
 10
0.0
 20
0.0
 30
0.0
  3
*Paper_Space0
  1

  0
ENDBLK
  5
25
330
23
100
AcDbEntity
  8
0
100
AcDbBlockEnd
  0
ENDSEC
  0
SECTION
  2
ENTITIES
  0
IMAGE
  5
161
330
1F
100
AcDbEntity
  8
0
160
               140
310
8C00000001000000840000000600000005000000D6EE1132505963408CA65FFB06B859400000000000000000ADC02141386564408CA65FFB06B859400000000000000000ADC021413865644056A7A095E0325B400000000000000000D6EE11325059634056A7A095E0325B400000000000000000D6EE1132505963408CA65F
310
FB06B859400000000000000000
100
AcDbRasterImage
 90
        0
 10
154.7910395002606
 20
102.8754261430824
 30
0.0
 11
0.001687918849702383
 21
0.0
 31
0.0
 12
0.0
 22
0.001687918849702383
 32
0.0
 13
4960.0
 23
3507.0
340
160
 70
     7
280
     0
281
    50
282
    50
283
     0
360
162
 71
     1
 91
        2
 14
-0.5
 24
-0.5
 14
4959.5
 24
3506.5
290
     0
  0
LWPOLYLINE
  5
165
330
1F
100
AcDbEntity
  8
CONTEXT 1
 62
     1
100
AcDbPolyline
 90
        2
 70
     0
 43
0.0
 10
154.9851102662563
 20
108.3336595359101
 10
159.1857178954626
 20
108.3336595359101
  0
LWPOLYLINE
  5
166
330
1F
100
AcDbEntity
  8
CONTEXT 1
 62
     1
100
AcDbPolyline
 90
        5
 70
     0
 43
0.0
 10
158.4961177995093
 20
108.3336595359101
 10
158.4845996944584
 20
108.1075354473344
 10
158.478654866045
 20
107.8162388550783
 10
158.4805435875722
 20
107.5621593657018
 10
158.4982077782485
 20
107.3484396879757
  0
LWPOLYLINE
  5
167
330
1F
100
AcDbEntity
  8
CONTEXT 1
 62
     1
100
AcDbPolyline
 90
        4
 70
     0
 43
0.0
 10
155.3276084348717
 20
108.3336595359101
 10
155.3198677728751
 20
107.887383279489
 10
155.33147876587
 20
107.4848688556658
 10
155.3301181026284
 20
107.0985160874565
  0
LWPOLYLINE
  5
169
330
1F
100
AcDbEntity
  8
CONTEXT 1
 62
     1
100
AcDbPolyline
 90
        2
 70
     0
 43
0.0
 10
155.3226257064997
 20
107.7917749138371
 10
158.4790428776114
 20
107.7640417581302
  0
LWPOLYLINE
  5
16A
330
1F
100
AcDbEntity
  8
CONTEXT 1
 62
     1
100
AcDbPolyline
 90
        3
 70
     0
 43
0.0
 10
157.9169215561352
 20
108.3336595359101
 10
157.9014402321421
 20
107.9360557154888
 10
157.8999735732354
 20
107.7691296214615
  0
LWPOLYLINE
  5
16B
330
1F
100
AcDbEntity
  8
CONTEXT 1
 62
     1
100
AcDbPolyline
 90
        3
 70
     0
 43
0.0
 10
157.8457074657665
 20
108.3336595359101
 10
157.8147448177801
 20
107.9794034226697
 10
157.8129040155628
 20
107.7698946387167
  0
LWPOLYLINE
  5
16C
330
1F
100
AcDbEntity
  8
CONTEXT 1
 62
     1
100
AcDbPolyline
 90
        4
 70
     0
 43
0.0
 10
157.238839565233
 20
108.3336595359101
 10
157.2140694468438
 20
108.0506175130385
 10
157.2171657116425
 20
107.8834192139119
 10
157.216214316922
 20
107.7751373197135
  0
LWPOLYLINE
  5
16D
330
1F
100
AcDbEntity
  8
CONTEXT 1
 62
     1
100
AcDbPolyline
 90
        4
 70
     0
 43
0.0
 10
157.0777908402205
 20
107.7763535467281
 10
157.0871225900995
 20
108.028943659448
 10
157.0871225900995
 20
108.2023344881719
 10
157.0854140808594
 20
108.3336595359101
  0
LWPOLYLINE
  5
16E
330
1F
100
AcDbEntity
  8
CONTEXT 1
 62
     1
100
AcDbPolyline
 90
        3
 70
     0
 43
0.0
 10
158.3340249861018
 20
107.7653159255002
 10
158.3360309916965
 20
107.5263361867208
 10
158.343957429581
 20
107.3975315710973
  0
LWPOLYLINE
  5
16F
330
1F
100
AcDbEntity
  8
CONTEXT 1
 62
     1
100
AcDbPolyline
 90
        2
 70
     0
 43
0.0
 10
155.7743569603389
 20
107.787805877895
 10
155.7817586378132
 20
107.3683265371755
  0
LWPOLYLINE
  5
188
330
1F
100
AcDbEntity
  8
CONTEXT 1
 62
     1
100
AcDbPolyline
 90
        2
 70
     0
 43
0.0
 10
155.3997379060918
 20
108.2671312385107
 10
155.8357122020708
 20
108.2611060206566
  0
LWPOLYLINE
  5
189
330
1F
100
AcDbEntity
  8
CONTEXT 1
 62
     1
100
AcDbPolyline
 90
        2
 70
     0
 43
0.0
 10
155.397058853791
 20
108.1126744966867
 10
155.8116158309018
 20
108.116527793643
  0
LWPOLYLINE
  5
18B
330
1F
100
AcDbEntity
  8
CONTEXT 1
 62
     1
100
AcDbPolyline
 90
        2
 70
     0
 43
0.0
 10
155.3947621411887
 20
107.9802609766695
 10
155.792592379979
 20
107.9897047874906
  0
LWPOLYLINE
  5
18C
330
1F
100
AcDbEntity
  8
CONTEXT 1
 62
     1
100
AcDbPolyline
 90
        2
 70
     0
 43
0.0
 10
155.3954422182779
 20
107.8534518663901
 10
155.7729988834228
 20
107.8600650185924
  0
LWPOLYLINE
  5
18D
330
1F
100
AcDbEntity
  8
CONTEXT 1
 62
     1
100
AcDbPolyline
 90
        2
 70
     0
 43
0.0
 10
157.0110533936971
 20
108.2832874926603
 10
156.3663125751739
 20
108.2715462252725
  0
LWPOLYLINE
  5
18E
330
1F
100
AcDbEntity
  8
CONTEXT 1
 62
     1
100
AcDbPolyline
 90
        2
 70
     0
 43
0.0
 10
157.0124441079212
 20
108.1763898490431
 10
156.3762206225295
 20
108.1625577043603
  0
LWPOLYLINE
  5
18F
330
1F
100
AcDbEntity
  8
CONTEXT 1
 62
     1
100
AcDbPolyline
 90
        2
 70
     0
 43
0.0
 10
157.0124441079212
 20
108.0614111156002
 10
156.391082693563
 20
108.0387071124147
  0
LWPOLYLINE
  5
190
330
1F
100
AcDbEntity
  8
CONTEXT 1
 62
     1
100
AcDbPolyline
 90
        2
 70
     0
 43
0.0
 10
157.0093280509976
 20
107.918654156841
 10
156.4208068356299
 20
107.8999944494356
  0
LWPOLYLINE
  5
191
330
1F
100
AcDbEntity
  8
CONTEXT 1
 62
     1
100
AcDbPolyline
 90
        2
 70
     0
 43
0.0
 10
157.3076912845782
 20
108.2950541196922
 10
157.3801051943397
 20
108.2903292945814
  0
LWPOLYLINE
  5
192
330
1F
100
AcDbEntity
  8
CONTEXT 1
 62
     1
100
AcDbPolyline
 90
        2
 70
     0
 43
0.0
 10
157.2959212500297
 20
108.1605608429324
 10
157.3744235236641
 20
108.1580275345633
  0
LWPOLYLINE
  5
193
330
1F
100
AcDbEntity
  8
CONTEXT 1
 62
     1
100
AcDbPolyline
 90
        2
 70
     0
 43
0.0
 10
157.290153840612
 20
107.9933688044797
 10
157.363023403641
 20
107.9919388574762
  0
LWPOLYLINE
  5
194
330
1F
100
AcDbEntity
  8
CONTEXT 1
 62
     1
100
AcDbPolyline
 90
        2
 70
     0
 43
0.0
 10
157.2912262756511
 20
107.8556287078172
 10
157.3837006265641
 20
107.8567455329178
  0
LWPOLYLINE
  5
195
330
1F
100
AcDbEntity
  8
CONTEXT 1
 62
     1
100
AcDbPolyline
 90
        2
 70
     0
 43
0.0
 10
157.7382177262321
 20
107.8515486332771
 10
157.5688622155465
 20
107.8529408427332
  0
LWPOLYLINE
  5
196
330
1F
100
AcDbEntity
  8
CONTEXT 1
 62
     1
100
AcDbPolyline
 90
        2
 70
     0
 43
0.0
 10
157.7419997026538
 20
107.9890434597479
 10
157.5802762861002
 20
107.9899096893777
  0
LWPOLYLINE
  5
197
330
1F
100
AcDbEntity
  8
CONTEXT 1
 62
     1
100
AcDbPolyline
 90
        2
 70
     0
 43
0.0
 10
157.7546194513339
 20
108.1334310818739
 10
157.572666905731
 20
108.1357561464529
  0
LWPOLYLINE
  5
198
330
1F
100
AcDbEntity
  8
CONTEXT 1
 62
     1
100
AcDbPolyline
 90
        2
 70
     0
 43
0.0
 10
157.767448583563
 20
108.2802143454283
 10
157.5965433182487
 20
108.27359591046
  0
LWPOLYLINE
  5
199
330
1F
100
AcDbEntity
  8
CONTEXT 1
 62
     1
100
AcDbPolyline
 90
        2
 70
     0
 43
0.0
 10
157.9878974297669
 20
108.2685692340473
 10
158.1002920665948
 20
108.2679186785896
  0
LWPOLYLINE
  5
19A
330
1F
100
AcDbEntity
  8
CONTEXT 1
 62
     1
100
AcDbPolyline
 90
        2
 70
     0
 43
0.0
 10
157.9817087271265
 20
108.1096259928647
 10
158.0854020310885
 20
108.1104126216208
  0
LWPOLYLINE
  5
19B
330
1F
100
AcDbEntity
  8
CONTEXT 1
 62
     1
100
AcDbPolyline
 90
        2
 70
     0
 43
0.0
 10
157.9767523434563
 20
107.9823321591072
 10
158.0984141032255
 20
107.9805480193119
  0
LWPOLYLINE
  5
19C
330
1F
100
AcDbEntity
  8
CONTEXT 1
 62
     1
100
AcDbPolyline
 90
        2
 70
     0
 43
0.0
 10
157.9749066921343
 20
107.8406479451104
 10
158.098693113839
 20
107.8404212798142
  0
LWPOLYLINE
  5
19D
330
1F
100
AcDbEntity
  8
CONTEXT 1
 62
     1
100
AcDbPolyline
 90
        2
 70
     0
 43
0.0
 10
158.4035226987081
 20
107.8163900896841
 10
158.2864621293337
 20
107.822527779767
  0
LWPOLYLINE
  5
19E
330
1F
100
AcDbEntity
  8
CONTEXT 1
 62
     1
100
AcDbPolyline
 90
        2
 70
     0
 43
0.0
 10
158.4062405231218
 20
107.9495634859551
 10
158.2905204655306
 20
107.9564528742639
  0
LWPOLYLINE
  5
19F
330
1F
100
AcDbEntity
  8
CONTEXT 1
 62
     1
100
AcDbPolyline
 90
        2
 70
     0
 43
0.0
 10
158.4095044235723
 20
108.0944752674588
 10
158.2680212715953
 20
108.0986674375004
  0
LWPOLYLINE
  5
1A0
330
1F
100
AcDbEntity
  8
CONTEXT 1
 62
     1
100
AcDbPolyline
 90
        2
 70
     0
 43
0.0
 10
158.4170207971991
 20
108.2420371388107
 10
158.2509762595685
 20
108.2472025423059
  0
LWPOLYLINE
  5
1A1
102
{ACAD_REACTORS
330
1D3
102
}
330
1F
100
AcDbEntity
  8
CONTEXT 1
 62
     1
100
AcDbPolyline
 90
        3
 70
     1
 43
0.0
 10
158.4901046823734
 20
108.2156096808466
 10
158.4926274876384
 20
108.2651375362267
 10
158.4170207971991
 20
108.2420371388107
  0
LWPOLYLINE
  5
1A2
102
{ACAD_REACTORS
330
1D4
102
}
330
1F
100
AcDbEntity
  8
CONTEXT 1
 62
     1
100
AcDbPolyline
 90
        4
 70
     1
 43
0.0
 10
158.4837849931474
 20
108.0676150830925
 10
158.4845996944584
 20
108.1075354473344
 10
158.4851111140117
 20
108.1175756648748
 10
158.4095044235723
 20
108.0944752674588
  0
LWPOLYLINE
  5
1A4
102
{ACAD_REACTORS
330
1D5
102
}
330
1F
100
AcDbEntity
  8
CONTEXT 1
 62
     1
100
AcDbPolyline
 90
        4
 70
     1
 43
0.0
 10
158.480829497231
 20
107.9227957831892
 10
158.4818472135612
 20
107.9726638833711
 10
158.4062405231218
 20
107.9495634859551
 10
158.480586113923
 20
107.9226797896242
  0
LWPOLYLINE
  5
1A5
102
{ACAD_REACTORS
330
1D6
102
}
330
1F
100
AcDbEntity
  8
CONTEXT 1
 62
     1
100
AcDbPolyline
 90
        3
 70
     1
 43
0.0
 10
157.9749066921343
 20
107.8406479451104
 10
157.9008059872536
 20
107.8638698640953
 10
157.9003704307654
 20
107.8142975041059
  0
LWPOLYLINE
  5
1A6
102
{ACAD_REACTORS
330
1D7
102
}
330
1F
100
AcDbEntity
  8
CONTEXT 1
 62
     1
100
AcDbPolyline
 90
        3
 70
     1
 43
0.0
 10
157.9022160820874
 20
107.9559817181027
 10
157.9767523434563
 20
107.9823321591072
 10
157.9041282415252
 20
108.0050913354754
  0
LWPOLYLINE
  5
1A7
102
{ACAD_REACTORS
330
1D8
102
}
330
1F
100
AcDbEntity
  8
CONTEXT 1
 62
     1
100
AcDbPolyline
 90
        3
 70
     1
 43
0.0
 10
157.9071724657576
 20
108.0832755518602
 10
157.9817087271265
 20
108.1096259928647
 10
157.9090846251954
 20
108.1323851692329
  0
LWPOLYLINE
  5
1A8
102
{ACAD_REACTORS
330
1D9
102
}
330
1F
100
AcDbEntity
  8
CONTEXT 1
 62
     1
100
AcDbPolyline
 90
        3
 70
     1
 43
0.0
 10
157.913361168398
 20
108.2422187930429
 10
157.9878974297669
 20
108.2685692340473
 10
157.9152733278358
 20
108.2913284104156
  0
LWPOLYLINE
  5
1A9
102
{ACAD_REACTORS
330
1DA
102
}
330
1F
100
AcDbEntity
  8
CONTEXT 1
 62
     1
100
AcDbPolyline
 90
        3
 70
     1
 43
0.0
 10
157.8387817770982
 20
108.2544199453483
 10
157.8430552740024
 20
108.3033147428443
 10
157.767448583563
 20
108.2802143454283
  0
LWPOLYLINE
  5
1AA
102
{ACAD_REACTORS
330
1DB
102
}
330
1F
100
AcDbEntity
  8
CONTEXT 1
 62
     1
100
AcDbPolyline
 90
        3
 70
     1
 43
0.0
 10
157.8259526448691
 20
108.1076366817939
 10
157.8302261417733
 20
108.1565314792899
 10
157.7546194513339
 20
108.1334310818739
  0
LWPOLYLINE
  5
1AB
102
{ACAD_REACTORS
330
1DC
102
}
330
1F
100
AcDbEntity
  8
CONTEXT 1
 62
     1
100
AcDbPolyline
 90
        4
 70
     1
 43
0.0
 10
157.8147448177801
 20
107.9794034226697
 10
157.8176063930932
 20
108.0121438571639
 10
157.7419997026538
 20
107.9890434597479
 10
157.8145988589093
 20
107.962791281917
  0
LWPOLYLINE
  5
1AC
102
{ACAD_REACTORS
330
1DD
102
}
330
1F
100
AcDbEntity
  8
CONTEXT 1
 62
     1
100
AcDbPolyline
 90
        4
 70
     1
 43
0.0
 10
157.8133886988083
 20
107.8250583039993
 10
157.8138244166715
 20
107.8746490306932
 10
157.7382177262321
 20
107.8515486332771
 10
157.8125633170332
 20
107.8246649369463
  0
LWPOLYLINE
  5
1AE
102
{ACAD_REACTORS
330
1DE
102
}
330
1F
100
AcDbEntity
  8
CONTEXT 1
 62
     1
100
AcDbPolyline
 90
        3
 70
     1
 43
0.0
 10
157.2156175792431
 20
107.9670183634752
 10
157.290153840612
 20
107.9933688044797
 10
157.2147070532526
 20
108.0170062198013
  0
LWPOLYLINE
  5
1AF
102
{ACAD_REACTORS
330
1DF
102
}
330
1F
100
AcDbEntity
  8
CONTEXT 1
 62
     1
100
AcDbPolyline
 90
        3
 70
     1
 43
0.0
 10
157.2213849886608
 20
108.1342104019279
 10
157.2959212500297
 20
108.1605608429324
 10
157.2256190840217
 20
108.1825923634979
  0
LWPOLYLINE
  5
1B0
102
{ACAD_REACTORS
330
1E0
102
}
330
1F
100
AcDbEntity
  8
CONTEXT 1
 62
     1
100
AcDbPolyline
 90
        3
 70
     1
 43
0.0
 10
157.2331550232093
 20
108.2687036786877
 10
157.3076912845782
 20
108.2950541196922
 10
157.2373891185702
 20
108.3170856402577
  0
LWPOLYLINE
  5
1B1
102
{ACAD_REACTORS
330
1E1
102
}
330
1F
100
AcDbEntity
  8
CONTEXT 1
 62
     1
100
AcDbPolyline
 90
        3
 70
     1
 43
0.0
 10
157.0863693692059
 20
108.2592394709572
 10
157.0857318758755
 20
108.309232131789
 10
157.0110533936971
 20
108.2832874926603
  0
LWPOLYLINE
  5
1B2
102
{ACAD_REACTORS
330
1E2
102
}
330
1F
100
AcDbEntity
  8
CONTEXT 1
 62
     1
100
AcDbPolyline
 90
        3
 70
     1
 43
0.0
 10
157.0871225900995
 20
108.1525400193037
 10
157.0871225900995
 20
108.2023344881718
 10
157.0124441079212
 20
108.1763898490431
  0
LWPOLYLINE
  5
1B3
102
{ACAD_REACTORS
330
1E3
102
}
330
1F
100
AcDbEntity
  8
CONTEXT 1
 62
     1
100
AcDbPolyline
 90
        3
 70
     1
 43
0.0
 10
157.0871225900995
 20
108.0375612858608
 10
157.0871225900995
 20
108.0873557547289
 10
157.0124441079212
 20
108.0614111156002
  0
LWPOLYLINE
  5
1B4
102
{ACAD_REACTORS
330
1E4
102
}
330
1F
100
AcDbEntity
  8
CONTEXT 1
 62
     1
100
AcDbPolyline
 90
        3
 70
     1
 43
0.0
 10
157.0821883664626
 20
107.8953849892319
 10
157.084006533176
 20
107.9445987959697
 10
157.0093280509976
 20
107.918654156841
  0
LWPOLYLINE
  5
1B5
102
{ACAD_REACTORS
330
1E5
102
}
330
1F
100
AcDbEntity
  8
CONTEXT 1
 62
     1
100
AcDbPolyline
 90
        3
 70
     1
 43
0.0
 10
155.3997379060918
 20
108.2671312385107
 10
155.3268126579896
 20
108.2877802134372
 10
155.3259617452971
 20
108.2387221185246
  0
LWPOLYLINE
  5
1B6
102
{ACAD_REACTORS
330
1E6
102
}
330
1F
100
AcDbEntity
  8
CONTEXT 1
 62
     1
100
AcDbPolyline
 90
        3
 70
     1
 43
0.0
 10
155.3232826929964
 20
108.0842653767006
 10
155.397058853791
 20
108.1126744966867
 10
155.3241336056888
 20
108.1333234716133
  0
LWPOLYLINE
  5
1B7
102
{ACAD_REACTORS
330
1E7
102
}
330
1F
100
AcDbEntity
  8
CONTEXT 1
 62
     1
100
AcDbPolyline
 90
        3
 70
     1
 43
0.0
 10
155.320985980394
 20
107.9518518566834
 10
155.3947621411887
 20
107.9802609766695
 10
155.3218368930865
 20
108.000909951596
  0
LWPOLYLINE
  5
1B8
102
{ACAD_REACTORS
330
1E8
102
}
330
1F
100
AcDbEntity
  8
CONTEXT 1
 62
     1
100
AcDbPolyline
 90
        3
 70
     1
 43
0.0
 10
155.3216660574833
 20
107.825042746404
 10
155.3954422182779
 20
107.8534518663901
 10
155.3202322589193
 20
107.8747477632906
  0
HATCH
  5
1D3
330
1F
100
AcDbEntity
  8
CONTEXT 1
 62
     1
100
AcDbHatch
 10
0.0
 20
0.0
 30
0.0
210
0.0
220
0.0
230
1.0
  2
SOLID
 70
     1
 71
     1
 91
        1
 92
        1
 93
        3
 72
     1
 10
158.4901046823734
 20
108.2156096808466
 11
158.4926274876384
 21
108.2651375362267
 72
     1
 10
158.4926274876384
 20
108.2651375362267
 11
158.4170207971991
 21
108.2420371388107
 72
     1
 10
158.4170207971991
 20
108.2420371388107
 11
158.4901046823734
 21
108.2156096808466
 97
        1
330
1A1
 75
     0
 76
     1
 98
        1
 10
0.0
 20
0.0
450
        1
451
        0
460
0.0
461
0.0
452
        1
462
0.0
453
        2
463
0.0
 63
    18
421
   327680
463
1.0
 63
    18
421
   327680
470
LINEAR
1001
ACAD
1010
0.0
1020
0.0
1030
0.0
  0
HATCH
  5
1D4
330
1F
100
AcDbEntity
  8
CONTEXT 1
 62
     1
100
AcDbHatch
 10
0.0
 20
0.0
 30
0.0
210
0.0
220
0.0
230
1.0
  2
SOLID
 70
     1
 71
     1
 91
        1
 92
        1
 93
        4
 72
     1
 10
158.4837849931474
 20
108.0676150830925
 11
158.4845996944584
 21
108.1075354473344
 72
     1
 10
158.4845996944584
 20
108.1075354473344
 11
158.4851111140117
 21
108.1175756648748
 72
     1
 10
158.4851111140117
 20
108.1175756648748
 11
158.4095044235723
 21
108.0944752674588
 72
     1
 10
158.4095044235723
 20
108.0944752674588
 11
158.4837849931474
 21
108.0676150830925
 97
        1
330
1A2
 75
     0
 76
     1
 98
        1
 10
0.0
 20
0.0
450
        1
451
        0
460
0.0
461
0.0
452
        1
462
0.0
453
        2
463
0.0
 63
    18
421
   327680
463
1.0
 63
    18
421
   327680
470
LINEAR
1001
ACAD
1010
0.0
1020
0.0
1030
0.0
  0
HATCH
  5
1D5
330
1F
100
AcDbEntity
  8
CONTEXT 1
 62
     1
100
AcDbHatch
 10
0.0
 20
0.0
 30
0.0
210
0.0
220
0.0
230
1.0
  2
SOLID
 70
     1
 71
     1
 91
        1
 92
        1
 93
        4
 72
     1
 10
158.480829497231
 20
107.9227957831892
 11
158.4818472135612
 21
107.9726638833711
 72
     1
 10
158.4818472135612
 20
107.9726638833711
 11
158.4062405231218
 21
107.9495634859551
 72
     1
 10
158.4062405231218
 20
107.9495634859551
 11
158.480586113923
 21
107.9226797896242
 72
     1
 10
158.480586113923
 20
107.9226797896242
 11
158.480829497231
 21
107.9227957831892
 97
        1
330
1A4
 75
     0
 76
     1
 98
        1
 10
0.0
 20
0.0
450
        1
451
        0
460
0.0
461
0.0
452
        1
462
0.0
453
        2
463
0.0
 63
    18
421
   327680
463
1.0
 63
    18
421
   327680
470
LINEAR
1001
ACAD
1010
0.0
1020
0.0
1030
0.0
  0
HATCH
  5
1D6
330
1F
100
AcDbEntity
  8
CONTEXT 1
 62
     1
100
AcDbHatch
 10
0.0
 20
0.0
 30
0.0
210
0.0
220
0.0
230
1.0
  2
SOLID
 70
     1
 71
     1
 91
        1
 92
        1
 93
        3
 72
     1
 10
157.9749066921343
 20
107.8406479451104
 11
157.9008059872536
 21
107.8638698640953
 72
     1
 10
157.9008059872536
 20
107.8638698640953
 11
157.9003704307654
 21
107.8142975041059
 72
     1
 10
157.9003704307654
 20
107.8142975041059
 11
157.9749066921343
 21
107.8406479451104
 97
        1
330
1A5
 75
     0
 76
     1
 98
        1
 10
0.0
 20
0.0
450
        1
451
        0
460
0.0
461
0.0
452
        1
462
0.0
453
        2
463
0.0
 63
    18
421
   327680
463
1.0
 63
    18
421
   327680
470
LINEAR
1001
ACAD
1010
0.0
1020
0.0
1030
0.0
  0
HATCH
  5
1D7
330
1F
100
AcDbEntity
  8
CONTEXT 1
 62
     1
100
AcDbHatch
 10
0.0
 20
0.0
 30
0.0
210
0.0
220
0.0
230
1.0
  2
SOLID
 70
     1
 71
     1
 91
        1
 92
        1
 93
        3
 72
     1
 10
157.9022160820874
 20
107.9559817181027
 11
157.9767523434563
 21
107.9823321591072
 72
     1
 10
157.9767523434563
 20
107.9823321591072
 11
157.9041282415252
 21
108.0050913354754
 72
     1
 10
157.9041282415252
 20
108.0050913354754
 11
157.9022160820874
 21
107.9559817181027
 97
        1
330
1A6
 75
     0
 76
     1
 98
        1
 10
0.0
 20
0.0
450
        1
451
        0
460
0.0
461
0.0
452
        1
462
0.0
453
        2
463
0.0
 63
    18
421
   327680
463
1.0
 63
    18
421
   327680
470
LINEAR
1001
ACAD
1010
0.0
1020
0.0
1030
0.0
  0
HATCH
  5
1D8
330
1F
100
AcDbEntity
  8
CONTEXT 1
 62
     1
100
AcDbHatch
 10
0.0
 20
0.0
 30
0.0
210
0.0
220
0.0
230
1.0
  2
SOLID
 70
     1
 71
     1
 91
        1
 92
        1
 93
        3
 72
     1
 10
157.9071724657576
 20
108.0832755518602
 11
157.9817087271265
 21
108.1096259928647
 72
     1
 10
157.9817087271265
 20
108.1096259928647
 11
157.9090846251954
 21
108.1323851692329
 72
     1
 10
157.9090846251954
 20
108.1323851692329
 11
157.9071724657576
 21
108.0832755518602
 97
        1
330
1A7
 75
     0
 76
     1
 98
        1
 10
0.0
 20
0.0
450
        1
451
        0
460
0.0
461
0.0
452
        1
462
0.0
453
        2
463
0.0
 63
    18
421
   327680
463
1.0
 63
    18
421
   327680
470
LINEAR
1001
ACAD
1010
0.0
1020
0.0
1030
0.0
  0
HATCH
  5
1D9
330
1F
100
AcDbEntity
  8
CONTEXT 1
 62
     1
100
AcDbHatch
 10
0.0
 20
0.0
 30
0.0
210
0.0
220
0.0
230
1.0
  2
SOLID
 70
     1
 71
     1
 91
        1
 92
        1
 93
        3
 72
     1
 10
157.913361168398
 20
108.2422187930429
 11
157.9878974297669
 21
108.2685692340473
 72
     1
 10
157.9878974297669
 20
108.2685692340473
 11
157.9152733278358
 21
108.2913284104156
 72
     1
 10
157.9152733278358
 20
108.2913284104156
 11
157.913361168398
 21
108.2422187930429
 97
        1
330
1A8
 75
     0
 76
     1
 98
        1
 10
0.0
 20
0.0
450
        1
451
        0
460
0.0
461
0.0
452
        1
462
0.0
453
        2
463
0.0
 63
    18
421
   327680
463
1.0
 63
    18
421
   327680
470
LINEAR
1001
ACAD
1010
0.0
1020
0.0
1030
0.0
  0
HATCH
  5
1DA
330
1F
100
AcDbEntity
  8
CONTEXT 1
 62
     1
100
AcDbHatch
 10
0.0
 20
0.0
 30
0.0
210
0.0
220
0.0
230
1.0
  2
SOLID
 70
     1
 71
     1
 91
        1
 92
        1
 93
        3
 72
     1
 10
157.8387817770982
 20
108.2544199453483
 11
157.8430552740024
 21
108.3033147428443
 72
     1
 10
157.8430552740024
 20
108.3033147428443
 11
157.767448583563
 21
108.2802143454283
 72
     1
 10
157.767448583563
 20
108.2802143454283
 11
157.8387817770982
 21
108.2544199453483
 97
        1
330
1A9
 75
     0
 76
     1
 98
        1
 10
0.0
 20
0.0
450
        1
451
        0
460
0.0
461
0.0
452
        1
462
0.0
453
        2
463
0.0
 63
    18
421
   327680
463
1.0
 63
    18
421
   327680
470
LINEAR
1001
ACAD
1010
0.0
1020
0.0
1030
0.0
  0
HATCH
  5
1DB
330
1F
100
AcDbEntity
  8
CONTEXT 1
 62
     1
100
AcDbHatch
 10
0.0
 20
0.0
 30
0.0
210
0.0
220
0.0
230
1.0
  2
SOLID
 70
     1
 71
     1
 91
        1
 92
        1
 93
        3
 72
     1
 10
157.8259526448691
 20
108.1076366817939
 11
157.8302261417733
 21
108.1565314792899
 72
     1
 10
157.8302261417733
 20
108.1565314792899
 11
157.7546194513339
 21
108.1334310818739
 72
     1
 10
157.7546194513339
 20
108.1334310818739
 11
157.8259526448691
 21
108.1076366817939
 97
        1
330
1AA
 75
     0
 76
     1
 98
        1
 10
0.0
 20
0.0
450
        1
451
        0
460
0.0
461
0.0
452
        1
462
0.0
453
        2
463
0.0
 63
    18
421
   327680
463
1.0
 63
    18
421
   327680
470
LINEAR
1001
ACAD
1010
0.0
1020
0.0
1030
0.0
  0
HATCH
  5
1DC
330
1F
100
AcDbEntity
  8
CONTEXT 1
 62
     1
100
AcDbHatch
 10
0.0
 20
0.0
 30
0.0
210
0.0
220
0.0
230
1.0
  2
SOLID
 70
     1
 71
     1
 91
        1
 92
        1
 93
        4
 72
     1
 10
157.8147448177801
 20
107.9794034226697
 11
157.8176063930932
 21
108.0121438571639
 72
     1
 10
157.8176063930932
 20
108.0121438571639
 11
157.7419997026538
 21
107.9890434597479
 72
     1
 10
157.7419997026538
 20
107.9890434597479
 11
157.8145988589093
 21
107.962791281917
 72
     1
 10
157.8145988589093
 20
107.962791281917
 11
157.8147448177801
 21
107.9794034226697
 97
        1
330
1AB
 75
     0
 76
     1
 98
        1
 10
0.0
 20
0.0
450
        1
451
        0
460
0.0
461
0.0
452
        1
462
0.0
453
        2
463
0.0
 63
    18
421
   327680
463
1.0
 63
    18
421
   327680
470
LINEAR
1001
ACAD
1010
0.0
1020
0.0
1030
0.0
  0
HATCH
  5
1DD
330
1F
100
AcDbEntity
  8
CONTEXT 1
 62
     1
100
AcDbHatch
 10
0.0
 20
0.0
 30
0.0
210
0.0
220
0.0
230
1.0
  2
SOLID
 70
     1
 71
     1
 91
        1
 92
        1
 93
        4
 72
     1
 10
157.8133886988083
 20
107.8250583039993
 11
157.8138244166715
 21
107.8746490306932
 72
     1
 10
157.8138244166715
 20
107.8746490306932
 11
157.7382177262321
 21
107.8515486332771
 72
     1
 10
157.7382177262321
 20
107.8515486332771
 11
157.8125633170332
 21
107.8246649369463
 72
     1
 10
157.8125633170332
 20
107.8246649369463
 11
157.8133886988083
 21
107.8250583039993
 97
        1
330
1AC
 75
     0
 76
     1
 98
        1
 10
0.0
 20
0.0
450
        1
451
        0
460
0.0
461
0.0
452
        1
462
0.0
453
        2
463
0.0
 63
    18
421
   327680
463
1.0
 63
    18
421
   327680
470
LINEAR
1001
ACAD
1010
0.0
1020
0.0
1030
0.0
  0
HATCH
  5
1DE
330
1F
100
AcDbEntity
  8
CONTEXT 1
 62
     1
100
AcDbHatch
 10
0.0
 20
0.0
 30
0.0
210
0.0
220
0.0
230
1.0
  2
SOLID
 70
     1
 71
     1
 91
        1
 92
        1
 93
        3
 72
     1
 10
157.2156175792431
 20
107.9670183634752
 11
157.290153840612
 21
107.9933688044797
 72
     1
 10
157.290153840612
 20
107.9933688044797
 11
157.2147070532526
 21
108.0170062198013
 72
     1
 10
157.2147070532526
 20
108.0170062198013
 11
157.2156175792431
 21
107.9670183634752
 97
        1
330
1AE
 75
     0
 76
     1
 98
        1
 10
0.0
 20
0.0
450
        1
451
        0
460
0.0
461
0.0
452
        1
462
0.0
453
        2
463
0.0
 63
    18
421
   327680
463
1.0
 63
    18
421
   327680
470
LINEAR
1001
ACAD
1010
0.0
1020
0.0
1030
0.0
  0
HATCH
  5
1DF
330
1F
100
AcDbEntity
  8
CONTEXT 1
 62
     1
100
AcDbHatch
 10
0.0
 20
0.0
 30
0.0
210
0.0
220
0.0
230
1.0
  2
SOLID
 70
     1
 71
     1
 91
        1
 92
        1
 93
        3
 72
     1
 10
157.2213849886608
 20
108.1342104019279
 11
157.2959212500297
 21
108.1605608429324
 72
     1
 10
157.2959212500297
 20
108.1605608429324
 11
157.2256190840217
 21
108.1825923634979
 72
     1
 10
157.2256190840217
 20
108.1825923634979
 11
157.2213849886608
 21
108.1342104019279
 97
        1
330
1AF
 75
     0
 76
     1
 98
        1
 10
0.0
 20
0.0
450
        1
451
        0
460
0.0
461
0.0
452
        1
462
0.0
453
        2
463
0.0
 63
    18
421
   327680
463
1.0
 63
    18
421
   327680
470
LINEAR
1001
ACAD
1010
0.0
1020
0.0
1030
0.0
  0
HATCH
  5
1E0
330
1F
100
AcDbEntity
  8
CONTEXT 1
 62
     1
100
AcDbHatch
 10
0.0
 20
0.0
 30
0.0
210
0.0
220
0.0
230
1.0
  2
SOLID
 70
     1
 71
     1
 91
        1
 92
        1
 93
        3
 72
     1
 10
157.2331550232093
 20
108.2687036786877
 11
157.3076912845782
 21
108.2950541196922
 72
     1
 10
157.3076912845782
 20
108.2950541196922
 11
157.2373891185702
 21
108.3170856402577
 72
     1
 10
157.2373891185702
 20
108.3170856402577
 11
157.2331550232093
 21
108.2687036786877
 97
        1
330
1B0
 75
     0
 76
     1
 98
        1
 10
0.0
 20
0.0
450
        1
451
        0
460
0.0
461
0.0
452
        1
462
0.0
453
        2
463
0.0
 63
    18
421
   327680
463
1.0
 63
    18
421
   327680
470
LINEAR
1001
ACAD
1010
0.0
1020
0.0
1030
0.0
  0
HATCH
  5
1E1
330
1F
100
AcDbEntity
  8
CONTEXT 1
 62
     1
100
AcDbHatch
 10
0.0
 20
0.0
 30
0.0
210
0.0
220
0.0
230
1.0
  2
SOLID
 70
     1
 71
     1
 91
        1
 92
        1
 93
        3
 72
     1
 10
157.0863693692059
 20
108.2592394709572
 11
157.0857318758755
 21
108.309232131789
 72
     1
 10
157.0857318758755
 20
108.309232131789
 11
157.0110533936971
 21
108.2832874926603
 72
     1
 10
157.0110533936971
 20
108.2832874926603
 11
157.0863693692059
 21
108.2592394709572
 97
        1
330
1B1
 75
     0
 76
     1
 98
        1
 10
0.0
 20
0.0
450
        1
451
        0
460
0.0
461
0.0
452
        1
462
0.0
453
        2
463
0.0
 63
    18
421
   327680
463
1.0
 63
    18
421
   327680
470
LINEAR
1001
ACAD
1010
0.0
1020
0.0
1030
0.0
  0
HATCH
  5
1E2
330
1F
100
AcDbEntity
  8
CONTEXT 1
 62
     1
100
AcDbHatch
 10
0.0
 20
0.0
 30
0.0
210
0.0
220
0.0
230
1.0
  2
SOLID
 70
     1
 71
     1
 91
        1
 92
        1
 93
        3
 72
     1
 10
157.0871225900995
 20
108.1525400193037
 11
157.0871225900995
 21
108.2023344881718
 72
     1
 10
157.0871225900995
 20
108.2023344881718
 11
157.0124441079212
 21
108.1763898490431
 72
     1
 10
157.0124441079212
 20
108.1763898490431
 11
157.0871225900995
 21
108.1525400193037
 97
        1
330
1B2
 75
     0
 76
     1
 98
        1
 10
0.0
 20
0.0
450
        1
451
        0
460
0.0
461
0.0
452
        1
462
0.0
453
        2
463
0.0
 63
    18
421
   327680
463
1.0
 63
    18
421
   327680
470
LINEAR
1001
ACAD
1010
0.0
1020
0.0
1030
0.0
  0
HATCH
  5
1E3
330
1F
100
AcDbEntity
  8
CONTEXT 1
 62
     1
100
AcDbHatch
 10
0.0
 20
0.0
 30
0.0
210
0.0
220
0.0
230
1.0
  2
SOLID
 70
     1
 71
     1
 91
        1
 92
        1
 93
        3
 72
     1
 10
157.0871225900995
 20
108.0375612858608
 11
157.0871225900995
 21
108.0873557547289
 72
     1
 10
157.0871225900995
 20
108.0873557547289
 11
157.0124441079212
 21
108.0614111156002
 72
     1
 10
157.0124441079212
 20
108.0614111156002
 11
157.0871225900995
 21
108.0375612858608
 97
        1
330
1B3
 75
     0
 76
     1
 98
        1
 10
0.0
 20
0.0
450
        1
451
        0
460
0.0
461
0.0
452
        1
462
0.0
453
        2
463
0.0
 63
    18
421
   327680
463
1.0
 63
    18
421
   327680
470
LINEAR
1001
ACAD
1010
0.0
1020
0.0
1030
0.0
  0
HATCH
  5
1E4
330
1F
100
AcDbEntity
  8
CONTEXT 1
 62
     1
100
AcDbHatch
 10
0.0
 20
0.0
 30
0.0
210
0.0
220
0.0
230
1.0
  2
SOLID
 70
     1
 71
     1
 91
        1
 92
        1
 93
        3
 72
     1
 10
157.0821883664626
 20
107.8953849892319
 11
157.084006533176
 21
107.9445987959697
 72
     1
 10
157.084006533176
 20
107.9445987959697
 11
157.0093280509976
 21
107.918654156841
 72
     1
 10
157.0093280509976
 20
107.918654156841
 11
157.0821883664626
 21
107.8953849892319
 97
        1
330
1B4
 75
     0
 76
     1
 98
        1
 10
0.0
 20
0.0
450
        1
451
        0
460
0.0
461
0.0
452
        1
462
0.0
453
        2
463
0.0
 63
    18
421
   327680
463
1.0
 63
    18
421
   327680
470
LINEAR
1001
ACAD
1010
0.0
1020
0.0
1030
0.0
  0
HATCH
  5
1E5
330
1F
100
AcDbEntity
  8
CONTEXT 1
 62
     1
100
AcDbHatch
 10
0.0
 20
0.0
 30
0.0
210
0.0
220
0.0
230
1.0
  2
SOLID
 70
     1
 71
     1
 91
        1
 92
        1
 93
        3
 72
     1
 10
155.3997379060918
 20
108.2671312385107
 11
155.3268126579896
 21
108.2877802134372
 72
     1
 10
155.3268126579896
 20
108.2877802134372
 11
155.3259617452971
 21
108.2387221185246
 72
     1
 10
155.3259617452971
 20
108.2387221185246
 11
155.3997379060918
 21
108.2671312385107
 97
        1
330
1B5
 75
     0
 76
     1
 98
        1
 10
0.0
 20
0.0
450
        1
451
        0
460
0.0
461
0.0
452
        1
462
0.0
453
        2
463
0.0
 63
    18
421
   327680
463
1.0
 63
    18
421
   327680
470
LINEAR
1001
ACAD
1010
0.0
1020
0.0
1030
0.0
  0
HATCH
  5
1E6
330
1F
100
AcDbEntity
  8
CONTEXT 1
 62
     1
100
AcDbHatch
 10
0.0
 20
0.0
 30
0.0
210
0.0
220
0.0
230
1.0
  2
SOLID
 70
     1
 71
     1
 91
        1
 92
        1
 93
        3
 72
     1
 10
155.3232826929964
 20
108.0842653767006
 11
155.397058853791
 21
108.1126744966867
 72
     1
 10
155.397058853791
 20
108.1126744966867
 11
155.3241336056888
 21
108.1333234716133
 72
     1
 10
155.3241336056888
 20
108.1333234716133
 11
155.3232826929964
 21
108.0842653767006
 97
        1
330
1B6
 75
     0
 76
     1
 98
        1
 10
0.0
 20
0.0
450
        1
451
        0
460
0.0
461
0.0
452
        1
462
0.0
453
        2
463
0.0
 63
    18
421
   327680
463
1.0
 63
    18
421
   327680
470
LINEAR
1001
ACAD
1010
0.0
1020
0.0
1030
0.0
  0
HATCH
  5
1E7
330
1F
100
AcDbEntity
  8
CONTEXT 1
 62
     1
100
AcDbHatch
 10
0.0
 20
0.0
 30
0.0
210
0.0
220
0.0
230
1.0
  2
SOLID
 70
     1
 71
     1
 91
        1
 92
        1
 93
        3
 72
     1
 10
155.320985980394
 20
107.9518518566834
 11
155.3947621411887
 21
107.9802609766695
 72
     1
 10
155.3947621411887
 20
107.9802609766695
 11
155.3218368930865
 21
108.000909951596
 72
     1
 10
155.3218368930865
 20
108.000909951596
 11
155.320985980394
 21
107.9518518566834
 97
        1
330
1B7
 75
     0
 76
     1
 98
        1
 10
0.0
 20
0.0
450
        1
451
        0
460
0.0
461
0.0
452
        1
462
0.0
453
        2
463
0.0
 63
    18
421
   327680
463
1.0
 63
    18
421
   327680
470
LINEAR
1001
ACAD
1010
0.0
1020
0.0
1030
0.0
  0
HATCH
  5
1E8
330
1F
100
AcDbEntity
  8
CONTEXT 1
 62
     1
100
AcDbHatch
 10
0.0
 20
0.0
 30
0.0
210
0.0
220
0.0
230
1.0
  2
SOLID
 70
     1
 71
     1
 91
        1
 92
        1
 93
        3
 72
     1
 10
155.3216660574833
 20
107.825042746404
 11
155.3954422182779
 21
107.8534518663901
 72
     1
 10
155.3954422182779
 20
107.8534518663901
 11
155.3202322589193
 21
107.8747477632906
 72
     1
 10
155.3202322589193
 20
107.8747477632906
 11
155.3216660574833
 21
107.825042746404
 97
        1
330
1B8
 75
     0
 76
     1
 98
        1
 10
0.0
 20
0.0
450
        1
451
        0
460
0.0
461
0.0
452
        1
462
0.0
453
        2
463
0.0
 63
    18
421
   327680
463
1.0
 63
    18
421
   327680
470
LINEAR
1001
ACAD
1010
0.0
1020
0.0
1030
0.0
  0
HATCH
  5
1FB
330
1F
100
AcDbEntity
  8
CONTEXT 1
 62
     1
100
AcDbHatch
 10
0.0
 20
0.0
 30
0.0
210
0.0
220
0.0
230
1.0
  2
SOLID
 70
     1
 71
     1
 91
        1
 92
        1
 93
        4
 72
     1
 10
158.4785271087954
 20
107.7902475426128
 11
158.4795448251257
 21
107.8401156427947
 72
     1
 10
158.4795448251257
 20
107.8401156427947
 11
158.4039381346863
 21
107.8170152453787
 72
     1
 10
158.4039381346863
 20
107.8170152453787
 11
158.4782837254874
 21
107.7901315490478
 72
     1
 10
158.4782837254874
 20
107.7901315490478
 11
158.4785271087954
 21
107.7902475426128
 97
        1
330
1FC
 75
     0
 76
     1
 98
        1
 10
-0.0023023884355666
 20
-0.1325482405764262
450
        1
451
        0
460
0.0
461
0.0
452
        1
462
0.0
453
        2
463
0.0
 63
    18
421
   327680
463
1.0
 63
    18
421
   327680
470
LINEAR
1001
ACAD
1010
0.0
1020
0.0
1030
0.0
  0
LWPOLYLINE
  5
1FC
102
{ACAD_REACTORS
330
1FB
102
}
330
1F
100
AcDbEntity
  8
CONTEXT 1
 62
     1
100
AcDbPolyline
 90
        4
 70
     1
 43
0.0
 10
158.4785271087954
 20
107.7902475426128
 10
158.4795448251257
 20
107.8401156427947
 10
158.4039381346863
 20
107.8170152453787
 10
158.4782837254874
 20
107.7901315490478
  0
LWPOLYLINE
  5
1FD
330
1F
100
AcDbEntity
  8
CONTEXT 1
 62
     1
100
AcDbPolyline
 90
        2
 70
     0
 43
0.0
 10
154.9895616963769
 20
105.5381495523389
 10
156.4311825866239
 20
105.5381495523389
  0
LWPOLYLINE
  5
1FE
330
1F
100
AcDbEntity
  8
CONTEXT 1
 62
     1
100
AcDbPolyline
 90
        2
 70
     0
 43
0.0
 10
156.9970199713348
 20
105.5497799018267
 10
158.3597926207256
 20
105.5497799018267
  0
LWPOLYLINE
  5
1FF
330
1F
100
AcDbEntity
  8
CONTEXT 1
 62
     1
100
AcDbPolyline
 90
        2
 70
     0
 43
0.0
 10
158.9871800873327
 20
105.551389959522
 10
162.2792359133062
 20
105.551389959522
  0
LWPOLYLINE
  5
200
330
1F
100
AcDbEntity
  8
CONTEXT 1
 62
     1
100
AcDbPolyline
 90
        2
 70
     0
 43
0.0
 10
159.982021689779
 20
107.5439778130562
 10
161.3164803104026
 20
107.5439778130562
  0
LWPOLYLINE
  5
201
330
1F
100
AcDbEntity
  8
CONTEXT 1
 62
     1
100
AcDbPolyline
 90
        3
 70
     0
 43
0.0
 10
160.5404462010668
 20
108.6143308956594
 10
160.9398643600915
 20
108.0415219079109
 10
161.3649234619799
 20
107.5201762276554
  0
LWPOLYLINE
  5
202
330
1F
100
AcDbEntity
  8
CONTEXT 1
 62
     1
100
AcDbPolyline
 90
        4
 70
     0
 43
0.0
 10
162.1885298984183
 20
106.938078445511
 10
161.5290254963078
 20
107.6254492308092
 10
161.1140897289368
 20
108.1084060654753
 10
160.7177678347108
 20
108.6750225236266
  0
LWPOLYLINE
  5
203
330
1F
100
AcDbEntity
  8
CONTEXT 1
 62
     1
100
AcDbPolyline
 90
       28
 70
     0
 43
0.0
 10
160.9498929061494
 20
108.0292216439163
 10
160.823119115309
 20
108.0897954821117
 10
160.6471521942727
 20
108.0723573187658
 10
160.4695999856594
 20
108.035895704497
 10
160.36180043043
 20
107.9661430511132
 10
160.2201203072678
 20
107.8507985178224
 10
160.0983702213616
 20
107.7556812632082
 10
160.062859779639
 20
107.6795874595168
 10
160.0320197437386
 20
107.5874946363578
 10
160.0330343277878
 20
107.4961820719282
 10
160.0841376581169
 20
107.3419304201203
 10
160.1051699854572
 20
107.2791783966761
 10
160.1499740170707
 20
107.2019076754876
 10
160.207987933005
 20
107.1264936431092
 10
160.2656163070006
 20
107.0875336156192
 10
160.350841367135
 20
107.0599369294805
 10
160.4011647359762
 20
107.0404569157355
 10
160.4969414702224
 20
107.0380219140174
 10
160.6154448871712
 20
107.043703584693
 10
160.7696616626524
 20
107.0599369294805
 10
160.8952830208214
 20
107.0876834252952
 10
161.008155496297
 20
107.128266787264
 10
161.0779081496808
 20
107.1980194406478
 10
161.1299055822032
 20
107.2880637750159
 10
161.1833971482669
 20
107.3821228501725
 10
161.1945575728083
 20
107.4460416452733
 10
161.1846019668253
 20
107.6180225588585
 10
161.1523939110357
 20
107.7808490677832
  0
LWPOLYLINE
  5
204
330
1F
100
AcDbEntity
  8
CONTEXT 1
 62
     1
100
AcDbPolyline
 90
        4
 70
     0
 43
0.0
 10
160.5208154919714
 20
108.0464131745432
 10
160.5063788636549
 20
108.1198011421474
 10
160.5025741734703
 20
108.2656475992226
 10
160.5039295943485
 20
108.4210097449781
  0
LWPOLYLINE
  5
205
330
1F
100
AcDbEntity
  8
CONTEXT 1
 62
     1
100
AcDbPolyline
 90
        8
 70
     0
 43
0.0
 10
160.5974755565028
 20
107.5439778130562
 10
160.6069872819642
 20
107.4446646898734
 10
160.6624723471558
 20
107.286135932183
 10
160.7195426999244
 20
107.1640687887614
 10
160.7781983402698
 20
107.086389697493
 10
160.8087770514212
 20
107.0169962108259
 10
160.829385789921
 20
106.8537115904048
 10
160.86076952992
 20
106.5688799990482
  0
LWPOLYLINE
  5
206
330
1F
100
AcDbEntity
  8
CONTEXT 1
 62
     1
100
AcDbPolyline
 90
        5
 70
     0
 43
0.0
 10
159.1617310060628
 20
106.1726547776778
 10
159.1617310060628
 20
105.551389959522
 10
159.1617310060628
 20
105.0696104431621
 10
159.1810826610543
 20
104.7067669120714
 10
159.1931018530217
 20
103.9527326990235
  0
LWPOLYLINE
  5
207
330
1F
100
AcDbEntity
  8
CONTEXT 1
 62
     1
100
AcDbPolyline
 90
        8
 70
     0
 43
0.0
 10
162.0158030391687
 20
106.2425271029055
 10
162.0591507463496
 20
105.6975844983447
 10
162.0591507463496
 20
105.551389959522
 10
162.0674598632116
 20
105.224980799099
 10
162.0713301942099
 20
105.0740378901653
 10
162.0906818492014
 20
104.8185960442775
 10
162.0906818492014
 20
104.4625255924338
 10
162.1070702820224
 20
103.9059387342211
  0
LWPOLYLINE
  5
208
330
1F
100
AcDbEntity
  8
CONTEXT 1
 62
     1
100
AcDbPolyline
 90
        2
 70
     0
 43
0.0
 10
162.0906818492014
 20
104.7651522158439
 10
159.1793247025853
 20
104.7397286333651
  0
LWPOLYLINE
  5
20A
330
1F
100
AcDbEntity
  8
CONTEXT 1
 62
     1
100
AcDbPolyline
 90
        3
 70
     0
 43
0.0
 10
160.4581662675687
 20
104.7508961859419
 10
160.4465168619858
 20
104.3760025287491
 10
160.4310355379926
 20
103.8496375129802
  0
LWPOLYLINE
  5
20B
330
1F
100
AcDbEntity
  8
CONTEXT 1
 62
     1
100
AcDbPolyline
 90
        3
 70
     0
 43
0.0
 10
161.3443030979869
 20
104.7586344233552
 10
161.3405633225933
 20
104.3024662397814
 10
161.3599149775848
 20
103.9386551259411
  0
LWPOLYLINE
  5
20C
330
1F
100
AcDbEntity
  8
CONTEXT 1
 62
     1
100
AcDbPolyline
 90
        4
 70
     0
 43
0.0
 10
161.8050063440755
 20
104.7626575391687
 10
161.8166140353843
 20
104.5811300716591
 10
161.812743704386
 20
104.2947255777848
 10
161.8282250283792
 20
103.9734881049258
  0
LWPOLYLINE
  5
20D
330
1F
100
AcDbEntity
  8
CONTEXT 1
 62
     1
100
AcDbPolyline
 90
        2
 70
     0
 43
0.0
 10
161.7822659403208
 20
105.551389959522
 10
161.7698687863419
 20
106.1342293199713
  0
LWPOLYLINE
  5
20E
330
1F
100
AcDbEntity
  8
CONTEXT 1
 62
     1
100
AcDbPolyline
 90
        3
 70
     0
 43
0.0
 10
161.3199428077894
 20
105.551389959522
 10
161.3151048940415
 20
106.0326331312659
 10
161.3296186352852
 20
106.1777705437022
  0
LWPOLYLINE
  5
20F
330
1F
100
AcDbEntity
  8
CONTEXT 1
 62
     1
100
AcDbPolyline
 90
        3
 70
     0
 43
0.0
 10
160.4878216431547
 20
105.551389959522
 10
160.4829837294068
 20
106.0181193900223
 10
160.4829837294068
 20
106.2503392499203
  0
LWPOLYLINE
  5
210
330
1F
100
AcDbEntity
  8
CONTEXT 1
 62
     1
100
AcDbPolyline
 90
        3
 70
     0
 43
0.0
 10
159.4863734973444
 20
105.551389959522
 10
159.462183928605
 20
105.8246028401072
 10
159.4573460148571
 20
106.1971221986937
  0
LWPOLYLINE
  5
211
330
1F
100
AcDbEntity
  8
CONTEXT 1
 62
     1
100
AcDbPolyline
 90
       14
 70
     0
 43
0.0
 10
160.1351568346465
 20
105.551389959522
 10
160.2191770762224
 20
105.4506513562458
 10
160.2952708799138
 20
105.347607663747
 10
160.3856322717973
 20
105.2461492588252
 10
160.4648966506425
 20
105.1684701675568
 10
160.5283081537187
 20
105.1304232657112
 10
160.6107431077177
 20
105.1272526905574
 10
160.7153720877934
 20
105.1415202787495
 10
160.8009776169462
 20
105.1748113178645
 10
160.8596332572916
 20
105.2096876445564
 10
160.8723155579069
 20
105.3063901867475
 10
160.8478691552409
 20
105.4264672235566
 10
160.8136599175614
 20
105.5251598723602
 10
160.7898806039078
 20
105.551389959522
  0
LWPOLYLINE
  5
213
330
1F
100
AcDbEntity
  8
CONTEXT 1
 62
     1
100
AcDbPolyline
 90
        3
 70
     0
 43
0.0
 10
160.5283081537187
 20
105.1304232657112
 10
160.517430932381
 20
104.9280922483605
 10
160.5189736694827
 20
104.7514271898414
  0
LWPOLYLINE
  5
214
330
1F
100
AcDbEntity
  8
CONTEXT 1
 62
     1
100
AcDbPolyline
 90
        6
 70
     0
 43
0.0
 10
161.3885933062465
 20
105.551389959522
 10
161.3987391467387
 20
105.420907164409
 10
161.3963178676662
 20
105.1463601262076
 10
161.4058419781868
 20
104.9456726270189
 10
161.3979155403023
 20
104.8168680113955
 10
161.3984199414193
 20
104.7591070015939
  0
LWPOLYLINE
  5
215
330
1F
100
AcDbEntity
  8
CONTEXT 1
 62
     1
100
AcDbPolyline
 90
        4
 70
     0
 43
0.0
 10
161.7169848560228
 20
104.7618888868019
 10
161.6951569609718
 20
105.1537416214876
 10
161.6867149949983
 20
105.4894401990886
 10
161.6867149949983
 20
105.551389959522
  0
LWPOLYLINE
  5
216
330
1F
100
AcDbEntity
  8
CONTEXT 1
 62
     1
100
AcDbPolyline
 90
        2
 70
     0
 43
0.0
 10
156.7056661640347
 20
106.3353957832606
 10
158.8440240405959
 20
106.359585352
  0
LWPOLYLINE
  5
217
330
1F
100
AcDbEntity
  8
CONTEXT 1
 62
     1
100
AcDbPolyline
 90
       20
 70
     0
 43
0.0
 10
158.1909345305222
 20
106.3521974616145
 10
158.2779881320944
 20
105.7838736160027
 10
158.292501873338
 20
105.5226262736174
 10
158.3162688019323
 20
105.2415968954336
 10
158.3162688019323
 20
105.1127922798102
 10
158.2865446598654
 20
105.0360049128039
 10
158.2548806013906
 20
104.9843838973048
 10
158.1821552167426
 20
104.9382552247567
 10
158.0799241046089
 20
104.9191388379349
 10
157.9026078248339
 20
104.9344474274084
 10
157.758941138177
 20
104.9270163918917
 10
157.5409640963527
 20
104.9022462735026
 10
157.3502341847564
 20
104.8997692616637
 10
157.2635387703945
 20
104.9567405339587
 10
157.194182438905
 20
105.033527900965
 10
157.1446422021267
 20
105.1078382561323
 10
157.0876709298317
 20
105.2762750611784
 10
157.0777628824761
 20
105.3753555347349
 10
157.0579467877648
 20
105.4917750911638
 10
157.0579467877648
 20
105.5497799018267
  0
LWPOLYLINE
  5
218
330
1F
100
AcDbEntity
  8
CONTEXT 1
 62
     1
100
AcDbPolyline
 90
       37
 70
     1
 43
0.0
 10
155.1614358025448
 20
105.8845267723679
 10
155.1227324925618
 20
105.6910102224529
 10
155.1227324925618
 20
105.5381495523389
 10
155.1304731545584
 20
105.319458446616
 10
155.1614169044442
 20
105.1343477718379
 10
155.2028182963903
 20
104.9611786214878
 10
155.3162301443762
 20
104.781180068243
 10
155.3746644017886
 20
104.7344264697835
 10
155.4479839522204
 20
104.6868678424764
 10
155.533193159479
 20
104.6492172625249
 10
155.594623053084
 20
104.6294011678136
 10
155.6639793845736
 20
104.6274195583425
 10
155.7868391717836
 20
104.6551620909383
 10
155.899790911638
 20
104.6947942803609
 10
155.9731104620698
 20
104.7681138307927
 10
156.0484116219728
 20
104.8810655706471
 10
156.1257485759808
 20
105.0314821145651
 10
156.1851968601147
 20
105.1305625881216
 10
156.2173980140205
 20
105.2915683576509
 10
156.234737096893
 20
105.487252292925
 10
156.234737096893
 20
105.5381495523389
 10
156.2252644617746
 20
105.662578287148
 10
156.2227874499357
 20
105.7913829027715
 10
156.2104023907411
 20
105.917710506556
 10
156.1859418988318
 20
106.0432640441409
 10
156.0992464844699
 20
106.1993157899924
 10
156.0162956153488
 20
106.320921589959
 10
155.8874909997253
 20
106.4100940161599
 10
155.7908875380078
 20
106.4522032174214
 10
155.7215312065182
 20
106.4571572410992
 10
155.642266827673
 20
106.4472491937436
 10
155.5456633659554
 20
106.4150480398377
 10
155.44410588056
 20
106.3308296373147
 10
155.3128242530976
 20
106.2020250216912
 10
155.2707150518361
 20
106.1623928322686
 10
155.2310828624135
 20
106.0682663823899
 10
155.1614358025448
 20
105.8845267723679
  0
LWPOLYLINE
  5
219
330
1F
100
AcDbEntity
  8
CONTEXT 1
 62
     1
100
AcDbPolyline
 90
        5
 70
     0
 43
0.0
 10
157.0579467877648
 20
105.5497799018267
 10
157.0788843750376
 20
105.9049625917357
 10
157.1307975891576
 20
106.1356739514238
 10
157.1713809511263
 20
106.3056167796679
 10
157.183165282784
 20
106.3407973570021
  0
LWPOLYLINE
  5
21A
330
1F
100
AcDbEntity
  8
CONTEXT 1
 62
     1
100
AcDbPolyline
 90
       10
 70
     0
 43
0.0
 10
157.5850183928297
 20
103.780979883914
 10
157.5801804790818
 20
104.2696091724495
 10
157.609207961569
 20
104.6082631348008
 10
157.5753566677675
 20
104.9061545202543
 10
157.552841399078
 20
104.9906040713559
 10
157.5098230353912
 20
105.0790758004477
 10
157.494401357843
 20
105.1545608537096
 10
157.4981584894003
 20
105.2839551963116
 10
157.505589524917
 20
105.4449609658409
 10
157.505589524917
 20
105.5497799018267
  0
LWPOLYLINE
  5
21B
330
1F
100
AcDbEntity
  8
CONTEXT 1
 62
     1
100
AcDbPolyline
 90
        3
 70
     0
 43
0.0
 10
161.3649234619799
 20
107.5201762276554
 10
161.6414352626162
 20
107.2364954205359
 10
162.0707517286027
 20
106.8159839575705
  0
LWPOLYLINE
  5
22D
330
1F
100
AcDbEntity
  8
CONTEXT 1
 62
     1
100
AcDbPolyline
 90
        5
 70
     1
 43
0.0
 10
154.726652512994
 20
105.3276429749759
 10
154.735419308156
 20
105.3459891688062
 10
154.7104193081561
 20
105.4209891688061
 10
154.685419308156
 20
105.3459891688062
 10
154.6946513489954
 20
105.3278131939333
  0
LWPOLYLINE
  5
252
102
{ACAD_REACTORS
330
2CA
102
}
330
1F
100
AcDbEntity
  8
CONTEXT 1
 62
     1
100
AcDbPolyline
 90
        5
 70
     1
 43
0.0
 10
161.3755429912709
 20
105.2119161681203
 10
161.3935564301778
 20
105.202484543434
 10
161.4694202324078
 20
105.2247260252013
 10
161.3953843015634
 20
105.2524511211256
 10
161.3768829766858
 20
105.2438897182959
  0
LWPOLYLINE
  5
25A
102
{ACAD_REACTORS
330
302
102
}
330
1F
100
AcDbEntity
  8
CONTEXT 1
 62
     1
100
AcDbPolyline
 90
        3
 70
     1
 43
0.0
 10
160.0760654311094
 20
107.3662958448715
 10
160.1300602556432
 20
107.4240414847377
 10
160.0609908865471
 20
107.4117972512184
  0
LWPOLYLINE
  5
25B
102
{ACAD_REACTORS
330
303
102
}
330
1F
100
AcDbEntity
  8
CONTEXT 1
 62
     1
100
AcDbPolyline
 90
        3
 70
     1
 43
0.0
 10
160.2510153435388
 20
107.0974046895089
 10
160.2712987488083
 20
107.1738153135782
 10
160.2097718206891
 20
107.1252876345341
  0
LWPOLYLINE
  5
25C
102
{ACAD_REACTORS
330
304
102
}
330
1F
100
AcDbEntity
  8
CONTEXT 1
 62
     1
100
AcDbPolyline
 90
        3
 70
     1
 43
0.0
 10
160.5837159675386
 20
107.0421823351216
 10
160.554454131979
 20
107.1156244550506
 10
160.5339286923253
 20
107.0397952739812
  0
LWPOLYLINE
  5
25D
102
{ACAD_REACTORS
330
305
102
}
330
1F
100
AcDbEntity
  8
CONTEXT 1
 62
     1
100
AcDbPolyline
 90
        3
 70
     1
 43
0.0
 10
160.8667288950459
 20
107.0813765604207
 10
160.8196176552966
 20
107.1445578031781
 10
160.8194123436382
 20
107.0709255629571
  0
LWPOLYLINE
  5
25E
102
{ACAD_REACTORS
330
306
102
}
330
1F
100
AcDbEntity
  8
CONTEXT 1
 62
     1
100
AcDbPolyline
 90
        4
 70
     1
 43
0.0
 10
161.1080347378669
 20
107.2501898738481
 10
161.1299055822032
 20
107.2880637750159
 10
161.1325398918535
 20
107.2926959207467
 10
161.0542338029034
 20
107.3035658992811
  0
LWPOLYLINE
  5
25F
102
{ACAD_REACTORS
330
307
102
}
330
1F
100
AcDbEntity
  8
CONTEXT 1
 62
     1
100
AcDbPolyline
 90
        4
 70
     1
 43
0.0
 10
161.1882467676834
 20
107.4098979431943
 10
161.1945575728083
 20
107.4460416452733
 10
161.1938123017093
 20
107.4589160403336
 10
161.1172541123596
 20
107.4391969216036
  0
LWPOLYLINE
  5
260
102
{ACAD_REACTORS
330
2CB
102
}
330
1F
100
AcDbEntity
  8
CONTEXT 1
 62
     1
100
AcDbPolyline
 90
        3
 70
     1
 43
0.0
 10
155.1290409456247
 20
105.3599215692124
 10
155.1976351718387
 20
105.3992259217714
 10
155.1273417307938
 20
105.4079282087468
  0
LWPOLYLINE
  5
261
102
{ACAD_REACTORS
330
2CC
102
}
330
1F
100
AcDbEntity
  8
CONTEXT 1
 62
     1
100
AcDbPolyline
 90
        3
 70
     1
 43
0.0
 10
155.172725897507
 20
105.0870457699499
 10
155.2203261560669
 20
105.1370874108679
 10
155.1630680419698
 20
105.1274415769258
  0
LWPOLYLINE
  5
262
102
{ACAD_REACTORS
330
2CD
102
}
330
1F
100
AcDbEntity
  8
CONTEXT 1
 62
     1
100
AcDbPolyline
 90
        4
 70
     1
 43
0.0
 10
155.3511359418504
 20
104.7532517311461
 10
155.375141484189
 20
104.8285759233889
 10
155.3134415557584
 20
104.7846417644583
 10
155.3162301443762
 20
104.781180068243
  0
LWPOLYLINE
  5
263
102
{ACAD_REACTORS
330
2CE
102
}
330
1F
100
AcDbEntity
  8
CONTEXT 1
 62
     1
100
AcDbPolyline
 90
        4
 70
     1
 43
0.0
 10
155.6350323622346
 20
104.6282466161236
 10
155.615195789989
 20
104.7047744568192
 10
155.5854412405567
 20
104.6323630428224
 10
155.594623053084
 20
104.6294011678136
  0
LWPOLYLINE
  5
264
102
{ACAD_REACTORS
330
2CF
102
}
330
1F
100
AcDbEntity
  8
CONTEXT 1
 62
     1
100
AcDbPolyline
 90
        4
 70
     1
 43
0.0
 10
155.9382428522256
 20
104.7332462209485
 10
155.9716809957715
 20
104.7666843644944
 10
155.9309295976947
 20
104.8131518621306
 10
155.9369678710651
 20
104.7343258559226
  0
LWPOLYLINE
  5
265
102
{ACAD_REACTORS
330
2D0
102
}
330
1F
100
AcDbEntity
  8
CONTEXT 1
 62
     1
100
AcDbPolyline
 90
        3
 70
     1
 43
0.0
 10
156.1338924101767
 20
105.0450551715583
 10
156.1593068859985
 20
105.0874126312612
 10
156.0815237927351
 20
105.1015473545474
  0
LWPOLYLINE
  5
266
102
{ACAD_REACTORS
330
2D1
102
}
330
1F
100
AcDbEntity
  8
CONTEXT 1
 62
     1
100
AcDbPolyline
 90
        4
 70
     1
 43
0.0
 10
156.2265328961756
 20
105.394662027686
 10
156.2308852188875
 20
105.443781098292
 10
156.1534851772785
 20
105.4276803666652
 10
156.2250656495419
 20
105.3941209270013
  0
LWPOLYLINE
  5
267
102
{ACAD_REACTORS
330
2D2
102
}
330
1F
100
AcDbEntity
  8
CONTEXT 1
 62
     1
100
AcDbPolyline
 90
        3
 70
     1
 43
0.0
 10
157.0719893720224
 20
105.4092749086501
 10
157.1389814377908
 20
105.4384259230493
 10
157.0639976908798
 20
105.4562260353627
  0
LWPOLYLINE
  5
268
102
{ACAD_REACTORS
330
2D3
102
}
330
1F
100
AcDbEntity
  8
CONTEXT 1
 62
     1
100
AcDbPolyline
 90
        3
 70
     1
 43
0.0
 10
157.1175738525294
 20
105.1878664201592
 10
157.1790951290252
 20
105.2330161568525
 10
157.1020317462985
 20
105.2338169951026
  0
LWPOLYLINE
  5
269
102
{ACAD_REACTORS
330
2D4
102
}
330
1F
100
AcDbEntity
  8
CONTEXT 1
 62
     1
100
AcDbPolyline
 90
        4
 70
     1
 43
0.0
 10
157.2784382064636
 20
104.9469494759704
 10
157.3115892740665
 20
105.0145599974346
 10
157.2429278661887
 20
104.9795597493294
 10
157.2635387703945
 20
104.9567405339587
  0
LWPOLYLINE
  5
26A
102
{ACAD_REACTORS
330
2D5
102
}
330
1F
100
AcDbEntity
  8
CONTEXT 1
 62
     1
100
AcDbPolyline
 90
        3
 70
     1
 43
0.0
 10
157.5386584828966
 20
104.9022163304707
 10
157.5280580801842
 20
104.9696929642044
 10
157.4919461395487
 20
104.901609676661
  0
LWPOLYLINE
  5
26B
102
{ACAD_REACTORS
330
2D6
102
}
330
1F
100
AcDbEntity
  8
CONTEXT 1
 62
     1
100
AcDbPolyline
 90
        3
 70
     1
 43
0.0
 10
157.884279128738
 20
104.9334993914035
 10
157.8560355221581
 20
105.0052835262678
 10
157.8355793027921
 20
104.930980434889
  0
LWPOLYLINE
  5
26C
102
{ACAD_REACTORS
330
2D7
102
}
330
1F
100
AcDbEntity
  8
CONTEXT 1
 62
     1
100
AcDbPolyline
 90
        4
 70
     1
 43
0.0
 10
158.1821552167426
 20
104.9382552247567
 10
158.2108766261433
 20
104.9564728044337
 10
158.1469935931522
 20
104.9951821982337
 10
158.1707550221052
 20
104.936123481044
  0
LWPOLYLINE
  5
26D
102
{ACAD_REACTORS
330
2D8
102
}
330
1F
100
AcDbEntity
  8
CONTEXT 1
 62
     1
100
AcDbPolyline
 90
        3
 70
     1
 43
0.0
 10
158.3162688019323
 20
105.1902578170892
 10
158.3162688019323
 20
105.2365137975882
 10
158.2534401631387
 20
105.2348892908104
  0
LWPOLYLINE
  5
26E
102
{ACAD_REACTORS
330
2D9
102
}
330
1F
100
AcDbEntity
  8
CONTEXT 1
 62
     1
100
AcDbPolyline
 90
        3
 70
     1
 43
0.0
 10
158.3017316422796
 20
105.4134899072521
 10
158.2975834156932
 20
105.4625401466849
 10
158.22664901802
 20
105.4276358313824
  0
LWPOLYLINE
  5
26F
102
{ACAD_REACTORS
330
2DA
102
}
330
1F
100
AcDbEntity
  8
CONTEXT 1
 62
     1
100
AcDbPolyline
 90
        4
 70
     1
 43
0.0
 10
159.1642235102822
 20
105.4160892432848
 10
159.2367147529738
 20
105.4476331766639
 10
159.1617310060628
 20
105.4654332889773
 10
159.1617310060628
 20
105.4170191732461
  0
LWPOLYLINE
  5
270
102
{ACAD_REACTORS
330
2DB
102
}
330
1F
100
AcDbEntity
  8
CONTEXT 1
 62
     1
100
AcDbPolyline
 90
        4
 70
     1
 43
0.0
 10
159.1642235102822
 20
105.1698080807406
 10
159.2367147529738
 20
105.2013520141196
 10
159.1617310060628
 20
105.219152126433
 10
159.1617310060628
 20
105.1707380107018
  0
LWPOLYLINE
  5
271
102
{ACAD_REACTORS
330
2DC
102
}
330
1F
100
AcDbEntity
  8
CONTEXT 1
 62
     1
100
AcDbPolyline
 90
        3
 70
     1
 43
0.0
 10
159.1694230767886
 20
104.9253841170538
 10
159.2417782979864
 20
104.9568688618636
 10
159.1667945510754
 20
104.974668974177
  0
LWPOLYLINE
  5
272
102
{ACAD_REACTORS
330
2DD
102
}
330
1F
100
AcDbEntity
  8
CONTEXT 1
 62
     1
100
AcDbPolyline
 90
        4
 70
     1
 43
0.0
 10
160.5177960389154
 20
104.8862824239944
 10
160.517430932381
 20
104.9280922483605
 10
160.5177959362553
 20
104.9348818137223
 10
160.4449033312399
 20
104.9113036043603
  0
LWPOLYLINE
  5
273
102
{ACAD_REACTORS
330
2DE
102
}
330
1F
100
AcDbEntity
  8
CONTEXT 1
 62
     1
100
AcDbPolyline
 90
        4
 70
     1
 43
0.0
 10
160.5241195477521
 20
105.0525095338688
 10
160.5267643436032
 20
105.1017063111163
 10
160.5264465517104
 20
105.1018616612309
 10
160.4512268400766
 20
105.0775307142347
  0
LWPOLYLINE
  5
274
102
{ACAD_REACTORS
330
2DF
102
}
330
1F
100
AcDbEntity
  8
CONTEXT 1
 62
     1
100
AcDbPolyline
 90
        4
 70
     1
 43
0.0
 10
160.5003471959686
 20
105.1471998403612
 10
160.4942359172816
 20
105.2199396324226
 10
160.4630956842544
 20
105.1702351146172
 10
160.4648966506425
 20
105.1684701675568
  0
LWPOLYLINE
  5
275
102
{ACAD_REACTORS
330
2E0
102
}
330
1F
100
AcDbEntity
  8
CONTEXT 1
 62
     1
100
AcDbPolyline
 90
        3
 70
     1
 43
0.0
 10
160.3826630405659
 20
105.2494831324885
 10
160.4122470400146
 20
105.2932077595682
 10
160.3598369012463
 20
105.2751124819
  0
LWPOLYLINE
  5
276
102
{ACAD_REACTORS
330
2E1
102
}
330
1F
100
AcDbEntity
  8
CONTEXT 1
 62
     1
100
AcDbPolyline
 90
        3
 70
     1
 43
0.0
 10
160.3598369012464
 20
105.2751124818999
 10
160.3279228683586
 20
105.3109457819844
 10
160.2841034367946
 20
105.2893900398605
  0
LWPOLYLINE
  5
277
102
{ACAD_REACTORS
330
2E2
102
}
330
1F
100
AcDbEntity
  8
CONTEXT 1
 62
     1
100
AcDbPolyline
 90
        4
 70
     1
 43
0.0
 10
160.2385289370598
 20
105.4244457113619
 10
160.2191770762224
 20
105.4506513562458
 10
160.2098286560198
 20
105.4618599266615
 10
160.162795472608
 20
105.4387232693225
  0
LWPOLYLINE
  5
278
102
{ACAD_REACTORS
330
3A9
102
}
330
1F
100
AcDbEntity
  8
CONTEXT 1
 62
     1
100
AcDbPolyline
 90
        3
 70
     1
 43
0.0
 10
160.82953801477
 20
105.4793520269427
 10
160.8137054080445
 20
105.5250286336487
 10
160.7524778589029
 20
105.4804191150016
  0
LWPOLYLINE
  5
279
102
{ACAD_REACTORS
330
2E3
102
}
330
1F
100
AcDbEntity
  8
CONTEXT 1
 62
     1
100
AcDbPolyline
 90
        3
 70
     1
 43
0.0
 10
160.8671102673292
 20
105.3319577877085
 10
160.8578195971774
 20
105.377592155965
 10
160.8018869603292
 20
105.3730105162801
  0
LWPOLYLINE
  5
27A
102
{ACAD_REACTORS
330
2E4
102
}
330
1F
100
AcDbEntity
  8
CONTEXT 1
 62
     1
100
AcDbPolyline
 90
        4
 70
     1
 43
0.0
 10
160.8009776169462
 20
105.1748113178645
 10
160.8339553889804
 20
105.1944197228578
 10
160.7766933487227
 20
105.229204059275
 10
160.7988407124796
 20
105.1739802994608
  0
LWPOLYLINE
  5
27B
102
{ACAD_REACTORS
330
2E5
102
}
330
1F
100
AcDbEntity
  8
CONTEXT 1
 62
     1
100
AcDbPolyline
 90
        3
 70
     1
 43
0.0
 10
160.6935448735107
 20
105.1385438404382
 10
160.6566183083651
 20
105.2080290251343
 10
160.6447186192904
 20
105.1318857148627
  0
LWPOLYLINE
  5
27C
102
{ACAD_REACTORS
330
2E6
102
}
330
1F
100
AcDbEntity
  8
CONTEXT 1
 62
     1
100
AcDbPolyline
 90
        3
 70
     1
 43
0.0
 10
161.3985227419211
 20
105.4236902857775
 10
161.4698719228472
 20
105.4555750833324
 10
161.3947168168694
 20
105.472637215223
  0
LWPOLYLINE
  5
27D
102
{ACAD_REACTORS
330
3AA
102
}
330
1F
100
AcDbEntity
  8
CONTEXT 1
 62
     1
100
AcDbPolyline
 90
        4
 70
     1
 43
0.0
 10
161.6867149949983
 20
105.4894401990886
 10
161.6867149949983
 20
105.5202784520067
 10
161.6142551758089
 20
105.496807219666
 10
161.6871581962203
 20
105.4718161029625
  0
LWPOLYLINE
  5
27E
102
{ACAD_REACTORS
330
2E7
102
}
330
1F
100
AcDbEntity
  8
CONTEXT 1
 62
     1
100
AcDbPolyline
 90
        3
 70
     1
 43
0.0
 10
161.6911290396736
 20
105.3139137253228
 10
161.6899166008146
 20
105.362126902405
 10
161.6182260192623
 20
105.3389048420262
  0
LWPOLYLINE
  5
280
102
{ACAD_REACTORS
330
2E8
102
}
330
1F
100
AcDbEntity
  8
CONTEXT 1
 62
     1
100
AcDbPolyline
 90
        3
 70
     1
 43
0.0
 10
162.0625439566199
 20
105.4180936136108
 10
162.0613167570105
 20
105.466302009381
 10
161.9896409362085
 20
105.4430847303142
  0
LWPOLYLINE
  5
281
102
{ACAD_REACTORS
330
2E9
102
}
330
1F
100
AcDbEntity
  8
CONTEXT 1
 62
     1
100
AcDbPolyline
 90
        3
 70
     1
 43
0.0
 10
162.0690393989927
 20
105.1633789036343
 10
162.0678033597001
 20
105.2115844360485
 10
161.9961363785814
 20
105.1883700203377
  0
LWPOLYLINE
  5
282
102
{ACAD_REACTORS
330
2EA
102
}
330
1F
100
AcDbEntity
  8
CONTEXT 1
 62
     1
100
AcDbPolyline
 90
        4
 70
     1
 43
0.0
 10
161.6951569609718
 20
105.1537416214876
 10
161.6945644412172
 20
105.1773034362889
 10
161.6236137773286
 20
105.1543210505269
 10
161.69651679774
 20
105.1293299338235
  0
LWPOLYLINE
  5
284
102
{ACAD_REACTORS
330
2EB
102
}
330
1F
100
AcDbEntity
  8
CONTEXT 1
 62
     1
100
AcDbPolyline
 90
        3
 70
     1
 43
0.0
 10
162.0834787491739
 20
104.9136769646407
 10
162.0798846796505
 20
104.96111868235
 10
162.0105757287625
 20
104.9386680813441
  0
LWPOLYLINE
  5
285
102
{ACAD_REACTORS
330
2EC
102
}
330
1F
100
AcDbEntity
  8
CONTEXT 1
 62
     1
100
AcDbPolyline
 90
        3
 70
     1
 43
0.0
 10
161.475395193256
 20
104.9738455841205
 10
161.4032223108927
 20
105.0008730026163
 10
161.4054777516
 20
104.9533474353579
  0
LWPOLYLINE
  5
286
330
1F
100
AcDbEntity
  8
CONTEXT 1
 62
     1
100
AcDbPolyline
 90
        2
 70
     0
 43
0.0
 10
160.1300602556432
 20
107.4240414847377
 10
160.2339504494315
 20
107.4779431276119
  0
LWPOLYLINE
  5
287
330
1F
100
AcDbEntity
  8
CONTEXT 1
 62
     1
100
AcDbPolyline
 90
        2
 70
     0
 43
0.0
 10
160.2712987488083
 20
107.1738153135782
 10
160.3295284282478
 20
107.2408584164622
  0
LWPOLYLINE
  5
288
330
1F
100
AcDbEntity
  8
CONTEXT 1
 62
     1
100
AcDbPolyline
 90
        2
 70
     0
 43
0.0
 10
160.554454131979
 20
107.1156244550506
 10
160.55550166061
 20
107.1593619527087
  0
LWPOLYLINE
  5
289
330
1F
100
AcDbEntity
  8
CONTEXT 1
 62
     1
100
AcDbPolyline
 90
        2
 70
     0
 43
0.0
 10
160.8196176552966
 20
107.1445578031781
 10
160.7736308900417
 20
107.2307823286234
  0
LWPOLYLINE
  5
28A
330
1F
100
AcDbEntity
  8
CONTEXT 1
 62
     1
100
AcDbPolyline
 90
        2
 70
     0
 43
0.0
 10
161.0614557679895
 20
107.3025633896869
 10
160.9450955943596
 20
107.3322407335453
  0
LWPOLYLINE
  5
28B
330
1F
100
AcDbEntity
  8
CONTEXT 1
 62
     1
100
AcDbPolyline
 90
        2
 70
     0
 43
0.0
 10
161.1172541123596
 20
107.4391969216036
 10
160.9914256237946
 20
107.441736546482
  0
LWPOLYLINE
  5
28C
330
1F
100
AcDbEntity
  8
CONTEXT 1
 62
     1
100
AcDbPolyline
 90
        2
 70
     0
 43
0.0
 10
159.2367147529738
 20
105.4476331766639
 10
159.6733854417188
 20
105.4404118037459
  0
LWPOLYLINE
  5
28D
330
1F
100
AcDbEntity
  8
CONTEXT 1
 62
     1
100
AcDbPolyline
 90
        2
 70
     0
 43
0.0
 10
159.2367147529738
 20
105.2013520141196
 10
159.6560463588464
 20
105.1902336080157
  0
LWPOLYLINE
  5
28E
330
1F
100
AcDbEntity
  8
CONTEXT 1
 62
     1
100
AcDbPolyline
 90
        2
 70
     0
 43
0.0
 10
159.2417782979864
 20
104.9568688618636
 10
159.6671929121215
 20
104.957394495158
  0
LWPOLYLINE
  5
28F
330
1F
100
AcDbEntity
  8
CONTEXT 1
 62
     1
100
AcDbPolyline
 90
        2
 70
     0
 43
0.0
 10
160.162795472608
 20
105.4387232693225
 10
159.9210866256101
 20
105.4435080685445
  0
LWPOLYLINE
  5
290
330
1F
100
AcDbEntity
  8
CONTEXT 1
 62
     1
100
AcDbPolyline
 90
        2
 70
     0
 43
0.0
 10
160.2841034367946
 20
105.2893900398605
 10
159.964434332791
 20
105.2825022990152
  0
LWPOLYLINE
  5
291
330
1F
100
AcDbEntity
  8
CONTEXT 1
 62
     1
100
AcDbPolyline
 90
        2
 70
     0
 43
0.0
 10
160.4512268400766
 20
105.0775307142347
 10
159.9610937533482
 20
105.0747259983284
  0
LWPOLYLINE
  5
292
330
1F
100
AcDbEntity
  8
CONTEXT 1
 62
     1
100
AcDbPolyline
 90
        2
 70
     0
 43
0.0
 10
160.4635582224961
 20
104.9173378094978
 10
159.9561397296704
 20
104.9013351696045
  0
LWPOLYLINE
  5
293
330
1F
100
AcDbEntity
  8
CONTEXT 1
 62
     1
100
AcDbPolyline
 90
        2
 70
     0
 43
0.0
 10
160.7766933487227
 20
105.229204059275
 10
160.7549795310175
 20
105.2471190557209
  0
LWPOLYLINE
  5
294
330
1F
100
AcDbEntity
  8
CONTEXT 1
 62
     1
100
AcDbPolyline
 90
        2
 70
     0
 43
0.0
 10
161.9896409362085
 20
105.4430847303142
 10
161.8446975418398
 20
105.4523271015155
  0
LWPOLYLINE
  5
295
330
1F
100
AcDbEntity
  8
CONTEXT 1
 62
     1
100
AcDbPolyline
 90
        2
 70
     0
 43
0.0
 10
161.9961363785814
 20
105.1883700203377
 10
161.8653062803396
 20
105.1891693637495
  0
LWPOLYLINE
  5
296
330
1F
100
AcDbEntity
  8
CONTEXT 1
 62
     1
100
AcDbPolyline
 90
        2
 70
     0
 43
0.0
 10
162.0105757287625
 20
104.9386680813441
 10
161.8982815004451
 20
104.9410594729048
  0
LWPOLYLINE
  5
297
330
1F
100
AcDbEntity
  8
CONTEXT 1
 62
     1
100
AcDbPolyline
 90
        2
 70
     0
 43
0.0
 10
158.22664901802
 20
105.4276358313824
 10
158.0920721716506
 20
105.4227260526046
  0
LWPOLYLINE
  5
298
330
1F
100
AcDbEntity
  8
CONTEXT 1
 62
     1
100
AcDbPolyline
 90
        2
 70
     0
 43
0.0
 10
158.2534401631387
 20
105.2348892908104
 10
158.123034819637
 20
105.2802978718672
  0
LWPOLYLINE
  5
299
330
1F
100
AcDbEntity
  8
CONTEXT 1
 62
     1
100
AcDbPolyline
 90
        2
 70
     0
 43
0.0
 10
158.1469935931522
 20
104.9951821982337
 10
158.045628199671
 20
105.0883294543515
  0
LWPOLYLINE
  5
29A
330
1F
100
AcDbEntity
  8
CONTEXT 1
 62
     1
100
AcDbPolyline
 90
        2
 70
     0
 43
0.0
 10
157.8560355221581
 20
105.0052835262678
 10
157.8443709877594
 20
105.110003307942
  0
LWPOLYLINE
  5
29B
330
1F
100
AcDbEntity
  8
CONTEXT 1
 62
     1
100
AcDbPolyline
 90
        2
 70
     0
 43
0.0
 10
157.5280580801842
 20
104.9696929642044
 10
157.5873810094722
 20
105.1069070431433
  0
LWPOLYLINE
  5
29C
330
1F
100
AcDbEntity
  8
CONTEXT 1
 62
     1
100
AcDbPolyline
 90
        2
 70
     0
 43
0.0
 10
157.3115892740665
 20
105.0145599974346
 10
157.4139901807483
 20
105.1688323391161
  0
LWPOLYLINE
  5
29D
330
1F
100
AcDbEntity
  8
CONTEXT 1
 62
     1
100
AcDbPolyline
 90
        2
 70
     0
 43
0.0
 10
157.1790951290252
 20
105.2330161568525
 10
157.3211022367891
 20
105.3019717254577
  0
LWPOLYLINE
  5
29E
330
1F
100
AcDbEntity
  8
CONTEXT 1
 62
     1
100
AcDbPolyline
 90
        2
 70
     0
 43
0.0
 10
157.1570002024611
 20
105.4474961709938
 10
157.3056209127959
 20
105.4505924357924
  0
LWPOLYLINE
  5
29F
330
1F
100
AcDbEntity
  8
CONTEXT 1
 62
     1
100
AcDbPolyline
 90
        2
 70
     0
 43
0.0
 10
156.1534851772785
 20
105.4276803666652
 10
155.9784803012518
 20
105.4568831750388
  0
LWPOLYLINE
  5
2A0
330
1F
100
AcDbEntity
  8
CONTEXT 1
 62
     1
100
AcDbPolyline
 90
        2
 70
     0
 43
0.0
 10
156.0815237927351
 20
105.1015473545474
 10
155.8889026513955
 20
105.1583885411921
  0
LWPOLYLINE
  5
2A1
330
1F
100
AcDbEntity
  8
CONTEXT 1
 62
     1
100
AcDbPolyline
 90
        2
 70
     0
 43
0.0
 10
155.9309295976947
 20
104.8131518621306
 10
155.8827101217982
 20
104.9571313292804
  0
LWPOLYLINE
  5
2A2
330
1F
100
AcDbEntity
  8
CONTEXT 1
 62
     1
100
AcDbPolyline
 90
        2
 70
     0
 43
0.0
 10
155.615195789989
 20
104.7047744568192
 10
155.6381052027056
 20
104.8611471205226
  0
LWPOLYLINE
  5
2A3
330
1F
100
AcDbEntity
  8
CONTEXT 1
 62
     1
100
AcDbPolyline
 90
        2
 70
     0
 43
0.0
 10
155.2203261560669
 20
105.1370874108679
 10
155.3532488412307
 20
105.201736248373
  0
LWPOLYLINE
  5
2A4
330
1F
100
AcDbEntity
  8
CONTEXT 1
 62
     1
100
AcDbPolyline
 90
        2
 70
     0
 43
0.0
 10
155.1976351718387
 20
105.3992259217714
 10
155.4081378754485
 20
105.4227573055275
  0
HATCH
  5
2CA
330
1F
100
AcDbEntity
  8
CONTEXT 1
 62
     1
100
AcDbHatch
 10
0.0
 20
0.0
 30
0.0
210
0.0
220
0.0
230
1.0
  2
SOLID
 70
     1
 71
     1
 91
        1
 92
        1
 93
        5
 72
     1
 10
161.3755429912709
 20
105.2119161681203
 11
161.3935564301778
 21
105.202484543434
 72
     1
 10
161.3935564301778
 20
105.202484543434
 11
161.4694202324078
 21
105.2247260252013
 72
     1
 10
161.4694202324078
 20
105.2247260252013
 11
161.3953843015634
 21
105.2524511211256
 72
     1
 10
161.3953843015634
 20
105.2524511211256
 11
161.3768829766858
 21
105.2438897182959
 72
     1
 10
161.3768829766858
 20
105.2438897182959
 11
161.3755429912709
 21
105.2119161681203
 97
        1
330
252
 75
     0
 76
     1
 98
        1
 10
0.0
 20
0.0
450
        1
451
        0
460
0.0
461
0.0
452
        1
462
0.0
453
        2
463
0.0
 63
    18
421
   327680
463
1.0
 63
    18
421
   327680
470
LINEAR
1001
ACAD
1010
0.0
1020
0.0
1030
0.0
  0
HATCH
  5
2CB
330
1F
100
AcDbEntity
  8
CONTEXT 1
 62
     1
100
AcDbHatch
 10
0.0
 20
0.0
 30
0.0
210
0.0
220
0.0
230
1.0
  2
SOLID
 70
     1
 71
     1
 91
        1
 92
        1
 93
        3
 72
     1
 10
155.1290409456247
 20
105.3599215692124
 11
155.1976351718387
 21
105.3992259217714
 72
     1
 10
155.1976351718387
 20
105.3992259217714
 11
155.1273417307938
 21
105.4079282087468
 72
     1
 10
155.1273417307938
 20
105.4079282087468
 11
155.1290409456247
 21
105.3599215692124
 97
        1
330
260
 75
     0
 76
     1
 98
        1
 10
0.0
 20
0.0
450
        1
451
        0
460
0.0
461
0.0
452
        1
462
0.0
453
        2
463
0.0
 63
    18
421
   327680
463
1.0
 63
    18
421
   327680
470
LINEAR
1001
ACAD
1010
0.0
1020
0.0
1030
0.0
  0
HATCH
  5
2CC
330
1F
100
AcDbEntity
  8
CONTEXT 1
 62
     1
100
AcDbHatch
 10
0.0
 20
0.0
 30
0.0
210
0.0
220
0.0
230
1.0
  2
SOLID
 70
     1
 71
     1
 91
        1
 92
        1
 93
        3
 72
     1
 10
155.172725897507
 20
105.0870457699499
 11
155.2203261560669
 21
105.1370874108679
 72
     1
 10
155.2203261560669
 20
105.1370874108679
 11
155.1630680419698
 21
105.1274415769258
 72
     1
 10
155.1630680419698
 20
105.1274415769258
 11
155.172725897507
 21
105.0870457699499
 97
        1
330
261
 75
     0
 76
     1
 98
        1
 10
0.0
 20
0.0
450
        1
451
        0
460
0.0
461
0.0
452
        1
462
0.0
453
        2
463
0.0
 63
    18
421
   327680
463
1.0
 63
    18
421
   327680
470
LINEAR
1001
ACAD
1010
0.0
1020
0.0
1030
0.0
  0
HATCH
  5
2CD
330
1F
100
AcDbEntity
  8
CONTEXT 1
 62
     1
100
AcDbHatch
 10
0.0
 20
0.0
 30
0.0
210
0.0
220
0.0
230
1.0
  2
SOLID
 70
     1
 71
     1
 91
        1
 92
        1
 93
        4
 72
     1
 10
155.3511359418504
 20
104.7532517311461
 11
155.375141484189
 21
104.8285759233889
 72
     1
 10
155.375141484189
 20
104.8285759233889
 11
155.3134415557584
 21
104.7846417644583
 72
     1
 10
155.3134415557584
 20
104.7846417644583
 11
155.3162301443762
 21
104.781180068243
 72
     1
 10
155.3162301443762
 20
104.781180068243
 11
155.3511359418504
 21
104.7532517311461
 97
        1
330
262
 75
     0
 76
     1
 98
        1
 10
0.0
 20
0.0
450
        1
451
        0
460
0.0
461
0.0
452
        1
462
0.0
453
        2
463
0.0
 63
    18
421
   327680
463
1.0
 63
    18
421
   327680
470
LINEAR
1001
ACAD
1010
0.0
1020
0.0
1030
0.0
  0
HATCH
  5
2CE
330
1F
100
AcDbEntity
  8
CONTEXT 1
 62
     1
100
AcDbHatch
 10
0.0
 20
0.0
 30
0.0
210
0.0
220
0.0
230
1.0
  2
SOLID
 70
     1
 71
     1
 91
        1
 92
        1
 93
        4
 72
     1
 10
155.6350323622346
 20
104.6282466161236
 11
155.615195789989
 21
104.7047744568192
 72
     1
 10
155.615195789989
 20
104.7047744568192
 11
155.5854412405567
 21
104.6323630428224
 72
     1
 10
155.5854412405567
 20
104.6323630428224
 11
155.594623053084
 21
104.6294011678136
 72
     1
 10
155.594623053084
 20
104.6294011678136
 11
155.6350323622346
 21
104.6282466161236
 97
        1
330
263
 75
     0
 76
     1
 98
        1
 10
0.0
 20
0.0
450
        1
451
        0
460
0.0
461
0.0
452
        1
462
0.0
453
        2
463
0.0
 63
    18
421
   327680
463
1.0
 63
    18
421
   327680
470
LINEAR
1001
ACAD
1010
0.0
1020
0.0
1030
0.0
  0
HATCH
  5
2CF
330
1F
100
AcDbEntity
  8
CONTEXT 1
 62
     1
100
AcDbHatch
 10
0.0
 20
0.0
 30
0.0
210
0.0
220
0.0
230
1.0
  2
SOLID
 70
     1
 71
     1
 91
        1
 92
        1
 93
        4
 72
     1
 10
155.9382428522256
 20
104.7332462209485
 11
155.9716809957715
 21
104.7666843644944
 72
     1
 10
155.9716809957715
 20
104.7666843644944
 11
155.9309295976947
 21
104.8131518621306
 72
     1
 10
155.9309295976947
 20
104.8131518621306
 11
155.9369678710651
 21
104.7343258559226
 72
     1
 10
155.9369678710651
 20
104.7343258559226
 11
155.9382428522256
 21
104.7332462209485
 97
        1
330
264
 75
     0
 76
     1
 98
        1
 10
0.0
 20
0.0
450
        1
451
        0
460
0.0
461
0.0
452
        1
462
0.0
453
        2
463
0.0
 63
    18
421
   327680
463
1.0
 63
    18
421
   327680
470
LINEAR
1001
ACAD
1010
0.0
1020
0.0
1030
0.0
  0
HATCH
  5
2D0
330
1F
100
AcDbEntity
  8
CONTEXT 1
 62
     1
100
AcDbHatch
 10
0.0
 20
0.0
 30
0.0
210
0.0
220
0.0
230
1.0
  2
SOLID
 70
     1
 71
     1
 91
        1
 92
        1
 93
        3
 72
     1
 10
156.1338924101767
 20
105.0450551715583
 11
156.1593068859985
 21
105.0874126312612
 72
     1
 10
156.1593068859985
 20
105.0874126312612
 11
156.0815237927351
 21
105.1015473545474
 72
     1
 10
156.0815237927351
 20
105.1015473545474
 11
156.1338924101767
 21
105.0450551715583
 97
        1
330
265
 75
     0
 76
     1
 98
        1
 10
0.0
 20
0.0
450
        1
451
        0
460
0.0
461
0.0
452
        1
462
0.0
453
        2
463
0.0
 63
    18
421
   327680
463
1.0
 63
    18
421
   327680
470
LINEAR
1001
ACAD
1010
0.0
1020
0.0
1030
0.0
  0
HATCH
  5
2D1
330
1F
100
AcDbEntity
  8
CONTEXT 1
 62
     1
100
AcDbHatch
 10
0.0
 20
0.0
 30
0.0
210
0.0
220
0.0
230
1.0
  2
SOLID
 70
     1
 71
     1
 91
        1
 92
        1
 93
        4
 72
     1
 10
156.2265328961756
 20
105.394662027686
 11
156.2308852188875
 21
105.443781098292
 72
     1
 10
156.2308852188875
 20
105.443781098292
 11
156.1534851772785
 21
105.4276803666652
 72
     1
 10
156.1534851772785
 20
105.4276803666652
 11
156.2250656495419
 21
105.3941209270013
 72
     1
 10
156.2250656495419
 20
105.3941209270013
 11
156.2265328961756
 21
105.394662027686
 97
        1
330
266
 75
     0
 76
     1
 98
        1
 10
0.0
 20
0.0
450
        1
451
        0
460
0.0
461
0.0
452
        1
462
0.0
453
        2
463
0.0
 63
    18
421
   327680
463
1.0
 63
    18
421
   327680
470
LINEAR
1001
ACAD
1010
0.0
1020
0.0
1030
0.0
  0
HATCH
  5
2D2
330
1F
100
AcDbEntity
  8
CONTEXT 1
 62
     1
100
AcDbHatch
 10
0.0
 20
0.0
 30
0.0
210
0.0
220
0.0
230
1.0
  2
SOLID
 70
     1
 71
     1
 91
        1
 92
        1
 93
        3
 72
     1
 10
157.0719893720224
 20
105.4092749086501
 11
157.1389814377908
 21
105.4384259230493
 72
     1
 10
157.1389814377908
 20
105.4384259230493
 11
157.0639976908798
 21
105.4562260353627
 72
     1
 10
157.0639976908798
 20
105.4562260353627
 11
157.0719893720224
 21
105.4092749086501
 97
        1
330
267
 75
     0
 76
     1
 98
        1
 10
0.0
 20
0.0
450
        1
451
        0
460
0.0
461
0.0
452
        1
462
0.0
453
        2
463
0.0
 63
    18
421
   327680
463
1.0
 63
    18
421
   327680
470
LINEAR
1001
ACAD
1010
0.0
1020
0.0
1030
0.0
  0
HATCH
  5
2D3
330
1F
100
AcDbEntity
  8
CONTEXT 1
 62
     1
100
AcDbHatch
 10
0.0
 20
0.0
 30
0.0
210
0.0
220
0.0
230
1.0
  2
SOLID
 70
     1
 71
     1
 91
        1
 92
        1
 93
        3
 72
     1
 10
157.1175738525294
 20
105.1878664201592
 11
157.1790951290252
 21
105.2330161568525
 72
     1
 10
157.1790951290252
 20
105.2330161568525
 11
157.1020317462985
 21
105.2338169951026
 72
     1
 10
157.1020317462985
 20
105.2338169951026
 11
157.1175738525294
 21
105.1878664201592
 97
        1
330
268
 75
     0
 76
     1
 98
        1
 10
0.0
 20
0.0
450
        1
451
        0
460
0.0
461
0.0
452
        1
462
0.0
453
        2
463
0.0
 63
    18
421
   327680
463
1.0
 63
    18
421
   327680
470
LINEAR
1001
ACAD
1010
0.0
1020
0.0
1030
0.0
  0
HATCH
  5
2D4
330
1F
100
AcDbEntity
  8
CONTEXT 1
 62
     1
100
AcDbHatch
 10
0.0
 20
0.0
 30
0.0
210
0.0
220
0.0
230
1.0
  2
SOLID
 70
     1
 71
     1
 91
        1
 92
        1
 93
        4
 72
     1
 10
157.2784382064636
 20
104.9469494759704
 11
157.3115892740665
 21
105.0145599974346
 72
     1
 10
157.3115892740665
 20
105.0145599974346
 11
157.2429278661887
 21
104.9795597493294
 72
     1
 10
157.2429278661887
 20
104.9795597493294
 11
157.2635387703945
 21
104.9567405339587
 72
     1
 10
157.2635387703945
 20
104.9567405339587
 11
157.2784382064636
 21
104.9469494759704
 97
        1
330
269
 75
     0
 76
     1
 98
        1
 10
0.0
 20
0.0
450
        1
451
        0
460
0.0
461
0.0
452
        1
462
0.0
453
        2
463
0.0
 63
    18
421
   327680
463
1.0
 63
    18
421
   327680
470
LINEAR
1001
ACAD
1010
0.0
1020
0.0
1030
0.0
  0
HATCH
  5
2D5
330
1F
100
AcDbEntity
  8
CONTEXT 1
 62
     1
100
AcDbHatch
 10
0.0
 20
0.0
 30
0.0
210
0.0
220
0.0
230
1.0
  2
SOLID
 70
     1
 71
     1
 91
        1
 92
        1
 93
        3
 72
     1
 10
157.5386584828966
 20
104.9022163304707
 11
157.5280580801842
 21
104.9696929642044
 72
     1
 10
157.5280580801842
 20
104.9696929642044
 11
157.4919461395487
 21
104.901609676661
 72
     1
 10
157.4919461395487
 20
104.901609676661
 11
157.5386584828966
 21
104.9022163304707
 97
        1
330
26A
 75
     0
 76
     1
 98
        1
 10
0.0
 20
0.0
450
        1
451
        0
460
0.0
461
0.0
452
        1
462
0.0
453
        2
463
0.0
 63
    18
421
   327680
463
1.0
 63
    18
421
   327680
470
LINEAR
1001
ACAD
1010
0.0
1020
0.0
1030
0.0
  0
HATCH
  5
2D6
330
1F
100
AcDbEntity
  8
CONTEXT 1
 62
     1
100
AcDbHatch
 10
0.0
 20
0.0
 30
0.0
210
0.0
220
0.0
230
1.0
  2
SOLID
 70
     1
 71
     1
 91
        1
 92
        1
 93
        3
 72
     1
 10
157.884279128738
 20
104.9334993914035
 11
157.8560355221581
 21
105.0052835262678
 72
     1
 10
157.8560355221581
 20
105.0052835262678
 11
157.8355793027921
 21
104.930980434889
 72
     1
 10
157.8355793027921
 20
104.930980434889
 11
157.884279128738
 21
104.9334993914035
 97
        1
330
26B
 75
     0
 76
     1
 98
        1
 10
0.0
 20
0.0
450
        1
451
        0
460
0.0
461
0.0
452
        1
462
0.0
453
        2
463
0.0
 63
    18
421
   327680
463
1.0
 63
    18
421
   327680
470
LINEAR
1001
ACAD
1010
0.0
1020
0.0
1030
0.0
  0
HATCH
  5
2D7
330
1F
100
AcDbEntity
  8
CONTEXT 1
 62
     1
100
AcDbHatch
 10
0.0
 20
0.0
 30
0.0
210
0.0
220
0.0
230
1.0
  2
SOLID
 70
     1
 71
     1
 91
        1
 92
        1
 93
        4
 72
     1
 10
158.1821552167426
 20
104.9382552247567
 11
158.2108766261433
 21
104.9564728044337
 72
     1
 10
158.2108766261433
 20
104.9564728044337
 11
158.1469935931522
 21
104.9951821982337
 72
     1
 10
158.1469935931522
 20
104.9951821982337
 11
158.1707550221052
 21
104.936123481044
 72
     1
 10
158.1707550221052
 20
104.936123481044
 11
158.1821552167426
 21
104.9382552247567
 97
        1
330
26C
 75
     0
 76
     1
 98
        1
 10
0.0
 20
0.0
450
        1
451
        0
460
0.0
461
0.0
452
        1
462
0.0
453
        2
463
0.0
 63
    18
421
   327680
463
1.0
 63
    18
421
   327680
470
LINEAR
1001
ACAD
1010
0.0
1020
0.0
1030
0.0
  0
HATCH
  5
2D8
330
1F
100
AcDbEntity
  8
CONTEXT 1
 62
     1
100
AcDbHatch
 10
0.0
 20
0.0
 30
0.0
210
0.0
220
0.0
230
1.0
  2
SOLID
 70
     1
 71
     1
 91
        1
 92
        1
 93
        3
 72
     1
 10
158.3162688019323
 20
105.1902578170892
 11
158.3162688019323
 21
105.2365137975882
 72
     1
 10
158.3162688019323
 20
105.2365137975882
 11
158.2534401631387
 21
105.2348892908104
 72
     1
 10
158.2534401631387
 20
105.2348892908104
 11
158.3162688019323
 21
105.1902578170892
 97
        1
330
26D
 75
     0
 76
     1
 98
        1
 10
0.0
 20
0.0
450
        1
451
        0
460
0.0
461
0.0
452
        1
462
0.0
453
        2
463
0.0
 63
    18
421
   327680
463
1.0
 63
    18
421
   327680
470
LINEAR
1001
ACAD
1010
0.0
1020
0.0
1030
0.0
  0
HATCH
  5
2D9
330
1F
100
AcDbEntity
  8
CONTEXT 1
 62
     1
100
AcDbHatch
 10
0.0
 20
0.0
 30
0.0
210
0.0
220
0.0
230
1.0
  2
SOLID
 70
     1
 71
     1
 91
        1
 92
        1
 93
        3
 72
     1
 10
158.3017316422796
 20
105.4134899072521
 11
158.2975834156932
 21
105.4625401466849
 72
     1
 10
158.2975834156932
 20
105.4625401466849
 11
158.22664901802
 21
105.4276358313824
 72
     1
 10
158.22664901802
 20
105.4276358313824
 11
158.3017316422796
 21
105.4134899072521
 97
        1
330
26E
 75
     0
 76
     1
 98
        1
 10
0.0
 20
0.0
450
        1
451
        0
460
0.0
461
0.0
452
        1
462
0.0
453
        2
463
0.0
 63
    18
421
   327680
463
1.0
 63
    18
421
   327680
470
LINEAR
1001
ACAD
1010
0.0
1020
0.0
1030
0.0
  0
HATCH
  5
2DA
330
1F
100
AcDbEntity
  8
CONTEXT 1
 62
     1
100
AcDbHatch
 10
0.0
 20
0.0
 30
0.0
210
0.0
220
0.0
230
1.0
  2
SOLID
 70
     1
 71
     1
 91
        1
 92
        1
 93
        4
 72
     1
 10
159.1642235102822
 20
105.4160892432848
 11
159.2367147529738
 21
105.4476331766639
 72
     1
 10
159.2367147529738
 20
105.4476331766639
 11
159.1617310060628
 21
105.4654332889773
 72
     1
 10
159.1617310060628
 20
105.4654332889773
 11
159.1617310060628
 21
105.4170191732461
 72
     1
 10
159.1617310060628
 20
105.4170191732461
 11
159.1642235102822
 21
105.4160892432848
 97
        1
330
26F
 75
     0
 76
     1
 98
        1
 10
0.0
 20
0.0
450
        1
451
        0
460
0.0
461
0.0
452
        1
462
0.0
453
        2
463
0.0
 63
    18
421
   327680
463
1.0
 63
    18
421
   327680
470
LINEAR
1001
ACAD
1010
0.0
1020
0.0
1030
0.0
  0
HATCH
  5
2DB
330
1F
100
AcDbEntity
  8
CONTEXT 1
 62
     1
100
AcDbHatch
 10
0.0
 20
0.0
 30
0.0
210
0.0
220
0.0
230
1.0
  2
SOLID
 70
     1
 71
     1
 91
        1
 92
        1
 93
        4
 72
     1
 10
159.1642235102822
 20
105.1698080807406
 11
159.2367147529738
 21
105.2013520141196
 72
     1
 10
159.2367147529738
 20
105.2013520141196
 11
159.1617310060628
 21
105.219152126433
 72
     1
 10
159.1617310060628
 20
105.219152126433
 11
159.1617310060628
 21
105.1707380107018
 72
     1
 10
159.1617310060628
 20
105.1707380107018
 11
159.1642235102822
 21
105.1698080807406
 97
        1
330
270
 75
     0
 76
     1
 98
        1
 10
0.0
 20
0.0
450
        1
451
        0
460
0.0
461
0.0
452
        1
462
0.0
453
        2
463
0.0
 63
    18
421
   327680
463
1.0
 63
    18
421
   327680
470
LINEAR
1001
ACAD
1010
0.0
1020
0.0
1030
0.0
  0
HATCH
  5
2DC
330
1F
100
AcDbEntity
  8
CONTEXT 1
 62
     1
100
AcDbHatch
 10
0.0
 20
0.0
 30
0.0
210
0.0
220
0.0
230
1.0
  2
SOLID
 70
     1
 71
     1
 91
        1
 92
        1
 93
        3
 72
     1
 10
159.1694230767886
 20
104.9253841170538
 11
159.2417782979864
 21
104.9568688618636
 72
     1
 10
159.2417782979864
 20
104.9568688618636
 11
159.1667945510754
 21
104.974668974177
 72
     1
 10
159.1667945510754
 20
104.974668974177
 11
159.1694230767886
 21
104.9253841170538
 97
        1
330
271
 75
     0
 76
     1
 98
        1
 10
0.0
 20
0.0
450
        1
451
        0
460
0.0
461
0.0
452
        1
462
0.0
453
        2
463
0.0
 63
    18
421
   327680
463
1.0
 63
    18
421
   327680
470
LINEAR
1001
ACAD
1010
0.0
1020
0.0
1030
0.0
  0
HATCH
  5
2DD
330
1F
100
AcDbEntity
  8
CONTEXT 1
 62
     1
100
AcDbHatch
 10
0.0
 20
0.0
 30
0.0
210
0.0
220
0.0
230
1.0
  2
SOLID
 70
     1
 71
     1
 91
        1
 92
        1
 93
        4
 72
     1
 10
160.5177960389154
 20
104.8862824239944
 11
160.517430932381
 21
104.9280922483605
 72
     1
 10
160.517430932381
 20
104.9280922483605
 11
160.5177959362553
 21
104.9348818137223
 72
     1
 10
160.5177959362553
 20
104.9348818137223
 11
160.4449033312399
 21
104.9113036043603
 72
     1
 10
160.4449033312399
 20
104.9113036043603
 11
160.5177960389154
 21
104.8862824239944
 97
        1
330
272
 75
     0
 76
     1
 98
        1
 10
0.0
 20
0.0
450
        1
451
        0
460
0.0
461
0.0
452
        1
462
0.0
453
        2
463
0.0
 63
    18
421
   327680
463
1.0
 63
    18
421
   327680
470
LINEAR
1001
ACAD
1010
0.0
1020
0.0
1030
0.0
  0
HATCH
  5
2DE
330
1F
100
AcDbEntity
  8
CONTEXT 1
 62
     1
100
AcDbHatch
 10
0.0
 20
0.0
 30
0.0
210
0.0
220
0.0
230
1.0
  2
SOLID
 70
     1
 71
     1
 91
        1
 92
        1
 93
        4
 72
     1
 10
160.5241195477521
 20
105.0525095338688
 11
160.5267643436032
 21
105.1017063111163
 72
     1
 10
160.5267643436032
 20
105.1017063111163
 11
160.5264465517104
 21
105.1018616612309
 72
     1
 10
160.5264465517104
 20
105.1018616612309
 11
160.4512268400766
 21
105.0775307142347
 72
     1
 10
160.4512268400766
 20
105.0775307142347
 11
160.5241195477521
 21
105.0525095338688
 97
        1
330
273
 75
     0
 76
     1
 98
        1
 10
0.0
 20
0.0
450
        1
451
        0
460
0.0
461
0.0
452
        1
462
0.0
453
        2
463
0.0
 63
    18
421
   327680
463
1.0
 63
    18
421
   327680
470
LINEAR
1001
ACAD
1010
0.0
1020
0.0
1030
0.0
  0
HATCH
  5
2DF
330
1F
100
AcDbEntity
  8
CONTEXT 1
 62
     1
100
AcDbHatch
 10
0.0
 20
0.0
 30
0.0
210
0.0
220
0.0
230
1.0
  2
SOLID
 70
     1
 71
     1
 91
        1
 92
        1
 93
        4
 72
     1
 10
160.5003471959686
 20
105.1471998403612
 11
160.4942359172816
 21
105.2199396324226
 72
     1
 10
160.4942359172816
 20
105.2199396324226
 11
160.4630956842544
 21
105.1702351146172
 72
     1
 10
160.4630956842544
 20
105.1702351146172
 11
160.4648966506425
 21
105.1684701675568
 72
     1
 10
160.4648966506425
 20
105.1684701675568
 11
160.5003471959686
 21
105.1471998403612
 97
        1
330
274
 75
     0
 76
     1
 98
        1
 10
0.0
 20
0.0
450
        1
451
        0
460
0.0
461
0.0
452
        1
462
0.0
453
        2
463
0.0
 63
    18
421
   327680
463
1.0
 63
    18
421
   327680
470
LINEAR
1001
ACAD
1010
0.0
1020
0.0
1030
0.0
  0
HATCH
  5
2E0
330
1F
100
AcDbEntity
  8
CONTEXT 1
 62
     1
100
AcDbHatch
 10
0.0
 20
0.0
 30
0.0
210
0.0
220
0.0
230
1.0
  2
SOLID
 70
     1
 71
     1
 91
        1
 92
        1
 93
        3
 72
     1
 10
160.3826630405659
 20
105.2494831324885
 11
160.4122470400146
 21
105.2932077595682
 72
     1
 10
160.4122470400146
 20
105.2932077595682
 11
160.3598369012463
 21
105.2751124819
 72
     1
 10
160.3598369012463
 20
105.2751124819
 11
160.3826630405659
 21
105.2494831324885
 97
        1
330
275
 75
     0
 76
     1
 98
        1
 10
0.0
 20
0.0
450
        1
451
        0
460
0.0
461
0.0
452
        1
462
0.0
453
        2
463
0.0
 63
    18
421
   327680
463
1.0
 63
    18
421
   327680
470
LINEAR
1001
ACAD
1010
0.0
1020
0.0
1030
0.0
  0
HATCH
  5
2E1
330
1F
100
AcDbEntity
  8
CONTEXT 1
 62
     1
100
AcDbHatch
 10
0.0
 20
0.0
 30
0.0
210
0.0
220
0.0
230
1.0
  2
SOLID
 70
     1
 71
     1
 91
        1
 92
        1
 93
        3
 72
     1
 10
160.3598369012464
 20
105.2751124818999
 11
160.3279228683586
 21
105.3109457819844
 72
     1
 10
160.3279228683586
 20
105.3109457819844
 11
160.2841034367946
 21
105.2893900398605
 72
     1
 10
160.2841034367946
 20
105.2893900398605
 11
160.3598369012464
 21
105.2751124818999
 97
        1
330
276
 75
     0
 76
     1
 98
        1
 10
0.0
 20
0.0
450
        1
451
        0
460
0.0
461
0.0
452
        1
462
0.0
453
        2
463
0.0
 63
    18
421
   327680
463
1.0
 63
    18
421
   327680
470
LINEAR
1001
ACAD
1010
0.0
1020
0.0
1030
0.0
  0
HATCH
  5
2E2
330
1F
100
AcDbEntity
  8
CONTEXT 1
 62
     1
100
AcDbHatch
 10
0.0
 20
0.0
 30
0.0
210
0.0
220
0.0
230
1.0
  2
SOLID
 70
     1
 71
     1
 91
        1
 92
        1
 93
        4
 72
     1
 10
160.2385289370598
 20
105.4244457113619
 11
160.2191770762224
 21
105.4506513562458
 72
     1
 10
160.2191770762224
 20
105.4506513562458
 11
160.2098286560198
 21
105.4618599266615
 72
     1
 10
160.2098286560198
 20
105.4618599266615
 11
160.162795472608
 21
105.4387232693225
 72
     1
 10
160.162795472608
 20
105.4387232693225
 11
160.2385289370598
 21
105.4244457113619
 97
        1
330
277
 75
     0
 76
     1
 98
        1
 10
0.0
 20
0.0
450
        1
451
        0
460
0.0
461
0.0
452
        1
462
0.0
453
        2
463
0.0
 63
    18
421
   327680
463
1.0
 63
    18
421
   327680
470
LINEAR
1001
ACAD
1010
0.0
1020
0.0
1030
0.0
  0
HATCH
  5
2E3
330
1F
100
AcDbEntity
  8
CONTEXT 1
 62
     1
100
AcDbHatch
 10
0.0
 20
0.0
 30
0.0
210
0.0
220
0.0
230
1.0
  2
SOLID
 70
     1
 71
     1
 91
        1
 92
        1
 93
        3
 72
     1
 10
160.8671102673292
 20
105.3319577877085
 11
160.8578195971774
 21
105.377592155965
 72
     1
 10
160.8578195971774
 20
105.377592155965
 11
160.8018869603292
 21
105.3730105162801
 72
     1
 10
160.8018869603292
 20
105.3730105162801
 11
160.8671102673292
 21
105.3319577877085
 97
        1
330
279
 75
     0
 76
     1
 98
        1
 10
0.0
 20
0.0
450
        1
451
        0
460
0.0
461
0.0
452
        1
462
0.0
453
        2
463
0.0
 63
    18
421
   327680
463
1.0
 63
    18
421
   327680
470
LINEAR
1001
ACAD
1010
0.0
1020
0.0
1030
0.0
  0
HATCH
  5
2E4
330
1F
100
AcDbEntity
  8
CONTEXT 1
 62
     1
100
AcDbHatch
 10
0.0
 20
0.0
 30
0.0
210
0.0
220
0.0
230
1.0
  2
SOLID
 70
     1
 71
     1
 91
        1
 92
        1
 93
        4
 72
     1
 10
160.8009776169462
 20
105.1748113178645
 11
160.8339553889804
 21
105.1944197228578
 72
     1
 10
160.8339553889804
 20
105.1944197228578
 11
160.7766933487227
 21
105.229204059275
 72
     1
 10
160.7766933487227
 20
105.229204059275
 11
160.7988407124796
 21
105.1739802994608
 72
     1
 10
160.7988407124796
 20
105.1739802994608
 11
160.8009776169462
 21
105.1748113178645
 97
        1
330
27A
 75
     0
 76
     1
 98
        1
 10
0.0
 20
0.0
450
        1
451
        0
460
0.0
461
0.0
452
        1
462
0.0
453
        2
463
0.0
 63
    18
421
   327680
463
1.0
 63
    18
421
   327680
470
LINEAR
1001
ACAD
1010
0.0
1020
0.0
1030
0.0
  0
HATCH
  5
2E5
330
1F
100
AcDbEntity
  8
CONTEXT 1
 62
     1
100
AcDbHatch
 10
0.0
 20
0.0
 30
0.0
210
0.0
220
0.0
230
1.0
  2
SOLID
 70
     1
 71
     1
 91
        1
 92
        1
 93
        3
 72
     1
 10
160.6935448735107
 20
105.1385438404382
 11
160.6566183083651
 21
105.2080290251343
 72
     1
 10
160.6566183083651
 20
105.2080290251343
 11
160.6447186192904
 21
105.1318857148627
 72
     1
 10
160.6447186192904
 20
105.1318857148627
 11
160.6935448735107
 21
105.1385438404382
 97
        1
330
27B
 75
     0
 76
     1
 98
        1
 10
0.0
 20
0.0
450
        1
451
        0
460
0.0
461
0.0
452
        1
462
0.0
453
        2
463
0.0
 63
    18
421
   327680
463
1.0
 63
    18
421
   327680
470
LINEAR
1001
ACAD
1010
0.0
1020
0.0
1030
0.0
  0
HATCH
  5
2E6
330
1F
100
AcDbEntity
  8
CONTEXT 1
 62
     1
100
AcDbHatch
 10
0.0
 20
0.0
 30
0.0
210
0.0
220
0.0
230
1.0
  2
SOLID
 70
     1
 71
     1
 91
        1
 92
        1
 93
        3
 72
     1
 10
161.3985227419211
 20
105.4236902857775
 11
161.4698719228472
 21
105.4555750833324
 72
     1
 10
161.4698719228472
 20
105.4555750833324
 11
161.3947168168694
 21
105.472637215223
 72
     1
 10
161.3947168168694
 20
105.472637215223
 11
161.3985227419211
 21
105.4236902857775
 97
        1
330
27C
 75
     0
 76
     1
 98
        1
 10
0.0
 20
0.0
450
        1
451
        0
460
0.0
461
0.0
452
        1
462
0.0
453
        2
463
0.0
 63
    18
421
   327680
463
1.0
 63
    18
421
   327680
470
LINEAR
1001
ACAD
1010
0.0
1020
0.0
1030
0.0
  0
HATCH
  5
2E7
330
1F
100
AcDbEntity
  8
CONTEXT 1
 62
     1
100
AcDbHatch
 10
0.0
 20
0.0
 30
0.0
210
0.0
220
0.0
230
1.0
  2
SOLID
 70
     1
 71
     1
 91
        1
 92
        1
 93
        3
 72
     1
 10
161.6911290396736
 20
105.3139137253228
 11
161.6899166008146
 21
105.362126902405
 72
     1
 10
161.6899166008146
 20
105.362126902405
 11
161.6182260192623
 21
105.3389048420262
 72
     1
 10
161.6182260192623
 20
105.3389048420262
 11
161.6911290396736
 21
105.3139137253228
 97
        1
330
27E
 75
     0
 76
     1
 98
        1
 10
0.0
 20
0.0
450
        1
451
        0
460
0.0
461
0.0
452
        1
462
0.0
453
        2
463
0.0
 63
    18
421
   327680
463
1.0
 63
    18
421
   327680
470
LINEAR
1001
ACAD
1010
0.0
1020
0.0
1030
0.0
  0
HATCH
  5
2E8
330
1F
100
AcDbEntity
  8
CONTEXT 1
 62
     1
100
AcDbHatch
 10
0.0
 20
0.0
 30
0.0
210
0.0
220
0.0
230
1.0
  2
SOLID
 70
     1
 71
     1
 91
        1
 92
        1
 93
        3
 72
     1
 10
162.0625439566199
 20
105.4180936136108
 11
162.0613167570105
 21
105.466302009381
 72
     1
 10
162.0613167570105
 20
105.466302009381
 11
161.9896409362085
 21
105.4430847303142
 72
     1
 10
161.9896409362085
 20
105.4430847303142
 11
162.0625439566199
 21
105.4180936136108
 97
        1
330
280
 75
     0
 76
     1
 98
        1
 10
0.0
 20
0.0
450
        1
451
        0
460
0.0
461
0.0
452
        1
462
0.0
453
        2
463
0.0
 63
    18
421
   327680
463
1.0
 63
    18
421
   327680
470
LINEAR
1001
ACAD
1010
0.0
1020
0.0
1030
0.0
  0
HATCH
  5
2E9
330
1F
100
AcDbEntity
  8
CONTEXT 1
 62
     1
100
AcDbHatch
 10
0.0
 20
0.0
 30
0.0
210
0.0
220
0.0
230
1.0
  2
SOLID
 70
     1
 71
     1
 91
        1
 92
        1
 93
        3
 72
     1
 10
162.0690393989927
 20
105.1633789036343
 11
162.0678033597001
 21
105.2115844360485
 72
     1
 10
162.0678033597001
 20
105.2115844360485
 11
161.9961363785814
 21
105.1883700203377
 72
     1
 10
161.9961363785814
 20
105.1883700203377
 11
162.0690393989927
 21
105.1633789036343
 97
        1
330
281
 75
     0
 76
     1
 98
        1
 10
0.0
 20
0.0
450
        1
451
        0
460
0.0
461
0.0
452
        1
462
0.0
453
        2
463
0.0
 63
    18
421
   327680
463
1.0
 63
    18
421
   327680
470
LINEAR
1001
ACAD
1010
0.0
1020
0.0
1030
0.0
  0
HATCH
  5
2EA
330
1F
100
AcDbEntity
  8
CONTEXT 1
 62
     1
100
AcDbHatch
 10
0.0
 20
0.0
 30
0.0
210
0.0
220
0.0
230
1.0
  2
SOLID
 70
     1
 71
     1
 91
        1
 92
        1
 93
        4
 72
     1
 10
161.6951569609718
 20
105.1537416214876
 11
161.6945644412172
 21
105.1773034362889
 72
     1
 10
161.6945644412172
 20
105.1773034362889
 11
161.6236137773286
 21
105.1543210505269
 72
     1
 10
161.6236137773286
 20
105.1543210505269
 11
161.69651679774
 21
105.1293299338235
 72
     1
 10
161.69651679774
 20
105.1293299338235
 11
161.6951569609718
 21
105.1537416214876
 97
        1
330
282
 75
     0
 76
     1
 98
        1
 10
0.0
 20
0.0
450
        1
451
        0
460
0.0
461
0.0
452
        1
462
0.0
453
        2
463
0.0
 63
    18
421
   327680
463
1.0
 63
    18
421
   327680
470
LINEAR
1001
ACAD
1010
0.0
1020
0.0
1030
0.0
  0
HATCH
  5
2EB
330
1F
100
AcDbEntity
  8
CONTEXT 1
 62
     1
100
AcDbHatch
 10
0.0
 20
0.0
 30
0.0
210
0.0
220
0.0
230
1.0
  2
SOLID
 70
     1
 71
     1
 91
        1
 92
        1
 93
        3
 72
     1
 10
162.0834787491739
 20
104.9136769646407
 11
162.0798846796505
 21
104.96111868235
 72
     1
 10
162.0798846796505
 20
104.96111868235
 11
162.0105757287625
 21
104.9386680813441
 72
     1
 10
162.0105757287625
 20
104.9386680813441
 11
162.0834787491739
 21
104.9136769646407
 97
        1
330
284
 75
     0
 76
     1
 98
        1
 10
0.0
 20
0.0
450
        1
451
        0
460
0.0
461
0.0
452
        1
462
0.0
453
        2
463
0.0
 63
    18
421
   327680
463
1.0
 63
    18
421
   327680
470
LINEAR
1001
ACAD
1010
0.0
1020
0.0
1030
0.0
  0
HATCH
  5
2EC
330
1F
100
AcDbEntity
  8
CONTEXT 1
 62
     1
100
AcDbHatch
 10
0.0
 20
0.0
 30
0.0
210
0.0
220
0.0
230
1.0
  2
SOLID
 70
     1
 71
     1
 91
        1
 92
        1
 93
        3
 72
     1
 10
161.475395193256
 20
104.9738455841205
 11
161.4032223108927
 21
105.0008730026163
 72
     1
 10
161.4032223108927
 20
105.0008730026163
 11
161.4054777516
 21
104.9533474353579
 72
     1
 10
161.4054777516
 20
104.9533474353579
 11
161.475395193256
 21
104.9738455841205
 97
        1
330
285
 75
     0
 76
     1
 98
        1
 10
0.0
 20
0.0
450
        1
451
        0
460
0.0
461
0.0
452
        1
462
0.0
453
        2
463
0.0
 63
    18
421
   327680
463
1.0
 63
    18
421
   327680
470
LINEAR
1001
ACAD
1010
0.0
1020
0.0
1030
0.0
  0
HATCH
  5
302
330
1F
100
AcDbEntity
  8
CONTEXT 1
 62
     1
100
AcDbHatch
 10
0.0
 20
0.0
 30
0.0
210
0.0
220
0.0
230
1.0
  2
SOLID
 70
     1
 71
     1
 91
        1
 92
        1
 93
        3
 72
     1
 10
160.0760654311094
 20
107.3662958448715
 11
160.1300602556432
 21
107.4240414847377
 72
     1
 10
160.1300602556432
 20
107.4240414847377
 11
160.0609908865471
 21
107.4117972512184
 72
     1
 10
160.0609908865471
 20
107.4117972512184
 11
160.0760654311094
 21
107.3662958448715
 97
        1
330
25A
 75
     0
 76
     1
 98
        1
 10
0.0
 20
0.0
450
        1
451
        0
460
0.0
461
0.0
452
        1
462
0.0
453
        2
463
0.0
 63
    18
421
   327680
463
1.0
 63
    18
421
   327680
470
LINEAR
1001
ACAD
1010
0.0
1020
0.0
1030
0.0
  0
HATCH
  5
303
330
1F
100
AcDbEntity
  8
CONTEXT 1
 62
     1
100
AcDbHatch
 10
0.0
 20
0.0
 30
0.0
210
0.0
220
0.0
230
1.0
  2
SOLID
 70
     1
 71
     1
 91
        1
 92
        1
 93
        3
 72
     1
 10
160.2510153435388
 20
107.0974046895089
 11
160.2712987488083
 21
107.1738153135782
 72
     1
 10
160.2712987488083
 20
107.1738153135782
 11
160.2097718206891
 21
107.1252876345341
 72
     1
 10
160.2097718206891
 20
107.1252876345341
 11
160.2510153435388
 21
107.0974046895089
 97
        1
330
25B
 75
     0
 76
     1
 98
        1
 10
0.0
 20
0.0
450
        1
451
        0
460
0.0
461
0.0
452
        1
462
0.0
453
        2
463
0.0
 63
    18
421
   327680
463
1.0
 63
    18
421
   327680
470
LINEAR
1001
ACAD
1010
0.0
1020
0.0
1030
0.0
  0
HATCH
  5
304
330
1F
100
AcDbEntity
  8
CONTEXT 1
 62
     1
100
AcDbHatch
 10
0.0
 20
0.0
 30
0.0
210
0.0
220
0.0
230
1.0
  2
SOLID
 70
     1
 71
     1
 91
        1
 92
        1
 93
        3
 72
     1
 10
160.5837159675386
 20
107.0421823351216
 11
160.554454131979
 21
107.1156244550506
 72
     1
 10
160.554454131979
 20
107.1156244550506
 11
160.5339286923253
 21
107.0397952739812
 72
     1
 10
160.5339286923253
 20
107.0397952739812
 11
160.5837159675386
 21
107.0421823351216
 97
        1
330
25C
 75
     0
 76
     1
 98
        1
 10
0.0
 20
0.0
450
        1
451
        0
460
0.0
461
0.0
452
        1
462
0.0
453
        2
463
0.0
 63
    18
421
   327680
463
1.0
 63
    18
421
   327680
470
LINEAR
1001
ACAD
1010
0.0
1020
0.0
1030
0.0
  0
HATCH
  5
305
330
1F
100
AcDbEntity
  8
CONTEXT 1
 62
     1
100
AcDbHatch
 10
0.0
 20
0.0
 30
0.0
210
0.0
220
0.0
230
1.0
  2
SOLID
 70
     1
 71
     1
 91
        1
 92
        1
 93
        3
 72
     1
 10
160.8667288950459
 20
107.0813765604207
 11
160.8196176552966
 21
107.1445578031781
 72
     1
 10
160.8196176552966
 20
107.1445578031781
 11
160.8194123436382
 21
107.0709255629571
 72
     1
 10
160.8194123436382
 20
107.0709255629571
 11
160.8667288950459
 21
107.0813765604207
 97
        1
330
25D
 75
     0
 76
     1
 98
        1
 10
0.0
 20
0.0
450
        1
451
        0
460
0.0
461
0.0
452
        1
462
0.0
453
        2
463
0.0
 63
    18
421
   327680
463
1.0
 63
    18
421
   327680
470
LINEAR
1001
ACAD
1010
0.0
1020
0.0
1030
0.0
  0
HATCH
  5
306
330
1F
100
AcDbEntity
  8
CONTEXT 1
 62
     1
100
AcDbHatch
 10
0.0
 20
0.0
 30
0.0
210
0.0
220
0.0
230
1.0
  2
SOLID
 70
     1
 71
     1
 91
        1
 92
        1
 93
        4
 72
     1
 10
161.1080347378669
 20
107.2501898738481
 11
161.1299055822032
 21
107.2880637750159
 72
     1
 10
161.1299055822032
 20
107.2880637750159
 11
161.1325398918535
 21
107.2926959207467
 72
     1
 10
161.1325398918535
 20
107.2926959207467
 11
161.0542338029034
 21
107.3035658992811
 72
     1
 10
161.0542338029034
 20
107.3035658992811
 11
161.1080347378669
 21
107.2501898738481
 97
        1
330
25E
 75
     0
 76
     1
 98
        1
 10
0.0
 20
0.0
450
        1
451
        0
460
0.0
461
0.0
452
        1
462
0.0
453
        2
463
0.0
 63
    18
421
   327680
463
1.0
 63
    18
421
   327680
470
LINEAR
1001
ACAD
1010
0.0
1020
0.0
1030
0.0
  0
HATCH
  5
307
330
1F
100
AcDbEntity
  8
CONTEXT 1
 62
     1
100
AcDbHatch
 10
0.0
 20
0.0
 30
0.0
210
0.0
220
0.0
230
1.0
  2
SOLID
 70
     1
 71
     1
 91
        1
 92
        1
 93
        4
 72
     1
 10
161.1882467676834
 20
107.4098979431943
 11
161.1945575728083
 21
107.4460416452733
 72
     1
 10
161.1945575728083
 20
107.4460416452733
 11
161.1938123017093
 21
107.4589160403336
 72
     1
 10
161.1938123017093
 20
107.4589160403336
 11
161.1172541123596
 21
107.4391969216036
 72
     1
 10
161.1172541123596
 20
107.4391969216036
 11
161.1882467676834
 21
107.4098979431943
 97
        1
330
25F
 75
     0
 76
     1
 98
        1
 10
0.0
 20
0.0
450
        1
451
        0
460
0.0
461
0.0
452
        1
462
0.0
453
        2
463
0.0
 63
    18
421
   327680
463
1.0
 63
    18
421
   327680
470
LINEAR
1001
ACAD
1010
0.0
1020
0.0
1030
0.0
  0
HATCH
  5
3A9
330
1F
100
AcDbEntity
  8
CONTEXT 1
 62
     1
100
AcDbHatch
 10
0.0
 20
0.0
 30
0.0
210
0.0
220
0.0
230
1.0
  2
SOLID
 70
     1
 71
     1
 91
        1
 92
        1
 93
        3
 72
     1
 10
160.82953801477
 20
105.4793520269427
 11
160.8137054080445
 21
105.5250286336487
 72
     1
 10
160.8137054080445
 20
105.5250286336487
 11
160.7524778589029
 21
105.4804191150016
 72
     1
 10
160.7524778589029
 20
105.4804191150016
 11
160.82953801477
 21
105.4793520269427
 97
        1
330
278
 75
     0
 76
     1
 98
        1
 10
0.0
 20
0.0
450
        1
451
        0
460
0.0
461
0.0
452
        1
462
0.0
453
        2
463
0.0
 63
    18
421
   327680
463
1.0
 63
    18
421
   327680
470
LINEAR
1001
ACAD
1010
0.0
1020
0.0
1030
0.0
  0
HATCH
  5
3AA
330
1F
100
AcDbEntity
  8
CONTEXT 1
 62
     1
100
AcDbHatch
 10
0.0
 20
0.0
 30
0.0
210
0.0
220
0.0
230
1.0
  2
SOLID
 70
     1
 71
     1
 91
        1
 92
        1
 93
        4
 72
     1
 10
161.6867149949983
 20
105.4894401990886
 11
161.6867149949983
 21
105.5202784520067
 72
     1
 10
161.6867149949983
 20
105.5202784520067
 11
161.6142551758089
 21
105.496807219666
 72
     1
 10
161.6142551758089
 20
105.496807219666
 11
161.6871581962203
 21
105.4718161029625
 72
     1
 10
161.6871581962203
 20
105.4718161029625
 11
161.6867149949983
 21
105.4894401990886
 97
        1
330
27D
 75
     0
 76
     1
 98
        1
 10
0.0
 20
0.0
450
        1
451
        0
460
0.0
461
0.0
452
        1
462
0.0
453
        2
463
0.0
 63
    18
421
   327680
463
1.0
 63
    18
421
   327680
470
LINEAR
1001
ACAD
1010
0.0
1020
0.0
1030
0.0
  0
LWPOLYLINE
  5
3AB
330
1F
100
AcDbEntity
  8
CONTEXT 1
 62
     1
100
AcDbPolyline
 90
        3
 70
     0
 43
0.0
 10
161.7070387453643
 20
104.9404407193044
 10
161.630841670842
 20
104.9619948777176
 10
161.7045112060877
 20
104.9858149148126
  0
LWPOLYLINE
  5
3AC
102
{ACAD_REACTORS
330
3AE
102
}
330
1F
100
AcDbEntity
  8
CONTEXT 1
 62
     1
100
AcDbPolyline
 90
        3
 70
     1
 43
0.0
 10
161.7070387453643
 20
104.9404407193044
 10
161.7045112060877
 20
104.9858149148126
 10
161.630841670842
 20
104.9619948777176
  0
HATCH
  5
3AE
330
1F
100
AcDbEntity
  8
CONTEXT 1
 62
     1
100
AcDbHatch
 10
0.0
 20
0.0
 30
0.0
210
0.0
220
0.0
230
1.0
  2
SOLID
 70
     1
 71
     1
 91
        1
 92
        1
 93
        3
 72
     1
 10
161.7070387453643
 20
104.9404407193044
 11
161.7045112060877
 21
104.9858149148126
 72
     1
 10
161.7045112060877
 20
104.9858149148126
 11
161.630841670842
 21
104.9619948777176
 72
     1
 10
161.630841670842
 20
104.9619948777176
 11
161.7070387453643
 21
104.9404407193044
 97
        1
330
3AC
 75
     0
 76
     1
 98
        1
 10
0.0
 20
0.0
450
        1
451
        0
460
0.0
461
0.0
452
        1
462
0.0
453
        2
463
0.0
 63
    18
421
   327680
463
1.0
 63
    18
421
   327680
470
LINEAR
1001
ACAD
1010
0.0
1020
0.0
1030
0.0
  0
LINE
  5
3AF
330
1F
100
AcDbEntity
  8
CONTEXT 1
 62
     1
100
AcDbLine
 10
161.6218840438148
 20
105.4992783676134
 30
0.0
 11
161.5854182277401
 21
105.4995807571168
 31
0.0
  0
LINE
  5
3B0
330
1F
100
AcDbEntity
  8
CONTEXT 1
 62
     1
100
AcDbLine
 10
161.6182260192623
 20
105.3389048420262
 30
0.0
 11
161.5866864578016
 21
105.3372473092418
 31
0.0
  0
LINE
  5
3B1
330
1F
100
AcDbEntity
  8
CONTEXT 1
 62
     1
100
AcDbLine
 10
161.6236137773286
 20
105.1543210505269
 30
0.0
 11
161.5854182277401
 21
105.1508174901979
 31
0.0
  0
LWPOLYLINE
  5
4FF
330
1F
100
AcDbEntity
  8
DRAWING POINT
 62
     5
100
AcDbPolyline
 90
        9
 70
     0
 43
0.0
 10
154.9451102662563
 20
108.3336595359101
 10
155.0251102662563
 20
108.3336595359101
 10
154.9851102662563
 20
108.3336595359101
 10
154.9851102662563
 20
108.2936595359101
 10
154.9851102662563
 20
108.3736595359101
 10
154.9851102662563
 20
108.3336595359101
 10
155.0251102662563
 20
108.3336595359101
 10
155.0051102662563
 20
108.3336595359101
 10
155.0051102662563
 20
108.3336595359101
  0
CIRCLE
  5
500
330
1F
100
AcDbEntity
  8
DRAWING POINT
 62
     5
100
AcDbCircle
 10
154.9851102662563
 20
108.3336595359101
 30
0.0
 40
0.0200000000000102
  0
LWPOLYLINE
  5
501
330
1F
100
AcDbEntity
  8
DRAWING POINT
 62
     5
100
AcDbPolyline
 90
        9
 70
     0
 43
0.0
 10
154.9451102662563
 20
108.3336595359101
 10
155.0251102662563
 20
108.3336595359101
 10
154.9851102662563
 20
108.3336595359101
 10
154.9851102662563
 20
108.2936595359101
 10
154.9851102662563
 20
108.3736595359101
 10
154.9851102662563
 20
108.3336595359101
 10
155.0251102662563
 20
108.3336595359101
 10
155.0051102662563
 20
108.3336595359101
 10
155.0051102662563
 20
108.3336595359101
  0
CIRCLE
  5
502
330
1F
100
AcDbEntity
  8
DRAWING POINT
 62
     5
100
AcDbCircle
 10
154.9851102662563
 20
108.3336595359101
 30
0.0
 40
0.0200000000000102
  0
LWPOLYLINE
  5
503
330
1F
100
AcDbEntity
  8
DRAWING POINT
 62
     5
100
AcDbPolyline
 90
        9
 70
     0
 43
0.0
 10
159.1457178954626
 20
108.3336595359101
 10
159.2257178954626
 20
108.3336595359101
 10
159.1857178954626
 20
108.3336595359101
 10
159.1857178954626
 20
108.2936595359101
 10
159.1857178954626
 20
108.3736595359101
 10
159.1857178954626
 20
108.3336595359101
 10
159.2257178954626
 20
108.3336595359101
 10
159.2057178954626
 20
108.3336595359101
 10
159.2057178954626
 20
108.3336595359101
  0
CIRCLE
  5
504
330
1F
100
AcDbEntity
  8
DRAWING POINT
 62
     5
100
AcDbCircle
 10
159.1857178954626
 20
108.3336595359101
 30
0.0
 40
0.0200000000000102
  0
TEXT
  5
505
330
1F
100
AcDbEntity
  8
Co-ord
100
AcDbText
 10
159.2257178954626
 20
108.2686595359101
 30
0.0
 40
0.025
  1
N 258880.64
  7
Text
 11
159.2257178954626
 21
108.2936595359101
 31
0.0
100
AcDbText
 73
     3
  0
TEXT
  5
506
330
1F
100
AcDbEntity
  8
Co-ord
100
AcDbText
 10
154.7468927974506
 20
108.3031270276231
 30
0.0
 40
0.025
  1
E 442943.93
  7
Text
 72
     2
 11
154.9451102662563
 21
108.2936595359101
 31
0.0
100
AcDbText
 73
     1
  0
TEXT
  5
507
330
1F
100
AcDbEntity
  8
Co-ord
100
AcDbText
 10
154.7449664128617
 20
108.2686595359101
 30
0.0
 40
0.025
  1
N 258876.64
  7
Text
 72
     2
 11
154.9451102662563
 21
108.2936595359101
 31
0.0
100
AcDbText
 73
     3
  0
TEXT
  5
508
330
1F
100
AcDbEntity
  8
Co-ord
100
AcDbText
 10
159.2257178954626
 20
108.3031270276231
 30
0.0
 40
0.025
  1
E 442945.16
  7
Text
 11
159.2257178954626
 21
108.2936595359101
 31
0.0
100
AcDbText
 73
     1
  0
TEXT
  5
509
330
1F
100
AcDbEntity
  8
DRAWING POINT
100
AcDbText
 10
159.2257178954626
 20
108.3431270276231
 30
0.0
 40
0.025
  1
dp74.2
  7
Text
 11
159.2257178954626
 21
108.3336595359101
 31
0.0
100
AcDbText
 73
     1
  0
TEXT
  5
50A
330
1F
100
AcDbEntity
  8
DRAWING POINT
100
AcDbText
 10
154.8382084305618
 20
108.3431270276231
 30
0.0
 40
0.025
  1
dp74,1
  7
Text
 72
     2
 11
154.9451102662563
 21
108.3336595359101
 31
0.0
100
AcDbText
 73
     1
  0
LWPOLYLINE
  5
50B
330
1F
100
AcDbEntity
  8
DRAWING POINT
 62
     5
100
AcDbPolyline
 90
        9
 70
     0
 43
0.0
 10
159.942021689779
 20
107.5439778130562
 10
160.022021689779
 20
107.5439778130562
 10
159.982021689779
 20
107.5439778130562
 10
159.982021689779
 20
107.5039778130562
 10
159.982021689779
 20
107.5839778130562
 10
159.982021689779
 20
107.5439778130562
 10
160.022021689779
 20
107.5439778130562
 10
160.002021689779
 20
107.5439778130562
 10
160.002021689779
 20
107.5439778130562
  0
CIRCLE
  5
50C
330
1F
100
AcDbEntity
  8
DRAWING POINT
 62
     5
100
AcDbCircle
 10
159.982021689779
 20
107.5439778130562
 30
0.0
 40
0.0200000000000102
  0
LWPOLYLINE
  5
50D
330
1F
100
AcDbEntity
  8
DRAWING POINT
 62
     5
100
AcDbPolyline
 90
        9
 70
     0
 43
0.0
 10
159.942021689779
 20
107.5439778130562
 10
160.022021689779
 20
107.5439778130562
 10
159.982021689779
 20
107.5439778130562
 10
159.982021689779
 20
107.5039778130562
 10
159.982021689779
 20
107.5839778130562
 10
159.982021689779
 20
107.5439778130562
 10
160.022021689779
 20
107.5439778130562
 10
160.002021689779
 20
107.5439778130562
 10
160.002021689779
 20
107.5439778130562
  0
CIRCLE
  5
50E
330
1F
100
AcDbEntity
  8
DRAWING POINT
 62
     5
100
AcDbCircle
 10
159.982021689779
 20
107.5439778130562
 30
0.0
 40
0.0200000000000102
  0
LWPOLYLINE
  5
50F
330
1F
100
AcDbEntity
  8
DRAWING POINT
 62
     5
100
AcDbPolyline
 90
        9
 70
     0
 43
0.0
 10
161.2777078043648
 20
107.5439778130562
 10
161.3577078043648
 20
107.5439778130562
 10
161.3177078043648
 20
107.5439778130562
 10
161.3177078043648
 20
107.5039778130562
 10
161.3177078043648
 20
107.5839778130562
 10
161.3177078043648
 20
107.5439778130562
 10
161.3577078043648
 20
107.5439778130562
 10
161.3377078043648
 20
107.5439778130562
 10
161.3377078043648
 20
107.5439778130562
  0
CIRCLE
  5
510
330
1F
100
AcDbEntity
  8
DRAWING POINT
 62
     5
100
AcDbCircle
 10
161.3177078043648
 20
107.5439778130562
 30
0.0
 40
0.0200000000000102
  0
TEXT
  5
511
330
1F
100
AcDbEntity
  8
Co-ord
100
AcDbText
 10
161.3577078043648
 20
107.4789778130562
 30
0.0
 40
0.025
  1
N 258877.05
  7
Text
 11
161.3577078043648
 21
107.5039778130562
 31
0.0
100
AcDbText
 73
     3
  0
TEXT
  5
512
330
1F
100
AcDbEntity
  8
Co-ord
100
AcDbText
 10
159.7438042209733
 20
107.5134453047692
 30
0.0
 40
0.025
  1
E 442945.48
  7
Text
 72
     2
 11
159.942021689779
 21
107.5039778130562
 31
0.0
100
AcDbText
 73
     1
  0
TEXT
  5
513
330
1F
100
AcDbEntity
  8
Co-ord
100
AcDbText
 10
159.7418778363844
 20
107.4789778130562
 30
0.0
 40
0.025
  1
N 258875.88
  7
Text
 72
     2
 11
159.942021689779
 21
107.5039778130562
 31
0.0
100
AcDbText
 73
     3
  0
TEXT
  5
514
330
1F
100
AcDbEntity
  8
Co-ord
100
AcDbText
 10
161.3577078043648
 20
107.5134453047692
 30
0.0
 40
0.025
  1
E 442946.05
  7
Text
 11
161.3577078043648
 21
107.5039778130562
 31
0.0
100
AcDbText
 73
     1
  0
TEXT
  5
515
330
1F
100
AcDbEntity
  8
DRAWING POINT
100
AcDbText
 10
161.3577078043648
 20
107.5534453047692
 30
0.0
 40
0.025
  1
dp77.2
  7
Text
 11
161.3577078043648
 21
107.5439778130562
 31
0.0
100
AcDbText
 73
     1
  0
TEXT
  5
516
330
1F
100
AcDbEntity
  8
DRAWING POINT
100
AcDbText
 10
159.8351198540846
 20
107.5534453047692
 30
0.0
 40
0.025
  1
dp77.1
  7
Text
 72
     2
 11
159.942021689779
 21
107.5439778130562
 31
0.0
100
AcDbText
 73
     1
  0
LWPOLYLINE
  5
517
330
1F
100
AcDbEntity
  8
DRAWING POINT
 62
     5
100
AcDbPolyline
 90
        9
 70
     0
 43
0.0
 10
154.9495616963768
 20
105.5381495523389
 10
155.0295616963768
 20
105.5381495523389
 10
154.9895616963769
 20
105.5381495523389
 10
154.9895616963769
 20
105.4981495523389
 10
154.9895616963769
 20
105.5781495523389
 10
154.9895616963769
 20
105.5381495523389
 10
155.0295616963768
 20
105.5381495523389
 10
155.0095616963768
 20
105.5381495523389
 10
155.0095616963768
 20
105.5381495523389
  0
CIRCLE
  5
518
330
1F
100
AcDbEntity
  8
DRAWING POINT
 62
     5
100
AcDbCircle
 10
154.9895616963769
 20
105.5381495523389
 30
0.0
 40
0.0200000000000102
  0
LWPOLYLINE
  5
519
330
1F
100
AcDbEntity
  8
DRAWING POINT
 62
     5
100
AcDbPolyline
 90
        9
 70
     0
 43
0.0
 10
154.9495616963768
 20
105.5381495523389
 10
155.0295616963768
 20
105.5381495523389
 10
154.9895616963769
 20
105.5381495523389
 10
154.9895616963769
 20
105.4981495523389
 10
154.9895616963769
 20
105.5781495523389
 10
154.9895616963769
 20
105.5381495523389
 10
155.0295616963768
 20
105.5381495523389
 10
155.0095616963768
 20
105.5381495523389
 10
155.0095616963768
 20
105.5381495523389
  0
CIRCLE
  5
51A
330
1F
100
AcDbEntity
  8
DRAWING POINT
 62
     5
100
AcDbCircle
 10
154.9895616963769
 20
105.5381495523389
 30
0.0
 40
0.0200000000000102
  0
LWPOLYLINE
  5
51B
330
1F
100
AcDbEntity
  8
DRAWING POINT
 62
     5
100
AcDbPolyline
 90
        9
 70
     0
 43
0.0
 10
156.3911825866239
 20
105.5381495523389
 10
156.4711825866239
 20
105.5381495523389
 10
156.4311825866239
 20
105.5381495523389
 10
156.4311825866239
 20
105.4981495523389
 10
156.4311825866239
 20
105.5781495523389
 10
156.4311825866239
 20
105.5381495523389
 10
156.4711825866239
 20
105.5381495523389
 10
156.4511825866239
 20
105.5381495523389
 10
156.4511825866239
 20
105.5381495523389
  0
CIRCLE
  5
51C
330
1F
100
AcDbEntity
  8
DRAWING POINT
 62
     5
100
AcDbCircle
 10
156.4311825866239
 20
105.5381495523389
 30
0.0
 40
0.0200000000000102
  0
TEXT
  5
51D
330
1F
100
AcDbEntity
  8
Co-ord
100
AcDbText
 10
156.4711825866239
 20
105.4731495523389
 30
0.0
 40
0.025
  1
N 258881.10
  7
Text
 11
156.4711825866239
 21
105.4981495523389
 31
0.0
100
AcDbText
 73
     3
  0
TEXT
  5
51E
330
1F
100
AcDbEntity
  8
Co-ord
100
AcDbText
 10
154.7513442275712
 20
105.5076170440519
 30
0.0
 40
0.025
  1
E 442947.49
  7
Text
 72
     2
 11
154.9495616963769
 21
105.4981495523389
 31
0.0
100
AcDbText
 73
     1
  0
TEXT
  5
51F
330
1F
100
AcDbEntity
  8
Co-ord
100
AcDbText
 10
154.7494178429822
 20
105.4731495523389
 30
0.0
 40
0.025
  1
N 258879.76
  7
Text
 72
     2
 11
154.9495616963769
 21
105.4981495523389
 31
0.0
100
AcDbText
 73
     3
  0
TEXT
  5
520
330
1F
100
AcDbEntity
  8
Co-ord
100
AcDbText
 10
156.4711825866239
 20
105.5076170440519
 30
0.0
 40
0.025
  1
E 442948.03
  7
Text
 11
156.4711825866239
 21
105.4981495523389
 31
0.0
100
AcDbText
 73
     1
  0
TEXT
  5
521
330
1F
100
AcDbEntity
  8
DRAWING POINT
100
AcDbText
 10
156.4711825866239
 20
105.5476170440519
 30
0.0
 40
0.025
  1
dp75.2
  7
Text
 11
156.4711825866239
 21
105.5381495523389
 31
0.0
100
AcDbText
 73
     1
  0
TEXT
  5
522
330
1F
100
AcDbEntity
  8
DRAWING POINT
100
AcDbText
 10
154.8426598606824
 20
105.5476170440519
 30
0.0
 40
0.025
  1
dp75.1
  7
Text
 72
     2
 11
154.9495616963768
 21
105.5381495523389
 31
0.0
100
AcDbText
 73
     1
  0
LWPOLYLINE
  5
523
330
1F
100
AcDbEntity
  8
DRAWING POINT
 62
     5
100
AcDbPolyline
 90
        9
 70
     0
 43
0.0
 10
156.9570199713347
 20
105.5497799018267
 10
157.0370199713348
 20
105.5497799018267
 10
156.9970199713348
 20
105.5497799018267
 10
156.9970199713348
 20
105.5097799018267
 10
156.9970199713348
 20
105.5897799018267
 10
156.9970199713348
 20
105.5497799018267
 10
157.0370199713348
 20
105.5497799018267
 10
157.0170199713347
 20
105.5497799018267
 10
157.0170199713347
 20
105.5497799018267
  0
CIRCLE
  5
524
330
1F
100
AcDbEntity
  8
DRAWING POINT
 62
     5
100
AcDbCircle
 10
156.9970199713348
 20
105.5497799018267
 30
0.0
 40
0.0200000000000102
  0
LWPOLYLINE
  5
525
330
1F
100
AcDbEntity
  8
DRAWING POINT
 62
     5
100
AcDbPolyline
 90
        9
 70
     0
 43
0.0
 10
156.9570199713347
 20
105.5497799018267
 10
157.0370199713348
 20
105.5497799018267
 10
156.9970199713348
 20
105.5497799018267
 10
156.9970199713348
 20
105.5097799018267
 10
156.9970199713348
 20
105.5897799018267
 10
156.9970199713348
 20
105.5497799018267
 10
157.0370199713348
 20
105.5497799018267
 10
157.0170199713347
 20
105.5497799018267
 10
157.0170199713347
 20
105.5497799018267
  0
CIRCLE
  5
526
330
1F
100
AcDbEntity
  8
DRAWING POINT
 62
     5
100
AcDbCircle
 10
156.9970199713348
 20
105.5497799018267
 30
0.0
 40
0.0200000000000102
  0
LWPOLYLINE
  5
527
330
1F
100
AcDbEntity
  8
DRAWING POINT
 62
     5
100
AcDbPolyline
 90
        9
 70
     0
 43
0.0
 10
158.3197926207256
 20
105.5497799018267
 10
158.3997926207256
 20
105.5497799018267
 10
158.3597926207256
 20
105.5497799018267
 10
158.3597926207256
 20
105.5097799018267
 10
158.3597926207256
 20
105.5897799018267
 10
158.3597926207256
 20
105.5497799018267
 10
158.3997926207256
 20
105.5497799018267
 10
158.3797926207256
 20
105.5497799018267
 10
158.3797926207256
 20
105.5497799018267
  0
CIRCLE
  5
528
330
1F
100
AcDbEntity
  8
DRAWING POINT
 62
     5
100
AcDbCircle
 10
158.3597926207256
 20
105.5497799018267
 30
0.0
 40
0.0200000000000102
  0
TEXT
  5
529
330
1F
100
AcDbEntity
  8
Co-ord
100
AcDbText
 10
158.3997926207256
 20
105.4847799018267
 30
0.0
 40
0.025
  1
N 258875.26
  7
Text
 11
158.3997926207256
 21
105.5097799018267
 31
0.0
100
AcDbText
 73
     3
  0
TEXT
  5
52A
330
1F
100
AcDbEntity
  8
Co-ord
100
AcDbText
 10
156.7588025025291
 20
105.5192473935397
 30
0.0
 40
0.025
  1
E 442947.48
  7
Text
 72
     2
 11
156.9570199713348
 21
105.5097799018267
 31
0.0
100
AcDbText
 73
     1
  0
TEXT
  5
52B
330
1F
100
AcDbEntity
  8
Co-ord
100
AcDbText
 10
156.7568761179402
 20
105.4847799018267
 30
0.0
 40
0.025
  1
N 258876.59
  7
Text
 72
     2
 11
156.9570199713348
 21
105.5097799018267
 31
0.0
100
AcDbText
 73
     3
  0
TEXT
  5
52C
330
1F
100
AcDbEntity
  8
Co-ord
100
AcDbText
 10
158.3997926207256
 20
105.5192473935397
 30
0.0
 40
0.025
  1
E 442947.06
  7
Text
 11
158.3997926207256
 21
105.5097799018267
 31
0.0
100
AcDbText
 73
     1
  0
TEXT
  5
52D
330
1F
100
AcDbEntity
  8
DRAWING POINT
100
AcDbText
 10
158.3997926207256
 20
105.5592473935397
 30
0.0
 40
0.025
  1
dp76.2
  7
Text
 11
158.3997926207256
 21
105.5497799018267
 31
0.0
100
AcDbText
 73
     1
  0
TEXT
  5
52E
330
1F
100
AcDbEntity
  8
DRAWING POINT
100
AcDbText
 10
156.8501181356403
 20
105.5592473935397
 30
0.0
 40
0.025
  1
dp76.1
  7
Text
 72
     2
 11
156.9570199713347
 21
105.5497799018267
 31
0.0
100
AcDbText
 73
     1
  0
LWPOLYLINE
  5
52F
330
1F
100
AcDbEntity
  8
DRAWING POINT
 62
     5
100
AcDbPolyline
 90
        9
 70
     0
 43
0.0
 10
158.9471800873327
 20
105.551389959522
 10
159.0271800873327
 20
105.551389959522
 10
158.9871800873327
 20
105.551389959522
 10
158.9871800873327
 20
105.511389959522
 10
158.9871800873327
 20
105.591389959522
 10
158.9871800873327
 20
105.551389959522
 10
159.0271800873327
 20
105.551389959522
 10
159.0071800873327
 20
105.551389959522
 10
159.0071800873327
 20
105.551389959522
  0
CIRCLE
  5
530
330
1F
100
AcDbEntity
  8
DRAWING POINT
 62
     5
100
AcDbCircle
 10
158.9871800873327
 20
105.551389959522
 30
0.0
 40
0.0200000000000102
  0
LWPOLYLINE
  5
531
330
1F
100
AcDbEntity
  8
DRAWING POINT
 62
     5
100
AcDbPolyline
 90
        9
 70
     0
 43
0.0
 10
158.9471800873327
 20
105.551389959522
 10
159.0271800873327
 20
105.551389959522
 10
158.9871800873327
 20
105.551389959522
 10
158.9871800873327
 20
105.511389959522
 10
158.9871800873327
 20
105.591389959522
 10
158.9871800873327
 20
105.551389959522
 10
159.0271800873327
 20
105.551389959522
 10
159.0071800873327
 20
105.551389959522
 10
159.0071800873327
 20
105.551389959522
  0
CIRCLE
  5
532
330
1F
100
AcDbEntity
  8
DRAWING POINT
 62
     5
100
AcDbCircle
 10
158.9871800873327
 20
105.551389959522
 30
0.0
 40
0.0200000000000102
  0
LWPOLYLINE
  5
533
330
1F
100
AcDbEntity
  8
DRAWING POINT
 62
     5
100
AcDbPolyline
 90
        9
 70
     0
 43
0.0
 10
162.1730842552751
 20
105.5506737209765
 10
162.2530842552752
 20
105.5506737209765
 10
162.2130842552752
 20
105.5506737209765
 10
162.2130842552752
 20
105.5106737209765
 10
162.2130842552752
 20
105.5906737209765
 10
162.2130842552752
 20
105.5506737209765
 10
162.2530842552752
 20
105.5506737209765
 10
162.2330842552751
 20
105.5506737209765
 10
162.2330842552751
 20
105.5506737209765
  0
CIRCLE
  5
534
330
1F
100
AcDbEntity
  8
DRAWING POINT
 62
     5
100
AcDbCircle
 10
162.2130842552752
 20
105.5506737209765
 30
0.0
 40
0.0200000000000102
  0
TEXT
  5
535
330
1F
100
AcDbEntity
  8
Co-ord
100
AcDbText
 10
162.2530842552752
 20
105.4856737209765
 30
0.0
 40
0.025
  1
N 258862.80
  7
Text
 11
162.2530842552752
 21
105.5106737209765
 31
0.0
100
AcDbText
 73
     3
  0
TEXT
  5
536
330
1F
100
AcDbEntity
  8
Co-ord
100
AcDbText
 10
158.7489626185271
 20
105.520857451235
 30
0.0
 40
0.025
  1
E 442942.36
  7
Text
 72
     2
 11
158.9471800873328
 21
105.511389959522
 31
0.0
100
AcDbText
 73
     1
  0
TEXT
  5
537
330
1F
100
AcDbEntity
  8
Co-ord
100
AcDbText
 10
158.7470362339381
 20
105.486389959522
 30
0.0
 40
0.025
  1
N 258865.75
  7
Text
 72
     2
 11
158.9471800873328
 21
105.511389959522
 31
0.0
100
AcDbText
 73
     3
  0
TEXT
  5
538
330
1F
100
AcDbEntity
  8
Co-ord
100
AcDbText
 10
162.2530842552752
 20
105.5201412126895
 30
0.0
 40
0.025
  1
E 442941.02
  7
Text
 11
162.2530842552752
 21
105.5106737209765
 31
0.0
100
AcDbText
 73
     1
  0
TEXT
  5
539
330
1F
100
AcDbEntity
  8
DRAWING POINT
100
AcDbText
 10
162.2530842552752
 20
105.5601412126895
 30
0.0
 40
0.025
  1
dp80.2
  7
Text
 11
162.2530842552752
 21
105.5506737209765
 31
0.0
100
AcDbText
 73
     1
  0
TEXT
  5
53A
330
1F
100
AcDbEntity
  8
DRAWING POINT
100
AcDbText
 10
158.8402782516383
 20
105.560857451235
 30
0.0
 40
0.025
  1
dp80.1
  7
Text
 72
     2
 11
158.9471800873327
 21
105.551389959522
 31
0.0
100
AcDbText
 73
     1
  0
TEXT
  5
550
330
1F
100
AcDbEntity
  8
Annotatons
100
AcDbText
 10
155.4528523554871
 20
107.6364014643205
 30
0.0
 40
0.05
  1
(1614)
  7
Text
 72
     1
 11
155.553874965488
 21
107.6174664808944
 31
0.0
100
AcDbText
 73
     1
  0
TEXT
  5
551
330
1F
100
AcDbEntity
  8
Annotatons
100
AcDbText
 10
154.9604673765606
 20
107.8326443280011
 30
0.0
 40
0.05
  1
[1603]
  7
Text
 72
     1
 11
155.0576372173837
 21
107.813709344575
 31
0.0
100
AcDbText
 73
     1
  0
LINE
  5
552
330
1F
100
AcDbEntity
  8
Annotatons
100
AcDbLine
 10
155.1814878093293
 20
107.8694421109505
 30
0.0
 11
155.3205779771207
 21
107.9283290399617
 31
0.0
  0
TEXT
  5
568
330
1F
100
AcDbEntity
  8
Annotatons
100
AcDbText
 10
156.8476235043823
 20
107.439556220749
 30
0.0
 40
0.05
  1
(1610)
  7
Text
 72
     1
 11
156.9486461143833
 21
107.4206212373229
 31
0.0
100
AcDbText
 73
     1
  0
TEXT
  5
569
330
1F
100
AcDbEntity
  8
Annotatons
100
AcDbText
 10
157.4243239451454
 20
107.5388180785491
 30
0.0
 40
0.05
  1
[1609]
  7
Text
 72
     1
 11
157.5214937859685
 21
107.5198830951231
 31
0.0
100
AcDbText
 73
     1
  0
LINE
  5
56A
330
1F
100
AcDbEntity
  8
Annotatons
100
AcDbLine
 10
157.2165535225167
 20
107.8137436137414
 30
0.0
 11
157.4235195444054
 21
107.5694418194673
 31
0.0
  0
LWPOLYLINE
  5
56B
102
{ACAD_REACTORS
330
56D
102
}
330
1F
100
AcDbEntity
  8
DETAIL
 62
     1
100
AcDbPolyline
 90
        3
 70
     1
 43
0.0
 10
157.2166900142822
 20
107.8292782668127
 10
157.2912262756511
 20
107.8556287078172
 10
157.2171255707704
 20
107.878850626802
  0
HATCH
  5
56D
330
1F
100
AcDbEntity
  8
DETAIL
 62
     1
100
AcDbHatch
 10
0.0
 20
0.0
 30
0.0
210
0.0
220
0.0
230
1.0
  2
SOLID
 70
     1
 71
     1
 91
        1
 92
        1
 93
        3
 72
     1
 10
157.2166900142822
 20
107.8292782668127
 11
157.2912262756511
 21
107.8556287078172
 72
     1
 10
157.2912262756511
 20
107.8556287078172
 11
157.2171255707704
 21
107.878850626802
 72
     1
 10
157.2171255707704
 20
107.878850626802
 11
157.2166900142822
 21
107.8292782668127
 97
        1
330
56B
 75
     0
 76
     1
 98
        1
 10
0.0
 20
0.0
450
        1
451
        0
460
0.0
461
0.0
452
        1
462
0.0
453
        2
463
0.0
 63
    18
421
   327680
463
1.0
 63
    18
421
   327680
470
LINEAR
1001
ACAD
1010
0.0
1020
0.0
1030
0.0
  0
LWPOLYLINE
  5
56E
330
1F
100
AcDbEntity
  8
Annotatons
100
AcDbPolyline
 90
        2
 70
     0
 43
0.0
 10
157.6298481918498
 20
107.5742584590109
 10
157.8132464031262
 20
107.8088630848557
  0
TEXT
  5
584
330
1F
100
AcDbEntity
  8
Annotatons
100
AcDbText
 10
158.6162924626382
 20
107.4888576917968
 30
0.0
 40
0.05
  1
(1612)
  7
Text
 72
     1
 11
158.7173150726392
 21
107.4699227083707
 31
0.0
100
AcDbText
 73
     1
  0
TEXT
  5
585
330
1F
100
AcDbEntity
  8
Annotatons
100
AcDbText
 10
158.6204784255845
 20
107.9754103382082
 30
0.0
 40
0.05
  1
[1611]
  7
Text
 72
     1
 11
158.7176482664076
 21
107.9564753547822
 31
0.0
100
AcDbText
 73
     1
  0
LINE
  5
586
330
1F
100
AcDbEntity
  8
Annotatons
100
AcDbLine
 10
158.6078539943388
 20
107.993201253078
 30
0.0
 11
158.4870301618955
 21
108.00386217947
 31
0.0
  0
LINE
  5
599
330
1F
100
AcDbEntity
  8
Annotatons
100
AcDbLine
 10
158.6052334995397
 20
107.5153835306175
 30
0.0
 11
158.4050134199891
 21
107.540344154951
 31
0.0
  0
TEXT
  5
5C0
330
1F
100
AcDbEntity
  8
Annotatons
100
AcDbText
 10
160.5421425595928
 20
107.7200657654112
 30
0.0
 40
0.05
  1
(1616)
  7
Text
 72
     1
 11
160.6431651695937
 21
107.7011307819852
 31
0.0
100
AcDbText
 73
     1
  0
TEXT
  5
5C1
330
1F
100
AcDbEntity
  8
Annotatons
100
AcDbText
 10
161.2192821541802
 20
107.1778634800765
 30
0.0
 40
0.05
  1
[1615]
  7
Text
 72
     1
 11
161.3164519950033
 21
107.1589284966505
 31
0.0
100
AcDbText
 73
     1
  0
LINE
  5
5C2
330
1F
100
AcDbEntity
  8
Annotatons
100
AcDbLine
 10
161.2066577229345
 20
107.1956543949463
 30
0.0
 11
161.0858338904912
 21
107.2063153213384
 31
0.0
  0
TEXT
  5
5EA
330
1F
100
AcDbEntity
  8
Annotatons
100
AcDbText
 10
160.4369261637182
 20
106.8669628999237
 30
0.0
 40
0.05
  1
(1602)
  7
Text
 72
     1
 11
160.5379487737191
 21
106.8480279164976
 31
0.0
100
AcDbText
 73
     1
  0
TEXT
  5
600
330
1F
100
AcDbEntity
  8
Annotatons
100
AcDbText
 10
160.9787725034803
 20
106.7462085727767
 30
0.0
 40
0.05
  1
(1614)
  7
Text
 72
     1
 11
161.0797951134813
 21
106.7272735893506
 31
0.0
100
AcDbText
 73
     1
  0
TEXT
  5
601
330
1F
100
AcDbEntity
  8
Annotatons
100
AcDbText
 10
160.519333366103
 20
106.7310674708114
 30
0.0
 40
0.05
  1
[1613]
  7
Text
 72
     1
 11
160.6165032069261
 21
106.7121324873854
 31
0.0
100
AcDbText
 73
     1
  0
LINE
  5
602
330
1F
100
AcDbEntity
  8
Annotatons
100
AcDbLine
 10
160.7264890068498
 20
106.7508844661991
 30
0.0
 11
160.838244709135
 21
106.7733100812949
 31
0.0
  0
TEXT
  5
618
330
1F
100
AcDbEntity
  8
Annotatons
100
AcDbText
 10
155.575438617072
 20
105.8377743789955
 30
0.0
 40
0.05
  1
(1604)
  7
Text
 72
     1
 11
155.6764612270729
 21
105.8188393955695
 31
0.0
100
AcDbText
 73
     1
  0
TEXT
  5
619
330
1F
100
AcDbEntity
  8
Annotatons
100
AcDbText
 10
156.1760166478426
 20
104.83161087405
 30
0.0
 40
0.05
  1
[1603]
  7
Text
 72
     1
 11
156.2731864886657
 21
104.8126758906239
 31
0.0
100
AcDbText
 73
     1
  0
LINE
  5
61A
330
1F
100
AcDbEntity
  8
Annotatons
100
AcDbLine
 10
156.1633922165969
 20
104.8494017889198
 30
0.0
 11
156.0425683841536
 21
104.8600627153118
 31
0.0
  0
TEXT
  5
630
330
1F
100
AcDbEntity
  8
Annotatons
100
AcDbText
 10
157.5504825100994
 20
105.8259547887665
 30
0.0
 40
0.05
  1
(1608)
  7
Text
 72
     1
 11
157.6515051201004
 21
105.8070198053404
 31
0.0
100
AcDbText
 73
     1
  0
TEXT
  5
631
330
1F
100
AcDbEntity
  8
Annotatons
100
AcDbText
 10
158.4343349045494
 20
105.0323256726788
 30
0.0
 40
0.05
  1
[1607]
  7
Text
 72
     1
 11
158.5315047453725
 21
105.0133906892528
 31
0.0
100
AcDbText
 73
     1
  0
LINE
  5
632
330
1F
100
AcDbEntity
  8
Annotatons
100
AcDbLine
 10
158.4217104733037
 20
105.0501165875486
 30
0.0
 11
158.3008866408604
 21
105.0607775139406
 31
0.0
  0
TEXT
  5
648
330
1F
100
AcDbEntity
  8
Annotatons
100
AcDbText
 10
157.1315796534552
 20
104.5774706722052
 30
0.0
 40
0.05
  1
(1614)
  7
Text
 72
     1
 11
157.2326022634562
 21
104.5585356887792
 31
0.0
100
AcDbText
 73
     1
  0
TEXT
  5
649
330
1F
100
AcDbEntity
  8
Annotatons
100
AcDbText
 10
157.7197629492038
 20
104.3479664886887
 30
0.0
 40
0.05
  1
[1613]
  7
Text
 72
     1
 11
157.8169327900269
 21
104.3290315052626
 31
0.0
100
AcDbText
 73
     1
  0
LINE
  5
64A
330
1F
100
AcDbEntity
  8
Annotatons
100
AcDbLine
 10
157.7071385179581
 20
104.3657574035585
 30
0.0
 11
157.5863146855148
 21
104.3764183299505
 31
0.0
  0
TEXT
  5
686
330
1F
100
AcDbEntity
  8
Annotatons
100
AcDbText
 10
157.9562198246791
 20
104.6031912912772
 30
0.0
 40
0.05
  1
(1602)
  7
Text
 72
     1
 11
158.05724243468
 21
104.5842563078511
 31
0.0
100
AcDbText
 73
     1
  0
TEXT
  5
6B4
330
1F
100
AcDbEntity
  8
Annotatons
100
AcDbText
 10
160.8756078540907
 20
104.3549579167499
 30
0.0
 40
0.05
  1
(1622)
  7
Text
 72
     1
 11
160.9766304640917
 21
104.3360229333239
 31
0.0
100
AcDbText
 73
     1
  0
TEXT
  5
6B5
330
1F
100
AcDbEntity
  8
Annotatons
100
AcDbText
 10
160.1003934585606
 20
104.1760018634911
 30
0.0
 40
0.05
  1
[1621]
  7
Text
 72
     1
 11
160.1975632993837
 21
104.1570668800651
 31
0.0
100
AcDbText
 73
     1
  0
LINE
  5
6B6
330
1F
100
AcDbEntity
  8
Annotatons
100
AcDbLine
 10
160.4429963502587
 20
104.2563051300279
 30
0.0
 11
160.3063201621214
 21
104.1993694579097
 31
0.0
  0
TEXT
  5
6CC
330
1F
100
AcDbEntity
  8
Annotatons
100
AcDbText
 10
161.46228181129
 20
104.5531101707367
 30
0.0
 40
0.05
  1
(1624)
  7
Text
 72
     1
 11
161.5633044212909
 21
104.5341751873106
 31
0.0
100
AcDbText
 73
     1
  0
TEXT
  5
6CD
330
1F
100
AcDbEntity
  8
Annotatons
100
AcDbText
 10
161.5075673612365
 20
104.3335841843251
 30
0.0
 40
0.05
  1
[1623]
  7
Text
 72
     1
 11
161.6047372020596
 21
104.3146492008991
 31
0.0
100
AcDbText
 73
     1
  0
LINE
  5
6CE
330
1F
100
AcDbEntity
  8
Annotatons
100
AcDbLine
 10
161.4949429299909
 20
104.3513750991949
 30
0.0
 11
161.3741190975476
 21
104.3620360255869
 31
0.0
  0
TEXT
  5
6E4
330
1F
100
AcDbEntity
  8
Annotatons
100
AcDbText
 10
161.8502824938696
 20
104.4720267363223
 30
0.0
 40
0.05
  1
(1622)
  7
Text
 72
     1
 11
161.9513051038706
 21
104.4530917528962
 31
0.0
100
AcDbText
 73
     1
  0
TEXT
  5
6E5
330
1F
100
AcDbEntity
  8
Annotatons
100
AcDbText
 10
162.2217435390969
 20
104.2875963896625
 30
0.0
 40
0.05
  1
[1621]
  7
Text
 72
     1
 11
162.31891337992
 21
104.2686614062365
 31
0.0
100
AcDbText
 73
     1
  0
LINE
  5
6E6
330
1F
100
AcDbEntity
  8
Annotatons
100
AcDbLine
 10
162.2091191078513
 20
104.3053873045323
 30
0.0
 11
162.088295275408
 21
104.3160482309244
 31
0.0
  0
TEXT
  5
70E
330
1F
100
AcDbEntity
  8
Annotatons
100
AcDbText
 10
160.6512441999443
 20
104.9487918115332
 30
0.0
 40
0.05
  1
[1617]
  7
Text
 72
     1
 11
160.7484140407674
 21
104.9298568281071
 31
0.0
100
AcDbText
 73
     1
  0
LINE
  5
70F
330
1F
100
AcDbEntity
  8
Annotatons
100
AcDbLine
 10
160.6386197686986
 20
104.966582726403
 30
0.0
 11
160.5177959362553
 21
104.977243652795
 31
0.0
  0
TEXT
  5
724
330
1F
100
AcDbEntity
  8
Annotatons
100
AcDbText
 10
160.9930815209806
 20
105.2235976423673
 30
0.0
 40
0.05
  1
[1619]
  7
Text
 72
     1
 11
161.0902513618037
 21
105.2046626589412
 31
0.0
100
AcDbText
 73
     1
  0
LINE
  5
725
330
1F
100
AcDbEntity
  8
Annotatons
100
AcDbLine
 10
160.9804570897349
 20
105.2413885572371
 30
0.0
 11
160.8596332572916
 21
105.2520494836291
 31
0.0
  0
TEXT
  5
73A
330
1F
100
AcDbEntity
  8
Annotatons
100
AcDbText
 10
161.8266711667412
 20
105.2445603032032
 30
0.0
 40
0.05
  1
[1607]
  7
Text
 72
     1
 11
161.9238410075643
 21
105.2256253197772
 31
0.0
100
AcDbText
 73
     1
  0
LINE
  5
73B
330
1F
100
AcDbEntity
  8
Annotatons
100
AcDbLine
 10
161.8140467354955
 20
105.262351218073
 30
0.0
 11
161.6932229030522
 21
105.273012144465
 31
0.0
  0
TEXT
  5
750
330
1F
100
AcDbEntity
  8
Annotatons
100
AcDbText
 10
158.8246551295149
 20
104.2582587441425
 30
0.0
 40
0.05
  1
[1617]
  7
Text
 72
     1
 11
158.921824970338
 21
104.2393237607164
 31
0.0
100
AcDbText
 73
     1
  0
LINE
  5
751
330
1F
100
AcDbEntity
  8
Annotatons
100
AcDbLine
 10
159.0309681172015
 20
104.2765291893015
 30
0.0
 11
159.187092257038
 21
104.3297498055474
 31
0.0
  0
TEXT
  5
766
330
1F
100
AcDbEntity
  8
Annotatons
100
AcDbText
 10
159.8565471469433
 20
104.5385394276053
 30
0.0
 40
0.05
  1
(1618)
  7
Text
 72
     1
 11
159.9575697569442
 21
104.5196044441792
 31
0.0
100
AcDbText
 73
     1
  0
LWPOLYLINE
  5
8D2
330
1F
100
AcDbEntity
  8
SECTION POINT
  6
DASHDOT
 62
     5
 48
0.005
100
AcDbPolyline
 90
        2
 70
     0
 43
0.0
 10
164.7825522306209
 20
108.4567238590045
 10
168.9831598598272
 20
108.4567238590045
  0
LWPOLYLINE
  5
8D3
330
1F
100
AcDbEntity
  8
CONTEXT 1
100
AcDbPolyline
 90
        5
 70
     0
 43
0.0
 10
168.293559763874
 20
108.4567238590045
 10
168.2820416588231
 20
108.2305997704288
 10
168.2760968304097
 20
107.9393031781727
 10
168.2779855519368
 20
107.6852236887962
 10
168.2956497426131
 20
107.47150401107
  0
LWPOLYLINE
  5
8D4
330
1F
100
AcDbEntity
  8
CONTEXT 1
100
AcDbPolyline
 90
        4
 70
     0
 43
0.0
 10
165.1250503992363
 20
108.4567238590045
 10
165.1173097372397
 20
108.0104476025834
 10
165.1289207302346
 20
107.6079331787601
 10
165.127560066993
 20
107.2215804105508
  0
LWPOLYLINE
  5
8D5
330
1F
100
AcDbEntity
  8
DETAIL
  6
DASHDOT
 48
0.005
100
AcDbPolyline
 90
        2
 70
     0
 43
0.0
 10
165.1200676708643
 20
107.9148392369314
 10
168.2764848419761
 20
107.8871060812245
  0
LWPOLYLINE
  5
8D6
330
1F
100
AcDbEntity
  8
CONTEXT 1
100
AcDbPolyline
 90
        3
 70
     0
 43
0.0
 10
167.7143635204999
 20
108.4567238590045
 10
167.6988821965067
 20
108.0591200385831
 10
167.6974155376
 20
107.8921939445559
  0
LWPOLYLINE
  5
8D7
330
1F
100
AcDbEntity
  8
CONTEXT 1
100
AcDbPolyline
 90
        3
 70
     0
 43
0.0
 10
167.6431494301311
 20
108.4567238590045
 10
167.6121867821447
 20
108.1024677457641
 10
167.6103459799274
 20
107.892958961811
  0
LWPOLYLINE
  5
8D8
330
1F
100
AcDbEntity
  8
CONTEXT 1
100
AcDbPolyline
 90
        4
 70
     0
 43
0.0
 10
167.0362815295976
 20
108.4567238590045
 10
167.0115114112084
 20
108.1736818361328
 10
167.0146076760071
 20
108.0064835370062
 10
167.0136562812866
 20
107.8982016428078
  0
LWPOLYLINE
  5
8D9
330
1F
100
AcDbEntity
  8
CONTEXT 1
100
AcDbPolyline
 90
        4
 70
     0
 43
0.0
 10
166.8752328045852
 20
107.8994178698224
 10
166.8845645544642
 20
108.1520079825423
 10
166.8845645544642
 20
108.3253988112662
 10
166.8828560452241
 20
108.4567238590045
  0
LWPOLYLINE
  5
8DA
330
1F
100
AcDbEntity
  8
CONTEXT 1
100
AcDbPolyline
 90
        3
 70
     0
 43
0.0
 10
168.1314669504665
 20
107.8883802485945
 10
168.1334729560611
 20
107.6494005098151
 10
168.1413993939456
 20
107.5205958941917
  0
LWPOLYLINE
  5
8DB
330
1F
100
AcDbEntity
  8
CONTEXT 1
100
AcDbPolyline
 90
        2
 70
     0
 43
0.0
 10
165.5717989247035
 20
107.9108702009893
 10
165.5792006021778
 20
107.4913908602699
  0
LWPOLYLINE
  5
8DC
330
1F
100
AcDbEntity
  8
DETAIL
100
AcDbPolyline
 90
        2
 70
     0
 43
0.0
 10
165.1971798704564
 20
108.3901955616051
 10
165.6331541664354
 20
108.384170343751
  0
LWPOLYLINE
  5
8DD
330
1F
100
AcDbEntity
  8
DETAIL
100
AcDbPolyline
 90
        2
 70
     0
 43
0.0
 10
165.1945008181556
 20
108.2357388197811
 10
165.6090577952665
 20
108.2395921167373
  0
LWPOLYLINE
  5
8DE
330
1F
100
AcDbEntity
  8
DETAIL
100
AcDbPolyline
 90
        2
 70
     0
 43
0.0
 10
165.1922041055533
 20
108.1033252997638
 10
165.5900343443436
 20
108.112769110585
  0
LWPOLYLINE
  5
8DF
330
1F
100
AcDbEntity
  8
DETAIL
100
AcDbPolyline
 90
        2
 70
     0
 43
0.0
 10
165.1928841826426
 20
107.9765161894845
 10
165.5704408477874
 20
107.9831293416867
  0
LWPOLYLINE
  5
8E0
330
1F
100
AcDbEntity
  8
DETAIL
100
AcDbPolyline
 90
        2
 70
     0
 43
0.0
 10
166.8084953580617
 20
108.4063518157547
 10
166.1637545395385
 20
108.3946105483668
  0
LWPOLYLINE
  5
8E1
330
1F
100
AcDbEntity
  8
DETAIL
100
AcDbPolyline
 90
        2
 70
     0
 43
0.0
 10
166.8098860722858
 20
108.2994541721375
 10
166.1736625868941
 20
108.2856220274547
  0
LWPOLYLINE
  5
8E2
330
1F
100
AcDbEntity
  8
DETAIL
100
AcDbPolyline
 90
        2
 70
     0
 43
0.0
 10
166.8098860722858
 20
108.1844754386946
 10
166.1885246579276
 20
108.1617714355091
  0
LWPOLYLINE
  5
8E3
330
1F
100
AcDbEntity
  8
DETAIL
100
AcDbPolyline
 90
        2
 70
     0
 43
0.0
 10
166.8067700153622
 20
108.0417184799353
 10
166.2182487999946
 20
108.02305877253
  0
LWPOLYLINE
  5
8E4
330
1F
100
AcDbEntity
  8
DETAIL
100
AcDbPolyline
 90
        2
 70
     0
 43
0.0
 10
167.1051332489428
 20
108.4181184427866
 10
167.1775471587043
 20
108.4133936176758
  0
LWPOLYLINE
  5
8E5
330
1F
100
AcDbEntity
  8
DETAIL
100
AcDbPolyline
 90
        2
 70
     0
 43
0.0
 10
167.0933632143943
 20
108.2836251660268
 10
167.1718654880287
 20
108.2810918576577
  0
LWPOLYLINE
  5
8E6
330
1F
100
AcDbEntity
  8
DETAIL
100
AcDbPolyline
 90
        2
 70
     0
 43
0.0
 10
167.0875958049767
 20
108.116433127574
 10
167.1604653680056
 20
108.1150031805705
  0
LWPOLYLINE
  5
8E7
330
1F
100
AcDbEntity
  8
DETAIL
100
AcDbPolyline
 90
        2
 70
     0
 43
0.0
 10
167.0886682400157
 20
107.9786930309115
 10
167.1811425909287
 20
107.9798098560122
  0
LWPOLYLINE
  5
8E8
330
1F
100
AcDbEntity
  8
DETAIL
100
AcDbPolyline
 90
        2
 70
     0
 43
0.0
 10
167.5356596905967
 20
107.9746129563715
 10
167.3663041799111
 20
107.9760051658276
  0
LWPOLYLINE
  5
8E9
330
1F
100
AcDbEntity
  8
DETAIL
100
AcDbPolyline
 90
        2
 70
     0
 43
0.0
 10
167.5394416670184
 20
108.1121077828422
 10
167.3777182504648
 20
108.1129740124721
  0
LWPOLYLINE
  5
8EA
330
1F
100
AcDbEntity
  8
DETAIL
100
AcDbPolyline
 90
        2
 70
     0
 43
0.0
 10
167.5520614156985
 20
108.2564954049682
 10
167.3701088700957
 20
108.2588204695473
  0
LWPOLYLINE
  5
8EB
330
1F
100
AcDbEntity
  8
DETAIL
100
AcDbPolyline
 90
        2
 70
     0
 43
0.0
 10
167.5648905479276
 20
108.4032786685227
 10
167.3939852826133
 20
108.3966602335543
  0
LWPOLYLINE
  5
8EC
330
1F
100
AcDbEntity
  8
DETAIL
100
AcDbPolyline
 90
        2
 70
     0
 43
0.0
 10
167.7853393941315
 20
108.3916335571417
 10
167.8977340309594
 20
108.3909830016839
  0
LWPOLYLINE
  5
8ED
330
1F
100
AcDbEntity
  8
DETAIL
100
AcDbPolyline
 90
        2
 70
     0
 43
0.0
 10
167.7791506914911
 20
108.232690315959
 10
167.8828439954531
 20
108.2334769447151
  0
LWPOLYLINE
  5
8EE
330
1F
100
AcDbEntity
  8
DETAIL
100
AcDbPolyline
 90
        2
 70
     0
 43
0.0
 10
167.7741943078209
 20
108.1053964822015
 10
167.8958560675901
 20
108.1036123424063
  0
LWPOLYLINE
  5
8EF
330
1F
100
AcDbEntity
  8
DETAIL
100
AcDbPolyline
 90
        2
 70
     0
 43
0.0
 10
167.7723486564989
 20
107.9637122682048
 10
167.8961350782037
 20
107.9634856029086
  0
LWPOLYLINE
  5
8F0
330
1F
100
AcDbEntity
  8
DETAIL
100
AcDbPolyline
 90
        2
 70
     0
 43
0.0
 10
168.2009646630728
 20
107.9394544127785
 10
168.0839040936983
 20
107.9455921028614
  0
LWPOLYLINE
  5
8F1
330
1F
100
AcDbEntity
  8
DETAIL
100
AcDbPolyline
 90
        2
 70
     0
 43
0.0
 10
168.2036824874864
 20
108.0726278090494
 10
168.0879624298952
 20
108.0795171973582
  0
LWPOLYLINE
  5
8F2
330
1F
100
AcDbEntity
  8
DETAIL
100
AcDbPolyline
 90
        2
 70
     0
 43
0.0
 10
168.2069463879369
 20
108.2175395905532
 10
168.06546323596
 20
108.2217317605947
  0
LWPOLYLINE
  5
8F3
330
1F
100
AcDbEntity
  8
DETAIL
100
AcDbPolyline
 90
        2
 70
     0
 43
0.0
 10
168.2144627615637
 20
108.365101461905
 10
168.0484182239331
 20
108.3702668654003
  0
HATCH
  5
8F4
330
1F
100
AcDbEntity
  8
DETAIL
100
AcDbHatch
 10
0.0
 20
0.0
 30
0.0
210
0.0
220
0.0
230
1.0
  2
SOLID
 70
     1
 71
     1
 91
        1
 92
        1
 93
        3
 72
     1
 10
168.287546646738
 20
108.338674003941
 11
168.2900694520031
 21
108.388201859321
 72
     1
 10
168.2900694520031
 20
108.388201859321
 11
168.2144627615637
 21
108.365101461905
 72
     1
 10
168.2144627615637
 20
108.365101461905
 11
168.287546646738
 21
108.338674003941
 97
        1
330
8F5
 75
     0
 76
     1
 98
        1
 10
9.797441964364623
 20
0.1230643230943542
450
        1
451
        0
460
0.0
461
0.0
452
        1
462
0.0
453
        2
463
0.0
 63
    18
421
   327680
463
1.0
 63
    18
421
   327680
470
LINEAR
1001
ACAD
1010
0.0
1020
0.0
1030
0.0
  0
LWPOLYLINE
  5
8F5
102
{ACAD_REACTORS
330
8F4
102
}
330
1F
100
AcDbEntity
  8
DETAIL
100
AcDbPolyline
 90
        3
 70
     1
 43
0.0
 10
168.287546646738
 20
108.338674003941
 10
168.2900694520031
 20
108.388201859321
 10
168.2144627615637
 20
108.365101461905
  0
HATCH
  5
8F6
330
1F
100
AcDbEntity
  8
DETAIL
100
AcDbHatch
 10
0.0
 20
0.0
 30
0.0
210
0.0
220
0.0
230
1.0
  2
SOLID
 70
     1
 71
     1
 91
        1
 92
        1
 93
        4
 72
     1
 10
168.281226957512
 20
108.1906794061869
 11
168.2820416588231
 21
108.2305997704288
 72
     1
 10
168.2820416588231
 20
108.2305997704288
 11
168.2825530783763
 21
108.2406399879692
 72
     1
 10
168.2825530783763
 20
108.2406399879692
 11
168.2069463879369
 21
108.2175395905532
 72
     1
 10
168.2069463879369
 20
108.2175395905532
 11
168.281226957512
 21
108.1906794061869
 97
        1
330
8F7
 75
     0
 76
     1
 98
        1
 10
9.797441964364623
 20
0.1230643230943542
450
        1
451
        0
460
0.0
461
0.0
452
        1
462
0.0
453
        2
463
0.0
 63
    18
421
   327680
463
1.0
 63
    18
421
   327680
470
LINEAR
1001
ACAD
1010
0.0
1020
0.0
1030
0.0
  0
LWPOLYLINE
  5
8F7
102
{ACAD_REACTORS
330
8F6
102
}
330
1F
100
AcDbEntity
  8
DETAIL
100
AcDbPolyline
 90
        4
 70
     1
 43
0.0
 10
168.281226957512
 20
108.1906794061869
 10
168.2820416588231
 20
108.2305997704288
 10
168.2825530783763
 20
108.2406399879692
 10
168.2069463879369
 20
108.2175395905532
  0
HATCH
  5
8F8
330
1F
100
AcDbEntity
  8
DETAIL
100
AcDbHatch
 10
0.0
 20
0.0
 30
0.0
210
0.0
220
0.0
230
1.0
  2
SOLID
 70
     1
 71
     1
 91
        1
 92
        1
 93
        4
 72
     1
 10
168.2782714615956
 20
108.0458601062836
 11
168.2792891779258
 21
108.0957282064655
 72
     1
 10
168.2792891779258
 20
108.0957282064655
 11
168.2036824874864
 21
108.0726278090494
 72
     1
 10
168.2036824874864
 20
108.0726278090494
 11
168.2780280782876
 21
108.0457441127186
 72
     1
 10
168.2780280782876
 20
108.0457441127186
 11
168.2782714615956
 21
108.0458601062836
 97
        1
330
8F9
 75
     0
 76
     1
 98
        1
 10
9.797441964364623
 20
0.1230643230943542
450
        1
451
        0
460
0.0
461
0.0
452
        1
462
0.0
453
        2
463
0.0
 63
    18
421
   327680
463
1.0
 63
    18
421
   327680
470
LINEAR
1001
ACAD
1010
0.0
1020
0.0
1030
0.0
  0
LWPOLYLINE
  5
8F9
102
{ACAD_REACTORS
330
8F8
102
}
330
1F
100
AcDbEntity
  8
DETAIL
100
AcDbPolyline
 90
        4
 70
     1
 43
0.0
 10
168.2782714615956
 20
108.0458601062836
 10
168.2792891779258
 20
108.0957282064655
 10
168.2036824874864
 20
108.0726278090494
 10
168.2780280782876
 20
108.0457441127186
  0
HATCH
  5
8FA
330
1F
100
AcDbEntity
  8
DETAIL
100
AcDbHatch
 10
0.0
 20
0.0
 30
0.0
210
0.0
220
0.0
230
1.0
  2
SOLID
 70
     1
 71
     1
 91
        1
 92
        1
 93
        3
 72
     1
 10
167.7723486564989
 20
107.9637122682048
 11
167.6982479516182
 21
107.9869341871896
 72
     1
 10
167.6982479516182
 20
107.9869341871896
 11
167.69781239513
 21
107.9373618272003
 72
     1
 10
167.69781239513
 20
107.9373618272003
 11
167.7723486564989
 21
107.9637122682048
 97
        1
330
8FB
 75
     0
 76
     1
 98
        1
 10
9.797441964364623
 20
0.1230643230943542
450
        1
451
        0
460
0.0
461
0.0
452
        1
462
0.0
453
        2
463
0.0
 63
    18
421
   327680
463
1.0
 63
    18
421
   327680
470
LINEAR
1001
ACAD
1010
0.0
1020
0.0
1030
0.0
  0
LWPOLYLINE
  5
8FB
102
{ACAD_REACTORS
330
8FA
102
}
330
1F
100
AcDbEntity
  8
DETAIL
100
AcDbPolyline
 90
        3
 70
     1
 43
0.0
 10
167.7723486564989
 20
107.9637122682048
 10
167.6982479516182
 20
107.9869341871896
 10
167.69781239513
 20
107.9373618272003
  0
HATCH
  5
8FC
330
1F
100
AcDbEntity
  8
DETAIL
100
AcDbHatch
 10
0.0
 20
0.0
 30
0.0
210
0.0
220
0.0
230
1.0
  2
SOLID
 70
     1
 71
     1
 91
        1
 92
        1
 93
        3
 72
     1
 10
167.6996580464521
 20
108.0790460411971
 11
167.7741943078209
 21
108.1053964822015
 72
     1
 10
167.7741943078209
 20
108.1053964822015
 11
167.7015702058899
 21
108.1281556585698
 72
     1
 10
167.7015702058899
 20
108.1281556585698
 11
167.6996580464521
 21
108.0790460411971
 97
        1
330
8FD
 75
     0
 76
     1
 98
        1
 10
9.797441964364623
 20
0.1230643230943542
450
        1
451
        0
460
0.0
461
0.0
452
        1
462
0.0
453
        2
463
0.0
 63
    18
421
   327680
463
1.0
 63
    18
421
   327680
470
LINEAR
1001
ACAD
1010
0.0
1020
0.0
1030
0.0
  0
LWPOLYLINE
  5
8FD
102
{ACAD_REACTORS
330
8FC
102
}
330
1F
100
AcDbEntity
  8
DETAIL
100
AcDbPolyline
 90
        3
 70
     1
 43
0.0
 10
167.6996580464521
 20
108.0790460411971
 10
167.7741943078209
 20
108.1053964822015
 10
167.7015702058899
 20
108.1281556585698
  0
HATCH
  5
8FE
330
1F
100
AcDbEntity
  8
DETAIL
100
AcDbHatch
 10
0.0
 20
0.0
 30
0.0
210
0.0
220
0.0
230
1.0
  2
SOLID
 70
     1
 71
     1
 91
        1
 92
        1
 93
        3
 72
     1
 10
167.7046144301222
 20
108.2063398749546
 11
167.7791506914911
 21
108.232690315959
 72
     1
 10
167.7791506914911
 20
108.232690315959
 11
167.70652658956
 21
108.2554494923273
 72
     1
 10
167.70652658956
 20
108.2554494923273
 11
167.7046144301222
 21
108.2063398749546
 97
        1
330
8FF
 75
     0
 76
     1
 98
        1
 10
9.797441964364623
 20
0.1230643230943542
450
        1
451
        0
460
0.0
461
0.0
452
        1
462
0.0
453
        2
463
0.0
 63
    18
421
   327680
463
1.0
 63
    18
421
   327680
470
LINEAR
1001
ACAD
1010
0.0
1020
0.0
1030
0.0
  0
LWPOLYLINE
  5
8FF
102
{ACAD_REACTORS
330
8FE
102
}
330
1F
100
AcDbEntity
  8
DETAIL
100
AcDbPolyline
 90
        3
 70
     1
 43
0.0
 10
167.7046144301222
 20
108.2063398749546
 10
167.7791506914911
 20
108.232690315959
 10
167.70652658956
 20
108.2554494923273
  0
HATCH
  5
900
330
1F
100
AcDbEntity
  8
DETAIL
100
AcDbHatch
 10
0.0
 20
0.0
 30
0.0
210
0.0
220
0.0
230
1.0
  2
SOLID
 70
     1
 71
     1
 91
        1
 92
        1
 93
        3
 72
     1
 10
167.7108031327627
 20
108.3652831161372
 11
167.7853393941315
 21
108.3916335571417
 72
     1
 10
167.7853393941315
 20
108.3916335571417
 11
167.7127152922004
 21
108.41439273351
 72
     1
 10
167.7127152922004
 20
108.41439273351
 11
167.7108031327627
 21
108.3652831161372
 97
        1
330
901
 75
     0
 76
     1
 98
        1
 10
9.797441964364623
 20
0.1230643230943542
450
        1
451
        0
460
0.0
461
0.0
452
        1
462
0.0
453
        2
463
0.0
 63
    18
421
   327680
463
1.0
 63
    18
421
   327680
470
LINEAR
1001
ACAD
1010
0.0
1020
0.0
1030
0.0
  0
LWPOLYLINE
  5
901
102
{ACAD_REACTORS
330
900
102
}
330
1F
100
AcDbEntity
  8
DETAIL
100
AcDbPolyline
 90
        3
 70
     1
 43
0.0
 10
167.7108031327627
 20
108.3652831161372
 10
167.7853393941315
 20
108.3916335571417
 10
167.7127152922004
 20
108.41439273351
  0
HATCH
  5
902
330
1F
100
AcDbEntity
  8
DETAIL
100
AcDbHatch
 10
0.0
 20
0.0
 30
0.0
210
0.0
220
0.0
230
1.0
  2
SOLID
 70
     1
 71
     1
 91
        1
 92
        1
 93
        3
 72
     1
 10
167.6362237414628
 20
108.3774842684427
 11
167.640497238367
 21
108.4263790659387
 72
     1
 10
167.640497238367
 20
108.4263790659387
 11
167.5648905479276
 21
108.4032786685227
 72
     1
 10
167.5648905479276
 20
108.4032786685227
 11
167.6362237414628
 21
108.3774842684427
 97
        1
330
903
 75
     0
 76
     1
 98
        1
 10
9.797441964364623
 20
0.1230643230943542
450
        1
451
        0
460
0.0
461
0.0
452
        1
462
0.0
453
        2
463
0.0
 63
    18
421
   327680
463
1.0
 63
    18
421
   327680
470
LINEAR
1001
ACAD
1010
0.0
1020
0.0
1030
0.0
  0
LWPOLYLINE
  5
903
102
{ACAD_REACTORS
330
902
102
}
330
1F
100
AcDbEntity
  8
DETAIL
100
AcDbPolyline
 90
        3
 70
     1
 43
0.0
 10
167.6362237414628
 20
108.3774842684427
 10
167.640497238367
 20
108.4263790659387
 10
167.5648905479276
 20
108.4032786685227
  0
HATCH
  5
904
330
1F
100
AcDbEntity
  8
DETAIL
100
AcDbHatch
 10
0.0
 20
0.0
 30
0.0
210
0.0
220
0.0
230
1.0
  2
SOLID
 70
     1
 71
     1
 91
        1
 92
        1
 93
        3
 72
     1
 10
167.6233946092337
 20
108.2307010048882
 11
167.6276681061379
 21
108.2795958023842
 72
     1
 10
167.6276681061379
 20
108.2795958023842
 11
167.5520614156985
 21
108.2564954049682
 72
     1
 10
167.5520614156985
 20
108.2564954049682
 11
167.6233946092337
 21
108.2307010048882
 97
        1
330
905
 75
     0
 76
     1
 98
        1
 10
9.797441964364623
 20
0.1230643230943542
450
        1
451
        0
460
0.0
461
0.0
452
        1
462
0.0
453
        2
463
0.0
 63
    18
421
   327680
463
1.0
 63
    18
421
   327680
470
LINEAR
1001
ACAD
1010
0.0
1020
0.0
1030
0.0
  0
LWPOLYLINE
  5
905
102
{ACAD_REACTORS
330
904
102
}
330
1F
100
AcDbEntity
  8
DETAIL
100
AcDbPolyline
 90
        3
 70
     1
 43
0.0
 10
167.6233946092337
 20
108.2307010048882
 10
167.6276681061379
 20
108.2795958023842
 10
167.5520614156985
 20
108.2564954049682
  0
HATCH
  5
906
330
1F
100
AcDbEntity
  8
DETAIL
100
AcDbHatch
 10
0.0
 20
0.0
 30
0.0
210
0.0
220
0.0
230
1.0
  2
SOLID
 70
     1
 71
     1
 91
        1
 92
        1
 93
        4
 72
     1
 10
167.6121867821447
 20
108.1024677457641
 11
167.6150483574578
 21
108.1352081802582
 72
     1
 10
167.6150483574578
 20
108.1352081802582
 11
167.5394416670184
 21
108.1121077828422
 72
     1
 10
167.5394416670184
 20
108.1121077828422
 11
167.6120408232739
 21
108.0858556050114
 72
     1
 10
167.6120408232739
 20
108.0858556050114
 11
167.6121867821447
 21
108.1024677457641
 97
        1
330
907
 75
     0
 76
     1
 98
        1
 10
9.797441964364623
 20
0.1230643230943542
450
        1
451
        0
460
0.0
461
0.0
452
        1
462
0.0
453
        2
463
0.0
 63
    18
421
   327680
463
1.0
 63
    18
421
   327680
470
LINEAR
1001
ACAD
1010
0.0
1020
0.0
1030
0.0
  0
LWPOLYLINE
  5
907
102
{ACAD_REACTORS
330
906
102
}
330
1F
100
AcDbEntity
  8
DETAIL
100
AcDbPolyline
 90
        4
 70
     1
 43
0.0
 10
167.6121867821447
 20
108.1024677457641
 10
167.6150483574578
 20
108.1352081802582
 10
167.5394416670184
 20
108.1121077828422
 10
167.6120408232739
 20
108.0858556050114
  0
HATCH
  5
908
330
1F
100
AcDbEntity
  8
DETAIL
100
AcDbHatch
 10
0.0
 20
0.0
 30
0.0
210
0.0
220
0.0
230
1.0
  2
SOLID
 70
     1
 71
     1
 91
        1
 92
        1
 93
        4
 72
     1
 10
167.6108306631729
 20
107.9481226270937
 11
167.6112663810361
 21
107.9977133537875
 72
     1
 10
167.6112663810361
 20
107.9977133537875
 11
167.5356596905967
 21
107.9746129563715
 72
     1
 10
167.5356596905967
 20
107.9746129563715
 11
167.6100052813979
 21
107.9477292600406
 72
     1
 10
167.6100052813979
 20
107.9477292600406
 11
167.6108306631729
 21
107.9481226270937
 97
        1
330
909
 75
     0
 76
     1
 98
        1
 10
9.797441964364623
 20
0.1230643230943542
450
        1
451
        0
460
0.0
461
0.0
452
        1
462
0.0
453
        2
463
0.0
 63
    18
421
   327680
463
1.0
 63
    18
421
   327680
470
LINEAR
1001
ACAD
1010
0.0
1020
0.0
1030
0.0
  0
LWPOLYLINE
  5
909
102
{ACAD_REACTORS
330
908
102
}
330
1F
100
AcDbEntity
  8
DETAIL
100
AcDbPolyline
 90
        4
 70
     1
 43
0.0
 10
167.6108306631729
 20
107.9481226270937
 10
167.6112663810361
 20
107.9977133537875
 10
167.5356596905967
 20
107.9746129563715
 10
167.6100052813979
 20
107.9477292600406
  0
HATCH
  5
90A
330
1F
100
AcDbEntity
  8
DETAIL
100
AcDbHatch
 10
0.0
 20
0.0
 30
0.0
210
0.0
220
0.0
230
1.0
  2
SOLID
 70
     1
 71
     1
 91
        1
 92
        1
 93
        3
 72
     1
 10
167.0130595436078
 20
108.0900826865695
 11
167.0875958049767
 21
108.116433127574
 72
     1
 10
167.0875958049767
 20
108.116433127574
 11
167.0121490176172
 21
108.1400705428956
 72
     1
 10
167.0121490176172
 20
108.1400705428956
 11
167.0130595436078
 21
108.0900826865695
 97
        1
330
90B
 75
     0
 76
     1
 98
        1
 10
9.797441964364623
 20
0.1230643230943542
450
        1
451
        0
460
0.0
461
0.0
452
        1
462
0.0
453
        2
463
0.0
 63
    18
421
   327680
463
1.0
 63
    18
421
   327680
470
LINEAR
1001
ACAD
1010
0.0
1020
0.0
1030
0.0
  0
LWPOLYLINE
  5
90B
102
{ACAD_REACTORS
330
90A
102
}
330
1F
100
AcDbEntity
  8
DETAIL
100
AcDbPolyline
 90
        3
 70
     1
 43
0.0
 10
167.0130595436078
 20
108.0900826865695
 10
167.0875958049767
 20
108.116433127574
 10
167.0121490176172
 20
108.1400705428956
  0
HATCH
  5
90C
330
1F
100
AcDbEntity
  8
DETAIL
100
AcDbHatch
 10
0.0
 20
0.0
 30
0.0
210
0.0
220
0.0
230
1.0
  2
SOLID
 70
     1
 71
     1
 91
        1
 92
        1
 93
        3
 72
     1
 10
167.0188269530254
 20
108.2572747250223
 11
167.0933632143943
 21
108.2836251660268
 72
     1
 10
167.0933632143943
 20
108.2836251660268
 11
167.0230610483864
 21
108.3056566865923
 72
     1
 10
167.0230610483864
 20
108.3056566865923
 11
167.0188269530254
 21
108.2572747250223
 97
        1
330
90D
 75
     0
 76
     1
 98
        1
 10
9.797441964364623
 20
0.1230643230943542
450
        1
451
        0
460
0.0
461
0.0
452
        1
462
0.0
453
        2
463
0.0
 63
    18
421
   327680
463
1.0
 63
    18
421
   327680
470
LINEAR
1001
ACAD
1010
0.0
1020
0.0
1030
0.0
  0
LWPOLYLINE
  5
90D
102
{ACAD_REACTORS
330
90C
102
}
330
1F
100
AcDbEntity
  8
DETAIL
100
AcDbPolyline
 90
        3
 70
     1
 43
0.0
 10
167.0188269530254
 20
108.2572747250223
 10
167.0933632143943
 20
108.2836251660268
 10
167.0230610483864
 20
108.3056566865923
  0
HATCH
  5
90E
330
1F
100
AcDbEntity
  8
DETAIL
100
AcDbHatch
 10
0.0
 20
0.0
 30
0.0
210
0.0
220
0.0
230
1.0
  2
SOLID
 70
     1
 71
     1
 91
        1
 92
        1
 93
        3
 72
     1
 10
167.030596987574
 20
108.3917680017821
 11
167.1051332489428
 21
108.4181184427866
 72
     1
 10
167.1051332489428
 20
108.4181184427866
 11
167.0348310829349
 21
108.4401499633521
 72
     1
 10
167.0348310829349
 20
108.4401499633521
 11
167.030596987574
 21
108.3917680017821
 97
        1
330
90F
 75
     0
 76
     1
 98
        1
 10
9.797441964364623
 20
0.1230643230943542
450
        1
451
        0
460
0.0
461
0.0
452
        1
462
0.0
453
        2
463
0.0
 63
    18
421
   327680
463
1.0
 63
    18
421
   327680
470
LINEAR
1001
ACAD
1010
0.0
1020
0.0
1030
0.0
  0
LWPOLYLINE
  5
90F
102
{ACAD_REACTORS
330
90E
102
}
330
1F
100
AcDbEntity
  8
DETAIL
100
AcDbPolyline
 90
        3
 70
     1
 43
0.0
 10
167.030596987574
 20
108.3917680017821
 10
167.1051332489428
 20
108.4181184427866
 10
167.0348310829349
 20
108.4401499633521
  0
HATCH
  5
910
330
1F
100
AcDbEntity
  8
DETAIL
100
AcDbHatch
 10
0.0
 20
0.0
 30
0.0
210
0.0
220
0.0
230
1.0
  2
SOLID
 70
     1
 71
     1
 91
        1
 92
        1
 93
        3
 72
     1
 10
166.8838113335705
 20
108.3823037940515
 11
166.8831738402401
 21
108.4322964548834
 72
     1
 10
166.8831738402401
 20
108.4322964548834
 11
166.8084953580617
 21
108.4063518157547
 72
     1
 10
166.8084953580617
 20
108.4063518157547
 11
166.8838113335705
 21
108.3823037940515
 97
        1
330
911
 75
     0
 76
     1
 98
        1
 10
9.797441964364623
 20
0.1230643230943542
450
        1
451
        0
460
0.0
461
0.0
452
        1
462
0.0
453
        2
463
0.0
 63
    18
421
   327680
463
1.0
 63
    18
421
   327680
470
LINEAR
1001
ACAD
1010
0.0
1020
0.0
1030
0.0
  0
LWPOLYLINE
  5
911
102
{ACAD_REACTORS
330
910
102
}
330
1F
100
AcDbEntity
  8
DETAIL
100
AcDbPolyline
 90
        3
 70
     1
 43
0.0
 10
166.8838113335705
 20
108.3823037940515
 10
166.8831738402401
 20
108.4322964548834
 10
166.8084953580617
 20
108.4063518157547
  0
HATCH
  5
912
330
1F
100
AcDbEntity
  8
DETAIL
100
AcDbHatch
 10
0.0
 20
0.0
 30
0.0
210
0.0
220
0.0
230
1.0
  2
SOLID
 70
     1
 71
     1
 91
        1
 92
        1
 93
        3
 72
     1
 10
166.8845645544642
 20
108.2756043423981
 11
166.8845645544642
 21
108.3253988112662
 72
     1
 10
166.8845645544642
 20
108.3253988112662
 11
166.8098860722858
 21
108.2994541721375
 72
     1
 10
166.8098860722858
 20
108.2994541721375
 11
166.8845645544642
 21
108.2756043423981
 97
        1
330
913
 75
     0
 76
     1
 98
        1
 10
9.797441964364623
 20
0.1230643230943542
450
        1
451
        0
460
0.0
461
0.0
452
        1
462
0.0
453
        2
463
0.0
 63
    18
421
   327680
463
1.0
 63
    18
421
   327680
470
LINEAR
1001
ACAD
1010
0.0
1020
0.0
1030
0.0
  0
LWPOLYLINE
  5
913
102
{ACAD_REACTORS
330
912
102
}
330
1F
100
AcDbEntity
  8
DETAIL
100
AcDbPolyline
 90
        3
 70
     1
 43
0.0
 10
166.8845645544642
 20
108.2756043423981
 10
166.8845645544642
 20
108.3253988112662
 10
166.8098860722858
 20
108.2994541721375
  0
HATCH
  5
914
330
1F
100
AcDbEntity
  8
DETAIL
100
AcDbHatch
 10
0.0
 20
0.0
 30
0.0
210
0.0
220
0.0
230
1.0
  2
SOLID
 70
     1
 71
     1
 91
        1
 92
        1
 93
        3
 72
     1
 10
166.8845645544642
 20
108.1606256089552
 11
166.8845645544641
 21
108.2104200778233
 72
     1
 10
166.8845645544641
 20
108.2104200778233
 11
166.8098860722858
 21
108.1844754386946
 72
     1
 10
166.8098860722858
 20
108.1844754386946
 11
166.8845645544642
 21
108.1606256089552
 97
        1
330
915
 75
     0
 76
     1
 98
        1
 10
9.797441964364623
 20
0.1230643230943542
450
        1
451
        0
460
0.0
461
0.0
452
        1
462
0.0
453
        2
463
0.0
 63
    18
421
   327680
463
1.0
 63
    18
421
   327680
470
LINEAR
1001
ACAD
1010
0.0
1020
0.0
1030
0.0
  0
LWPOLYLINE
  5
915
102
{ACAD_REACTORS
330
914
102
}
330
1F
100
AcDbEntity
  8
DETAIL
100
AcDbPolyline
 90
        3
 70
     1
 43
0.0
 10
166.8845645544642
 20
108.1606256089552
 10
166.8845645544641
 20
108.2104200778233
 10
166.8098860722858
 20
108.1844754386946
  0
HATCH
  5
916
330
1F
100
AcDbEntity
  8
DETAIL
100
AcDbHatch
 10
0.0
 20
0.0
 30
0.0
210
0.0
220
0.0
230
1.0
  2
SOLID
 70
     1
 71
     1
 91
        1
 92
        1
 93
        3
 72
     1
 10
166.8796303308273
 20
108.0184493123263
 11
166.8814484975406
 21
108.067663119064
 72
     1
 10
166.8814484975406
 20
108.067663119064
 11
166.8067700153622
 21
108.0417184799353
 72
     1
 10
166.8067700153622
 20
108.0417184799353
 11
166.8796303308273
 21
108.0184493123263
 97
        1
330
917
 75
     0
 76
     1
 98
        1
 10
9.797441964364623
 20
0.1230643230943542
450
        1
451
        0
460
0.0
461
0.0
452
        1
462
0.0
453
        2
463
0.0
 63
    18
421
   327680
463
1.0
 63
    18
421
   327680
470
LINEAR
1001
ACAD
1010
0.0
1020
0.0
1030
0.0
  0
LWPOLYLINE
  5
917
102
{ACAD_REACTORS
330
916
102
}
330
1F
100
AcDbEntity
  8
DETAIL
100
AcDbPolyline
 90
        3
 70
     1
 43
0.0
 10
166.8796303308273
 20
108.0184493123263
 10
166.8814484975406
 20
108.067663119064
 10
166.8067700153622
 20
108.0417184799353
  0
HATCH
  5
918
330
1F
100
AcDbEntity
  8
DETAIL
100
AcDbHatch
 10
0.0
 20
0.0
 30
0.0
210
0.0
220
0.0
230
1.0
  2
SOLID
 70
     1
 71
     1
 91
        1
 92
        1
 93
        3
 72
     1
 10
165.1971798704564
 20
108.3901955616051
 11
165.1242546223542
 21
108.4108445365316
 72
     1
 10
165.1242546223542
 20
108.4108445365316
 11
165.1234037096618
 21
108.361786441619
 72
     1
 10
165.1234037096618
 20
108.361786441619
 11
165.1971798704564
 21
108.3901955616051
 97
        1
330
919
 75
     0
 76
     1
 98
        1
 10
9.797441964364623
 20
0.1230643230943542
450
        1
451
        0
460
0.0
461
0.0
452
        1
462
0.0
453
        2
463
0.0
 63
    18
421
   327680
463
1.0
 63
    18
421
   327680
470
LINEAR
1001
ACAD
1010
0.0
1020
0.0
1030
0.0
  0
LWPOLYLINE
  5
919
102
{ACAD_REACTORS
330
918
102
}
330
1F
100
AcDbEntity
  8
DETAIL
100
AcDbPolyline
 90
        3
 70
     1
 43
0.0
 10
165.1971798704564
 20
108.3901955616051
 10
165.1242546223542
 20
108.4108445365316
 10
165.1234037096618
 20
108.361786441619
  0
HATCH
  5
91A
330
1F
100
AcDbEntity
  8
DETAIL
100
AcDbHatch
 10
0.0
 20
0.0
 30
0.0
210
0.0
220
0.0
230
1.0
  2
SOLID
 70
     1
 71
     1
 91
        1
 92
        1
 93
        3
 72
     1
 10
165.120724657361
 20
108.207329699795
 11
165.1945008181556
 21
108.2357388197811
 72
     1
 10
165.1945008181556
 20
108.2357388197811
 11
165.1215755700534
 21
108.2563877947076
 72
     1
 10
165.1215755700534
 20
108.2563877947076
 11
165.120724657361
 21
108.207329699795
 97
        1
330
91B
 75
     0
 76
     1
 98
        1
 10
9.797441964364623
 20
0.1230643230943542
450
        1
451
        0
460
0.0
461
0.0
452
        1
462
0.0
453
        2
463
0.0
 63
    18
421
   327680
463
1.0
 63
    18
421
   327680
470
LINEAR
1001
ACAD
1010
0.0
1020
0.0
1030
0.0
  0
LWPOLYLINE
  5
91B
102
{ACAD_REACTORS
330
91A
102
}
330
1F
100
AcDbEntity
  8
DETAIL
100
AcDbPolyline
 90
        3
 70
     1
 43
0.0
 10
165.120724657361
 20
108.207329699795
 10
165.1945008181556
 20
108.2357388197811
 10
165.1215755700534
 20
108.2563877947076
  0
HATCH
  5
91C
330
1F
100
AcDbEntity
  8
DETAIL
100
AcDbHatch
 10
0.0
 20
0.0
 30
0.0
210
0.0
220
0.0
230
1.0
  2
SOLID
 70
     1
 71
     1
 91
        1
 92
        1
 93
        3
 72
     1
 10
165.1184279447587
 20
108.0749161797777
 11
165.1922041055533
 21
108.1033252997638
 72
     1
 10
165.1922041055533
 20
108.1033252997638
 11
165.1192788574511
 21
108.1239742746904
 72
     1
 10
165.1192788574511
 20
108.1239742746904
 11
165.1184279447587
 21
108.0749161797777
 97
        1
330
91D
 75
     0
 76
     1
 98
        1
 10
9.797441964364623
 20
0.1230643230943542
450
        1
451
        0
460
0.0
461
0.0
452
        1
462
0.0
453
        2
463
0.0
 63
    18
421
   327680
463
1.0
 63
    18
421
   327680
470
LINEAR
1001
ACAD
1010
0.0
1020
0.0
1030
0.0
  0
LWPOLYLINE
  5
91D
102
{ACAD_REACTORS
330
91C
102
}
330
1F
100
AcDbEntity
  8
DETAIL
100
AcDbPolyline
 90
        3
 70
     1
 43
0.0
 10
165.1184279447587
 20
108.0749161797777
 10
165.1922041055533
 20
108.1033252997638
 10
165.1192788574511
 20
108.1239742746904
  0
HATCH
  5
91E
330
1F
100
AcDbEntity
  8
DETAIL
100
AcDbHatch
 10
0.0
 20
0.0
 30
0.0
210
0.0
220
0.0
230
1.0
  2
SOLID
 70
     1
 71
     1
 91
        1
 92
        1
 93
        3
 72
     1
 10
165.1191080218479
 20
107.9481070694984
 11
165.1928841826426
 21
107.9765161894845
 72
     1
 10
165.1928841826426
 20
107.9765161894845
 11
165.1176742232839
 21
107.9978120863849
 72
     1
 10
165.1176742232839
 20
107.9978120863849
 11
165.1191080218479
 21
107.9481070694984
 97
        1
330
91F
 75
     0
 76
     1
 98
        1
 10
9.797441964364623
 20
0.1230643230943542
450
        1
451
        0
460
0.0
461
0.0
452
        1
462
0.0
453
        2
463
0.0
 63
    18
421
   327680
463
1.0
 63
    18
421
   327680
470
LINEAR
1001
ACAD
1010
0.0
1020
0.0
1030
0.0
  0
LWPOLYLINE
  5
91F
102
{ACAD_REACTORS
330
91E
102
}
330
1F
100
AcDbEntity
  8
DETAIL
100
AcDbPolyline
 90
        3
 70
     1
 43
0.0
 10
165.1191080218479
 20
107.9481070694984
 10
165.1928841826426
 20
107.9765161894845
 10
165.1176742232839
 20
107.9978120863849
  0
HATCH
  5
920
330
1F
100
AcDbEntity
  8
DETAIL
100
AcDbHatch
 10
0.0
 20
0.0
 30
0.0
210
0.0
220
0.0
230
1.0
  2
SOLID
 70
     1
 71
     1
 91
        1
 92
        1
 93
        4
 72
     1
 10
168.27596907316
 20
107.9133118657072
 11
168.2769867894903
 21
107.963179965889
 72
     1
 10
168.2769867894903
 20
107.963179965889
 11
168.2013800990509
 21
107.940079568473
 72
     1
 10
168.2013800990509
 20
107.940079568473
 11
168.2757256898521
 21
107.9131958721421
 72
     1
 10
168.2757256898521
 20
107.9131958721421
 11
168.27596907316
 21
107.9133118657072
 97
        1
330
921
 75
     0
 76
     1
 98
        1
 10
9.795139575929056
 20
-0.009483917482072
450
        1
451
        0
460
0.0
461
0.0
452
        1
462
0.0
453
        2
463
0.0
 63
    18
421
   327680
463
1.0
 63
    18
421
   327680
470
LINEAR
1001
ACAD
1010
0.0
1020
0.0
1030
0.0
  0
LWPOLYLINE
  5
921
102
{ACAD_REACTORS
330
920
102
}
330
1F
100
AcDbEntity
  8
DETAIL
100
AcDbPolyline
 90
        4
 70
     1
 43
0.0
 10
168.27596907316
 20
107.9133118657072
 10
168.2769867894903
 20
107.963179965889
 10
168.2013800990509
 20
107.940079568473
 10
168.2757256898521
 20
107.9131958721421
  0
LWPOLYLINE
  5
922
330
1F
100
AcDbEntity
  8
SECTION POINT
  6
DASHDOT
 62
     5
 48
0.005
100
AcDbPolyline
 90
        2
 70
     0
 43
0.0
 10
164.7870036607415
 20
105.6612138754332
 10
166.2286245509885
 20
105.6612138754332
  0
LWPOLYLINE
  5
923
330
1F
100
AcDbEntity
  8
SECTION POINT
  6
DASHDOT
 62
     5
 48
0.005
100
AcDbPolyline
 90
        2
 70
     0
 43
0.0
 10
167.169354992274
 20
104.0730330213782
 10
168.5321276416648
 20
104.0730330213781
  0
LWPOLYLINE
  5
924
330
1F
100
AcDbEntity
  8
SECTION POINT
  6
DASHDOT
 62
     5
 48
0.005
100
AcDbPolyline
 90
        2
 70
     0
 43
0.0
 10
170.46535951098
 20
105.1511656523472
 10
173.6912636789224
 20
105.1504494138017
  0
LWPOLYLINE
  5
925
330
1F
100
AcDbEntity
  8
SECTION POINT
  6
DASHDOT
 62
     5
 48
0.005
100
AcDbPolyline
 90
        2
 70
     0
 43
0.0
 10
169.7794636541437
 20
107.6670421361505
 10
171.1139222747672
 20
107.6670421361505
  0
LWPOLYLINE
  5
926
330
1F
100
AcDbEntity
  8
CONTEXT 1
100
AcDbPolyline
 90
        3
 70
     0
 43
0.0
 10
170.3378881654315
 20
108.7373952187538
 10
170.7373063244561
 20
108.1645862310053
 10
171.1623654263445
 20
107.6432405507498
  0
LWPOLYLINE
  5
927
330
1F
100
AcDbEntity
  8
CONTEXT 1
100
AcDbPolyline
 90
        4
 70
     0
 43
0.0
 10
171.9859718627829
 20
107.0611427686054
 10
171.3264674606724
 20
107.7485135539036
 10
170.9115316933015
 20
108.2314703885697
 10
170.5152097990754
 20
108.7980868467209
  0
LWPOLYLINE
  5
928
330
1F
100
AcDbEntity
  8
CONTEXT 2
100
AcDbPolyline
 90
       28
 70
     0
 43
0.0
 10
170.747334870514
 20
108.1522859670106
 10
170.6205610796736
 20
108.2128598052061
 10
170.4445941586373
 20
108.1954216418601
 10
170.2670419500241
 20
108.1589600275913
 10
170.1592423947946
 20
108.0892073742076
 10
170.0175622716325
 20
107.9738628409168
 10
169.8958121857262
 20
107.8787455863025
 10
169.8603017440036
 20
107.8026517826111
 10
169.8294617081032
 20
107.7105589594522
 10
169.8304762921524
 20
107.6192463950225
 10
169.8815796224815
 20
107.4649947432146
 10
169.9026119498218
 20
107.4022427197705
 10
169.9474159814353
 20
107.324971998582
 10
170.0054298973696
 20
107.2495579662036
 10
170.0630582713652
 20
107.2105979387136
 10
170.1482833314996
 20
107.1830012525748
 10
170.1986067003408
 20
107.1635212388298
 10
170.294383434587
 20
107.1610862371117
 10
170.4128868515358
 20
107.1667679077873
 10
170.567103627017
 20
107.1830012525748
 10
170.6927249851861
 20
107.2107477483896
 10
170.8055974606616
 20
107.2513311103583
 10
170.8753501140454
 20
107.3210837637421
 10
170.9273475465679
 20
107.4111280981103
 10
170.9808391126315
 20
107.5051871732669
 10
170.9919995371729
 20
107.5691059683677
 10
170.98204393119
 20
107.7410868819529
 10
170.9498358754003
 20
107.9039133908775
  0
LWPOLYLINE
  5
929
330
1F
100
AcDbEntity
  8
CONTEXT 1
100
AcDbPolyline
 90
        4
 70
     0
 43
0.0
 10
170.318257456336
 20
108.1694774976376
 10
170.3038208280195
 20
108.2428654652418
 10
170.3000161378349
 20
108.3887119223169
 10
170.3013715587132
 20
108.5440740680724
  0
LWPOLYLINE
  5
92A
330
1F
100
AcDbEntity
  8
CONTEXT 1
100
AcDbPolyline
 90
        8
 70
     0
 43
0.0
 10
170.3949175208674
 20
107.6670421361505
 10
170.4044292463288
 20
107.5677290129677
 10
170.4599143115204
 20
107.4092002552773
 10
170.516984664289
 20
107.2871331118557
 10
170.5756403046344
 20
107.2094540205874
 10
170.6062190157858
 20
107.1400605339203
 10
170.6268277542856
 20
106.9767759134992
 10
170.6582114942846
 20
106.6919443221426
  0
LWPOLYLINE
  5
92B
330
1F
100
AcDbEntity
  8
Annotatons
100
AcDbPolyline
 90
        5
 70
     0
 43
0.0
 10
170.6399104297101
 20
105.772430470503
 10
170.6399104297101
 20
105.1511656523472
 10
170.6399104297101
 20
104.6693861359872
 10
170.6592620847016
 20
104.3065426048965
 10
170.671281276669
 20
103.5525083918487
  0
LWPOLYLINE
  5
92C
330
1F
100
AcDbEntity
  8
CONTEXT 1
100
AcDbPolyline
 90
        8
 70
     0
 43
0.0
 10
173.4939824628159
 20
105.8423027957306
 10
173.5373301699969
 20
105.2973601911699
 10
173.5373301699969
 20
105.1511656523472
 10
173.5456392868589
 20
104.8247564919242
 10
173.5495096178572
 20
104.6738135829905
 10
173.5688612728487
 20
104.4183717371026
 10
173.5688612728487
 20
104.062301285259
 10
173.5852497056697
 20
103.5057144270463
  0
LWPOLYLINE
  5
92D
330
1F
100
AcDbEntity
  8
DETAIL
  6
DASHDOT
 48
0.005
100
AcDbPolyline
 90
        2
 70
     0
 43
0.0
 10
173.5688612728487
 20
104.3649279086691
 10
170.6575041262326
 20
104.3395043261903
  0
LWPOLYLINE
  5
92E
330
1F
100
AcDbEntity
  8
CONTEXT 1
100
AcDbPolyline
 90
        3
 70
     0
 43
0.0
 10
171.9363456912159
 20
104.3506718787671
 10
171.9246962856331
 20
103.9757782215743
 10
171.9092149616399
 20
103.4494132058054
  0
LWPOLYLINE
  5
92F
330
1F
100
AcDbEntity
  8
CONTEXT 1
100
AcDbPolyline
 90
        3
 70
     0
 43
0.0
 10
172.8224825216342
 20
104.3584101161804
 10
172.8187427462406
 20
103.9022419326066
 10
172.8380944012321
 20
103.5384308187663
  0
LWPOLYLINE
  5
930
330
1F
100
AcDbEntity
  8
CONTEXT 1
100
AcDbPolyline
 90
        4
 70
     0
 43
0.0
 10
173.2831857677227
 20
104.3624332319939
 10
173.2947934590316
 20
104.1809057644843
 10
173.2909231280333
 20
103.89450127061
 10
173.3064044520265
 20
103.573263797751
  0
LWPOLYLINE
  5
931
330
1F
100
AcDbEntity
  8
CONTEXT 1
100
AcDbPolyline
 90
        2
 70
     0
 43
0.0
 10
173.260445363968
 20
105.1511656523472
 10
173.2480482099892
 20
105.7340050127965
  0
LWPOLYLINE
  5
932
330
1F
100
AcDbEntity
  8
CONTEXT 1
100
AcDbPolyline
 90
        3
 70
     0
 43
0.0
 10
172.7981222314367
 20
105.1511656523472
 10
172.7932843176888
 20
105.6324088240911
 10
172.8077980589324
 20
105.7775462365274
  0
LWPOLYLINE
  5
933
330
1F
100
AcDbEntity
  8
CONTEXT 1
100
AcDbPolyline
 90
        3
 70
     0
 43
0.0
 10
171.966001066802
 20
105.1511656523472
 10
171.9611631530541
 20
105.6178950828475
 10
171.9611631530541
 20
105.8501149427455
  0
LWPOLYLINE
  5
934
330
1F
100
AcDbEntity
  8
CONTEXT 1
100
AcDbPolyline
 90
        3
 70
     0
 43
0.0
 10
170.9645529209917
 20
105.1511656523472
 10
170.9403633522523
 20
105.4243785329324
 10
170.9355254385044
 20
105.7968978915189
  0
LWPOLYLINE
  5
935
330
1F
100
AcDbEntity
  8
CONTEXT 1
100
AcDbPolyline
 90
       14
 70
     0
 43
0.0
 10
171.6133362582938
 20
105.1511656523472
 10
171.6973564998697
 20
105.0504270490709
 10
171.7734503035611
 20
104.9473833565722
 10
171.8638116954446
 20
104.8459249516503
 10
171.9430760742898
 20
104.768245860382
 10
172.006487577366
 20
104.7301989585363
 10
172.088922531365
 20
104.7270283833825
 10
172.1935515114406
 20
104.7412959715747
 10
172.2791570405934
 20
104.7745870106896
 10
172.3378126809389
 20
104.8094633373815
 10
172.3504949815541
 20
104.9061658795727
 10
172.3260485788882
 20
105.0262429163817
 10
172.2918393412087
 20
105.1249355651854
 10
172.2680600275551
 20
105.1511656523472
  0
LWPOLYLINE
  5
936
330
1F
100
AcDbEntity
  8
CONTEXT 1
100
AcDbPolyline
 90
        3
 70
     0
 43
0.0
 10
172.006487577366
 20
104.7301989585363
 10
171.9956103560283
 20
104.5278679411856
 10
171.99715309313
 20
104.3512028826666
  0
LWPOLYLINE
  5
937
330
1F
100
AcDbEntity
  8
CONTEXT 1
100
AcDbPolyline
 90
        6
 70
     0
 43
0.0
 10
172.8667727298938
 20
105.1511656523472
 10
172.876918570386
 20
105.0206828572342
 10
172.8744972913134
 20
104.7461358190328
 10
172.8840214018341
 20
104.5454483198441
 10
172.8760949639496
 20
104.4166437042206
 10
172.8765993650666
 20
104.3588826944191
  0
LWPOLYLINE
  5
938
330
1F
100
AcDbEntity
  8
CONTEXT 1
100
AcDbPolyline
 90
        4
 70
     0
 43
0.0
 10
173.1951642796701
 20
104.3616645796271
 10
173.1733363846191
 20
104.7535173143127
 10
173.1648944186456
 20
105.0892158919138
 10
173.1648944186456
 20
105.1511656523472
  0
LWPOLYLINE
  5
939
330
1F
100
AcDbEntity
  8
EVALUATION TRENCH (LOE)
  6
DASHDOT
 48
0.005
100
AcDbPolyline
 90
        2
 70
     0
 43
0.0
 10
166.8780011849738
 20
104.858648902812
 10
169.016359061535
 20
104.8828384715514
  0
LWPOLYLINE
  5
93A
330
1F
100
AcDbEntity
  8
CONTEXT 1
100
AcDbPolyline
 90
       20
 70
     0
 43
0.0
 10
168.3632695514613
 20
104.875450581166
 10
168.4503231530335
 20
104.3071267355542
 10
168.4648368942772
 20
104.0458793931689
 10
168.4886038228715
 20
103.7648500149851
 10
168.4886038228715
 20
103.6360453993616
 10
168.4588796808046
 20
103.5592580323553
 10
168.4272156223298
 20
103.5076370168563
 10
168.3544902376818
 20
103.4615083443081
 10
168.2522591255481
 20
103.4423919574864
 10
168.0749428457731
 20
103.4577005469599
 10
167.9312761591162
 20
103.4502695114432
 10
167.7132991172919
 20
103.425499393054
 10
167.5225692056956
 20
103.4230223812151
 10
167.4358737913337
 20
103.4799936535101
 10
167.3665174598441
 20
103.5567810205164
 10
167.3169772230659
 20
103.6310913756838
 10
167.2600059507709
 20
103.7995281807298
 10
167.2500979034153
 20
103.8986086542863
 10
167.2302818087039
 20
104.0150282107152
 10
167.2302818087039
 20
104.0730330213782
  0
LWPOLYLINE
  5
93B
330
1F
100
AcDbEntity
  8
CONTEXT 2
100
AcDbPolyline
 90
       37
 70
     1
 43
0.0
 10
164.9588777669094
 20
106.0075910954623
 10
164.9201744569264
 20
105.8140745455472
 10
164.9201744569264
 20
105.6612138754332
 10
164.927915118923
 20
105.4425227697104
 10
164.9588588688088
 20
105.2574120949323
 10
165.0002602607549
 20
105.0842429445821
 10
165.1136721087409
 20
104.9042443913373
 10
165.1721063661532
 20
104.8574907928779
 10
165.245425916585
 20
104.8099321655707
 10
165.3306351238436
 20
104.7722815856193
 10
165.3920650174486
 20
104.752465490908
 10
165.4614213489382
 20
104.7504838814368
 10
165.5842811361482
 20
104.7782264140326
 10
165.6972328760027
 20
104.8178586034552
 10
165.7705524264344
 20
104.8911781538871
 10
165.8458535863374
 20
105.0041298937415
 10
165.9231905403454
 20
105.1545464376594
 10
165.9826388244793
 20
105.2536269112159
 10
166.0148399783852
 20
105.4146326807453
 10
166.0321790612576
 20
105.6103166160193
 10
166.0321790612576
 20
105.6612138754332
 10
166.0227064261392
 20
105.7856426102424
 10
166.0202294143003
 20
105.9144472258658
 10
166.0078443551058
 20
106.0407748296503
 10
165.9833838631965
 20
106.1663283672353
 10
165.8966884488345
 20
106.3223801130867
 10
165.8137375797134
 20
106.4439859130534
 10
165.68493296409
 20
106.5331583392542
 10
165.5883295023724
 20
106.5752675405157
 10
165.5189731708828
 20
106.5802215641936
 10
165.4397087920376
 20
106.5703135168379
 10
165.34310533032
 20
106.538112362932
 10
165.2415478449246
 20
106.453893960409
 10
165.1102662174623
 20
106.3250893447856
 10
165.0681570162008
 20
106.285457155363
 10
165.0285248267782
 20
106.1913307054843
 10
164.9588777669094
 20
106.0075910954623
  0
LWPOLYLINE
  5
93C
330
1F
100
AcDbEntity
  8
CONTEXT 2
100
AcDbPolyline
 90
        5
 70
     0
 43
0.0
 10
167.2302818087039
 20
104.0730330213782
 10
167.2512193959768
 20
104.4282157112871
 10
167.3031326100968
 20
104.6589270709753
 10
167.3437159720655
 20
104.8288698992194
 10
167.3555003037232
 20
104.8640504765536
  0
LWPOLYLINE
  5
93D
330
1F
100
AcDbEntity
  8
CONTEXT 1
100
AcDbPolyline
 90
       10
 70
     0
 43
0.0
 10
167.7573534137688
 20
102.3042330034655
 10
167.752515500021
 20
102.792862292001
 10
167.7815429825082
 20
103.1315162543523
 10
167.7476916887067
 20
103.4294076398057
 10
167.7251764200172
 20
103.5138571909073
 10
167.6821580563303
 20
103.6023289199992
 10
167.6667363787822
 20
103.677813973261
 10
167.6704935103395
 20
103.8072083158631
 10
167.6779245458562
 20
103.9682140853924
 10
167.6779245458562
 20
104.0730330213782
  0
LWPOLYLINE
  5
93E
330
1F
100
AcDbEntity
  8
CONTEXT 1
100
AcDbPolyline
 90
        3
 70
     0
 43
0.0
 10
171.1623654263445
 20
107.6432405507498
 10
171.4388772269808
 20
107.3595597436303
 10
171.8681936929673
 20
106.9390482806649
  0
HATCH
  5
940
330
1F
100
AcDbEntity
  8
DETAIL
100
AcDbHatch
 10
0.0
 20
0.0
 30
0.0
210
0.0
220
0.0
230
1.0
  2
SOLID
 70
     1
 71
     1
 91
        1
 92
        1
 93
        5
 72
     1
 10
172.8537224149182
 20
104.8116918609454
 11
172.871735853825
 21
104.8022602362591
 72
     1
 10
172.871735853825
 20
104.8022602362591
 11
172.9475996560551
 21
104.8245017180264
 72
     1
 10
172.9475996560551
 20
104.8245017180264
 11
172.8735637252106
 21
104.8522268139508
 72
     1
 10
172.8735637252106
 20
104.8522268139508
 11
172.8550624003331
 21
104.8436654111211
 72
     1
 10
172.8550624003331
 20
104.8436654111211
 11
172.8537224149182
 21
104.8116918609454
 97
        1
330
941
 75
     0
 76
     1
 98
        1
 10
11.47817942364728
 20
-0.4002243071748239
450
        1
451
        0
460
0.0
461
0.0
452
        1
462
0.0
453
        2
463
0.0
 63
    18
421
   327680
463
1.0
 63
    18
421
   327680
470
LINEAR
1001
ACAD
1010
0.0
1020
0.0
1030
0.0
  0
LWPOLYLINE
  5
941
102
{ACAD_REACTORS
330
940
102
}
330
1F
100
AcDbEntity
  8
DETAIL
100
AcDbPolyline
 90
        5
 70
     1
 43
0.0
 10
172.8537224149182
 20
104.8116918609454
 10
172.871735853825
 20
104.8022602362591
 10
172.9475996560551
 20
104.8245017180264
 10
172.8735637252106
 20
104.8522268139508
 10
172.8550624003331
 20
104.8436654111211
  0
HATCH
  5
942
330
1F
100
AcDbEntity
  8
DETAIL
100
AcDbHatch
 10
0.0
 20
0.0
 30
0.0
210
0.0
220
0.0
230
1.0
  2
SOLID
 70
     1
 71
     1
 91
        1
 92
        1
 93
        3
 72
     1
 10
169.873507395474
 20
107.4893601679658
 11
169.9275022200078
 21
107.547105807832
 72
     1
 10
169.9275022200078
 20
107.547105807832
 11
169.8584328509118
 21
107.5348615743127
 72
     1
 10
169.8584328509118
 20
107.5348615743127
 11
169.873507395474
 21
107.4893601679658
 97
        1
330
943
 75
     0
 76
     1
 98
        1
 10
9.797441964364623
 20
0.1230643230943542
450
        1
451
        0
460
0.0
461
0.0
452
        1
462
0.0
453
        2
463
0.0
 63
    18
421
   327680
463
1.0
 63
    18
421
   327680
470
LINEAR
1001
ACAD
1010
0.0
1020
0.0
1030
0.0
  0
LWPOLYLINE
  5
943
102
{ACAD_REACTORS
330
942
102
}
330
1F
100
AcDbEntity
  8
DETAIL
100
AcDbPolyline
 90
        3
 70
     1
 43
0.0
 10
169.873507395474
 20
107.4893601679658
 10
169.9275022200078
 20
107.547105807832
 10
169.8584328509118
 20
107.5348615743127
  0
HATCH
  5
944
330
1F
100
AcDbEntity
  8
DETAIL
100
AcDbHatch
 10
0.0
 20
0.0
 30
0.0
210
0.0
220
0.0
230
1.0
  2
SOLID
 70
     1
 71
     1
 91
        1
 92
        1
 93
        3
 72
     1
 10
170.0484573079034
 20
107.2204690126033
 11
170.0687407131729
 21
107.2968796366726
 72
     1
 10
170.0687407131729
 20
107.2968796366726
 11
170.0072137850537
 21
107.2483519576284
 72
     1
 10
170.0072137850537
 20
107.2483519576284
 11
170.0484573079034
 21
107.2204690126033
 97
        1
330
945
 75
     0
 76
     1
 98
        1
 10
9.797441964364623
 20
0.1230643230943542
450
        1
451
        0
460
0.0
461
0.0
452
        1
462
0.0
453
        2
463
0.0
 63
    18
421
   327680
463
1.0
 63
    18
421
   327680
470
LINEAR
1001
ACAD
1010
0.0
1020
0.0
1030
0.0
  0
LWPOLYLINE
  5
945
102
{ACAD_REACTORS
330
944
102
}
330
1F
100
AcDbEntity
  8
DETAIL
100
AcDbPolyline
 90
        3
 70
     1
 43
0.0
 10
170.0484573079034
 20
107.2204690126033
 10
170.0687407131729
 20
107.2968796366726
 10
170.0072137850537
 20
107.2483519576284
  0
HATCH
  5
946
330
1F
100
AcDbEntity
  8
DETAIL
100
AcDbHatch
 10
0.0
 20
0.0
 30
0.0
210
0.0
220
0.0
230
1.0
  2
SOLID
 70
     1
 71
     1
 91
        1
 92
        1
 93
        3
 72
     1
 10
170.3811579319032
 20
107.1652466582159
 11
170.3518960963437
 21
107.238688778145
 72
     1
 10
170.3518960963437
 20
107.238688778145
 11
170.3313706566899
 21
107.1628595970756
 72
     1
 10
170.3313706566899
 20
107.1628595970756
 11
170.3811579319032
 21
107.1652466582159
 97
        1
330
947
 75
     0
 76
     1
 98
        1
 10
9.797441964364623
 20
0.1230643230943542
450
        1
451
        0
460
0.0
461
0.0
452
        1
462
0.0
453
        2
463
0.0
 63
    18
421
   327680
463
1.0
 63
    18
421
   327680
470
LINEAR
1001
ACAD
1010
0.0
1020
0.0
1030
0.0
  0
LWPOLYLINE
  5
947
102
{ACAD_REACTORS
330
946
102
}
330
1F
100
AcDbEntity
  8
DETAIL
100
AcDbPolyline
 90
        3
 70
     1
 43
0.0
 10
170.3811579319032
 20
107.1652466582159
 10
170.3518960963437
 20
107.238688778145
 10
170.3313706566899
 20
107.1628595970756
  0
HATCH
  5
948
330
1F
100
AcDbEntity
  8
DETAIL
100
AcDbHatch
 10
0.0
 20
0.0
 30
0.0
210
0.0
220
0.0
230
1.0
  2
SOLID
 70
     1
 71
     1
 91
        1
 92
        1
 93
        3
 72
     1
 10
170.6641708594105
 20
107.2044408835151
 11
170.6170596196613
 21
107.2676221262725
 72
     1
 10
170.6170596196613
 20
107.2676221262725
 11
170.6168543080028
 21
107.1939898860514
 72
     1
 10
170.6168543080028
 20
107.1939898860514
 11
170.6641708594105
 21
107.2044408835151
 97
        1
330
949
 75
     0
 76
     1
 98
        1
 10
9.797441964364623
 20
0.1230643230943542
450
        1
451
        0
460
0.0
461
0.0
452
        1
462
0.0
453
        2
463
0.0
 63
    18
421
   327680
463
1.0
 63
    18
421
   327680
470
LINEAR
1001
ACAD
1010
0.0
1020
0.0
1030
0.0
  0
LWPOLYLINE
  5
949
102
{ACAD_REACTORS
330
948
102
}
330
1F
100
AcDbEntity
  8
DETAIL
100
AcDbPolyline
 90
        3
 70
     1
 43
0.0
 10
170.6641708594105
 20
107.2044408835151
 10
170.6170596196613
 20
107.2676221262725
 10
170.6168543080028
 20
107.1939898860514
  0
HATCH
  5
94A
330
1F
100
AcDbEntity
  8
DETAIL
100
AcDbHatch
 10
0.0
 20
0.0
 30
0.0
210
0.0
220
0.0
230
1.0
  2
SOLID
 70
     1
 71
     1
 91
        1
 92
        1
 93
        4
 72
     1
 10
170.9054767022315
 20
107.3732541969425
 11
170.9273475465679
 21
107.4111280981103
 72
     1
 10
170.9273475465679
 20
107.4111280981103
 11
170.9299818562181
 21
107.4157602438411
 72
     1
 10
170.9299818562181
 20
107.4157602438411
 11
170.851675767268
 21
107.4266302223755
 72
     1
 10
170.851675767268
 20
107.4266302223755
 11
170.9054767022315
 21
107.3732541969425
 97
        1
330
94B
 75
     0
 76
     1
 98
        1
 10
9.797441964364623
 20
0.1230643230943542
450
        1
451
        0
460
0.0
461
0.0
452
        1
462
0.0
453
        2
463
0.0
 63
    18
421
   327680
463
1.0
 63
    18
421
   327680
470
LINEAR
1001
ACAD
1010
0.0
1020
0.0
1030
0.0
  0
LWPOLYLINE
  5
94B
102
{ACAD_REACTORS
330
94A
102
}
330
1F
100
AcDbEntity
  8
DETAIL
100
AcDbPolyline
 90
        4
 70
     1
 43
0.0
 10
170.9054767022315
 20
107.3732541969425
 10
170.9273475465679
 20
107.4111280981103
 10
170.9299818562181
 20
107.4157602438411
 10
170.851675767268
 20
107.4266302223755
  0
HATCH
  5
94C
330
1F
100
AcDbEntity
  8
DETAIL
100
AcDbHatch
 10
0.0
 20
0.0
 30
0.0
210
0.0
220
0.0
230
1.0
  2
SOLID
 70
     1
 71
     1
 91
        1
 92
        1
 93
        4
 72
     1
 10
170.985688732048
 20
107.5329622662887
 11
170.9919995371729
 21
107.5691059683677
 72
     1
 10
170.9919995371729
 20
107.5691059683677
 11
170.9912542660739
 21
107.581980363428
 72
     1
 10
170.9912542660739
 20
107.581980363428
 11
170.9146960767242
 21
107.562261244698
 72
     1
 10
170.9146960767242
 20
107.562261244698
 11
170.985688732048
 21
107.5329622662887
 97
        1
330
94D
 75
     0
 76
     1
 98
        1
 10
9.797441964364623
 20
0.1230643230943542
450
        1
451
        0
460
0.0
461
0.0
452
        1
462
0.0
453
        2
463
0.0
 63
    18
421
   327680
463
1.0
 63
    18
421
   327680
470
LINEAR
1001
ACAD
1010
0.0
1020
0.0
1030
0.0
  0
LWPOLYLINE
  5
94D
102
{ACAD_REACTORS
330
94C
102
}
330
1F
100
AcDbEntity
  8
DETAIL
100
AcDbPolyline
 90
        4
 70
     1
 43
0.0
 10
170.985688732048
 20
107.5329622662887
 10
170.9919995371729
 20
107.5691059683677
 10
170.9912542660739
 20
107.581980363428
 10
170.9146960767242
 20
107.562261244698
  0
HATCH
  5
94E
330
1F
100
AcDbEntity
  8
DETAIL
100
AcDbHatch
 10
0.0
 20
0.0
 30
0.0
210
0.0
220
0.0
230
1.0
  2
SOLID
 70
     1
 71
     1
 91
        1
 92
        1
 93
        3
 72
     1
 10
164.9264829099893
 20
105.4829858923067
 11
164.9950771362033
 21
105.5222902448657
 72
     1
 10
164.9950771362033
 20
105.5222902448657
 11
164.9247836951584
 21
105.5309925318411
 72
     1
 10
164.9247836951584
 20
105.5309925318411
 11
164.9264829099893
 21
105.4829858923067
 97
        1
330
94F
 75
     0
 76
     1
 98
        1
 10
9.797441964364623
 20
0.1230643230943542
450
        1
451
        0
460
0.0
461
0.0
452
        1
462
0.0
453
        2
463
0.0
 63
    18
421
   327680
463
1.0
 63
    18
421
   327680
470
LINEAR
1001
ACAD
1010
0.0
1020
0.0
1030
0.0
  0
LWPOLYLINE
  5
94F
102
{ACAD_REACTORS
330
94E
102
}
330
1F
100
AcDbEntity
  8
DETAIL
100
AcDbPolyline
 90
        3
 70
     1
 43
0.0
 10
164.9264829099893
 20
105.4829858923067
 10
164.9950771362033
 20
105.5222902448657
 10
164.9247836951584
 20
105.5309925318411
  0
HATCH
  5
950
330
1F
100
AcDbEntity
  8
DETAIL
100
AcDbHatch
 10
0.0
 20
0.0
 30
0.0
210
0.0
220
0.0
230
1.0
  2
SOLID
 70
     1
 71
     1
 91
        1
 92
        1
 93
        3
 72
     1
 10
164.9701678618716
 20
105.2101100930443
 11
165.0177681204316
 21
105.2601517339623
 72
     1
 10
165.0177681204316
 20
105.2601517339623
 11
164.9605100063344
 21
105.2505059000202
 72
     1
 10
164.9605100063344
 20
105.2505059000202
 11
164.9701678618716
 21
105.2101100930443
 97
        1
330
951
 75
     0
 76
     1
 98
        1
 10
9.797441964364623
 20
0.1230643230943542
450
        1
451
        0
460
0.0
461
0.0
452
        1
462
0.0
453
        2
463
0.0
 63
    18
421
   327680
463
1.0
 63
    18
421
   327680
470
LINEAR
1001
ACAD
1010
0.0
1020
0.0
1030
0.0
  0
LWPOLYLINE
  5
951
102
{ACAD_REACTORS
330
950
102
}
330
1F
100
AcDbEntity
  8
DETAIL
100
AcDbPolyline
 90
        3
 70
     1
 43
0.0
 10
164.9701678618716
 20
105.2101100930443
 10
165.0177681204316
 20
105.2601517339623
 10
164.9605100063344
 20
105.2505059000202
  0
HATCH
  5
952
330
1F
100
AcDbEntity
  8
DETAIL
100
AcDbHatch
 10
0.0
 20
0.0
 30
0.0
210
0.0
220
0.0
230
1.0
  2
SOLID
 70
     1
 71
     1
 91
        1
 92
        1
 93
        4
 72
     1
 10
165.1485779062151
 20
104.8763160542405
 11
165.1725834485536
 21
104.9516402464833
 72
     1
 10
165.1725834485536
 20
104.9516402464833
 11
165.110883520123
 21
104.9077060875526
 72
     1
 10
165.110883520123
 20
104.9077060875526
 11
165.1136721087408
 21
104.9042443913373
 72
     1
 10
165.1136721087408
 20
104.9042443913373
 11
165.1485779062151
 21
104.8763160542405
 97
        1
330
953
 75
     0
 76
     1
 98
        1
 10
9.797441964364623
 20
0.1230643230943542
450
        1
451
        0
460
0.0
461
0.0
452
        1
462
0.0
453
        2
463
0.0
 63
    18
421
   327680
463
1.0
 63
    18
421
   327680
470
LINEAR
1001
ACAD
1010
0.0
1020
0.0
1030
0.0
  0
LWPOLYLINE
  5
953
102
{ACAD_REACTORS
330
952
102
}
330
1F
100
AcDbEntity
  8
DETAIL
100
AcDbPolyline
 90
        4
 70
     1
 43
0.0
 10
165.1485779062151
 20
104.8763160542405
 10
165.1725834485536
 20
104.9516402464833
 10
165.110883520123
 20
104.9077060875526
 10
165.1136721087408
 20
104.9042443913373
  0
HATCH
  5
954
330
1F
100
AcDbEntity
  8
DETAIL
100
AcDbHatch
 10
0.0
 20
0.0
 30
0.0
210
0.0
220
0.0
230
1.0
  2
SOLID
 70
     1
 71
     1
 91
        1
 92
        1
 93
        4
 72
     1
 10
165.4324743265992
 20
104.7513109392179
 11
165.4126377543536
 21
104.8278387799136
 72
     1
 10
165.4126377543536
 20
104.8278387799136
 11
165.3828832049213
 21
104.7554273659168
 72
     1
 10
165.3828832049213
 20
104.7554273659168
 11
165.3920650174486
 21
104.752465490908
 72
     1
 10
165.3920650174486
 20
104.752465490908
 11
165.4324743265992
 21
104.7513109392179
 97
        1
330
955
 75
     0
 76
     1
 98
        1
 10
9.797441964364623
 20
0.1230643230943542
450
        1
451
        0
460
0.0
461
0.0
452
        1
462
0.0
453
        2
463
0.0
 63
    18
421
   327680
463
1.0
 63
    18
421
   327680
470
LINEAR
1001
ACAD
1010
0.0
1020
0.0
1030
0.0
  0
LWPOLYLINE
  5
955
102
{ACAD_REACTORS
330
954
102
}
330
1F
100
AcDbEntity
  8
DETAIL
100
AcDbPolyline
 90
        4
 70
     1
 43
0.0
 10
165.4324743265992
 20
104.7513109392179
 10
165.4126377543536
 20
104.8278387799136
 10
165.3828832049213
 20
104.7554273659168
 10
165.3920650174486
 20
104.752465490908
  0
HATCH
  5
956
330
1F
100
AcDbEntity
  8
DETAIL
100
AcDbHatch
 10
0.0
 20
0.0
 30
0.0
210
0.0
220
0.0
230
1.0
  2
SOLID
 70
     1
 71
     1
 91
        1
 92
        1
 93
        4
 72
     1
 10
165.7356848165902
 20
104.8563105440428
 11
165.7691229601361
 21
104.8897486875887
 72
     1
 10
165.7691229601361
 20
104.8897486875887
 11
165.7283715620593
 21
104.936216185225
 72
     1
 10
165.7283715620593
 20
104.936216185225
 11
165.7344098354297
 21
104.857390179017
 72
     1
 10
165.7344098354297
 20
104.857390179017
 11
165.7356848165902
 21
104.8563105440428
 97
        1
330
957
 75
     0
 76
     1
 98
        1
 10
9.797441964364623
 20
0.1230643230943542
450
        1
451
        0
460
0.0
461
0.0
452
        1
462
0.0
453
        2
463
0.0
 63
    18
421
   327680
463
1.0
 63
    18
421
   327680
470
LINEAR
1001
ACAD
1010
0.0
1020
0.0
1030
0.0
  0
LWPOLYLINE
  5
957
102
{ACAD_REACTORS
330
956
102
}
330
1F
100
AcDbEntity
  8
DETAIL
100
AcDbPolyline
 90
        4
 70
     1
 43
0.0
 10
165.7356848165902
 20
104.8563105440428
 10
165.7691229601361
 20
104.8897486875887
 10
165.7283715620593
 20
104.936216185225
 10
165.7344098354297
 20
104.857390179017
  0
HATCH
  5
958
330
1F
100
AcDbEntity
  8
DETAIL
100
AcDbHatch
 10
0.0
 20
0.0
 30
0.0
210
0.0
220
0.0
230
1.0
  2
SOLID
 70
     1
 71
     1
 91
        1
 92
        1
 93
        3
 72
     1
 10
165.9313343745413
 20
105.1681194946526
 11
165.9567488503631
 21
105.2104769543556
 72
     1
 10
165.9567488503631
 20
105.2104769543556
 11
165.8789657570998
 21
105.2246116776417
 72
     1
 10
165.8789657570998
 20
105.2246116776417
 11
165.9313343745413
 21
105.1681194946526
 97
        1
330
959
 75
     0
 76
     1
 98
        1
 10
9.797441964364623
 20
0.1230643230943542
450
        1
451
        0
460
0.0
461
0.0
452
        1
462
0.0
453
        2
463
0.0
 63
    18
421
   327680
463
1.0
 63
    18
421
   327680
470
LINEAR
1001
ACAD
1010
0.0
1020
0.0
1030
0.0
  0
LWPOLYLINE
  5
959
102
{ACAD_REACTORS
330
958
102
}
330
1F
100
AcDbEntity
  8
DETAIL
100
AcDbPolyline
 90
        3
 70
     1
 43
0.0
 10
165.9313343745413
 20
105.1681194946526
 10
165.9567488503631
 20
105.2104769543556
 10
165.8789657570998
 20
105.2246116776417
  0
HATCH
  5
95A
330
1F
100
AcDbEntity
  8
DETAIL
100
AcDbHatch
 10
0.0
 20
0.0
 30
0.0
210
0.0
220
0.0
230
1.0
  2
SOLID
 70
     1
 71
     1
 91
        1
 92
        1
 93
        4
 72
     1
 10
166.0239748605402
 20
105.5177263507804
 11
166.0283271832521
 21
105.5668454213863
 72
     1
 10
166.0283271832521
 20
105.5668454213863
 11
165.9509271416431
 21
105.5507446897596
 72
     1
 10
165.9509271416431
 20
105.5507446897596
 11
166.0225076139065
 21
105.5171852500956
 72
     1
 10
166.0225076139065
 20
105.5171852500956
 11
166.0239748605402
 21
105.5177263507804
 97
        1
330
95B
 75
     0
 76
     1
 98
        1
 10
9.797441964364623
 20
0.1230643230943542
450
        1
451
        0
460
0.0
461
0.0
452
        1
462
0.0
453
        2
463
0.0
 63
    18
421
   327680
463
1.0
 63
    18
421
   327680
470
LINEAR
1001
ACAD
1010
0.0
1020
0.0
1030
0.0
  0
LWPOLYLINE
  5
95B
102
{ACAD_REACTORS
330
95A
102
}
330
1F
100
AcDbEntity
  8
DETAIL
100
AcDbPolyline
 90
        4
 70
     1
 43
0.0
 10
166.0239748605402
 20
105.5177263507804
 10
166.0283271832521
 20
105.5668454213863
 10
165.9509271416431
 20
105.5507446897596
 10
166.0225076139065
 20
105.5171852500956
  0
HATCH
  5
95C
330
1F
100
AcDbEntity
  8
DETAIL
100
AcDbHatch
 10
0.0
 20
0.0
 30
0.0
210
0.0
220
0.0
230
1.0
  2
SOLID
 70
     1
 71
     1
 91
        1
 92
        1
 93
        3
 72
     1
 10
167.2443243929616
 20
103.9325280282015
 11
167.31131645873
 21
103.9616790426008
 72
     1
 10
167.31131645873
 20
103.9616790426008
 11
167.236332711819
 21
103.9794791549142
 72
     1
 10
167.236332711819
 20
103.9794791549142
 11
167.2443243929616
 21
103.9325280282015
 97
        1
330
95D
 75
     0
 76
     1
 98
        1
 10
10.17233502093919
 20
-1.476746880448545
450
        1
451
        0
460
0.0
461
0.0
452
        1
462
0.0
453
        2
463
0.0
 63
    18
421
   327680
463
1.0
 63
    18
421
   327680
470
LINEAR
1001
ACAD
1010
0.0
1020
0.0
1030
0.0
  0
LWPOLYLINE
  5
95D
102
{ACAD_REACTORS
330
95C
102
}
330
1F
100
AcDbEntity
  8
DETAIL
100
AcDbPolyline
 90
        3
 70
     1
 43
0.0
 10
167.2443243929616
 20
103.9325280282015
 10
167.31131645873
 20
103.9616790426008
 10
167.236332711819
 20
103.9794791549142
  0
HATCH
  5
95E
330
1F
100
AcDbEntity
  8
DETAIL
100
AcDbHatch
 10
0.0
 20
0.0
 30
0.0
210
0.0
220
0.0
230
1.0
  2
SOLID
 70
     1
 71
     1
 91
        1
 92
        1
 93
        3
 72
     1
 10
167.2899088734686
 20
103.7111195397106
 11
167.3514301499644
 21
103.7562692764039
 72
     1
 10
167.3514301499644
 20
103.7562692764039
 11
167.2743667672377
 21
103.7570701146541
 72
     1
 10
167.2743667672377
 20
103.7570701146541
 11
167.2899088734686
 21
103.7111195397106
 97
        1
330
95F
 75
     0
 76
     1
 98
        1
 10
10.17233502093919
 20
-1.476746880448545
450
        1
451
        0
460
0.0
461
0.0
452
        1
462
0.0
453
        2
463
0.0
 63
    18
421
   327680
463
1.0
 63
    18
421
   327680
470
LINEAR
1001
ACAD
1010
0.0
1020
0.0
1030
0.0
  0
LWPOLYLINE
  5
95F
102
{ACAD_REACTORS
330
95E
102
}
330
1F
100
AcDbEntity
  8
DETAIL
100
AcDbPolyline
 90
        3
 70
     1
 43
0.0
 10
167.2899088734686
 20
103.7111195397106
 10
167.3514301499644
 20
103.7562692764039
 10
167.2743667672377
 20
103.7570701146541
  0
HATCH
  5
960
330
1F
100
AcDbEntity
  8
DETAIL
100
AcDbHatch
 10
0.0
 20
0.0
 30
0.0
210
0.0
220
0.0
230
1.0
  2
SOLID
 70
     1
 71
     1
 91
        1
 92
        1
 93
        4
 72
     1
 10
167.4507732274028
 20
103.4702025955219
 11
167.4839242950057
 21
103.537813116986
 72
     1
 10
167.4839242950057
 20
103.537813116986
 11
167.4152628871279
 21
103.5028128688808
 72
     1
 10
167.4152628871279
 20
103.5028128688808
 11
167.4358737913337
 21
103.4799936535101
 72
     1
 10
167.4358737913337
 20
103.4799936535101
 11
167.4507732274028
 21
103.4702025955219
 97
        1
330
961
 75
     0
 76
     1
 98
        1
 10
10.17233502093919
 20
-1.476746880448545
450
        1
451
        0
460
0.0
461
0.0
452
        1
462
0.0
453
        2
463
0.0
 63
    18
421
   327680
463
1.0
 63
    18
421
   327680
470
LINEAR
1001
ACAD
1010
0.0
1020
0.0
1030
0.0
  0
LWPOLYLINE
  5
961
102
{ACAD_REACTORS
330
960
102
}
330
1F
100
AcDbEntity
  8
DETAIL
100
AcDbPolyline
 90
        4
 70
     1
 43
0.0
 10
167.4507732274028
 20
103.4702025955219
 10
167.4839242950057
 20
103.537813116986
 10
167.4152628871279
 20
103.5028128688808
 10
167.4358737913337
 20
103.4799936535101
  0
HATCH
  5
962
330
1F
100
AcDbEntity
  8
DETAIL
100
AcDbHatch
 10
0.0
 20
0.0
 30
0.0
210
0.0
220
0.0
230
1.0
  2
SOLID
 70
     1
 71
     1
 91
        1
 92
        1
 93
        3
 72
     1
 10
167.7109935038358
 20
103.4254694500221
 11
167.7003931011234
 21
103.4929460837559
 72
     1
 10
167.7003931011234
 20
103.4929460837559
 11
167.6642811604879
 21
103.4248627962124
 72
     1
 10
167.6642811604879
 20
103.4248627962124
 11
167.7109935038358
 21
103.4254694500221
 97
        1
330
963
 75
     0
 76
     1
 98
        1
 10
10.17233502093919
 20
-1.476746880448545
450
        1
451
        0
460
0.0
461
0.0
452
        1
462
0.0
453
        2
463
0.0
 63
    18
421
   327680
463
1.0
 63
    18
421
   327680
470
LINEAR
1001
ACAD
1010
0.0
1020
0.0
1030
0.0
  0
LWPOLYLINE
  5
963
102
{ACAD_REACTORS
330
962
102
}
330
1F
100
AcDbEntity
  8
DETAIL
100
AcDbPolyline
 90
        3
 70
     1
 43
0.0
 10
167.7109935038358
 20
103.4254694500221
 10
167.7003931011234
 20
103.4929460837559
 10
167.6642811604879
 20
103.4248627962124
  0
HATCH
  5
964
330
1F
100
AcDbEntity
  8
DETAIL
100
AcDbHatch
 10
0.0
 20
0.0
 30
0.0
210
0.0
220
0.0
230
1.0
  2
SOLID
 70
     1
 71
     1
 91
        1
 92
        1
 93
        3
 72
     1
 10
168.0566141496772
 20
103.4567525109549
 11
168.0283705430973
 21
103.5285366458192
 72
     1
 10
168.0283705430973
 20
103.5285366458192
 11
168.0079143237313
 21
103.4542335544405
 72
     1
 10
168.0079143237313
 20
103.4542335544405
 11
168.0566141496772
 21
103.4567525109549
 97
        1
330
965
 75
     0
 76
     1
 98
        1
 10
10.17233502093919
 20
-1.476746880448545
450
        1
451
        0
460
0.0
461
0.0
452
        1
462
0.0
453
        2
463
0.0
 63
    18
421
   327680
463
1.0
 63
    18
421
   327680
470
LINEAR
1001
ACAD
1010
0.0
1020
0.0
1030
0.0
  0
LWPOLYLINE
  5
965
102
{ACAD_REACTORS
330
964
102
}
330
1F
100
AcDbEntity
  8
DETAIL
100
AcDbPolyline
 90
        3
 70
     1
 43
0.0
 10
168.0566141496772
 20
103.4567525109549
 10
168.0283705430973
 20
103.5285366458192
 10
168.0079143237313
 20
103.4542335544405
  0
HATCH
  5
966
330
1F
100
AcDbEntity
  8
DETAIL
100
AcDbHatch
 10
0.0
 20
0.0
 30
0.0
210
0.0
220
0.0
230
1.0
  2
SOLID
 70
     1
 71
     1
 91
        1
 92
        1
 93
        4
 72
     1
 10
168.3544902376818
 20
103.4615083443081
 11
168.3832116470825
 21
103.4797259239851
 72
     1
 10
168.3832116470825
 20
103.4797259239851
 11
168.3193286140913
 21
103.5184353177851
 72
     1
 10
168.3193286140913
 20
103.5184353177851
 11
168.3430900430444
 21
103.4593766005954
 72
     1
 10
168.3430900430444
 20
103.4593766005954
 11
168.3544902376818
 21
103.4615083443081
 97
        1
330
967
 75
     0
 76
     1
 98
        1
 10
10.17233502093919
 20
-1.476746880448545
450
        1
451
        0
460
0.0
461
0.0
452
        1
462
0.0
453
        2
463
0.0
 63
    18
421
   327680
463
1.0
 63
    18
421
   327680
470
LINEAR
1001
ACAD
1010
0.0
1020
0.0
1030
0.0
  0
LWPOLYLINE
  5
967
102
{ACAD_REACTORS
330
966
102
}
330
1F
100
AcDbEntity
  8
DETAIL
100
AcDbPolyline
 90
        4
 70
     1
 43
0.0
 10
168.3544902376818
 20
103.4615083443081
 10
168.3832116470825
 20
103.4797259239851
 10
168.3193286140913
 20
103.5184353177851
 10
168.3430900430444
 20
103.4593766005954
  0
HATCH
  5
968
330
1F
100
AcDbEntity
  8
DETAIL
100
AcDbHatch
 10
0.0
 20
0.0
 30
0.0
210
0.0
220
0.0
230
1.0
  2
SOLID
 70
     1
 71
     1
 91
        1
 92
        1
 93
        3
 72
     1
 10
168.4886038228715
 20
103.7135109366406
 11
168.4886038228715
 21
103.7597669171396
 72
     1
 10
168.4886038228715
 20
103.7597669171396
 11
168.4257751840779
 21
103.7581424103619
 72
     1
 10
168.4257751840779
 20
103.7581424103619
 11
168.4886038228715
 21
103.7135109366406
 97
        1
330
969
 75
     0
 76
     1
 98
        1
 10
10.17233502093919
 20
-1.476746880448545
450
        1
451
        0
460
0.0
461
0.0
452
        1
462
0.0
453
        2
463
0.0
 63
    18
421
   327680
463
1.0
 63
    18
421
   327680
470
LINEAR
1001
ACAD
1010
0.0
1020
0.0
1030
0.0
  0
LWPOLYLINE
  5
969
102
{ACAD_REACTORS
330
968
102
}
330
1F
100
AcDbEntity
  8
DETAIL
100
AcDbPolyline
 90
        3
 70
     1
 43
0.0
 10
168.4886038228715
 20
103.7135109366406
 10
168.4886038228715
 20
103.7597669171396
 10
168.4257751840779
 20
103.7581424103619
  0
HATCH
  5
96A
330
1F
100
AcDbEntity
  8
DETAIL
100
AcDbHatch
 10
0.0
 20
0.0
 30
0.0
210
0.0
220
0.0
230
1.0
  2
SOLID
 70
     1
 71
     1
 91
        1
 92
        1
 93
        3
 72
     1
 10
168.4740666632188
 20
103.9367430268036
 11
168.4699184366324
 21
103.9857932662364
 72
     1
 10
168.4699184366324
 20
103.9857932662364
 11
168.3989840389592
 21
103.9508889509339
 72
     1
 10
168.3989840389592
 20
103.9508889509339
 11
168.4740666632188
 21
103.9367430268036
 97
        1
330
96B
 75
     0
 76
     1
 98
        1
 10
10.17233502093919
 20
-1.476746880448545
450
        1
451
        0
460
0.0
461
0.0
452
        1
462
0.0
453
        2
463
0.0
 63
    18
421
   327680
463
1.0
 63
    18
421
   327680
470
LINEAR
1001
ACAD
1010
0.0
1020
0.0
1030
0.0
  0
LWPOLYLINE
  5
96B
102
{ACAD_REACTORS
330
96A
102
}
330
1F
100
AcDbEntity
  8
DETAIL
100
AcDbPolyline
 90
        3
 70
     1
 43
0.0
 10
168.4740666632188
 20
103.9367430268036
 10
168.4699184366324
 20
103.9857932662364
 10
168.3989840389592
 20
103.9508889509339
  0
HATCH
  5
96C
330
1F
100
AcDbEntity
  8
DETAIL
100
AcDbHatch
 10
0.0
 20
0.0
 30
0.0
210
0.0
220
0.0
230
1.0
  2
SOLID
 70
     1
 71
     1
 91
        1
 92
        1
 93
        4
 72
     1
 10
170.6424029339294
 20
105.01586493611
 11
170.7148941766211
 21
105.047408869489
 72
     1
 10
170.7148941766211
 20
105.047408869489
 11
170.6399104297101
 21
105.0652089818025
 72
     1
 10
170.6399104297101
 20
105.0652089818025
 11
170.6399104297101
 21
105.0167948660713
 72
     1
 10
170.6399104297101
 20
105.0167948660713
 11
170.6424029339294
 21
105.01586493611
 97
        1
330
96D
 75
     0
 76
     1
 98
        1
 10
11.47817942364728
 20
-0.4002243071748239
450
        1
451
        0
460
0.0
461
0.0
452
        1
462
0.0
453
        2
463
0.0
 63
    18
421
   327680
463
1.0
 63
    18
421
   327680
470
LINEAR
1001
ACAD
1010
0.0
1020
0.0
1030
0.0
  0
LWPOLYLINE
  5
96D
102
{ACAD_REACTORS
330
96C
102
}
330
1F
100
AcDbEntity
  8
DETAIL
100
AcDbPolyline
 90
        4
 70
     1
 43
0.0
 10
170.6424029339294
 20
105.01586493611
 10
170.7148941766211
 20
105.047408869489
 10
170.6399104297101
 20
105.0652089818025
 10
170.6399104297101
 20
105.0167948660713
  0
HATCH
  5
96E
330
1F
100
AcDbEntity
  8
DETAIL
100
AcDbHatch
 10
0.0
 20
0.0
 30
0.0
210
0.0
220
0.0
230
1.0
  2
SOLID
 70
     1
 71
     1
 91
        1
 92
        1
 93
        4
 72
     1
 10
170.6424029339294
 20
104.7695837735657
 11
170.7148941766211
 21
104.8011277069448
 72
     1
 10
170.7148941766211
 20
104.8011277069448
 11
170.6399104297101
 21
104.8189278192582
 72
     1
 10
170.6399104297101
 20
104.8189278192582
 11
170.6399104297101
 21
104.770513703527
 72
     1
 10
170.6399104297101
 20
104.770513703527
 11
170.6424029339294
 21
104.7695837735657
 97
        1
330
96F
 75
     0
 76
     1
 98
        1
 10
11.47817942364728
 20
-0.4002243071748239
450
        1
451
        0
460
0.0
461
0.0
452
        1
462
0.0
453
        2
463
0.0
 63
    18
421
   327680
463
1.0
 63
    18
421
   327680
470
LINEAR
1001
ACAD
1010
0.0
1020
0.0
1030
0.0
  0
LWPOLYLINE
  5
96F
102
{ACAD_REACTORS
330
96E
102
}
330
1F
100
AcDbEntity
  8
DETAIL
100
AcDbPolyline
 90
        4
 70
     1
 43
0.0
 10
170.6424029339294
 20
104.7695837735657
 10
170.7148941766211
 20
104.8011277069448
 10
170.6399104297101
 20
104.8189278192582
 10
170.6399104297101
 20
104.770513703527
  0
HATCH
  5
970
330
1F
100
AcDbEntity
  8
DETAIL
100
AcDbHatch
 10
0.0
 20
0.0
 30
0.0
210
0.0
220
0.0
230
1.0
  2
SOLID
 70
     1
 71
     1
 91
        1
 92
        1
 93
        3
 72
     1
 10
170.6476025004359
 20
104.525159809879
 11
170.7199577216336
 21
104.5566445546887
 72
     1
 10
170.7199577216336
 20
104.5566445546887
 11
170.6449739747227
 21
104.5744446670022
 72
     1
 10
170.6449739747227
 20
104.5744446670022
 11
170.6476025004359
 21
104.525159809879
 97
        1
330
971
 75
     0
 76
     1
 98
        1
 10
11.47817942364728
 20
-0.4002243071748239
450
        1
451
        0
460
0.0
461
0.0
452
        1
462
0.0
453
        2
463
0.0
 63
    18
421
   327680
463
1.0
 63
    18
421
   327680
470
LINEAR
1001
ACAD
1010
0.0
1020
0.0
1030
0.0
  0
LWPOLYLINE
  5
971
102
{ACAD_REACTORS
330
970
102
}
330
1F
100
AcDbEntity
  8
DETAIL
100
AcDbPolyline
 90
        3
 70
     1
 43
0.0
 10
170.6476025004359
 20
104.525159809879
 10
170.7199577216336
 20
104.5566445546887
 10
170.6449739747227
 20
104.5744446670022
  0
HATCH
  5
972
330
1F
100
AcDbEntity
  8
DETAIL
100
AcDbHatch
 10
0.0
 20
0.0
 30
0.0
210
0.0
220
0.0
230
1.0
  2
SOLID
 70
     1
 71
     1
 91
        1
 92
        1
 93
        4
 72
     1
 10
171.9959754625627
 20
104.4860581168196
 11
171.9956103560283
 21
104.5278679411856
 72
     1
 10
171.9956103560283
 20
104.5278679411856
 11
171.9959753599026
 21
104.5346575065474
 72
     1
 10
171.9959753599026
 20
104.5346575065474
 11
171.9230827548871
 21
104.5110792971855
 72
     1
 10
171.9230827548871
 20
104.5110792971855
 11
171.9959754625627
 21
104.4860581168196
 97
        1
330
973
 75
     0
 76
     1
 98
        1
 10
11.47817942364728
 20
-0.4002243071748239
450
        1
451
        0
460
0.0
461
0.0
452
        1
462
0.0
453
        2
463
0.0
 63
    18
421
   327680
463
1.0
 63
    18
421
   327680
470
LINEAR
1001
ACAD
1010
0.0
1020
0.0
1030
0.0
  0
LWPOLYLINE
  5
973
102
{ACAD_REACTORS
330
972
102
}
330
1F
100
AcDbEntity
  8
DETAIL
100
AcDbPolyline
 90
        4
 70
     1
 43
0.0
 10
171.9959754625627
 20
104.4860581168196
 10
171.9956103560283
 20
104.5278679411856
 10
171.9959753599026
 20
104.5346575065474
 10
171.9230827548871
 20
104.5110792971855
  0
HATCH
  5
974
330
1F
100
AcDbEntity
  8
DETAIL
100
AcDbHatch
 10
0.0
 20
0.0
 30
0.0
210
0.0
220
0.0
230
1.0
  2
SOLID
 70
     1
 71
     1
 91
        1
 92
        1
 93
        4
 72
     1
 10
172.0022989713994
 20
104.6522852266939
 11
172.0049437672504
 21
104.7014820039414
 72
     1
 10
172.0049437672504
 20
104.7014820039414
 11
172.0046259753577
 21
104.7016373540561
 72
     1
 10
172.0046259753577
 20
104.7016373540561
 11
171.9294062637238
 21
104.6773064070599
 72
     1
 10
171.9294062637238
 20
104.6773064070599
 11
172.0022989713994
 21
104.6522852266939
 97
        1
330
975
 75
     0
 76
     1
 98
        1
 10
11.47817942364728
 20
-0.4002243071748239
450
        1
451
        0
460
0.0
461
0.0
452
        1
462
0.0
453
        2
463
0.0
 63
    18
421
   327680
463
1.0
 63
    18
421
   327680
470
LINEAR
1001
ACAD
1010
0.0
1020
0.0
1030
0.0
  0
LWPOLYLINE
  5
975
102
{ACAD_REACTORS
330
974
102
}
330
1F
100
AcDbEntity
  8
DETAIL
100
AcDbPolyline
 90
        4
 70
     1
 43
0.0
 10
172.0022989713994
 20
104.6522852266939
 10
172.0049437672504
 20
104.7014820039414
 10
172.0046259753577
 20
104.7016373540561
 10
171.9294062637238
 20
104.6773064070599
  0
HATCH
  5
976
330
1F
100
AcDbEntity
  8
DETAIL
100
AcDbHatch
 10
0.0
 20
0.0
 30
0.0
210
0.0
220
0.0
230
1.0
  2
SOLID
 70
     1
 71
     1
 91
        1
 92
        1
 93
        4
 72
     1
 10
171.9785266196158
 20
104.7469755331864
 11
171.9724153409289
 21
104.8197153252477
 72
     1
 10
171.9724153409289
 20
104.8197153252477
 11
171.9412751079017
 21
104.7700108074424
 72
     1
 10
171.9412751079017
 20
104.7700108074424
 11
171.9430760742898
 21
104.768245860382
 72
     1
 10
171.9430760742898
 20
104.768245860382
 11
171.9785266196158
 21
104.7469755331864
 97
        1
330
977
 75
     0
 76
     1
 98
        1
 10
11.47817942364728
 20
-0.4002243071748239
450
        1
451
        0
460
0.0
461
0.0
452
        1
462
0.0
453
        2
463
0.0
 63
    18
421
   327680
463
1.0
 63
    18
421
   327680
470
LINEAR
1001
ACAD
1010
0.0
1020
0.0
1030
0.0
  0
LWPOLYLINE
  5
977
102
{ACAD_REACTORS
330
976
102
}
330
1F
100
AcDbEntity
  8
DETAIL
100
AcDbPolyline
 90
        4
 70
     1
 43
0.0
 10
171.9785266196158
 20
104.7469755331864
 10
171.9724153409289
 20
104.8197153252477
 10
171.9412751079017
 20
104.7700108074424
 10
171.9430760742898
 20
104.768245860382
  0
HATCH
  5
978
330
1F
100
AcDbEntity
  8
DETAIL
100
AcDbHatch
 10
0.0
 20
0.0
 30
0.0
210
0.0
220
0.0
230
1.0
  2
SOLID
 70
     1
 71
     1
 91
        1
 92
        1
 93
        3
 72
     1
 10
171.8608424642132
 20
104.8492588253137
 11
171.8904264636619
 21
104.8929834523933
 72
     1
 10
171.8904264636619
 20
104.8929834523933
 11
171.8380163248936
 21
104.8748881747252
 72
     1
 10
171.8380163248936
 20
104.8748881747252
 11
171.8608424642132
 21
104.8492588253137
 97
        1
330
979
 75
     0
 76
     1
 98
        1
 10
11.47817942364728
 20
-0.4002243071748239
450
        1
451
        0
460
0.0
461
0.0
452
        1
462
0.0
453
        2
463
0.0
 63
    18
421
   327680
463
1.0
 63
    18
421
   327680
470
LINEAR
1001
ACAD
1010
0.0
1020
0.0
1030
0.0
  0
LWPOLYLINE
  5
979
102
{ACAD_REACTORS
330
978
102
}
330
1F
100
AcDbEntity
  8
DETAIL
100
AcDbPolyline
 90
        3
 70
     1
 43
0.0
 10
171.8608424642132
 20
104.8492588253137
 10
171.8904264636619
 20
104.8929834523933
 10
171.8380163248936
 20
104.8748881747252
  0
HATCH
  5
97A
330
1F
100
AcDbEntity
  8
DETAIL
100
AcDbHatch
 10
0.0
 20
0.0
 30
0.0
210
0.0
220
0.0
230
1.0
  2
SOLID
 70
     1
 71
     1
 91
        1
 92
        1
 93
        3
 72
     1
 10
171.8380163248937
 20
104.8748881747251
 11
171.8061022920059
 21
104.9107214748096
 72
     1
 10
171.8061022920059
 20
104.9107214748096
 11
171.7622828604418
 21
104.8891657326857
 72
     1
 10
171.7622828604418
 20
104.8891657326857
 11
171.8380163248937
 21
104.8748881747251
 97
        1
330
97B
 75
     0
 76
     1
 98
        1
 10
11.47817942364728
 20
-0.4002243071748239
450
        1
451
        0
460
0.0
461
0.0
452
        1
462
0.0
453
        2
463
0.0
 63
    18
421
   327680
463
1.0
 63
    18
421
   327680
470
LINEAR
1001
ACAD
1010
0.0
1020
0.0
1030
0.0
  0
LWPOLYLINE
  5
97B
102
{ACAD_REACTORS
330
97A
102
}
330
1F
100
AcDbEntity
  8
DETAIL
100
AcDbPolyline
 90
        3
 70
     1
 43
0.0
 10
171.8380163248937
 20
104.8748881747251
 10
171.8061022920059
 20
104.9107214748096
 10
171.7622828604418
 20
104.8891657326857
  0
HATCH
  5
97C
330
1F
100
AcDbEntity
  8
DETAIL
100
AcDbHatch
 10
0.0
 20
0.0
 30
0.0
210
0.0
220
0.0
230
1.0
  2
SOLID
 70
     1
 71
     1
 91
        1
 92
        1
 93
        4
 72
     1
 10
171.716708360707
 20
105.024221404187
 11
171.6973564998697
 21
105.0504270490709
 72
     1
 10
171.6973564998697
 20
105.0504270490709
 11
171.688008079667
 21
105.0616356194867
 72
     1
 10
171.688008079667
 20
105.0616356194867
 11
171.6409748962552
 21
105.0384989621477
 72
     1
 10
171.6409748962552
 20
105.0384989621477
 11
171.716708360707
 21
105.024221404187
 97
        1
330
97D
 75
     0
 76
     1
 98
        1
 10
11.47817942364728
 20
-0.4002243071748239
450
        1
451
        0
460
0.0
461
0.0
452
        1
462
0.0
453
        2
463
0.0
 63
    18
421
   327680
463
1.0
 63
    18
421
   327680
470
LINEAR
1001
ACAD
1010
0.0
1020
0.0
1030
0.0
  0
LWPOLYLINE
  5
97D
102
{ACAD_REACTORS
330
97C
102
}
330
1F
100
AcDbEntity
  8
DETAIL
100
AcDbPolyline
 90
        4
 70
     1
 43
0.0
 10
171.716708360707
 20
105.024221404187
 10
171.6973564998697
 20
105.0504270490709
 10
171.688008079667
 20
105.0616356194867
 10
171.6409748962552
 20
105.0384989621477
  0
HATCH
  5
97E
330
1F
100
AcDbEntity
  8
DETAIL
100
AcDbHatch
 10
0.0
 20
0.0
 30
0.0
210
0.0
220
0.0
230
1.0
  2
SOLID
 70
     1
 71
     1
 91
        1
 92
        1
 93
        3
 72
     1
 10
172.3077174384173
 20
105.0791277197679
 11
172.2918848316918
 21
105.1248043264739
 72
     1
 10
172.2918848316918
 20
105.1248043264739
 11
172.2306572825502
 21
105.0801948078268
 72
     1
 10
172.2306572825502
 20
105.0801948078268
 11
172.3077174384173
 21
105.0791277197679
 97
        1
330
97F
 75
     0
 76
     1
 98
        1
 10
11.47817942364728
 20
-0.4002243071748239
450
        1
451
        0
460
0.0
461
0.0
452
        1
462
0.0
453
        2
463
0.0
 63
    18
421
   327680
463
1.0
 63
    18
421
   327680
470
LINEAR
1001
ACAD
1010
0.0
1020
0.0
1030
0.0
  0
LWPOLYLINE
  5
97F
102
{ACAD_REACTORS
330
97E
102
}
330
1F
100
AcDbEntity
  8
DETAIL
100
AcDbPolyline
 90
        3
 70
     1
 43
0.0
 10
172.3077174384173
 20
105.0791277197679
 10
172.2918848316918
 20
105.1248043264739
 10
172.2306572825502
 20
105.0801948078268
  0
HATCH
  5
980
330
1F
100
AcDbEntity
  8
DETAIL
100
AcDbHatch
 10
0.0
 20
0.0
 30
0.0
210
0.0
220
0.0
230
1.0
  2
SOLID
 70
     1
 71
     1
 91
        1
 92
        1
 93
        3
 72
     1
 10
172.3452896909765
 20
104.9317334805337
 11
172.3359990208246
 21
104.9773678487902
 72
     1
 10
172.3359990208246
 20
104.9773678487902
 11
172.2800663839764
 21
104.9727862091053
 72
     1
 10
172.2800663839764
 20
104.9727862091053
 11
172.3452896909765
 21
104.9317334805337
 97
        1
330
981
 75
     0
 76
     1
 98
        1
 10
11.47817942364728
 20
-0.4002243071748239
450
        1
451
        0
460
0.0
461
0.0
452
        1
462
0.0
453
        2
463
0.0
 63
    18
421
   327680
463
1.0
 63
    18
421
   327680
470
LINEAR
1001
ACAD
1010
0.0
1020
0.0
1030
0.0
  0
LWPOLYLINE
  5
981
102
{ACAD_REACTORS
330
980
102
}
330
1F
100
AcDbEntity
  8
DETAIL
100
AcDbPolyline
 90
        3
 70
     1
 43
0.0
 10
172.3452896909765
 20
104.9317334805337
 10
172.3359990208246
 20
104.9773678487902
 10
172.2800663839764
 20
104.9727862091053
  0
HATCH
  5
982
330
1F
100
AcDbEntity
  8
DETAIL
100
AcDbHatch
 10
0.0
 20
0.0
 30
0.0
210
0.0
220
0.0
230
1.0
  2
SOLID
 70
     1
 71
     1
 91
        1
 92
        1
 93
        4
 72
     1
 10
172.2791570405934
 20
104.7745870106896
 11
172.3121348126277
 21
104.794195415683
 72
     1
 10
172.3121348126277
 20
104.794195415683
 11
172.25487277237
 21
104.8289797521001
 72
     1
 10
172.25487277237
 20
104.8289797521001
 11
172.2770201361269
 21
104.773755992286
 72
     1
 10
172.2770201361269
 20
104.773755992286
 11
172.2791570405934
 21
104.7745870106896
 97
        1
330
983
 75
     0
 76
     1
 98
        1
 10
11.47817942364728
 20
-0.4002243071748239
450
        1
451
        0
460
0.0
461
0.0
452
        1
462
0.0
453
        2
463
0.0
 63
    18
421
   327680
463
1.0
 63
    18
421
   327680
470
LINEAR
1001
ACAD
1010
0.0
1020
0.0
1030
0.0
  0
LWPOLYLINE
  5
983
102
{ACAD_REACTORS
330
982
102
}
330
1F
100
AcDbEntity
  8
DETAIL
100
AcDbPolyline
 90
        4
 70
     1
 43
0.0
 10
172.2791570405934
 20
104.7745870106896
 10
172.3121348126277
 20
104.794195415683
 10
172.25487277237
 20
104.8289797521001
 10
172.2770201361269
 20
104.773755992286
  0
HATCH
  5
984
330
1F
100
AcDbEntity
  8
DETAIL
100
AcDbHatch
 10
0.0
 20
0.0
 30
0.0
210
0.0
220
0.0
230
1.0
  2
SOLID
 70
     1
 71
     1
 91
        1
 92
        1
 93
        3
 72
     1
 10
172.1717242971579
 20
104.7383195332634
 11
172.1347977320124
 21
104.8078047179595
 72
     1
 10
172.1347977320124
 20
104.8078047179595
 11
172.1228980429377
 21
104.7316614076879
 72
     1
 10
172.1228980429377
 20
104.7316614076879
 11
172.1717242971579
 21
104.7383195332634
 97
        1
330
985
 75
     0
 76
     1
 98
        1
 10
11.47817942364728
 20
-0.4002243071748239
450
        1
451
        0
460
0.0
461
0.0
452
        1
462
0.0
453
        2
463
0.0
 63
    18
421
   327680
463
1.0
 63
    18
421
   327680
470
LINEAR
1001
ACAD
1010
0.0
1020
0.0
1030
0.0
  0
LWPOLYLINE
  5
985
102
{ACAD_REACTORS
330
984
102
}
330
1F
100
AcDbEntity
  8
DETAIL
100
AcDbPolyline
 90
        3
 70
     1
 43
0.0
 10
172.1717242971579
 20
104.7383195332634
 10
172.1347977320124
 20
104.8078047179595
 10
172.1228980429377
 20
104.7316614076879
  0
HATCH
  5
986
330
1F
100
AcDbEntity
  8
DETAIL
100
AcDbHatch
 10
0.0
 20
0.0
 30
0.0
210
0.0
220
0.0
230
1.0
  2
SOLID
 70
     1
 71
     1
 91
        1
 92
        1
 93
        3
 72
     1
 10
172.8767021655684
 20
105.0234659786027
 11
172.9480513464945
 21
105.0553507761576
 72
     1
 10
172.9480513464945
 20
105.0553507761576
 11
172.8728962405167
 21
105.0724129080481
 72
     1
 10
172.8728962405167
 20
105.0724129080481
 11
172.8767021655684
 21
105.0234659786027
 97
        1
330
987
 75
     0
 76
     1
 98
        1
 10
11.47817942364728
 20
-0.4002243071748239
450
        1
451
        0
460
0.0
461
0.0
452
        1
462
0.0
453
        2
463
0.0
 63
    18
421
   327680
463
1.0
 63
    18
421
   327680
470
LINEAR
1001
ACAD
1010
0.0
1020
0.0
1030
0.0
  0
LWPOLYLINE
  5
987
102
{ACAD_REACTORS
330
986
102
}
330
1F
100
AcDbEntity
  8
DETAIL
100
AcDbPolyline
 90
        3
 70
     1
 43
0.0
 10
172.8767021655684
 20
105.0234659786027
 10
172.9480513464945
 20
105.0553507761576
 10
172.8728962405167
 20
105.0724129080481
  0
HATCH
  5
988
330
1F
100
AcDbEntity
  8
DETAIL
100
AcDbHatch
 10
0.0
 20
0.0
 30
0.0
210
0.0
220
0.0
230
1.0
  2
SOLID
 70
     1
 71
     1
 91
        1
 92
        1
 93
        4
 72
     1
 10
173.1648944186456
 20
105.0892158919138
 11
173.1648944186456
 21
105.1200541448318
 72
     1
 10
173.1648944186456
 20
105.1200541448318
 11
173.0924345994562
 21
105.0965829124911
 72
     1
 10
173.0924345994562
 20
105.0965829124911
 11
173.1653376198676
 21
105.0715917957877
 72
     1
 10
173.1653376198676
 20
105.0715917957877
 11
173.1648944186456
 21
105.0892158919138
 97
        1
330
989
 75
     0
 76
     1
 98
        1
 10
11.47817942364728
 20
-0.4002243071748239
450
        1
451
        0
460
0.0
461
0.0
452
        1
462
0.0
453
        2
463
0.0
 63
    18
421
   327680
463
1.0
 63
    18
421
   327680
470
LINEAR
1001
ACAD
1010
0.0
1020
0.0
1030
0.0
  0
LWPOLYLINE
  5
989
102
{ACAD_REACTORS
330
988
102
}
330
1F
100
AcDbEntity
  8
DETAIL
100
AcDbPolyline
 90
        4
 70
     1
 43
0.0
 10
173.1648944186456
 20
105.0892158919138
 10
173.1648944186456
 20
105.1200541448318
 10
173.0924345994562
 20
105.0965829124911
 10
173.1653376198676
 20
105.0715917957877
  0
HATCH
  5
98A
330
1F
100
AcDbEntity
  8
DETAIL
100
AcDbHatch
 10
0.0
 20
0.0
 30
0.0
210
0.0
220
0.0
230
1.0
  2
SOLID
 70
     1
 71
     1
 91
        1
 92
        1
 93
        3
 72
     1
 10
173.1693084633209
 20
104.913689418148
 11
173.1680960244619
 21
104.9619025952302
 72
     1
 10
173.1680960244619
 20
104.9619025952302
 11
173.0964054429095
 21
104.9386805348514
 72
     1
 10
173.0964054429095
 20
104.9386805348514
 11
173.1693084633209
 21
104.913689418148
 97
        1
330
98B
 75
     0
 76
     1
 98
        1
 10
11.47817942364728
 20
-0.4002243071748239
450
        1
451
        0
460
0.0
461
0.0
452
        1
462
0.0
453
        2
463
0.0
 63
    18
421
   327680
463
1.0
 63
    18
421
   327680
470
LINEAR
1001
ACAD
1010
0.0
1020
0.0
1030
0.0
  0
LWPOLYLINE
  5
98B
102
{ACAD_REACTORS
330
98A
102
}
330
1F
100
AcDbEntity
  8
DETAIL
100
AcDbPolyline
 90
        3
 70
     1
 43
0.0
 10
173.1693084633209
 20
104.913689418148
 10
173.1680960244619
 20
104.9619025952302
 10
173.0964054429095
 20
104.9386805348514
  0
HATCH
  5
98C
330
1F
100
AcDbEntity
  8
DETAIL
100
AcDbHatch
 10
0.0
 20
0.0
 30
0.0
210
0.0
220
0.0
230
1.0
  2
SOLID
 70
     1
 71
     1
 91
        1
 92
        1
 93
        3
 72
     1
 10
173.5407233802672
 20
105.017869306436
 11
173.5394961806577
 21
105.0660777022062
 72
     1
 10
173.5394961806577
 20
105.0660777022062
 11
173.4678203598558
 21
105.0428604231394
 72
     1
 10
173.4678203598558
 20
105.0428604231394
 11
173.5407233802672
 21
105.017869306436
 97
        1
330
98D
 75
     0
 76
     1
 98
        1
 10
11.47817942364728
 20
-0.4002243071748239
450
        1
451
        0
460
0.0
461
0.0
452
        1
462
0.0
453
        2
463
0.0
 63
    18
421
   327680
463
1.0
 63
    18
421
   327680
470
LINEAR
1001
ACAD
1010
0.0
1020
0.0
1030
0.0
  0
LWPOLYLINE
  5
98D
102
{ACAD_REACTORS
330
98C
102
}
330
1F
100
AcDbEntity
  8
DETAIL
100
AcDbPolyline
 90
        3
 70
     1
 43
0.0
 10
173.5407233802672
 20
105.017869306436
 10
173.5394961806577
 20
105.0660777022062
 10
173.4678203598558
 20
105.0428604231394
  0
HATCH
  5
98E
330
1F
100
AcDbEntity
  8
DETAIL
100
AcDbHatch
 10
0.0
 20
0.0
 30
0.0
210
0.0
220
0.0
230
1.0
  2
SOLID
 70
     1
 71
     1
 91
        1
 92
        1
 93
        3
 72
     1
 10
173.54721882264
 20
104.7631545964595
 11
173.5459827833474
 21
104.8113601288737
 72
     1
 10
173.5459827833474
 20
104.8113601288737
 11
173.4743158022287
 21
104.7881457131629
 72
     1
 10
173.4743158022287
 20
104.7881457131629
 11
173.54721882264
 21
104.7631545964595
 97
        1
330
98F
 75
     0
 76
     1
 98
        1
 10
11.47817942364728
 20
-0.4002243071748239
450
        1
451
        0
460
0.0
461
0.0
452
        1
462
0.0
453
        2
463
0.0
 63
    18
421
   327680
463
1.0
 63
    18
421
   327680
470
LINEAR
1001
ACAD
1010
0.0
1020
0.0
1030
0.0
  0
LWPOLYLINE
  5
98F
102
{ACAD_REACTORS
330
98E
102
}
330
1F
100
AcDbEntity
  8
DETAIL
100
AcDbPolyline
 90
        3
 70
     1
 43
0.0
 10
173.54721882264
 20
104.7631545964595
 10
173.5459827833474
 20
104.8113601288737
 10
173.4743158022287
 20
104.7881457131629
  0
HATCH
  5
990
330
1F
100
AcDbEntity
  8
DETAIL
100
AcDbHatch
 10
0.0
 20
0.0
 30
0.0
210
0.0
220
0.0
230
1.0
  2
SOLID
 70
     1
 71
     1
 91
        1
 92
        1
 93
        4
 72
     1
 10
173.1733363846191
 20
104.7535173143127
 11
173.1727438648644
 21
104.7770791291141
 72
     1
 10
173.1727438648644
 20
104.7770791291141
 11
173.1017932009759
 21
104.7540967433521
 72
     1
 10
173.1017932009759
 20
104.7540967433521
 11
173.1746962213873
 21
104.7291056266487
 72
     1
 10
173.1746962213873
 20
104.7291056266487
 11
173.1733363846191
 21
104.7535173143127
 97
        1
330
991
 75
     0
 76
     1
 98
        1
 10
11.47817942364728
 20
-0.4002243071748239
450
        1
451
        0
460
0.0
461
0.0
452
        1
462
0.0
453
        2
463
0.0
 63
    18
421
   327680
463
1.0
 63
    18
421
   327680
470
LINEAR
1001
ACAD
1010
0.0
1020
0.0
1030
0.0
  0
LWPOLYLINE
  5
991
102
{ACAD_REACTORS
330
990
102
}
330
1F
100
AcDbEntity
  8
DETAIL
100
AcDbPolyline
 90
        4
 70
     1
 43
0.0
 10
173.1733363846191
 20
104.7535173143127
 10
173.1727438648644
 20
104.7770791291141
 10
173.1017932009759
 20
104.7540967433521
 10
173.1746962213873
 20
104.7291056266487
  0
HATCH
  5
992
330
1F
100
AcDbEntity
  8
DETAIL
100
AcDbHatch
 10
0.0
 20
0.0
 30
0.0
210
0.0
220
0.0
230
1.0
  2
SOLID
 70
     1
 71
     1
 91
        1
 92
        1
 93
        3
 72
     1
 10
173.5616581728212
 20
104.5134526574659
 11
173.5580641032977
 21
104.5608943751752
 72
     1
 10
173.5580641032977
 20
104.5608943751752
 11
173.4887551524098
 21
104.5384437741693
 72
     1
 10
173.4887551524098
 20
104.5384437741693
 11
173.5616581728212
 21
104.5134526574659
 97
        1
330
993
 75
     0
 76
     1
 98
        1
 10
11.47817942364728
 20
-0.4002243071748239
450
        1
451
        0
460
0.0
461
0.0
452
        1
462
0.0
453
        2
463
0.0
 63
    18
421
   327680
463
1.0
 63
    18
421
   327680
470
LINEAR
1001
ACAD
1010
0.0
1020
0.0
1030
0.0
  0
LWPOLYLINE
  5
993
102
{ACAD_REACTORS
330
992
102
}
330
1F
100
AcDbEntity
  8
DETAIL
100
AcDbPolyline
 90
        3
 70
     1
 43
0.0
 10
173.5616581728212
 20
104.5134526574659
 10
173.5580641032977
 20
104.5608943751752
 10
173.4887551524098
 20
104.5384437741693
  0
HATCH
  5
994
330
1F
100
AcDbEntity
  8
DETAIL
100
AcDbHatch
 10
0.0
 20
0.0
 30
0.0
210
0.0
220
0.0
230
1.0
  2
SOLID
 70
     1
 71
     1
 91
        1
 92
        1
 93
        3
 72
     1
 10
172.9535746169033
 20
104.5736212769457
 11
172.8814017345399
 21
104.6006486954415
 72
     1
 10
172.8814017345399
 20
104.6006486954415
 11
172.8836571752473
 21
104.5531231281831
 72
     1
 10
172.8836571752473
 20
104.5531231281831
 11
172.9535746169033
 21
104.5736212769457
 97
        1
330
995
 75
     0
 76
     1
 98
        1
 10
11.47817942364728
 20
-0.4002243071748239
450
        1
451
        0
460
0.0
461
0.0
452
        1
462
0.0
453
        2
463
0.0
 63
    18
421
   327680
463
1.0
 63
    18
421
   327680
470
LINEAR
1001
ACAD
1010
0.0
1020
0.0
1030
0.0
  0
LWPOLYLINE
  5
995
102
{ACAD_REACTORS
330
994
102
}
330
1F
100
AcDbEntity
  8
DETAIL
100
AcDbPolyline
 90
        3
 70
     1
 43
0.0
 10
172.9535746169033
 20
104.5736212769457
 10
172.8814017345399
 20
104.6006486954415
 10
172.8836571752473
 20
104.5531231281831
  0
LWPOLYLINE
  5
996
330
1F
100
AcDbEntity
  8
DETAIL
100
AcDbPolyline
 90
        2
 70
     0
 43
0.0
 10
169.9275022200078
 20
107.547105807832
 10
170.0313924137961
 20
107.6010074507063
  0
LWPOLYLINE
  5
997
330
1F
100
AcDbEntity
  8
DETAIL
100
AcDbPolyline
 90
        2
 70
     0
 43
0.0
 10
170.0687407131729
 20
107.2968796366726
 10
170.1269703926124
 20
107.3639227395566
  0
LWPOLYLINE
  5
998
330
1F
100
AcDbEntity
  8
DETAIL
100
AcDbPolyline
 90
        2
 70
     0
 43
0.0
 10
170.3518960963437
 20
107.238688778145
 10
170.3529436249746
 20
107.2824262758031
  0
LWPOLYLINE
  5
999
330
1F
100
AcDbEntity
  8
DETAIL
100
AcDbPolyline
 90
        2
 70
     0
 43
0.0
 10
170.6170596196613
 20
107.2676221262725
 10
170.5710728544063
 20
107.3538466517178
  0
LWPOLYLINE
  5
99A
330
1F
100
AcDbEntity
  8
DETAIL
100
AcDbPolyline
 90
        2
 70
     0
 43
0.0
 10
170.8588977323541
 20
107.4256277127812
 10
170.7425375587242
 20
107.4553050566396
  0
LWPOLYLINE
  5
99B
330
1F
100
AcDbEntity
  8
DETAIL
100
AcDbPolyline
 90
        2
 70
     0
 43
0.0
 10
170.9146960767242
 20
107.562261244698
 10
170.7888675881592
 20
107.5648008695764
  0
LWPOLYLINE
  5
99C
330
1F
100
AcDbEntity
  8
DETAIL
100
AcDbPolyline
 90
        2
 70
     0
 43
0.0
 10
170.7148941766211
 20
105.047408869489
 10
171.1515648653661
 20
105.0401874965711
  0
LWPOLYLINE
  5
99D
330
1F
100
AcDbEntity
  8
DETAIL
100
AcDbPolyline
 90
        2
 70
     0
 43
0.0
 10
170.7148941766211
 20
104.8011277069448
 10
171.1342257824937
 20
104.7900093008409
  0
LWPOLYLINE
  5
99E
330
1F
100
AcDbEntity
  8
DETAIL
100
AcDbPolyline
 90
        2
 70
     0
 43
0.0
 10
170.7199577216336
 20
104.5566445546887
 10
171.1453723357688
 20
104.5571701879831
  0
LWPOLYLINE
  5
99F
330
1F
100
AcDbEntity
  8
DETAIL
100
AcDbPolyline
 90
        2
 70
     0
 43
0.0
 10
171.6409748962552
 20
105.0384989621477
 10
171.3992660492573
 20
105.0432837613697
  0
LWPOLYLINE
  5
9A0
330
1F
100
AcDbEntity
  8
DETAIL
100
AcDbPolyline
 90
        2
 70
     0
 43
0.0
 10
171.7622828604418
 20
104.8891657326857
 10
171.4426137564383
 20
104.8822779918404
  0
LWPOLYLINE
  5
9A1
330
1F
100
AcDbEntity
  8
DETAIL
100
AcDbPolyline
 90
        2
 70
     0
 43
0.0
 10
171.9294062637238
 20
104.6773064070599
 10
171.4392731769954
 20
104.6745016911535
  0
LWPOLYLINE
  5
9A2
330
1F
100
AcDbEntity
  8
DETAIL
100
AcDbPolyline
 90
        2
 70
     0
 43
0.0
 10
171.9417376461434
 20
104.5171135023229
 10
171.4343191533176
 20
104.5011108624297
  0
LWPOLYLINE
  5
9A3
330
1F
100
AcDbEntity
  8
DETAIL
100
AcDbPolyline
 90
        2
 70
     0
 43
0.0
 10
172.25487277237
 20
104.8289797521001
 10
172.2331589546648
 20
104.8468947485461
  0
LWPOLYLINE
  5
9A4
330
1F
100
AcDbEntity
  8
DETAIL
100
AcDbPolyline
 90
        2
 70
     0
 43
0.0
 10
173.4678203598558
 20
105.0428604231394
 10
173.3228769654871
 20
105.0521027943407
  0
LWPOLYLINE
  5
9A5
330
1F
100
AcDbEntity
  8
DETAIL
100
AcDbPolyline
 90
        2
 70
     0
 43
0.0
 10
173.4743158022287
 20
104.7881457131629
 10
173.3434857039868
 20
104.7889450565747
  0
LWPOLYLINE
  5
9A6
330
1F
100
AcDbEntity
  8
DETAIL
100
AcDbPolyline
 90
        2
 70
     0
 43
0.0
 10
173.4887551524098
 20
104.5384437741693
 10
173.3764609240924
 20
104.54083516573
  0
LWPOLYLINE
  5
9A7
330
1F
100
AcDbEntity
  8
DETAIL
100
AcDbPolyline
 90
        2
 70
     0
 43
0.0
 10
168.3989840389592
 20
103.9508889509339
 10
168.2644071925898
 20
103.9459791721561
  0
LWPOLYLINE
  5
9A8
330
1F
100
AcDbEntity
  8
DETAIL
100
AcDbPolyline
 90
        2
 70
     0
 43
0.0
 10
168.4257751840779
 20
103.7581424103619
 10
168.2953698405762
 20
103.8035509914186
  0
LWPOLYLINE
  5
9A9
330
1F
100
AcDbEntity
  8
DETAIL
100
AcDbPolyline
 90
        2
 70
     0
 43
0.0
 10
168.3193286140913
 20
103.5184353177851
 10
168.2179632206102
 20
103.6115825739029
  0
LWPOLYLINE
  5
9AA
330
1F
100
AcDbEntity
  8
DETAIL
100
AcDbPolyline
 90
        2
 70
     0
 43
0.0
 10
168.0283705430973
 20
103.5285366458192
 10
168.0167060086985
 20
103.6332564274934
  0
LWPOLYLINE
  5
9AB
330
1F
100
AcDbEntity
  8
DETAIL
100
AcDbPolyline
 90
        2
 70
     0
 43
0.0
 10
167.7003931011234
 20
103.4929460837559
 10
167.7597160304114
 20
103.6301601626948
  0
LWPOLYLINE
  5
9AC
330
1F
100
AcDbEntity
  8
DETAIL
100
AcDbPolyline
 90
        2
 70
     0
 43
0.0
 10
167.4839242950057
 20
103.537813116986
 10
167.5863252016875
 20
103.6920854586676
  0
LWPOLYLINE
  5
9AD
330
1F
100
AcDbEntity
  8
DETAIL
100
AcDbPolyline
 90
        2
 70
     0
 43
0.0
 10
167.3514301499644
 20
103.7562692764039
 10
167.4934372577283
 20
103.8252248450091
  0
LWPOLYLINE
  5
9AE
330
1F
100
AcDbEntity
  8
DETAIL
100
AcDbPolyline
 90
        2
 70
     0
 43
0.0
 10
167.3293352234003
 20
103.9707492905452
 10
167.4779559337351
 20
103.9738455553439
  0
LWPOLYLINE
  5
9AF
330
1F
100
AcDbEntity
  8
DETAIL
100
AcDbPolyline
 90
        2
 70
     0
 43
0.0
 10
165.9509271416431
 20
105.5507446897596
 10
165.7759222656165
 20
105.5799474981331
  0
LWPOLYLINE
  5
9B0
330
1F
100
AcDbEntity
  8
DETAIL
100
AcDbPolyline
 90
        2
 70
     0
 43
0.0
 10
165.8789657570998
 20
105.2246116776417
 10
165.6863446157601
 20
105.2814528642864
  0
LWPOLYLINE
  5
9B1
330
1F
100
AcDbEntity
  8
DETAIL
100
AcDbPolyline
 90
        2
 70
     0
 43
0.0
 10
165.7283715620593
 20
104.936216185225
 10
165.6801520861628
 20
105.0801956523748
  0
LWPOLYLINE
  5
9B2
330
1F
100
AcDbEntity
  8
DETAIL
100
AcDbPolyline
 90
        2
 70
     0
 43
0.0
 10
165.4126377543536
 20
104.8278387799136
 10
165.4355471670702
 20
104.9842114436169
  0
LWPOLYLINE
  5
9B3
330
1F
100
AcDbEntity
  8
DETAIL
100
AcDbPolyline
 90
        2
 70
     0
 43
0.0
 10
165.0177681204316
 20
105.2601517339623
 10
165.1506908055953
 20
105.3248005714674
  0
LWPOLYLINE
  5
9B4
330
1F
100
AcDbEntity
  8
DETAIL
100
AcDbPolyline
 90
        2
 70
     0
 43
0.0
 10
164.9950771362033
 20
105.5222902448657
 10
165.2055798398132
 20
105.5458216286219
  0
LWPOLYLINE
  5
9B5
330
1F
100
AcDbEntity
  8
DETAIL
100
AcDbPolyline
 90
        3
 70
     0
 43
0.0
 10
173.1852181690116
 20
104.5402164121296
 10
173.1090210944893
 20
104.5617705705428
 10
173.1826906297349
 20
104.5855906076377
  0
HATCH
  5
9B6
330
1F
100
AcDbEntity
  8
DETAIL
100
AcDbHatch
 10
0.0
 20
0.0
 30
0.0
210
0.0
220
0.0
230
1.0
  2
SOLID
 70
     1
 71
     1
 91
        1
 92
        1
 93
        3
 72
     1
 10
173.1852181690116
 20
104.5402164121296
 11
173.1826906297349
 21
104.5855906076377
 72
     1
 10
173.1826906297349
 20
104.5855906076377
 11
173.1090210944893
 21
104.5617705705428
 72
     1
 10
173.1090210944893
 20
104.5617705705428
 11
173.1852181690116
 21
104.5402164121296
 97
        1
330
9B7
 75
     0
 76
     1
 98
        1
 10
11.47817942364728
 20
-0.4002243071748239
450
        1
451
        0
460
0.0
461
0.0
452
        1
462
0.0
453
        2
463
0.0
 63
    18
421
   327680
463
1.0
 63
    18
421
   327680
470
LINEAR
1001
ACAD
1010
0.0
1020
0.0
1030
0.0
  0
LWPOLYLINE
  5
9B7
102
{ACAD_REACTORS
330
9B6
102
}
330
1F
100
AcDbEntity
  8
DETAIL
100
AcDbPolyline
 90
        3
 70
     1
 43
0.0
 10
173.1852181690116
 20
104.5402164121296
 10
173.1826906297349
 20
104.5855906076377
 10
173.1090210944893
 20
104.5617705705428
  0
LINE
  5
9B8
330
1F
100
AcDbEntity
  8
DETAIL
100
AcDbLine
 10
173.100063467462
 20
105.0990540604386
 30
0.0
 11
173.0635976513873
 21
105.099356449942
 31
0.0
  0
LINE
  5
9B9
330
1F
100
AcDbEntity
  8
DETAIL
100
AcDbLine
 10
173.0964054429095
 20
104.9386805348514
 30
0.0
 11
173.0648658814489
 21
104.937023002067
 31
0.0
  0
LINE
  5
9BA
330
1F
100
AcDbEntity
  8
DETAIL
100
AcDbLine
 10
173.1017932009759
 20
104.7540967433521
 30
0.0
 11
173.0635976513873
 21
104.7505931830231
 31
0.0
  0
LWPOLYLINE
  5
9BB
330
1F
100
AcDbEntity
  8
SECTION POINT
 62
     5
100
AcDbPolyline
 90
        9
 70
     0
 43
0.0
 10
164.7425522306209
 20
108.4567238590045
 10
164.8225522306209
 20
108.4567238590045
 10
164.7825522306209
 20
108.4567238590045
 10
164.7825522306209
 20
108.4167238590045
 10
164.7825522306209
 20
108.4967238590045
 10
164.7825522306209
 20
108.4567238590045
 10
164.8225522306209
 20
108.4567238590045
 10
164.8025522306209
 20
108.4567238590045
 10
164.8025522306209
 20
108.4567238590045
  0
CIRCLE
  5
9BC
330
1F
100
AcDbEntity
  8
SECTION POINT
 62
     5
100
AcDbCircle
 10
164.7825522306209
 20
108.4567238590045
 30
0.0
 40
0.0200000000000102
  0
LWPOLYLINE
  5
9BD
330
1F
100
AcDbEntity
  8
SECTION POINT
 62
     5
100
AcDbPolyline
 90
        9
 70
     0
 43
0.0
 10
164.7425522306209
 20
108.4567238590045
 10
164.8225522306209
 20
108.4567238590045
 10
164.7825522306209
 20
108.4567238590045
 10
164.7825522306209
 20
108.4167238590045
 10
164.7825522306209
 20
108.4967238590045
 10
164.7825522306209
 20
108.4567238590045
 10
164.8225522306209
 20
108.4567238590045
 10
164.8025522306209
 20
108.4567238590045
 10
164.8025522306209
 20
108.4567238590045
  0
CIRCLE
  5
9BE
330
1F
100
AcDbEntity
  8
SECTION POINT
 62
     5
100
AcDbCircle
 10
164.7825522306209
 20
108.4567238590045
 30
0.0
 40
0.0200000000000102
  0
LWPOLYLINE
  5
9BF
330
1F
100
AcDbEntity
  8
SECTION POINT
 62
     5
100
AcDbPolyline
 90
        9
 70
     0
 43
0.0
 10
168.9431598598272
 20
108.4567238590045
 10
169.0231598598272
 20
108.4567238590045
 10
168.9831598598272
 20
108.4567238590045
 10
168.9831598598272
 20
108.4167238590044
 10
168.9831598598272
 20
108.4967238590045
 10
168.9831598598272
 20
108.4567238590045
 10
169.0231598598272
 20
108.4567238590045
 10
169.0031598598272
 20
108.4567238590045
 10
169.0031598598272
 20
108.4567238590045
  0
CIRCLE
  5
9C0
330
1F
100
AcDbEntity
  8
SECTION POINT
 62
     5
100
AcDbCircle
 10
168.9831598598272
 20
108.4567238590045
 30
0.0
 40
0.0200000000000102
  0
TEXT
  5
9C1
330
1F
100
AcDbEntity
  8
DRAWING POINT
100
AcDbText
 10
169.0231598598272
 20
108.3917238590045
 30
0.0
 40
0.025
  1
N 258880.64
  7
Text
 11
169.0231598598272
 21
108.4167238590045
 31
0.0
100
AcDbText
 73
     3
  0
TEXT
  5
9C2
330
1F
100
AcDbEntity
  8
DRAWING POINT
100
AcDbText
 10
164.5443347618152
 20
108.4261913507175
 30
0.0
 40
0.025
  1
E 442943.93
  7
Text
 72
     2
 11
164.7425522306209
 21
108.4167238590045
 31
0.0
100
AcDbText
 73
     1
  0
TEXT
  5
9C3
330
1F
100
AcDbEntity
  8
DRAWING POINT
100
AcDbText
 10
164.5424083772263
 20
108.3917238590045
 30
0.0
 40
0.025
  1
N 258876.64
  7
Text
 72
     2
 11
164.7425522306209
 21
108.4167238590045
 31
0.0
100
AcDbText
 73
     3
  0
TEXT
  5
9C4
330
1F
100
AcDbEntity
  8
DRAWING POINT
100
AcDbText
 10
169.0231598598272
 20
108.4261913507175
 30
0.0
 40
0.025
  1
E 442945.16
  7
Text
 11
169.0231598598272
 21
108.4167238590045
 31
0.0
100
AcDbText
 73
     1
  0
TEXT
  5
9C5
330
1F
100
AcDbEntity
  8
DRAWING POINT
100
AcDbText
 10
169.0231598598272
 20
108.4661913507175
 30
0.0
 40
0.025
  1
dp74.2
  7
Text
 11
169.0231598598272
 21
108.4567238590045
 31
0.0
100
AcDbText
 73
     1
  0
TEXT
  5
9C6
330
1F
100
AcDbEntity
  8
DRAWING POINT
100
AcDbText
 10
164.6356503949265
 20
108.4661913507175
 30
0.0
 40
0.025
  1
dp74,1
  7
Text
 72
     2
 11
164.7425522306209
 21
108.4567238590045
 31
0.0
100
AcDbText
 73
     1
  0
LWPOLYLINE
  5
9C7
330
1F
100
AcDbEntity
  8
SECTION POINT
 62
     5
100
AcDbPolyline
 90
        9
 70
     0
 43
0.0
 10
169.7394636541436
 20
107.6670421361505
 10
169.8194636541436
 20
107.6670421361505
 10
169.7794636541437
 20
107.6670421361505
 10
169.7794636541437
 20
107.6270421361505
 10
169.7794636541437
 20
107.7070421361506
 10
169.7794636541437
 20
107.6670421361505
 10
169.8194636541436
 20
107.6670421361505
 10
169.7994636541436
 20
107.6670421361505
 10
169.7994636541436
 20
107.6670421361505
  0
CIRCLE
  5
9C8
330
1F
100
AcDbEntity
  8
SECTION POINT
 62
     5
100
AcDbCircle
 10
169.7794636541437
 20
107.6670421361505
 30
0.0
 40
0.0200000000000102
  0
LWPOLYLINE
  5
9C9
330
1F
100
AcDbEntity
  8
SECTION POINT
 62
     5
100
AcDbPolyline
 90
        9
 70
     0
 43
0.0
 10
169.7394636541436
 20
107.6670421361505
 10
169.8194636541436
 20
107.6670421361505
 10
169.7794636541437
 20
107.6670421361505
 10
169.7794636541437
 20
107.6270421361505
 10
169.7794636541437
 20
107.7070421361506
 10
169.7794636541437
 20
107.6670421361505
 10
169.8194636541436
 20
107.6670421361505
 10
169.7994636541436
 20
107.6670421361505
 10
169.7994636541436
 20
107.6670421361505
  0
CIRCLE
  5
9CA
330
1F
100
AcDbEntity
  8
SECTION POINT
 62
     5
100
AcDbCircle
 10
169.7794636541437
 20
107.6670421361505
 30
0.0
 40
0.0200000000000102
  0
LWPOLYLINE
  5
9CB
330
1F
100
AcDbEntity
  8
SECTION POINT
 62
     5
100
AcDbPolyline
 90
        9
 70
     0
 43
0.0
 10
171.0751497687294
 20
107.6670421361505
 10
171.1551497687294
 20
107.6670421361505
 10
171.1151497687294
 20
107.6670421361505
 10
171.1151497687294
 20
107.6270421361505
 10
171.1151497687294
 20
107.7070421361505
 10
171.1151497687294
 20
107.6670421361505
 10
171.1551497687294
 20
107.6670421361505
 10
171.1351497687294
 20
107.6670421361505
 10
171.1351497687294
 20
107.6670421361505
  0
CIRCLE
  5
9CC
330
1F
100
AcDbEntity
  8
SECTION POINT
 62
     5
100
AcDbCircle
 10
171.1151497687294
 20
107.6670421361505
 30
0.0
 40
0.0200000000000102
  0
TEXT
  5
9CD
330
1F
100
AcDbEntity
  8
DRAWING POINT
100
AcDbText
 10
171.1551497687294
 20
107.6020421361505
 30
0.0
 40
0.025
  1
N 258877.05
  7
Text
 11
171.1551497687294
 21
107.6270421361505
 31
0.0
100
AcDbText
 73
     3
  0
TEXT
  5
9CE
330
1F
100
AcDbEntity
  8
DRAWING POINT
100
AcDbText
 10
169.541246185338
 20
107.6365096278636
 30
0.0
 40
0.025
  1
E 442945.48
  7
Text
 72
     2
 11
169.7394636541437
 21
107.6270421361505
 31
0.0
100
AcDbText
 73
     1
  0
TEXT
  5
9CF
330
1F
100
AcDbEntity
  8
DRAWING POINT
100
AcDbText
 10
169.539319800749
 20
107.6020421361505
 30
0.0
 40
0.025
  1
N 258875.88
  7
Text
 72
     2
 11
169.7394636541437
 21
107.6270421361505
 31
0.0
100
AcDbText
 73
     3
  0
TEXT
  5
9D0
330
1F
100
AcDbEntity
  8
DRAWING POINT
100
AcDbText
 10
171.1551497687294
 20
107.6365096278636
 30
0.0
 40
0.025
  1
E 442946.05
  7
Text
 11
171.1551497687294
 21
107.6270421361505
 31
0.0
100
AcDbText
 73
     1
  0
TEXT
  5
9D1
330
1F
100
AcDbEntity
  8
DRAWING POINT
100
AcDbText
 10
171.1551497687294
 20
107.6765096278636
 30
0.0
 40
0.025
  1
dp77.2
  7
Text
 11
171.1551497687294
 21
107.6670421361505
 31
0.0
100
AcDbText
 73
     1
  0
TEXT
  5
9D2
330
1F
100
AcDbEntity
  8
DRAWING POINT
100
AcDbText
 10
169.6325618184492
 20
107.6765096278636
 30
0.0
 40
0.025
  1
dp77.1
  7
Text
 72
     2
 11
169.7394636541436
 21
107.6670421361505
 31
0.0
100
AcDbText
 73
     1
  0
LWPOLYLINE
  5
9D3
330
1F
100
AcDbEntity
  8
SECTION POINT
 62
     5
100
AcDbPolyline
 90
        9
 70
     0
 43
0.0
 10
164.7470036607415
 20
105.6612138754332
 10
164.8270036607415
 20
105.6612138754332
 10
164.7870036607415
 20
105.6612138754332
 10
164.7870036607415
 20
105.6212138754333
 10
164.7870036607415
 20
105.7012138754333
 10
164.7870036607415
 20
105.6612138754332
 10
164.8270036607415
 20
105.6612138754332
 10
164.8070036607415
 20
105.6612138754332
 10
164.8070036607415
 20
105.6612138754332
  0
CIRCLE
  5
9D4
330
1F
100
AcDbEntity
  8
SECTION POINT
 62
     5
100
AcDbCircle
 10
164.7870036607415
 20
105.6612138754332
 30
0.0
 40
0.0200000000000102
  0
LWPOLYLINE
  5
9D5
330
1F
100
AcDbEntity
  8
SECTION POINT
 62
     5
100
AcDbPolyline
 90
        9
 70
     0
 43
0.0
 10
164.7470036607415
 20
105.6612138754332
 10
164.8270036607415
 20
105.6612138754332
 10
164.7870036607415
 20
105.6612138754332
 10
164.7870036607415
 20
105.6212138754333
 10
164.7870036607415
 20
105.7012138754333
 10
164.7870036607415
 20
105.6612138754332
 10
164.8270036607415
 20
105.6612138754332
 10
164.8070036607415
 20
105.6612138754332
 10
164.8070036607415
 20
105.6612138754332
  0
CIRCLE
  5
9D6
330
1F
100
AcDbEntity
  8
SECTION POINT
 62
     5
100
AcDbCircle
 10
164.7870036607415
 20
105.6612138754332
 30
0.0
 40
0.0200000000000102
  0
LWPOLYLINE
  5
9D7
330
1F
100
AcDbEntity
  8
SECTION POINT
 62
     5
100
AcDbPolyline
 90
        9
 70
     0
 43
0.0
 10
166.1886245509885
 20
105.6612138754332
 10
166.2686245509885
 20
105.6612138754332
 10
166.2286245509885
 20
105.6612138754332
 10
166.2286245509885
 20
105.6212138754332
 10
166.2286245509885
 20
105.7012138754332
 10
166.2286245509885
 20
105.6612138754332
 10
166.2686245509885
 20
105.6612138754332
 10
166.2486245509885
 20
105.6612138754332
 10
166.2486245509885
 20
105.6612138754332
  0
CIRCLE
  5
9D8
330
1F
100
AcDbEntity
  8
SECTION POINT
 62
     5
100
AcDbCircle
 10
166.2286245509885
 20
105.6612138754332
 30
0.0
 40
0.0200000000000102
  0
TEXT
  5
9D9
330
1F
100
AcDbEntity
  8
DRAWING POINT
100
AcDbText
 10
166.2686245509885
 20
105.5962138754332
 30
0.0
 40
0.025
  1
N 258881.10
  7
Text
 11
166.2686245509885
 21
105.6212138754333
 31
0.0
100
AcDbText
 73
     3
  0
TEXT
  5
9DA
330
1F
100
AcDbEntity
  8
DRAWING POINT
100
AcDbText
 10
164.5487861919358
 20
105.6306813671463
 30
0.0
 40
0.025
  1
E 442947.49
  7
Text
 72
     2
 11
164.7470036607415
 21
105.6212138754333
 31
0.0
100
AcDbText
 73
     1
  0
TEXT
  5
9DB
330
1F
100
AcDbEntity
  8
DRAWING POINT
100
AcDbText
 10
164.5468598073469
 20
105.5962138754332
 30
0.0
 40
0.025
  1
N 258879.76
  7
Text
 72
     2
 11
164.7470036607415
 21
105.6212138754333
 31
0.0
100
AcDbText
 73
     3
  0
TEXT
  5
9DC
330
1F
100
AcDbEntity
  8
DRAWING POINT
100
AcDbText
 10
166.2686245509885
 20
105.6306813671463
 30
0.0
 40
0.025
  1
E 442948.03
  7
Text
 11
166.2686245509885
 21
105.6212138754333
 31
0.0
100
AcDbText
 73
     1
  0
TEXT
  5
9DD
330
1F
100
AcDbEntity
  8
DRAWING POINT
100
AcDbText
 10
166.2686245509885
 20
105.6706813671463
 30
0.0
 40
0.025
  1
dp75.2
  7
Text
 11
166.2686245509885
 21
105.6612138754332
 31
0.0
100
AcDbText
 73
     1
  0
TEXT
  5
9DE
330
1F
100
AcDbEntity
  8
DRAWING POINT
100
AcDbText
 10
164.6401018250471
 20
105.6706813671463
 30
0.0
 40
0.025
  1
dp75.1
  7
Text
 72
     2
 11
164.7470036607415
 21
105.6612138754332
 31
0.0
100
AcDbText
 73
     1
  0
LWPOLYLINE
  5
9DF
330
1F
100
AcDbEntity
  8
SECTION POINT
 62
     5
100
AcDbPolyline
 90
        9
 70
     0
 43
0.0
 10
167.1293549922739
 20
104.0730330213782
 10
167.2093549922739
 20
104.0730330213782
 10
167.169354992274
 20
104.0730330213782
 10
167.169354992274
 20
104.0330330213782
 10
167.169354992274
 20
104.1130330213782
 10
167.169354992274
 20
104.0730330213782
 10
167.2093549922739
 20
104.0730330213782
 10
167.1893549922739
 20
104.0730330213782
 10
167.1893549922739
 20
104.0730330213782
  0
CIRCLE
  5
9E0
330
1F
100
AcDbEntity
  8
SECTION POINT
 62
     5
100
AcDbCircle
 10
167.169354992274
 20
104.0730330213782
 30
0.0
 40
0.0200000000000102
  0
LWPOLYLINE
  5
9E1
330
1F
100
AcDbEntity
  8
SECTION POINT
 62
     5
100
AcDbPolyline
 90
        9
 70
     0
 43
0.0
 10
167.1293549922739
 20
104.0730330213782
 10
167.2093549922739
 20
104.0730330213782
 10
167.169354992274
 20
104.0730330213782
 10
167.169354992274
 20
104.0330330213782
 10
167.169354992274
 20
104.1130330213782
 10
167.169354992274
 20
104.0730330213782
 10
167.2093549922739
 20
104.0730330213782
 10
167.1893549922739
 20
104.0730330213782
 10
167.1893549922739
 20
104.0730330213782
  0
CIRCLE
  5
9E2
330
1F
100
AcDbEntity
  8
SECTION POINT
 62
     5
100
AcDbCircle
 10
167.169354992274
 20
104.0730330213782
 30
0.0
 40
0.0200000000000102
  0
LWPOLYLINE
  5
9E3
330
1F
100
AcDbEntity
  8
SECTION POINT
 62
     5
100
AcDbPolyline
 90
        9
 70
     0
 43
0.0
 10
168.4921276416648
 20
104.0730330213781
 10
168.5721276416648
 20
104.0730330213781
 10
168.5321276416648
 20
104.0730330213781
 10
168.5321276416648
 20
104.0330330213781
 10
168.5321276416648
 20
104.1130330213781
 10
168.5321276416648
 20
104.0730330213781
 10
168.5721276416648
 20
104.0730330213781
 10
168.5521276416648
 20
104.0730330213781
 10
168.5521276416648
 20
104.0730330213781
  0
CIRCLE
  5
9E4
330
1F
100
AcDbEntity
  8
SECTION POINT
 62
     5
100
AcDbCircle
 10
168.5321276416648
 20
104.0730330213781
 30
0.0
 40
0.0200000000000102
  0
TEXT
  5
9E5
330
1F
100
AcDbEntity
  8
DRAWING POINT
100
AcDbText
 10
168.5721276416648
 20
104.0080330213781
 30
0.0
 40
0.025
  1
N 258875.26
  7
Text
 11
168.5721276416648
 21
104.0330330213781
 31
0.0
100
AcDbText
 73
     3
  0
TEXT
  5
9E6
330
1F
100
AcDbEntity
  8
DRAWING POINT
100
AcDbText
 10
166.9311375234683
 20
104.0425005130912
 30
0.0
 40
0.025
  1
E 442947.48
  7
Text
 72
     2
 11
167.129354992274
 21
104.0330330213782
 31
0.0
100
AcDbText
 73
     1
  0
TEXT
  5
9E7
330
1F
100
AcDbEntity
  8
DRAWING POINT
100
AcDbText
 10
166.9292111388793
 20
104.0080330213782
 30
0.0
 40
0.025
  1
N 258876.59
  7
Text
 72
     2
 11
167.129354992274
 21
104.0330330213782
 31
0.0
100
AcDbText
 73
     3
  0
TEXT
  5
9E8
330
1F
100
AcDbEntity
  8
DRAWING POINT
100
AcDbText
 10
168.5721276416648
 20
104.0425005130912
 30
0.0
 40
0.025
  1
E 442947.06
  7
Text
 11
168.5721276416648
 21
104.0330330213781
 31
0.0
100
AcDbText
 73
     1
  0
TEXT
  5
9E9
330
1F
100
AcDbEntity
  8
DRAWING POINT
100
AcDbText
 10
168.5721276416648
 20
104.0825005130912
 30
0.0
 40
0.025
  1
dp76.2
  7
Text
 11
168.5721276416648
 21
104.0730330213781
 31
0.0
100
AcDbText
 73
     1
  0
TEXT
  5
9EA
330
1F
100
AcDbEntity
  8
DRAWING POINT
100
AcDbText
 10
167.0224531565795
 20
104.0825005130912
 30
0.0
 40
0.025
  1
dp76.1
  7
Text
 72
     2
 11
167.1293549922739
 21
104.0730330213782
 31
0.0
100
AcDbText
 73
     1
  0
LWPOLYLINE
  5
9EB
330
1F
100
AcDbEntity
  8
SECTION POINT
 62
     5
100
AcDbPolyline
 90
        9
 70
     0
 43
0.0
 10
170.42535951098
 20
105.1511656523472
 10
170.50535951098
 20
105.1511656523472
 10
170.46535951098
 20
105.1511656523472
 10
170.46535951098
 20
105.1111656523472
 10
170.46535951098
 20
105.1911656523472
 10
170.46535951098
 20
105.1511656523472
 10
170.50535951098
 20
105.1511656523472
 10
170.48535951098
 20
105.1511656523472
 10
170.48535951098
 20
105.1511656523472
  0
CIRCLE
  5
9EC
330
1F
100
AcDbEntity
  8
SECTION POINT
 62
     5
100
AcDbCircle
 10
170.46535951098
 20
105.1511656523472
 30
0.0
 40
0.0200000000000102
  0
LWPOLYLINE
  5
9ED
330
1F
100
AcDbEntity
  8
SECTION POINT
 62
     5
100
AcDbPolyline
 90
        9
 70
     0
 43
0.0
 10
170.42535951098
 20
105.1511656523472
 10
170.50535951098
 20
105.1511656523472
 10
170.46535951098
 20
105.1511656523472
 10
170.46535951098
 20
105.1111656523472
 10
170.46535951098
 20
105.1911656523472
 10
170.46535951098
 20
105.1511656523472
 10
170.50535951098
 20
105.1511656523472
 10
170.48535951098
 20
105.1511656523472
 10
170.48535951098
 20
105.1511656523472
  0
CIRCLE
  5
9EE
330
1F
100
AcDbEntity
  8
SECTION POINT
 62
     5
100
AcDbCircle
 10
170.46535951098
 20
105.1511656523472
 30
0.0
 40
0.0200000000000102
  0
LWPOLYLINE
  5
9EF
330
1F
100
AcDbEntity
  8
SECTION POINT
 62
     5
100
AcDbPolyline
 90
        9
 70
     0
 43
0.0
 10
173.6512636789224
 20
105.1504494138017
 10
173.7312636789224
 20
105.1504494138017
 10
173.6912636789224
 20
105.1504494138017
 10
173.6912636789224
 20
105.1104494138016
 10
173.6912636789224
 20
105.1904494138017
 10
173.6912636789224
 20
105.1504494138017
 10
173.7312636789224
 20
105.1504494138017
 10
173.7112636789224
 20
105.1504494138017
 10
173.7112636789224
 20
105.1504494138017
  0
CIRCLE
  5
9F0
330
1F
100
AcDbEntity
  8
SECTION POINT
 62
     5
100
AcDbCircle
 10
173.6912636789224
 20
105.1504494138017
 30
0.0
 40
0.0200000000000102
  0
TEXT
  5
9F1
330
1F
100
AcDbEntity
  8
DRAWING POINT
100
AcDbText
 10
173.7312636789224
 20
105.0854494138017
 30
0.0
 40
0.025
  1
N 258862.80
  7
Text
 11
173.7312636789224
 21
105.1104494138017
 31
0.0
100
AcDbText
 73
     3
  0
TEXT
  5
9F2
330
1F
100
AcDbEntity
  8
DRAWING POINT
100
AcDbText
 10
170.2271420421743
 20
105.1206331440602
 30
0.0
 40
0.025
  1
E 442942.36
  7
Text
 72
     2
 11
170.42535951098
 21
105.1111656523472
 31
0.0
100
AcDbText
 73
     1
  0
TEXT
  5
9F3
330
1F
100
AcDbEntity
  8
DRAWING POINT
100
AcDbText
 10
170.2252156575854
 20
105.0861656523472
 30
0.0
 40
0.025
  1
N 258865.75
  7
Text
 72
     2
 11
170.42535951098
 21
105.1111656523472
 31
0.0
100
AcDbText
 73
     3
  0
TEXT
  5
9F4
330
1F
100
AcDbEntity
  8
DRAWING POINT
100
AcDbText
 10
173.7312636789224
 20
105.1199169055147
 30
0.0
 40
0.025
  1
E 442941.02
  7
Text
 11
173.7312636789224
 21
105.1104494138017
 31
0.0
100
AcDbText
 73
     1
  0
TEXT
  5
9F5
330
1F
100
AcDbEntity
  8
DRAWING POINT
100
AcDbText
 10
173.7312636789224
 20
105.1599169055147
 30
0.0
 40
0.025
  1
dp80.2
  7
Text
 11
173.7312636789224
 21
105.1504494138017
 31
0.0
100
AcDbText
 73
     1
  0
TEXT
  5
9F6
330
1F
100
AcDbEntity
  8
DRAWING POINT
100
AcDbText
 10
170.3184576752856
 20
105.1606331440602
 30
0.0
 40
0.025
  1
dp80.1
  7
Text
 72
     2
 11
170.42535951098
 21
105.1511656523472
 31
0.0
100
AcDbText
 73
     1
  0
TEXT
  5
9F7
330
1F
100
AcDbEntity
  8
Annotatons
100
AcDbText
 10
165.2502943198517
 20
107.7594657874148
 30
0.0
 40
0.05
  1
(1614)
  7
Text
 72
     1
 11
165.3513169298526
 21
107.7405308039888
 31
0.0
100
AcDbText
 73
     1
  0
TEXT
  5
9F8
330
1F
100
AcDbEntity
  8
Annotatons
100
AcDbText
 10
164.7579093409252
 20
107.9557086510954
 30
0.0
 40
0.05
  1
[1603]
  7
Text
 72
     1
 11
164.8550791817483
 21
107.9367736676694
 31
0.0
100
AcDbText
 73
     1
  0
LINE
  5
9F9
330
1F
100
AcDbEntity
  8
Annotatons
100
AcDbLine
 10
164.9789297736939
 20
107.9925064340449
 30
0.0
 11
165.1180199414853
 21
108.0513933630561
 31
0.0
  0
TEXT
  5
9FA
330
1F
100
AcDbEntity
  8
Annotatons
100
AcDbText
 10
166.645065468747
 20
107.5626205438433
 30
0.0
 40
0.05
  1
(1610)
  7
Text
 72
     1
 11
166.7460880787479
 21
107.5436855604173
 31
0.0
100
AcDbText
 73
     1
  0
TEXT
  5
9FB
330
1F
100
AcDbEntity
  8
Annotatons
100
AcDbText
 10
167.22176590951
 20
107.6618824016435
 30
0.0
 40
0.05
  1
[1609]
  7
Text
 72
     1
 11
167.3189357503331
 21
107.6429474182174
 31
0.0
100
AcDbText
 73
     1
  0
LINE
  5
9FC
330
1F
100
AcDbEntity
  8
Annotatons
100
AcDbLine
 10
167.0139954868813
 20
107.9368079368357
 30
0.0
 11
167.22096150877
 21
107.6925061425617
 31
0.0
  0
HATCH
  5
9FD
330
1F
100
AcDbEntity
  8
DETAIL
100
AcDbHatch
 10
0.0
 20
0.0
 30
0.0
210
0.0
220
0.0
230
1.0
  2
SOLID
 70
     1
 71
     1
 91
        1
 92
        1
 93
        3
 72
     1
 10
167.0141319786469
 20
107.9523425899071
 11
167.0886682400157
 21
107.9786930309115
 72
     1
 10
167.0886682400157
 20
107.9786930309115
 11
167.014567535135
 21
108.0019149498964
 72
     1
 10
167.014567535135
 20
108.0019149498964
 11
167.0141319786469
 21
107.9523425899071
 97
        1
330
9FE
 75
     0
 76
     1
 98
        1
 10
9.797441964364623
 20
0.1230643230943542
450
        1
451
        0
460
0.0
461
0.0
452
        1
462
0.0
453
        2
463
0.0
 63
    18
421
   327680
463
1.0
 63
    18
421
   327680
470
LINEAR
1001
ACAD
1010
0.0
1020
0.0
1030
0.0
  0
LWPOLYLINE
  5
9FE
102
{ACAD_REACTORS
330
9FD
102
}
330
1F
100
AcDbEntity
  8
DETAIL
100
AcDbPolyline
 90
        3
 70
     1
 43
0.0
 10
167.0141319786469
 20
107.9523425899071
 10
167.0886682400157
 20
107.9786930309115
 10
167.014567535135
 20
108.0019149498964
  0
LWPOLYLINE
  5
9FF
330
1F
100
AcDbEntity
  8
Annotatons
100
AcDbPolyline
 90
        2
 70
     0
 43
0.0
 10
167.4272901562145
 20
107.6973227821052
 10
167.6106883674908
 20
107.9319274079501
  0
TEXT
  5
A00
330
1F
100
AcDbEntity
  8
Annotatons
100
AcDbText
 10
168.4137344270029
 20
107.6119220148911
 30
0.0
 40
0.05
  1
(1612)
  7
Text
 72
     1
 11
168.5147570370038
 21
107.5929870314651
 31
0.0
100
AcDbText
 73
     1
  0
TEXT
  5
A01
330
1F
100
AcDbEntity
  8
Annotatons
100
AcDbText
 10
168.4179203899491
 20
108.0984746613026
 30
0.0
 40
0.05
  1
[1611]
  7
Text
 72
     1
 11
168.5150902307722
 21
108.0795396778765
 31
0.0
100
AcDbText
 73
     1
  0
LINE
  5
A02
330
1F
100
AcDbEntity
  8
Annotatons
100
AcDbLine
 10
168.4052959587034
 20
108.1162655761724
 30
0.0
 11
168.2844721262601
 21
108.1269265025644
 31
0.0
  0
LINE
  5
A03
330
1F
100
AcDbEntity
  8
Annotatons
100
AcDbLine
 10
168.4026754639043
 20
107.6384478537119
 30
0.0
 11
168.2024553843537
 21
107.6634084780454
 31
0.0
  0
TEXT
  5
A04
330
1F
100
AcDbEntity
  8
Annotatons
100
AcDbText
 10
170.3395845239574
 20
107.8431300885056
 30
0.0
 40
0.05
  1
(1616)
  7
Text
 72
     1
 11
170.4406071339583
 21
107.8241951050795
 31
0.0
100
AcDbText
 73
     1
  0
TEXT
  5
A05
330
1F
100
AcDbEntity
  8
Annotatons
100
AcDbText
 10
171.0167241185448
 20
107.3009278031709
 30
0.0
 40
0.05
  1
[1615]
  7
Text
 72
     1
 11
171.1138939593679
 21
107.2819928197448
 31
0.0
100
AcDbText
 73
     1
  0
LINE
  5
A06
330
1F
100
AcDbEntity
  8
Annotatons
100
AcDbLine
 10
171.0040996872991
 20
107.3187187180407
 30
0.0
 11
170.8832758548558
 21
107.3293796444327
 31
0.0
  0
TEXT
  5
A07
330
1F
100
AcDbEntity
  8
Annotatons
100
AcDbText
 10
170.2343681280828
 20
106.990027223018
 30
0.0
 40
0.05
  1
(1602)
  7
Text
 72
     1
 11
170.3353907380838
 21
106.971092239592
 31
0.0
100
AcDbText
 73
     1
  0
TEXT
  5
A08
330
1F
100
AcDbEntity
  8
Annotatons
100
AcDbText
 10
170.7762144678449
 20
106.869272895871
 30
0.0
 40
0.05
  1
(1614)
  7
Text
 72
     1
 11
170.8772370778459
 21
106.850337912445
 31
0.0
100
AcDbText
 73
     1
  0
TEXT
  5
A09
330
1F
100
AcDbEntity
  8
Annotatons
100
AcDbText
 10
170.3167753304676
 20
106.8541317939058
 30
0.0
 40
0.05
  1
[1613]
  7
Text
 72
     1
 11
170.4139451712907
 21
106.8351968104797
 31
0.0
100
AcDbText
 73
     1
  0
LINE
  5
A0A
330
1F
100
AcDbEntity
  8
DETAIL
100
AcDbLine
 10
170.5239309712144
 20
106.8739487892935
 30
0.0
 11
170.6356866734996
 21
106.8963744043892
 31
0.0
  0
TEXT
  5
A0B
330
1F
100
AcDbEntity
  8
DETAIL
100
AcDbText
 10
165.3728805814366
 20
105.9608387020899
 30
0.0
 40
0.05
  1
(1604)
  7
Text
 72
     1
 11
165.4739031914376
 21
105.9419037186638
 31
0.0
100
AcDbText
 73
     1
  0
TEXT
  5
A0C
330
1F
100
AcDbEntity
  8
Annotatons
100
AcDbText
 10
165.9734586122072
 20
104.9546751971443
 30
0.0
 40
0.05
  1
[1603]
  7
Text
 72
     1
 11
166.0706284530303
 21
104.9357402137183
 31
0.0
100
AcDbText
 73
     1
  0
LINE
  5
A0D
330
1F
100
AcDbEntity
  8
Annotatons
100
AcDbLine
 10
165.9608341809615
 20
104.9724661120141
 30
0.0
 11
165.8400103485182
 21
104.9831270384062
 31
0.0
  0
TEXT
  5
A0E
330
1F
100
AcDbEntity
  8
DETAIL
100
AcDbText
 10
167.7228175310386
 20
104.3492079083179
 30
0.0
 40
0.05
  1
(1608)
  7
Text
 72
     1
 11
167.8238401410395
 21
104.3302729248919
 31
0.0
100
AcDbText
 73
     1
  0
TEXT
  5
A0F
330
1F
100
AcDbEntity
  8
Annotatons
100
AcDbText
 10
168.6066699254886
 20
103.5555787922303
 30
0.0
 40
0.05
  1
[1607]
  7
Text
 72
     1
 11
168.7038397663117
 21
103.5366438088042
 31
0.0
100
AcDbText
 73
     1
  0
LINE
  5
A10
330
1F
100
AcDbEntity
  8
Annotatons
100
AcDbLine
 10
168.5940454942429
 20
103.5733697071001
 30
0.0
 11
168.4732216617996
 21
103.5840306334921
 31
0.0
  0
TEXT
  5
A11
330
1F
100
AcDbEntity
  8
Annotatons
100
AcDbText
 10
167.3039146743944
 20
103.1007237917567
 30
0.0
 40
0.05
  1
(1614)
  7
Text
 72
     1
 11
167.4049372843953
 21
103.0817888083306
 31
0.0
100
AcDbText
 73
     1
  0
TEXT
  5
A12
330
1F
100
AcDbEntity
  8
Annotatons
100
AcDbText
 10
167.892097970143
 20
102.8712196082401
 30
0.0
 40
0.05
  1
[1613]
  7
Text
 72
     1
 11
167.9892678109661
 21
102.8522846248141
 31
0.0
100
AcDbText
 73
     1
  0
LINE
  5
A13
330
1F
100
AcDbEntity
  8
Annotatons
100
AcDbLine
 10
167.8794735388973
 20
102.8890105231099
 30
0.0
 11
167.758649706454
 21
102.899671449502
 31
0.0
  0
TEXT
  5
A14
330
1F
100
AcDbEntity
  8
Annotatons
100
AcDbText
 10
168.1285548456183
 20
103.1264444108286
 30
0.0
 40
0.05
  1
(1602)
  7
Text
 72
     1
 11
168.2295774556192
 21
103.1075094274026
 31
0.0
100
AcDbText
 73
     1
  0
TEXT
  5
A15
330
1F
100
AcDbEntity
  8
Annotatons
100
AcDbText
 10
172.353787277738
 20
103.9547336095751
 30
0.0
 40
0.05
  1
(1622)
  7
Text
 72
     1
 11
172.4548098877389
 21
103.935798626149
 31
0.0
100
AcDbText
 73
     1
  0
TEXT
  5
A16
330
1F
100
AcDbEntity
  8
Annotatons
100
AcDbText
 10
171.5785728822079
 20
103.7757775563163
 30
0.0
 40
0.05
  1
[1621]
  7
Text
 72
     1
 11
171.675742723031
 21
103.7568425728902
 31
0.0
100
AcDbText
 73
     1
  0
LINE
  5
A17
330
1F
100
AcDbEntity
  8
Annotatons
100
AcDbLine
 10
171.921175773906
 20
103.8560808228531
 30
0.0
 11
171.7844995857687
 21
103.7991451507349
 31
0.0
  0
TEXT
  5
A18
330
1F
100
AcDbEntity
  8
Annotatons
100
AcDbText
 10
172.9404612349373
 20
104.1528858635618
 30
0.0
 40
0.05
  1
(1624)
  7
Text
 72
     1
 11
173.0414838449382
 21
104.1339508801358
 31
0.0
100
AcDbText
 73
     1
  0
TEXT
  5
A19
330
1F
100
AcDbEntity
  8
Annotatons
100
AcDbText
 10
172.9857467848838
 20
103.9333598771503
 30
0.0
 40
0.05
  1
[1623]
  7
Text
 72
     1
 11
173.0829166257069
 21
103.9144248937242
 31
0.0
100
AcDbText
 73
     1
  0
LINE
  5
A1A
330
1F
100
AcDbEntity
  8
Annotatons
100
AcDbLine
 10
172.9731223536381
 20
103.9511507920201
 30
0.0
 11
172.8522985211949
 21
103.9618117184121
 31
0.0
  0
TEXT
  5
A1B
330
1F
100
AcDbEntity
  8
Annotatons
100
AcDbText
 10
173.3284619175169
 20
104.0718024291475
 30
0.0
 40
0.05
  1
(1622)
  7
Text
 72
     1
 11
173.4294845275178
 21
104.0528674457214
 31
0.0
100
AcDbText
 73
     1
  0
TEXT
  5
A1C
330
1F
100
AcDbEntity
  8
Annotatons
100
AcDbText
 10
173.6999229627442
 20
103.8873720824877
 30
0.0
 40
0.05
  1
[1621]
  7
Text
 72
     1
 11
173.7970928035673
 21
103.8684370990617
 31
0.0
100
AcDbText
 73
     1
  0
LINE
  5
A1D
330
1F
100
AcDbEntity
  8
Annotatons
100
AcDbLine
 10
173.6872985314985
 20
103.9051629973575
 30
0.0
 11
173.5664746990552
 21
103.9158239237495
 31
0.0
  0
TEXT
  5
A1E
330
1F
100
AcDbEntity
  8
Annotatons
100
AcDbText
 10
172.1294236235916
 20
104.5485675043584
 30
0.0
 40
0.05
  1
[1617]
  7
Text
 72
     1
 11
172.2265934644147
 21
104.5296325209323
 31
0.0
100
AcDbText
 73
     1
  0
LINE
  5
A1F
330
1F
100
AcDbEntity
  8
Annotatons
100
AcDbLine
 10
172.1167991923459
 20
104.5663584192282
 30
0.0
 11
171.9959753599026
 21
104.5770193456202
 31
0.0
  0
TEXT
  5
A20
330
1F
100
AcDbEntity
  8
Annotatons
100
AcDbText
 10
172.4712609446279
 20
104.8233733351925
 30
0.0
 40
0.05
  1
[1619]
  7
Text
 72
     1
 11
172.5684307854509
 21
104.8044383517664
 31
0.0
100
AcDbText
 73
     1
  0
LINE
  5
A21
330
1F
100
AcDbEntity
  8
Annotatons
100
AcDbLine
 10
172.4586365133822
 20
104.8411642500623
 30
0.0
 11
172.3378126809389
 21
104.8518251764543
 31
0.0
  0
TEXT
  5
A22
330
1F
100
AcDbEntity
  8
Annotatons
100
AcDbText
 10
173.3048505903885
 20
104.8443359960284
 30
0.0
 40
0.05
  1
[1607]
  7
Text
 72
     1
 11
173.4020204312116
 21
104.8254010126023
 31
0.0
100
AcDbText
 73
     1
  0
LINE
  5
A23
330
1F
100
AcDbEntity
  8
Annotatons
100
AcDbLine
 10
173.2922261591428
 20
104.8621269108982
 30
0.0
 11
173.1714023266995
 21
104.8727878372902
 31
0.0
  0
TEXT
  5
A24
330
1F
100
AcDbEntity
  8
Annotatons
100
AcDbText
 10
170.3028345531622
 20
103.8580344369677
 30
0.0
 40
0.05
  1
[1617]
  7
Text
 72
     1
 11
170.4000043939853
 21
103.8390994535416
 31
0.0
100
AcDbText
 73
     1
  0
LINE
  5
A25
330
1F
100
AcDbEntity
  8
Annotatons
100
AcDbLine
 10
170.5091475408487
 20
103.8763048821267
 30
0.0
 11
170.6652716806853
 21
103.9295254983726
 31
0.0
  0
TEXT
  5
A26
330
1F
100
AcDbEntity
  8
DETAIL
100
AcDbText
 10
171.3347265705905
 20
104.1383151204304
 30
0.0
 40
0.05
  1
(1618)
  7
Text
 72
     1
 11
171.4357491805915
 21
104.1193801370044
 31
0.0
100
AcDbText
 73
     1
  0
TEXT
  5
A3A
330
1F
100
AcDbEntity
  8
Annotatons
100
AcDbText
 10
171.3012884899083
 20
108.0546605172509
 30
0.0
 40
0.05
  1
Land drain
  7
Text
 72
     1
 11
171.4664572049222
 21
108.0357255338249
 31
0.0
100
AcDbText
 73
     1
  0
LINE
  5
A3B
330
1F
100
AcDbEntity
  8
Annotatons
100
AcDbLine
 10
171.0989802909894
 20
108.013293050001
 30
0.0
 11
171.2765174520235
 21
108.0540105782036
 31
0.0
  0
ENDSEC
  0
SECTION
  2
OBJECTS
  0
DICTIONARY
  5
C
330
0
100
AcDbDictionary
281
     1
  3
ACAD_DETAILVIEWSTYLE
350
B5
  3
ACAD_GROUP
350
D
  3
ACAD_IMAGE_DICT
350
CB
  3
ACAD_IMAGE_VARS
350
6A
  3
ACAD_LAYOUT
350
1A
  3
ACAD_MATERIAL
350
72
  3
ACAD_MLEADERSTYLE
350
3F
  3
ACAD_MLINESTYLE
350
17
  3
ACAD_PLOTSETTINGS
350
19
  3
ACAD_PLOTSTYLENAME
350
E
  3
ACAD_SCALELIST
350
40
  3
ACAD_SECTIONVIEWSTYLE
350
B6
  3
ACAD_TABLESTYLE
350
3B
  3
ACAD_VISUALSTYLE
350
2A
  3
ACDB_RECOMPOSE_DATA
350
A40
  3
AcDbVariableDictionary
350
3D
  3
APPDATA
350
71
  0
SUN
  5
80
330
29
100
AcDbSun
 90
        1
290
     0
 63
     7
421
 16777215
 40
1.0
291
     1
 91
  2455826
 92
 54000000
292
     0
 70
     2
 71
   256
280
     1
  0
DICTIONARY
  5
113
330
2
100
AcDbDictionary
280
     1
281
     1
  3
ACAD_LAYERSTATES
360
114
  3
ACLYDICTIONARY
360
A3D
  0
DICTIONARY
  5
1BA
330
1F
100
AcDbDictionary
280
     1
281
     1
  3
ACAD_SORTENTS
360
1BB
  0
IMAGEDEF_REACTOR
  5
162
330
161
100
AcDbRasterImageDefReactor
 90
        2
330
161
  0
DICTIONARY
  5
B5
102
{ACAD_REACTORS
330
C
102
}
330
C
100
AcDbDictionary
281
     1
  0
DICTIONARY
  5
D
102
{ACAD_REACTORS
330
C
102
}
330
C
100
AcDbDictionary
281
     1
  0
DICTIONARY
  5
CB
102
{ACAD_REACTORS
330
C
102
}
330
C
100
AcDbDictionary
281
     1
  3
1C20LADTT_SH_26
350
160
  0
RASTERVARIABLES
  5
6A
102
{ACAD_REACTORS
330
C
102
}
330
C
100
AcDbRasterVariables
 90
        0
 70
     1
 71
     1
 72
     1
  0
DICTIONARY
  5
1A
102
{ACAD_REACTORS
330
C
102
}
330
C
100
AcDbDictionary
281
     1
  3
Model
350
22
  3
Sheet1
350
1E
  3
Sheet2
350
26
  0
DICTIONARY
  5
72
102
{ACAD_REACTORS
330
C
102
}
330
C
100
AcDbDictionary
281
     1
  3
ByBlock
350
74
  3
ByLayer
350
73
  3
Global
350
75
  0
DICTIONARY
  5
3F
102
{ACAD_REACTORS
330
C
102
}
330
C
100
AcDbDictionary
281
     1
  3
Annotative
350
BC
  3
Standard
350
B7
  0
DICTIONARY
  5
17
102
{ACAD_REACTORS
330
C
102
}
330
C
100
AcDbDictionary
281
     1
  3
Standard
350
18
  0
DICTIONARY
  5
19
102
{ACAD_REACTORS
330
C
102
}
330
C
100
AcDbDictionary
281
     1
  0
ACDBDICTIONARYWDFLT
  5
E
102
{ACAD_REACTORS
330
C
102
}
330
C
100
AcDbDictionary
281
     1
  3
Normal
350
F
100
AcDbDictionaryWithDefault
340
F
  0
DICTIONARY
  5
40
102
{ACAD_REACTORS
330
C
102
}
330
C
100
AcDbDictionary
281
     1
  3
A0
350
41
  3
A1
350
42
  3
A2
350
43
  3
A3
350
44
  3
A4
350
45
  3
A5
350
46
  3
A6
350
47
  3
A7
350
48
  3
A8
350
49
  3
A9
350
4A
  3
B0
350
4B
  3
B1
350
4C
  3
B2
350
4D
  3
B3
350
4E
  3
B4
350
4F
  3
B5
350
50
  3
B6
350
51
  3
B7
350
52
  3
B8
350
53
  3
B9
350
54
  3
C0
350
55
  3
C1
350
56
  3
C2
350
57
  3
C3
350
58
  3
C4
350
59
  3
C5
350
5A
  3
C6
350
5B
  3
C7
350
5C
  3
C8
350
5D
  3
C9
350
5E
  3
D0
350
5F
  3
D1
350
60
  3
D2
350
61
  0
DICTIONARY
  5
B6
102
{ACAD_REACTORS
330
C
102
}
330
C
100
AcDbDictionary
281
     1
  0
DICTIONARY
  5
3B
102
{ACAD_REACTORS
330
C
102
}
330
C
100
AcDbDictionary
281
     1
  3
Standard
350
3C
  0
DICTIONARY
  5
2A
102
{ACAD_REACTORS
330
C
102
}
330
C
100
AcDbDictionary
281
     1
  3
2dWireframe
350
2F
  3
3D Hidden
350
31
  3
3dWireframe
350
30
  3
Basic
350
32
  3
Brighten
350
36
  3
ColorChange
350
3A
  3
Conceptual
350
34
  3
Dim
350
35
  3
EdgeColorOff
350
7A
  3
Facepattern
350
39
  3
Flat
350
2B
  3
FlatWithEdges
350
2C
  3
Gouraud
350
2D
  3
GouraudWithEdges
350
2E
  3
Hidden
350
77
  3
JitterOff
350
78
  3
Linepattern
350
38
  3
OverhangOff
350
79
  3
Realistic
350
33
  3
Shaded
350
7F
  3
Shaded with edges
350
7E
  3
Shades of Gray
350
7B
  3
Sketchy
350
7C
  3
Thicken
350
37
  3
Wireframe
350
76
  3
X-Ray
350
7D
  0
XRECORD
  5
A40
102
{ACAD_REACTORS
330
C
102
}
330
C
100
AcDbXrecord
280
     1
 90
        1
330
3C
  0
DICTIONARY
  5
3D
102
{ACAD_REACTORS
330
C
102
}
330
C
100
AcDbDictionary
281
     1
  3
CANNOSCALE
350
62
  3
CMLEADERSTYLE
350
BB
  3
CTABLESTYLE
350
3E
  3
LIGHTSINBLOCKS
350
6F
  3
XCLIPFRAME
350
70
  0
DICTIONARY
  5
71
102
{ACAD_REACTORS
330
C
102
}
330
C
100
AcDbDictionary
281
     1
  0
DICTIONARY
  5
114
102
{ACAD_REACTORS
330
113
102
}
330
113
100
AcDbDictionary
281
     1
  0
DICTIONARY
  5
A3D
102
{ACAD_REACTORS
330
113
102
}
330
113
100
AcDbDictionary
281
     1
1001
ACAD
1000
<All
  0
SORTENTSTABLE
  5
1BB
102
{ACAD_REACTORS
330
1BA
102
}
330
1BA
100
AcDbSortentsTable
330
1F
331
0
  5
17D
331
188
  5
18A
331
189
  5
18B
331
18B
  5
18D
331
18C
  5
18E
331
18D
  5
18F
331
18E
  5
190
331
18F
  5
191
331
190
  5
192
331
191
  5
193
331
192
  5
194
331
193
  5
195
331
194
  5
196
331
195
  5
197
331
196
  5
198
331
197
  5
199
331
198
  5
19A
331
199
  5
19B
331
19A
  5
19C
331
19B
  5
19D
331
19C
  5
19E
331
19D
  5
19F
331
19E
  5
1A0
331
19F
  5
1A1
331
1A0
  5
1A2
331
1A1
  5
1A5
331
1A2
  5
1A8
331
1A4
  5
1AC
331
1A5
  5
1AF
331
1A6
  5
1B2
331
1A7
  5
1B5
331
1A8
  5
1B8
331
1A9
  5
1BD
331
1AA
  5
1C0
331
1AB
  5
1C3
331
1AC
  5
1C6
331
1AE
  5
1CA
331
1AF
  5
1CD
331
1B0
  5
1D0
331
1B1
  5
1D3
331
1B2
  5
1D6
331
1B3
  5
1D9
331
1B4
  5
1DC
331
1B5
  5
1DF
331
1B6
  5
1E2
331
1B7
  5
1E5
331
1B8
  5
1E8
331
1D3
  5
1A4
331
1D4
  5
1A7
331
1D5
  5
1AB
331
1D6
  5
1AE
331
1D7
  5
1B1
331
1D8
  5
1B4
331
1D9
  5
1B7
331
1DA
  5
1BC
331
1DB
  5
1BF
331
1DC
  5
1C2
331
1DD
  5
1C5
331
1DE
  5
1C9
331
1DF
  5
1CC
331
1E0
  5
1CF
331
1E1
  5
1D2
331
1E2
  5
1D5
331
1E3
  5
1D8
331
1E4
  5
1DB
331
1E5
  5
1DE
331
1E6
  5
1E1
331
1E7
  5
1E4
331
1E8
  5
1E7
331
252
  5
256
331
25A
  5
265
331
25B
  5
26C
331
25C
  5
272
331
25D
  5
277
331
25E
  5
27B
331
25F
  5
27E
331
260
  5
281
331
261
  5
284
331
262
  5
287
331
263
  5
28A
331
264
  5
28D
331
265
  5
290
331
266
  5
293
331
267
  5
296
331
268
  5
299
331
269
  5
29C
331
26A
  5
29F
331
26B
  5
2A2
331
26C
  5
2A5
331
26D
  5
2A8
331
26E
  5
2AB
331
26F
  5
2AE
331
270
  5
2B1
331
271
  5
2B4
331
272
  5
2B7
331
273
  5
2BA
331
274
  5
2BD
331
275
  5
2C0
331
276
  5
2C3
331
277
  5
2C6
331
278
  5
2C9
331
279
  5
2CC
331
27A
  5
2CF
331
27B
  5
2D2
331
27C
  5
2D5
331
27D
  5
2D9
331
27E
  5
2DC
331
280
  5
2E0
331
281
  5
2E3
331
282
  5
2E6
331
284
  5
2EA
331
285
  5
2ED
331
286
  5
2EE
331
287
  5
2EF
331
288
  5
2F0
331
289
  5
2F1
331
28A
  5
2F2
331
28B
  5
2F3
331
28C
  5
2F4
331
28D
  5
2F5
331
28E
  5
2F6
331
28F
  5
2F7
331
290
  5
2F8
331
291
  5
2F9
331
292
  5
2FA
331
293
  5
2FB
331
294
  5
2FC
331
295
  5
2FD
331
296
  5
2FE
331
297
  5
2FF
331
298
  5
300
331
299
  5
301
331
29A
  5
302
331
29B
  5
303
331
29C
  5
304
331
29D
  5
305
331
29E
  5
306
331
29F
  5
307
331
2A0
  5
35E
331
2A1
  5
35F
331
2A2
  5
360
331
2A3
  5
361
331
2A4
  5
362
331
2CA
  5
255
331
2CB
  5
280
331
2CC
  5
283
331
2CD
  5
286
331
2CE
  5
289
331
2CF
  5
28C
331
2D0
  5
28F
331
2D1
  5
292
331
2D2
  5
295
331
2D3
  5
298
331
2D4
  5
29B
331
2D5
  5
29E
331
2D6
  5
2A1
331
2D7
  5
2A4
331
2D8
  5
2A7
331
2D9
  5
2AA
331
2DA
  5
2AD
331
2DB
  5
2B0
331
2DC
  5
2B3
331
2DD
  5
2B6
331
2DE
  5
2B9
331
2DF
  5
2BC
331
2E0
  5
2BF
331
2E1
  5
2C2
331
2E2
  5
2C5
331
2E3
  5
2CB
331
2E4
  5
2CE
331
2E5
  5
2D1
331
2E6
  5
2D4
331
2E7
  5
2DB
331
2E8
  5
2DF
331
2E9
  5
2E2
331
2EA
  5
2E5
331
2EB
  5
2E9
331
302
  5
264
331
303
  5
26B
331
304
  5
271
331
305
  5
276
331
306
  5
27A
331
307
  5
27D
331
3A9
  5
2C8
331
3AA
  5
2D8
331
3AC
  5
3AE
331
3AE
  5
3AD
331
56B
  5
56D
331
56D
  5
56C
  0
IMAGEDEF
  5
160
102
{ACAD_REACTORS
330
CB
330
162
102
}
330
CB
100
AcDbRasterImageDef
 90
        0
  1
Z:\HS2\Evaluations\Ladbroke_AC32031\Fieldwork\Evaluation\Draftsight\Scanned_Drawings\1C20LADTT_SH_26.tif
 10
4960.0
 20
3507.0
 11
0.08466683600033867
 21
0.08466683600033867
280
     1
281
     3
  0
LAYOUT
  5
22
102
{ACAD_REACTORS
330
1A
102
}
330
1A
100
AcDbPlotSettings
  1

  2
none_device
  4
ISO_A3_(420.00_x_297.00_MM)
  6

 40
7.5
 41
20.0
 42
7.5
 43
20.0
 44
420.0
 45
297.0
 46
20.78282828282826
 47
0.0
 48
0.0
 49
0.0
140
0.0
141
0.0
142
1.0
143
1.155642023346303
 70
  1204
 72
     1
 73
     0
 74
     1
  7
monochrome.ctb
 75
     0
 76
     0
 77
     2
 78
   300
147
0.8653198653198654
148
-134.1869158878504
149
0.0
100
AcDbLayout
  1
Model
 70
     1
 71
     0
 10
0.0
 20
0.0
 11
420.0
 21
297.0
 12
0.0
 22
0.0
 32
0.0
 14
154.685419308156
 24
102.3042330034655
 34
0.0
 15
173.9298231904463
 25
108.7980868467209
 35
0.0
146
0.0
 13
0.0
 23
0.0
 33
0.0
 16
1.0
 26
0.0
 36
0.0
 17
0.0
 27
1.0
 37
0.0
 76
     0
330
1F
331
29
  0
LAYOUT
  5
1E
102
{ACAD_REACTORS
330
1A
102
}
330
1A
100
AcDbPlotSettings
  1

  2
none_device
  4

  6

 40
0.0
 41
0.0
 42
0.0
 43
0.0
 44
0.0
 45
0.0
 46
0.0
 47
0.0
 48
0.0
 49
0.0
140
0.0
141
0.0
142
1.0
143
1.0
 70
   688
 72
     0
 73
     0
 74
     5
  7

 75
    16
 76
     0
 77
     2
 78
   300
147
1.0
148
0.0
149
0.0
100
AcDbLayout
  1
Sheet1
 70
     1
 71
     1
 10
0.0
 20
0.0
 11
420.0
 21
297.0
 12
0.0
 22
0.0
 32
0.0
 14
1.000000000000000E+20
 24
1.000000000000000E+20
 34
1.000000000000000E+20
 15
-1.000000000000000E+20
 25
-1.000000000000000E+20
 35
-1.000000000000000E+20
146
0.0
 13
0.0
 23
0.0
 33
0.0
 16
1.0
 26
0.0
 36
0.0
 17
0.0
 27
1.0
 37
0.0
 76
     0
330
1B
  0
LAYOUT
  5
26
102
{ACAD_REACTORS
330
1A
102
}
330
1A
100
AcDbPlotSettings
  1

  2
none_device
  4

  6

 40
0.0
 41
0.0
 42
0.0
 43
0.0
 44
0.0
 45
0.0
 46
0.0
 47
0.0
 48
0.0
 49
0.0
140
0.0
141
0.0
142
1.0
143
1.0
 70
   688
 72
     0
 73
     0
 74
     5
  7

 75
    16
 76
     0
 77
     2
 78
   300
147
1.0
148
0.0
149
0.0
100
AcDbLayout
  1
Sheet2
 70
     1
 71
     2
 10
0.0
 20
0.0
 11
0.0
 21
0.0
 12
0.0
 22
0.0
 32
0.0
 14
0.0
 24
0.0
 34
0.0
 15
0.0
 25
0.0
 35
0.0
146
0.0
 13
0.0
 23
0.0
 33
0.0
 16
1.0
 26
0.0
 36
0.0
 17
0.0
 27
1.0
 37
0.0
 76
     0
330
23
  0
MATERIAL
  5
74
102
{ACAD_REACTORS
330
72
102
}
330
72
100
AcDbMaterial
  1
ByBlock
 72
     1
 94
      127
  0
MATERIAL
  5
73
102
{ACAD_REACTORS
330
72
102
}
330
72
100
AcDbMaterial
  1
ByLayer
 72
     1
 94
      127
  0
MATERIAL
  5
75
102
{ACAD_REACTORS
330
72
102
}
330
72
100
AcDbMaterial
  1
Global
 72
     1
 94
      127
  0
MLEADERSTYLE
  5
BC
102
{ACAD_REACTORS
330
3F
102
}
330
3F
100
AcDbMLeaderStyle
179
     2
170
     2
171
     1
172
     0
 90
        2
 40
0.0
 41
0.0
173
     1
 91
-1056964608
340
14
 92
       -2
290
     1
 42
2.0
291
     1
 43
8.0
  3
Annotative
341
0
 44
4.0
300

342
11
174
     1
178
     1
175
     1
176
     0
 93
-1056964608
 45
4.0
292
     0
297
     0
 46
4.0
343
0
 94
-1056964608
 47
1.0
 49
1.0
140
1.0
293
     1
141
0.0
294
     1
177
     0
142
1.0
295
     0
296
     1
143
3.75
271
     0
272
     9
273
     9
298
     0
  0
MLEADERSTYLE
  5
B7
102
{ACAD_REACTORS
330
3F
102
}
330
3F
100
AcDbMLeaderStyle
179
     2
170
     2
171
     1
172
     0
 90
        2
 40
0.0
 41
0.0
173
     1
 91
-1056964608
340
14
 92
       -2
290
     1
 42
2.0
291
     1
 43
8.0
  3
Standard
341
0
 44
4.0
300

342
11
174
     1
178
     6
175
     1
176
     0
 93
-1056964608
 45
4.0
292
     0
297
     0
 46
4.0
343
0
 94
-1056964608
 47
1.0
 49
1.0
140
1.0
293
     1
141
0.0
294
     1
177
     0
142
1.0
295
     0
296
     0
143
3.75
271
     0
272
     9
273
     9
298
     0
  0
MLINESTYLE
  5
18
102
{ACAD_REACTORS
330
17
102
}
330
17
100
AcDbMlineStyle
  2
Standard
 70
     0
  3

 62
   256
 51
90.0
 52
90.0
 71
     2
 49
0.5
 62
   256
  6
BYLAYER
 49
-0.5
 62
   256
  6
BYLAYER
  0
ACDBPLACEHOLDER
  5
F
102
{ACAD_REACTORS
330
E
102
}
330
E
  0
SCALE
  5
41
102
{ACAD_REACTORS
330
40
102
}
330
40
100
AcDbScale
 70
     0
300
1:1
140
1.0
141
1.0
290
     1
  0
SCALE
  5
42
102
{ACAD_REACTORS
330
40
102
}
330
40
100
AcDbScale
 70
     0
300
1:2
140
1.0
141
2.0
290
     0
  0
SCALE
  5
43
102
{ACAD_REACTORS
330
40
102
}
330
40
100
AcDbScale
 70
     0
300
1:4
140
1.0
141
4.0
290
     0
  0
SCALE
  5
44
102
{ACAD_REACTORS
330
40
102
}
330
40
100
AcDbScale
 70
     0
300
1:5
140
1.0
141
5.0
290
     0
  0
SCALE
  5
45
102
{ACAD_REACTORS
330
40
102
}
330
40
100
AcDbScale
 70
     0
300
1:8
140
1.0
141
8.0
290
     0
  0
SCALE
  5
46
102
{ACAD_REACTORS
330
40
102
}
330
40
100
AcDbScale
 70
     0
300
1:10
140
1.0
141
10.0
290
     0
  0
SCALE
  5
47
102
{ACAD_REACTORS
330
40
102
}
330
40
100
AcDbScale
 70
     0
300
1:16
140
1.0
141
16.0
290
     0
  0
SCALE
  5
48
102
{ACAD_REACTORS
330
40
102
}
330
40
100
AcDbScale
 70
     0
300
1:20
140
1.0
141
20.0
290
     0
  0
SCALE
  5
49
102
{ACAD_REACTORS
330
40
102
}
330
40
100
AcDbScale
 70
     0
300
1:30
140
1.0
141
30.0
290
     0
  0
SCALE
  5
4A
102
{ACAD_REACTORS
330
40
102
}
330
40
100
AcDbScale
 70
     0
300
1:40
140
1.0
141
40.0
290
     0
  0
SCALE
  5
4B
102
{ACAD_REACTORS
330
40
102
}
330
40
100
AcDbScale
 70
     0
300
1:50
140
1.0
141
50.0
290
     0
  0
SCALE
  5
4C
102
{ACAD_REACTORS
330
40
102
}
330
40
100
AcDbScale
 70
     0
300
1:100
140
1.0
141
100.0
290
     0
  0
SCALE
  5
4D
102
{ACAD_REACTORS
330
40
102
}
330
40
100
AcDbScale
 70
     0
300
2:1
140
2.0
141
1.0
290
     0
  0
SCALE
  5
4E
102
{ACAD_REACTORS
330
40
102
}
330
40
100
AcDbScale
 70
     0
300
4:1
140
4.0
141
1.0
290
     0
  0
SCALE
  5
4F
102
{ACAD_REACTORS
330
40
102
}
330
40
100
AcDbScale
 70
     0
300
8:1
140
8.0
141
1.0
290
     0
  0
SCALE
  5
50
102
{ACAD_REACTORS
330
40
102
}
330
40
100
AcDbScale
 70
     0
300
10:1
140
10.0
141
1.0
290
     0
  0
SCALE
  5
51
102
{ACAD_REACTORS
330
40
102
}
330
40
100
AcDbScale
 70
     0
300
100:1
140
100.0
141
1.0
290
     0
  0
SCALE
  5
52
102
{ACAD_REACTORS
330
40
102
}
330
40
100
AcDbScale
 70
     0
300
1/128" = 1'-0"
140
0.0078125
141
12.0
290
     0
  0
SCALE
  5
53
102
{ACAD_REACTORS
330
40
102
}
330
40
100
AcDbScale
 70
     0
300
1/64" = 1'-0"
140
0.015625
141
12.0
290
     0
  0
SCALE
  5
54
102
{ACAD_REACTORS
330
40
102
}
330
40
100
AcDbScale
 70
     0
300
1/32" = 1'-0"
140
0.03125
141
12.0
290
     0
  0
SCALE
  5
55
102
{ACAD_REACTORS
330
40
102
}
330
40
100
AcDbScale
 70
     0
300
1/16" = 1'-0"
140
0.0625
141
12.0
290
     0
  0
SCALE
  5
56
102
{ACAD_REACTORS
330
40
102
}
330
40
100
AcDbScale
 70
     0
300
3/32" = 1'-0"
140
0.09375
141
12.0
290
     0
  0
SCALE
  5
57
102
{ACAD_REACTORS
330
40
102
}
330
40
100
AcDbScale
 70
     0
300
1/8" = 1'-0"
140
0.125
141
12.0
290
     0
  0
SCALE
  5
58
102
{ACAD_REACTORS
330
40
102
}
330
40
100
AcDbScale
 70
     0
300
3/16" = 1'-0"
140
0.1875
141
12.0
290
     0
  0
SCALE
  5
59
102
{ACAD_REACTORS
330
40
102
}
330
40
100
AcDbScale
 70
     0
300
1/4" = 1'-0"
140
0.25
141
12.0
290
     0
  0
SCALE
  5
5A
102
{ACAD_REACTORS
330
40
102
}
330
40
100
AcDbScale
 70
     0
300
3/8" = 1'-0"
140
0.375
141
12.0
290
     0
  0
SCALE
  5
5B
102
{ACAD_REACTORS
330
40
102
}
330
40
100
AcDbScale
 70
     0
300
1/2" = 1'-0"
140
0.5
141
12.0
290
     0
  0
SCALE
  5
5C
102
{ACAD_REACTORS
330
40
102
}
330
40
100
AcDbScale
 70
     0
300
3/4" = 1'-0"
140
0.75
141
12.0
290
     0
  0
SCALE
  5
5D
102
{ACAD_REACTORS
330
40
102
}
330
40
100
AcDbScale
 70
     0
300
1" = 1'-0"
140
1.0
141
12.0
290
     0
  0
SCALE
  5
5E
102
{ACAD_REACTORS
330
40
102
}
330
40
100
AcDbScale
 70
     0
300
1-1/2" = 1'-0"
140
1.5
141
12.0
290
     0
  0
SCALE
  5
5F
102
{ACAD_REACTORS
330
40
102
}
330
40
100
AcDbScale
 70
     0
300
3" = 1'-0"
140
3.0
141
12.0
290
     0
  0
SCALE
  5
60
102
{ACAD_REACTORS
330
40
102
}
330
40
100
AcDbScale
 70
     0
300
6" = 1'-0"
140
6.0
141
12.0
290
     0
  0
SCALE
  5
61
102
{ACAD_REACTORS
330
40
102
}
330
40
100
AcDbScale
 70
     0
300
1'-0" = 1'-0"
140
12.0
141
12.0
290
     0
  0
TABLESTYLE
  5
3C
102
{ACAD_REACTORS
330
3B
102
}
102
{ACAD_XDICTIONARY
360
A3E
102
}
330
3B
100
AcDbTableStyle
  3
Standard
 70
     0
 71
     0
 40
1.5
 41
1.5
280
     0
281
     0
  7
Standard
140
4.5
170
     2
 62
     0
 63
   257
283
     0
 90
      512
 91
        0
  1

274
    -2
284
     1
 64
     0
275
    -2
285
     1
 65
     0
276
    -2
286
     1
 66
     0
277
    -2
287
     1
 67
     0
278
    -2
288
     1
 68
     0
279
    -2
289
     1
 69
     0
  7
Standard
140
6.0
170
     5
 62
     0
 63
   257
283
     0
 90
      512
 91
        0
  1

274
    -2
284
     1
 64
     0
275
    -2
285
     1
 65
     0
276
    -2
286
     1
 66
     0
277
    -2
287
     1
 67
     0
278
    -2
288
     1
 68
     0
279
    -2
289
     1
 69
     0
  7
Standard
140
4.5
170
     5
 62
     0
 63
   257
283
     0
 90
      512
 91
        0
  1

274
    -2
284
     1
 64
     0
275
    -2
285
     1
 65
     0
276
    -2
286
     1
 66
     0
277
    -2
287
     1
 67
     0
278
    -2
288
     1
 68
     0
279
    -2
289
     1
 69
     0
  0
VISUALSTYLE
  5
2F
102
{ACAD_REACTORS
330
2A
102
}
330
2A
100
AcDbVisualStyle
  2
2dWireframe
 70
     4
177
     3
291
     0
 70
    58
 90
        0
176
     1
 90
        2
176
     1
 90
        0
176
     1
 90
        0
176
     1
 40
-0.6
176
     1
 40
-30.0
176
     1
 62
     7
420
 16777215
176
     1
 90
        1
176
     1
 90
        4
176
     1
 62
     7
176
     1
 62
   257
176
     1
 90
        1
176
     1
 90
        1
176
     1
 40
1.0
176
     1
 90
        0
176
     1
 62
   257
176
     1
 40
1.0
176
     1
 90
        1
176
     1
 90
        6
176
     1
 90
        2
176
     1
 62
     7
176
     1
 90
        5
176
     1
 90
        0
176
     1
 90
        0
176
     1
290
     0
176
     1
 90
        1
176
     1
 40
0.0
176
     1
 90
        0
176
     1
290
     1
176
     1
290
     1
176
     1
290
     0
176
     1
290
     0
176
     1
290
     0
176
     1
290
     0
176
     1
290
     0
176
     1
290
     0
176
     1
290
     0
176
     1
 90
       50
176
     1
 40
0.0
176
     1
 40
1.0
176
     1
 90
        0
176
     1
 62
    18
420
        0
176
     1
 90
       50
176
     1
 90
        3
176
     1
 62
     5
420
      255
176
     1
290
     0
176
     1
 90
       50
176
     1
 90
       50
176
     1
 90
       50
176
     1
290
     0
176
     1
 90
       50
176
     1
 62
   256
176
     0
 40
1.0
176
     0
 90
        2
176
     1
  1
strokes_ogs.tif
176
     1
290
     0
176
     1
 40
1.0
176
     1
 40
1.0
176
     1
  0
VISUALSTYLE
  5
31
102
{ACAD_REACTORS
330
2A
102
}
330
2A
100
AcDbVisualStyle
  2
3D Hidden
 70
     6
177
     3
291
     0
 70
    58
 90
        1
176
     1
 90
        2
176
     1
 90
        2
176
     1
 90
        0
176
     1
 40
-0.6
176
     1
 40
-30.0
176
     1
 62
     7
420
 16777215
176
     1
 90
        2
176
     1
 90
        2
176
     1
 62
     7
176
     1
 62
   257
176
     1
 90
        2
176
     1
 90
        1
176
     1
 40
40.0
176
     1
 90
        0
176
     1
 62
   257
176
     1
 40
1.0
176
     1
 90
        1
176
     1
 90
        6
176
     1
 90
        2
176
     1
 62
     7
176
     1
 90
        3
176
     1
 90
        0
176
     1
 90
        0
176
     1
290
     0
176
     1
 90
        1
176
     1
 40
0.0
176
     1
 90
        0
176
     1
290
     0
176
     1
290
     1
176
     1
290
     1
176
     1
290
     0
176
     1
290
     0
176
     1
290
     0
176
     1
290
     0
176
     1
290
     0
176
     1
290
     0
176
     1
 90
       50
176
     1
 40
0.0
176
     1
 40
1.0
176
     1
 90
        0
176
     1
 62
    18
420
        0
176
     1
 90
       50
176
     1
 90
        3
176
     1
 62
     5
420
      255
176
     1
290
     0
176
     1
 90
       50
176
     1
 90
       50
176
     1
 90
       50
176
     1
290
     0
176
     1
 90
       50
176
     1
 62
   256
176
     0
 40
1.0
176
     0
 90
        2
176
     1
  1
strokes_ogs.tif
176
     1
290
     0
176
     1
 40
1.0
176
     1
 40
1.0
176
     1
  0
VISUALSTYLE
  5
30
102
{ACAD_REACTORS
330
2A
102
}
330
2A
100
AcDbVisualStyle
  2
3dWireframe
 70
     5
177
     3
291
     0
 70
    58
 90
        0
176
     1
 90
        2
176
     1
 90
        0
176
     1
 90
        0
176
     1
 40
-0.6
176
     1
 40
-30.0
176
     1
 62
     7
420
 16777215
176
     1
 90
        1
176
     1
 90
        4
176
     1
 62
     7
176
     1
 62
   257
176
     1
 90
        1
176
     1
 90
        1
176
     1
 40
1.0
176
     1
 90
        0
176
     1
 62
   257
176
     1
 40
1.0
176
     1
 90
        1
176
     1
 90
        6
176
     1
 90
        2
176
     1
 62
     7
176
     1
 90
        5
176
     1
 90
        0
176
     1
 90
        0
176
     1
290
     0
176
     1
 90
        1
176
     1
 40
0.0
176
     1
 90
        0
176
     1
290
     0
176
     1
290
     1
176
     1
290
     1
176
     1
290
     0
176
     1
290
     0
176
     1
290
     0
176
     1
290
     0
176
     1
290
     0
176
     1
290
     0
176
     1
 90
       50
176
     1
 40
0.0
176
     1
 40
1.0
176
     1
 90
        0
176
     1
 62
    18
420
        0
176
     1
 90
       50
176
     1
 90
        3
176
     1
 62
     5
420
      255
176
     1
290
     0
176
     1
 90
       50
176
     1
 90
       50
176
     1
 90
       50
176
     1
290
     0
176
     1
 90
       50
176
     1
 62
   256
176
     0
 40
1.0
176
     0
 90
        2
176
     1
  1
strokes_ogs.tif
176
     1
290
     0
176
     1
 40
1.0
176
     1
 40
1.0
176
     1
  0
VISUALSTYLE
  5
32
102
{ACAD_REACTORS
330
2A
102
}
330
2A
100
AcDbVisualStyle
  2
Basic
 70
     7
177
     3
291
     1
 70
    58
 90
        1
176
     1
 90
        0
176
     1
 90
        1
176
     1
 90
        0
176
     1
 40
-0.6
176
     1
 40
-30.0
176
     1
 62
     7
420
 16777215
176
     1
 90
        0
176
     1
 90
        4
176
     1
 62
     7
176
     1
 62
   257
176
     1
 90
        1
176
     1
 90
        1
176
     1
 40
1.0
176
     1
 90
        8
176
     1
 62
     7
176
     1
 40
1.0
176
     1
 90
        1
176
     1
 90
        6
176
     1
 90
        2
176
     1
 62
     7
176
     1
 90
        5
176
     1
 90
        0
176
     1
 90
        0
176
     1
290
     0
176
     1
 90
        1
176
     1
 40
0.0
176
     1
 90
        0
176
     1
290
     0
176
     1
290
     1
176
     1
290
     1
176
     1
290
     0
176
     1
290
     0
176
     1
290
     0
176
     1
290
     0
176
     1
290
     0
176
     1
290
     0
176
     1
 90
       50
176
     1
 40
0.0
176
     1
 40
1.0
176
     1
 90
        0
176
     1
 62
    18
420
        0
176
     1
 90
       50
176
     1
 90
        3
176
     1
 62
     5
420
      255
176
     1
290
     0
176
     1
 90
       50
176
     1
 90
       50
176
     1
 90
       50
176
     1
290
     0
176
     1
 90
       50
176
     1
 62
   256
176
     0
 40
1.0
176
     0
 90
        2
176
     1
  1
strokes_ogs.tif
176
     1
290
     0
176
     1
 40
1.0
176
     1
 40
1.0
176
     1
  0
VISUALSTYLE
  5
36
102
{ACAD_REACTORS
330
2A
102
}
330
2A
100
AcDbVisualStyle
  2
Brighten
 70
    12
177
     3
291
     1
 70
    58
 90
        2
176
     1
 90
        2
176
     1
 90
        0
176
     1
 90
        0
176
     1
 40
-0.6
176
     1
 40
-30.0
176
     1
 62
     7
420
 16777215
176
     1
 90
        1
176
     1
 90
        4
176
     1
 62
     7
176
     1
 62
   257
176
     1
 90
        1
176
     1
 90
        1
176
     1
 40
1.0
176
     1
 90
        8
176
     1
 62
     7
176
     1
 40
1.0
176
     1
 90
        1
176
     1
 90
        6
176
     1
 90
        2
176
     1
 62
     7
176
     1
 90
        5
176
     1
 90
        0
176
     1
 90
        0
176
     1
290
     0
176
     1
 90
        1
176
     1
 40
50.0
176
     1
 90
        0
176
     1
290
     0
176
     1
290
     1
176
     1
290
     1
176
     1
290
     0
176
     1
290
     0
176
     1
290
     0
176
     1
290
     0
176
     1
290
     0
176
     1
290
     0
176
     1
 90
       50
176
     1
 40
0.0
176
     1
 40
1.0
176
     1
 90
        0
176
     1
 62
    18
420
        0
176
     1
 90
       50
176
     1
 90
        3
176
     1
 62
     5
420
      255
176
     1
290
     0
176
     1
 90
       50
176
     1
 90
       50
176
     1
 90
       50
176
     1
290
     0
176
     1
 90
       50
176
     1
 62
   256
176
     0
 40
1.0
176
     0
 90
        2
176
     1
  1
strokes_ogs.tif
176
     1
290
     0
176
     1
 40
1.0
176
     1
 40
1.0
176
     1
  0
VISUALSTYLE
  5
3A
102
{ACAD_REACTORS
330
2A
102
}
330
2A
100
AcDbVisualStyle
  2
ColorChange
 70
    16
177
     3
291
     1
 70
    58
 90
        2
176
     1
 90
        2
176
     1
 90
        3
176
     1
 90
        0
176
     1
 40
-0.6
176
     1
 40
-30.0
176
     1
 62
     8
420
  8421504
176
     1
 90
        1
176
     1
 90
        4
176
     1
 62
     7
176
     1
 62
   257
176
     1
 90
        1
176
     1
 90
        1
176
     1
 40
1.0
176
     1
 90
        8
176
     1
 62
     8
420
  8421504
176
     1
 40
1.0
176
     1
 90
        1
176
     1
 90
        6
176
     1
 90
        2
176
     1
 62
     7
176
     1
 90
        5
176
     1
 90
        0
176
     1
 90
        0
176
     1
290
     0
176
     1
 90
        1
176
     1
 40
0.0
176
     1
 90
        0
176
     1
290
     0
176
     1
290
     1
176
     1
290
     1
176
     1
290
     0
176
     1
290
     0
176
     1
290
     0
176
     1
290
     0
176
     1
290
     0
176
     1
290
     0
176
     1
 90
       50
176
     1
 40
0.0
176
     1
 40
1.0
176
     1
 90
        0
176
     1
 62
    18
420
        0
176
     1
 90
       50
176
     1
 90
        3
176
     1
 62
     5
420
      255
176
     1
290
     0
176
     1
 90
       50
176
     1
 90
       50
176
     1
 90
       50
176
     1
290
     0
176
     1
 90
       50
176
     1
 62
   256
176
     0
 40
1.0
176
     0
 90
        2
176
     1
  1
strokes_ogs.tif
176
     1
290
     0
176
     1
 40
1.0
176
     1
 40
1.0
176
     1
  0
VISUALSTYLE
  5
34
102
{ACAD_REACTORS
330
2A
102
}
330
2A
100
AcDbVisualStyle
  2
Conceptual
 70
     9
177
     3
291
     0
 70
    58
 90
        3
176
     1
 90
        2
176
     1
 90
        0
176
     1
 90
        0
176
     1
 40
-0.6
176
     1
 40
-30.0
176
     1
 62
     7
420
 16777215
176
     1
 90
        2
176
     1
 90
        2
176
     1
 62
     7
176
     1
 62
   257
176
     1
 90
        1
176
     1
 90
        1
176
     1
 40
40.0
176
     1
 90
        8
176
     1
 62
     7
176
     1
 40
1.0
176
     1
 90
        1
176
     1
 90
        6
176
     1
 90
        2
176
     1
 62
     7
176
     1
 90
        3
176
     1
 90
        0
176
     1
 90
        0
176
     1
290
     0
176
     1
 90
        1
176
     1
 40
0.0
176
     1
 90
        0
176
     1
290
     0
176
     1
290
     1
176
     1
290
     1
176
     1
290
     0
176
     1
290
     0
176
     1
290
     0
176
     1
290
     0
176
     1
290
     0
176
     1
290
     0
176
     1
 90
       50
176
     1
 40
0.0
176
     1
 40
1.0
176
     1
 90
        0
176
     1
 62
    18
420
        0
176
     1
 90
       50
176
     1
 90
        3
176
     1
 62
     5
420
      255
176
     1
290
     0
176
     1
 90
       50
176
     1
 90
       50
176
     1
 90
       50
176
     1
290
     0
176
     1
 90
       50
176
     1
 62
   256
176
     0
 40
1.0
176
     0
 90
        2
176
     1
  1
strokes_ogs.tif
176
     1
290
     0
176
     1
 40
1.0
176
     1
 40
1.0
176
     1
  0
VISUALSTYLE
  5
35
102
{ACAD_REACTORS
330
2A
102
}
330
2A
100
AcDbVisualStyle
  2
Dim
 70
    11
177
     3
291
     1
 70
    58
 90
        2
176
     1
 90
        2
176
     1
 90
        0
176
     1
 90
        0
176
     1
 40
-0.6
176
     1
 40
-30.0
176
     1
 62
     7
420
 16777215
176
     1
 90
        1
176
     1
 90
        4
176
     1
 62
     7
176
     1
 62
   257
176
     1
 90
        1
176
     1
 90
        1
176
     1
 40
1.0
176
     1
 90
        8
176
     1
 62
     7
176
     1
 40
1.0
176
     1
 90
        1
176
     1
 90
        6
176
     1
 90
        2
176
     1
 62
     7
176
     1
 90
        5
176
     1
 90
        0
176
     1
 90
        0
176
     1
290
     0
176
     1
 90
        1
176
     1
 40
-50.0
176
     1
 90
        0
176
     1
290
     0
176
     1
290
     1
176
     1
290
     1
176
     1
290
     0
176
     1
290
     0
176
     1
290
     0
176
     1
290
     0
176
     1
290
     0
176
     1
290
     0
176
     1
 90
       50
176
     1
 40
0.0
176
     1
 40
1.0
176
     1
 90
        0
176
     1
 62
    18
420
        0
176
     1
 90
       50
176
     1
 90
        3
176
     1
 62
     5
420
      255
176
     1
290
     0
176
     1
 90
       50
176
     1
 90
       50
176
     1
 90
       50
176
     1
290
     0
176
     1
 90
       50
176
     1
 62
   256
176
     0
 40
1.0
176
     0
 90
        2
176
     1
  1
strokes_ogs.tif
176
     1
290
     0
176
     1
 40
1.0
176
     1
 40
1.0
176
     1
  0
VISUALSTYLE
  5
7A
102
{ACAD_REACTORS
330
2A
102
}
330
2A
100
AcDbVisualStyle
  2
EdgeColorOff
 70
    22
177
     3
291
     1
 70
    58
 90
        2
176
     0
 90
        2
176
     0
 90
        0
176
     0
 90
        0
176
     0
 40
0.6
176
     0
 40
30.0
176
     0
 62
     7
420
 16777215
176
     0
 90
        1
176
     0
 90
        4
176
     0
 62
     7
176
     0
 62
   257
176
     0
 90
        1
176
     0
 90
        1
176
     0
 40
1.0
176
     0
 90
        8
176
     2
 62
     7
176
     0
 40
1.0
176
     0
 90
        1
176
     0
 90
        6
176
     0
 90
        2
176
     0
 62
     7
176
     0
 90
        5
176
     0
 90
        0
176
     0
 90
        0
176
     0
290
     0
176
     0
 90
        1
176
     0
 40
0.0
176
     0
 90
        0
176
     0
290
     0
176
     0
290
     1
176
     0
290
     1
176
     0
290
     0
176
     0
290
     0
176
     0
290
     0
176
     0
290
     0
176
     0
290
     0
176
     0
290
     0
176
     0
 90
       50
176
     0
 40
0.0
176
     0
 40
1.0
176
     0
 90
        0
176
     0
 62
    18
420
        0
176
     0
 90
       50
176
     0
 90
        3
176
     0
 62
     5
420
      255
176
     0
290
     0
176
     0
 90
       50
176
     0
 90
       50
176
     0
 90
       50
176
     0
290
     0
176
     0
 90
       50
176
     0
 62
   256
176
     0
 40
1.0
176
     0
 90
        2
176
     0
  1
strokes_ogs.tif
176
     0
290
     0
176
     0
 40
1.0
176
     0
 40
1.0
176
     0
  0
VISUALSTYLE
  5
39
102
{ACAD_REACTORS
330
2A
102
}
330
2A
100
AcDbVisualStyle
  2
Facepattern
 70
    15
177
     3
291
     1
 70
    58
 90
        2
176
     1
 90
        2
176
     1
 90
        0
176
     1
 90
        0
176
     1
 40
-0.6
176
     1
 40
-30.0
176
     1
 62
     7
420
 16777215
176
     1
 90
        1
176
     1
 90
        4
176
     1
 62
     7
176
     1
 62
   257
176
     1
 90
        1
176
     1
 90
        1
176
     1
 40
1.0
176
     1
 90
        8
176
     1
 62
     7
176
     1
 40
1.0
176
     1
 90
        1
176
     1
 90
        6
176
     1
 90
        2
176
     1
 62
     7
176
     1
 90
        5
176
     1
 90
        0
176
     1
 90
        0
176
     1
290
     0
176
     1
 90
        1
176
     1
 40
0.0
176
     1
 90
        0
176
     1
290
     0
176
     1
290
     1
176
     1
290
     1
176
     1
290
     0
176
     1
290
     0
176
     1
290
     0
176
     1
290
     0
176
     1
290
     0
176
     1
290
     0
176
     1
 90
       50
176
     1
 40
0.0
176
     1
 40
1.0
176
     1
 90
        0
176
     1
 62
    18
420
        0
176
     1
 90
       50
176
     1
 90
        3
176
     1
 62
     5
420
      255
176
     1
290
     0
176
     1
 90
       50
176
     1
 90
       50
176
     1
 90
       50
176
     1
290
     0
176
     1
 90
       50
176
     1
 62
   256
176
     0
 40
1.0
176
     0
 90
        2
176
     1
  1
strokes_ogs.tif
176
     1
290
     0
176
     1
 40
1.0
176
     1
 40
1.0
176
     1
  0
VISUALSTYLE
  5
2B
102
{ACAD_REACTORS
330
2A
102
}
330
2A
100
AcDbVisualStyle
  2
Flat
 70
     0
177
     3
291
     1
 70
    58
 90
        2
176
     1
 90
        1
176
     1
 90
        1
176
     1
 90
        2
176
     1
 40
-0.6
176
     1
 40
30.0
176
     1
 62
     7
420
 16777215
176
     1
 90
        0
176
     1
 90
        4
176
     1
 62
     7
176
     1
 62
   257
176
     1
 90
        1
176
     1
 90
        1
176
     1
 40
1.0
176
     1
 90
        8
176
     1
 62
     7
176
     1
 40
1.0
176
     1
 90
        1
176
     1
 90
        6
176
     1
 90
        2
176
     1
 62
     7
176
     1
 90
        5
176
     1
 90
        0
176
     1
 90
        0
176
     1
290
     0
176
     1
 90
       13
176
     1
 40
0.0
176
     1
 90
        0
176
     1
290
     0
176
     1
290
     1
176
     1
290
     1
176
     1
290
     0
176
     1
290
     0
176
     1
290
     0
176
     1
290
     0
176
     1
290
     0
176
     1
290
     0
176
     1
 90
       50
176
     1
 40
0.0
176
     1
 40
1.0
176
     1
 90
        0
176
     1
 62
    18
420
        0
176
     1
 90
       50
176
     1
 90
        3
176
     1
 62
     5
420
      255
176
     1
290
     0
176
     1
 90
       50
176
     1
 90
       50
176
     1
 90
       50
176
     1
290
     0
176
     1
 90
       50
176
     1
 62
   256
176
     0
 40
1.0
176
     0
 90
        2
176
     1
  1
strokes_ogs.tif
176
     1
290
     0
176
     1
 40
1.0
176
     1
 40
1.0
176
     1
  0
VISUALSTYLE
  5
2C
102
{ACAD_REACTORS
330
2A
102
}
330
2A
100
AcDbVisualStyle
  2
FlatWithEdges
 70
     1
177
     3
291
     1
 70
    58
 90
        2
176
     1
 90
        1
176
     1
 90
        1
176
     1
 90
        2
176
     1
 40
-0.6
176
     1
 40
30.0
176
     1
 62
     7
420
 16777215
176
     1
 90
        1
176
     1
 90
        4
176
     1
 62
     7
176
     1
 62
   257
176
     1
 90
        1
176
     1
 90
        1
176
     1
 40
1.0
176
     1
 90
        0
176
     1
 62
   257
176
     1
 40
1.0
176
     1
 90
        1
176
     1
 90
        6
176
     1
 90
        2
176
     1
 62
     7
176
     1
 90
        5
176
     1
 90
        0
176
     1
 90
        0
176
     1
290
     0
176
     1
 90
       13
176
     1
 40
0.0
176
     1
 90
        0
176
     1
290
     0
176
     1
290
     1
176
     1
290
     1
176
     1
290
     0
176
     1
290
     0
176
     1
290
     0
176
     1
290
     0
176
     1
290
     0
176
     1
290
     0
176
     1
 90
       50
176
     1
 40
0.0
176
     1
 40
1.0
176
     1
 90
        0
176
     1
 62
    18
420
        0
176
     1
 90
       50
176
     1
 90
        3
176
     1
 62
     5
420
      255
176
     1
290
     0
176
     1
 90
       50
176
     1
 90
       50
176
     1
 90
       50
176
     1
290
     0
176
     1
 90
       50
176
     1
 62
   256
176
     0
 40
1.0
176
     0
 90
        2
176
     1
  1
strokes_ogs.tif
176
     1
290
     0
176
     1
 40
1.0
176
     1
 40
1.0
176
     1
  0
VISUALSTYLE
  5
2D
102
{ACAD_REACTORS
330
2A
102
}
330
2A
100
AcDbVisualStyle
  2
Gouraud
 70
     2
177
     3
291
     1
 70
    58
 90
        2
176
     1
 90
        2
176
     1
 90
        1
176
     1
 90
        2
176
     1
 40
-0.6
176
     1
 40
30.0
176
     1
 62
     7
420
 16777215
176
     1
 90
        0
176
     1
 90
        4
176
     1
 62
     7
176
     1
 62
   257
176
     1
 90
        1
176
     1
 90
        1
176
     1
 40
1.0
176
     1
 90
        0
176
     1
 62
     7
176
     1
 40
1.0
176
     1
 90
        1
176
     1
 90
        6
176
     1
 90
        2
176
     1
 62
     7
176
     1
 90
        5
176
     1
 90
        0
176
     1
 90
        0
176
     1
290
     0
176
     1
 90
       13
176
     1
 40
0.0
176
     1
 90
        0
176
     1
290
     0
176
     1
290
     1
176
     1
290
     1
176
     1
290
     0
176
     1
290
     0
176
     1
290
     0
176
     1
290
     0
176
     1
290
     0
176
     1
290
     0
176
     1
 90
       50
176
     1
 40
0.0
176
     1
 40
1.0
176
     1
 90
        0
176
     1
 62
    18
420
        0
176
     1
 90
       50
176
     1
 90
        3
176
     1
 62
     5
420
      255
176
     1
290
     0
176
     1
 90
       50
176
     1
 90
       50
176
     1
 90
       50
176
     1
290
     0
176
     1
 90
       50
176
     1
 62
   256
176
     0
 40
1.0
176
     0
 90
        2
176
     1
  1
strokes_ogs.tif
176
     1
290
     0
176
     1
 40
1.0
176
     1
 40
1.0
176
     1
  0
VISUALSTYLE
  5
2E
102
{ACAD_REACTORS
330
2A
102
}
330
2A
100
AcDbVisualStyle
  2
GouraudWithEdges
 70
     3
177
     3
291
     1
 70
    58
 90
        2
176
     1
 90
        2
176
     1
 90
        1
176
     1
 90
        2
176
     1
 40
-0.6
176
     1
 40
30.0
176
     1
 62
     7
420
 16777215
176
     1
 90
        1
176
     1
 90
        4
176
     1
 62
     7
176
     1
 62
   257
176
     1
 90
        1
176
     1
 90
        1
176
     1
 40
1.0
176
     1
 90
        0
176
     1
 62
   257
176
     1
 40
1.0
176
     1
 90
        1
176
     1
 90
        6
176
     1
 90
        2
176
     1
 62
     7
176
     1
 90
        5
176
     1
 90
        0
176
     1
 90
        0
176
     1
290
     0
176
     1
 90
       13
176
     1
 40
0.0
176
     1
 90
        0
176
     1
290
     0
176
     1
290
     1
176
     1
290
     1
176
     1
290
     0
176
     1
290
     0
176
     1
290
     0
176
     1
290
     0
176
     1
290
     0
176
     1
290
     0
176
     1
 90
       50
176
     1
 40
0.0
176
     1
 40
1.0
176
     1
 90
        0
176
     1
 62
    18
420
        0
176
     1
 90
       50
176
     1
 90
        3
176
     1
 62
     5
420
      255
176
     1
290
     0
176
     1
 90
       50
176
     1
 90
       50
176
     1
 90
       50
176
     1
290
     0
176
     1
 90
       50
176
     1
 62
   256
176
     0
 40
1.0
176
     0
 90
        2
176
     1
  1
strokes_ogs.tif
176
     1
290
     0
176
     1
 40
1.0
176
     1
 40
1.0
176
     1
  0
VISUALSTYLE
  5
77
102
{ACAD_REACTORS
330
2A
102
}
330
2A
100
AcDbVisualStyle
  2
Hidden
 70
     6
177
     3
291
     0
 70
    58
 90
        1
176
     1
 90
        2
176
     1
 90
        2
176
     1
 90
        0
176
     1
 40
0.6
176
     1
 40
30.0
176
     1
 62
     7
420
 16777215
176
     1
 90
        2
176
     1
 90
        2
176
     1
 62
     7
176
     1
 62
   257
176
     1
 90
        2
176
     1
 90
        1
176
     1
 40
40.0
176
     1
 90
        0
176
     1
 62
   257
176
     1
 40
1.0
176
     1
 90
        1
176
     1
 90
        6
176
     1
 90
        2
176
     1
 62
     7
176
     1
 90
        3
176
     1
 90
        0
176
     1
 90
        0
176
     1
290
     0
176
     1
 90
        1
176
     1
 40
0.0
176
     1
 90
        0
176
     1
290
     0
176
     1
290
     1
176
     1
290
     1
176
     1
290
     0
176
     1
290
     0
176
     1
290
     0
176
     1
290
     0
176
     1
290
     0
176
     1
290
     0
176
     1
 90
       50
176
     1
 40
0.0
176
     1
 40
1.0
176
     1
 90
        0
176
     1
 62
    18
420
        0
176
     1
 90
       50
176
     1
 90
        3
176
     1
 62
     5
420
      255
176
     1
290
     0
176
     1
 90
       50
176
     1
 90
       50
176
     1
 90
       50
176
     1
290
     0
176
     1
 90
       50
176
     1
 62
   256
176
     0
 40
1.0
176
     0
 90
        2
176
     1
  1
strokes_ogs.tif
176
     1
290
     0
176
     1
 40
1.0
176
     1
 40
1.0
176
     1
  0
VISUALSTYLE
  5
78
102
{ACAD_REACTORS
330
2A
102
}
330
2A
100
AcDbVisualStyle
  2
JitterOff
 70
    20
177
     3
291
     1
 70
    58
 90
        2
176
     0
 90
        2
176
     0
 90
        0
176
     0
 90
        0
176
     0
 40
0.6
176
     0
 40
30.0
176
     0
 62
     7
420
 16777215
176
     0
 90
        1
176
     0
 90
        4
176
     0
 62
     7
176
     0
 62
   257
176
     0
 90
        1
176
     0
 90
        1
176
     0
 40
1.0
176
     0
 90
       10
176
     2
 62
     7
176
     0
 40
1.0
176
     0
 90
        1
176
     0
 90
        6
176
     0
 90
        2
176
     0
 62
     7
176
     0
 90
        5
176
     0
 90
        0
176
     0
 90
        0
176
     0
290
     0
176
     0
 90
        1
176
     0
 40
0.0
176
     0
 90
        0
176
     0
290
     0
176
     0
290
     1
176
     0
290
     1
176
     0
290
     0
176
     0
290
     0
176
     0
290
     0
176
     0
290
     0
176
     0
290
     0
176
     0
290
     0
176
     0
 90
       50
176
     0
 40
0.0
176
     0
 40
1.0
176
     0
 90
        0
176
     0
 62
    18
420
        0
176
     0
 90
       50
176
     0
 90
        3
176
     0
 62
     5
420
      255
176
     0
290
     0
176
     0
 90
       50
176
     0
 90
       50
176
     0
 90
       50
176
     0
290
     0
176
     0
 90
       50
176
     0
 62
   256
176
     0
 40
1.0
176
     0
 90
        2
176
     0
  1
strokes_ogs.tif
176
     0
290
     0
176
     0
 40
1.0
176
     0
 40
1.0
176
     0
  0
VISUALSTYLE
  5
38
102
{ACAD_REACTORS
330
2A
102
}
330
2A
100
AcDbVisualStyle
  2
Linepattern
 70
    14
177
     3
291
     1
 70
    58
 90
        2
176
     1
 90
        2
176
     1
 90
        0
176
     1
 90
        0
176
     1
 40
-0.6
176
     1
 40
-30.0
176
     1
 62
     7
420
 16777215
176
     1
 90
        1
176
     1
 90
        4
176
     1
 62
     7
176
     1
 62
   257
176
     1
 90
        7
176
     1
 90
        7
176
     1
 40
1.0
176
     1
 90
        8
176
     1
 62
     7
176
     1
 40
1.0
176
     1
 90
        1
176
     1
 90
        6
176
     1
 90
        2
176
     1
 62
     7
176
     1
 90
        5
176
     1
 90
        0
176
     1
 90
        0
176
     1
290
     0
176
     1
 90
        1
176
     1
 40
0.0
176
     1
 90
        0
176
     1
290
     0
176
     1
290
     1
176
     1
290
     1
176
     1
290
     0
176
     1
290
     0
176
     1
290
     0
176
     1
290
     0
176
     1
290
     0
176
     1
290
     0
176
     1
 90
       50
176
     1
 40
0.0
176
     1
 40
1.0
176
     1
 90
        0
176
     1
 62
    18
420
        0
176
     1
 90
       50
176
     1
 90
        3
176
     1
 62
     5
420
      255
176
     1
290
     0
176
     1
 90
       50
176
     1
 90
       50
176
     1
 90
       50
176
     1
290
     0
176
     1
 90
       50
176
     1
 62
   256
176
     0
 40
1.0
176
     0
 90
        2
176
     1
  1
strokes_ogs.tif
176
     1
290
     0
176
     1
 40
1.0
176
     1
 40
1.0
176
     1
  0
VISUALSTYLE
  5
79
102
{ACAD_REACTORS
330
2A
102
}
330
2A
100
AcDbVisualStyle
  2
OverhangOff
 70
    21
177
     3
291
     1
 70
    58
 90
        2
176
     0
 90
        2
176
     0
 90
        0
176
     0
 90
        0
176
     0
 40
0.6
176
     0
 40
30.0
176
     0
 62
     7
420
 16777215
176
     0
 90
        1
176
     0
 90
        4
176
     0
 62
     7
176
     0
 62
   257
176
     0
 90
        1
176
     0
 90
        1
176
     0
 40
1.0
176
     0
 90
        9
176
     2
 62
     7
176
     0
 40
1.0
176
     0
 90
        1
176
     0
 90
        6
176
     0
 90
        2
176
     0
 62
     7
176
     0
 90
        5
176
     0
 90
        0
176
     0
 90
        0
176
     0
290
     0
176
     0
 90
        1
176
     0
 40
0.0
176
     0
 90
        0
176
     0
290
     0
176
     0
290
     1
176
     0
290
     1
176
     0
290
     0
176
     0
290
     0
176
     0
290
     0
176
     0
290
     0
176
     0
290
     0
176
     0
290
     0
176
     0
 90
       50
176
     0
 40
0.0
176
     0
 40
1.0
176
     0
 90
        0
176
     0
 62
    18
420
        0
176
     0
 90
       50
176
     0
 90
        3
176
     0
 62
     5
420
      255
176
     0
290
     0
176
     0
 90
       50
176
     0
 90
       50
176
     0
 90
       50
176
     0
290
     0
176
     0
 90
       50
176
     0
 62
   256
176
     0
 40
1.0
176
     0
 90
        2
176
     0
  1
strokes_ogs.tif
176
     0
290
     0
176
     0
 40
1.0
176
     0
 40
1.0
176
     0
  0
VISUALSTYLE
  5
33
102
{ACAD_REACTORS
330
2A
102
}
330
2A
100
AcDbVisualStyle
  2
Realistic
 70
     8
177
     3
291
     0
 70
    58
 90
        2
176
     1
 90
        2
176
     1
 90
        0
176
     1
 90
        0
176
     1
 40
-0.6
176
     1
 40
-30.0
176
     1
 62
     7
420
 16777215
176
     1
 90
        1
176
     1
 90
        0
176
     1
 62
     7
176
     1
 62
   257
176
     1
 90
        1
176
     1
 90
        1
176
     1
 40
1.0
176
     1
 90
        8
176
     1
 62
     8
420
  7895160
176
     1
 40
1.0
176
     1
 90
        1
176
     1
 90
        6
176
     1
 90
        2
176
     1
 62
     7
176
     1
 90
        5
176
     1
 90
        0
176
     1
 90
        0
176
     1
290
     0
176
     1
 90
       13
176
     1
 40
0.0
176
     1
 90
        0
176
     1
290
     0
176
     1
290
     1
176
     1
290
     1
176
     1
290
     0
176
     1
290
     0
176
     1
290
     0
176
     1
290
     0
176
     1
290
     0
176
     1
290
     0
176
     1
 90
       50
176
     1
 40
0.0
176
     1
 40
1.0
176
     1
 90
        0
176
     1
 62
    18
420
        0
176
     1
 90
       50
176
     1
 90
        3
176
     1
 62
     5
420
      255
176
     1
290
     0
176
     1
 90
       50
176
     1
 90
       50
176
     1
 90
       50
176
     1
290
     0
176
     1
 90
       50
176
     1
 62
   256
176
     0
 40
1.0
176
     0
 90
        2
176
     1
  1
strokes_ogs.tif
176
     1
290
     0
176
     1
 40
1.0
176
     1
 40
1.0
176
     1
  0
VISUALSTYLE
  5
7F
102
{ACAD_REACTORS
330
2A
102
}
330
2A
100
AcDbVisualStyle
  2
Shaded
 70
    27
177
     3
291
     0
 70
    58
 90
        2
176
     1
 90
        2
176
     1
 90
        1
176
     1
 90
        2
176
     1
 40
0.6
176
     1
 40
30.0
176
     1
 62
     7
420
 16777215
176
     1
 90
        0
176
     1
 90
        4
176
     1
 62
     7
176
     1
 62
   257
176
     1
 90
        1
176
     1
 90
        1
176
     1
 40
1.0
176
     1
 90
        8
176
     1
 62
   257
176
     1
 40
1.0
176
     1
 90
        1
176
     1
 90
        6
176
     1
 90
        2
176
     1
 62
     8
420
  7895160
176
     1
 90
        3
176
     1
 90
        0
176
     1
 90
        0
176
     1
290
     0
176
     1
 90
        5
176
     1
 40
0.0
176
     1
 90
        0
176
     1
290
     0
176
     1
290
     1
176
     1
290
     1
176
     1
290
     0
176
     1
290
     0
176
     1
290
     0
176
     1
290
     0
176
     1
290
     0
176
     1
290
     0
176
     1
 90
       50
176
     1
 40
0.0
176
     1
 40
1.0
176
     1
 90
        0
176
     1
 62
    18
420
        0
176
     1
 90
       50
176
     1
 90
        3
176
     1
 62
     5
420
      255
176
     1
290
     0
176
     1
 90
       50
176
     1
 90
       50
176
     1
 90
       50
176
     1
290
     0
176
     1
 90
       50
176
     1
 62
   256
176
     0
 40
1.0
176
     0
 90
        2
176
     1
  1
strokes_ogs.tif
176
     1
290
     0
176
     1
 40
1.0
176
     1
 40
1.0
176
     1
  0
VISUALSTYLE
  5
7E
102
{ACAD_REACTORS
330
2A
102
}
330
2A
100
AcDbVisualStyle
  2
Shaded with edges
 70
    26
177
     3
291
     0
 70
    58
 90
        2
176
     1
 90
        2
176
     1
 90
        1
176
     1
 90
        2
176
     1
 40
0.6
176
     1
 40
30.0
176
     1
 62
     7
420
 16777215
176
     1
 90
        1
176
     1
 90
       10
176
     1
 62
     7
176
     1
 62
   257
176
     1
 90
        2
176
     1
 90
        1
176
     1
 40
1.0
176
     1
 90
        8
176
     1
 62
   257
176
     1
 40
1.0
176
     1
 90
        1
176
     1
 90
        6
176
     1
 90
        2
176
     1
 62
     7
176
     1
 90
        3
176
     1
 90
        0
176
     1
 90
        0
176
     1
290
     0
176
     1
 90
        5
176
     1
 40
0.0
176
     1
 90
        0
176
     1
290
     0
176
     1
290
     1
176
     1
290
     1
176
     1
290
     0
176
     1
290
     0
176
     1
290
     0
176
     1
290
     0
176
     1
290
     0
176
     1
290
     0
176
     1
 90
       50
176
     1
 40
0.0
176
     1
 40
1.0
176
     1
 90
        0
176
     1
 62
    18
420
        0
176
     1
 90
       50
176
     1
 90
        3
176
     1
 62
     5
420
      255
176
     1
290
     0
176
     1
 90
       50
176
     1
 90
       50
176
     1
 90
       50
176
     1
290
     0
176
     1
 90
       50
176
     1
 62
   256
176
     0
 40
1.0
176
     0
 90
        2
176
     1
  1
strokes_ogs.tif
176
     1
290
     0
176
     1
 40
1.0
176
     1
 40
1.0
176
     1
  0
VISUALSTYLE
  5
7B
102
{ACAD_REACTORS
330
2A
102
}
330
2A
100
AcDbVisualStyle
  2
Shades of Gray
 70
    23
177
     3
291
     0
 70
    58
 90
        2
176
     1
 90
        2
176
     1
 90
        3
176
     1
 90
        0
176
     1
 40
0.6
176
     1
 40
30.0
176
     1
 62
     7
420
 16777215
176
     1
 90
        2
176
     1
 90
        2
176
     1
 62
     7
176
     1
 62
     7
176
     1
 90
        1
176
     1
 90
        1
176
     1
 40
40.0
176
     1
 90
        8
176
     1
 62
     7
176
     1
 40
1.0
176
     1
 90
        1
176
     1
 90
        6
176
     1
 90
        2
176
     1
 62
     7
176
     1
 90
        3
176
     1
 90
        0
176
     1
 90
        0
176
     1
290
     0
176
     1
 90
        1
176
     1
 40
0.0
176
     1
 90
        0
176
     1
290
     0
176
     1
290
     1
176
     1
290
     1
176
     1
290
     0
176
     1
290
     0
176
     1
290
     0
176
     1
290
     0
176
     1
290
     0
176
     1
290
     0
176
     1
 90
       50
176
     1
 40
0.0
176
     1
 40
1.0
176
     1
 90
        0
176
     1
 62
    18
420
        0
176
     1
 90
       50
176
     1
 90
        3
176
     1
 62
     5
420
      255
176
     1
290
     0
176
     1
 90
       50
176
     1
 90
       50
176
     1
 90
       50
176
     1
290
     0
176
     1
 90
       50
176
     1
 62
   256
176
     0
 40
1.0
176
     0
 90
        2
176
     1
  1
strokes_ogs.tif
176
     1
290
     0
176
     1
 40
1.0
176
     1
 40
1.0
176
     1
  0
VISUALSTYLE
  5
7C
102
{ACAD_REACTORS
330
2A
102
}
330
2A
100
AcDbVisualStyle
  2
Sketchy
 70
    24
177
     3
291
     0
 70
    58
 90
        1
176
     1
 90
        2
176
     1
 90
        2
176
     1
 90
        0
176
     1
 40
0.6
176
     1
 40
30.0
176
     1
 62
     7
420
 16777215
176
     1
 90
        2
176
     1
 90
        2
176
     1
 62
     7
176
     1
 62
     7
176
     1
 90
        1
176
     1
 90
        1
176
     1
 40
40.0
176
     1
 90
       11
176
     1
 62
     7
176
     1
 40
1.0
176
     1
 90
        1
176
     1
 90
        6
176
     1
 90
        2
176
     1
 62
     7
176
     1
 90
        6
176
     1
 90
        0
176
     1
 90
        0
176
     1
290
     0
176
     1
 90
        1
176
     1
 40
0.0
176
     1
 90
        0
176
     1
290
     0
176
     1
290
     1
176
     1
290
     1
176
     1
290
     0
176
     1
290
     0
176
     1
290
     0
176
     1
290
     0
176
     1
290
     0
176
     1
290
     0
176
     1
 90
       50
176
     1
 40
0.0
176
     1
 40
1.0
176
     1
 90
        0
176
     1
 62
    18
420
        0
176
     1
 90
       50
176
     1
 90
        3
176
     1
 62
     5
420
      255
176
     1
290
     0
176
     1
 90
       50
176
     1
 90
       50
176
     1
 90
       50
176
     1
290
     0
176
     1
 90
       50
176
     1
 62
   256
176
     0
 40
1.0
176
     0
 90
        2
176
     1
  1
strokes_ogs.tif
176
     1
290
     0
176
     1
 40
1.0
176
     1
 40
1.0
176
     1
  0
VISUALSTYLE
  5
37
102
{ACAD_REACTORS
330
2A
102
}
330
2A
100
AcDbVisualStyle
  2
Thicken
 70
    13
177
     3
291
     1
 70
    58
 90
        2
176
     1
 90
        2
176
     1
 90
        0
176
     1
 90
        0
176
     1
 40
-0.6
176
     1
 40
-30.0
176
     1
 62
     7
420
 16777215
176
     1
 90
        1
176
     1
 90
        4
176
     1
 62
     7
176
     1
 62
   257
176
     1
 90
        1
176
     1
 90
        1
176
     1
 40
1.0
176
     1
 90
       12
176
     1
 62
     7
176
     1
 40
1.0
176
     1
 90
        1
176
     1
 90
        6
176
     1
 90
        2
176
     1
 62
     7
176
     1
 90
        5
176
     1
 90
        0
176
     1
 90
        0
176
     1
290
     0
176
     1
 90
        1
176
     1
 40
0.0
176
     1
 90
        0
176
     1
290
     0
176
     1
290
     1
176
     1
290
     1
176
     1
290
     0
176
     1
290
     0
176
     1
290
     0
176
     1
290
     0
176
     1
290
     0
176
     1
290
     0
176
     1
 90
       50
176
     1
 40
0.0
176
     1
 40
1.0
176
     1
 90
        0
176
     1
 62
    18
420
        0
176
     1
 90
       50
176
     1
 90
        3
176
     1
 62
     5
420
      255
176
     1
290
     0
176
     1
 90
       50
176
     1
 90
       50
176
     1
 90
       50
176
     1
290
     0
176
     1
 90
       50
176
     1
 62
   256
176
     0
 40
1.0
176
     0
 90
        2
176
     1
  1
strokes_ogs.tif
176
     1
290
     0
176
     1
 40
1.0
176
     1
 40
1.0
176
     1
  0
VISUALSTYLE
  5
76
102
{ACAD_REACTORS
330
2A
102
}
330
2A
100
AcDbVisualStyle
  2
Wireframe
 70
     5
177
     3
291
     0
 70
    58
 90
        0
176
     1
 90
        2
176
     1
 90
        0
176
     1
 90
        0
176
     1
 40
0.6
176
     1
 40
30.0
176
     1
 62
     7
420
 16777215
176
     1
 90
        1
176
     1
 90
        4
176
     1
 62
     7
176
     1
 62
   257
176
     1
 90
        1
176
     1
 90
        1
176
     1
 40
1.0
176
     1
 90
        0
176
     1
 62
   257
176
     1
 40
1.0
176
     1
 90
        1
176
     1
 90
        6
176
     1
 90
        2
176
     1
 62
     7
176
     1
 90
        3
176
     1
 90
        0
176
     1
 90
        0
176
     1
290
     0
176
     1
 90
        1
176
     1
 40
0.0
176
     1
 90
        0
176
     1
290
     0
176
     1
290
     1
176
     1
290
     1
176
     1
290
     0
176
     1
290
     0
176
     1
290
     0
176
     1
290
     0
176
     1
290
     0
176
     1
290
     0
176
     1
 90
       50
176
     1
 40
0.0
176
     1
 40
1.0
176
     1
 90
        0
176
     1
 62
    18
420
        0
176
     1
 90
       50
176
     1
 90
        3
176
     1
 62
     5
420
      255
176
     1
290
     0
176
     1
 90
       50
176
     1
 90
       50
176
     1
 90
       50
176
     1
290
     0
176
     1
 90
       50
176
     1
 62
   256
176
     0
 40
1.0
176
     0
 90
        2
176
     1
  1
strokes_ogs.tif
176
     1
290
     0
176
     1
 40
1.0
176
     1
 40
1.0
176
     1
  0
VISUALSTYLE
  5
7D
102
{ACAD_REACTORS
330
2A
102
}
330
2A
100
AcDbVisualStyle
  2
X-Ray
 70
    25
177
     3
291
     0
 70
    58
 90
        2
176
     1
 90
        2
176
     1
 90
        1
176
     1
 90
        1
176
     1
 40
0.5
176
     1
 40
30.0
176
     1
 62
     7
420
 16777215
176
     1
 90
        1
176
     1
 90
        0
176
     1
 62
     7
176
     1
 62
   257
176
     1
 90
        1
176
     1
 90
        1
176
     1
 40
1.0
176
     1
 90
        8
176
     1
 62
     7
176
     1
 40
1.0
176
     1
 90
        1
176
     1
 90
        6
176
     1
 90
        2
176
     1
 62
     7
176
     1
 90
        3
176
     1
 90
        0
176
     1
 90
        0
176
     1
290
     0
176
     1
 90
       13
176
     1
 40
0.0
176
     1
 90
        0
176
     1
290
     0
176
     1
290
     1
176
     1
290
     1
176
     1
290
     0
176
     1
290
     0
176
     1
290
     0
176
     1
290
     0
176
     1
290
     0
176
     1
290
     0
176
     1
 90
       50
176
     1
 40
0.0
176
     1
 40
1.0
176
     1
 90
        0
176
     1
 62
    18
420
        0
176
     1
 90
       50
176
     1
 90
        3
176
     1
 62
     5
420
      255
176
     1
290
     0
176
     1
 90
       50
176
     1
 90
       50
176
     1
 90
       50
176
     1
290
     0
176
     1
 90
       50
176
     1
 62
   256
176
     0
 40
1.0
176
     0
 90
        2
176
     1
  1
strokes_ogs.tif
176
     1
290
     0
176
     1
 40
1.0
176
     1
 40
1.0
176
     1
  0
DICTIONARYVAR
  5
62
102
{ACAD_REACTORS
330
3D
102
}
330
3D
100
DictionaryVariables
280
     0
  1
1:1
  0
DICTIONARYVAR
  5
BB
102
{ACAD_REACTORS
330
3D
102
}
330
3D
100
DictionaryVariables
280
     0
  1
Standard
  0
DICTIONARYVAR
  5
3E
102
{ACAD_REACTORS
330
3D
102
}
330
3D
100
DictionaryVariables
280
     0
  1
Standard
  0
DICTIONARYVAR
  5
6F
102
{ACAD_REACTORS
330
3D
102
}
330
3D
100
DictionaryVariables
280
     0
  1
0
  0
DICTIONARYVAR
  5
70
102
{ACAD_REACTORS
330
3D
102
}
330
3D
100
DictionaryVariables
280
     0
  1
0
  0
DICTIONARY
  5
A3E
330
3C
100
AcDbDictionary
280
     1
281
     1
  3
ACAD_ROUNDTRIP_2008_TABLESTYLE_CELLSTYLEMAP
360
A3F
  0
CELLSTYLEMAP
  5
A3F
102
{ACAD_REACTORS
330
A3E
102
}
330
A3E
100
AcDbCellStyleMap
 90
        3
300
CELLSTYLE
  1
TABLEFORMAT_BEGIN
 90
        5
170
     1
 91
        0
 92
    32768
 62
   257
 93
        1
300
CONTENTFORMAT
  1
CONTENTFORMAT_BEGIN
 90
        0
 91
        0
 92
      512
 93
        0
300

 40
0.0
140
1.0
 94
        5
 62
     0
340
11
144
6.0
309
CONTENTFORMAT_END
171
     1
301
MARGIN
  1
CELLMARGIN_BEGIN
 40
1.5
 40
1.5
 40
1.5
 40
1.5
 40
0.18
 40
0.18
309
CELLMARGIN_END
 94
        6
 95
        1
302
GRIDFORMAT
  1
GRIDFORMAT_BEGIN
 90
        0
 91
        1
 62
     0
 92
       -2
340
0
 93
        0
 40
0.045
309
GRIDFORMAT_END
 95
        2
302
GRIDFORMAT
  1
GRIDFORMAT_BEGIN
 90
        0
 91
        1
 62
     0
 92
       -2
340
0
 93
        0
 40
0.045
309
GRIDFORMAT_END
 95
        4
302
GRIDFORMAT
  1
GRIDFORMAT_BEGIN
 90
        0
 91
        1
 62
     0
 92
       -2
340
0
 93
        0
 40
0.045
309
GRIDFORMAT_END
 95
        8
302
GRIDFORMAT
  1
GRIDFORMAT_BEGIN
 90
        0
 91
        1
 62
     0
 92
       -2
340
0
 93
        0
 40
0.045
309
GRIDFORMAT_END
 95
       16
302
GRIDFORMAT
  1
GRIDFORMAT_BEGIN
 90
        0
 91
        1
 62
     0
 92
       -2
340
0
 93
        0
 40
0.045
309
GRIDFORMAT_END
 95
       32
302
GRIDFORMAT
  1
GRIDFORMAT_BEGIN
 90
        0
 91
        1
 62
     0
 92
       -2
340
0
 93
        0
 40
0.045
309
GRIDFORMAT_END
309
TABLEFORMAT_END
  1
CELLSTYLE_BEGIN
 90
        1
 91
        1
300
_TITLE
309
CELLSTYLE_END
300
CELLSTYLE
  1
TABLEFORMAT_BEGIN
 90
        5
170
     1
 91
        0
 92
        0
 62
   257
 93
        1
300
CONTENTFORMAT
  1
CONTENTFORMAT_BEGIN
 90
        0
 91
        0
 92
      512
 93
        0
300

 40
0.0
140
1.0
 94
        5
 62
     0
340
11
144
4.5
309
CONTENTFORMAT_END
171
     1
301
MARGIN
  1
CELLMARGIN_BEGIN
 40
1.5
 40
1.5
 40
1.5
 40
1.5
 40
0.18
 40
0.18
309
CELLMARGIN_END
 94
        6
 95
        1
302
GRIDFORMAT
  1
GRIDFORMAT_BEGIN
 90
        0
 91
        1
 62
     0
 92
       -2
340
0
 93
        0
 40
0.045
309
GRIDFORMAT_END
 95
        2
302
GRIDFORMAT
  1
GRIDFORMAT_BEGIN
 90
        0
 91
        1
 62
     0
 92
       -2
340
0
 93
        0
 40
0.045
309
GRIDFORMAT_END
 95
        4
302
GRIDFORMAT
  1
GRIDFORMAT_BEGIN
 90
        0
 91
        1
 62
     0
 92
       -2
340
0
 93
        0
 40
0.045
309
GRIDFORMAT_END
 95
        8
302
GRIDFORMAT
  1
GRIDFORMAT_BEGIN
 90
        0
 91
        1
 62
     0
 92
       -2
340
0
 93
        0
 40
0.045
309
GRIDFORMAT_END
 95
       16
302
GRIDFORMAT
  1
GRIDFORMAT_BEGIN
 90
        0
 91
        1
 62
     0
 92
       -2
340
0
 93
        0
 40
0.045
309
GRIDFORMAT_END
 95
       32
302
GRIDFORMAT
  1
GRIDFORMAT_BEGIN
 90
        0
 91
        1
 62
     0
 92
       -2
340
0
 93
        0
 40
0.045
309
GRIDFORMAT_END
309
TABLEFORMAT_END
  1
CELLSTYLE_BEGIN
 90
        2
 91
        1
300
_HEADER
309
CELLSTYLE_END
300
CELLSTYLE
  1
TABLEFORMAT_BEGIN
 90
        5
170
     1
 91
        0
 92
        0
 62
   257
 93
        1
300
CONTENTFORMAT
  1
CONTENTFORMAT_BEGIN
 90
        0
 91
        0
 92
      512
 93
        0
300

 40
0.0
140
1.0
 94
        2
 62
     0
340
11
144
4.5
309
CONTENTFORMAT_END
171
     1
301
MARGIN
  1
CELLMARGIN_BEGIN
 40
1.5
 40
1.5
 40
1.5
 40
1.5
 40
0.18
 40
0.18
309
CELLMARGIN_END
 94
        6
 95
        1
302
GRIDFORMAT
  1
GRIDFORMAT_BEGIN
 90
        0
 91
        1
 62
     0
 92
       -2
340
0
 93
        0
 40
0.045
309
GRIDFORMAT_END
 95
        2
302
GRIDFORMAT
  1
GRIDFORMAT_BEGIN
 90
        0
 91
        1
 62
     0
 92
       -2
340
0
 93
        0
 40
0.045
309
GRIDFORMAT_END
 95
        4
302
GRIDFORMAT
  1
GRIDFORMAT_BEGIN
 90
        0
 91
        1
 62
     0
 92
       -2
340
0
 93
        0
 40
0.045
309
GRIDFORMAT_END
 95
        8
302
GRIDFORMAT
  1
GRIDFORMAT_BEGIN
 90
        0
 91
        1
 62
     0
 92
       -2
340
0
 93
        0
 40
0.045
309
GRIDFORMAT_END
 95
       16
302
GRIDFORMAT
  1
GRIDFORMAT_BEGIN
 90
        0
 91
        1
 62
     0
 92
       -2
340
0
 93
        0
 40
0.045
309
GRIDFORMAT_END
 95
       32
302
GRIDFORMAT
  1
GRIDFORMAT_BEGIN
 90
        0
 91
        1
 62
     0
 92
       -2
340
0
 93
        0
 40
0.045
309
GRIDFORMAT_END
309
TABLEFORMAT_END
  1
CELLSTYLE_BEGIN
 90
        3
 91
        2
300
_DATA
309
CELLSTYLE_END
  0
ENDSEC
  0
EOF
