  0
SECTION
  2
HEADER
  9
$ACADVER
  1
AC1032
  9
$ACADMAINTVER
 90
       55
  9
$DWGCODEPAGE
  3
ANSI_1252
  9
$LASTSAVEDBY
  1
eac573
  9
$REQUIREDVERSIONS
160
                 0
  9
$INSBASE
 10
0.0
 20
0.0
 30
0.0
  9
$EXTMIN
 10
127.3932328158984
 20
143.7351812111404
 30
0.0
  9
$EXTMAX
 10
145.9372032355162
 20
153.3504452910386
 30
0.0
  9
$LIMMIN
 10
0.0
 20
0.0
  9
$LIMMAX
 10
420.0
 20
297.0
  9
$ORTHOMODE
 70
     0
  9
$REGENMODE
 70
     1
  9
$FILLMODE
 70
     1
  9
$QTEXTMODE
 70
     0
  9
$MIRRTEXT
 70
     0
  9
$LTSCALE
 40
1.0
  9
$ATTMODE
 70
     1
  9
$TEXTSIZE
 40
2.5
  9
$TRACEWID
 40
1.0
  9
$TEXTSTYLE
  7
Standard
  9
$CLAYER
  8
DETAIL
  9
$CELTYPE
  6
ByLayer
  9
$CECOLOR
 62
     1
  9
$CELTSCALE
 40
1.0
  9
$DISPSILH
 70
     0
  9
$DIMSCALE
 40
1.0
  9
$DIMASZ
 40
2.5
  9
$DIMEXO
 40
0.625
  9
$DIMDLI
 40
3.75
  9
$DIMRND
 40
0.0
  9
$DIMDLE
 40
0.0
  9
$DIMEXE
 40
1.25
  9
$DIMTP
 40
0.0
  9
$DIMTM
 40
0.0
  9
$DIMTXT
 40
2.5
  9
$DIMCEN
 40
-2.5
  9
$DIMTSZ
 40
0.0
  9
$DIMTOL
 70
     0
  9
$DIMLIM
 70
     0
  9
$DIMTIH
 70
     0
  9
$DIMTOH
 70
     0
  9
$DIMSE1
 70
     0
  9
$DIMSE2
 70
     0
  9
$DIMTAD
 70
     1
  9
$DIMZIN
 70
     8
  9
$DIMBLK
  1

  9
$DIMASO
 70
     1
  9
$DIMSHO
 70
     1
  9
$DIMPOST
  1

  9
$DIMAPOST
  1

  9
$DIMALT
 70
     0
  9
$DIMALTD
 70
     3
  9
$DIMALTF
 40
0.03937007874016
  9
$DIMLFAC
 40
1.0
  9
$DIMTOFL
 70
     1
  9
$DIMTVP
 40
0.0
  9
$DIMTIX
 70
     0
  9
$DIMSOXD
 70
     0
  9
$DIMSAH
 70
     0
  9
$DIMBLK1
  1

  9
$DIMBLK2
  1

  9
$DIMSTYLE
  2
ISO-25
  9
$DIMCLRD
 70
     0
  9
$DIMCLRE
 70
     0
  9
$DIMCLRT
 70
     0
  9
$DIMTFAC
 40
1.0
  9
$DIMGAP
 40
0.625
  9
$DIMJUST
 70
     0
  9
$DIMSD1
 70
     0
  9
$DIMSD2
 70
     0
  9
$DIMTOLJ
 70
     0
  9
$DIMTZIN
 70
     8
  9
$DIMALTZ
 70
     0
  9
$DIMALTTZ
 70
     0
  9
$DIMUPT
 70
     0
  9
$DIMDEC
 70
     2
  9
$DIMTDEC
 70
     2
  9
$DIMALTU
 70
     2
  9
$DIMALTTD
 70
     3
  9
$DIMTXSTY
  7
Standard
  9
$DIMAUNIT
 70
     0
  9
$DIMADEC
 70
     0
  9
$DIMALTRND
 40
0.0
  9
$DIMAZIN
 70
     0
  9
$DIMDSEP
 70
    44
  9
$DIMATFIT
 70
     3
  9
$DIMFRAC
 70
     0
  9
$DIMLDRBLK
  1

  9
$DIMLUNIT
 70
     2
  9
$DIMLWD
 70
    -2
  9
$DIMLWE
 70
    -2
  9
$DIMTMOVE
 70
     0
  9
$DIMFXL
 40
1.0
  9
$DIMFXLON
 70
     0
  9
$DIMJOGANG
 40
0.7853981633974483
  9
$DIMTFILL
 70
     0
  9
$DIMTFILLCLR
 70
     0
  9
$DIMARCSYM
 70
     0
  9
$DIMLTYPE
  6

  9
$DIMLTEX1
  6

  9
$DIMLTEX2
  6

  9
$DIMTXTDIRECTION
 70
     0
  9
$LUNITS
 70
     2
  9
$LUPREC
 70
     3
  9
$SKETCHINC
 40
1.0
  9
$FILLETRAD
 40
10.0
  9
$AUNITS
 70
     0
  9
$AUPREC
 70
     0
  9
$MENU
  1
.
  9
$ELEVATION
 40
0.0
  9
$PELEVATION
 40
0.0
  9
$THICKNESS
 40
0.0
  9
$LIMCHECK
 70
     0
  9
$CHAMFERA
 40
10.0
  9
$CHAMFERB
 40
10.0
  9
$CHAMFERC
 40
20.0
  9
$CHAMFERD
 40
0.0
  9
$SKPOLY
 70
     0
  9
$TDCREATE
 40
2455022.637359514
  9
$TDUCREATE
 40
2455022.637359514
  9
$TDUPDATE
 40
2459661.624890822
  9
$TDUUPDATE
 40
2459661.624890822
  9
$TDINDWG
 40
0.0304953472
  9
$TDUSRTIMER
 40
2458957.432135255
  9
$USRTIMER
 70
     1
  9
$ANGBASE
 50
351.0
  9
$ANGDIR
 70
     0
  9
$PDMODE
 70
     0
  9
$PDSIZE
 40
0.0
  9
$PLINEWID
 40
0.0
  9
$SPLFRAME
 70
     0
  9
$SPLINETYPE
 70
     6
  9
$SPLINESEGS
 70
     8
  9
$HANDSEED
  5
B09
  9
$SURFTAB1
 70
     6
  9
$SURFTAB2
 70
     6
  9
$SURFTYPE
 70
     6
  9
$SURFU
 70
     6
  9
$SURFV
 70
     6
  9
$UCSBASE
  2

  9
$UCSNAME
  2

  9
$UCSORG
 10
0.0
 20
0.0
 30
0.0
  9
$UCSXDIR
 10
1.0
 20
0.0
 30
0.0
  9
$UCSYDIR
 10
0.0
 20
1.0
 30
0.0
  9
$UCSORTHOREF
  2

  9
$UCSORTHOVIEW
 70
     0
  9
$UCSORGTOP
 10
0.0
 20
0.0
 30
0.0
  9
$UCSORGBOTTOM
 10
0.0
 20
0.0
 30
0.0
  9
$UCSORGLEFT
 10
0.0
 20
0.0
 30
0.0
  9
$UCSORGRIGHT
 10
0.0
 20
0.0
 30
0.0
  9
$UCSORGFRONT
 10
0.0
 20
0.0
 30
0.0
  9
$UCSORGBACK
 10
0.0
 20
0.0
 30
0.0
  9
$PUCSBASE
  2

  9
$PUCSNAME
  2

  9
$PUCSORG
 10
0.0
 20
0.0
 30
0.0
  9
$PUCSXDIR
 10
1.0
 20
0.0
 30
0.0
  9
$PUCSYDIR
 10
0.0
 20
1.0
 30
0.0
  9
$PUCSORTHOREF
  2

  9
$PUCSORTHOVIEW
 70
     0
  9
$PUCSORGTOP
 10
0.0
 20
0.0
 30
0.0
  9
$PUCSORGBOTTOM
 10
0.0
 20
0.0
 30
0.0
  9
$PUCSORGLEFT
 10
0.0
 20
0.0
 30
0.0
  9
$PUCSORGRIGHT
 10
0.0
 20
0.0
 30
0.0
  9
$PUCSORGFRONT
 10
0.0
 20
0.0
 30
0.0
  9
$PUCSORGBACK
 10
0.0
 20
0.0
 30
0.0
  9
$USERI1
 70
     0
  9
$USERI2
 70
     0
  9
$USERI3
 70
     0
  9
$USERI4
 70
     0
  9
$USERI5
 70
     0
  9
$USERR1
 40
0.0
  9
$USERR2
 40
0.0
  9
$USERR3
 40
0.0
  9
$USERR4
 40
0.0
  9
$USERR5
 40
0.0
  9
$WORLDVIEW
 70
     1
  9
$SHADEDGE
 70
     3
  9
$SHADEDIF
 70
    70
  9
$TILEMODE
 70
     1
  9
$MAXACTVP
 70
    64
  9
$PINSBASE
 10
0.0
 20
0.0
 30
0.0
  9
$PLIMCHECK
 70
     0
  9
$PEXTMIN
 10
1.000000000000000E+20
 20
1.000000000000000E+20
 30
1.000000000000000E+20
  9
$PEXTMAX
 10
-1.000000000000000E+20
 20
-1.000000000000000E+20
 30
-1.000000000000000E+20
  9
$PLIMMIN
 10
0.0
 20
0.0
  9
$PLIMMAX
 10
420.0
 20
297.0
  9
$UNITMODE
 70
     0
  9
$VISRETAIN
 70
     1
  9
$PLINEGEN
 70
     0
  9
$PSLTSCALE
 70
     1
  9
$TREEDEPTH
 70
  3020
  9
$CMLSTYLE
  2
Standard
  9
$CMLJUST
 70
     0
  9
$CMLSCALE
 40
20.0
  9
$PROXYGRAPHICS
 70
     1
  9
$MEASUREMENT
 70
     1
  9
$CELWEIGHT
370
    -1
  9
$ENDCAPS
280
     0
  9
$JOINSTYLE
280
     0
  9
$LWDISPLAY
290
     0
  9
$INSUNITS
 70
     6
  9
$HYPERLINKBASE
  1

  9
$STYLESHEET
  1

  9
$XEDIT
290
     1
  9
$CEPSNTYPE
380
     0
  9
$PSTYLEMODE
290
     1
  9
$FINGERPRINTGUID
  2
{EC6BB858-51AA-46EC-B484-6C9CC7AB3E2E}
  9
$VERSIONGUID
  2
{FAEB1C32-E019-11D5-929B-00C0DF256EC4}
  9
$EXTNAMES
290
     1
  9
$PSVPSCALE
 40
0.0
  9
$OLESTARTUP
290
     0
  9
$SORTENTS
280
   127
  9
$INDEXCTL
280
     0
  9
$HIDETEXT
280
     1
  9
$XCLIPFRAME
280
     0
  9
$HALOGAP
280
     0
  9
$OBSCOLOR
 70
   257
  9
$OBSLTYPE
280
     0
  9
$INTERSECTIONDISPLAY
280
     0
  9
$INTERSECTIONCOLOR
 70
   257
  9
$DIMASSOC
280
     2
  9
$PROJECTNAME
  1

  9
$CAMERADISPLAY
290
     0
  9
$LENSLENGTH
 40
50.0
  9
$CAMERAHEIGHT
 40
0.0
  9
$STEPSPERSEC
 40
2.0
  9
$STEPSIZE
 40
6.0
  9
$3DDWFPREC
 40
2.0
  9
$PSOLWIDTH
 40
5.0
  9
$PSOLHEIGHT
 40
80.0
  9
$LOFTANG1
 40
1.570796326794897
  9
$LOFTANG2
 40
1.570796326794897
  9
$LOFTMAG1
 40
0.0
  9
$LOFTMAG2
 40
0.0
  9
$LOFTPARAM
 70
     7
  9
$LOFTNORMALS
280
     1
  9
$LATITUDE
 40
37.795
  9
$LONGITUDE
 40
-122.394
  9
$NORTHDIRECTION
 40
0.0
  9
$TIMEZONE
 70
 -8000
  9
$LIGHTGLYPHDISPLAY
280
     1
  9
$TILEMODELIGHTSYNCH
280
     1
  9
$CMATERIAL
347
73
  9
$SOLIDHIST
280
     1
  9
$SHOWHIST
280
     1
  9
$DWFFRAME
280
     2
  9
$DGNFRAME
280
     2
  9
$REALWORLDSCALE
290
     1
  9
$INTERFERECOLOR
 62
   256
  9
$CSHADOW
280
     0
  9
$SHADOWPLANELOCATION
 40
0.0
  0
ENDSEC
  0
SECTION
  2
CLASSES
  0
CLASS
  1
ACDBDICTIONARYWDFLT
  2
AcDbDictionaryWithDefault
  3
ObjectDBX Classes
 90
        0
 91
        3
280
     0
281
     0
  0
CLASS
  1
VISUALSTYLE
  2
AcDbVisualStyle
  3
ObjectDBX Classes
 90
     4095
 91
        3
280
     0
281
     0
  0
CLASS
  1
TABLESTYLE
  2
AcDbTableStyle
  3
ObjectDBX Classes
 90
     4095
 91
        3
280
     0
281
     0
  0
CLASS
  1
DICTIONARYVAR
  2
AcDbDictionaryVar
  3
ObjectDBX Classes
 90
        0
 91
        3
280
     0
281
     0
  0
CLASS
  1
SCALE
  2
AcDbScale
  3
ObjectDBX Classes
 90
     1153
 91
        3
280
     0
281
     0
  0
CLASS
  1
CELLSTYLEMAP
  2
AcDbCellStyleMap
  3
ObjectDBX Classes
 90
     1152
 91
        3
280
     0
281
     0
  0
CLASS
  1
RASTERVARIABLES
  2
AcDbRasterVariables
  3
ISM
 90
        0
 91
        3
280
     0
281
     0
  0
CLASS
  1
MATERIAL
  2
AcDbMaterial
  3
ObjectDBX Classes
 90
     1153
 91
        3
280
     0
281
     0
  0
CLASS
  1
SUN
  2
AcDbSun
  3
SCENEOE
 90
     1153
 91
        3
280
     0
281
     0
  0
CLASS
  1
MLEADERSTYLE
  2
AcDbMLeaderStyle
  3
ACDB_MLEADERSTYLE_CLASS
 90
     4095
 91
        3
280
     0
281
     0
  0
CLASS
  1
IMAGE
  2
AcDbRasterImage
  3
ISM
 90
      127
 91
        4
280
     0
281
     1
  0
CLASS
  1
IMAGEDEF
  2
AcDbRasterImageDef
  3
ISM
 90
        0
 91
        3
280
     0
281
     0
  0
CLASS
  1
IMAGEDEF_REACTOR
  2
AcDbRasterImageDefReactor
  3
ISM
 90
        1
 91
        3
280
     0
281
     0
  0
CLASS
  1
SORTENTSTABLE
  2
AcDbSortentsTable
  3
ObjectDBX Classes
 90
        0
 91
        3
280
     0
281
     0
  0
ENDSEC
  0
SECTION
  2
TABLES
  0
TABLE
  2
VPORT
  5
8
330
0
100
AcDbSymbolTable
 70
     1
  0
VPORT
  5
29
330
8
100
AcDbSymbolTableRecord
100
AcDbViewportTableRecord
  2
*Active
 70
     0
 10
0.0
 20
0.0
 11
1.0
 21
1.0
 12
273.7051532882842
 22
150.8550055498679
 13
0.0
 23
0.0
 14
10.0
 24
10.0
 15
10.0
 25
10.0
 16
0.0
 26
0.0
 36
1.0
 17
-134.1869158878523
 27
0.0
 37
0.0
 40
9.916078639538185
 41
2.545212765957447
 42
50.0
 43
0.0
 44
0.0
 50
0.0
 51
0.0
 71
    16
 72
  1000
 73
     1
 74
     3
 75
     0
 76
     0
 77
     0
 78
     0
281
     0
 65
     1
110
0.0
120
0.0
130
0.0
111
1.0
121
0.0
131
0.0
112
0.0
122
1.0
132
0.0
 79
     0
146
0.0
348
2F
 60
     3
 61
     5
292
     1
282
     1
141
0.0
142
0.0
 63
   256
361
80
  0
ENDTAB
  0
TABLE
  2
LTYPE
  5
5
330
0
100
AcDbSymbolTable
 70
     2
  0
LTYPE
  5
14
330
5
100
AcDbSymbolTableRecord
100
AcDbLinetypeTableRecord
  2
ByBlock
 70
     0
  3

 72
    65
 73
     0
 40
0.0
  0
LTYPE
  5
15
330
5
100
AcDbSymbolTableRecord
100
AcDbLinetypeTableRecord
  2
ByLayer
 70
     0
  3

 72
    65
 73
     0
 40
0.0
  0
LTYPE
  5
16
330
5
100
AcDbSymbolTableRecord
100
AcDbLinetypeTableRecord
  2
Continuous
 70
     0
  3
Solid line
 72
    65
 73
     0
 40
0.0
  0
LTYPE
  5
240
330
5
100
AcDbSymbolTableRecord
100
AcDbLinetypeTableRecord
  2
DASHDOT
 70
     0
  3
DashDot __  . __  . __  . __  . __  . __  . __ 
 72
    65
 73
     4
 40
25.4
 49
12.7
 74
     0
 49
-6.35
 74
     0
 49
0.0
 74
     0
 49
-6.35
 74
     0
  0
ENDTAB
  0
TABLE
  2
LAYER
  5
2
102
{ACAD_XDICTIONARY
360
113
102
}
330
0
100
AcDbSymbolTable
 70
    10
  0
LAYER
  5
10
330
2
100
AcDbSymbolTableRecord
100
AcDbLayerTableRecord
  2
0
 70
     0
 62
     7
  6
Continuous
370
    -3
390
F
347
75
348
0
  0
LAYER
  5
BE
330
2
100
AcDbSymbolTableRecord
100
AcDbLayerTableRecord
  2
CONTEXT 1
 70
     0
 62
     7
  6
Continuous
370
    -3
390
F
347
75
348
0
1001
AcAecLayerStandard
1000

1000

  0
LAYER
  5
238
330
2
100
AcDbSymbolTableRecord
100
AcDbLayerTableRecord
  2
Annotatons
 70
     0
 62
     7
  6
Continuous
370
    -3
390
F
347
75
348
0
1001
AcAecLayerStandard
1000

1000

  0
LAYER
  5
239
330
2
100
AcDbSymbolTableRecord
100
AcDbLayerTableRecord
  2
EVALUATION TRENCH (LOE)
 70
     0
 62
     7
  6
Continuous
370
    -3
390
F
347
75
348
0
1001
AcAecLayerStandard
1000

1000

  0
LAYER
  5
23A
330
2
100
AcDbSymbolTableRecord
100
AcDbLayerTableRecord
  2
DRAWING POINT
 70
     0
 62
     7
  6
Continuous
370
    -3
390
F
347
75
348
0
1001
AcAecLayerStandard
1000

1000

  0
LAYER
  5
23B
330
2
100
AcDbSymbolTableRecord
100
AcDbLayerTableRecord
  2
SECTION POINT
 70
     0
 62
     7
  6
Continuous
370
    -3
390
F
347
75
348
0
1001
AcAecLayerStandard
1000

1000

  0
LAYER
  5
23C
330
2
100
AcDbSymbolTableRecord
100
AcDbLayerTableRecord
  2
CONTEXT 2
 70
     0
 62
     7
  6
Continuous
370
    -3
390
F
347
75
348
0
1001
AcAecLayerStandard
1000

1000

  0
LAYER
  5
23D
330
2
100
AcDbSymbolTableRecord
100
AcDbLayerTableRecord
  2
DETAIL
 70
     0
 62
     7
  6
Continuous
370
    -3
390
F
347
75
348
0
1001
AcAecLayerStandard
1000

1000

  0
LAYER
  5
23E
330
2
100
AcDbSymbolTableRecord
100
AcDbLayerTableRecord
  2
aOD
 70
     0
 62
     7
  6
Continuous
370
    -3
390
F
347
75
348
0
1001
AcAecLayerStandard
1000

1000

  0
LAYER
  5
23F
330
2
100
AcDbSymbolTableRecord
100
AcDbLayerTableRecord
  2
Co-ord
 70
     0
 62
     7
  6
Continuous
370
    -3
390
F
347
75
348
0
1001
AcAecLayerStandard
1000

1000

  0
ENDTAB
  0
TABLE
  2
STYLE
  5
3
330
0
100
AcDbSymbolTable
 70
     3
  0
STYLE
  5
11
330
3
100
AcDbSymbolTableRecord
100
AcDbTextStyleTableRecord
  2
Standard
 70
     0
 40
0.0
 41
1.0
 50
0.0
 71
     0
 42
2.5
  3
arial.ttf
  4

1001
ACAD
1000
Arial
1071
        0
  0
STYLE
  5
B8
330
3
100
AcDbSymbolTableRecord
100
AcDbTextStyleTableRecord
  2
Annotative
 70
     0
 40
0.0
 41
1.0
 50
0.0
 71
     0
 42
2.5
  3
arial.ttf
  4

1001
ACAD
1000
Arial
1071
        0
1001
AcadAnnotative
1000
AnnotativeData
1002
{
1070
     1
1070
     1
1002
}
  0
STYLE
  5
243
330
3
100
AcDbSymbolTableRecord
100
AcDbTextStyleTableRecord
  2
Text
 70
     0
 40
0.0
 41
1.0
 50
0.0
 71
     0
 42
2.5
  3
ARIALUNI.TTF
  4

1001
ACAD
1000
Arial Unicode MS
1071
        0
  0
ENDTAB
  0
TABLE
  2
VIEW
  5
6
330
0
100
AcDbSymbolTable
 70
     0
  0
ENDTAB
  0
TABLE
  2
UCS
  5
7
330
0
100
AcDbSymbolTable
 70
     0
  0
ENDTAB
  0
TABLE
  2
APPID
  5
9
330
0
100
AcDbSymbolTable
 70
     4
  0
APPID
  5
12
330
9
100
AcDbSymbolTableRecord
100
AcDbRegAppTableRecord
  2
ACAD
 70
     0
  0
APPID
  5
B9
330
9
100
AcDbSymbolTableRecord
100
AcDbRegAppTableRecord
  2
AcadAnnotative
 70
     0
  0
APPID
  5
C0
330
9
100
AcDbSymbolTableRecord
100
AcDbRegAppTableRecord
  2
AcAecLayerStandard
 70
     0
  0
APPID
  5
C3
330
9
100
AcDbSymbolTableRecord
100
AcDbRegAppTableRecord
  2
HATCHBACKGROUNDCOLOR
 70
     0
  0
ENDTAB
  0
TABLE
  2
DIMSTYLE
  5
A
330
0
100
AcDbSymbolTable
 70
     2
100
AcDbDimStyleTable
  0
DIMSTYLE
105
27
330
A
100
AcDbSymbolTableRecord
100
AcDbDimStyleTableRecord
  2
ISO-25
 70
     0
 41
2.5
 42
0.625
 43
3.75
 44
1.25
 73
     0
 74
     0
 77
     1
 78
     8
140
2.5
141
-2.5
143
0.03937007874016
147
0.625
171
     3
172
     1
178
     0
271
     2
272
     2
274
     3
278
    44
283
     0
284
     8
340
11
  0
DIMSTYLE
105
BA
330
A
100
AcDbSymbolTableRecord
100
AcDbDimStyleTableRecord
  2
Annotative
 70
     0
 40
0.0
 41
2.5
 42
0.625
 43
3.75
 44
1.25
 73
     0
 74
     0
 77
     1
 78
     8
140
2.5
141
-2.5
143
0.03937007874016
147
0.625
171
     3
172
     1
178
     0
271
     2
272
     2
274
     3
278
    44
283
     0
284
     8
340
11
1001
AcadAnnotative
1000
AnnotativeData
1002
{
1070
     1
1070
     1
1002
}
  0
ENDTAB
  0
TABLE
  2
BLOCK_RECORD
  5
1
330
0
100
AcDbSymbolTable
 70
     1
  0
BLOCK_RECORD
  5
1F
102
{ACAD_XDICTIONARY
360
1F7
102
}
330
1
100
AcDbSymbolTableRecord
100
AcDbBlockTableRecord
  2
*Model_Space
340
22
 70
     0
280
     1
281
     0
  0
BLOCK_RECORD
  5
1B
330
1
100
AcDbSymbolTableRecord
100
AcDbBlockTableRecord
  2
*Paper_Space
340
1E
 70
     0
280
     1
281
     0
  0
BLOCK_RECORD
  5
23
330
1
100
AcDbSymbolTableRecord
100
AcDbBlockTableRecord
  2
*Paper_Space0
340
26
 70
     0
280
     1
281
     0
  0
ENDTAB
  0
ENDSEC
  0
SECTION
  2
BLOCKS
  0
BLOCK
  5
20
330
1F
100
AcDbEntity
  8
0
100
AcDbBlockBegin
  2
*Model_Space
 70
     0
 10
0.0
 20
0.0
 30
0.0
  3
*Model_Space
  1

  0
ENDBLK
  5
21
330
1F
100
AcDbEntity
  8
0
100
AcDbBlockEnd
  0
BLOCK
  5
1C
330
1B
100
AcDbEntity
 67
     1
  8
0
100
AcDbBlockBegin
  2
*Paper_Space
 70
     0
 10
0.0
 20
0.0
 30
0.0
  3
*Paper_Space
  1

  0
ENDBLK
  5
1D
330
1B
100
AcDbEntity
 67
     1
  8
0
100
AcDbBlockEnd
  0
BLOCK
  5
24
330
23
100
AcDbEntity
  8
0
100
AcDbBlockBegin
  2
*Paper_Space0
 70
     0
 10
0.0
 20
0.0
 30
0.0
  3
*Paper_Space0
  1

  0
ENDBLK
  5
25
330
23
100
AcDbEntity
  8
0
100
AcDbBlockEnd
  0
ENDSEC
  0
SECTION
  2
ENTITIES
  0
IMAGE
  5
161
330
1F
100
AcDbEntity
  8
0
160
               140
310
8C000000010000008400000006000000050000005139CA916D7460403F4A1C5C74CC62400000000000000000571FBBB172FA60403F4A1C5C74CC62400000000000000000571FBBB172FA604088010BD9362B634000000000000000005139CA916D74604088010BD9362B634000000000000000005139CA916D7460403F4A1C
310
5C74CC62400000000000000000
100
AcDbRasterImage
 90
        0
 10
131.6383751821218
 20
150.3892040779628
 30
0.0
 11
0.0008443801577062225
 21
0.0
 31
0.0
 12
0.0
 22
0.0008443801577062225
 32
0.0
 13
4960.0
 23
3507.0
340
160
 70
     7
280
     0
281
    50
282
    50
283
     0
360
162
 71
     1
 91
        2
 14
-0.5
 24
-0.5
 14
4959.5
 24
3506.5
290
     0
  0
IMAGE
  5
172
330
1F
100
AcDbEntity
  8
0
160
               140
310
8C00000001000000840000000600000005000000C44317FE5ADB5F406B4FBF9A86F761400000000000000000ED6DEDBEB7F960406B4FBF9A86F761400000000000000000ED6DEDBEB7F96040FCBD9C940BB562400000000000000000C44317FE5ADB5F40FCBD9C940BB562400000000000000000C44317FE5ADB5F406B4FBF
310
9A86F761400000000000000000
100
AcDbRasterImage
 90
        0
 10
127.4274287440485
 20
143.7351812111404
 30
0.0
 11
0.001688760315412445
 21
0.0
 31
0.0
 12
0.0
 22
0.001688760315412445
 32
0.0
 13
4960.0
 23
3507.0
340
160
 70
     7
280
     0
281
    50
282
    50
283
     0
360
173
 71
     1
 91
        2
 14
-0.5
 24
-0.5
 14
4959.5
 24
3506.5
290
     0
  0
LWPOLYLINE
  5
176
330
1F
100
AcDbEntity
  8
CONTEXT 1
 62
     1
100
AcDbPolyline
 90
        5
 70
     0
 43
0.0
 10
133.2357867734176
 20
152.0442376547516
 10
133.8162831879976
 20
152.0605896664298
 10
134.7327775683952
 20
152.0822635200203
 10
135.1297100247012
 20
152.0867082143851
 10
135.1297100247012
 20
152.0867082143851
  0
LWPOLYLINE
  5
177
330
1F
100
AcDbEntity
  8
CONTEXT 1
 62
     1
100
AcDbPolyline
 90
        5
 70
     0
 43
0.0
 10
135.1391681287133
 20
151.7804260812903
 10
134.7527542818429
 20
151.7546651581656
 10
134.3485059497324
 20
151.7427755013389
 10
133.6899691303715
 20
151.7318379459377
 10
133.2357867734176
 20
151.7109479012043
  0
LWPOLYLINE
  5
178
330
1F
100
AcDbEntity
  8
CONTEXT 1
 62
     1
100
AcDbPolyline
 90
       18
 70
     0
 43
0.0
 10
134.9662192849393
 20
151.7688961583721
 10
134.9230256237822
 20
151.6685453394298
 10
134.8621505808291
 20
151.5873786154923
 10
134.7469695303196
 20
151.5003661436149
 10
134.6408394810695
 20
151.4351266058016
 10
134.5216258552863
 20
151.4135666947557
 10
134.2870032939045
 20
151.402152624202
 10
134.1614485178138
 20
151.4110302346327
 10
134.0830837896684
 20
151.4207163417275
 10
133.9653920399591
 20
151.4815913846807
 10
133.8172627687732
 20
151.5698601969627
 10
133.7891278775021
 20
151.5717054717022
 10
133.689292807059
 20
151.5725171389415
 10
133.5375110332959
 20
151.5781988096172
 10
133.455532642119
 20
151.5968671561228
 10
133.4068326077565
 20
151.6236521750222
 10
133.3792359216178
 20
151.6634238697515
 10
133.3484104029243
 20
151.7158023249307
  0
LWPOLYLINE
  5
179
330
1F
100
AcDbEntity
  8
EVALUATION TRENCH (LOE)
 62
     1
100
AcDbPolyline
 90
        2
 70
     0
 43
0.0
 10
127.4866975492565
 20
148.5161295701278
 10
128.6908996365442
 20
147.3845868999409
  0
LWPOLYLINE
  5
17A
330
1F
100
AcDbEntity
  8
DETAIL
 62
     1
100
AcDbPolyline
 90
        2
 70
     0
 43
0.0
 10
128.6908996365442
 20
147.3845868999409
 10
128.8554310357173
 20
147.2271581628889
  0
LWPOLYLINE
  5
17B
330
1F
100
AcDbEntity
  8
CONTEXT 1
 62
     1
100
AcDbPolyline
 90
        9
 70
     0
 43
0.0
 10
128.7320030416187
 20
147.3452578892966
 10
129.0381106588371
 20
147.8371223282211
 10
129.1433836619909
 20
148.0167056865423
 10
129.2550721258074
 20
148.2285768941836
 10
129.3117956969185
 20
148.3206598092953
 10
129.3403308733028
 20
148.3999241881405
 10
129.3767924875716
 20
148.5267471942928
 10
129.420186783862
 20
148.7409397297086
 10
129.497593403828
 20
149.0699178645642
  0
LWPOLYLINE
  5
17C
330
1F
100
AcDbEntity
  8
CONTEXT 1
 62
     1
100
AcDbPolyline
 90
        7
 70
     0
 43
0.0
 10
128.301661125353
 20
149.3331003724487
 10
128.2049028503955
 20
149.0389552165778
 10
128.1507182164193
 20
148.7525507227035
 10
128.0372253846978
 20
148.4319684509223
 10
128.0369576197181
 20
148.2560891541798
 10
128.0369576197181
 20
148.0753663704127
 10
128.0421673079683
 20
147.9941758709803
  0
LWPOLYLINE
  5
17D
330
1F
100
AcDbEntity
  8
SECTION POINT
 62
     1
100
AcDbPolyline
 90
        2
 70
     0
 43
0.0
 10
127.6321995185711
 20
148.4034771176476
 10
129.4271671384438
 20
148.4037545429736
  0
LWPOLYLINE
  5
17E
330
1F
100
AcDbEntity
  8
DETAIL
 62
     1
100
AcDbPolyline
 90
        2
 70
     0
 43
0.0
 10
129.1302432070702
 20
147.9942896163835
 10
128.0421673079683
 20
147.9941758709803
  0
LWPOLYLINE
  5
17F
330
1F
100
AcDbEntity
  8
SECTION POINT
 62
     1
100
AcDbPolyline
 90
        2
 70
     0
 43
0.0
 10
130.6174744520107
 20
148.4011652915357
 10
131.9111398582225
 20
148.4011652915357
  0
LWPOLYLINE
  5
180
330
1F
100
AcDbEntity
  8
CONTEXT 1
 62
     1
100
AcDbPolyline
 90
        5
 70
     0
 43
0.0
 10
130.7438024521171
 20
148.4011652915357
 10
130.7463389122402
 20
148.2289511920559
 10
130.7438024521171
 20
148.093250575473
 10
130.7463389122402
 20
148.0057427012279
 10
130.7539978328461
 20
147.8392775976056
  0
LWPOLYLINE
  5
181
330
1F
100
AcDbEntity
  8
CONTEXT 1
 62
     1
100
AcDbPolyline
 90
        5
 70
     0
 43
0.0
 10
131.865234884019
 20
148.4011652915357
 10
131.8430408579424
 20
148.3177124342915
 10
131.8065792436736
 20
148.2019864411775
 10
131.7859705051739
 20
148.0926015983711
 10
131.7512582805163
 20
147.867964490965
  0
LWPOLYLINE
  5
182
330
1F
100
AcDbEntity
  8
DETAIL
 62
     1
100
AcDbPolyline
 90
        2
 70
     0
 43
0.0
 10
131.7828615735397
 20
148.0724824208677
 10
130.7450706821787
 20
148.0494966383504
  0
LWPOLYLINE
  5
183
330
1F
100
AcDbEntity
  8
SECTION POINT
 62
     1
100
AcDbPolyline
 90
        2
 70
     0
 43
0.0
 10
133.6217372565171
 20
148.4136121186488
 10
135.4259867970779
 20
148.4136121186488
  0
LWPOLYLINE
  5
184
330
1F
100
AcDbEntity
  8
CONTEXT 1
 62
     1
100
AcDbPolyline
 90
        7
 70
     0
 43
0.0
 10
135.2877497203719
 20
148.4136121186488
 10
135.2975785033487
 20
148.2683335165377
 10
135.2880667778873
 20
148.1652898240389
 10
135.2833109151566
 20
148.0590755563863
 10
135.2889662428113
 20
147.8725689499754
 10
135.285003023869
 20
147.7378195059386
 10
135.3014151624673
 20
147.3194444656842
  0
LWPOLYLINE
  5
185
330
1F
100
AcDbEntity
  8
CONTEXT 1
 62
     1
100
AcDbPolyline
 90
        6
 70
     0
 43
0.0
 10
133.7037425263687
 20
147.3689847024625
 10
133.709935055966
 20
147.7033813007157
 10
133.7068387911674
 20
147.9325048958151
 10
133.7087914941039
 20
148.1737444411569
 10
133.7261305769763
 20
148.3520892935586
 10
133.7261305769763
 20
148.4136121186488
  0
LWPOLYLINE
  5
186
330
1F
100
AcDbEntity
  8
DETAIL
 62
     1
100
AcDbPolyline
 90
        2
 70
     0
 43
0.0
 10
133.7083869235667
 20
147.8179430982654
 10
135.2869846333402
 20
147.805194227957
  0
LWPOLYLINE
  5
187
330
1F
100
AcDbEntity
  8
CONTEXT 1
 62
     1
100
AcDbPolyline
 90
        3
 70
     0
 43
0.0
 10
127.7026995742543
 20
146.9174896254854
 10
128.4581881851226
 20
146.8927195070963
 10
128.9436825055494
 20
146.8778574360628
  0
LWPOLYLINE
  5
188
330
1F
100
AcDbEntity
  8
EVALUATION TRENCH (LOE)
 62
     1
100
AcDbPolyline
 90
        3
 70
     0
 43
0.0
 10
128.951485092842
 20
147.1365193973412
 10
128.9436825055494
 20
146.8778574360628
 10
128.9368201609882
 20
146.4021488914946
  0
LWPOLYLINE
  5
189
330
1F
100
AcDbEntity
  8
SECTION POINT
 62
     1
100
AcDbPolyline
 90
        2
 70
     0
 43
0.0
 10
128.9368201609882
 20
146.4021488914946
 10
128.9390473661832
 20
145.65960378214
  0
LWPOLYLINE
  5
18A
330
1F
100
AcDbEntity
  8
SECTION POINT
 62
     1
100
AcDbPolyline
 90
        2
 70
     0
 43
0.0
 10
127.6306246913088
 20
146.4008285203339
 10
128.9368201609882
 20
146.4021488914946
  0
LWPOLYLINE
  5
18B
330
1F
100
AcDbEntity
  8
CONTEXT 2
 62
     1
100
AcDbPolyline
 90
       21
 70
     0
 43
0.0
 10
128.9456354002608
 20
145.7488239155888
 10
128.8429087652774
 20
145.7272640045429
 10
128.7718878818321
 20
145.7348733849121
 10
128.5867262928497
 20
145.7792614370654
 10
128.3635178020216
 20
145.8363317898339
 10
128.1885020535314
 20
145.9022797530331
 10
128.1288952406398
 20
145.9415948849403
 10
128.0266020827283
 20
146.0027708848319
 10
127.9061202268836
 20
146.0963028518692
 10
127.8252705604615
 20
146.1866642437528
 10
127.7523473319239
 20
146.2627580474442
 10
127.7304467698249
 20
146.3095354871426
 10
127.7020384164467
 20
146.3876584589324
 10
127.7000092483483
 20
146.4069355558676
 10
127.693921744053
 20
146.4454897497379
 10
127.7101550888405
 20
146.538831482266
 10
127.7401606194523
 20
146.6837069507003
 10
127.766539804732
 20
146.7598007543917
 10
127.799006494307
 20
146.8227049654432
 10
127.8436481924726
 20
146.8653174955104
 10
127.9032112525077
 20
146.9109154721
  0
LWPOLYLINE
  5
1BB
102
{ACAD_REACTORS
330
20F
102
}
330
1F
100
AcDbEntity
  8
DETAIL
 62
     1
100
AcDbPolyline
 90
        3
 70
     1
 43
0.0
 10
128.1120825779565
 20
148.3394592726914
 10
128.0371207168758
 20
148.3645674434357
 10
128.0370466489835
 20
148.3145673189082
  0
LWPOLYLINE
  5
1BC
102
{ACAD_REACTORS
330
210
102
}
330
1F
100
AcDbEntity
  8
DETAIL
 62
     1
100
AcDbPolyline
 90
        4
 70
     1
 43
0.0
 10
128.0369576197181
 20
148.1772555159538
 10
128.111993548691
 20
148.202147469737
 10
128.0370296332426
 20
148.2272554640942
 10
128.0369576197181
 20
148.2272190169718
  0
LWPOLYLINE
  5
1BD
102
{ACAD_REACTORS
330
211
102
}
330
1F
100
AcDbEntity
  8
DETAIL
 62
     1
100
AcDbPolyline
 90
        5
 70
     1
 43
0.0
 10
128.0395624638432
 20
148.0347711206965
 10
128.1145983928162
 20
148.0596630744797
 10
128.0396344773678
 20
148.084771068837
 10
128.0369576197181
 20
148.0834162711254
 10
128.0369576197181
 20
148.0753663704127
  0
LWPOLYLINE
  5
1BE
102
{ACAD_REACTORS
330
212
102
}
330
1F
100
AcDbEntity
  8
DETAIL
 62
     1
100
AcDbPolyline
 90
        3
 70
     1
 43
0.0
 10
129.3129804646628
 20
148.323950830807
 10
129.3292039685404
 20
148.369016119356
 10
129.2511427053573
 20
148.356508554036
  0
LWPOLYLINE
  5
1BF
102
{ACAD_REACTORS
330
213
102
}
330
1F
100
AcDbEntity
  8
DETAIL
 62
     1
100
AcDbPolyline
 90
        4
 70
     1
 43
0.0
 10
129.2550721258074
 20
148.2285768941836
 10
129.2656708941831
 20
148.2457825367323
 10
129.1866139691618
 20
148.2457314863457
 10
129.2421770749547
 20
148.2041151914848
  0
LWPOLYLINE
  5
1C0
102
{ACAD_REACTORS
330
214
102
}
330
1F
100
AcDbEntity
  8
DETAIL
 62
     1
100
AcDbPolyline
 90
        3
 70
     1
 43
0.0
 10
129.1901150691235
 20
148.1053544092987
 10
129.2125128654833
 20
148.1478426663764
 10
129.1334559404619
 20
148.1477916159899
  0
LWPOLYLINE
  5
1C1
102
{ACAD_REACTORS
330
215
102
}
330
1F
100
AcDbEntity
  8
DETAIL
 62
     1
100
AcDbPolyline
 90
        5
 70
     1
 43
0.0
 10
130.7524990461442
 20
148.3089907542975
 10
130.8241533042807
 20
148.34239236041
 10
130.746788934104
 20
148.3586636304019
 10
130.7444512153494
 20
148.3571172204416
 10
130.7451226738083
 20
148.3115282467501
  0
LWPOLYLINE
  5
1C2
102
{ACAD_REACTORS
330
216
102
}
330
1F
100
AcDbEntity
  8
DETAIL
 62
     1
100
AcDbPolyline
 90
        4
 70
     1
 43
0.0
 10
130.7457699857578
 20
148.1985136252477
 10
130.8174242438943
 20
148.2319152313601
 10
130.7460742351618
 20
148.2469215611908
 10
130.7463389122402
 20
148.2289511920559
  0
LWPOLYLINE
  5
1C3
102
{ACAD_REACTORS
330
217
102
}
330
1F
100
AcDbEntity
  8
DETAIL
 62
     1
100
AcDbPolyline
 90
        4
 70
     1
 43
0.0
 10
130.7445584116724
 20
148.0671699708159
 10
130.8162126698089
 20
148.1005715769283
 10
130.7442223027976
 20
148.1157125868763
 10
130.7438024521171
 20
148.093250575473
  0
LWPOLYLINE
  5
1C4
102
{ACAD_REACTORS
330
218
102
}
330
1F
100
AcDbEntity
  8
DETAIL
 62
     1
100
AcDbPolyline
 90
        3
 70
     1
 43
0.0
 10
131.8450771631169
 20
148.3253692462844
 10
131.8575827274896
 20
148.3723920385777
 10
131.7795214643065
 20
148.3598844732578
  0
LWPOLYLINE
  5
1C5
102
{ACAD_REACTORS
330
219
102
}
330
1F
100
AcDbEntity
  8
DETAIL
 62
     1
100
AcDbPolyline
 90
        3
 70
     1
 43
0.0
 10
131.8118131009329
 20
148.2185982490006
 10
131.8262998532835
 20
148.2645779412437
 10
131.7482385901004
 20
148.2520703759237
  0
LWPOLYLINE
  5
1C6
102
{ACAD_REACTORS
330
21A
102
}
330
1F
100
AcDbEntity
  8
DETAIL
 62
     1
100
AcDbPolyline
 90
        4
 70
     1
 43
0.0
 10
131.7859705051739
 20
148.0926015983711
 10
131.7939826222588
 20
148.1351274505913
 10
131.7159213590757
 20
148.1226198852713
 10
131.7849898200516
 20
148.086255180897
  0
LWPOLYLINE
  5
1C7
102
{ACAD_REACTORS
330
21B
102
}
330
1F
100
AcDbEntity
  8
DETAIL
 62
     1
100
AcDbPolyline
 90
        3
 70
     1
 43
0.0
 10
133.719994114077
 20
148.2889713894522
 10
133.7964812952586
 20
148.3089641660195
 10
133.7247854524797
 20
148.3382537273082
  0
LWPOLYLINE
  5
1C8
102
{ACAD_REACTORS
330
21C
102
}
330
1F
100
AcDbEntity
  8
DETAIL
 62
     1
100
AcDbPolyline
 90
        5
 70
     1
 43
0.0
 10
133.7850687055861
 20
148.1677972788524
 10
133.7118832947004
 20
148.1976953663076
 10
133.7110869682834
 20
148.1973550327176
 10
133.7087914941039
 20
148.1737444411569
 10
133.7085815244045
 20
148.1478045022851
  0
LWPOLYLINE
  5
1C9
102
{ACAD_REACTORS
330
21D
102
}
330
1F
100
AcDbEntity
  8
DETAIL
 62
     1
100
AcDbPolyline
 90
        4
 70
     1
 43
0.0
 10
133.7840278905416
 20
148.0392135893203
 10
133.7108424796558
 20
148.0691116767754
 10
133.7079344888572
 20
148.0678688611071
 10
133.7075407093599
 20
148.0192208127529
  0
LWPOLYLINE
  5
1CA
102
{ACAD_REACTORS
330
21E
102
}
330
1F
100
AcDbEntity
  8
DETAIL
 62
     1
100
AcDbPolyline
 90
        3
 70
     1
 43
0.0
 10
133.7077440255471
 20
147.8655175517123
 10
133.7821212796721
 20
147.8923135228424
 10
133.707070737918
 20
147.9153408362708
  0
LWPOLYLINE
  5
1CB
102
{ACAD_REACTORS
330
21F
102
}
330
1F
100
AcDbEntity
  8
DETAIL
 62
     1
100
AcDbPolyline
 90
        3
 70
     1
 43
0.0
 10
135.2970233263219
 20
148.2765395520726
 10
135.293673163956
 20
148.3260580841749
 10
135.2212430365479
 20
148.2943740717456
  0
LWPOLYLINE
  5
1CC
102
{ACAD_REACTORS
330
220
102
}
330
1F
100
AcDbEntity
  8
DETAIL
 62
     1
100
AcDbPolyline
 90
        4
 70
     1
 43
0.0
 10
135.2873617738227
 20
148.1495447332629
 10
135.2880667778873
 20
148.1652898240389
 10
135.2910318182029
 20
148.1974110941252
 10
135.2186016907948
 20
148.165727081696
  0
LWPOLYLINE
  5
1CD
102
{ACAD_REACTORS
330
221
102
}
330
1F
100
AcDbEntity
  8
DETAIL
 62
     1
100
AcDbPolyline
 90
        3
 70
     1
 43
0.0
 10
135.2852626087373
 20
147.9947108071226
 10
135.2837743752191
 20
148.0437911433991
 10
135.2113442478109
 20
148.0121071309698
  0
LWPOLYLINE
  5
1CE
102
{ACAD_REACTORS
330
222
102
}
330
1F
100
AcDbEntity
  8
DETAIL
 62
     1
100
AcDbPolyline
 90
        4
 70
     1
 43
0.0
 10
135.2883157794462
 20
147.8504531955624
 10
135.2889662428113
 20
147.8725689499754
 10
135.2881581072013
 20
147.8992203907665
 10
135.2157279797931
 20
147.8675363783372
  0
LWPOLYLINE
  5
1CF
102
{ACAD_REACTORS
330
22D
102
}
330
1F
100
AcDbEntity
  8
DETAIL
 62
     1
100
AcDbPolyline
 90
        3
 70
     1
 43
0.0
 10
127.7304467698248
 20
146.3095354871426
 10
127.7891968962341
 20
146.362435606678
 10
127.7136761622956
 20
146.355654657848
  0
LWPOLYLINE
  5
1D0
102
{ACAD_REACTORS
330
22E
102
}
330
1F
100
AcDbEntity
  8
DETAIL
 62
     1
100
AcDbPolyline
 90
        3
 70
     1
 43
0.0
 10
127.889806492043
 20
146.1145358496322
 10
127.9280661507759
 20
146.1837182065855
 10
127.856618184542
 20
146.151628663898
  0
LWPOLYLINE
  5
1D1
102
{ACAD_REACTORS
330
22F
102
}
330
1F
100
AcDbEntity
  8
DETAIL
 62
     1
100
AcDbPolyline
 90
        3
 70
     1
 43
0.0
 10
128.0988880051446
 20
145.9595405879852
 10
128.1140740977189
 20
146.0371252681243
 10
128.056303979499
 20
145.985007788348
  0
LWPOLYLINE
  5
1D2
102
{ACAD_REACTORS
330
230
102
}
330
1F
100
AcDbEntity
  8
DETAIL
 62
     1
100
AcDbPolyline
 90
        4
 70
     1
 43
0.0
 10
128.3144290392728
 20
145.8548290047827
 10
128.3179280846172
 20
145.9338084747838
 10
128.267741166341
 20
145.8727243259895
 10
128.2677740454617
 20
145.8724091473782
  0
LWPOLYLINE
  5
1D3
102
{ACAD_REACTORS
330
231
102
}
330
1F
100
AcDbEntity
  8
DETAIL
 62
     1
100
AcDbPolyline
 90
        3
 70
     1
 43
0.0
 10
128.5163159141857
 20
145.797264090701
 10
128.5088467777292
 20
145.8759674070261
 10
128.4682329260142
 20
145.8095580365404
  0
LWPOLYLINE
  5
1D4
102
{ACAD_REACTORS
330
232
102
}
330
1F
100
AcDbEntity
  8
DETAIL
 62
     1
100
AcDbPolyline
 90
        3
 70
     1
 43
0.0
 10
128.7269061443923
 20
145.7456566781339
 10
128.7194370079357
 20
145.8243599944589
 10
128.678413952728
 20
145.7572815186014
  0
LWPOLYLINE
  5
1D5
102
{ACAD_REACTORS
330
233
102
}
330
1F
100
AcDbEntity
  8
DETAIL
 62
     1
100
AcDbPolyline
 90
        4
 70
     1
 43
0.0
 10
128.9065316798889
 20
145.7406169619305
 10
128.8668297757534
 20
145.808981856489
 10
128.8575723623267
 20
145.7304687983609
 10
128.8576594667494
 20
145.7303598307778
  0
LWPOLYLINE
  5
1D7
102
{ACAD_REACTORS
330
223
102
}
330
1F
100
AcDbEntity
  8
DETAIL
 62
     1
100
AcDbPolyline
 90
        4
 70
     1
 43
0.0
 10
134.2209036693842
 20
148.2653885556221
 10
134.2903320334863
 20
148.2904015849679
 10
134.2200759601408
 20
148.3119578400377
 10
134.2202894457174
 20
148.2933845948757
  0
LWPOLYLINE
  5
1D8
102
{ACAD_REACTORS
330
224
102
}
330
1F
100
AcDbEntity
  8
DETAIL
 62
     1
100
AcDbPolyline
 90
        4
 70
     1
 43
0.0
 10
134.2992096439169
 20
148.1179222966007
 10
134.2236302579389
 20
148.1411118721717
 10
134.2274948749958
 20
148.1287107175947
 10
134.224832389792
 20
148.0911263254706
  0
LWPOLYLINE
  5
1D9
102
{ACAD_REACTORS
330
225
102
}
330
1F
100
AcDbEntity
  8
DETAIL
 62
     1
100
AcDbPolyline
 90
        4
 70
     1
 43
0.0
 10
134.2220240934695
 20
147.9329069061348
 10
134.2913624704112
 20
147.9578875157123
 10
134.2224219547497
 20
147.979040126006
 10
134.2224219547497
 20
147.9587678893506
  0
LWPOLYLINE
  5
1DA
330
1F
100
AcDbEntity
  8
DETAIL
 62
     1
100
AcDbPolyline
 90
        2
 70
     0
 43
0.0
 10
129.1334559404619
 20
148.1477916159899
 10
129.0515296277578
 20
148.1633395673432
  0
LWPOLYLINE
  5
1DB
330
1F
100
AcDbEntity
  8
DETAIL
 62
     1
100
AcDbPolyline
 90
        2
 70
     0
 43
0.0
 10
129.1866139691618
 20
148.2457314863457
 10
129.141137466196
 20
148.2634534192763
  0
LWPOLYLINE
  5
1DC
330
1F
100
AcDbEntity
  8
DETAIL
 62
     1
100
AcDbPolyline
 90
        2
 70
     0
 43
0.0
 10
129.2511427053573
 20
148.356508554036
 10
129.2124754071567
 20
148.3585706738905
  0
LWPOLYLINE
  5
1DE
330
1F
100
AcDbEntity
  8
DETAIL
 62
     1
100
AcDbPolyline
 90
        2
 70
     0
 43
0.0
 10
128.1120825779565
 20
148.3394592726914
 10
128.1543511175809
 20
148.3412092384633
  0
LWPOLYLINE
  5
1E0
330
1F
100
AcDbEntity
  8
DETAIL
 62
     1
100
AcDbPolyline
 90
        2
 70
     0
 43
0.0
 10
128.1145983928162
 20
148.0596630744797
 10
128.1646149034688
 20
148.0693102249982
  0
LWPOLYLINE
  5
1E1
330
1F
100
AcDbEntity
  8
DETAIL
 62
     1
100
AcDbPolyline
 90
        2
 70
     0
 43
0.0
 10
128.111993548691
 20
148.202147469737
 10
128.1477322248898
 20
148.2011249846727
  0
LWPOLYLINE
  5
1E3
330
1F
100
AcDbEntity
  8
DETAIL
 62
     1
100
AcDbPolyline
 90
        2
 70
     0
 43
0.0
 10
130.8241533042807
 20
148.34239236041
 10
130.9717378518473
 20
148.3462126823976
  0
LWPOLYLINE
  5
1E5
330
1F
100
AcDbEntity
  8
DETAIL
 62
     1
100
AcDbPolyline
 90
        2
 70
     0
 43
0.0
 10
130.8174242438943
 20
148.2319152313601
 10
130.9717378518473
 20
148.2392057709566
  0
LWPOLYLINE
  5
1E6
330
1F
100
AcDbEntity
  8
DETAIL
 62
     1
100
AcDbPolyline
 90
        2
 70
     0
 43
0.0
 10
130.8162126698089
 20
148.1005715769283
 10
130.9578665855494
 20
148.1143643742754
  0
LWPOLYLINE
  5
1E7
330
1F
100
AcDbEntity
  8
DETAIL
 62
     1
100
AcDbPolyline
 90
        2
 70
     0
 43
0.0
 10
131.7159213590757
 20
148.1226198852713
 10
131.6256225333483
 20
148.1369903292915
  0
LWPOLYLINE
  5
1E8
330
1F
100
AcDbEntity
  8
DETAIL
 62
     1
100
AcDbPolyline
 90
        2
 70
     0
 43
0.0
 10
131.7482385901004
 20
148.2520703759237
 10
131.6503926517374
 20
148.2534098857204
  0
LWPOLYLINE
  5
1E9
330
1F
100
AcDbEntity
  8
DETAIL
 62
     1
100
AcDbPolyline
 90
        2
 70
     0
 43
0.0
 10
131.7795214643065
 20
148.3598844732578
 10
131.6702087464487
 20
148.3599213947936
  0
LWPOLYLINE
  5
1EA
330
1F
100
AcDbEntity
  8
DETAIL
 62
     1
100
AcDbPolyline
 90
        2
 70
     0
 43
0.0
 10
133.7964812952586
 20
148.3089641660195
 10
133.9339819928018
 20
148.3068342037549
  0
LWPOLYLINE
  5
1EB
330
1F
100
AcDbEntity
  8
DETAIL
 62
     1
100
AcDbPolyline
 90
        2
 70
     0
 43
0.0
 10
133.7850687055861
 20
148.1677972788524
 10
133.9181291170328
 20
148.1661399313047
  0
LWPOLYLINE
  5
1EC
330
1F
100
AcDbEntity
  8
DETAIL
 62
     1
100
AcDbPolyline
 90
        2
 70
     0
 43
0.0
 10
133.7840278905416
 20
148.0392135893203
 10
133.8983130223215
 20
148.0313904872678
  0
LWPOLYLINE
  5
1ED
330
1F
100
AcDbEntity
  8
DETAIL
 62
     1
100
AcDbPolyline
 90
        2
 70
     0
 43
0.0
 10
133.7821212796721
 20
147.8923135228424
 10
133.8784969276102
 20
147.8867329958753
  0
LWPOLYLINE
  5
1EE
330
1F
100
AcDbEntity
  8
DETAIL
 62
     1
100
AcDbPolyline
 90
        2
 70
     0
 43
0.0
 10
134.2903320334863
 20
148.2904015849679
 10
134.6062553909419
 20
148.2918297045407
  0
LWPOLYLINE
  5
1EF
330
1F
100
AcDbEntity
  8
DETAIL
 62
     1
100
AcDbPolyline
 90
        2
 70
     0
 43
0.0
 10
134.2992096439169
 20
148.1179222966007
 10
134.5793055021345
 20
148.1222039338119
  0
LWPOLYLINE
  5
1F0
330
1F
100
AcDbEntity
  8
DETAIL
 62
     1
100
AcDbPolyline
 90
        2
 70
     0
 43
0.0
 10
134.2913624704112
 20
147.9578875157123
 10
134.5824760772883
 20
147.9747721891599
  0
LWPOLYLINE
  5
1F1
330
1F
100
AcDbEntity
  8
DETAIL
 62
     1
100
AcDbPolyline
 90
        2
 70
     0
 43
0.0
 10
135.2212430365479
 20
148.2943740717456
 10
135.046014784028
 20
148.2941426143452
  0
LWPOLYLINE
  5
1F2
330
1F
100
AcDbEntity
  8
DETAIL
 62
     1
100
AcDbPolyline
 90
        2
 70
     0
 43
0.0
 10
135.2186016907948
 20
148.165727081696
 10
135.046014784028
 20
148.1613747797795
  0
LWPOLYLINE
  5
1F3
330
1F
100
AcDbEntity
  8
DETAIL
 62
     1
100
AcDbPolyline
 90
        2
 70
     0
 43
0.0
 10
135.2113442478109
 20
148.0121071309698
 10
135.0201919356074
 20
148.0058648802678
  0
LWPOLYLINE
  5
1F4
330
1F
100
AcDbEntity
  8
DETAIL
 62
     1
100
AcDbPolyline
 90
        2
 70
     0
 43
0.0
 10
135.2157279797931
 20
147.8675363783372
 10
135.0102838882517
 20
147.8745832528055
  0
LWPOLYLINE
  5
1F5
330
1F
100
AcDbEntity
  8
DETAIL
 62
     1
100
AcDbPolyline
 90
        2
 70
     0
 43
0.0
 10
127.7891968962341
 20
146.362435606678
 10
127.8401695902388
 20
146.3772536667998
  0
HATCH
  5
20F
330
1F
100
AcDbEntity
  8
DETAIL
 62
     1
100
AcDbHatch
 10
0.0
 20
0.0
 30
0.0
210
0.0
220
0.0
230
1.0
  2
SOLID
 70
     1
 71
     1
 91
        1
 92
        1
 93
        3
 72
     1
 10
128.1120825779565
 20
148.3394592726914
 11
128.0371207168758
 21
148.3645674434357
 72
     1
 10
128.0371207168758
 20
148.3645674434357
 11
128.0370466489835
 21
148.3145673189082
 72
     1
 10
128.0370466489835
 20
148.3145673189082
 11
128.1120825779565
 21
148.3394592726914
 97
        1
330
1BB
 75
     0
 76
     1
 98
        1
 10
-3.777779784897575
 20
3.042039255743845
450
        1
451
        0
460
0.0
461
0.0
452
        1
462
0.0
453
        2
463
0.0
 63
     1
421
 16711680
463
1.0
 63
     1
421
 16711680
470
LINEAR
1001
ACAD
1010
0.0
1020
0.0
1030
0.0
  0
HATCH
  5
210
330
1F
100
AcDbEntity
  8
DETAIL
 62
     1
100
AcDbHatch
 10
0.0
 20
0.0
 30
0.0
210
0.0
220
0.0
230
1.0
  2
SOLID
 70
     1
 71
     1
 91
        1
 92
        1
 93
        4
 72
     1
 10
128.0369576197181
 20
148.1772555159538
 11
128.111993548691
 21
148.202147469737
 72
     1
 10
128.111993548691
 20
148.202147469737
 11
128.0370296332426
 21
148.2272554640942
 72
     1
 10
128.0370296332426
 20
148.2272554640942
 11
128.0369576197181
 21
148.2272190169718
 72
     1
 10
128.0369576197181
 20
148.2272190169718
 11
128.0369576197181
 21
148.1772555159538
 97
        1
330
1BC
 75
     0
 76
     1
 98
        1
 10
-3.777779784897575
 20
3.042039255743845
450
        1
451
        0
460
0.0
461
0.0
452
        1
462
0.0
453
        2
463
0.0
 63
     1
421
 16711680
463
1.0
 63
     1
421
 16711680
470
LINEAR
1001
ACAD
1010
0.0
1020
0.0
1030
0.0
  0
HATCH
  5
211
330
1F
100
AcDbEntity
  8
DETAIL
 62
     1
100
AcDbHatch
 10
0.0
 20
0.0
 30
0.0
210
0.0
220
0.0
230
1.0
  2
SOLID
 70
     1
 71
     1
 91
        1
 92
        1
 93
        5
 72
     1
 10
128.0395624638432
 20
148.0347711206965
 11
128.1145983928162
 21
148.0596630744797
 72
     1
 10
128.1145983928162
 20
148.0596630744797
 11
128.0396344773678
 21
148.084771068837
 72
     1
 10
128.0396344773678
 20
148.084771068837
 11
128.0369576197181
 21
148.0834162711254
 72
     1
 10
128.0369576197181
 20
148.0834162711254
 11
128.0369576197181
 21
148.0753663704127
 72
     1
 10
128.0369576197181
 20
148.0753663704127
 11
128.0395624638432
 21
148.0347711206965
 97
        1
330
1BD
 75
     0
 76
     1
 98
        1
 10
-3.777779784897575
 20
3.042039255743845
450
        1
451
        0
460
0.0
461
0.0
452
        1
462
0.0
453
        2
463
0.0
 63
     1
421
 16711680
463
1.0
 63
     1
421
 16711680
470
LINEAR
1001
ACAD
1010
0.0
1020
0.0
1030
0.0
  0
HATCH
  5
212
330
1F
100
AcDbEntity
  8
DETAIL
 62
     1
100
AcDbHatch
 10
0.0
 20
0.0
 30
0.0
210
0.0
220
0.0
230
1.0
  2
SOLID
 70
     1
 71
     1
 91
        1
 92
        1
 93
        3
 72
     1
 10
129.3129804646628
 20
148.323950830807
 11
129.3292039685404
 21
148.369016119356
 72
     1
 10
129.3292039685404
 20
148.369016119356
 11
129.2511427053573
 21
148.356508554036
 72
     1
 10
129.2511427053573
 20
148.356508554036
 11
129.3129804646628
 21
148.323950830807
 97
        1
330
1BE
 75
     0
 76
     1
 98
        1
 10
-3.777779784897575
 20
3.042039255743845
450
        1
451
        0
460
0.0
461
0.0
452
        1
462
0.0
453
        2
463
0.0
 63
     1
421
 16711680
463
1.0
 63
     1
421
 16711680
470
LINEAR
1001
ACAD
1010
0.0
1020
0.0
1030
0.0
  0
HATCH
  5
213
330
1F
100
AcDbEntity
  8
DETAIL
 62
     1
100
AcDbHatch
 10
0.0
 20
0.0
 30
0.0
210
0.0
220
0.0
230
1.0
  2
SOLID
 70
     1
 71
     1
 91
        1
 92
        1
 93
        4
 72
     1
 10
129.2550721258074
 20
148.2285768941836
 11
129.2656708941831
 21
148.2457825367323
 72
     1
 10
129.2656708941831
 20
148.2457825367323
 11
129.1866139691618
 21
148.2457314863457
 72
     1
 10
129.1866139691618
 20
148.2457314863457
 11
129.2421770749547
 21
148.2041151914848
 72
     1
 10
129.2421770749547
 20
148.2041151914848
 11
129.2550721258074
 21
148.2285768941836
 97
        1
330
1BF
 75
     0
 76
     1
 98
        1
 10
-3.777779784897575
 20
3.042039255743845
450
        1
451
        0
460
0.0
461
0.0
452
        1
462
0.0
453
        2
463
0.0
 63
     1
421
 16711680
463
1.0
 63
     1
421
 16711680
470
LINEAR
1001
ACAD
1010
0.0
1020
0.0
1030
0.0
  0
HATCH
  5
214
330
1F
100
AcDbEntity
  8
DETAIL
 62
     1
100
AcDbHatch
 10
0.0
 20
0.0
 30
0.0
210
0.0
220
0.0
230
1.0
  2
SOLID
 70
     1
 71
     1
 91
        1
 92
        1
 93
        3
 72
     1
 10
129.1901150691235
 20
148.1053544092987
 11
129.2125128654833
 21
148.1478426663764
 72
     1
 10
129.2125128654833
 20
148.1478426663764
 11
129.1334559404619
 21
148.1477916159899
 72
     1
 10
129.1334559404619
 20
148.1477916159899
 11
129.1901150691235
 21
148.1053544092987
 97
        1
330
1C0
 75
     0
 76
     1
 98
        1
 10
-3.777779784897575
 20
3.042039255743845
450
        1
451
        0
460
0.0
461
0.0
452
        1
462
0.0
453
        2
463
0.0
 63
     1
421
 16711680
463
1.0
 63
     1
421
 16711680
470
LINEAR
1001
ACAD
1010
0.0
1020
0.0
1030
0.0
  0
HATCH
  5
215
330
1F
100
AcDbEntity
  8
DETAIL
 62
     1
100
AcDbHatch
 10
0.0
 20
0.0
 30
0.0
210
0.0
220
0.0
230
1.0
  2
SOLID
 70
     1
 71
     1
 91
        1
 92
        1
 93
        5
 72
     1
 10
130.7524990461442
 20
148.3089907542975
 11
130.8241533042807
 21
148.34239236041
 72
     1
 10
130.8241533042807
 20
148.34239236041
 11
130.746788934104
 21
148.3586636304019
 72
     1
 10
130.746788934104
 20
148.3586636304019
 11
130.7444512153494
 21
148.3571172204416
 72
     1
 10
130.7444512153494
 20
148.3571172204416
 11
130.7451226738083
 21
148.3115282467501
 72
     1
 10
130.7451226738083
 20
148.3115282467501
 11
130.7524990461442
 21
148.3089907542975
 97
        1
330
1C1
 75
     0
 76
     1
 98
        1
 10
-3.777779784897575
 20
3.042039255743845
450
        1
451
        0
460
0.0
461
0.0
452
        1
462
0.0
453
        2
463
0.0
 63
     1
421
 16711680
463
1.0
 63
     1
421
 16711680
470
LINEAR
1001
ACAD
1010
0.0
1020
0.0
1030
0.0
  0
HATCH
  5
216
330
1F
100
AcDbEntity
  8
DETAIL
 62
     1
100
AcDbHatch
 10
0.0
 20
0.0
 30
0.0
210
0.0
220
0.0
230
1.0
  2
SOLID
 70
     1
 71
     1
 91
        1
 92
        1
 93
        4
 72
     1
 10
130.7457699857578
 20
148.1985136252477
 11
130.8174242438943
 21
148.2319152313601
 72
     1
 10
130.8174242438943
 20
148.2319152313601
 11
130.7460742351618
 21
148.2469215611908
 72
     1
 10
130.7460742351618
 20
148.2469215611908
 11
130.7463389122402
 21
148.2289511920559
 72
     1
 10
130.7463389122402
 20
148.2289511920559
 11
130.7457699857578
 21
148.1985136252477
 97
        1
330
1C2
 75
     0
 76
     1
 98
        1
 10
-3.777779784897575
 20
3.042039255743845
450
        1
451
        0
460
0.0
461
0.0
452
        1
462
0.0
453
        2
463
0.0
 63
     1
421
 16711680
463
1.0
 63
     1
421
 16711680
470
LINEAR
1001
ACAD
1010
0.0
1020
0.0
1030
0.0
  0
HATCH
  5
217
330
1F
100
AcDbEntity
  8
DETAIL
 62
     1
100
AcDbHatch
 10
0.0
 20
0.0
 30
0.0
210
0.0
220
0.0
230
1.0
  2
SOLID
 70
     1
 71
     1
 91
        1
 92
        1
 93
        4
 72
     1
 10
130.7445584116724
 20
148.0671699708159
 11
130.8162126698089
 21
148.1005715769283
 72
     1
 10
130.8162126698089
 20
148.1005715769283
 11
130.7442223027976
 21
148.1157125868763
 72
     1
 10
130.7442223027976
 20
148.1157125868763
 11
130.7438024521171
 21
148.093250575473
 72
     1
 10
130.7438024521171
 20
148.093250575473
 11
130.7445584116724
 21
148.0671699708159
 97
        1
330
1C3
 75
     0
 76
     1
 98
        1
 10
-3.777779784897575
 20
3.042039255743845
450
        1
451
        0
460
0.0
461
0.0
452
        1
462
0.0
453
        2
463
0.0
 63
     1
421
 16711680
463
1.0
 63
     1
421
 16711680
470
LINEAR
1001
ACAD
1010
0.0
1020
0.0
1030
0.0
  0
HATCH
  5
218
330
1F
100
AcDbEntity
  8
DETAIL
 62
     1
100
AcDbHatch
 10
0.0
 20
0.0
 30
0.0
210
0.0
220
0.0
230
1.0
  2
SOLID
 70
     1
 71
     1
 91
        1
 92
        1
 93
        3
 72
     1
 10
131.8450771631169
 20
148.3253692462844
 11
131.8575827274896
 21
148.3723920385777
 72
     1
 10
131.8575827274896
 20
148.3723920385777
 11
131.7795214643065
 21
148.3598844732578
 72
     1
 10
131.7795214643065
 20
148.3598844732578
 11
131.8450771631169
 21
148.3253692462844
 97
        1
330
1C4
 75
     0
 76
     1
 98
        1
 10
-3.777779784897575
 20
3.042039255743845
450
        1
451
        0
460
0.0
461
0.0
452
        1
462
0.0
453
        2
463
0.0
 63
     1
421
 16711680
463
1.0
 63
     1
421
 16711680
470
LINEAR
1001
ACAD
1010
0.0
1020
0.0
1030
0.0
  0
HATCH
  5
219
330
1F
100
AcDbEntity
  8
DETAIL
 62
     1
100
AcDbHatch
 10
0.0
 20
0.0
 30
0.0
210
0.0
220
0.0
230
1.0
  2
SOLID
 70
     1
 71
     1
 91
        1
 92
        1
 93
        3
 72
     1
 10
131.8118131009329
 20
148.2185982490006
 11
131.8262998532835
 21
148.2645779412437
 72
     1
 10
131.8262998532835
 20
148.2645779412437
 11
131.7482385901004
 21
148.2520703759237
 72
     1
 10
131.7482385901004
 20
148.2520703759237
 11
131.8118131009329
 21
148.2185982490006
 97
        1
330
1C5
 75
     0
 76
     1
 98
        1
 10
-3.777779784897575
 20
3.042039255743845
450
        1
451
        0
460
0.0
461
0.0
452
        1
462
0.0
453
        2
463
0.0
 63
     1
421
 16711680
463
1.0
 63
     1
421
 16711680
470
LINEAR
1001
ACAD
1010
0.0
1020
0.0
1030
0.0
  0
HATCH
  5
21A
330
1F
100
AcDbEntity
  8
DETAIL
 62
     1
100
AcDbHatch
 10
0.0
 20
0.0
 30
0.0
210
0.0
220
0.0
230
1.0
  2
SOLID
 70
     1
 71
     1
 91
        1
 92
        1
 93
        4
 72
     1
 10
131.7859705051739
 20
148.0926015983711
 11
131.7939826222588
 21
148.1351274505913
 72
     1
 10
131.7939826222588
 20
148.1351274505913
 11
131.7159213590757
 21
148.1226198852713
 72
     1
 10
131.7159213590757
 20
148.1226198852713
 11
131.7849898200516
 21
148.086255180897
 72
     1
 10
131.7849898200516
 20
148.086255180897
 11
131.7859705051739
 21
148.0926015983711
 97
        1
330
1C6
 75
     0
 76
     1
 98
        1
 10
-3.777779784897575
 20
3.042039255743845
450
        1
451
        0
460
0.0
461
0.0
452
        1
462
0.0
453
        2
463
0.0
 63
     1
421
 16711680
463
1.0
 63
     1
421
 16711680
470
LINEAR
1001
ACAD
1010
0.0
1020
0.0
1030
0.0
  0
HATCH
  5
21B
330
1F
100
AcDbEntity
  8
DETAIL
 62
     1
100
AcDbHatch
 10
0.0
 20
0.0
 30
0.0
210
0.0
220
0.0
230
1.0
  2
SOLID
 70
     1
 71
     1
 91
        1
 92
        1
 93
        3
 72
     1
 10
133.719994114077
 20
148.2889713894522
 11
133.7964812952586
 21
148.3089641660195
 72
     1
 10
133.7964812952586
 20
148.3089641660195
 11
133.7247854524797
 21
148.3382537273082
 72
     1
 10
133.7247854524797
 20
148.3382537273082
 11
133.719994114077
 21
148.2889713894522
 97
        1
330
1C7
 75
     0
 76
     1
 98
        1
 10
-3.777779784897575
 20
3.042039255743845
450
        1
451
        0
460
0.0
461
0.0
452
        1
462
0.0
453
        2
463
0.0
 63
     1
421
 16711680
463
1.0
 63
     1
421
 16711680
470
LINEAR
1001
ACAD
1010
0.0
1020
0.0
1030
0.0
  0
HATCH
  5
21C
330
1F
100
AcDbEntity
  8
DETAIL
 62
     1
100
AcDbHatch
 10
0.0
 20
0.0
 30
0.0
210
0.0
220
0.0
230
1.0
  2
SOLID
 70
     1
 71
     1
 91
        1
 92
        1
 93
        5
 72
     1
 10
133.7850687055861
 20
148.1677972788524
 11
133.7118832947004
 21
148.1976953663076
 72
     1
 10
133.7118832947004
 20
148.1976953663076
 11
133.7110869682834
 21
148.1973550327176
 72
     1
 10
133.7110869682834
 20
148.1973550327176
 11
133.7087914941039
 21
148.1737444411569
 72
     1
 10
133.7087914941039
 20
148.1737444411569
 11
133.7085815244045
 21
148.1478045022851
 72
     1
 10
133.7085815244045
 20
148.1478045022851
 11
133.7850687055861
 21
148.1677972788524
 97
        1
330
1C8
 75
     0
 76
     1
 98
        1
 10
-3.777779784897575
 20
3.042039255743845
450
        1
451
        0
460
0.0
461
0.0
452
        1
462
0.0
453
        2
463
0.0
 63
     1
421
 16711680
463
1.0
 63
     1
421
 16711680
470
LINEAR
1001
ACAD
1010
0.0
1020
0.0
1030
0.0
  0
HATCH
  5
21D
330
1F
100
AcDbEntity
  8
DETAIL
 62
     1
100
AcDbHatch
 10
0.0
 20
0.0
 30
0.0
210
0.0
220
0.0
230
1.0
  2
SOLID
 70
     1
 71
     1
 91
        1
 92
        1
 93
        4
 72
     1
 10
133.7840278905416
 20
148.0392135893203
 11
133.7108424796558
 21
148.0691116767754
 72
     1
 10
133.7108424796558
 20
148.0691116767754
 11
133.7079344888572
 21
148.0678688611071
 72
     1
 10
133.7079344888572
 20
148.0678688611071
 11
133.7075407093599
 21
148.0192208127529
 72
     1
 10
133.7075407093599
 20
148.0192208127529
 11
133.7840278905416
 21
148.0392135893203
 97
        1
330
1C9
 75
     0
 76
     1
 98
        1
 10
-3.777779784897575
 20
3.042039255743845
450
        1
451
        0
460
0.0
461
0.0
452
        1
462
0.0
453
        2
463
0.0
 63
     1
421
 16711680
463
1.0
 63
     1
421
 16711680
470
LINEAR
1001
ACAD
1010
0.0
1020
0.0
1030
0.0
  0
HATCH
  5
21E
330
1F
100
AcDbEntity
  8
DETAIL
 62
     1
100
AcDbHatch
 10
0.0
 20
0.0
 30
0.0
210
0.0
220
0.0
230
1.0
  2
SOLID
 70
     1
 71
     1
 91
        1
 92
        1
 93
        3
 72
     1
 10
133.7077440255471
 20
147.8655175517123
 11
133.7821212796721
 21
147.8923135228424
 72
     1
 10
133.7821212796721
 20
147.8923135228424
 11
133.707070737918
 21
147.9153408362708
 72
     1
 10
133.707070737918
 20
147.9153408362708
 11
133.7077440255471
 21
147.8655175517123
 97
        1
330
1CA
 75
     0
 76
     1
 98
        1
 10
-3.777779784897575
 20
3.042039255743845
450
        1
451
        0
460
0.0
461
0.0
452
        1
462
0.0
453
        2
463
0.0
 63
     1
421
 16711680
463
1.0
 63
     1
421
 16711680
470
LINEAR
1001
ACAD
1010
0.0
1020
0.0
1030
0.0
  0
HATCH
  5
21F
330
1F
100
AcDbEntity
  8
DETAIL
 62
     1
100
AcDbHatch
 10
0.0
 20
0.0
 30
0.0
210
0.0
220
0.0
230
1.0
  2
SOLID
 70
     1
 71
     1
 91
        1
 92
        1
 93
        3
 72
     1
 10
135.2970233263219
 20
148.2765395520726
 11
135.293673163956
 21
148.3260580841749
 72
     1
 10
135.293673163956
 20
148.3260580841749
 11
135.2212430365479
 21
148.2943740717456
 72
     1
 10
135.2212430365479
 20
148.2943740717456
 11
135.2970233263219
 21
148.2765395520726
 97
        1
330
1CB
 75
     0
 76
     1
 98
        1
 10
-3.777779784897575
 20
3.042039255743845
450
        1
451
        0
460
0.0
461
0.0
452
        1
462
0.0
453
        2
463
0.0
 63
     1
421
 16711680
463
1.0
 63
     1
421
 16711680
470
LINEAR
1001
ACAD
1010
0.0
1020
0.0
1030
0.0
  0
HATCH
  5
220
330
1F
100
AcDbEntity
  8
DETAIL
 62
     1
100
AcDbHatch
 10
0.0
 20
0.0
 30
0.0
210
0.0
220
0.0
230
1.0
  2
SOLID
 70
     1
 71
     1
 91
        1
 92
        1
 93
        4
 72
     1
 10
135.2873617738227
 20
148.1495447332629
 11
135.2880667778873
 21
148.1652898240389
 72
     1
 10
135.2880667778873
 20
148.1652898240389
 11
135.2910318182029
 21
148.1974110941252
 72
     1
 10
135.2910318182029
 20
148.1974110941252
 11
135.2186016907948
 21
148.165727081696
 72
     1
 10
135.2186016907948
 20
148.165727081696
 11
135.2873617738227
 21
148.1495447332629
 97
        1
330
1CC
 75
     0
 76
     1
 98
        1
 10
-3.777779784897575
 20
3.042039255743845
450
        1
451
        0
460
0.0
461
0.0
452
        1
462
0.0
453
        2
463
0.0
 63
     1
421
 16711680
463
1.0
 63
     1
421
 16711680
470
LINEAR
1001
ACAD
1010
0.0
1020
0.0
1030
0.0
  0
HATCH
  5
221
330
1F
100
AcDbEntity
  8
DETAIL
 62
     1
100
AcDbHatch
 10
0.0
 20
0.0
 30
0.0
210
0.0
220
0.0
230
1.0
  2
SOLID
 70
     1
 71
     1
 91
        1
 92
        1
 93
        3
 72
     1
 10
135.2852626087373
 20
147.9947108071226
 11
135.2837743752191
 21
148.0437911433991
 72
     1
 10
135.2837743752191
 20
148.0437911433991
 11
135.2113442478109
 21
148.0121071309698
 72
     1
 10
135.2113442478109
 20
148.0121071309698
 11
135.2852626087373
 21
147.9947108071226
 97
        1
330
1CD
 75
     0
 76
     1
 98
        1
 10
-3.777779784897575
 20
3.042039255743845
450
        1
451
        0
460
0.0
461
0.0
452
        1
462
0.0
453
        2
463
0.0
 63
     1
421
 16711680
463
1.0
 63
     1
421
 16711680
470
LINEAR
1001
ACAD
1010
0.0
1020
0.0
1030
0.0
  0
HATCH
  5
222
330
1F
100
AcDbEntity
  8
DETAIL
 62
     1
100
AcDbHatch
 10
0.0
 20
0.0
 30
0.0
210
0.0
220
0.0
230
1.0
  2
SOLID
 70
     1
 71
     1
 91
        1
 92
        1
 93
        4
 72
     1
 10
135.2883157794462
 20
147.8504531955624
 11
135.2889662428113
 21
147.8725689499754
 72
     1
 10
135.2889662428113
 20
147.8725689499754
 11
135.2881581072013
 21
147.8992203907665
 72
     1
 10
135.2881581072013
 20
147.8992203907665
 11
135.2157279797931
 21
147.8675363783372
 72
     1
 10
135.2157279797931
 20
147.8675363783372
 11
135.2883157794462
 21
147.8504531955624
 97
        1
330
1CE
 75
     0
 76
     1
 98
        1
 10
-3.777779784897575
 20
3.042039255743845
450
        1
451
        0
460
0.0
461
0.0
452
        1
462
0.0
453
        2
463
0.0
 63
     1
421
 16711680
463
1.0
 63
     1
421
 16711680
470
LINEAR
1001
ACAD
1010
0.0
1020
0.0
1030
0.0
  0
HATCH
  5
223
330
1F
100
AcDbEntity
  8
DETAIL
 62
     1
100
AcDbHatch
 10
0.0
 20
0.0
 30
0.0
210
0.0
220
0.0
230
1.0
  2
SOLID
 70
     1
 71
     1
 91
        1
 92
        1
 93
        4
 72
     1
 10
134.2209036693842
 20
148.2653885556221
 11
134.2903320334863
 21
148.2904015849679
 72
     1
 10
134.2903320334863
 20
148.2904015849679
 11
134.2200759601408
 21
148.3119578400377
 72
     1
 10
134.2200759601408
 20
148.3119578400377
 11
134.2202894457174
 21
148.2933845948757
 72
     1
 10
134.2202894457174
 20
148.2933845948757
 11
134.2209036693842
 21
148.2653885556221
 97
        1
330
1D7
 75
     0
 76
     1
 98
        1
 10
-3.777779784897575
 20
3.042039255743845
450
        1
451
        0
460
0.0
461
0.0
452
        1
462
0.0
453
        2
463
0.0
 63
     1
421
 16711680
463
1.0
 63
     1
421
 16711680
470
LINEAR
1001
ACAD
1010
0.0
1020
0.0
1030
0.0
  0
HATCH
  5
224
330
1F
100
AcDbEntity
  8
DETAIL
 62
     1
100
AcDbHatch
 10
0.0
 20
0.0
 30
0.0
210
0.0
220
0.0
230
1.0
  2
SOLID
 70
     1
 71
     1
 91
        1
 92
        1
 93
        4
 72
     1
 10
134.2992096439169
 20
148.1179222966007
 11
134.2236302579389
 21
148.1411118721717
 72
     1
 10
134.2236302579389
 20
148.1411118721717
 11
134.2274948749958
 21
148.1287107175947
 72
     1
 10
134.2274948749958
 20
148.1287107175947
 11
134.224832389792
 21
148.0911263254706
 72
     1
 10
134.224832389792
 20
148.0911263254706
 11
134.2992096439169
 21
148.1179222966007
 97
        1
330
1D8
 75
     0
 76
     1
 98
        1
 10
-3.777779784897575
 20
3.042039255743845
450
        1
451
        0
460
0.0
461
0.0
452
        1
462
0.0
453
        2
463
0.0
 63
     1
421
 16711680
463
1.0
 63
     1
421
 16711680
470
LINEAR
1001
ACAD
1010
0.0
1020
0.0
1030
0.0
  0
HATCH
  5
225
330
1F
100
AcDbEntity
  8
DETAIL
 62
     1
100
AcDbHatch
 10
0.0
 20
0.0
 30
0.0
210
0.0
220
0.0
230
1.0
  2
SOLID
 70
     1
 71
     1
 91
        1
 92
        1
 93
        4
 72
     1
 10
134.2220240934695
 20
147.9329069061348
 11
134.2913624704112
 21
147.9578875157123
 72
     1
 10
134.2913624704112
 20
147.9578875157123
 11
134.2224219547497
 21
147.979040126006
 72
     1
 10
134.2224219547497
 20
147.979040126006
 11
134.2224219547497
 21
147.9587678893506
 72
     1
 10
134.2224219547497
 20
147.9587678893506
 11
134.2220240934695
 21
147.9329069061348
 97
        1
330
1D9
 75
     0
 76
     1
 98
        1
 10
-3.777779784897575
 20
3.042039255743845
450
        1
451
        0
460
0.0
461
0.0
452
        1
462
0.0
453
        2
463
0.0
 63
     1
421
 16711680
463
1.0
 63
     1
421
 16711680
470
LINEAR
1001
ACAD
1010
0.0
1020
0.0
1030
0.0
  0
HATCH
  5
22D
330
1F
100
AcDbEntity
  8
DETAIL
 62
     1
100
AcDbHatch
 10
0.0
 20
0.0
 30
0.0
210
0.0
220
0.0
230
1.0
  2
SOLID
 70
     1
 71
     1
 91
        1
 92
        1
 93
        3
 72
     1
 10
127.7304467698248
 20
146.3095354871426
 11
127.7891968962341
 21
146.362435606678
 72
     1
 10
127.7891968962341
 20
146.362435606678
 11
127.7136761622956
 21
146.355654657848
 72
     1
 10
127.7136761622956
 20
146.355654657848
 11
127.7304467698248
 21
146.3095354871426
 97
        1
330
1CF
 75
     0
 76
     1
 98
        1
 10
-3.777779784897575
 20
3.042039255743845
450
        1
451
        0
460
0.0
461
0.0
452
        1
462
0.0
453
        2
463
0.0
 63
     1
421
 16711680
463
1.0
 63
     1
421
 16711680
470
LINEAR
1001
ACAD
1010
0.0
1020
0.0
1030
0.0
  0
HATCH
  5
22E
330
1F
100
AcDbEntity
  8
DETAIL
 62
     1
100
AcDbHatch
 10
0.0
 20
0.0
 30
0.0
210
0.0
220
0.0
230
1.0
  2
SOLID
 70
     1
 71
     1
 91
        1
 92
        1
 93
        3
 72
     1
 10
127.889806492043
 20
146.1145358496322
 11
127.9280661507759
 21
146.1837182065855
 72
     1
 10
127.9280661507759
 20
146.1837182065855
 11
127.856618184542
 21
146.151628663898
 72
     1
 10
127.856618184542
 20
146.151628663898
 11
127.889806492043
 21
146.1145358496322
 97
        1
330
1D0
 75
     0
 76
     1
 98
        1
 10
-3.777779784897575
 20
3.042039255743845
450
        1
451
        0
460
0.0
461
0.0
452
        1
462
0.0
453
        2
463
0.0
 63
     1
421
 16711680
463
1.0
 63
     1
421
 16711680
470
LINEAR
1001
ACAD
1010
0.0
1020
0.0
1030
0.0
  0
HATCH
  5
22F
330
1F
100
AcDbEntity
  8
DETAIL
 62
     1
100
AcDbHatch
 10
0.0
 20
0.0
 30
0.0
210
0.0
220
0.0
230
1.0
  2
SOLID
 70
     1
 71
     1
 91
        1
 92
        1
 93
        3
 72
     1
 10
128.0988880051446
 20
145.9595405879852
 11
128.1140740977189
 21
146.0371252681243
 72
     1
 10
128.1140740977189
 20
146.0371252681243
 11
128.056303979499
 21
145.985007788348
 72
     1
 10
128.056303979499
 20
145.985007788348
 11
128.0988880051446
 21
145.9595405879852
 97
        1
330
1D1
 75
     0
 76
     1
 98
        1
 10
-3.777779784897575
 20
3.042039255743845
450
        1
451
        0
460
0.0
461
0.0
452
        1
462
0.0
453
        2
463
0.0
 63
     1
421
 16711680
463
1.0
 63
     1
421
 16711680
470
LINEAR
1001
ACAD
1010
0.0
1020
0.0
1030
0.0
  0
HATCH
  5
230
330
1F
100
AcDbEntity
  8
DETAIL
 62
     1
100
AcDbHatch
 10
0.0
 20
0.0
 30
0.0
210
0.0
220
0.0
230
1.0
  2
SOLID
 70
     1
 71
     1
 91
        1
 92
        1
 93
        4
 72
     1
 10
128.3144290392728
 20
145.8548290047827
 11
128.3179280846172
 21
145.9338084747838
 72
     1
 10
128.3179280846172
 20
145.9338084747838
 11
128.267741166341
 21
145.8727243259895
 72
     1
 10
128.267741166341
 20
145.8727243259895
 11
128.2677740454617
 21
145.8724091473782
 72
     1
 10
128.2677740454617
 20
145.8724091473782
 11
128.3144290392728
 21
145.8548290047827
 97
        1
330
1D2
 75
     0
 76
     1
 98
        1
 10
-3.777779784897575
 20
3.042039255743845
450
        1
451
        0
460
0.0
461
0.0
452
        1
462
0.0
453
        2
463
0.0
 63
     1
421
 16711680
463
1.0
 63
     1
421
 16711680
470
LINEAR
1001
ACAD
1010
0.0
1020
0.0
1030
0.0
  0
HATCH
  5
231
330
1F
100
AcDbEntity
  8
DETAIL
 62
     1
100
AcDbHatch
 10
0.0
 20
0.0
 30
0.0
210
0.0
220
0.0
230
1.0
  2
SOLID
 70
     1
 71
     1
 91
        1
 92
        1
 93
        3
 72
     1
 10
128.5163159141857
 20
145.797264090701
 11
128.5088467777292
 21
145.8759674070261
 72
     1
 10
128.5088467777292
 20
145.8759674070261
 11
128.4682329260142
 21
145.8095580365404
 72
     1
 10
128.4682329260142
 20
145.8095580365404
 11
128.5163159141857
 21
145.797264090701
 97
        1
330
1D3
 75
     0
 76
     1
 98
        1
 10
-3.777779784897575
 20
3.042039255743845
450
        1
451
        0
460
0.0
461
0.0
452
        1
462
0.0
453
        2
463
0.0
 63
     1
421
 16711680
463
1.0
 63
     1
421
 16711680
470
LINEAR
1001
ACAD
1010
0.0
1020
0.0
1030
0.0
  0
HATCH
  5
232
330
1F
100
AcDbEntity
  8
DETAIL
 62
     1
100
AcDbHatch
 10
0.0
 20
0.0
 30
0.0
210
0.0
220
0.0
230
1.0
  2
SOLID
 70
     1
 71
     1
 91
        1
 92
        1
 93
        3
 72
     1
 10
128.7269061443923
 20
145.7456566781339
 11
128.7194370079357
 21
145.8243599944589
 72
     1
 10
128.7194370079357
 20
145.8243599944589
 11
128.678413952728
 21
145.7572815186014
 72
     1
 10
128.678413952728
 20
145.7572815186014
 11
128.7269061443923
 21
145.7456566781339
 97
        1
330
1D4
 75
     0
 76
     1
 98
        1
 10
-3.777779784897575
 20
3.042039255743845
450
        1
451
        0
460
0.0
461
0.0
452
        1
462
0.0
453
        2
463
0.0
 63
     1
421
 16711680
463
1.0
 63
     1
421
 16711680
470
LINEAR
1001
ACAD
1010
0.0
1020
0.0
1030
0.0
  0
HATCH
  5
233
330
1F
100
AcDbEntity
  8
DETAIL
 62
     1
100
AcDbHatch
 10
0.0
 20
0.0
 30
0.0
210
0.0
220
0.0
230
1.0
  2
SOLID
 70
     1
 71
     1
 91
        1
 92
        1
 93
        4
 72
     1
 10
128.9065316798889
 20
145.7406169619305
 11
128.8668297757534
 21
145.808981856489
 72
     1
 10
128.8668297757534
 20
145.808981856489
 11
128.8575723623267
 21
145.7304687983609
 72
     1
 10
128.8575723623267
 20
145.7304687983609
 11
128.8576594667494
 21
145.7303598307778
 72
     1
 10
128.8576594667494
 20
145.7303598307778
 11
128.9065316798889
 21
145.7406169619305
 97
        1
330
1D5
 75
     0
 76
     1
 98
        1
 10
-3.777779784897575
 20
3.042039255743845
450
        1
451
        0
460
0.0
461
0.0
452
        1
462
0.0
453
        2
463
0.0
 63
     1
421
 16711680
463
1.0
 63
     1
421
 16711680
470
LINEAR
1001
ACAD
1010
0.0
1020
0.0
1030
0.0
  0
LWPOLYLINE
  5
4B1
330
1F
100
AcDbEntity
  8
SECTION POINT
 62
     5
100
AcDbPolyline
 90
        9
 70
     0
 43
0.0
 10
135.0897654437703
 20
151.7286936152897
 10
135.1697654437704
 20
151.7286936152897
 10
135.1297654437704
 20
151.7286936152897
 10
135.1297654437704
 20
151.6886936152897
 10
135.1297654437704
 20
151.7686936152897
 10
135.1297654437704
 20
151.7286936152897
 10
135.1697654437704
 20
151.7286936152897
 10
135.1497654437703
 20
151.7286936152897
 10
135.1497654437703
 20
151.7286936152897
  0
CIRCLE
  5
4B2
330
1F
100
AcDbEntity
  8
SECTION POINT
 62
     5
100
AcDbCircle
 10
135.1297654437704
 20
151.7286936152897
 30
0.0
 40
0.0200000000000102
  0
LWPOLYLINE
  5
4B3
330
1F
100
AcDbEntity
  8
CONTEXT 2
 62
     1
100
AcDbPolyline
 90
        6
 70
     0
 43
0.0
 10
135.4284864372837
 20
151.7286936152897
 10
135.5084864372837
 20
151.7286936152897
 10
135.4684864372837
 20
151.7286936152897
 10
135.4284864372837
 20
151.6886936152897
 10
135.4684864372837
 20
151.7286936152897
 10
135.5084864372837
 20
151.6886936152897
  0
TEXT
  5
4B4
330
1F
100
AcDbEntity
  8
CONTEXT 2
 62
     1
100
AcDbText
 10
135.4161851818155
 20
151.7338866608378
 30
0.0
 40
0.025
  1
106.81
  7
Text
 72
     1
 11
135.4696360996628
 21
151.7244191691248
 31
0.0
100
AcDbText
 73
     1
  0
TEXT
  5
4B5
330
1F
100
AcDbEntity
  8
Co-ord
100
AcDbText
 10
135.1697654437704
 20
151.6636936152897
 30
0.0
 40
0.025
  1
N 258883.27
  7
Text
 11
135.1697654437704
 21
151.6886936152897
 31
0.0
100
AcDbText
 73
     3
  0
TEXT
  5
4B8
330
1F
100
AcDbEntity
  8
Co-ord
100
AcDbText
 10
135.1697654437704
 20
151.6981611070027
 30
0.0
 40
0.025
  1
E 442892.09
  7
Text
 11
135.1697654437704
 21
151.6886936152897
 31
0.0
100
AcDbText
 73
     1
  0
TEXT
  5
4B9
330
1F
100
AcDbEntity
  8
Annotatons
100
AcDbText
 10
135.1697654437704
 20
151.7876285987157
 30
0.0
 40
0.05
  1
N
  7
Text
 11
135.1697654437704
 21
151.7686936152897
 31
0.0
100
AcDbText
 73
     1
  0
LWPOLYLINE
  5
53C
330
1F
100
AcDbEntity
  8
SECTION POINT
 62
     5
100
AcDbPolyline
 90
        9
 70
     0
 43
0.0
 10
133.1957867734176
 20
151.7286936152897
 10
133.2757867734176
 20
151.7286936152897
 10
133.2357867734176
 20
151.7286936152897
 10
133.2357867734176
 20
151.6886936152897
 10
133.2357867734176
 20
151.7686936152897
 10
133.2357867734176
 20
151.7286936152897
 10
133.2757867734176
 20
151.7286936152897
 10
133.2557867734176
 20
151.7286936152897
 10
133.2557867734176
 20
151.7286936152897
  0
CIRCLE
  5
53D
330
1F
100
AcDbEntity
  8
SECTION POINT
 62
     5
100
AcDbCircle
 10
133.2357867734176
 20
151.7286936152897
 30
0.0
 40
0.0200000000000102
  0
TEXT
  5
543
330
1F
100
AcDbEntity
  8
Co-ord
100
AcDbText
 10
132.9975693046119
 20
151.6981611070027
 30
0.0
 40
0.025
  1
E 442891.57
  7
Text
 72
     2
 11
133.1957867734176
 21
151.6886936152897
 31
0.0
100
AcDbText
 73
     1
  0
TEXT
  5
544
330
1F
100
AcDbEntity
  8
Co-ord
100
AcDbText
 10
132.995642920023
 20
151.6636936152897
 30
0.0
 40
0.025
  1
N 258881.46
  7
Text
 72
     2
 11
133.1957867734176
 21
151.6886936152897
 31
0.0
100
AcDbText
 73
     3
  0
TEXT
  5
547
330
1F
100
AcDbEntity
  8
Annotatons
100
AcDbText
 10
133.14920329154
 20
151.7876285987157
 30
0.0
 40
0.05
  1
S
  7
Text
 72
     2
 11
133.1957867734176
 21
151.7686936152897
 31
0.0
100
AcDbText
 73
     1
  0
TEXT
  5
548
330
1F
100
AcDbEntity
  8
SECTION POINT
100
AcDbText
 10
133.0888932467138
 20
151.7381611070028
 30
0.0
 40
0.025
  1
sp82.1
  7
Text
 72
     2
 11
133.1938186618559
 21
151.7286936152897
 31
0.0
100
AcDbText
 73
     1
  0
TEXT
  5
549
330
1F
100
AcDbEntity
  8
SECTION POINT
100
AcDbText
 10
135.1697654437704
 20
151.7381611070028
 30
0.0
 40
0.025
  1
sp82.2
  7
Text
 11
135.1697654437704
 21
151.7286936152897
 31
0.0
100
AcDbText
 73
     1
  0
LWPOLYLINE
  5
54B
330
1F
100
AcDbEntity
  8
CONTEXT 1
  6
DASHDOT
 62
     1
 48
0.005
100
AcDbPolyline
 90
        2
 70
     0
 43
0.0
 10
133.2357867734176
 20
151.7686936152897
 10
133.2361541179596
 20
152.0442480024851
  0
LWPOLYLINE
  5
54C
330
1F
100
AcDbEntity
  8
CONTEXT 1
  6
DASHDOT
 62
     1
 48
0.005
100
AcDbPolyline
 90
        2
 70
     0
 43
0.0
 10
135.1297654437704
 20
151.7686936152897
 10
135.1297100247012
 20
152.0867082143851
  0
TEXT
  5
562
330
1F
100
AcDbEntity
  8
Annotatons
100
AcDbText
 10
134.8414788899979
 20
151.3703622958343
 30
0.0
 40
0.05
  1
[1503]
  7
Text
 72
     1
 11
134.938648730821
 21
151.3514273124082
 31
0.0
100
AcDbText
 73
     1
  0
TEXT
  5
563
330
1F
100
AcDbEntity
  8
Annotatons
100
AcDbText
 10
134.2310415937983
 20
151.5831484215206
 30
0.0
 40
0.05
  1
(1504)
  7
Text
 72
     1
 11
134.3320642037993
 21
151.5642134380946
 31
0.0
100
AcDbText
 73
     1
  0
LINE
  5
564
330
1F
100
AcDbEntity
  8
Annotatons
100
AcDbLine
 10
134.8389507764784
 20
151.3886855992585
 30
0.0
 11
134.7370758422887
 21
151.4930809876619
 31
0.0
  0
TEXT
  5
578
330
1F
100
AcDbEntity
  8
Annotatons
100
AcDbText
 10
134.1591424606747
 20
151.8852228349803
 30
0.0
 40
0.05
  1
(1501)
  7
Text
 72
     1
 11
134.2601650706756
 21
151.8662878515543
 31
0.0
100
AcDbText
 73
     1
  0
LWPOLYLINE
  5
5A6
330
1F
100
AcDbEntity
  8
CONTEXT 1
100
AcDbPolyline
 90
        5
 70
     0
 43
0.0
 10
136.9103950625733
 20
151.8967681524503
 10
137.4908914771533
 20
151.9131201641286
 10
138.4073858575509
 20
151.9347940177191
 10
138.8043183138569
 20
151.9392387120838
 10
138.8043183138569
 20
151.9392387120838
  0
LWPOLYLINE
  5
5A7
330
1F
100
AcDbEntity
  8
CONTEXT 1
100
AcDbPolyline
 90
        5
 70
     0
 43
0.0
 10
138.813776417869
 20
151.6329565789891
 10
138.4273625709986
 20
151.6071956558644
 10
138.0231142388881
 20
151.5953059990376
 10
137.3645774195272
 20
151.5843684436364
 10
136.9103950625733
 20
151.563478398903
  0
LWPOLYLINE
  5
5A8
330
1F
100
AcDbEntity
  8
CONTEXT 1
100
AcDbPolyline
 90
       18
 70
     0
 43
0.0
 10
138.6408275740949
 20
151.6214266560708
 10
138.5976339129379
 20
151.5210758371285
 10
138.5367588699847
 20
151.439909113191
 10
138.4215778194753
 20
151.3528966413137
 10
138.3154477702252
 20
151.2876571035003
 10
138.196234144442
 20
151.2660971924545
 10
137.9616115830602
 20
151.2546831219007
 10
137.8360568069695
 20
151.2635607323314
 10
137.7576920788241
 20
151.2732468394263
 10
137.6400003291147
 20
151.3341218823794
 10
137.4918710579288
 20
151.4223906946614
 10
137.4637361666578
 20
151.4242359694009
 10
137.3639010962146
 20
151.4250476366403
 10
137.2121193224515
 20
151.4307293073159
 10
137.1301409312747
 20
151.4493976538215
 10
137.0814408969122
 20
151.4761826727209
 10
137.0538442107735
 20
151.5159543674503
 10
137.02301869208
 20
151.5683328226295
  0
LWPOLYLINE
  5
5A9
330
1F
100
AcDbEntity
  8
SECTION POINT
 62
     5
100
AcDbPolyline
 90
        9
 70
     0
 43
0.0
 10
138.764373732926
 20
151.5812241129885
 10
138.844373732926
 20
151.5812241129885
 10
138.8043737329261
 20
151.5812241129885
 10
138.8043737329261
 20
151.5412241129884
 10
138.8043737329261
 20
151.6212241129884
 10
138.8043737329261
 20
151.5812241129885
 10
138.844373732926
 20
151.5812241129885
 10
138.824373732926
 20
151.5812241129885
 10
138.824373732926
 20
151.5812241129885
  0
CIRCLE
  5
5AA
330
1F
100
AcDbEntity
  8
SECTION POINT
 62
     5
100
AcDbCircle
 10
138.8043737329261
 20
151.5812241129885
 30
0.0
 40
0.0200000000000102
  0
LWPOLYLINE
  5
5AB
330
1F
100
AcDbEntity
  8
aOD
 62
     1
100
AcDbPolyline
 90
        6
 70
     0
 43
0.0
 10
139.1030947264394
 20
151.5812241129885
 10
139.1830947264394
 20
151.5812241129885
 10
139.1430947264394
 20
151.5812241129885
 10
139.1030947264394
 20
151.5412241129884
 10
139.1430947264394
 20
151.5812241129885
 10
139.1830947264394
 20
151.5412241129884
  0
TEXT
  5
5AC
330
1F
100
AcDbEntity
  8
aOD
 62
     1
100
AcDbText
 10
139.0907934709712
 20
151.5864171585366
 30
0.0
 40
0.025
  1
106.81
  7
Text
 72
     1
 11
139.1442443888184
 21
151.5769496668235
 31
0.0
100
AcDbText
 73
     1
  0
TEXT
  5
5AD
330
1F
100
AcDbEntity
  8
Co-ord
100
AcDbText
 10
138.844373732926
 20
151.5162241129884
 30
0.0
 40
0.025
  1
N 258883.27
  7
Text
 11
138.844373732926
 21
151.5412241129884
 31
0.0
100
AcDbText
 73
     3
  0
TEXT
  5
5AE
330
1F
100
AcDbEntity
  8
Co-ord
100
AcDbText
 10
138.844373732926
 20
151.5506916047015
 30
0.0
 40
0.025
  1
E 442892.09
  7
Text
 11
138.844373732926
 21
151.5412241129884
 31
0.0
100
AcDbText
 73
     1
  0
TEXT
  5
5AF
330
1F
100
AcDbEntity
  8
Annotatons
100
AcDbText
 10
138.844373732926
 20
151.6401590964145
 30
0.0
 40
0.05
  1
N
  7
Text
 11
138.844373732926
 21
151.6212241129884
 31
0.0
100
AcDbText
 73
     1
  0
LWPOLYLINE
  5
5B0
330
1F
100
AcDbEntity
  8
SECTION POINT
 62
     5
100
AcDbPolyline
 90
        9
 70
     0
 43
0.0
 10
136.8703950625733
 20
151.5812241129885
 10
136.9503950625733
 20
151.5812241129885
 10
136.9103950625733
 20
151.5812241129885
 10
136.9103950625733
 20
151.5412241129884
 10
136.9103950625733
 20
151.6212241129884
 10
136.9103950625733
 20
151.5812241129885
 10
136.9503950625733
 20
151.5812241129885
 10
136.9303950625733
 20
151.5812241129885
 10
136.9303950625733
 20
151.5812241129885
  0
CIRCLE
  5
5B1
330
1F
100
AcDbEntity
  8
SECTION POINT
 62
     5
100
AcDbCircle
 10
136.9103950625733
 20
151.5812241129885
 30
0.0
 40
0.0200000000000102
  0
TEXT
  5
5B2
330
1F
100
AcDbEntity
  8
Co-ord
100
AcDbText
 10
136.6721775937676
 20
151.5506916047015
 30
0.0
 40
0.025
  1
E 442891.57
  7
Text
 72
     2
 11
136.8703950625733
 21
151.5412241129884
 31
0.0
100
AcDbText
 73
     1
  0
TEXT
  5
5B3
330
1F
100
AcDbEntity
  8
Co-ord
100
AcDbText
 10
136.6702512091787
 20
151.5162241129884
 30
0.0
 40
0.025
  1
N 258881.46
  7
Text
 72
     2
 11
136.8703950625733
 21
151.5412241129884
 31
0.0
100
AcDbText
 73
     3
  0
TEXT
  5
5B4
330
1F
100
AcDbEntity
  8
Annotatons
100
AcDbText
 10
136.8238115806957
 20
151.6401590964145
 30
0.0
 40
0.05
  1
S
  7
Text
 72
     2
 11
136.8703950625733
 21
151.6212241129884
 31
0.0
100
AcDbText
 73
     1
  0
TEXT
  5
5B5
330
1F
100
AcDbEntity
  8
SECTION POINT
100
AcDbText
 10
136.7635015358695
 20
151.5906916047015
 30
0.0
 40
0.025
  1
sp82.1
  7
Text
 72
     2
 11
136.8684269510116
 21
151.5812241129885
 31
0.0
100
AcDbText
 73
     1
  0
TEXT
  5
5B6
330
1F
100
AcDbEntity
  8
SECTION POINT
100
AcDbText
 10
138.844373732926
 20
151.5906916047015
 30
0.0
 40
0.025
  1
sp82.2
  7
Text
 11
138.844373732926
 21
151.5812241129885
 31
0.0
100
AcDbText
 73
     1
  0
LWPOLYLINE
  5
5B7
330
1F
100
AcDbEntity
  8
CONTEXT 1
  6
DASHDOT
 48
0.005
100
AcDbPolyline
 90
        2
 70
     0
 43
0.0
 10
136.9103950625733
 20
151.6212241129884
 10
136.9107624071153
 20
151.8967785001838
  0
LWPOLYLINE
  5
5B8
330
1F
100
AcDbEntity
  8
CONTEXT 1
  6
DASHDOT
 48
0.005
100
AcDbPolyline
 90
        2
 70
     0
 43
0.0
 10
138.8043737329261
 20
151.6212241129884
 10
138.8043183138569
 20
151.9392387120838
  0
TEXT
  5
5B9
330
1F
100
AcDbEntity
  8
Annotatons
100
AcDbText
 10
138.5160871791536
 20
151.222892793533
 30
0.0
 40
0.05
  1
[1503]
  7
Text
 72
     1
 11
138.6132570199767
 21
151.203957810107
 31
0.0
100
AcDbText
 73
     1
  0
TEXT
  5
5BA
330
1F
100
AcDbEntity
  8
Annotatons
100
AcDbText
 10
137.905649882954
 20
151.4356789192194
 30
0.0
 40
0.05
  1
(1504)
  7
Text
 72
     1
 11
138.0066724929549
 21
151.4167439357933
 31
0.0
100
AcDbText
 73
     1
  0
LINE
  5
5BB
330
1F
100
AcDbEntity
  8
Annotatons
100
AcDbLine
 10
138.513559065634
 20
151.2412160969572
 30
0.0
 11
138.4116841314444
 21
151.3456114853606
 31
0.0
  0
TEXT
  5
5BC
330
1F
100
AcDbEntity
  8
Annotatons
100
AcDbText
 10
137.8337507498304
 20
151.737753332679
 30
0.0
 40
0.05
  1
(1501)
  7
Text
 72
     1
 11
137.9347733598313
 21
151.718818349253
 31
0.0
100
AcDbText
 73
     1
  0
LWPOLYLINE
  5
5DC
330
1F
100
AcDbEntity
  8
DRAWING POINT
 62
     5
100
AcDbPolyline
 90
        9
 70
     0
 43
0.0
 10
127.5921995185711
 20
148.4034771176476
 10
127.6721995185711
 20
148.4034771176476
 10
127.6321995185711
 20
148.4034771176476
 10
127.6321995185711
 20
148.3634771176476
 10
127.6321995185711
 20
148.4434771176476
 10
127.6321995185711
 20
148.4034771176476
 10
127.6721995185711
 20
148.4034771176476
 10
127.6521995185711
 20
148.4034771176476
 10
127.6521995185711
 20
148.4034771176476
  0
CIRCLE
  5
5DD
330
1F
100
AcDbEntity
  8
DRAWING POINT
 62
     5
100
AcDbCircle
 10
127.6321995185711
 20
148.4034771176476
 30
0.0
 40
0.0200000000000102
  0
LWPOLYLINE
  5
5DE
330
1F
100
AcDbEntity
  8
DRAWING POINT
 62
     5
100
AcDbPolyline
 90
        9
 70
     0
 43
0.0
 10
127.5921995185711
 20
148.4034771176476
 10
127.6721995185711
 20
148.4034771176476
 10
127.6321995185711
 20
148.4034771176476
 10
127.6321995185711
 20
148.3634771176476
 10
127.6321995185711
 20
148.4434771176476
 10
127.6321995185711
 20
148.4034771176476
 10
127.6721995185711
 20
148.4034771176476
 10
127.6521995185711
 20
148.4034771176476
 10
127.6521995185711
 20
148.4034771176476
  0
CIRCLE
  5
5DF
330
1F
100
AcDbEntity
  8
DRAWING POINT
 62
     5
100
AcDbCircle
 10
127.6321995185711
 20
148.4034771176476
 30
0.0
 40
0.0200000000000102
  0
LWPOLYLINE
  5
5E0
330
1F
100
AcDbEntity
  8
DRAWING POINT
 62
     5
100
AcDbPolyline
 90
        9
 70
     0
 43
0.0
 10
129.3871671384438
 20
148.4037545429736
 10
129.4671671384438
 20
148.4037545429736
 10
129.4271671384438
 20
148.4037545429736
 10
129.4271671384438
 20
148.3637545429736
 10
129.4271671384438
 20
148.4437545429736
 10
129.4271671384438
 20
148.4037545429736
 10
129.4671671384438
 20
148.4037545429736
 10
129.4471671384438
 20
148.4037545429736
 10
129.4471671384438
 20
148.4037545429736
  0
CIRCLE
  5
5E1
330
1F
100
AcDbEntity
  8
DRAWING POINT
 62
     5
100
AcDbCircle
 10
129.4271671384438
 20
148.4037545429736
 30
0.0
 40
0.0200000000000102
  0
TEXT
  5
5E2
330
1F
100
AcDbEntity
  8
Co-ord
100
AcDbText
 10
129.4671671384438
 20
148.3387545429736
 30
0.0
 40
0.025
  1
N 258895.06
  7
Text
 11
129.4671671384438
 21
148.3637545429736
 31
0.0
100
AcDbText
 73
     3
  0
TEXT
  5
5E3
330
1F
100
AcDbEntity
  8
Co-ord
100
AcDbText
 10
127.3939820497654
 20
148.3729446093606
 30
0.0
 40
0.025
  1
E 442964.58
  7
Text
 72
     2
 11
127.5921995185711
 21
148.3634771176476
 31
0.0
100
AcDbText
 73
     1
  0
TEXT
  5
5E4
330
1F
100
AcDbEntity
  8
DETAIL
100
AcDbText
 10
127.3920556651765
 20
148.3384771176476
 30
0.0
 40
0.025
  1
N 258883.23
  7
Text
 72
     2
 11
127.5921995185711
 21
148.3634771176476
 31
0.0
100
AcDbText
 73
     3
  0
TEXT
  5
5E5
330
1F
100
AcDbEntity
  8
Co-ord
100
AcDbText
 10
129.4671671384438
 20
148.3732220346866
 30
0.0
 40
0.025
  1
E 442916.81
  7
Text
 11
129.4671671384438
 21
148.3637545429736
 31
0.0
100
AcDbText
 73
     1
  0
TEXT
  5
5E6
330
1F
100
AcDbEntity
  8
DRAWING POINT
100
AcDbText
 10
129.4671671384438
 20
148.4132220346866
 30
0.0
 40
0.025
  1
dp63.2
  7
Text
 11
129.4671671384438
 21
148.4037545429736
 31
0.0
100
AcDbText
 73
     1
  0
TEXT
  5
5E7
330
1F
100
AcDbEntity
  8
DRAWING POINT
100
AcDbText
 10
127.4852976828767
 20
148.4129446093606
 30
0.0
 40
0.025
  1
dp63.1
  7
Text
 72
     2
 11
127.5921995185711
 21
148.4034771176476
 31
0.0
100
AcDbText
 73
     1
  0
TEXT
  5
5FD
330
1F
100
AcDbEntity
  8
Annotatons
100
AcDbText
 10
128.5966701139131
 20
148.5531125418801
 30
0.0
 40
0.05
  1
(1704)
  7
Text
 72
     1
 11
128.697692723914
 21
148.534177558454
 31
0.0
100
AcDbText
 73
     1
  0
TEXT
  5
5FE
330
1F
100
AcDbEntity
  8
Annotatons
100
AcDbText
 10
129.3629829445643
 20
148.1516809333328
 30
0.0
 40
0.05
  1
[1703]
  7
Text
 72
     1
 11
129.4601527853874
 21
148.1327459499068
 31
0.0
100
AcDbText
 73
     1
  0
LINE
  5
5FF
330
1F
100
AcDbEntity
  8
DETAIL
100
AcDbLine
 10
129.3503585133186
 20
148.1694718482026
 30
0.0
 11
129.2295346808753
 21
148.1801327745947
 31
0.0
  0
LWPOLYLINE
  5
61F
330
1F
100
AcDbEntity
  8
DRAWING POINT
 62
     5
100
AcDbPolyline
 90
        9
 70
     0
 43
0.0
 10
130.5774744520107
 20
148.4011652915357
 10
130.6574744520107
 20
148.4011652915357
 10
130.6174744520107
 20
148.4011652915357
 10
130.6174744520107
 20
148.3611652915357
 10
130.6174744520107
 20
148.4411652915357
 10
130.6174744520107
 20
148.4011652915357
 10
130.6574744520107
 20
148.4011652915357
 10
130.6374744520107
 20
148.4011652915357
 10
130.6374744520107
 20
148.4011652915357
  0
CIRCLE
  5
620
330
1F
100
AcDbEntity
  8
DRAWING POINT
 62
     5
100
AcDbCircle
 10
130.6174744520107
 20
148.4011652915357
 30
0.0
 40
0.0200000000000102
  0
LWPOLYLINE
  5
621
330
1F
100
AcDbEntity
  8
DRAWING POINT
 62
     5
100
AcDbPolyline
 90
        9
 70
     0
 43
0.0
 10
130.5774744520107
 20
148.4011652915357
 10
130.6574744520107
 20
148.4011652915357
 10
130.6174744520107
 20
148.4011652915357
 10
130.6174744520107
 20
148.3611652915357
 10
130.6174744520107
 20
148.4411652915357
 10
130.6174744520107
 20
148.4011652915357
 10
130.6574744520107
 20
148.4011652915357
 10
130.6374744520107
 20
148.4011652915357
 10
130.6374744520107
 20
148.4011652915357
  0
CIRCLE
  5
622
330
1F
100
AcDbEntity
  8
DRAWING POINT
 62
     5
100
AcDbCircle
 10
130.6174744520107
 20
148.4011652915357
 30
0.0
 40
0.0200000000000102
  0
LWPOLYLINE
  5
623
330
1F
100
AcDbEntity
  8
DRAWING POINT
 62
     5
100
AcDbPolyline
 90
        9
 70
     0
 43
0.0
 10
131.8711398582225
 20
148.4011652915357
 10
131.9511398582225
 20
148.4011652915357
 10
131.9111398582225
 20
148.4011652915357
 10
131.9111398582225
 20
148.3611652915357
 10
131.9111398582225
 20
148.4411652915357
 10
131.9111398582225
 20
148.4011652915357
 10
131.9511398582225
 20
148.4011652915357
 10
131.9311398582225
 20
148.4011652915357
 10
131.9311398582225
 20
148.4011652915357
  0
CIRCLE
  5
624
330
1F
100
AcDbEntity
  8
DRAWING POINT
 62
     5
100
AcDbCircle
 10
131.9111398582225
 20
148.4011652915357
 30
0.0
 40
0.0200000000000102
  0
TEXT
  5
625
330
1F
100
AcDbEntity
  8
Co-ord
100
AcDbText
 10
131.9511398582225
 20
148.3361652915357
 30
0.0
 40
0.025
  1
N 258895.39
  7
Text
 11
131.9511398582225
 21
148.3611652915357
 31
0.0
100
AcDbText
 73
     3
  0
TEXT
  5
626
330
1F
100
AcDbEntity
  8
Co-ord
100
AcDbText
 10
130.379256983205
 20
148.3706327832487
 30
0.0
 40
0.025
  1
E 442964.57
  7
Text
 72
     2
 11
130.5774744520107
 21
148.3611652915357
 31
0.0
100
AcDbText
 73
     1
  0
TEXT
  5
627
330
1F
100
AcDbEntity
  8
Co-ord
100
AcDbText
 10
130.3773305986161
 20
148.3361652915357
 30
0.0
 40
0.025
  1
N 258869.01
  7
Text
 72
     2
 11
130.5774744520107
 21
148.3611652915357
 31
0.0
100
AcDbText
 73
     3
  0
TEXT
  5
628
330
1F
100
AcDbEntity
  8
Co-ord
100
AcDbText
 10
131.9511398582225
 20
148.3706327832487
 30
0.0
 40
0.025
  1
E 442963.41
  7
Text
 11
131.9511398582225
 21
148.3611652915357
 31
0.0
100
AcDbText
 73
     1
  0
TEXT
  5
629
330
1F
100
AcDbEntity
  8
DRAWING POINT
100
AcDbText
 10
131.9511398582225
 20
148.4106327832487
 30
0.0
 40
0.025
  1
dp65.2
  7
Text
 11
131.9511398582225
 21
148.4011652915357
 31
0.0
100
AcDbText
 73
     1
  0
TEXT
  5
62A
330
1F
100
AcDbEntity
  8
DRAWING POINT
100
AcDbText
 10
130.4705726163163
 20
148.4106327832487
 30
0.0
 40
0.025
  1
dp65.1
  7
Text
 72
     2
 11
130.5774744520107
 21
148.4011652915357
 31
0.0
100
AcDbText
 73
     1
  0
LWPOLYLINE
  5
64A
330
1F
100
AcDbEntity
  8
DRAWING POINT
 62
     5
100
AcDbPolyline
 90
        9
 70
     0
 43
0.0
 10
133.5817372565171
 20
148.4136121186488
 10
133.6617372565171
 20
148.4136121186488
 10
133.6217372565171
 20
148.4136121186488
 10
133.6217372565171
 20
148.3736121186488
 10
133.6217372565171
 20
148.4536121186488
 10
133.6217372565171
 20
148.4136121186488
 10
133.6617372565171
 20
148.4136121186488
 10
133.6417372565171
 20
148.4136121186488
 10
133.6417372565171
 20
148.4136121186488
  0
CIRCLE
  5
64B
330
1F
100
AcDbEntity
  8
DRAWING POINT
 62
     5
100
AcDbCircle
 10
133.6217372565171
 20
148.4136121186488
 30
0.0
 40
0.0200000000000102
  0
LWPOLYLINE
  5
64C
330
1F
100
AcDbEntity
  8
DRAWING POINT
 62
     5
100
AcDbPolyline
 90
        9
 70
     0
 43
0.0
 10
133.5817372565171
 20
148.4136121186488
 10
133.6617372565171
 20
148.4136121186488
 10
133.6217372565171
 20
148.4136121186488
 10
133.6217372565171
 20
148.3736121186488
 10
133.6217372565171
 20
148.4536121186488
 10
133.6217372565171
 20
148.4136121186488
 10
133.6617372565171
 20
148.4136121186488
 10
133.6417372565171
 20
148.4136121186488
 10
133.6417372565171
 20
148.4136121186488
  0
CIRCLE
  5
64D
330
1F
100
AcDbEntity
  8
DRAWING POINT
 62
     5
100
AcDbCircle
 10
133.6217372565171
 20
148.4136121186488
 30
0.0
 40
0.0200000000000102
  0
LWPOLYLINE
  5
64E
330
1F
100
AcDbEntity
  8
DRAWING POINT
 62
     5
100
AcDbPolyline
 90
        9
 70
     0
 43
0.0
 10
135.3859867970779
 20
148.4136121186488
 10
135.4659867970779
 20
148.4136121186488
 10
135.4259867970779
 20
148.4136121186488
 10
135.4259867970779
 20
148.3736121186488
 10
135.4259867970779
 20
148.4536121186488
 10
135.4259867970779
 20
148.4136121186488
 10
135.4659867970779
 20
148.4136121186488
 10
135.4459867970779
 20
148.4136121186488
 10
135.4459867970779
 20
148.4136121186488
  0
CIRCLE
  5
64F
330
1F
100
AcDbEntity
  8
DRAWING POINT
 62
     5
100
AcDbCircle
 10
135.4259867970779
 20
148.4136121186488
 30
0.0
 40
0.0200000000000102
  0
TEXT
  5
650
330
1F
100
AcDbEntity
  8
Co-ord
100
AcDbText
 10
135.4659867970779
 20
148.3486121186488
 30
0.0
 40
0.025
  1
N 258883.27
  7
Text
 11
135.4659867970779
 21
148.3736121186488
 31
0.0
100
AcDbText
 73
     3
  0
TEXT
  5
651
330
1F
100
AcDbEntity
  8
Co-ord
100
AcDbText
 10
133.3835197877114
 20
148.3830796103618
 30
0.0
 40
0.025
  1
E 442891.57
  7
Text
 72
     2
 11
133.5817372565171
 21
148.3736121186488
 31
0.0
100
AcDbText
 73
     1
  0
TEXT
  5
652
330
1F
100
AcDbEntity
  8
Co-ord
100
AcDbText
 10
133.3815934031225
 20
148.3486121186488
 30
0.0
 40
0.025
  1
N 258895.06
  7
Text
 72
     2
 11
133.5817372565171
 21
148.3736121186488
 31
0.0
100
AcDbText
 73
     3
  0
TEXT
  5
653
330
1F
100
AcDbEntity
  8
Co-ord
100
AcDbText
 10
135.4659867970779
 20
148.3830796103618
 30
0.0
 40
0.025
  1
E 442892.09
  7
Text
 11
135.4659867970779
 21
148.3736121186488
 31
0.0
100
AcDbText
 73
     1
  0
TEXT
  5
654
330
1F
100
AcDbEntity
  8
DRAWING POINT
100
AcDbText
 10
135.4659867970779
 20
148.4230796103618
 30
0.0
 40
0.025
  1
dp82.2
  7
Text
 11
135.4659867970779
 21
148.4136121186488
 31
0.0
100
AcDbText
 73
     1
  0
TEXT
  5
655
330
1F
100
AcDbEntity
  8
DRAWING POINT
100
AcDbText
 10
133.4748354208227
 20
148.4230796103618
 30
0.0
 40
0.025
  1
dp82.1
  7
Text
 72
     2
 11
133.5817372565171
 21
148.4136121186488
 31
0.0
100
AcDbText
 73
     1
  0
LWPOLYLINE
  5
675
330
1F
100
AcDbEntity
  8
DRAWING POINT
 62
     5
100
AcDbPolyline
 90
        9
 70
     0
 43
0.0
 10
127.5906246913088
 20
146.4008285203339
 10
127.6706246913088
 20
146.4008285203339
 10
127.6306246913088
 20
146.4008285203339
 10
127.6306246913088
 20
146.3608285203339
 10
127.6306246913088
 20
146.4408285203339
 10
127.6306246913088
 20
146.4008285203339
 10
127.6706246913088
 20
146.4008285203339
 10
127.6506246913088
 20
146.4008285203339
 10
127.6506246913088
 20
146.4008285203339
  0
CIRCLE
  5
676
330
1F
100
AcDbEntity
  8
DRAWING POINT
 62
     5
100
AcDbCircle
 10
127.6306246913088
 20
146.4008285203339
 30
0.0
 40
0.0200000000000102
  0
LWPOLYLINE
  5
677
330
1F
100
AcDbEntity
  8
DRAWING POINT
 62
     5
100
AcDbPolyline
 90
        9
 70
     0
 43
0.0
 10
127.5906246913088
 20
146.4008285203339
 10
127.6706246913088
 20
146.4008285203339
 10
127.6306246913088
 20
146.4008285203339
 10
127.6306246913088
 20
146.3608285203339
 10
127.6306246913088
 20
146.4408285203339
 10
127.6306246913088
 20
146.4008285203339
 10
127.6706246913088
 20
146.4008285203339
 10
127.6506246913088
 20
146.4008285203339
 10
127.6506246913088
 20
146.4008285203339
  0
CIRCLE
  5
678
330
1F
100
AcDbEntity
  8
DRAWING POINT
 62
     5
100
AcDbCircle
 10
127.6306246913088
 20
146.4008285203339
 30
0.0
 40
0.0200000000000102
  0
LWPOLYLINE
  5
679
330
1F
100
AcDbEntity
  8
DRAWING POINT
 62
     5
100
AcDbPolyline
 90
        9
 70
     0
 43
0.0
 10
128.8968201609881
 20
146.4021488914946
 10
128.9768201609882
 20
146.4021488914946
 10
128.9368201609882
 20
146.4021488914946
 10
128.9368201609882
 20
146.3621488914946
 10
128.9368201609882
 20
146.4421488914946
 10
128.9368201609882
 20
146.4021488914946
 10
128.9768201609882
 20
146.4021488914946
 10
128.9568201609881
 20
146.4021488914946
 10
128.9568201609881
 20
146.4021488914946
  0
CIRCLE
  5
67A
330
1F
100
AcDbEntity
  8
DRAWING POINT
 62
     5
100
AcDbCircle
 10
128.9368201609882
 20
146.4021488914946
 30
0.0
 40
0.0200000000000102
  0
TEXT
  5
67B
330
1F
100
AcDbEntity
  8
Co-ord
100
AcDbText
 10
128.9768201609882
 20
146.3371488914946
 30
0.0
 40
0.025
  1
N 258878.67
  7
Text
 11
128.9768201609882
 21
146.3621488914947
 31
0.0
100
AcDbText
 73
     3
  0
TEXT
  5
67C
330
1F
100
AcDbEntity
  8
Co-ord
100
AcDbText
 10
127.3924072225031
 20
146.3702960120469
 30
0.0
 40
0.025
  1
E 442947.63
  7
Text
 72
     2
 11
127.5906246913088
 21
146.3608285203339
 31
0.0
100
AcDbText
 73
     1
  0
TEXT
  5
67D
330
1F
100
AcDbEntity
  8
Co-ord
100
AcDbText
 10
127.3904808379142
 20
146.3358285203339
 30
0.0
 40
0.025
  1
N 258879.02
  7
Text
 72
     2
 11
127.5906246913088
 21
146.3608285203339
 31
0.0
100
AcDbText
 73
     3
  0
TEXT
  5
67E
330
1F
100
AcDbEntity
  8
Co-ord
100
AcDbText
 10
128.9768201609882
 20
146.3716163832077
 30
0.0
 40
0.025
  1
E 442948.86
  7
Text
 11
128.9768201609882
 21
146.3621488914947
 31
0.0
100
AcDbText
 73
     1
  0
TEXT
  5
67F
330
1F
100
AcDbEntity
  8
DRAWING POINT
100
AcDbText
 10
128.9768201609882
 20
146.4116163832077
 30
0.0
 40
0.025
  1
dp79.2
  7
Text
 11
128.9768201609882
 21
146.4021488914946
 31
0.0
100
AcDbText
 73
     1
  0
TEXT
  5
680
330
1F
100
AcDbEntity
  8
DRAWING POINT
100
AcDbText
 10
127.4837228556144
 20
146.4102960120469
 30
0.0
 40
0.025
  1
dp79.1
  7
Text
 72
     2
 11
127.5906246913088
 21
146.4008285203339
 31
0.0
100
AcDbText
 73
     1
  0
LWPOLYLINE
  5
6A4
330
1F
100
AcDbEntity
  8
DRAWING POINT
 62
     5
100
AcDbPolyline
 90
        9
 70
     0
 43
0.0
 10
128.8990473661832
 20
145.65960378214
 10
128.9790473661832
 20
145.65960378214
 10
128.9390473661832
 20
145.65960378214
 10
128.9390473661832
 20
145.6196037821399
 10
128.9390473661832
 20
145.6996037821399
 10
128.9390473661832
 20
145.65960378214
 10
128.9790473661832
 20
145.65960378214
 10
128.9590473661832
 20
145.65960378214
 10
128.9590473661832
 20
145.65960378214
  0
CIRCLE
  5
6A5
330
1F
100
AcDbEntity
  8
DRAWING POINT
 62
     5
100
AcDbCircle
 10
128.9390473661832
 20
145.65960378214
 30
0.0
 40
0.0200000000000102
  0
TEXT
  5
6A6
330
1F
100
AcDbEntity
  8
Co-ord
 62
     1
100
AcDbText
 10
128.9790473661832
 20
145.59460378214
 30
0.0
 40
0.025
  1
N ?????
  7
Text
 11
128.9790473661832
 21
145.61960378214
 31
0.0
100
AcDbText
 73
     3
  0
TEXT
  5
6A9
330
1F
100
AcDbEntity
  8
Co-ord
 62
     1
100
AcDbText
 10
128.9790473661832
 20
145.629071273853
 30
0.0
 40
0.025
  1
E ????
  7
Text
 11
128.9790473661832
 21
145.61960378214
 31
0.0
100
AcDbText
 73
     1
  0
TEXT
  5
6AA
330
1F
100
AcDbEntity
  8
DRAWING POINT
100
AcDbText
 10
128.9790473661832
 20
145.669071273853
 30
0.0
 40
0.025
  1
dp79.3
  7
Text
 11
128.9790473661832
 21
145.65960378214
 31
0.0
100
AcDbText
 73
     1
  0
TEXT
  5
6C1
330
1F
100
AcDbEntity
  8
Annotatons
100
AcDbText
 10
131.1736278816362
 20
147.9289422890345
 30
0.0
 40
0.05
  1
(1707)
  7
Text
 72
     1
 11
131.2746504916371
 21
147.9100073056084
 31
0.0
100
AcDbText
 73
     1
  0
TEXT
  5
6C2
330
1F
100
AcDbEntity
  8
Annotatons
100
AcDbText
 10
131.9399021565814
 20
148.1764369641317
 30
0.0
 40
0.05
  1
[1706]
  7
Text
 72
     1
 11
132.0370719974045
 21
148.1575019807056
 31
0.0
100
AcDbText
 73
     1
  0
LINE
  5
6C3
330
1F
100
AcDbEntity
  8
Annotatons
100
AcDbLine
 10
131.9272777253357
 20
148.1942278790015
 30
0.0
 11
131.8064538928924
 21
148.2048888053935
 31
0.0
  0
TEXT
  5
6D9
330
1F
100
AcDbEntity
  8
Annotatons
100
AcDbText
 10
134.4509782063755
 20
147.6325835763934
 30
0.0
 40
0.05
  1
(1504)
  7
Text
 72
     1
 11
134.5520008163764
 21
147.6136485929673
 31
0.0
100
AcDbText
 73
     1
  0
TEXT
  5
6DA
330
1F
100
AcDbEntity
  8
Annotatons
100
AcDbText
 10
135.4213279595228
 20
147.9258983286284
 30
0.0
 40
0.05
  1
[1503]
  7
Text
 72
     1
 11
135.5184978003459
 21
147.9069633452023
 31
0.0
100
AcDbText
 73
     1
  0
LINE
  5
6DB
330
1F
100
AcDbEntity
  8
Annotatons
100
AcDbLine
 10
135.4087035282771
 20
147.9436892434982
 30
0.0
 11
135.2878796958338
 21
147.9543501698902
 31
0.0
  0
TEXT
  5
6F1
330
1F
100
AcDbEntity
  8
Annotatons
100
AcDbText
 10
128.2570162205948
 20
146.5161805431368
 30
0.0
 40
0.05
  1
(1606)
  7
Text
 72
     1
 11
128.3580388305957
 21
146.4972455597107
 31
0.0
100
AcDbText
 73
     1
  0
TEXT
  5
6F2
330
1F
100
AcDbEntity
  8
Annotatons
100
AcDbText
 10
127.7944086007865
 20
145.7754041773444
 30
0.0
 40
0.05
  1
[1605]
  7
Text
 72
     1
 11
127.8915784416096
 21
145.7564691939183
 31
0.0
100
AcDbText
 73
     1
  0
LINE
  5
6F3
330
1F
100
AcDbEntity
  8
Annotatons
100
AcDbLine
 10
128.0123327687566
 20
145.8524534026762
 30
0.0
 11
128.1288952406398
 21
145.9415948849403
 31
0.0
  0
LWPOLYLINE
  5
91D
330
1F
100
AcDbEntity
  8
EVALUATION TRENCH (LOE)
  6
DASHDOT
 48
0.005
100
AcDbPolyline
 90
        2
 70
     0
 43
0.0
 10
137.7593462671456
 20
148.4956447314264
 10
138.9635483544333
 20
147.3641020612396
  0
LWPOLYLINE
  5
91E
330
1F
100
AcDbEntity
  8
DETAIL
  6
DASHDOT
 48
0.005
100
AcDbPolyline
 90
        2
 70
     0
 43
0.0
 10
138.9635483544333
 20
147.3641020612396
 10
139.1280797536064
 20
147.2066733241876
  0
LWPOLYLINE
  5
91F
330
1F
100
AcDbEntity
  8
CONTEXT 1
100
AcDbPolyline
 90
        9
 70
     0
 43
0.0
 10
139.0046517595078
 20
147.3247730505952
 10
139.3107593767262
 20
147.8166374895198
 10
139.41603237988
 20
147.996220847841
 10
139.5277208436965
 20
148.2080920554823
 10
139.5844444148076
 20
148.3001749705939
 10
139.6129795911919
 20
148.3794393494391
 10
139.6494412054607
 20
148.5062623555914
 10
139.6928355017511
 20
148.7204548910073
 10
139.7702421217171
 20
149.0494330258629
  0
LWPOLYLINE
  5
920
330
1F
100
AcDbEntity
  8
CONTEXT 1
100
AcDbPolyline
 90
        7
 70
     0
 43
0.0
 10
138.5743098432421
 20
149.3126155337473
 10
138.4775515682846
 20
149.0184703778765
 10
138.4233669343084
 20
148.7320658840022
 10
138.3098741025869
 20
148.411483612221
 10
138.3096063376072
 20
148.2356043154784
 10
138.3096063376072
 20
148.0548815317114
 10
138.3148160258574
 20
147.973691032279
  0
LWPOLYLINE
  5
921
330
1F
100
AcDbEntity
  8
SECTION POINT
  6
DASHDOT
 62
     5
 48
0.005
100
AcDbPolyline
 90
        2
 70
     0
 43
0.0
 10
137.9048482364602
 20
148.3829922789463
 10
139.6998158563329
 20
148.3832697042723
  0
LWPOLYLINE
  5
922
330
1F
100
AcDbEntity
  8
DETAIL
  6
DASHDOT
 48
0.005
100
AcDbPolyline
 90
        2
 70
     0
 43
0.0
 10
139.4028919249593
 20
147.9738047776822
 10
138.3148160258574
 20
147.973691032279
  0
LWPOLYLINE
  5
923
330
1F
100
AcDbEntity
  8
SECTION POINT
  6
DASHDOT
 62
     5
 48
0.005
100
AcDbPolyline
 90
        2
 70
     0
 43
0.0
 10
140.8901231698998
 20
148.3806804528344
 10
142.1837885761116
 20
148.3806804528344
  0
LWPOLYLINE
  5
924
330
1F
100
AcDbEntity
  8
CONTEXT 1
100
AcDbPolyline
 90
        5
 70
     0
 43
0.0
 10
141.0164511700062
 20
148.3806804528344
 10
141.0189876301293
 20
148.2084663533546
 10
141.0164511700062
 20
148.0727657367717
 10
141.0189876301293
 20
147.9852578625265
 10
141.0266465507352
 20
147.8187927589043
  0
LWPOLYLINE
  5
925
330
1F
100
AcDbEntity
  8
CONTEXT 1
100
AcDbPolyline
 90
        5
 70
     0
 43
0.0
 10
142.1378836019081
 20
148.3806804528344
 10
142.1156895758315
 20
148.2972275955902
 10
142.0792279615627
 20
148.1815016024762
 10
142.0586192230629
 20
148.0721167596698
 10
142.0239069984054
 20
147.8474796522637
  0
LWPOLYLINE
  5
926
330
1F
100
AcDbEntity
  8
DETAIL
  6
DASHDOT
 48
0.005
100
AcDbPolyline
 90
        2
 70
     0
 43
0.0
 10
142.0555102914288
 20
148.0519975821664
 10
141.0177194000678
 20
148.0290117996491
  0
LWPOLYLINE
  5
927
330
1F
100
AcDbEntity
  8
SECTION POINT
  6
DASHDOT
 62
     5
 48
0.005
100
AcDbPolyline
 90
        2
 70
     0
 43
0.0
 10
143.8943859744062
 20
148.3931272799475
 10
145.698635514967
 20
148.3931272799475
  0
LWPOLYLINE
  5
928
330
1F
100
AcDbEntity
  8
CONTEXT 1
100
AcDbPolyline
 90
        7
 70
     0
 43
0.0
 10
145.560398438261
 20
148.3931272799475
 10
145.5702272212378
 20
148.2478486778363
 10
145.5607154957764
 20
148.1448049853376
 10
145.5559596330457
 20
148.038590717685
 10
145.5616149607004
 20
147.8520841112741
 10
145.5576517417581
 20
147.7173346672373
 10
145.5740638803564
 20
147.2989596269829
  0
LWPOLYLINE
  5
929
330
1F
100
AcDbEntity
  8
CONTEXT 1
100
AcDbPolyline
 90
        6
 70
     0
 43
0.0
 10
143.9763912442578
 20
147.3484998637612
 10
143.9825837738551
 20
147.6828964620144
 10
143.9794875090565
 20
147.9120200571138
 10
143.981440211993
 20
148.1532596024556
 10
143.9987792948654
 20
148.3316044548573
 10
143.9987792948654
 20
148.3931272799475
  0
LWPOLYLINE
  5
92A
330
1F
100
AcDbEntity
  8
DETAIL
  6
DASHDOT
 48
0.005
100
AcDbPolyline
 90
        2
 70
     0
 43
0.0
 10
143.9810356414558
 20
147.7974582595641
 10
145.5596333512293
 20
147.7847093892557
  0
LWPOLYLINE
  5
92B
330
1F
100
AcDbEntity
  8
CONTEXT 1
100
AcDbPolyline
 90
        3
 70
     0
 43
0.0
 10
137.9753482921434
 20
146.8970047867841
 10
138.7308369030117
 20
146.872234668395
 10
139.2163312234385
 20
146.8573725973615
  0
LWPOLYLINE
  5
92C
330
1F
100
AcDbEntity
  8
EVALUATION TRENCH (LOE)
  6
DASHDOT
 48
0.005
100
AcDbPolyline
 90
        3
 70
     0
 43
0.0
 10
139.2241338107311
 20
147.1160345586399
 10
139.2163312234385
 20
146.8573725973615
 10
139.2094688788773
 20
146.3816640527933
  0
LWPOLYLINE
  5
92D
330
1F
100
AcDbEntity
  8
SECTION POINT
  6
DASHDOT
 62
     5
 48
0.005
100
AcDbPolyline
 90
        3
 70
     0
 43
0.0
 10
137.9032734091979
 20
146.3803436816326
 10
139.2094688788773
 20
146.3816640527933
 10
139.2116960840723
 20
145.6391189434386
  0
LWPOLYLINE
  5
92F
330
1F
100
AcDbEntity
  8
CONTEXT 2
100
AcDbPolyline
 90
       21
 70
     0
 43
0.0
 10
139.2182841181499
 20
145.7283390768875
 10
139.1155574831665
 20
145.7067791658416
 10
139.0445365997212
 20
145.7143885462108
 10
138.8593750107388
 20
145.7587765983641
 10
138.6361665199107
 20
145.8158469511326
 10
138.4611507714205
 20
145.8817949143318
 10
138.4015439585289
 20
145.921110046239
 10
138.2992508006174
 20
145.9822860461306
 10
138.1787689447727
 20
146.0758180131679
 10
138.0979192783506
 20
146.1661794050515
 10
138.024996049813
 20
146.2422732087428
 10
138.0030954877139
 20
146.2890506484413
 10
137.9746871343358
 20
146.3671736202311
 10
137.9726579662374
 20
146.3864507171663
 10
137.9665704619421
 20
146.4250049110366
 10
137.9828038067296
 20
146.5183466435647
 10
138.0128093373414
 20
146.6632221119989
 10
138.0391885226211
 20
146.7393159156904
 10
138.0716552121961
 20
146.8022201267419
 10
138.1162969103617
 20
146.8448326568091
 10
138.1758599703968
 20
146.8904306333987
  0
HATCH
  5
931
330
1F
100
AcDbEntity
  8
DETAIL
100
AcDbHatch
 10
0.0
 20
0.0
 30
0.0
210
0.0
220
0.0
230
1.0
  2
SOLID
 70
     1
 71
     1
 91
        1
 92
        1
 93
        3
 72
     1
 10
138.3847312958456
 20
148.3189744339901
 11
138.3097694347649
 21
148.3440826047344
 72
     1
 10
138.3097694347649
 20
148.3440826047344
 11
138.3096953668726
 21
148.2940824802069
 72
     1
 10
138.3096953668726
 20
148.2940824802069
 11
138.3847312958456
 21
148.3189744339901
 97
        1
330
932
 75
     0
 76
     1
 98
        1
 10
6.494868932991523
 20
3.021554417042523
450
        1
451
        0
460
0.0
461
0.0
452
        0
462
0.0
453
        2
463
0.0
 63
    18
421
   327680
463
1.0
 63
    18
421
   327680
470
LINEAR
1001
ACAD
1010
0.0
1020
0.0
1030
0.0
  0
LWPOLYLINE
  5
932
102
{ACAD_REACTORS
330
931
102
}
330
1F
100
AcDbEntity
  8
DETAIL
100
AcDbPolyline
 90
        3
 70
     1
 43
0.0
 10
138.3847312958456
 20
148.3189744339901
 10
138.3097694347649
 20
148.3440826047344
 10
138.3096953668726
 20
148.2940824802069
  0
HATCH
  5
933
330
1F
100
AcDbEntity
  8
DETAIL
100
AcDbHatch
 10
0.0
 20
0.0
 30
0.0
210
0.0
220
0.0
230
1.0
  2
SOLID
 70
     1
 71
     1
 91
        1
 92
        1
 93
        4
 72
     1
 10
138.3096063376072
 20
148.1567706772525
 11
138.3846422665801
 21
148.1816626310357
 72
     1
 10
138.3846422665801
 20
148.1816626310357
 11
138.3096783511317
 21
148.2067706253929
 72
     1
 10
138.3096783511317
 20
148.2067706253929
 11
138.3096063376072
 21
148.2067341782705
 72
     1
 10
138.3096063376072
 20
148.2067341782705
 11
138.3096063376072
 21
148.1567706772525
 97
        1
330
934
 75
     0
 76
     1
 98
        1
 10
6.494868932991523
 20
3.021554417042523
450
        1
451
        0
460
0.0
461
0.0
452
        0
462
0.0
453
        2
463
0.0
 63
    18
421
   327680
463
1.0
 63
    18
421
   327680
470
LINEAR
1001
ACAD
1010
0.0
1020
0.0
1030
0.0
  0
LWPOLYLINE
  5
934
102
{ACAD_REACTORS
330
933
102
}
330
1F
100
AcDbEntity
  8
DETAIL
100
AcDbPolyline
 90
        4
 70
     1
 43
0.0
 10
138.3096063376072
 20
148.1567706772525
 10
138.3846422665801
 20
148.1816626310357
 10
138.3096783511317
 20
148.2067706253929
 10
138.3096063376072
 20
148.2067341782705
  0
HATCH
  5
935
330
1F
100
AcDbEntity
  8
DETAIL
100
AcDbHatch
 10
0.0
 20
0.0
 30
0.0
210
0.0
220
0.0
230
1.0
  2
SOLID
 70
     1
 71
     1
 91
        1
 92
        1
 93
        5
 72
     1
 10
138.3122111817323
 20
148.0142862819952
 11
138.3872471107053
 21
148.0391782357784
 72
     1
 10
138.3872471107053
 20
148.0391782357784
 11
138.3122831952569
 21
148.0642862301357
 72
     1
 10
138.3122831952569
 20
148.0642862301357
 11
138.3096063376072
 21
148.0629314324241
 72
     1
 10
138.3096063376072
 20
148.0629314324241
 11
138.3096063376072
 21
148.0548815317114
 72
     1
 10
138.3096063376072
 20
148.0548815317114
 11
138.3122111817323
 21
148.0142862819952
 97
        1
330
936
 75
     0
 76
     1
 98
        1
 10
6.494868932991523
 20
3.021554417042523
450
        1
451
        0
460
0.0
461
0.0
452
        0
462
0.0
453
        2
463
0.0
 63
    18
421
   327680
463
1.0
 63
    18
421
   327680
470
LINEAR
1001
ACAD
1010
0.0
1020
0.0
1030
0.0
  0
LWPOLYLINE
  5
936
102
{ACAD_REACTORS
330
935
102
}
330
1F
100
AcDbEntity
  8
DETAIL
100
AcDbPolyline
 90
        5
 70
     1
 43
0.0
 10
138.3122111817323
 20
148.0142862819952
 10
138.3872471107053
 20
148.0391782357784
 10
138.3122831952569
 20
148.0642862301357
 10
138.3096063376072
 20
148.0629314324241
 10
138.3096063376072
 20
148.0548815317114
  0
HATCH
  5
937
330
1F
100
AcDbEntity
  8
DETAIL
100
AcDbHatch
 10
0.0
 20
0.0
 30
0.0
210
0.0
220
0.0
230
1.0
  2
SOLID
 70
     1
 71
     1
 91
        1
 92
        1
 93
        3
 72
     1
 10
139.5856291825519
 20
148.3034659921057
 11
139.6018526864295
 21
148.3485312806547
 72
     1
 10
139.6018526864295
 20
148.3485312806547
 11
139.5237914232464
 21
148.3360237153347
 72
     1
 10
139.5237914232464
 20
148.3360237153347
 11
139.5856291825519
 21
148.3034659921057
 97
        1
330
938
 75
     0
 76
     1
 98
        1
 10
6.494868932991523
 20
3.021554417042523
450
        1
451
        0
460
0.0
461
0.0
452
        0
462
0.0
453
        2
463
0.0
 63
    18
421
   327680
463
1.0
 63
    18
421
   327680
470
LINEAR
1001
ACAD
1010
0.0
1020
0.0
1030
0.0
  0
LWPOLYLINE
  5
938
102
{ACAD_REACTORS
330
937
102
}
330
1F
100
AcDbEntity
  8
DETAIL
100
AcDbPolyline
 90
        3
 70
     1
 43
0.0
 10
139.5856291825519
 20
148.3034659921057
 10
139.6018526864295
 20
148.3485312806547
 10
139.5237914232464
 20
148.3360237153347
  0
HATCH
  5
939
330
1F
100
AcDbEntity
  8
DETAIL
100
AcDbHatch
 10
0.0
 20
0.0
 30
0.0
210
0.0
220
0.0
230
1.0
  2
SOLID
 70
     1
 71
     1
 91
        1
 92
        1
 93
        4
 72
     1
 10
139.5277208436965
 20
148.2080920554823
 11
139.5383196120722
 21
148.225297698031
 72
     1
 10
139.5383196120722
 20
148.225297698031
 11
139.4592626870509
 21
148.2252466476444
 72
     1
 10
139.4592626870509
 20
148.2252466476444
 11
139.5148257928438
 21
148.1836303527835
 72
     1
 10
139.5148257928438
 20
148.1836303527835
 11
139.5277208436965
 21
148.2080920554823
 97
        1
330
93A
 75
     0
 76
     1
 98
        1
 10
6.494868932991523
 20
3.021554417042523
450
        1
451
        0
460
0.0
461
0.0
452
        0
462
0.0
453
        2
463
0.0
 63
    18
421
   327680
463
1.0
 63
    18
421
   327680
470
LINEAR
1001
ACAD
1010
0.0
1020
0.0
1030
0.0
  0
LWPOLYLINE
  5
93A
102
{ACAD_REACTORS
330
939
102
}
330
1F
100
AcDbEntity
  8
DETAIL
100
AcDbPolyline
 90
        4
 70
     1
 43
0.0
 10
139.5277208436965
 20
148.2080920554823
 10
139.5383196120722
 20
148.225297698031
 10
139.4592626870509
 20
148.2252466476444
 10
139.5148257928438
 20
148.1836303527835
  0
HATCH
  5
93B
330
1F
100
AcDbEntity
  8
DETAIL
100
AcDbHatch
 10
0.0
 20
0.0
 30
0.0
210
0.0
220
0.0
230
1.0
  2
SOLID
 70
     1
 71
     1
 91
        1
 92
        1
 93
        3
 72
     1
 10
139.4627637870126
 20
148.0848695705973
 11
139.4851615833724
 21
148.1273578276751
 72
     1
 10
139.4851615833724
 20
148.1273578276751
 11
139.406104658351
 21
148.1273067772885
 72
     1
 10
139.406104658351
 20
148.1273067772885
 11
139.4627637870126
 21
148.0848695705973
 97
        1
330
93C
 75
     0
 76
     1
 98
        1
 10
6.494868932991523
 20
3.021554417042523
450
        1
451
        0
460
0.0
461
0.0
452
        0
462
0.0
453
        2
463
0.0
 63
    18
421
   327680
463
1.0
 63
    18
421
   327680
470
LINEAR
1001
ACAD
1010
0.0
1020
0.0
1030
0.0
  0
LWPOLYLINE
  5
93C
102
{ACAD_REACTORS
330
93B
102
}
330
1F
100
AcDbEntity
  8
DETAIL
100
AcDbPolyline
 90
        3
 70
     1
 43
0.0
 10
139.4627637870126
 20
148.0848695705973
 10
139.4851615833724
 20
148.1273578276751
 10
139.406104658351
 20
148.1273067772885
  0
HATCH
  5
93D
330
1F
100
AcDbEntity
  8
DETAIL
100
AcDbHatch
 10
0.0
 20
0.0
 30
0.0
210
0.0
220
0.0
230
1.0
  2
SOLID
 70
     1
 71
     1
 91
        1
 92
        1
 93
        5
 72
     1
 10
141.0251477640333
 20
148.2885059155962
 11
141.0968020221698
 21
148.3219075217087
 72
     1
 10
141.0968020221698
 20
148.3219075217087
 11
141.0194376519931
 21
148.3381787917006
 72
     1
 10
141.0194376519931
 20
148.3381787917006
 11
141.0170999332385
 21
148.3366323817403
 72
     1
 10
141.0170999332385
 20
148.3366323817403
 11
141.0177713916974
 21
148.2910434080488
 72
     1
 10
141.0177713916974
 20
148.2910434080488
 11
141.0251477640333
 21
148.2885059155962
 97
        1
330
93E
 75
     0
 76
     1
 98
        1
 10
6.494868932991523
 20
3.021554417042523
450
        1
451
        0
460
0.0
461
0.0
452
        0
462
0.0
453
        2
463
0.0
 63
    18
421
   327680
463
1.0
 63
    18
421
   327680
470
LINEAR
1001
ACAD
1010
0.0
1020
0.0
1030
0.0
  0
LWPOLYLINE
  5
93E
102
{ACAD_REACTORS
330
93D
102
}
330
1F
100
AcDbEntity
  8
DETAIL
100
AcDbPolyline
 90
        5
 70
     1
 43
0.0
 10
141.0251477640333
 20
148.2885059155962
 10
141.0968020221698
 20
148.3219075217087
 10
141.0194376519931
 20
148.3381787917006
 10
141.0170999332385
 20
148.3366323817403
 10
141.0177713916974
 20
148.2910434080488
  0
HATCH
  5
93F
330
1F
100
AcDbEntity
  8
DETAIL
100
AcDbHatch
 10
0.0
 20
0.0
 30
0.0
210
0.0
220
0.0
230
1.0
  2
SOLID
 70
     1
 71
     1
 91
        1
 92
        1
 93
        4
 72
     1
 10
141.0184187036469
 20
148.1780287865463
 11
141.0900729617834
 21
148.2114303926588
 72
     1
 10
141.0900729617834
 20
148.2114303926588
 11
141.0187229530509
 21
148.2264367224895
 72
     1
 10
141.0187229530509
 20
148.2264367224895
 11
141.0189876301293
 21
148.2084663533546
 72
     1
 10
141.0189876301293
 20
148.2084663533546
 11
141.0184187036469
 21
148.1780287865463
 97
        1
330
940
 75
     0
 76
     1
 98
        1
 10
6.494868932991523
 20
3.021554417042523
450
        1
451
        0
460
0.0
461
0.0
452
        0
462
0.0
453
        2
463
0.0
 63
    18
421
   327680
463
1.0
 63
    18
421
   327680
470
LINEAR
1001
ACAD
1010
0.0
1020
0.0
1030
0.0
  0
LWPOLYLINE
  5
940
102
{ACAD_REACTORS
330
93F
102
}
330
1F
100
AcDbEntity
  8
DETAIL
100
AcDbPolyline
 90
        4
 70
     1
 43
0.0
 10
141.0184187036469
 20
148.1780287865463
 10
141.0900729617834
 20
148.2114303926588
 10
141.0187229530509
 20
148.2264367224895
 10
141.0189876301293
 20
148.2084663533546
  0
HATCH
  5
941
330
1F
100
AcDbEntity
  8
DETAIL
100
AcDbHatch
 10
0.0
 20
0.0
 30
0.0
210
0.0
220
0.0
230
1.0
  2
SOLID
 70
     1
 71
     1
 91
        1
 92
        1
 93
        4
 72
     1
 10
141.0172071295615
 20
148.0466851321146
 11
141.088861387698
 21
148.080086738227
 72
     1
 10
141.088861387698
 20
148.080086738227
 11
141.0168710206867
 21
148.095227748175
 72
     1
 10
141.0168710206867
 20
148.095227748175
 11
141.0164511700062
 21
148.0727657367717
 72
     1
 10
141.0164511700062
 20
148.0727657367717
 11
141.0172071295615
 21
148.0466851321146
 97
        1
330
942
 75
     0
 76
     1
 98
        1
 10
6.494868932991523
 20
3.021554417042523
450
        1
451
        0
460
0.0
461
0.0
452
        0
462
0.0
453
        2
463
0.0
 63
    18
421
   327680
463
1.0
 63
    18
421
   327680
470
LINEAR
1001
ACAD
1010
0.0
1020
0.0
1030
0.0
  0
LWPOLYLINE
  5
942
102
{ACAD_REACTORS
330
941
102
}
330
1F
100
AcDbEntity
  8
DETAIL
100
AcDbPolyline
 90
        4
 70
     1
 43
0.0
 10
141.0172071295615
 20
148.0466851321146
 10
141.088861387698
 20
148.080086738227
 10
141.0168710206867
 20
148.095227748175
 10
141.0164511700062
 20
148.0727657367717
  0
HATCH
  5
943
330
1F
100
AcDbEntity
  8
DETAIL
100
AcDbHatch
 10
0.0
 20
0.0
 30
0.0
210
0.0
220
0.0
230
1.0
  2
SOLID
 70
     1
 71
     1
 91
        1
 92
        1
 93
        3
 72
     1
 10
142.117725881006
 20
148.304884407583
 11
142.1302314453787
 21
148.3519071998764
 72
     1
 10
142.1302314453787
 20
148.3519071998764
 11
142.0521701821956
 21
148.3393996345565
 72
     1
 10
142.0521701821956
 20
148.3393996345565
 11
142.117725881006
 21
148.304884407583
 97
        1
330
944
 75
     0
 76
     1
 98
        1
 10
6.494868932991523
 20
3.021554417042523
450
        1
451
        0
460
0.0
461
0.0
452
        0
462
0.0
453
        2
463
0.0
 63
    18
421
   327680
463
1.0
 63
    18
421
   327680
470
LINEAR
1001
ACAD
1010
0.0
1020
0.0
1030
0.0
  0
LWPOLYLINE
  5
944
102
{ACAD_REACTORS
330
943
102
}
330
1F
100
AcDbEntity
  8
DETAIL
100
AcDbPolyline
 90
        3
 70
     1
 43
0.0
 10
142.117725881006
 20
148.304884407583
 10
142.1302314453787
 20
148.3519071998764
 10
142.0521701821956
 20
148.3393996345565
  0
HATCH
  5
945
330
1F
100
AcDbEntity
  8
DETAIL
100
AcDbHatch
 10
0.0
 20
0.0
 30
0.0
210
0.0
220
0.0
230
1.0
  2
SOLID
 70
     1
 71
     1
 91
        1
 92
        1
 93
        3
 72
     1
 10
142.084461818822
 20
148.1981134102993
 11
142.0989485711726
 21
148.2440931025423
 72
     1
 10
142.0989485711726
 20
148.2440931025423
 11
142.0208873079895
 21
148.2315855372223
 72
     1
 10
142.0208873079895
 20
148.2315855372223
 11
142.084461818822
 21
148.1981134102993
 97
        1
330
946
 75
     0
 76
     1
 98
        1
 10
6.494868932991523
 20
3.021554417042523
450
        1
451
        0
460
0.0
461
0.0
452
        0
462
0.0
453
        2
463
0.0
 63
    18
421
   327680
463
1.0
 63
    18
421
   327680
470
LINEAR
1001
ACAD
1010
0.0
1020
0.0
1030
0.0
  0
LWPOLYLINE
  5
946
102
{ACAD_REACTORS
330
945
102
}
330
1F
100
AcDbEntity
  8
DETAIL
100
AcDbPolyline
 90
        3
 70
     1
 43
0.0
 10
142.084461818822
 20
148.1981134102993
 10
142.0989485711726
 20
148.2440931025423
 10
142.0208873079895
 20
148.2315855372223
  0
HATCH
  5
947
330
1F
100
AcDbEntity
  8
DETAIL
100
AcDbHatch
 10
0.0
 20
0.0
 30
0.0
210
0.0
220
0.0
230
1.0
  2
SOLID
 70
     1
 71
     1
 91
        1
 92
        1
 93
        4
 72
     1
 10
142.0586192230629
 20
148.0721167596698
 11
142.0666313401479
 21
148.11464261189
 72
     1
 10
142.0666313401479
 20
148.11464261189
 11
141.9885700769648
 21
148.10213504657
 72
     1
 10
141.9885700769648
 20
148.10213504657
 11
142.0576385379407
 21
148.0657703421957
 72
     1
 10
142.0576385379407
 20
148.0657703421957
 11
142.0586192230629
 21
148.0721167596698
 97
        1
330
948
 75
     0
 76
     1
 98
        1
 10
6.494868932991523
 20
3.021554417042523
450
        1
451
        0
460
0.0
461
0.0
452
        0
462
0.0
453
        2
463
0.0
 63
    18
421
   327680
463
1.0
 63
    18
421
   327680
470
LINEAR
1001
ACAD
1010
0.0
1020
0.0
1030
0.0
  0
LWPOLYLINE
  5
948
102
{ACAD_REACTORS
330
947
102
}
330
1F
100
AcDbEntity
  8
DETAIL
100
AcDbPolyline
 90
        4
 70
     1
 43
0.0
 10
142.0586192230629
 20
148.0721167596698
 10
142.0666313401479
 20
148.11464261189
 10
141.9885700769648
 20
148.10213504657
 10
142.0576385379407
 20
148.0657703421957
  0
HATCH
  5
949
330
1F
100
AcDbEntity
  8
DETAIL
100
AcDbHatch
 10
0.0
 20
0.0
 30
0.0
210
0.0
220
0.0
230
1.0
  2
SOLID
 70
     1
 71
     1
 91
        1
 92
        1
 93
        3
 72
     1
 10
143.9926428319661
 20
148.2684865507509
 11
144.0691300131477
 21
148.2884793273182
 72
     1
 10
144.0691300131477
 20
148.2884793273182
 11
143.9974341703688
 21
148.3177688886068
 72
     1
 10
143.9974341703688
 20
148.3177688886068
 11
143.9926428319661
 21
148.2684865507509
 97
        1
330
94A
 75
     0
 76
     1
 98
        1
 10
6.494868932991523
 20
3.021554417042523
450
        1
451
        0
460
0.0
461
0.0
452
        0
462
0.0
453
        2
463
0.0
 63
    18
421
   327680
463
1.0
 63
    18
421
   327680
470
LINEAR
1001
ACAD
1010
0.0
1020
0.0
1030
0.0
  0
LWPOLYLINE
  5
94A
102
{ACAD_REACTORS
330
949
102
}
330
1F
100
AcDbEntity
  8
DETAIL
100
AcDbPolyline
 90
        3
 70
     1
 43
0.0
 10
143.9926428319661
 20
148.2684865507509
 10
144.0691300131477
 20
148.2884793273182
 10
143.9974341703688
 20
148.3177688886068
  0
HATCH
  5
94B
330
1F
100
AcDbEntity
  8
DETAIL
100
AcDbHatch
 10
0.0
 20
0.0
 30
0.0
210
0.0
220
0.0
230
1.0
  2
SOLID
 70
     1
 71
     1
 91
        1
 92
        1
 93
        5
 72
     1
 10
144.0577174234752
 20
148.1473124401511
 11
143.9845320125895
 21
148.1772105276062
 72
     1
 10
143.9845320125895
 20
148.1772105276062
 11
143.9837356861725
 21
148.1768701940163
 72
     1
 10
143.9837356861725
 20
148.1768701940163
 11
143.981440211993
 21
148.1532596024556
 72
     1
 10
143.981440211993
 20
148.1532596024556
 11
143.9812302422936
 21
148.1273196635838
 72
     1
 10
143.9812302422936
 20
148.1273196635838
 11
144.0577174234752
 21
148.1473124401511
 97
        1
330
94C
 75
     0
 76
     1
 98
        1
 10
6.494868932991523
 20
3.021554417042523
450
        1
451
        0
460
0.0
461
0.0
452
        0
462
0.0
453
        2
463
0.0
 63
    18
421
   327680
463
1.0
 63
    18
421
   327680
470
LINEAR
1001
ACAD
1010
0.0
1020
0.0
1030
0.0
  0
LWPOLYLINE
  5
94C
102
{ACAD_REACTORS
330
94B
102
}
330
1F
100
AcDbEntity
  8
DETAIL
100
AcDbPolyline
 90
        5
 70
     1
 43
0.0
 10
144.0577174234752
 20
148.1473124401511
 10
143.9845320125895
 20
148.1772105276062
 10
143.9837356861725
 20
148.1768701940163
 10
143.981440211993
 20
148.1532596024556
 10
143.9812302422936
 20
148.1273196635838
  0
HATCH
  5
94D
330
1F
100
AcDbEntity
  8
DETAIL
100
AcDbHatch
 10
0.0
 20
0.0
 30
0.0
210
0.0
220
0.0
230
1.0
  2
SOLID
 70
     1
 71
     1
 91
        1
 92
        1
 93
        4
 72
     1
 10
144.0566766084306
 20
148.0187287506189
 11
143.9834911975449
 21
148.0486268380741
 72
     1
 10
143.9834911975449
 20
148.0486268380741
 11
143.9805832067463
 21
148.0473840224058
 72
     1
 10
143.9805832067463
 20
148.0473840224058
 11
143.980189427249
 21
147.9987359740516
 72
     1
 10
143.980189427249
 20
147.9987359740516
 11
144.0566766084306
 21
148.0187287506189
 97
        1
330
94E
 75
     0
 76
     1
 98
        1
 10
6.494868932991523
 20
3.021554417042523
450
        1
451
        0
460
0.0
461
0.0
452
        0
462
0.0
453
        2
463
0.0
 63
    18
421
   327680
463
1.0
 63
    18
421
   327680
470
LINEAR
1001
ACAD
1010
0.0
1020
0.0
1030
0.0
  0
LWPOLYLINE
  5
94E
102
{ACAD_REACTORS
330
94D
102
}
330
1F
100
AcDbEntity
  8
DETAIL
100
AcDbPolyline
 90
        4
 70
     1
 43
0.0
 10
144.0566766084306
 20
148.0187287506189
 10
143.9834911975449
 20
148.0486268380741
 10
143.9805832067463
 20
148.0473840224058
 10
143.980189427249
 20
147.9987359740516
  0
HATCH
  5
94F
330
1F
100
AcDbEntity
  8
DETAIL
100
AcDbHatch
 10
0.0
 20
0.0
 30
0.0
210
0.0
220
0.0
230
1.0
  2
SOLID
 70
     1
 71
     1
 91
        1
 92
        1
 93
        3
 72
     1
 10
143.9803927434362
 20
147.845032713011
 11
144.0547699975612
 21
147.8718286841411
 72
     1
 10
144.0547699975612
 20
147.8718286841411
 11
143.9797194558071
 21
147.8948559975695
 72
     1
 10
143.9797194558071
 20
147.8948559975695
 11
143.9803927434362
 21
147.845032713011
 97
        1
330
950
 75
     0
 76
     1
 98
        1
 10
6.494868932991523
 20
3.021554417042523
450
        1
451
        0
460
0.0
461
0.0
452
        0
462
0.0
453
        2
463
0.0
 63
    18
421
   327680
463
1.0
 63
    18
421
   327680
470
LINEAR
1001
ACAD
1010
0.0
1020
0.0
1030
0.0
  0
LWPOLYLINE
  5
950
102
{ACAD_REACTORS
330
94F
102
}
330
1F
100
AcDbEntity
  8
DETAIL
100
AcDbPolyline
 90
        3
 70
     1
 43
0.0
 10
143.9803927434362
 20
147.845032713011
 10
144.0547699975612
 20
147.8718286841411
 10
143.9797194558071
 20
147.8948559975695
  0
HATCH
  5
951
330
1F
100
AcDbEntity
  8
DETAIL
100
AcDbHatch
 10
0.0
 20
0.0
 30
0.0
210
0.0
220
0.0
230
1.0
  2
SOLID
 70
     1
 71
     1
 91
        1
 92
        1
 93
        3
 72
     1
 10
145.569672044211
 20
148.2560547133712
 11
145.5663218818451
 21
148.3055732454736
 72
     1
 10
145.5663218818451
 20
148.3055732454736
 11
145.493891754437
 21
148.2738892330443
 72
     1
 10
145.493891754437
 20
148.2738892330443
 11
145.569672044211
 21
148.2560547133712
 97
        1
330
952
 75
     0
 76
     1
 98
        1
 10
6.494868932991523
 20
3.021554417042523
450
        1
451
        0
460
0.0
461
0.0
452
        0
462
0.0
453
        2
463
0.0
 63
    18
421
   327680
463
1.0
 63
    18
421
   327680
470
LINEAR
1001
ACAD
1010
0.0
1020
0.0
1030
0.0
  0
LWPOLYLINE
  5
952
102
{ACAD_REACTORS
330
951
102
}
330
1F
100
AcDbEntity
  8
DETAIL
100
AcDbPolyline
 90
        3
 70
     1
 43
0.0
 10
145.569672044211
 20
148.2560547133712
 10
145.5663218818451
 20
148.3055732454736
 10
145.493891754437
 20
148.2738892330443
  0
HATCH
  5
953
330
1F
100
AcDbEntity
  8
DETAIL
100
AcDbHatch
 10
0.0
 20
0.0
 30
0.0
210
0.0
220
0.0
230
1.0
  2
SOLID
 70
     1
 71
     1
 91
        1
 92
        1
 93
        4
 72
     1
 10
145.5600104917118
 20
148.1290598945615
 11
145.5607154957764
 21
148.1448049853376
 72
     1
 10
145.5607154957764
 20
148.1448049853376
 11
145.563680536092
 21
148.1769262554239
 72
     1
 10
145.563680536092
 20
148.1769262554239
 11
145.4912504086839
 21
148.1452422429946
 72
     1
 10
145.4912504086839
 20
148.1452422429946
 11
145.5600104917118
 21
148.1290598945615
 97
        1
330
954
 75
     0
 76
     1
 98
        1
 10
6.494868932991523
 20
3.021554417042523
450
        1
451
        0
460
0.0
461
0.0
452
        0
462
0.0
453
        2
463
0.0
 63
    18
421
   327680
463
1.0
 63
    18
421
   327680
470
LINEAR
1001
ACAD
1010
0.0
1020
0.0
1030
0.0
  0
LWPOLYLINE
  5
954
102
{ACAD_REACTORS
330
953
102
}
330
1F
100
AcDbEntity
  8
DETAIL
100
AcDbPolyline
 90
        4
 70
     1
 43
0.0
 10
145.5600104917118
 20
148.1290598945615
 10
145.5607154957764
 20
148.1448049853376
 10
145.563680536092
 20
148.1769262554239
 10
145.4912504086839
 20
148.1452422429946
  0
HATCH
  5
955
330
1F
100
AcDbEntity
  8
DETAIL
100
AcDbHatch
 10
0.0
 20
0.0
 30
0.0
210
0.0
220
0.0
230
1.0
  2
SOLID
 70
     1
 71
     1
 91
        1
 92
        1
 93
        3
 72
     1
 10
145.5579113266264
 20
147.9742259684213
 11
145.5564230931082
 21
148.0233063046977
 72
     1
 10
145.5564230931082
 20
148.0233063046977
 11
145.4839929657
 21
147.9916222922685
 72
     1
 10
145.4839929657
 20
147.9916222922685
 11
145.5579113266264
 21
147.9742259684213
 97
        1
330
956
 75
     0
 76
     1
 98
        1
 10
6.494868932991523
 20
3.021554417042523
450
        1
451
        0
460
0.0
461
0.0
452
        0
462
0.0
453
        2
463
0.0
 63
    18
421
   327680
463
1.0
 63
    18
421
   327680
470
LINEAR
1001
ACAD
1010
0.0
1020
0.0
1030
0.0
  0
LWPOLYLINE
  5
956
102
{ACAD_REACTORS
330
955
102
}
330
1F
100
AcDbEntity
  8
DETAIL
100
AcDbPolyline
 90
        3
 70
     1
 43
0.0
 10
145.5579113266264
 20
147.9742259684213
 10
145.5564230931082
 20
148.0233063046977
 10
145.4839929657
 20
147.9916222922685
  0
HATCH
  5
957
330
1F
100
AcDbEntity
  8
DETAIL
100
AcDbHatch
 10
0.0
 20
0.0
 30
0.0
210
0.0
220
0.0
230
1.0
  2
SOLID
 70
     1
 71
     1
 91
        1
 92
        1
 93
        4
 72
     1
 10
145.5609644973353
 20
147.8299683568611
 11
145.5616149607004
 21
147.8520841112741
 72
     1
 10
145.5616149607004
 20
147.8520841112741
 11
145.5608068250904
 21
147.8787355520651
 72
     1
 10
145.5608068250904
 20
147.8787355520651
 11
145.4883766976822
 21
147.8470515396359
 72
     1
 10
145.4883766976822
 20
147.8470515396359
 11
145.5609644973353
 21
147.8299683568611
 97
        1
330
958
 75
     0
 76
     1
 98
        1
 10
6.494868932991523
 20
3.021554417042523
450
        1
451
        0
460
0.0
461
0.0
452
        0
462
0.0
453
        2
463
0.0
 63
    18
421
   327680
463
1.0
 63
    18
421
   327680
470
LINEAR
1001
ACAD
1010
0.0
1020
0.0
1030
0.0
  0
LWPOLYLINE
  5
958
102
{ACAD_REACTORS
330
957
102
}
330
1F
100
AcDbEntity
  8
DETAIL
100
AcDbPolyline
 90
        4
 70
     1
 43
0.0
 10
145.5609644973353
 20
147.8299683568611
 10
145.5616149607004
 20
147.8520841112741
 10
145.5608068250904
 20
147.8787355520651
 10
145.4883766976822
 20
147.8470515396359
  0
HATCH
  5
959
330
1F
100
AcDbEntity
  8
DETAIL
100
AcDbHatch
 10
0.0
 20
0.0
 30
0.0
210
0.0
220
0.0
230
1.0
  2
SOLID
 70
     1
 71
     1
 91
        1
 92
        1
 93
        3
 72
     1
 10
138.0030954877139
 20
146.2890506484413
 11
138.0618456141232
 21
146.3419507679767
 72
     1
 10
138.0618456141232
 20
146.3419507679767
 11
137.9863248801847
 21
146.3351698191467
 72
     1
 10
137.9863248801847
 20
146.3351698191467
 11
138.0030954877139
 21
146.2890506484413
 97
        1
330
95A
 75
     0
 76
     1
 98
        1
 10
6.494868932991523
 20
3.021554417042523
450
        1
451
        0
460
0.0
461
0.0
452
        0
462
0.0
453
        2
463
0.0
 63
    18
421
   327680
463
1.0
 63
    18
421
   327680
470
LINEAR
1001
ACAD
1010
0.0
1020
0.0
1030
0.0
  0
LWPOLYLINE
  5
95A
102
{ACAD_REACTORS
330
959
102
}
330
1F
100
AcDbEntity
  8
DETAIL
100
AcDbPolyline
 90
        3
 70
     1
 43
0.0
 10
138.0030954877139
 20
146.2890506484413
 10
138.0618456141232
 20
146.3419507679767
 10
137.9863248801847
 20
146.3351698191467
  0
HATCH
  5
95B
330
1F
100
AcDbEntity
  8
DETAIL
100
AcDbHatch
 10
0.0
 20
0.0
 30
0.0
210
0.0
220
0.0
230
1.0
  2
SOLID
 70
     1
 71
     1
 91
        1
 92
        1
 93
        3
 72
     1
 10
138.1624552099321
 20
146.0940510109309
 11
138.200714868665
 21
146.1632333678842
 72
     1
 10
138.200714868665
 20
146.1632333678842
 11
138.1292669024311
 21
146.1311438251967
 72
     1
 10
138.1292669024311
 20
146.1311438251967
 11
138.1624552099321
 21
146.0940510109309
 97
        1
330
95C
 75
     0
 76
     1
 98
        1
 10
6.494868932991523
 20
3.021554417042523
450
        1
451
        0
460
0.0
461
0.0
452
        0
462
0.0
453
        2
463
0.0
 63
    18
421
   327680
463
1.0
 63
    18
421
   327680
470
LINEAR
1001
ACAD
1010
0.0
1020
0.0
1030
0.0
  0
LWPOLYLINE
  5
95C
102
{ACAD_REACTORS
330
95B
102
}
330
1F
100
AcDbEntity
  8
DETAIL
100
AcDbPolyline
 90
        3
 70
     1
 43
0.0
 10
138.1624552099321
 20
146.0940510109309
 10
138.200714868665
 20
146.1632333678842
 10
138.1292669024311
 20
146.1311438251967
  0
HATCH
  5
95D
330
1F
100
AcDbEntity
  8
DETAIL
100
AcDbHatch
 10
0.0
 20
0.0
 30
0.0
210
0.0
220
0.0
230
1.0
  2
SOLID
 70
     1
 71
     1
 91
        1
 92
        1
 93
        3
 72
     1
 10
138.3715367230337
 20
145.9390557492839
 11
138.386722815608
 21
146.016640429423
 72
     1
 10
138.386722815608
 20
146.016640429423
 11
138.3289526973881
 21
145.9645229496467
 72
     1
 10
138.3289526973881
 20
145.9645229496467
 11
138.3715367230337
 21
145.9390557492839
 97
        1
330
95E
 75
     0
 76
     1
 98
        1
 10
6.494868932991523
 20
3.021554417042523
450
        1
451
        0
460
0.0
461
0.0
452
        0
462
0.0
453
        2
463
0.0
 63
    18
421
   327680
463
1.0
 63
    18
421
   327680
470
LINEAR
1001
ACAD
1010
0.0
1020
0.0
1030
0.0
  0
LWPOLYLINE
  5
95E
102
{ACAD_REACTORS
330
95D
102
}
330
1F
100
AcDbEntity
  8
DETAIL
100
AcDbPolyline
 90
        3
 70
     1
 43
0.0
 10
138.3715367230337
 20
145.9390557492839
 10
138.386722815608
 20
146.016640429423
 10
138.3289526973881
 20
145.9645229496467
  0
HATCH
  5
95F
330
1F
100
AcDbEntity
  8
DETAIL
100
AcDbHatch
 10
0.0
 20
0.0
 30
0.0
210
0.0
220
0.0
230
1.0
  2
SOLID
 70
     1
 71
     1
 91
        1
 92
        1
 93
        4
 72
     1
 10
138.5870777571619
 20
145.8343441660814
 11
138.5905768025063
 21
145.9133236360825
 72
     1
 10
138.5905768025063
 20
145.9133236360825
 11
138.5403898842301
 21
145.8522394872882
 72
     1
 10
138.5403898842301
 20
145.8522394872882
 11
138.5404227633508
 21
145.8519243086769
 72
     1
 10
138.5404227633508
 20
145.8519243086769
 11
138.5870777571619
 21
145.8343441660814
 97
        1
330
960
 75
     0
 76
     1
 98
        1
 10
6.494868932991523
 20
3.021554417042523
450
        1
451
        0
460
0.0
461
0.0
452
        0
462
0.0
453
        2
463
0.0
 63
    18
421
   327680
463
1.0
 63
    18
421
   327680
470
LINEAR
1001
ACAD
1010
0.0
1020
0.0
1030
0.0
  0
LWPOLYLINE
  5
960
102
{ACAD_REACTORS
330
95F
102
}
330
1F
100
AcDbEntity
  8
DETAIL
100
AcDbPolyline
 90
        4
 70
     1
 43
0.0
 10
138.5870777571619
 20
145.8343441660814
 10
138.5905768025063
 20
145.9133236360825
 10
138.5403898842301
 20
145.8522394872882
 10
138.5404227633508
 20
145.8519243086769
  0
HATCH
  5
961
330
1F
100
AcDbEntity
  8
DETAIL
100
AcDbHatch
 10
0.0
 20
0.0
 30
0.0
210
0.0
220
0.0
230
1.0
  2
SOLID
 70
     1
 71
     1
 91
        1
 92
        1
 93
        3
 72
     1
 10
138.7889646320748
 20
145.7767792519997
 11
138.7814954956183
 21
145.8554825683248
 72
     1
 10
138.7814954956183
 20
145.8554825683248
 11
138.7408816439033
 21
145.789073197839
 72
     1
 10
138.7408816439033
 20
145.789073197839
 11
138.7889646320748
 21
145.7767792519997
 97
        1
330
962
 75
     0
 76
     1
 98
        1
 10
6.494868932991523
 20
3.021554417042523
450
        1
451
        0
460
0.0
461
0.0
452
        0
462
0.0
453
        2
463
0.0
 63
    18
421
   327680
463
1.0
 63
    18
421
   327680
470
LINEAR
1001
ACAD
1010
0.0
1020
0.0
1030
0.0
  0
LWPOLYLINE
  5
962
102
{ACAD_REACTORS
330
961
102
}
330
1F
100
AcDbEntity
  8
DETAIL
100
AcDbPolyline
 90
        3
 70
     1
 43
0.0
 10
138.7889646320748
 20
145.7767792519997
 10
138.7814954956183
 20
145.8554825683248
 10
138.7408816439033
 20
145.789073197839
  0
HATCH
  5
963
330
1F
100
AcDbEntity
  8
DETAIL
100
AcDbHatch
 10
0.0
 20
0.0
 30
0.0
210
0.0
220
0.0
230
1.0
  2
SOLID
 70
     1
 71
     1
 91
        1
 92
        1
 93
        3
 72
     1
 10
138.9995548622814
 20
145.7251718394326
 11
138.9920857258248
 21
145.8038751557576
 72
     1
 10
138.9920857258248
 20
145.8038751557576
 11
138.9510626706171
 21
145.7367966799001
 72
     1
 10
138.9510626706171
 20
145.7367966799001
 11
138.9995548622814
 21
145.7251718394326
 97
        1
330
964
 75
     0
 76
     1
 98
        1
 10
6.494868932991523
 20
3.021554417042523
450
        1
451
        0
460
0.0
461
0.0
452
        0
462
0.0
453
        2
463
0.0
 63
    18
421
   327680
463
1.0
 63
    18
421
   327680
470
LINEAR
1001
ACAD
1010
0.0
1020
0.0
1030
0.0
  0
LWPOLYLINE
  5
964
102
{ACAD_REACTORS
330
963
102
}
330
1F
100
AcDbEntity
  8
DETAIL
100
AcDbPolyline
 90
        3
 70
     1
 43
0.0
 10
138.9995548622814
 20
145.7251718394326
 10
138.9920857258248
 20
145.8038751557576
 10
138.9510626706171
 20
145.7367966799001
  0
HATCH
  5
965
330
1F
100
AcDbEntity
  8
DETAIL
100
AcDbHatch
 10
0.0
 20
0.0
 30
0.0
210
0.0
220
0.0
230
1.0
  2
SOLID
 70
     1
 71
     1
 91
        1
 92
        1
 93
        4
 72
     1
 10
139.179180397778
 20
145.7201321232292
 11
139.1394784936425
 21
145.7884970177877
 72
     1
 10
139.1394784936425
 20
145.7884970177877
 11
139.1302210802158
 21
145.7099839596596
 72
     1
 10
139.1302210802158
 20
145.7099839596596
 11
139.1303081846385
 21
145.7098749920765
 72
     1
 10
139.1303081846385
 20
145.7098749920765
 11
139.179180397778
 21
145.7201321232292
 97
        1
330
966
 75
     0
 76
     1
 98
        1
 10
6.494868932991523
 20
3.021554417042523
450
        1
451
        0
460
0.0
461
0.0
452
        0
462
0.0
453
        2
463
0.0
 63
    18
421
   327680
463
1.0
 63
    18
421
   327680
470
LINEAR
1001
ACAD
1010
0.0
1020
0.0
1030
0.0
  0
LWPOLYLINE
  5
966
102
{ACAD_REACTORS
330
965
102
}
330
1F
100
AcDbEntity
  8
DETAIL
100
AcDbPolyline
 90
        4
 70
     1
 43
0.0
 10
139.179180397778
 20
145.7201321232292
 10
139.1394784936425
 20
145.7884970177877
 10
139.1302210802158
 20
145.7099839596596
 10
139.1303081846385
 20
145.7098749920765
  0
HATCH
  5
967
330
1F
100
AcDbEntity
  8
DETAIL
100
AcDbHatch
 10
0.0
 20
0.0
 30
0.0
210
0.0
220
0.0
230
1.0
  2
SOLID
 70
     1
 71
     1
 91
        1
 92
        1
 93
        4
 72
     1
 10
144.4935523872733
 20
148.2449037169207
 11
144.5629807513754
 21
148.2699167462666
 72
     1
 10
144.5629807513754
 20
148.2699167462666
 11
144.4927246780299
 21
148.2914730013364
 72
     1
 10
144.4927246780299
 20
148.2914730013364
 11
144.4929381636065
 21
148.2728997561744
 72
     1
 10
144.4929381636065
 20
148.2728997561744
 11
144.4935523872733
 21
148.2449037169207
 97
        1
330
968
 75
     0
 76
     1
 98
        1
 10
6.494868932991523
 20
3.021554417042523
450
        1
451
        0
460
0.0
461
0.0
452
        0
462
0.0
453
        2
463
0.0
 63
    18
421
   327680
463
1.0
 63
    18
421
   327680
470
LINEAR
1001
ACAD
1010
0.0
1020
0.0
1030
0.0
  0
LWPOLYLINE
  5
968
102
{ACAD_REACTORS
330
967
102
}
330
1F
100
AcDbEntity
  8
DETAIL
100
AcDbPolyline
 90
        4
 70
     1
 43
0.0
 10
144.4935523872733
 20
148.2449037169207
 10
144.5629807513754
 20
148.2699167462666
 10
144.4927246780299
 20
148.2914730013364
 10
144.4929381636065
 20
148.2728997561744
  0
HATCH
  5
969
330
1F
100
AcDbEntity
  8
DETAIL
100
AcDbHatch
 10
0.0
 20
0.0
 30
0.0
210
0.0
220
0.0
230
1.0
  2
SOLID
 70
     1
 71
     1
 91
        1
 92
        1
 93
        4
 72
     1
 10
144.571858361806
 20
148.0974374578994
 11
144.4962789758279
 21
148.1206270334704
 72
     1
 10
144.4962789758279
 20
148.1206270334704
 11
144.5001435928849
 21
148.1082258788933
 72
     1
 10
144.5001435928849
 20
148.1082258788933
 11
144.4974811076811
 21
148.0706414867693
 72
     1
 10
144.4974811076811
 20
148.0706414867693
 11
144.571858361806
 21
148.0974374578994
 97
        1
330
96A
 75
     0
 76
     1
 98
        1
 10
6.494868932991523
 20
3.021554417042523
450
        1
451
        0
460
0.0
461
0.0
452
        0
462
0.0
453
        2
463
0.0
 63
    18
421
   327680
463
1.0
 63
    18
421
   327680
470
LINEAR
1001
ACAD
1010
0.0
1020
0.0
1030
0.0
  0
LWPOLYLINE
  5
96A
102
{ACAD_REACTORS
330
969
102
}
330
1F
100
AcDbEntity
  8
DETAIL
100
AcDbPolyline
 90
        4
 70
     1
 43
0.0
 10
144.571858361806
 20
148.0974374578994
 10
144.4962789758279
 20
148.1206270334704
 10
144.5001435928849
 20
148.1082258788933
 10
144.4974811076811
 20
148.0706414867693
  0
HATCH
  5
96B
330
1F
100
AcDbEntity
  8
DETAIL
100
AcDbHatch
 10
0.0
 20
0.0
 30
0.0
210
0.0
220
0.0
230
1.0
  2
SOLID
 70
     1
 71
     1
 91
        1
 92
        1
 93
        4
 72
     1
 10
144.4946728113586
 20
147.9124220674335
 11
144.5640111883003
 21
147.937402677011
 72
     1
 10
144.5640111883003
 20
147.937402677011
 11
144.4950706726388
 21
147.9585552873047
 72
     1
 10
144.4950706726388
 20
147.9585552873047
 11
144.4950706726388
 21
147.9382830506492
 72
     1
 10
144.4950706726388
 20
147.9382830506492
 11
144.4946728113586
 21
147.9124220674335
 97
        1
330
96C
 75
     0
 76
     1
 98
        1
 10
6.494868932991523
 20
3.021554417042523
450
        1
451
        0
460
0.0
461
0.0
452
        0
462
0.0
453
        2
463
0.0
 63
    18
421
   327680
463
1.0
 63
    18
421
   327680
470
LINEAR
1001
ACAD
1010
0.0
1020
0.0
1030
0.0
  0
LWPOLYLINE
  5
96C
102
{ACAD_REACTORS
330
96B
102
}
330
1F
100
AcDbEntity
  8
DETAIL
100
AcDbPolyline
 90
        4
 70
     1
 43
0.0
 10
144.4946728113586
 20
147.9124220674335
 10
144.5640111883003
 20
147.937402677011
 10
144.4950706726388
 20
147.9585552873047
 10
144.4950706726388
 20
147.9382830506492
  0
LWPOLYLINE
  5
96D
330
1F
100
AcDbEntity
  8
DETAIL
100
AcDbPolyline
 90
        2
 70
     0
 43
0.0
 10
139.406104658351
 20
148.1273067772885
 10
139.3241783456469
 20
148.1428547286419
  0
LWPOLYLINE
  5
96E
330
1F
100
AcDbEntity
  8
DETAIL
100
AcDbPolyline
 90
        2
 70
     0
 43
0.0
 10
139.4592626870509
 20
148.2252466476444
 10
139.4137861840851
 20
148.242968580575
  0
LWPOLYLINE
  5
96F
330
1F
100
AcDbEntity
  8
DETAIL
100
AcDbPolyline
 90
        2
 70
     0
 43
0.0
 10
139.5237914232464
 20
148.3360237153347
 10
139.4851241250458
 20
148.3380858351892
  0
LWPOLYLINE
  5
970
330
1F
100
AcDbEntity
  8
DETAIL
100
AcDbPolyline
 90
        2
 70
     0
 43
0.0
 10
138.3847312958456
 20
148.3189744339901
 10
138.42699983547
 20
148.320724399762
  0
LWPOLYLINE
  5
971
330
1F
100
AcDbEntity
  8
DETAIL
100
AcDbPolyline
 90
        2
 70
     0
 43
0.0
 10
138.3872471107053
 20
148.0391782357784
 10
138.4372636213579
 20
148.0488253862969
  0
LWPOLYLINE
  5
972
330
1F
100
AcDbEntity
  8
DETAIL
100
AcDbPolyline
 90
        2
 70
     0
 43
0.0
 10
138.3846422665801
 20
148.1816626310357
 10
138.4203809427789
 20
148.1806401459714
  0
LWPOLYLINE
  5
973
330
1F
100
AcDbEntity
  8
DETAIL
100
AcDbPolyline
 90
        2
 70
     0
 43
0.0
 10
141.0968020221698
 20
148.3219075217087
 10
141.2443865697364
 20
148.3257278436963
  0
LWPOLYLINE
  5
974
330
1F
100
AcDbEntity
  8
DETAIL
100
AcDbPolyline
 90
        2
 70
     0
 43
0.0
 10
141.0900729617834
 20
148.2114303926588
 10
141.2443865697364
 20
148.2187209322553
  0
LWPOLYLINE
  5
975
330
1F
100
AcDbEntity
  8
DETAIL
100
AcDbPolyline
 90
        2
 70
     0
 43
0.0
 10
141.088861387698
 20
148.080086738227
 10
141.2305153034385
 20
148.0938795355741
  0
LWPOLYLINE
  5
976
330
1F
100
AcDbEntity
  8
DETAIL
100
AcDbPolyline
 90
        2
 70
     0
 43
0.0
 10
141.9885700769648
 20
148.10213504657
 10
141.8982712512374
 20
148.1165054905902
  0
LWPOLYLINE
  5
977
330
1F
100
AcDbEntity
  8
DETAIL
100
AcDbPolyline
 90
        2
 70
     0
 43
0.0
 10
142.0208873079895
 20
148.2315855372223
 10
141.9230413696265
 20
148.2329250470191
  0
LWPOLYLINE
  5
978
330
1F
100
AcDbEntity
  8
DETAIL
100
AcDbPolyline
 90
        2
 70
     0
 43
0.0
 10
142.0521701821956
 20
148.3393996345565
 10
141.9428574643378
 20
148.3394365560923
  0
LWPOLYLINE
  5
979
330
1F
100
AcDbEntity
  8
DETAIL
100
AcDbPolyline
 90
        2
 70
     0
 43
0.0
 10
144.0691300131477
 20
148.2884793273182
 10
144.2066307106909
 20
148.2863493650536
  0
LWPOLYLINE
  5
97A
330
1F
100
AcDbEntity
  8
DETAIL
100
AcDbPolyline
 90
        2
 70
     0
 43
0.0
 10
144.0577174234752
 20
148.1473124401511
 10
144.1907778349219
 20
148.1456550926033
  0
LWPOLYLINE
  5
97B
330
1F
100
AcDbEntity
  8
DETAIL
100
AcDbPolyline
 90
        2
 70
     0
 43
0.0
 10
144.0566766084306
 20
148.0187287506189
 10
144.1709617402106
 20
148.0109056485665
  0
LWPOLYLINE
  5
97C
330
1F
100
AcDbEntity
  8
DETAIL
100
AcDbPolyline
 90
        2
 70
     0
 43
0.0
 10
144.0547699975612
 20
147.8718286841411
 10
144.1511456454993
 20
147.866248157174
  0
LWPOLYLINE
  5
97D
330
1F
100
AcDbEntity
  8
DETAIL
100
AcDbPolyline
 90
        2
 70
     0
 43
0.0
 10
144.5629807513754
 20
148.2699167462666
 10
144.878904108831
 20
148.2713448658394
  0
LWPOLYLINE
  5
97E
330
1F
100
AcDbEntity
  8
DETAIL
100
AcDbPolyline
 90
        2
 70
     0
 43
0.0
 10
144.571858361806
 20
148.0974374578994
 10
144.8519542200236
 20
148.1017190951106
  0
LWPOLYLINE
  5
97F
330
1F
100
AcDbEntity
  8
DETAIL
100
AcDbPolyline
 90
        2
 70
     0
 43
0.0
 10
144.5640111883003
 20
147.937402677011
 10
144.8551247951774
 20
147.9542873504585
  0
LWPOLYLINE
  5
980
330
1F
100
AcDbEntity
  8
DETAIL
100
AcDbPolyline
 90
        2
 70
     0
 43
0.0
 10
145.493891754437
 20
148.2738892330443
 10
145.3186635019171
 20
148.2736577756439
  0
LWPOLYLINE
  5
981
330
1F
100
AcDbEntity
  8
DETAIL
100
AcDbPolyline
 90
        2
 70
     0
 43
0.0
 10
145.4912504086839
 20
148.1452422429946
 10
145.3186635019171
 20
148.1408899410782
  0
LWPOLYLINE
  5
982
330
1F
100
AcDbEntity
  8
DETAIL
100
AcDbPolyline
 90
        2
 70
     0
 43
0.0
 10
145.4839929657
 20
147.9916222922685
 10
145.2928406534965
 20
147.9853800415665
  0
LWPOLYLINE
  5
983
330
1F
100
AcDbEntity
  8
DETAIL
100
AcDbPolyline
 90
        2
 70
     0
 43
0.0
 10
145.4883766976822
 20
147.8470515396359
 10
145.2829326061408
 20
147.8540984141041
  0
LWPOLYLINE
  5
984
330
1F
100
AcDbEntity
  8
DETAIL
100
AcDbPolyline
 90
        2
 70
     0
 43
0.0
 10
138.0618456141232
 20
146.3419507679767
 10
138.1128183081279
 20
146.3567688280985
  0
LWPOLYLINE
  5
985
330
1F
100
AcDbEntity
  8
DRAWING POINT
 62
     5
100
AcDbPolyline
 90
        9
 70
     0
 43
0.0
 10
137.8648482364602
 20
148.3829922789463
 10
137.9448482364602
 20
148.3829922789463
 10
137.9048482364602
 20
148.3829922789463
 10
137.9048482364602
 20
148.3429922789463
 10
137.9048482364602
 20
148.4229922789463
 10
137.9048482364602
 20
148.3829922789463
 10
137.9448482364602
 20
148.3829922789463
 10
137.9248482364602
 20
148.3829922789463
 10
137.9248482364602
 20
148.3829922789463
  0
CIRCLE
  5
986
330
1F
100
AcDbEntity
  8
DRAWING POINT
 62
     5
100
AcDbCircle
 10
137.9048482364602
 20
148.3829922789463
 30
0.0
 40
0.0200000000000102
  0
LWPOLYLINE
  5
987
330
1F
100
AcDbEntity
  8
DRAWING POINT
 62
     5
100
AcDbPolyline
 90
        9
 70
     0
 43
0.0
 10
137.8648482364602
 20
148.3829922789463
 10
137.9448482364602
 20
148.3829922789463
 10
137.9048482364602
 20
148.3829922789463
 10
137.9048482364602
 20
148.3429922789463
 10
137.9048482364602
 20
148.4229922789463
 10
137.9048482364602
 20
148.3829922789463
 10
137.9448482364602
 20
148.3829922789463
 10
137.9248482364602
 20
148.3829922789463
 10
137.9248482364602
 20
148.3829922789463
  0
CIRCLE
  5
988
330
1F
100
AcDbEntity
  8
DRAWING POINT
 62
     5
100
AcDbCircle
 10
137.9048482364602
 20
148.3829922789463
 30
0.0
 40
0.0200000000000102
  0
LWPOLYLINE
  5
989
330
1F
100
AcDbEntity
  8
DRAWING POINT
 62
     5
100
AcDbPolyline
 90
        9
 70
     0
 43
0.0
 10
139.6598158563329
 20
148.3832697042723
 10
139.7398158563329
 20
148.3832697042723
 10
139.6998158563329
 20
148.3832697042723
 10
139.6998158563329
 20
148.3432697042723
 10
139.6998158563329
 20
148.4232697042723
 10
139.6998158563329
 20
148.3832697042723
 10
139.7398158563329
 20
148.3832697042723
 10
139.7198158563329
 20
148.3832697042723
 10
139.7198158563329
 20
148.3832697042723
  0
CIRCLE
  5
98A
330
1F
100
AcDbEntity
  8
DRAWING POINT
 62
     5
100
AcDbCircle
 10
139.6998158563329
 20
148.3832697042723
 30
0.0
 40
0.0200000000000102
  0
TEXT
  5
98B
330
1F
100
AcDbEntity
  8
Co-ord
100
AcDbText
 10
139.7398158563329
 20
148.3182697042723
 30
0.0
 40
0.025
  1
N 258895.06
  7
Text
 11
139.7398158563329
 21
148.3432697042723
 31
0.0
100
AcDbText
 73
     3
  0
TEXT
  5
98C
330
1F
100
AcDbEntity
  8
Co-ord
100
AcDbText
 10
137.6666307676545
 20
148.3524597706593
 30
0.0
 40
0.025
  1
E 442964.58
  7
Text
 72
     2
 11
137.8648482364602
 21
148.3429922789463
 31
0.0
100
AcDbText
 73
     1
  0
TEXT
  5
98D
330
1F
100
AcDbEntity
  8
DETAIL
100
AcDbText
 10
137.6647043830656
 20
148.3179922789463
 30
0.0
 40
0.025
  1
N 258883.23
  7
Text
 72
     2
 11
137.8648482364602
 21
148.3429922789463
 31
0.0
100
AcDbText
 73
     3
  0
TEXT
  5
98E
330
1F
100
AcDbEntity
  8
Co-ord
100
AcDbText
 10
139.7398158563329
 20
148.3527371959853
 30
0.0
 40
0.025
  1
E 442916.81
  7
Text
 11
139.7398158563329
 21
148.3432697042723
 31
0.0
100
AcDbText
 73
     1
  0
TEXT
  5
98F
330
1F
100
AcDbEntity
  8
DRAWING POINT
100
AcDbText
 10
139.7398158563329
 20
148.3927371959853
 30
0.0
 40
0.025
  1
dp63.2
  7
Text
 11
139.7398158563329
 21
148.3832697042723
 31
0.0
100
AcDbText
 73
     1
  0
TEXT
  5
990
330
1F
100
AcDbEntity
  8
DRAWING POINT
100
AcDbText
 10
137.7579464007658
 20
148.3924597706593
 30
0.0
 40
0.025
  1
dp63.1
  7
Text
 72
     2
 11
137.8648482364602
 21
148.3829922789463
 31
0.0
100
AcDbText
 73
     1
  0
TEXT
  5
991
330
1F
100
AcDbEntity
  8
Annotatons
100
AcDbText
 10
138.8693188318022
 20
148.5326277031788
 30
0.0
 40
0.05
  1
(1704)
  7
Text
 72
     1
 11
138.9703414418031
 21
148.5136927197527
 31
0.0
100
AcDbText
 73
     1
  0
TEXT
  5
992
330
1F
100
AcDbEntity
  8
Annotatons
100
AcDbText
 10
139.6356316624534
 20
148.1311960946315
 30
0.0
 40
0.05
  1
[1703]
  7
Text
 72
     1
 11
139.7328015032765
 21
148.1122611112054
 31
0.0
100
AcDbText
 73
     1
  0
LINE
  5
993
330
1F
100
AcDbEntity
  8
DETAIL
100
AcDbLine
 10
139.6230072312077
 20
148.1489870095013
 30
0.0
 11
139.5021833987644
 21
148.1596479358933
 31
0.0
  0
LWPOLYLINE
  5
994
330
1F
100
AcDbEntity
  8
DRAWING POINT
 62
     5
100
AcDbPolyline
 90
        9
 70
     0
 43
0.0
 10
140.8501231698998
 20
148.3806804528344
 10
140.9301231698998
 20
148.3806804528344
 10
140.8901231698998
 20
148.3806804528344
 10
140.8901231698998
 20
148.3406804528344
 10
140.8901231698998
 20
148.4206804528344
 10
140.8901231698998
 20
148.3806804528344
 10
140.9301231698998
 20
148.3806804528344
 10
140.9101231698998
 20
148.3806804528344
 10
140.9101231698998
 20
148.3806804528344
  0
CIRCLE
  5
995
330
1F
100
AcDbEntity
  8
DRAWING POINT
 62
     5
100
AcDbCircle
 10
140.8901231698998
 20
148.3806804528344
 30
0.0
 40
0.0200000000000102
  0
LWPOLYLINE
  5
996
330
1F
100
AcDbEntity
  8
DRAWING POINT
 62
     5
100
AcDbPolyline
 90
        9
 70
     0
 43
0.0
 10
140.8501231698998
 20
148.3806804528344
 10
140.9301231698998
 20
148.3806804528344
 10
140.8901231698998
 20
148.3806804528344
 10
140.8901231698998
 20
148.3406804528344
 10
140.8901231698998
 20
148.4206804528344
 10
140.8901231698998
 20
148.3806804528344
 10
140.9301231698998
 20
148.3806804528344
 10
140.9101231698998
 20
148.3806804528344
 10
140.9101231698998
 20
148.3806804528344
  0
CIRCLE
  5
997
330
1F
100
AcDbEntity
  8
DRAWING POINT
 62
     5
100
AcDbCircle
 10
140.8901231698998
 20
148.3806804528344
 30
0.0
 40
0.0200000000000102
  0
LWPOLYLINE
  5
998
330
1F
100
AcDbEntity
  8
DRAWING POINT
 62
     5
100
AcDbPolyline
 90
        9
 70
     0
 43
0.0
 10
142.1437885761116
 20
148.3806804528344
 10
142.2237885761116
 20
148.3806804528344
 10
142.1837885761116
 20
148.3806804528344
 10
142.1837885761116
 20
148.3406804528344
 10
142.1837885761116
 20
148.4206804528344
 10
142.1837885761116
 20
148.3806804528344
 10
142.2237885761116
 20
148.3806804528344
 10
142.2037885761116
 20
148.3806804528344
 10
142.2037885761116
 20
148.3806804528344
  0
CIRCLE
  5
999
330
1F
100
AcDbEntity
  8
DRAWING POINT
 62
     5
100
AcDbCircle
 10
142.1837885761116
 20
148.3806804528344
 30
0.0
 40
0.0200000000000102
  0
TEXT
  5
99A
330
1F
100
AcDbEntity
  8
Co-ord
100
AcDbText
 10
142.2237885761116
 20
148.3156804528344
 30
0.0
 40
0.025
  1
N 258895.39
  7
Text
 11
142.2237885761116
 21
148.3406804528344
 31
0.0
100
AcDbText
 73
     3
  0
TEXT
  5
99B
330
1F
100
AcDbEntity
  8
Co-ord
100
AcDbText
 10
140.6519057010941
 20
148.3501479445474
 30
0.0
 40
0.025
  1
E 442964.57
  7
Text
 72
     2
 11
140.8501231698998
 21
148.3406804528344
 31
0.0
100
AcDbText
 73
     1
  0
TEXT
  5
99C
330
1F
100
AcDbEntity
  8
Co-ord
100
AcDbText
 10
140.6499793165052
 20
148.3156804528344
 30
0.0
 40
0.025
  1
N 258869.01
  7
Text
 72
     2
 11
140.8501231698998
 21
148.3406804528344
 31
0.0
100
AcDbText
 73
     3
  0
TEXT
  5
99D
330
1F
100
AcDbEntity
  8
Co-ord
100
AcDbText
 10
142.2237885761116
 20
148.3501479445474
 30
0.0
 40
0.025
  1
E 442963.41
  7
Text
 11
142.2237885761116
 21
148.3406804528344
 31
0.0
100
AcDbText
 73
     1
  0
TEXT
  5
99E
330
1F
100
AcDbEntity
  8
DRAWING POINT
100
AcDbText
 10
142.2237885761116
 20
148.3901479445474
 30
0.0
 40
0.025
  1
dp65.2
  7
Text
 11
142.2237885761116
 21
148.3806804528344
 31
0.0
100
AcDbText
 73
     1
  0
TEXT
  5
99F
330
1F
100
AcDbEntity
  8
DRAWING POINT
100
AcDbText
 10
140.7432213342054
 20
148.3901479445474
 30
0.0
 40
0.025
  1
dp65.1
  7
Text
 72
     2
 11
140.8501231698998
 21
148.3806804528344
 31
0.0
100
AcDbText
 73
     1
  0
LWPOLYLINE
  5
9A0
330
1F
100
AcDbEntity
  8
DRAWING POINT
100
AcDbPolyline
 90
        9
 70
     0
 43
0.0
 10
143.8543859744062
 20
148.3931272799475
 10
143.9343859744062
 20
148.3931272799475
 10
143.8943859744062
 20
148.3931272799475
 10
143.8943859744062
 20
148.3531272799475
 10
143.8943859744062
 20
148.4331272799475
 10
143.8943859744062
 20
148.3931272799475
 10
143.9343859744062
 20
148.3931272799475
 10
143.9143859744062
 20
148.3931272799475
 10
143.9143859744062
 20
148.3931272799475
  0
CIRCLE
  5
9A1
330
1F
100
AcDbEntity
  8
DRAWING POINT
100
AcDbCircle
 10
143.8943859744062
 20
148.3931272799475
 30
0.0
 40
0.0200000000000102
  0
LWPOLYLINE
  5
9A2
330
1F
100
AcDbEntity
  8
DRAWING POINT
100
AcDbPolyline
 90
        9
 70
     0
 43
0.0
 10
143.8543859744062
 20
148.3931272799475
 10
143.9343859744062
 20
148.3931272799475
 10
143.8943859744062
 20
148.3931272799475
 10
143.8943859744062
 20
148.3531272799475
 10
143.8943859744062
 20
148.4331272799475
 10
143.8943859744062
 20
148.3931272799475
 10
143.9343859744062
 20
148.3931272799475
 10
143.9143859744062
 20
148.3931272799475
 10
143.9143859744062
 20
148.3931272799475
  0
CIRCLE
  5
9A3
330
1F
100
AcDbEntity
  8
DRAWING POINT
100
AcDbCircle
 10
143.8943859744062
 20
148.3931272799475
 30
0.0
 40
0.0200000000000102
  0
LWPOLYLINE
  5
9A4
330
1F
100
AcDbEntity
  8
DRAWING POINT
 62
     5
100
AcDbPolyline
 90
        9
 70
     0
 43
0.0
 10
145.658635514967
 20
148.3931272799475
 10
145.738635514967
 20
148.3931272799475
 10
145.698635514967
 20
148.3931272799475
 10
145.698635514967
 20
148.3531272799474
 10
145.698635514967
 20
148.4331272799475
 10
145.698635514967
 20
148.3931272799475
 10
145.738635514967
 20
148.3931272799475
 10
145.718635514967
 20
148.3931272799475
 10
145.718635514967
 20
148.3931272799475
  0
CIRCLE
  5
9A5
330
1F
100
AcDbEntity
  8
DRAWING POINT
 62
     5
100
AcDbCircle
 10
145.698635514967
 20
148.3931272799475
 30
0.0
 40
0.0200000000000102
  0
TEXT
  5
9A6
330
1F
100
AcDbEntity
  8
Co-ord
100
AcDbText
 10
145.738635514967
 20
148.3281272799475
 30
0.0
 40
0.025
  1
N 258883.27
  7
Text
 11
145.738635514967
 21
148.3531272799475
 31
0.0
100
AcDbText
 73
     3
  0
TEXT
  5
9A7
330
1F
100
AcDbEntity
  8
Co-ord
100
AcDbText
 10
143.6561685056005
 20
148.3625947716605
 30
0.0
 40
0.025
  1
E 442891.57
  7
Text
 72
     2
 11
143.8543859744062
 21
148.3531272799475
 31
0.0
100
AcDbText
 73
     1
  0
TEXT
  5
9A8
330
1F
100
AcDbEntity
  8
Co-ord
100
AcDbText
 10
143.6542421210116
 20
148.3281272799475
 30
0.0
 40
0.025
  1
N 258895.06
  7
Text
 72
     2
 11
143.8543859744062
 21
148.3531272799475
 31
0.0
100
AcDbText
 73
     3
  0
TEXT
  5
9A9
330
1F
100
AcDbEntity
  8
Co-ord
100
AcDbText
 10
145.738635514967
 20
148.3625947716605
 30
0.0
 40
0.025
  1
E 442892.09
  7
Text
 11
145.738635514967
 21
148.3531272799475
 31
0.0
100
AcDbText
 73
     1
  0
TEXT
  5
9AA
330
1F
100
AcDbEntity
  8
DRAWING POINT
100
AcDbText
 10
145.738635514967
 20
148.4025947716605
 30
0.0
 40
0.025
  1
dp82.2
  7
Text
 11
145.738635514967
 21
148.3931272799475
 31
0.0
100
AcDbText
 73
     1
  0
TEXT
  5
9AB
330
1F
100
AcDbEntity
  8
DRAWING POINT
100
AcDbText
 10
143.7474841387118
 20
148.4025947716605
 30
0.0
 40
0.025
  1
dp82.1
  7
Text
 72
     2
 11
143.8543859744062
 21
148.3931272799475
 31
0.0
100
AcDbText
 73
     1
  0
LWPOLYLINE
  5
9AC
330
1F
100
AcDbEntity
  8
DRAWING POINT
 62
     5
100
AcDbPolyline
 90
        9
 70
     0
 43
0.0
 10
137.8632734091979
 20
146.3803436816326
 10
137.9432734091979
 20
146.3803436816326
 10
137.9032734091979
 20
146.3803436816326
 10
137.9032734091979
 20
146.3403436816326
 10
137.9032734091979
 20
146.4203436816326
 10
137.9032734091979
 20
146.3803436816326
 10
137.9432734091979
 20
146.3803436816326
 10
137.9232734091979
 20
146.3803436816326
 10
137.9232734091979
 20
146.3803436816326
  0
CIRCLE
  5
9AD
330
1F
100
AcDbEntity
  8
DRAWING POINT
 62
     5
100
AcDbCircle
 10
137.9032734091979
 20
146.3803436816326
 30
0.0
 40
0.0200000000000102
  0
LWPOLYLINE
  5
9AE
330
1F
100
AcDbEntity
  8
DRAWING POINT
 62
     5
100
AcDbPolyline
 90
        9
 70
     0
 43
0.0
 10
137.8632734091979
 20
146.3803436816326
 10
137.9432734091979
 20
146.3803436816326
 10
137.9032734091979
 20
146.3803436816326
 10
137.9032734091979
 20
146.3403436816326
 10
137.9032734091979
 20
146.4203436816326
 10
137.9032734091979
 20
146.3803436816326
 10
137.9432734091979
 20
146.3803436816326
 10
137.9232734091979
 20
146.3803436816326
 10
137.9232734091979
 20
146.3803436816326
  0
CIRCLE
  5
9AF
330
1F
100
AcDbEntity
  8
DRAWING POINT
 62
     5
100
AcDbCircle
 10
137.9032734091979
 20
146.3803436816326
 30
0.0
 40
0.0200000000000102
  0
LWPOLYLINE
  5
9B0
330
1F
100
AcDbEntity
  8
DRAWING POINT
 62
     5
100
AcDbPolyline
 90
        9
 70
     0
 43
0.0
 10
139.1694688788772
 20
146.3816640527933
 10
139.2494688788773
 20
146.3816640527933
 10
139.2094688788773
 20
146.3816640527933
 10
139.2094688788773
 20
146.3416640527933
 10
139.2094688788773
 20
146.4216640527933
 10
139.2094688788773
 20
146.3816640527933
 10
139.2494688788773
 20
146.3816640527933
 10
139.2294688788772
 20
146.3816640527933
 10
139.2294688788772
 20
146.3816640527933
  0
CIRCLE
  5
9B1
330
1F
100
AcDbEntity
  8
DRAWING POINT
 62
     5
100
AcDbCircle
 10
139.2094688788773
 20
146.3816640527933
 30
0.0
 40
0.0200000000000102
  0
TEXT
  5
9B2
330
1F
100
AcDbEntity
  8
Co-ord
100
AcDbText
 10
139.2494688788773
 20
146.3166640527933
 30
0.0
 40
0.025
  1
N 258878.67
  7
Text
 11
139.2494688788773
 21
146.3416640527933
 31
0.0
100
AcDbText
 73
     3
  0
TEXT
  5
9B3
330
1F
100
AcDbEntity
  8
Co-ord
100
AcDbText
 10
137.6650559403922
 20
146.3498111733456
 30
0.0
 40
0.025
  1
E 442947.63
  7
Text
 72
     2
 11
137.8632734091979
 21
146.3403436816326
 31
0.0
100
AcDbText
 73
     1
  0
TEXT
  5
9B4
330
1F
100
AcDbEntity
  8
Co-ord
100
AcDbText
 10
137.6631295558033
 20
146.3153436816326
 30
0.0
 40
0.025
  1
N 258879.02
  7
Text
 72
     2
 11
137.8632734091979
 21
146.3403436816326
 31
0.0
100
AcDbText
 73
     3
  0
TEXT
  5
9B5
330
1F
100
AcDbEntity
  8
Co-ord
100
AcDbText
 10
139.2494688788773
 20
146.3511315445064
 30
0.0
 40
0.025
  1
E 442948.86
  7
Text
 11
139.2494688788773
 21
146.3416640527933
 31
0.0
100
AcDbText
 73
     1
  0
TEXT
  5
9B6
330
1F
100
AcDbEntity
  8
DRAWING POINT
100
AcDbText
 10
139.2494688788773
 20
146.3911315445064
 30
0.0
 40
0.025
  1
dp79.2
  7
Text
 11
139.2494688788773
 21
146.3816640527933
 31
0.0
100
AcDbText
 73
     1
  0
TEXT
  5
9B7
330
1F
100
AcDbEntity
  8
DRAWING POINT
100
AcDbText
 10
137.7563715735035
 20
146.3898111733456
 30
0.0
 40
0.025
  1
dp79.1
  7
Text
 72
     2
 11
137.8632734091979
 21
146.3803436816326
 31
0.0
100
AcDbText
 73
     1
  0
LWPOLYLINE
  5
9B8
330
1F
100
AcDbEntity
  8
DRAWING POINT
 62
     5
100
AcDbPolyline
 90
        9
 70
     0
 43
0.0
 10
139.1716960840723
 20
145.6391189434386
 10
139.2516960840723
 20
145.6391189434386
 10
139.2116960840723
 20
145.6391189434386
 10
139.2116960840723
 20
145.5991189434386
 10
139.2116960840723
 20
145.6791189434386
 10
139.2116960840723
 20
145.6391189434386
 10
139.2516960840723
 20
145.6391189434386
 10
139.2316960840723
 20
145.6391189434386
 10
139.2316960840723
 20
145.6391189434386
  0
CIRCLE
  5
9B9
330
1F
100
AcDbEntity
  8
DRAWING POINT
 62
     5
100
AcDbCircle
 10
139.2116960840723
 20
145.6391189434386
 30
0.0
 40
0.0200000000000102
  0
TEXT
  5
9BA
330
1F
100
AcDbEntity
  8
Co-ord
 62
     1
100
AcDbText
 10
139.2516960840723
 20
145.5741189434386
 30
0.0
 40
0.025
  1
N ?????
  7
Text
 11
139.2516960840723
 21
145.5991189434386
 31
0.0
100
AcDbText
 73
     3
  0
TEXT
  5
9BB
330
1F
100
AcDbEntity
  8
Co-ord
 62
     1
100
AcDbText
 10
139.2516960840723
 20
145.6085864351517
 30
0.0
 40
0.025
  1
E ????
  7
Text
 11
139.2516960840723
 21
145.5991189434386
 31
0.0
100
AcDbText
 73
     1
  0
TEXT
  5
9BC
330
1F
100
AcDbEntity
  8
DRAWING POINT
100
AcDbText
 10
139.2516960840723
 20
145.6485864351517
 30
0.0
 40
0.025
  1
dp79.3
  7
Text
 11
139.2516960840723
 21
145.6391189434386
 31
0.0
100
AcDbText
 73
     1
  0
TEXT
  5
9BD
330
1F
100
AcDbEntity
  8
Annotatons
100
AcDbText
 10
141.4462765995252
 20
147.9084574503331
 30
0.0
 40
0.05
  1
(1707)
  7
Text
 72
     1
 11
141.5472992095262
 21
147.8895224669071
 31
0.0
100
AcDbText
 73
     1
  0
TEXT
  5
9BE
330
1F
100
AcDbEntity
  8
Annotatons
100
AcDbText
 10
142.2125508744705
 20
148.1559521254303
 30
0.0
 40
0.05
  1
[1706]
  7
Text
 72
     1
 11
142.3097207152936
 21
148.1370171420043
 31
0.0
100
AcDbText
 73
     1
  0
LINE
  5
9BF
330
1F
100
AcDbEntity
  8
Annotatons
100
AcDbLine
 10
142.1999264432248
 20
148.1737430403001
 30
0.0
 11
142.0791026107815
 21
148.1844039666922
 31
0.0
  0
TEXT
  5
9C0
330
1F
100
AcDbEntity
  8
Annotatons
100
AcDbText
 10
144.7236269242646
 20
147.612098737692
 30
0.0
 40
0.05
  1
(1504)
  7
Text
 72
     1
 11
144.8246495342655
 21
147.593163754266
 31
0.0
100
AcDbText
 73
     1
  0
TEXT
  5
9C1
330
1F
100
AcDbEntity
  8
Annotatons
100
AcDbText
 10
145.6939766774119
 20
147.9054134899271
 30
0.0
 40
0.05
  1
[1503]
  7
Text
 72
     1
 11
145.791146518235
 21
147.886478506501
 31
0.0
100
AcDbText
 73
     1
  0
LINE
  5
9C2
330
1F
100
AcDbEntity
  8
Annotatons
100
AcDbLine
 10
145.6813522461662
 20
147.9232044047969
 30
0.0
 11
145.5605284137229
 21
147.9338653311889
 31
0.0
  0
TEXT
  5
9C3
330
1F
100
AcDbEntity
  8
Annotatons
100
AcDbText
 10
138.5296649384839
 20
146.4956957044355
 30
0.0
 40
0.05
  1
(1606)
  7
Text
 72
     1
 11
138.6306875484848
 21
146.4767607210094
 31
0.0
100
AcDbText
 73
     1
  0
TEXT
  5
9C4
330
1F
100
AcDbEntity
  8
Annotatons
100
AcDbText
 10
138.0670573186756
 20
145.7549193386431
 30
0.0
 40
0.05
  1
[1605]
  7
Text
 72
     1
 11
138.1642271594987
 21
145.735984355217
 31
0.0
100
AcDbText
 73
     1
  0
LINE
  5
9C5
330
1F
100
AcDbEntity
  8
Annotatons
100
AcDbLine
 10
138.2849814866457
 20
145.8319685639749
 30
0.0
 11
138.4015439585289
 21
145.921110046239
 31
0.0
  0
TEXT
  5
9D9
330
1F
100
AcDbEntity
  8
Annotatons
100
AcDbText
 10
138.4942357430215
 20
146.9306236080435
 30
0.0
 40
0.05
  1
Land Drain
  7
Text
 72
     1
 11
138.6651836118022
 21
146.9116886246175
 31
0.0
100
AcDbText
 73
     1
  0
ENDSEC
  0
SECTION
  2
OBJECTS
  0
DICTIONARY
  5
C
330
0
100
AcDbDictionary
281
     1
  3
ACAD_DETAILVIEWSTYLE
350
B5
  3
ACAD_GROUP
350
D
  3
ACAD_IMAGE_DICT
350
CB
  3
ACAD_IMAGE_VARS
350
6A
  3
ACAD_LAYOUT
350
1A
  3
ACAD_MATERIAL
350
72
  3
ACAD_MLEADERSTYLE
350
3F
  3
ACAD_MLINESTYLE
350
17
  3
ACAD_PLOTSETTINGS
350
19
  3
ACAD_PLOTSTYLENAME
350
E
  3
ACAD_SCALELIST
350
40
  3
ACAD_SECTIONVIEWSTYLE
350
B6
  3
ACAD_TABLESTYLE
350
3B
  3
ACAD_VISUALSTYLE
350
2A
  3
ACDB_RECOMPOSE_DATA
350
B08
  3
AcDbVariableDictionary
350
3D
  3
APPDATA
350
71
  0
SUN
  5
80
330
29
100
AcDbSun
 90
        1
290
     0
 63
     7
421
 16777215
 40
1.0
291
     1
 91
  2455826
 92
 54000000
292
     0
 70
     2
 71
   256
280
     1
  0
DICTIONARY
  5
113
330
2
100
AcDbDictionary
280
     1
281
     1
  3
ACAD_LAYERSTATES
360
114
  3
ACLYDICTIONARY
360
B05
  0
DICTIONARY
  5
1F7
330
1F
100
AcDbDictionary
280
     1
281
     1
  3
ACAD_SORTENTS
360
1F8
  0
IMAGEDEF_REACTOR
  5
162
330
161
100
AcDbRasterImageDefReactor
 90
        2
330
161
  0
IMAGEDEF_REACTOR
  5
173
330
172
100
AcDbRasterImageDefReactor
 90
        2
330
172
  0
DICTIONARY
  5
B5
102
{ACAD_REACTORS
330
C
102
}
330
C
100
AcDbDictionary
281
     1
  0
DICTIONARY
  5
D
102
{ACAD_REACTORS
330
C
102
}
330
C
100
AcDbDictionary
281
     1
  0
DICTIONARY
  5
CB
102
{ACAD_REACTORS
330
C
102
}
330
C
100
AcDbDictionary
281
     1
  3
1C20LADTT_SH_28
350
160
  0
RASTERVARIABLES
  5
6A
102
{ACAD_REACTORS
330
C
102
}
330
C
100
AcDbRasterVariables
 90
        0
 70
     1
 71
     1
 72
     1
  0
DICTIONARY
  5
1A
102
{ACAD_REACTORS
330
C
102
}
330
C
100
AcDbDictionary
281
     1
  3
Model
350
22
  3
Sheet1
350
1E
  3
Sheet2
350
26
  0
DICTIONARY
  5
72
102
{ACAD_REACTORS
330
C
102
}
330
C
100
AcDbDictionary
281
     1
  3
ByBlock
350
74
  3
ByLayer
350
73
  3
Global
350
75
  0
DICTIONARY
  5
3F
102
{ACAD_REACTORS
330
C
102
}
330
C
100
AcDbDictionary
281
     1
  3
Annotative
350
BC
  3
Standard
350
B7
  0
DICTIONARY
  5
17
102
{ACAD_REACTORS
330
C
102
}
330
C
100
AcDbDictionary
281
     1
  3
Standard
350
18
  0
DICTIONARY
  5
19
102
{ACAD_REACTORS
330
C
102
}
330
C
100
AcDbDictionary
281
     1
  0
ACDBDICTIONARYWDFLT
  5
E
102
{ACAD_REACTORS
330
C
102
}
330
C
100
AcDbDictionary
281
     1
  3
Normal
350
F
100
AcDbDictionaryWithDefault
340
F
  0
DICTIONARY
  5
40
102
{ACAD_REACTORS
330
C
102
}
330
C
100
AcDbDictionary
281
     1
  3
A0
350
41
  3
A1
350
42
  3
A2
350
43
  3
A3
350
44
  3
A4
350
45
  3
A5
350
46
  3
A6
350
47
  3
A7
350
48
  3
A8
350
49
  3
A9
350
4A
  3
B0
350
4B
  3
B1
350
4C
  3
B2
350
4D
  3
B3
350
4E
  3
B4
350
4F
  3
B5
350
50
  3
B6
350
51
  3
B7
350
52
  3
B8
350
53
  3
B9
350
54
  3
C0
350
55
  3
C1
350
56
  3
C2
350
57
  3
C3
350
58
  3
C4
350
59
  3
C5
350
5A
  3
C6
350
5B
  3
C7
350
5C
  3
C8
350
5D
  3
C9
350
5E
  3
D0
350
5F
  3
D1
350
60
  3
D2
350
61
  0
DICTIONARY
  5
B6
102
{ACAD_REACTORS
330
C
102
}
330
C
100
AcDbDictionary
281
     1
  0
DICTIONARY
  5
3B
102
{ACAD_REACTORS
330
C
102
}
330
C
100
AcDbDictionary
281
     1
  3
Standard
350
3C
  0
DICTIONARY
  5
2A
102
{ACAD_REACTORS
330
C
102
}
330
C
100
AcDbDictionary
281
     1
  3
2dWireframe
350
2F
  3
3D Hidden
350
31
  3
3dWireframe
350
30
  3
Basic
350
32
  3
Brighten
350
36
  3
ColorChange
350
3A
  3
Conceptual
350
34
  3
Dim
350
35
  3
EdgeColorOff
350
7A
  3
Facepattern
350
39
  3
Flat
350
2B
  3
FlatWithEdges
350
2C
  3
Gouraud
350
2D
  3
GouraudWithEdges
350
2E
  3
Hidden
350
77
  3
JitterOff
350
78
  3
Linepattern
350
38
  3
OverhangOff
350
79
  3
Realistic
350
33
  3
Shaded
350
7F
  3
Shaded with edges
350
7E
  3
Shades of Gray
350
7B
  3
Sketchy
350
7C
  3
Thicken
350
37
  3
Wireframe
350
76
  3
X-Ray
350
7D
  0
XRECORD
  5
B08
102
{ACAD_REACTORS
330
C
102
}
330
C
100
AcDbXrecord
280
     1
 90
        1
330
3C
  0
DICTIONARY
  5
3D
102
{ACAD_REACTORS
330
C
102
}
330
C
100
AcDbDictionary
281
     1
  3
CANNOSCALE
350
62
  3
CMLEADERSTYLE
350
BB
  3
CTABLESTYLE
350
3E
  3
LIGHTSINBLOCKS
350
6F
  3
XCLIPFRAME
350
70
  0
DICTIONARY
  5
71
102
{ACAD_REACTORS
330
C
102
}
330
C
100
AcDbDictionary
281
     1
  0
DICTIONARY
  5
114
102
{ACAD_REACTORS
330
113
102
}
330
113
100
AcDbDictionary
281
     1
  0
DICTIONARY
  5
B05
102
{ACAD_REACTORS
330
113
102
}
330
113
100
AcDbDictionary
281
     1
1001
ACAD
1000
<All
  0
SORTENTSTABLE
  5
1F8
102
{ACAD_REACTORS
330
1F7
102
}
330
1F7
100
AcDbSortentsTable
330
1F
331
0
  5
20E
331
1BB
  5
1BD
331
1BC
  5
1C0
331
1BD
  5
1C3
331
1BE
  5
1C6
331
1BF
  5
1C9
331
1C0
  5
1CC
331
1C1
  5
1CF
331
1C2
  5
1D2
331
1C3
  5
1D5
331
1C4
  5
1D8
331
1C5
  5
1DB
331
1C6
  5
1DE
331
1C7
  5
1E1
331
1C8
  5
1E4
331
1C9
  5
1E7
331
1CA
  5
1EA
331
1CB
  5
1ED
331
1CC
  5
1F0
331
1CD
  5
1F3
331
1CE
  5
1F6
331
1CF
  5
1FB
331
1D0
  5
1FE
331
1D1
  5
201
331
1D2
  5
204
331
1D3
  5
207
331
1D4
  5
20A
331
1D5
  5
20D
331
1D7
  5
211
331
1D8
  5
214
331
1D9
  5
217
331
1DA
  5
218
331
1DB
  5
219
331
1DC
  5
21A
331
1DE
  5
21C
331
1E0
  5
21E
331
1E1
  5
21F
331
1E3
  5
221
331
1E5
  5
223
331
1E6
  5
224
331
1E7
  5
225
331
1E8
  5
226
331
1E9
  5
227
331
1EA
  5
228
331
1EB
  5
229
331
1EC
  5
22A
331
1ED
  5
22B
331
1EE
  5
22C
331
1EF
  5
22D
331
1F0
  5
22E
331
1F1
  5
22F
331
1F2
  5
230
331
1F3
  5
231
331
1F4
  5
232
331
1F5
  5
233
331
20F
  5
1BC
331
210
  5
1BF
331
211
  5
1C2
331
212
  5
1C5
331
213
  5
1C8
331
214
  5
1CB
331
215
  5
1CE
331
216
  5
1D1
331
217
  5
1D4
331
218
  5
1D7
331
219
  5
1DA
331
21A
  5
1DD
331
21B
  5
1E0
331
21C
  5
1E3
331
21D
  5
1E6
331
21E
  5
1E9
331
21F
  5
1EC
331
220
  5
1EF
331
221
  5
1F2
331
222
  5
1F5
331
223
  5
210
331
224
  5
213
331
225
  5
216
331
22D
  5
1FA
331
22E
  5
1FD
331
22F
  5
200
331
230
  5
203
331
231
  5
206
331
232
  5
209
331
233
  5
20C
  0
IMAGEDEF
  5
160
102
{ACAD_REACTORS
330
CB
330
162
330
173
102
}
330
CB
100
AcDbRasterImageDef
 90
        0
  1
Z:\HS2\Evaluations\Ladbroke_AC32031\Fieldwork\Evaluation\Draftsight\Scanned_Drawings\1C20LADTT_SH_28.tif
 10
4960.0
 20
3507.0
 11
0.08466683600033867
 21
0.08466683600033867
280
     1
281
     3
  0
LAYOUT
  5
22
102
{ACAD_REACTORS
330
1A
102
}
330
1A
100
AcDbPlotSettings
  1

  2
none_device
  4
ISO_A3_(420.00_x_297.00_MM)
  6

 40
7.5
 41
20.0
 42
7.5
 43
20.0
 44
420.0
 45
297.0
 46
20.78282828282826
 47
0.0
 48
0.0
 49
0.0
140
0.0
141
0.0
142
1.0
143
1.155642023346303
 70
  1204
 72
     1
 73
     0
 74
     1
  7
monochrome.ctb
 75
     0
 76
     0
 77
     2
 78
   300
147
0.8653198653198654
148
-134.1869158878504
149
0.0
100
AcDbLayout
  1
Model
 70
     1
 71
     0
 10
0.0
 20
0.0
 11
420.0
 21
297.0
 12
0.0
 22
0.0
 32
0.0
 14
127.3932328158984
 24
143.7351812111404
 34
0.0
 15
145.9372032355162
 25
153.3504452910386
 35
0.0
146
0.0
 13
0.0
 23
0.0
 33
0.0
 16
1.0
 26
0.0
 36
0.0
 17
0.0
 27
1.0
 37
0.0
 76
     0
330
1F
331
29
  0
LAYOUT
  5
1E
102
{ACAD_REACTORS
330
1A
102
}
330
1A
100
AcDbPlotSettings
  1

  2
none_device
  4

  6

 40
0.0
 41
0.0
 42
0.0
 43
0.0
 44
0.0
 45
0.0
 46
0.0
 47
0.0
 48
0.0
 49
0.0
140
0.0
141
0.0
142
1.0
143
1.0
 70
   688
 72
     0
 73
     0
 74
     5
  7

 75
    16
 76
     0
 77
     2
 78
   300
147
1.0
148
0.0
149
0.0
100
AcDbLayout
  1
Sheet1
 70
     1
 71
     1
 10
0.0
 20
0.0
 11
420.0
 21
297.0
 12
0.0
 22
0.0
 32
0.0
 14
1.000000000000000E+20
 24
1.000000000000000E+20
 34
1.000000000000000E+20
 15
-1.000000000000000E+20
 25
-1.000000000000000E+20
 35
-1.000000000000000E+20
146
0.0
 13
0.0
 23
0.0
 33
0.0
 16
1.0
 26
0.0
 36
0.0
 17
0.0
 27
1.0
 37
0.0
 76
     0
330
1B
  0
LAYOUT
  5
26
102
{ACAD_REACTORS
330
1A
102
}
330
1A
100
AcDbPlotSettings
  1

  2
none_device
  4

  6

 40
0.0
 41
0.0
 42
0.0
 43
0.0
 44
0.0
 45
0.0
 46
0.0
 47
0.0
 48
0.0
 49
0.0
140
0.0
141
0.0
142
1.0
143
1.0
 70
   688
 72
     0
 73
     0
 74
     5
  7

 75
    16
 76
     0
 77
     2
 78
   300
147
1.0
148
0.0
149
0.0
100
AcDbLayout
  1
Sheet2
 70
     1
 71
     2
 10
0.0
 20
0.0
 11
0.0
 21
0.0
 12
0.0
 22
0.0
 32
0.0
 14
0.0
 24
0.0
 34
0.0
 15
0.0
 25
0.0
 35
0.0
146
0.0
 13
0.0
 23
0.0
 33
0.0
 16
1.0
 26
0.0
 36
0.0
 17
0.0
 27
1.0
 37
0.0
 76
     0
330
23
  0
MATERIAL
  5
74
102
{ACAD_REACTORS
330
72
102
}
330
72
100
AcDbMaterial
  1
ByBlock
 72
     1
 94
      127
  0
MATERIAL
  5
73
102
{ACAD_REACTORS
330
72
102
}
330
72
100
AcDbMaterial
  1
ByLayer
 72
     1
 94
      127
  0
MATERIAL
  5
75
102
{ACAD_REACTORS
330
72
102
}
330
72
100
AcDbMaterial
  1
Global
 72
     1
 94
      127
  0
MLEADERSTYLE
  5
BC
102
{ACAD_REACTORS
330
3F
102
}
330
3F
100
AcDbMLeaderStyle
179
     2
170
     2
171
     1
172
     0
 90
        2
 40
0.0
 41
0.0
173
     1
 91
-1056964608
340
14
 92
       -2
290
     1
 42
2.0
291
     1
 43
8.0
  3
Annotative
341
0
 44
4.0
300

342
11
174
     1
178
     1
175
     1
176
     0
 93
-1056964608
 45
4.0
292
     0
297
     0
 46
4.0
343
0
 94
-1056964608
 47
1.0
 49
1.0
140
1.0
293
     1
141
0.0
294
     1
177
     0
142
1.0
295
     0
296
     1
143
3.75
271
     0
272
     9
273
     9
298
     0
  0
MLEADERSTYLE
  5
B7
102
{ACAD_REACTORS
330
3F
102
}
330
3F
100
AcDbMLeaderStyle
179
     2
170
     2
171
     1
172
     0
 90
        2
 40
0.0
 41
0.0
173
     1
 91
-1056964608
340
14
 92
       -2
290
     1
 42
2.0
291
     1
 43
8.0
  3
Standard
341
0
 44
4.0
300

342
11
174
     1
178
     6
175
     1
176
     0
 93
-1056964608
 45
4.0
292
     0
297
     0
 46
4.0
343
0
 94
-1056964608
 47
1.0
 49
1.0
140
1.0
293
     1
141
0.0
294
     1
177
     0
142
1.0
295
     0
296
     0
143
3.75
271
     0
272
     9
273
     9
298
     0
  0
MLINESTYLE
  5
18
102
{ACAD_REACTORS
330
17
102
}
330
17
100
AcDbMlineStyle
  2
Standard
 70
     0
  3

 62
   256
 51
90.0
 52
90.0
 71
     2
 49
0.5
 62
   256
  6
BYLAYER
 49
-0.5
 62
   256
  6
BYLAYER
  0
ACDBPLACEHOLDER
  5
F
102
{ACAD_REACTORS
330
E
102
}
330
E
  0
SCALE
  5
41
102
{ACAD_REACTORS
330
40
102
}
330
40
100
AcDbScale
 70
     0
300
1:1
140
1.0
141
1.0
290
     1
  0
SCALE
  5
42
102
{ACAD_REACTORS
330
40
102
}
330
40
100
AcDbScale
 70
     0
300
1:2
140
1.0
141
2.0
290
     0
  0
SCALE
  5
43
102
{ACAD_REACTORS
330
40
102
}
330
40
100
AcDbScale
 70
     0
300
1:4
140
1.0
141
4.0
290
     0
  0
SCALE
  5
44
102
{ACAD_REACTORS
330
40
102
}
330
40
100
AcDbScale
 70
     0
300
1:5
140
1.0
141
5.0
290
     0
  0
SCALE
  5
45
102
{ACAD_REACTORS
330
40
102
}
330
40
100
AcDbScale
 70
     0
300
1:8
140
1.0
141
8.0
290
     0
  0
SCALE
  5
46
102
{ACAD_REACTORS
330
40
102
}
330
40
100
AcDbScale
 70
     0
300
1:10
140
1.0
141
10.0
290
     0
  0
SCALE
  5
47
102
{ACAD_REACTORS
330
40
102
}
330
40
100
AcDbScale
 70
     0
300
1:16
140
1.0
141
16.0
290
     0
  0
SCALE
  5
48
102
{ACAD_REACTORS
330
40
102
}
330
40
100
AcDbScale
 70
     0
300
1:20
140
1.0
141
20.0
290
     0
  0
SCALE
  5
49
102
{ACAD_REACTORS
330
40
102
}
330
40
100
AcDbScale
 70
     0
300
1:30
140
1.0
141
30.0
290
     0
  0
SCALE
  5
4A
102
{ACAD_REACTORS
330
40
102
}
330
40
100
AcDbScale
 70
     0
300
1:40
140
1.0
141
40.0
290
     0
  0
SCALE
  5
4B
102
{ACAD_REACTORS
330
40
102
}
330
40
100
AcDbScale
 70
     0
300
1:50
140
1.0
141
50.0
290
     0
  0
SCALE
  5
4C
102
{ACAD_REACTORS
330
40
102
}
330
40
100
AcDbScale
 70
     0
300
1:100
140
1.0
141
100.0
290
     0
  0
SCALE
  5
4D
102
{ACAD_REACTORS
330
40
102
}
330
40
100
AcDbScale
 70
     0
300
2:1
140
2.0
141
1.0
290
     0
  0
SCALE
  5
4E
102
{ACAD_REACTORS
330
40
102
}
330
40
100
AcDbScale
 70
     0
300
4:1
140
4.0
141
1.0
290
     0
  0
SCALE
  5
4F
102
{ACAD_REACTORS
330
40
102
}
330
40
100
AcDbScale
 70
     0
300
8:1
140
8.0
141
1.0
290
     0
  0
SCALE
  5
50
102
{ACAD_REACTORS
330
40
102
}
330
40
100
AcDbScale
 70
     0
300
10:1
140
10.0
141
1.0
290
     0
  0
SCALE
  5
51
102
{ACAD_REACTORS
330
40
102
}
330
40
100
AcDbScale
 70
     0
300
100:1
140
100.0
141
1.0
290
     0
  0
SCALE
  5
52
102
{ACAD_REACTORS
330
40
102
}
330
40
100
AcDbScale
 70
     0
300
1/128" = 1'-0"
140
0.0078125
141
12.0
290
     0
  0
SCALE
  5
53
102
{ACAD_REACTORS
330
40
102
}
330
40
100
AcDbScale
 70
     0
300
1/64" = 1'-0"
140
0.015625
141
12.0
290
     0
  0
SCALE
  5
54
102
{ACAD_REACTORS
330
40
102
}
330
40
100
AcDbScale
 70
     0
300
1/32" = 1'-0"
140
0.03125
141
12.0
290
     0
  0
SCALE
  5
55
102
{ACAD_REACTORS
330
40
102
}
330
40
100
AcDbScale
 70
     0
300
1/16" = 1'-0"
140
0.0625
141
12.0
290
     0
  0
SCALE
  5
56
102
{ACAD_REACTORS
330
40
102
}
330
40
100
AcDbScale
 70
     0
300
3/32" = 1'-0"
140
0.09375
141
12.0
290
     0
  0
SCALE
  5
57
102
{ACAD_REACTORS
330
40
102
}
330
40
100
AcDbScale
 70
     0
300
1/8" = 1'-0"
140
0.125
141
12.0
290
     0
  0
SCALE
  5
58
102
{ACAD_REACTORS
330
40
102
}
330
40
100
AcDbScale
 70
     0
300
3/16" = 1'-0"
140
0.1875
141
12.0
290
     0
  0
SCALE
  5
59
102
{ACAD_REACTORS
330
40
102
}
330
40
100
AcDbScale
 70
     0
300
1/4" = 1'-0"
140
0.25
141
12.0
290
     0
  0
SCALE
  5
5A
102
{ACAD_REACTORS
330
40
102
}
330
40
100
AcDbScale
 70
     0
300
3/8" = 1'-0"
140
0.375
141
12.0
290
     0
  0
SCALE
  5
5B
102
{ACAD_REACTORS
330
40
102
}
330
40
100
AcDbScale
 70
     0
300
1/2" = 1'-0"
140
0.5
141
12.0
290
     0
  0
SCALE
  5
5C
102
{ACAD_REACTORS
330
40
102
}
330
40
100
AcDbScale
 70
     0
300
3/4" = 1'-0"
140
0.75
141
12.0
290
     0
  0
SCALE
  5
5D
102
{ACAD_REACTORS
330
40
102
}
330
40
100
AcDbScale
 70
     0
300
1" = 1'-0"
140
1.0
141
12.0
290
     0
  0
SCALE
  5
5E
102
{ACAD_REACTORS
330
40
102
}
330
40
100
AcDbScale
 70
     0
300
1-1/2" = 1'-0"
140
1.5
141
12.0
290
     0
  0
SCALE
  5
5F
102
{ACAD_REACTORS
330
40
102
}
330
40
100
AcDbScale
 70
     0
300
3" = 1'-0"
140
3.0
141
12.0
290
     0
  0
SCALE
  5
60
102
{ACAD_REACTORS
330
40
102
}
330
40
100
AcDbScale
 70
     0
300
6" = 1'-0"
140
6.0
141
12.0
290
     0
  0
SCALE
  5
61
102
{ACAD_REACTORS
330
40
102
}
330
40
100
AcDbScale
 70
     0
300
1'-0" = 1'-0"
140
12.0
141
12.0
290
     0
  0
TABLESTYLE
  5
3C
102
{ACAD_REACTORS
330
3B
102
}
102
{ACAD_XDICTIONARY
360
B06
102
}
330
3B
100
AcDbTableStyle
  3
Standard
 70
     0
 71
     0
 40
1.5
 41
1.5
280
     0
281
     0
  7
Standard
140
4.5
170
     2
 62
     0
 63
   257
283
     0
 90
      512
 91
        0
  1

274
    -2
284
     1
 64
     0
275
    -2
285
     1
 65
     0
276
    -2
286
     1
 66
     0
277
    -2
287
     1
 67
     0
278
    -2
288
     1
 68
     0
279
    -2
289
     1
 69
     0
  7
Standard
140
6.0
170
     5
 62
     0
 63
   257
283
     0
 90
      512
 91
        0
  1

274
    -2
284
     1
 64
     0
275
    -2
285
     1
 65
     0
276
    -2
286
     1
 66
     0
277
    -2
287
     1
 67
     0
278
    -2
288
     1
 68
     0
279
    -2
289
     1
 69
     0
  7
Standard
140
4.5
170
     5
 62
     0
 63
   257
283
     0
 90
      512
 91
        0
  1

274
    -2
284
     1
 64
     0
275
    -2
285
     1
 65
     0
276
    -2
286
     1
 66
     0
277
    -2
287
     1
 67
     0
278
    -2
288
     1
 68
     0
279
    -2
289
     1
 69
     0
  0
VISUALSTYLE
  5
2F
102
{ACAD_REACTORS
330
2A
102
}
330
2A
100
AcDbVisualStyle
  2
2dWireframe
 70
     4
177
     3
291
     0
 70
    58
 90
        0
176
     1
 90
        2
176
     1
 90
        0
176
     1
 90
        0
176
     1
 40
-0.6
176
     1
 40
-30.0
176
     1
 62
     7
420
 16777215
176
     1
 90
        1
176
     1
 90
        4
176
     1
 62
     7
176
     1
 62
   257
176
     1
 90
        1
176
     1
 90
        1
176
     1
 40
1.0
176
     1
 90
        0
176
     1
 62
   257
176
     1
 40
1.0
176
     1
 90
        1
176
     1
 90
        6
176
     1
 90
        2
176
     1
 62
     7
176
     1
 90
        5
176
     1
 90
        0
176
     1
 90
        0
176
     1
290
     0
176
     1
 90
        1
176
     1
 40
0.0
176
     1
 90
        0
176
     1
290
     1
176
     1
290
     1
176
     1
290
     0
176
     1
290
     0
176
     1
290
     0
176
     1
290
     0
176
     1
290
     0
176
     1
290
     0
176
     1
290
     0
176
     1
 90
       50
176
     1
 40
0.0
176
     1
 40
1.0
176
     1
 90
        0
176
     1
 62
    18
420
        0
176
     1
 90
       50
176
     1
 90
        3
176
     1
 62
     5
420
      255
176
     1
290
     0
176
     1
 90
       50
176
     1
 90
       50
176
     1
 90
       50
176
     1
290
     0
176
     1
 90
       50
176
     1
 62
   256
176
     0
 40
1.0
176
     0
 90
        2
176
     1
  1
strokes_ogs.tif
176
     1
290
     0
176
     1
 40
1.0
176
     1
 40
1.0
176
     1
  0
VISUALSTYLE
  5
31
102
{ACAD_REACTORS
330
2A
102
}
330
2A
100
AcDbVisualStyle
  2
3D Hidden
 70
     6
177
     3
291
     0
 70
    58
 90
        1
176
     1
 90
        2
176
     1
 90
        2
176
     1
 90
        0
176
     1
 40
-0.6
176
     1
 40
-30.0
176
     1
 62
     7
420
 16777215
176
     1
 90
        2
176
     1
 90
        2
176
     1
 62
     7
176
     1
 62
   257
176
     1
 90
        2
176
     1
 90
        1
176
     1
 40
40.0
176
     1
 90
        0
176
     1
 62
   257
176
     1
 40
1.0
176
     1
 90
        1
176
     1
 90
        6
176
     1
 90
        2
176
     1
 62
     7
176
     1
 90
        3
176
     1
 90
        0
176
     1
 90
        0
176
     1
290
     0
176
     1
 90
        1
176
     1
 40
0.0
176
     1
 90
        0
176
     1
290
     0
176
     1
290
     1
176
     1
290
     1
176
     1
290
     0
176
     1
290
     0
176
     1
290
     0
176
     1
290
     0
176
     1
290
     0
176
     1
290
     0
176
     1
 90
       50
176
     1
 40
0.0
176
     1
 40
1.0
176
     1
 90
        0
176
     1
 62
    18
420
        0
176
     1
 90
       50
176
     1
 90
        3
176
     1
 62
     5
420
      255
176
     1
290
     0
176
     1
 90
       50
176
     1
 90
       50
176
     1
 90
       50
176
     1
290
     0
176
     1
 90
       50
176
     1
 62
   256
176
     0
 40
1.0
176
     0
 90
        2
176
     1
  1
strokes_ogs.tif
176
     1
290
     0
176
     1
 40
1.0
176
     1
 40
1.0
176
     1
  0
VISUALSTYLE
  5
30
102
{ACAD_REACTORS
330
2A
102
}
330
2A
100
AcDbVisualStyle
  2
3dWireframe
 70
     5
177
     3
291
     0
 70
    58
 90
        0
176
     1
 90
        2
176
     1
 90
        0
176
     1
 90
        0
176
     1
 40
-0.6
176
     1
 40
-30.0
176
     1
 62
     7
420
 16777215
176
     1
 90
        1
176
     1
 90
        4
176
     1
 62
     7
176
     1
 62
   257
176
     1
 90
        1
176
     1
 90
        1
176
     1
 40
1.0
176
     1
 90
        0
176
     1
 62
   257
176
     1
 40
1.0
176
     1
 90
        1
176
     1
 90
        6
176
     1
 90
        2
176
     1
 62
     7
176
     1
 90
        5
176
     1
 90
        0
176
     1
 90
        0
176
     1
290
     0
176
     1
 90
        1
176
     1
 40
0.0
176
     1
 90
        0
176
     1
290
     0
176
     1
290
     1
176
     1
290
     1
176
     1
290
     0
176
     1
290
     0
176
     1
290
     0
176
     1
290
     0
176
     1
290
     0
176
     1
290
     0
176
     1
 90
       50
176
     1
 40
0.0
176
     1
 40
1.0
176
     1
 90
        0
176
     1
 62
    18
420
        0
176
     1
 90
       50
176
     1
 90
        3
176
     1
 62
     5
420
      255
176
     1
290
     0
176
     1
 90
       50
176
     1
 90
       50
176
     1
 90
       50
176
     1
290
     0
176
     1
 90
       50
176
     1
 62
   256
176
     0
 40
1.0
176
     0
 90
        2
176
     1
  1
strokes_ogs.tif
176
     1
290
     0
176
     1
 40
1.0
176
     1
 40
1.0
176
     1
  0
VISUALSTYLE
  5
32
102
{ACAD_REACTORS
330
2A
102
}
330
2A
100
AcDbVisualStyle
  2
Basic
 70
     7
177
     3
291
     1
 70
    58
 90
        1
176
     1
 90
        0
176
     1
 90
        1
176
     1
 90
        0
176
     1
 40
-0.6
176
     1
 40
-30.0
176
     1
 62
     7
420
 16777215
176
     1
 90
        0
176
     1
 90
        4
176
     1
 62
     7
176
     1
 62
   257
176
     1
 90
        1
176
     1
 90
        1
176
     1
 40
1.0
176
     1
 90
        8
176
     1
 62
     7
176
     1
 40
1.0
176
     1
 90
        1
176
     1
 90
        6
176
     1
 90
        2
176
     1
 62
     7
176
     1
 90
        5
176
     1
 90
        0
176
     1
 90
        0
176
     1
290
     0
176
     1
 90
        1
176
     1
 40
0.0
176
     1
 90
        0
176
     1
290
     0
176
     1
290
     1
176
     1
290
     1
176
     1
290
     0
176
     1
290
     0
176
     1
290
     0
176
     1
290
     0
176
     1
290
     0
176
     1
290
     0
176
     1
 90
       50
176
     1
 40
0.0
176
     1
 40
1.0
176
     1
 90
        0
176
     1
 62
    18
420
        0
176
     1
 90
       50
176
     1
 90
        3
176
     1
 62
     5
420
      255
176
     1
290
     0
176
     1
 90
       50
176
     1
 90
       50
176
     1
 90
       50
176
     1
290
     0
176
     1
 90
       50
176
     1
 62
   256
176
     0
 40
1.0
176
     0
 90
        2
176
     1
  1
strokes_ogs.tif
176
     1
290
     0
176
     1
 40
1.0
176
     1
 40
1.0
176
     1
  0
VISUALSTYLE
  5
36
102
{ACAD_REACTORS
330
2A
102
}
330
2A
100
AcDbVisualStyle
  2
Brighten
 70
    12
177
     3
291
     1
 70
    58
 90
        2
176
     1
 90
        2
176
     1
 90
        0
176
     1
 90
        0
176
     1
 40
-0.6
176
     1
 40
-30.0
176
     1
 62
     7
420
 16777215
176
     1
 90
        1
176
     1
 90
        4
176
     1
 62
     7
176
     1
 62
   257
176
     1
 90
        1
176
     1
 90
        1
176
     1
 40
1.0
176
     1
 90
        8
176
     1
 62
     7
176
     1
 40
1.0
176
     1
 90
        1
176
     1
 90
        6
176
     1
 90
        2
176
     1
 62
     7
176
     1
 90
        5
176
     1
 90
        0
176
     1
 90
        0
176
     1
290
     0
176
     1
 90
        1
176
     1
 40
50.0
176
     1
 90
        0
176
     1
290
     0
176
     1
290
     1
176
     1
290
     1
176
     1
290
     0
176
     1
290
     0
176
     1
290
     0
176
     1
290
     0
176
     1
290
     0
176
     1
290
     0
176
     1
 90
       50
176
     1
 40
0.0
176
     1
 40
1.0
176
     1
 90
        0
176
     1
 62
    18
420
        0
176
     1
 90
       50
176
     1
 90
        3
176
     1
 62
     5
420
      255
176
     1
290
     0
176
     1
 90
       50
176
     1
 90
       50
176
     1
 90
       50
176
     1
290
     0
176
     1
 90
       50
176
     1
 62
   256
176
     0
 40
1.0
176
     0
 90
        2
176
     1
  1
strokes_ogs.tif
176
     1
290
     0
176
     1
 40
1.0
176
     1
 40
1.0
176
     1
  0
VISUALSTYLE
  5
3A
102
{ACAD_REACTORS
330
2A
102
}
330
2A
100
AcDbVisualStyle
  2
ColorChange
 70
    16
177
     3
291
     1
 70
    58
 90
        2
176
     1
 90
        2
176
     1
 90
        3
176
     1
 90
        0
176
     1
 40
-0.6
176
     1
 40
-30.0
176
     1
 62
     8
420
  8421504
176
     1
 90
        1
176
     1
 90
        4
176
     1
 62
     7
176
     1
 62
   257
176
     1
 90
        1
176
     1
 90
        1
176
     1
 40
1.0
176
     1
 90
        8
176
     1
 62
     8
420
  8421504
176
     1
 40
1.0
176
     1
 90
        1
176
     1
 90
        6
176
     1
 90
        2
176
     1
 62
     7
176
     1
 90
        5
176
     1
 90
        0
176
     1
 90
        0
176
     1
290
     0
176
     1
 90
        1
176
     1
 40
0.0
176
     1
 90
        0
176
     1
290
     0
176
     1
290
     1
176
     1
290
     1
176
     1
290
     0
176
     1
290
     0
176
     1
290
     0
176
     1
290
     0
176
     1
290
     0
176
     1
290
     0
176
     1
 90
       50
176
     1
 40
0.0
176
     1
 40
1.0
176
     1
 90
        0
176
     1
 62
    18
420
        0
176
     1
 90
       50
176
     1
 90
        3
176
     1
 62
     5
420
      255
176
     1
290
     0
176
     1
 90
       50
176
     1
 90
       50
176
     1
 90
       50
176
     1
290
     0
176
     1
 90
       50
176
     1
 62
   256
176
     0
 40
1.0
176
     0
 90
        2
176
     1
  1
strokes_ogs.tif
176
     1
290
     0
176
     1
 40
1.0
176
     1
 40
1.0
176
     1
  0
VISUALSTYLE
  5
34
102
{ACAD_REACTORS
330
2A
102
}
330
2A
100
AcDbVisualStyle
  2
Conceptual
 70
     9
177
     3
291
     0
 70
    58
 90
        3
176
     1
 90
        2
176
     1
 90
        0
176
     1
 90
        0
176
     1
 40
-0.6
176
     1
 40
-30.0
176
     1
 62
     7
420
 16777215
176
     1
 90
        2
176
     1
 90
        2
176
     1
 62
     7
176
     1
 62
   257
176
     1
 90
        1
176
     1
 90
        1
176
     1
 40
40.0
176
     1
 90
        8
176
     1
 62
     7
176
     1
 40
1.0
176
     1
 90
        1
176
     1
 90
        6
176
     1
 90
        2
176
     1
 62
     7
176
     1
 90
        3
176
     1
 90
        0
176
     1
 90
        0
176
     1
290
     0
176
     1
 90
        1
176
     1
 40
0.0
176
     1
 90
        0
176
     1
290
     0
176
     1
290
     1
176
     1
290
     1
176
     1
290
     0
176
     1
290
     0
176
     1
290
     0
176
     1
290
     0
176
     1
290
     0
176
     1
290
     0
176
     1
 90
       50
176
     1
 40
0.0
176
     1
 40
1.0
176
     1
 90
        0
176
     1
 62
    18
420
        0
176
     1
 90
       50
176
     1
 90
        3
176
     1
 62
     5
420
      255
176
     1
290
     0
176
     1
 90
       50
176
     1
 90
       50
176
     1
 90
       50
176
     1
290
     0
176
     1
 90
       50
176
     1
 62
   256
176
     0
 40
1.0
176
     0
 90
        2
176
     1
  1
strokes_ogs.tif
176
     1
290
     0
176
     1
 40
1.0
176
     1
 40
1.0
176
     1
  0
VISUALSTYLE
  5
35
102
{ACAD_REACTORS
330
2A
102
}
330
2A
100
AcDbVisualStyle
  2
Dim
 70
    11
177
     3
291
     1
 70
    58
 90
        2
176
     1
 90
        2
176
     1
 90
        0
176
     1
 90
        0
176
     1
 40
-0.6
176
     1
 40
-30.0
176
     1
 62
     7
420
 16777215
176
     1
 90
        1
176
     1
 90
        4
176
     1
 62
     7
176
     1
 62
   257
176
     1
 90
        1
176
     1
 90
        1
176
     1
 40
1.0
176
     1
 90
        8
176
     1
 62
     7
176
     1
 40
1.0
176
     1
 90
        1
176
     1
 90
        6
176
     1
 90
        2
176
     1
 62
     7
176
     1
 90
        5
176
     1
 90
        0
176
     1
 90
        0
176
     1
290
     0
176
     1
 90
        1
176
     1
 40
-50.0
176
     1
 90
        0
176
     1
290
     0
176
     1
290
     1
176
     1
290
     1
176
     1
290
     0
176
     1
290
     0
176
     1
290
     0
176
     1
290
     0
176
     1
290
     0
176
     1
290
     0
176
     1
 90
       50
176
     1
 40
0.0
176
     1
 40
1.0
176
     1
 90
        0
176
     1
 62
    18
420
        0
176
     1
 90
       50
176
     1
 90
        3
176
     1
 62
     5
420
      255
176
     1
290
     0
176
     1
 90
       50
176
     1
 90
       50
176
     1
 90
       50
176
     1
290
     0
176
     1
 90
       50
176
     1
 62
   256
176
     0
 40
1.0
176
     0
 90
        2
176
     1
  1
strokes_ogs.tif
176
     1
290
     0
176
     1
 40
1.0
176
     1
 40
1.0
176
     1
  0
VISUALSTYLE
  5
7A
102
{ACAD_REACTORS
330
2A
102
}
330
2A
100
AcDbVisualStyle
  2
EdgeColorOff
 70
    22
177
     3
291
     1
 70
    58
 90
        2
176
     0
 90
        2
176
     0
 90
        0
176
     0
 90
        0
176
     0
 40
0.6
176
     0
 40
30.0
176
     0
 62
     7
420
 16777215
176
     0
 90
        1
176
     0
 90
        4
176
     0
 62
     7
176
     0
 62
   257
176
     0
 90
        1
176
     0
 90
        1
176
     0
 40
1.0
176
     0
 90
        8
176
     2
 62
     7
176
     0
 40
1.0
176
     0
 90
        1
176
     0
 90
        6
176
     0
 90
        2
176
     0
 62
     7
176
     0
 90
        5
176
     0
 90
        0
176
     0
 90
        0
176
     0
290
     0
176
     0
 90
        1
176
     0
 40
0.0
176
     0
 90
        0
176
     0
290
     0
176
     0
290
     1
176
     0
290
     1
176
     0
290
     0
176
     0
290
     0
176
     0
290
     0
176
     0
290
     0
176
     0
290
     0
176
     0
290
     0
176
     0
 90
       50
176
     0
 40
0.0
176
     0
 40
1.0
176
     0
 90
        0
176
     0
 62
    18
420
        0
176
     0
 90
       50
176
     0
 90
        3
176
     0
 62
     5
420
      255
176
     0
290
     0
176
     0
 90
       50
176
     0
 90
       50
176
     0
 90
       50
176
     0
290
     0
176
     0
 90
       50
176
     0
 62
   256
176
     0
 40
1.0
176
     0
 90
        2
176
     0
  1
strokes_ogs.tif
176
     0
290
     0
176
     0
 40
1.0
176
     0
 40
1.0
176
     0
  0
VISUALSTYLE
  5
39
102
{ACAD_REACTORS
330
2A
102
}
330
2A
100
AcDbVisualStyle
  2
Facepattern
 70
    15
177
     3
291
     1
 70
    58
 90
        2
176
     1
 90
        2
176
     1
 90
        0
176
     1
 90
        0
176
     1
 40
-0.6
176
     1
 40
-30.0
176
     1
 62
     7
420
 16777215
176
     1
 90
        1
176
     1
 90
        4
176
     1
 62
     7
176
     1
 62
   257
176
     1
 90
        1
176
     1
 90
        1
176
     1
 40
1.0
176
     1
 90
        8
176
     1
 62
     7
176
     1
 40
1.0
176
     1
 90
        1
176
     1
 90
        6
176
     1
 90
        2
176
     1
 62
     7
176
     1
 90
        5
176
     1
 90
        0
176
     1
 90
        0
176
     1
290
     0
176
     1
 90
        1
176
     1
 40
0.0
176
     1
 90
        0
176
     1
290
     0
176
     1
290
     1
176
     1
290
     1
176
     1
290
     0
176
     1
290
     0
176
     1
290
     0
176
     1
290
     0
176
     1
290
     0
176
     1
290
     0
176
     1
 90
       50
176
     1
 40
0.0
176
     1
 40
1.0
176
     1
 90
        0
176
     1
 62
    18
420
        0
176
     1
 90
       50
176
     1
 90
        3
176
     1
 62
     5
420
      255
176
     1
290
     0
176
     1
 90
       50
176
     1
 90
       50
176
     1
 90
       50
176
     1
290
     0
176
     1
 90
       50
176
     1
 62
   256
176
     0
 40
1.0
176
     0
 90
        2
176
     1
  1
strokes_ogs.tif
176
     1
290
     0
176
     1
 40
1.0
176
     1
 40
1.0
176
     1
  0
VISUALSTYLE
  5
2B
102
{ACAD_REACTORS
330
2A
102
}
330
2A
100
AcDbVisualStyle
  2
Flat
 70
     0
177
     3
291
     1
 70
    58
 90
        2
176
     1
 90
        1
176
     1
 90
        1
176
     1
 90
        2
176
     1
 40
-0.6
176
     1
 40
30.0
176
     1
 62
     7
420
 16777215
176
     1
 90
        0
176
     1
 90
        4
176
     1
 62
     7
176
     1
 62
   257
176
     1
 90
        1
176
     1
 90
        1
176
     1
 40
1.0
176
     1
 90
        8
176
     1
 62
     7
176
     1
 40
1.0
176
     1
 90
        1
176
     1
 90
        6
176
     1
 90
        2
176
     1
 62
     7
176
     1
 90
        5
176
     1
 90
        0
176
     1
 90
        0
176
     1
290
     0
176
     1
 90
       13
176
     1
 40
0.0
176
     1
 90
        0
176
     1
290
     0
176
     1
290
     1
176
     1
290
     1
176
     1
290
     0
176
     1
290
     0
176
     1
290
     0
176
     1
290
     0
176
     1
290
     0
176
     1
290
     0
176
     1
 90
       50
176
     1
 40
0.0
176
     1
 40
1.0
176
     1
 90
        0
176
     1
 62
    18
420
        0
176
     1
 90
       50
176
     1
 90
        3
176
     1
 62
     5
420
      255
176
     1
290
     0
176
     1
 90
       50
176
     1
 90
       50
176
     1
 90
       50
176
     1
290
     0
176
     1
 90
       50
176
     1
 62
   256
176
     0
 40
1.0
176
     0
 90
        2
176
     1
  1
strokes_ogs.tif
176
     1
290
     0
176
     1
 40
1.0
176
     1
 40
1.0
176
     1
  0
VISUALSTYLE
  5
2C
102
{ACAD_REACTORS
330
2A
102
}
330
2A
100
AcDbVisualStyle
  2
FlatWithEdges
 70
     1
177
     3
291
     1
 70
    58
 90
        2
176
     1
 90
        1
176
     1
 90
        1
176
     1
 90
        2
176
     1
 40
-0.6
176
     1
 40
30.0
176
     1
 62
     7
420
 16777215
176
     1
 90
        1
176
     1
 90
        4
176
     1
 62
     7
176
     1
 62
   257
176
     1
 90
        1
176
     1
 90
        1
176
     1
 40
1.0
176
     1
 90
        0
176
     1
 62
   257
176
     1
 40
1.0
176
     1
 90
        1
176
     1
 90
        6
176
     1
 90
        2
176
     1
 62
     7
176
     1
 90
        5
176
     1
 90
        0
176
     1
 90
        0
176
     1
290
     0
176
     1
 90
       13
176
     1
 40
0.0
176
     1
 90
        0
176
     1
290
     0
176
     1
290
     1
176
     1
290
     1
176
     1
290
     0
176
     1
290
     0
176
     1
290
     0
176
     1
290
     0
176
     1
290
     0
176
     1
290
     0
176
     1
 90
       50
176
     1
 40
0.0
176
     1
 40
1.0
176
     1
 90
        0
176
     1
 62
    18
420
        0
176
     1
 90
       50
176
     1
 90
        3
176
     1
 62
     5
420
      255
176
     1
290
     0
176
     1
 90
       50
176
     1
 90
       50
176
     1
 90
       50
176
     1
290
     0
176
     1
 90
       50
176
     1
 62
   256
176
     0
 40
1.0
176
     0
 90
        2
176
     1
  1
strokes_ogs.tif
176
     1
290
     0
176
     1
 40
1.0
176
     1
 40
1.0
176
     1
  0
VISUALSTYLE
  5
2D
102
{ACAD_REACTORS
330
2A
102
}
330
2A
100
AcDbVisualStyle
  2
Gouraud
 70
     2
177
     3
291
     1
 70
    58
 90
        2
176
     1
 90
        2
176
     1
 90
        1
176
     1
 90
        2
176
     1
 40
-0.6
176
     1
 40
30.0
176
     1
 62
     7
420
 16777215
176
     1
 90
        0
176
     1
 90
        4
176
     1
 62
     7
176
     1
 62
   257
176
     1
 90
        1
176
     1
 90
        1
176
     1
 40
1.0
176
     1
 90
        0
176
     1
 62
     7
176
     1
 40
1.0
176
     1
 90
        1
176
     1
 90
        6
176
     1
 90
        2
176
     1
 62
     7
176
     1
 90
        5
176
     1
 90
        0
176
     1
 90
        0
176
     1
290
     0
176
     1
 90
       13
176
     1
 40
0.0
176
     1
 90
        0
176
     1
290
     0
176
     1
290
     1
176
     1
290
     1
176
     1
290
     0
176
     1
290
     0
176
     1
290
     0
176
     1
290
     0
176
     1
290
     0
176
     1
290
     0
176
     1
 90
       50
176
     1
 40
0.0
176
     1
 40
1.0
176
     1
 90
        0
176
     1
 62
    18
420
        0
176
     1
 90
       50
176
     1
 90
        3
176
     1
 62
     5
420
      255
176
     1
290
     0
176
     1
 90
       50
176
     1
 90
       50
176
     1
 90
       50
176
     1
290
     0
176
     1
 90
       50
176
     1
 62
   256
176
     0
 40
1.0
176
     0
 90
        2
176
     1
  1
strokes_ogs.tif
176
     1
290
     0
176
     1
 40
1.0
176
     1
 40
1.0
176
     1
  0
VISUALSTYLE
  5
2E
102
{ACAD_REACTORS
330
2A
102
}
330
2A
100
AcDbVisualStyle
  2
GouraudWithEdges
 70
     3
177
     3
291
     1
 70
    58
 90
        2
176
     1
 90
        2
176
     1
 90
        1
176
     1
 90
        2
176
     1
 40
-0.6
176
     1
 40
30.0
176
     1
 62
     7
420
 16777215
176
     1
 90
        1
176
     1
 90
        4
176
     1
 62
     7
176
     1
 62
   257
176
     1
 90
        1
176
     1
 90
        1
176
     1
 40
1.0
176
     1
 90
        0
176
     1
 62
   257
176
     1
 40
1.0
176
     1
 90
        1
176
     1
 90
        6
176
     1
 90
        2
176
     1
 62
     7
176
     1
 90
        5
176
     1
 90
        0
176
     1
 90
        0
176
     1
290
     0
176
     1
 90
       13
176
     1
 40
0.0
176
     1
 90
        0
176
     1
290
     0
176
     1
290
     1
176
     1
290
     1
176
     1
290
     0
176
     1
290
     0
176
     1
290
     0
176
     1
290
     0
176
     1
290
     0
176
     1
290
     0
176
     1
 90
       50
176
     1
 40
0.0
176
     1
 40
1.0
176
     1
 90
        0
176
     1
 62
    18
420
        0
176
     1
 90
       50
176
     1
 90
        3
176
     1
 62
     5
420
      255
176
     1
290
     0
176
     1
 90
       50
176
     1
 90
       50
176
     1
 90
       50
176
     1
290
     0
176
     1
 90
       50
176
     1
 62
   256
176
     0
 40
1.0
176
     0
 90
        2
176
     1
  1
strokes_ogs.tif
176
     1
290
     0
176
     1
 40
1.0
176
     1
 40
1.0
176
     1
  0
VISUALSTYLE
  5
77
102
{ACAD_REACTORS
330
2A
102
}
330
2A
100
AcDbVisualStyle
  2
Hidden
 70
     6
177
     3
291
     0
 70
    58
 90
        1
176
     1
 90
        2
176
     1
 90
        2
176
     1
 90
        0
176
     1
 40
0.6
176
     1
 40
30.0
176
     1
 62
     7
420
 16777215
176
     1
 90
        2
176
     1
 90
        2
176
     1
 62
     7
176
     1
 62
   257
176
     1
 90
        2
176
     1
 90
        1
176
     1
 40
40.0
176
     1
 90
        0
176
     1
 62
   257
176
     1
 40
1.0
176
     1
 90
        1
176
     1
 90
        6
176
     1
 90
        2
176
     1
 62
     7
176
     1
 90
        3
176
     1
 90
        0
176
     1
 90
        0
176
     1
290
     0
176
     1
 90
        1
176
     1
 40
0.0
176
     1
 90
        0
176
     1
290
     0
176
     1
290
     1
176
     1
290
     1
176
     1
290
     0
176
     1
290
     0
176
     1
290
     0
176
     1
290
     0
176
     1
290
     0
176
     1
290
     0
176
     1
 90
       50
176
     1
 40
0.0
176
     1
 40
1.0
176
     1
 90
        0
176
     1
 62
    18
420
        0
176
     1
 90
       50
176
     1
 90
        3
176
     1
 62
     5
420
      255
176
     1
290
     0
176
     1
 90
       50
176
     1
 90
       50
176
     1
 90
       50
176
     1
290
     0
176
     1
 90
       50
176
     1
 62
   256
176
     0
 40
1.0
176
     0
 90
        2
176
     1
  1
strokes_ogs.tif
176
     1
290
     0
176
     1
 40
1.0
176
     1
 40
1.0
176
     1
  0
VISUALSTYLE
  5
78
102
{ACAD_REACTORS
330
2A
102
}
330
2A
100
AcDbVisualStyle
  2
JitterOff
 70
    20
177
     3
291
     1
 70
    58
 90
        2
176
     0
 90
        2
176
     0
 90
        0
176
     0
 90
        0
176
     0
 40
0.6
176
     0
 40
30.0
176
     0
 62
     7
420
 16777215
176
     0
 90
        1
176
     0
 90
        4
176
     0
 62
     7
176
     0
 62
   257
176
     0
 90
        1
176
     0
 90
        1
176
     0
 40
1.0
176
     0
 90
       10
176
     2
 62
     7
176
     0
 40
1.0
176
     0
 90
        1
176
     0
 90
        6
176
     0
 90
        2
176
     0
 62
     7
176
     0
 90
        5
176
     0
 90
        0
176
     0
 90
        0
176
     0
290
     0
176
     0
 90
        1
176
     0
 40
0.0
176
     0
 90
        0
176
     0
290
     0
176
     0
290
     1
176
     0
290
     1
176
     0
290
     0
176
     0
290
     0
176
     0
290
     0
176
     0
290
     0
176
     0
290
     0
176
     0
290
     0
176
     0
 90
       50
176
     0
 40
0.0
176
     0
 40
1.0
176
     0
 90
        0
176
     0
 62
    18
420
        0
176
     0
 90
       50
176
     0
 90
        3
176
     0
 62
     5
420
      255
176
     0
290
     0
176
     0
 90
       50
176
     0
 90
       50
176
     0
 90
       50
176
     0
290
     0
176
     0
 90
       50
176
     0
 62
   256
176
     0
 40
1.0
176
     0
 90
        2
176
     0
  1
strokes_ogs.tif
176
     0
290
     0
176
     0
 40
1.0
176
     0
 40
1.0
176
     0
  0
VISUALSTYLE
  5
38
102
{ACAD_REACTORS
330
2A
102
}
330
2A
100
AcDbVisualStyle
  2
Linepattern
 70
    14
177
     3
291
     1
 70
    58
 90
        2
176
     1
 90
        2
176
     1
 90
        0
176
     1
 90
        0
176
     1
 40
-0.6
176
     1
 40
-30.0
176
     1
 62
     7
420
 16777215
176
     1
 90
        1
176
     1
 90
        4
176
     1
 62
     7
176
     1
 62
   257
176
     1
 90
        7
176
     1
 90
        7
176
     1
 40
1.0
176
     1
 90
        8
176
     1
 62
     7
176
     1
 40
1.0
176
     1
 90
        1
176
     1
 90
        6
176
     1
 90
        2
176
     1
 62
     7
176
     1
 90
        5
176
     1
 90
        0
176
     1
 90
        0
176
     1
290
     0
176
     1
 90
        1
176
     1
 40
0.0
176
     1
 90
        0
176
     1
290
     0
176
     1
290
     1
176
     1
290
     1
176
     1
290
     0
176
     1
290
     0
176
     1
290
     0
176
     1
290
     0
176
     1
290
     0
176
     1
290
     0
176
     1
 90
       50
176
     1
 40
0.0
176
     1
 40
1.0
176
     1
 90
        0
176
     1
 62
    18
420
        0
176
     1
 90
       50
176
     1
 90
        3
176
     1
 62
     5
420
      255
176
     1
290
     0
176
     1
 90
       50
176
     1
 90
       50
176
     1
 90
       50
176
     1
290
     0
176
     1
 90
       50
176
     1
 62
   256
176
     0
 40
1.0
176
     0
 90
        2
176
     1
  1
strokes_ogs.tif
176
     1
290
     0
176
     1
 40
1.0
176
     1
 40
1.0
176
     1
  0
VISUALSTYLE
  5
79
102
{ACAD_REACTORS
330
2A
102
}
330
2A
100
AcDbVisualStyle
  2
OverhangOff
 70
    21
177
     3
291
     1
 70
    58
 90
        2
176
     0
 90
        2
176
     0
 90
        0
176
     0
 90
        0
176
     0
 40
0.6
176
     0
 40
30.0
176
     0
 62
     7
420
 16777215
176
     0
 90
        1
176
     0
 90
        4
176
     0
 62
     7
176
     0
 62
   257
176
     0
 90
        1
176
     0
 90
        1
176
     0
 40
1.0
176
     0
 90
        9
176
     2
 62
     7
176
     0
 40
1.0
176
     0
 90
        1
176
     0
 90
        6
176
     0
 90
        2
176
     0
 62
     7
176
     0
 90
        5
176
     0
 90
        0
176
     0
 90
        0
176
     0
290
     0
176
     0
 90
        1
176
     0
 40
0.0
176
     0
 90
        0
176
     0
290
     0
176
     0
290
     1
176
     0
290
     1
176
     0
290
     0
176
     0
290
     0
176
     0
290
     0
176
     0
290
     0
176
     0
290
     0
176
     0
290
     0
176
     0
 90
       50
176
     0
 40
0.0
176
     0
 40
1.0
176
     0
 90
        0
176
     0
 62
    18
420
        0
176
     0
 90
       50
176
     0
 90
        3
176
     0
 62
     5
420
      255
176
     0
290
     0
176
     0
 90
       50
176
     0
 90
       50
176
     0
 90
       50
176
     0
290
     0
176
     0
 90
       50
176
     0
 62
   256
176
     0
 40
1.0
176
     0
 90
        2
176
     0
  1
strokes_ogs.tif
176
     0
290
     0
176
     0
 40
1.0
176
     0
 40
1.0
176
     0
  0
VISUALSTYLE
  5
33
102
{ACAD_REACTORS
330
2A
102
}
330
2A
100
AcDbVisualStyle
  2
Realistic
 70
     8
177
     3
291
     0
 70
    58
 90
        2
176
     1
 90
        2
176
     1
 90
        0
176
     1
 90
        0
176
     1
 40
-0.6
176
     1
 40
-30.0
176
     1
 62
     7
420
 16777215
176
     1
 90
        1
176
     1
 90
        0
176
     1
 62
     7
176
     1
 62
   257
176
     1
 90
        1
176
     1
 90
        1
176
     1
 40
1.0
176
     1
 90
        8
176
     1
 62
     8
420
  7895160
176
     1
 40
1.0
176
     1
 90
        1
176
     1
 90
        6
176
     1
 90
        2
176
     1
 62
     7
176
     1
 90
        5
176
     1
 90
        0
176
     1
 90
        0
176
     1
290
     0
176
     1
 90
       13
176
     1
 40
0.0
176
     1
 90
        0
176
     1
290
     0
176
     1
290
     1
176
     1
290
     1
176
     1
290
     0
176
     1
290
     0
176
     1
290
     0
176
     1
290
     0
176
     1
290
     0
176
     1
290
     0
176
     1
 90
       50
176
     1
 40
0.0
176
     1
 40
1.0
176
     1
 90
        0
176
     1
 62
    18
420
        0
176
     1
 90
       50
176
     1
 90
        3
176
     1
 62
     5
420
      255
176
     1
290
     0
176
     1
 90
       50
176
     1
 90
       50
176
     1
 90
       50
176
     1
290
     0
176
     1
 90
       50
176
     1
 62
   256
176
     0
 40
1.0
176
     0
 90
        2
176
     1
  1
strokes_ogs.tif
176
     1
290
     0
176
     1
 40
1.0
176
     1
 40
1.0
176
     1
  0
VISUALSTYLE
  5
7F
102
{ACAD_REACTORS
330
2A
102
}
330
2A
100
AcDbVisualStyle
  2
Shaded
 70
    27
177
     3
291
     0
 70
    58
 90
        2
176
     1
 90
        2
176
     1
 90
        1
176
     1
 90
        2
176
     1
 40
0.6
176
     1
 40
30.0
176
     1
 62
     7
420
 16777215
176
     1
 90
        0
176
     1
 90
        4
176
     1
 62
     7
176
     1
 62
   257
176
     1
 90
        1
176
     1
 90
        1
176
     1
 40
1.0
176
     1
 90
        8
176
     1
 62
   257
176
     1
 40
1.0
176
     1
 90
        1
176
     1
 90
        6
176
     1
 90
        2
176
     1
 62
     8
420
  7895160
176
     1
 90
        3
176
     1
 90
        0
176
     1
 90
        0
176
     1
290
     0
176
     1
 90
        5
176
     1
 40
0.0
176
     1
 90
        0
176
     1
290
     0
176
     1
290
     1
176
     1
290
     1
176
     1
290
     0
176
     1
290
     0
176
     1
290
     0
176
     1
290
     0
176
     1
290
     0
176
     1
290
     0
176
     1
 90
       50
176
     1
 40
0.0
176
     1
 40
1.0
176
     1
 90
        0
176
     1
 62
    18
420
        0
176
     1
 90
       50
176
     1
 90
        3
176
     1
 62
     5
420
      255
176
     1
290
     0
176
     1
 90
       50
176
     1
 90
       50
176
     1
 90
       50
176
     1
290
     0
176
     1
 90
       50
176
     1
 62
   256
176
     0
 40
1.0
176
     0
 90
        2
176
     1
  1
strokes_ogs.tif
176
     1
290
     0
176
     1
 40
1.0
176
     1
 40
1.0
176
     1
  0
VISUALSTYLE
  5
7E
102
{ACAD_REACTORS
330
2A
102
}
330
2A
100
AcDbVisualStyle
  2
Shaded with edges
 70
    26
177
     3
291
     0
 70
    58
 90
        2
176
     1
 90
        2
176
     1
 90
        1
176
     1
 90
        2
176
     1
 40
0.6
176
     1
 40
30.0
176
     1
 62
     7
420
 16777215
176
     1
 90
        1
176
     1
 90
       10
176
     1
 62
     7
176
     1
 62
   257
176
     1
 90
        2
176
     1
 90
        1
176
     1
 40
1.0
176
     1
 90
        8
176
     1
 62
   257
176
     1
 40
1.0
176
     1
 90
        1
176
     1
 90
        6
176
     1
 90
        2
176
     1
 62
     7
176
     1
 90
        3
176
     1
 90
        0
176
     1
 90
        0
176
     1
290
     0
176
     1
 90
        5
176
     1
 40
0.0
176
     1
 90
        0
176
     1
290
     0
176
     1
290
     1
176
     1
290
     1
176
     1
290
     0
176
     1
290
     0
176
     1
290
     0
176
     1
290
     0
176
     1
290
     0
176
     1
290
     0
176
     1
 90
       50
176
     1
 40
0.0
176
     1
 40
1.0
176
     1
 90
        0
176
     1
 62
    18
420
        0
176
     1
 90
       50
176
     1
 90
        3
176
     1
 62
     5
420
      255
176
     1
290
     0
176
     1
 90
       50
176
     1
 90
       50
176
     1
 90
       50
176
     1
290
     0
176
     1
 90
       50
176
     1
 62
   256
176
     0
 40
1.0
176
     0
 90
        2
176
     1
  1
strokes_ogs.tif
176
     1
290
     0
176
     1
 40
1.0
176
     1
 40
1.0
176
     1
  0
VISUALSTYLE
  5
7B
102
{ACAD_REACTORS
330
2A
102
}
330
2A
100
AcDbVisualStyle
  2
Shades of Gray
 70
    23
177
     3
291
     0
 70
    58
 90
        2
176
     1
 90
        2
176
     1
 90
        3
176
     1
 90
        0
176
     1
 40
0.6
176
     1
 40
30.0
176
     1
 62
     7
420
 16777215
176
     1
 90
        2
176
     1
 90
        2
176
     1
 62
     7
176
     1
 62
     7
176
     1
 90
        1
176
     1
 90
        1
176
     1
 40
40.0
176
     1
 90
        8
176
     1
 62
     7
176
     1
 40
1.0
176
     1
 90
        1
176
     1
 90
        6
176
     1
 90
        2
176
     1
 62
     7
176
     1
 90
        3
176
     1
 90
        0
176
     1
 90
        0
176
     1
290
     0
176
     1
 90
        1
176
     1
 40
0.0
176
     1
 90
        0
176
     1
290
     0
176
     1
290
     1
176
     1
290
     1
176
     1
290
     0
176
     1
290
     0
176
     1
290
     0
176
     1
290
     0
176
     1
290
     0
176
     1
290
     0
176
     1
 90
       50
176
     1
 40
0.0
176
     1
 40
1.0
176
     1
 90
        0
176
     1
 62
    18
420
        0
176
     1
 90
       50
176
     1
 90
        3
176
     1
 62
     5
420
      255
176
     1
290
     0
176
     1
 90
       50
176
     1
 90
       50
176
     1
 90
       50
176
     1
290
     0
176
     1
 90
       50
176
     1
 62
   256
176
     0
 40
1.0
176
     0
 90
        2
176
     1
  1
strokes_ogs.tif
176
     1
290
     0
176
     1
 40
1.0
176
     1
 40
1.0
176
     1
  0
VISUALSTYLE
  5
7C
102
{ACAD_REACTORS
330
2A
102
}
330
2A
100
AcDbVisualStyle
  2
Sketchy
 70
    24
177
     3
291
     0
 70
    58
 90
        1
176
     1
 90
        2
176
     1
 90
        2
176
     1
 90
        0
176
     1
 40
0.6
176
     1
 40
30.0
176
     1
 62
     7
420
 16777215
176
     1
 90
        2
176
     1
 90
        2
176
     1
 62
     7
176
     1
 62
     7
176
     1
 90
        1
176
     1
 90
        1
176
     1
 40
40.0
176
     1
 90
       11
176
     1
 62
     7
176
     1
 40
1.0
176
     1
 90
        1
176
     1
 90
        6
176
     1
 90
        2
176
     1
 62
     7
176
     1
 90
        6
176
     1
 90
        0
176
     1
 90
        0
176
     1
290
     0
176
     1
 90
        1
176
     1
 40
0.0
176
     1
 90
        0
176
     1
290
     0
176
     1
290
     1
176
     1
290
     1
176
     1
290
     0
176
     1
290
     0
176
     1
290
     0
176
     1
290
     0
176
     1
290
     0
176
     1
290
     0
176
     1
 90
       50
176
     1
 40
0.0
176
     1
 40
1.0
176
     1
 90
        0
176
     1
 62
    18
420
        0
176
     1
 90
       50
176
     1
 90
        3
176
     1
 62
     5
420
      255
176
     1
290
     0
176
     1
 90
       50
176
     1
 90
       50
176
     1
 90
       50
176
     1
290
     0
176
     1
 90
       50
176
     1
 62
   256
176
     0
 40
1.0
176
     0
 90
        2
176
     1
  1
strokes_ogs.tif
176
     1
290
     0
176
     1
 40
1.0
176
     1
 40
1.0
176
     1
  0
VISUALSTYLE
  5
37
102
{ACAD_REACTORS
330
2A
102
}
330
2A
100
AcDbVisualStyle
  2
Thicken
 70
    13
177
     3
291
     1
 70
    58
 90
        2
176
     1
 90
        2
176
     1
 90
        0
176
     1
 90
        0
176
     1
 40
-0.6
176
     1
 40
-30.0
176
     1
 62
     7
420
 16777215
176
     1
 90
        1
176
     1
 90
        4
176
     1
 62
     7
176
     1
 62
   257
176
     1
 90
        1
176
     1
 90
        1
176
     1
 40
1.0
176
     1
 90
       12
176
     1
 62
     7
176
     1
 40
1.0
176
     1
 90
        1
176
     1
 90
        6
176
     1
 90
        2
176
     1
 62
     7
176
     1
 90
        5
176
     1
 90
        0
176
     1
 90
        0
176
     1
290
     0
176
     1
 90
        1
176
     1
 40
0.0
176
     1
 90
        0
176
     1
290
     0
176
     1
290
     1
176
     1
290
     1
176
     1
290
     0
176
     1
290
     0
176
     1
290
     0
176
     1
290
     0
176
     1
290
     0
176
     1
290
     0
176
     1
 90
       50
176
     1
 40
0.0
176
     1
 40
1.0
176
     1
 90
        0
176
     1
 62
    18
420
        0
176
     1
 90
       50
176
     1
 90
        3
176
     1
 62
     5
420
      255
176
     1
290
     0
176
     1
 90
       50
176
     1
 90
       50
176
     1
 90
       50
176
     1
290
     0
176
     1
 90
       50
176
     1
 62
   256
176
     0
 40
1.0
176
     0
 90
        2
176
     1
  1
strokes_ogs.tif
176
     1
290
     0
176
     1
 40
1.0
176
     1
 40
1.0
176
     1
  0
VISUALSTYLE
  5
76
102
{ACAD_REACTORS
330
2A
102
}
330
2A
100
AcDbVisualStyle
  2
Wireframe
 70
     5
177
     3
291
     0
 70
    58
 90
        0
176
     1
 90
        2
176
     1
 90
        0
176
     1
 90
        0
176
     1
 40
0.6
176
     1
 40
30.0
176
     1
 62
     7
420
 16777215
176
     1
 90
        1
176
     1
 90
        4
176
     1
 62
     7
176
     1
 62
   257
176
     1
 90
        1
176
     1
 90
        1
176
     1
 40
1.0
176
     1
 90
        0
176
     1
 62
   257
176
     1
 40
1.0
176
     1
 90
        1
176
     1
 90
        6
176
     1
 90
        2
176
     1
 62
     7
176
     1
 90
        3
176
     1
 90
        0
176
     1
 90
        0
176
     1
290
     0
176
     1
 90
        1
176
     1
 40
0.0
176
     1
 90
        0
176
     1
290
     0
176
     1
290
     1
176
     1
290
     1
176
     1
290
     0
176
     1
290
     0
176
     1
290
     0
176
     1
290
     0
176
     1
290
     0
176
     1
290
     0
176
     1
 90
       50
176
     1
 40
0.0
176
     1
 40
1.0
176
     1
 90
        0
176
     1
 62
    18
420
        0
176
     1
 90
       50
176
     1
 90
        3
176
     1
 62
     5
420
      255
176
     1
290
     0
176
     1
 90
       50
176
     1
 90
       50
176
     1
 90
       50
176
     1
290
     0
176
     1
 90
       50
176
     1
 62
   256
176
     0
 40
1.0
176
     0
 90
        2
176
     1
  1
strokes_ogs.tif
176
     1
290
     0
176
     1
 40
1.0
176
     1
 40
1.0
176
     1
  0
VISUALSTYLE
  5
7D
102
{ACAD_REACTORS
330
2A
102
}
330
2A
100
AcDbVisualStyle
  2
X-Ray
 70
    25
177
     3
291
     0
 70
    58
 90
        2
176
     1
 90
        2
176
     1
 90
        1
176
     1
 90
        1
176
     1
 40
0.5
176
     1
 40
30.0
176
     1
 62
     7
420
 16777215
176
     1
 90
        1
176
     1
 90
        0
176
     1
 62
     7
176
     1
 62
   257
176
     1
 90
        1
176
     1
 90
        1
176
     1
 40
1.0
176
     1
 90
        8
176
     1
 62
     7
176
     1
 40
1.0
176
     1
 90
        1
176
     1
 90
        6
176
     1
 90
        2
176
     1
 62
     7
176
     1
 90
        3
176
     1
 90
        0
176
     1
 90
        0
176
     1
290
     0
176
     1
 90
       13
176
     1
 40
0.0
176
     1
 90
        0
176
     1
290
     0
176
     1
290
     1
176
     1
290
     1
176
     1
290
     0
176
     1
290
     0
176
     1
290
     0
176
     1
290
     0
176
     1
290
     0
176
     1
290
     0
176
     1
 90
       50
176
     1
 40
0.0
176
     1
 40
1.0
176
     1
 90
        0
176
     1
 62
    18
420
        0
176
     1
 90
       50
176
     1
 90
        3
176
     1
 62
     5
420
      255
176
     1
290
     0
176
     1
 90
       50
176
     1
 90
       50
176
     1
 90
       50
176
     1
290
     0
176
     1
 90
       50
176
     1
 62
   256
176
     0
 40
1.0
176
     0
 90
        2
176
     1
  1
strokes_ogs.tif
176
     1
290
     0
176
     1
 40
1.0
176
     1
 40
1.0
176
     1
  0
DICTIONARYVAR
  5
62
102
{ACAD_REACTORS
330
3D
102
}
330
3D
100
DictionaryVariables
280
     0
  1
1:1
  0
DICTIONARYVAR
  5
BB
102
{ACAD_REACTORS
330
3D
102
}
330
3D
100
DictionaryVariables
280
     0
  1
Standard
  0
DICTIONARYVAR
  5
3E
102
{ACAD_REACTORS
330
3D
102
}
330
3D
100
DictionaryVariables
280
     0
  1
Standard
  0
DICTIONARYVAR
  5
6F
102
{ACAD_REACTORS
330
3D
102
}
330
3D
100
DictionaryVariables
280
     0
  1
0
  0
DICTIONARYVAR
  5
70
102
{ACAD_REACTORS
330
3D
102
}
330
3D
100
DictionaryVariables
280
     0
  1
0
  0
DICTIONARY
  5
B06
330
3C
100
AcDbDictionary
280
     1
281
     1
  3
ACAD_ROUNDTRIP_2008_TABLESTYLE_CELLSTYLEMAP
360
B07
  0
CELLSTYLEMAP
  5
B07
102
{ACAD_REACTORS
330
B06
102
}
330
B06
100
AcDbCellStyleMap
 90
        3
300
CELLSTYLE
  1
TABLEFORMAT_BEGIN
 90
        5
170
     1
 91
        0
 92
    32768
 62
   257
 93
        1
300
CONTENTFORMAT
  1
CONTENTFORMAT_BEGIN
 90
        0
 91
        0
 92
      512
 93
        0
300

 40
0.0
140
1.0
 94
        5
 62
     0
340
11
144
6.0
309
CONTENTFORMAT_END
171
     1
301
MARGIN
  1
CELLMARGIN_BEGIN
 40
1.5
 40
1.5
 40
1.5
 40
1.5
 40
0.18
 40
0.18
309
CELLMARGIN_END
 94
        6
 95
        1
302
GRIDFORMAT
  1
GRIDFORMAT_BEGIN
 90
        0
 91
        1
 62
     0
 92
       -2
340
0
 93
        0
 40
0.045
309
GRIDFORMAT_END
 95
        2
302
GRIDFORMAT
  1
GRIDFORMAT_BEGIN
 90
        0
 91
        1
 62
     0
 92
       -2
340
0
 93
        0
 40
0.045
309
GRIDFORMAT_END
 95
        4
302
GRIDFORMAT
  1
GRIDFORMAT_BEGIN
 90
        0
 91
        1
 62
     0
 92
       -2
340
0
 93
        0
 40
0.045
309
GRIDFORMAT_END
 95
        8
302
GRIDFORMAT
  1
GRIDFORMAT_BEGIN
 90
        0
 91
        1
 62
     0
 92
       -2
340
0
 93
        0
 40
0.045
309
GRIDFORMAT_END
 95
       16
302
GRIDFORMAT
  1
GRIDFORMAT_BEGIN
 90
        0
 91
        1
 62
     0
 92
       -2
340
0
 93
        0
 40
0.045
309
GRIDFORMAT_END
 95
       32
302
GRIDFORMAT
  1
GRIDFORMAT_BEGIN
 90
        0
 91
        1
 62
     0
 92
       -2
340
0
 93
        0
 40
0.045
309
GRIDFORMAT_END
309
TABLEFORMAT_END
  1
CELLSTYLE_BEGIN
 90
        1
 91
        1
300
_TITLE
309
CELLSTYLE_END
300
CELLSTYLE
  1
TABLEFORMAT_BEGIN
 90
        5
170
     1
 91
        0
 92
        0
 62
   257
 93
        1
300
CONTENTFORMAT
  1
CONTENTFORMAT_BEGIN
 90
        0
 91
        0
 92
      512
 93
        0
300

 40
0.0
140
1.0
 94
        5
 62
     0
340
11
144
4.5
309
CONTENTFORMAT_END
171
     1
301
MARGIN
  1
CELLMARGIN_BEGIN
 40
1.5
 40
1.5
 40
1.5
 40
1.5
 40
0.18
 40
0.18
309
CELLMARGIN_END
 94
        6
 95
        1
302
GRIDFORMAT
  1
GRIDFORMAT_BEGIN
 90
        0
 91
        1
 62
     0
 92
       -2
340
0
 93
        0
 40
0.045
309
GRIDFORMAT_END
 95
        2
302
GRIDFORMAT
  1
GRIDFORMAT_BEGIN
 90
        0
 91
        1
 62
     0
 92
       -2
340
0
 93
        0
 40
0.045
309
GRIDFORMAT_END
 95
        4
302
GRIDFORMAT
  1
GRIDFORMAT_BEGIN
 90
        0
 91
        1
 62
     0
 92
       -2
340
0
 93
        0
 40
0.045
309
GRIDFORMAT_END
 95
        8
302
GRIDFORMAT
  1
GRIDFORMAT_BEGIN
 90
        0
 91
        1
 62
     0
 92
       -2
340
0
 93
        0
 40
0.045
309
GRIDFORMAT_END
 95
       16
302
GRIDFORMAT
  1
GRIDFORMAT_BEGIN
 90
        0
 91
        1
 62
     0
 92
       -2
340
0
 93
        0
 40
0.045
309
GRIDFORMAT_END
 95
       32
302
GRIDFORMAT
  1
GRIDFORMAT_BEGIN
 90
        0
 91
        1
 62
     0
 92
       -2
340
0
 93
        0
 40
0.045
309
GRIDFORMAT_END
309
TABLEFORMAT_END
  1
CELLSTYLE_BEGIN
 90
        2
 91
        1
300
_HEADER
309
CELLSTYLE_END
300
CELLSTYLE
  1
TABLEFORMAT_BEGIN
 90
        5
170
     1
 91
        0
 92
        0
 62
   257
 93
        1
300
CONTENTFORMAT
  1
CONTENTFORMAT_BEGIN
 90
        0
 91
        0
 92
      512
 93
        0
300

 40
0.0
140
1.0
 94
        2
 62
     0
340
11
144
4.5
309
CONTENTFORMAT_END
171
     1
301
MARGIN
  1
CELLMARGIN_BEGIN
 40
1.5
 40
1.5
 40
1.5
 40
1.5
 40
0.18
 40
0.18
309
CELLMARGIN_END
 94
        6
 95
        1
302
GRIDFORMAT
  1
GRIDFORMAT_BEGIN
 90
        0
 91
        1
 62
     0
 92
       -2
340
0
 93
        0
 40
0.045
309
GRIDFORMAT_END
 95
        2
302
GRIDFORMAT
  1
GRIDFORMAT_BEGIN
 90
        0
 91
        1
 62
     0
 92
       -2
340
0
 93
        0
 40
0.045
309
GRIDFORMAT_END
 95
        4
302
GRIDFORMAT
  1
GRIDFORMAT_BEGIN
 90
        0
 91
        1
 62
     0
 92
       -2
340
0
 93
        0
 40
0.045
309
GRIDFORMAT_END
 95
        8
302
GRIDFORMAT
  1
GRIDFORMAT_BEGIN
 90
        0
 91
        1
 62
     0
 92
       -2
340
0
 93
        0
 40
0.045
309
GRIDFORMAT_END
 95
       16
302
GRIDFORMAT
  1
GRIDFORMAT_BEGIN
 90
        0
 91
        1
 62
     0
 92
       -2
340
0
 93
        0
 40
0.045
309
GRIDFORMAT_END
 95
       32
302
GRIDFORMAT
  1
GRIDFORMAT_BEGIN
 90
        0
 91
        1
 62
     0
 92
       -2
340
0
 93
        0
 40
0.045
309
GRIDFORMAT_END
309
TABLEFORMAT_END
  1
CELLSTYLE_BEGIN
 90
        3
 91
        2
300
_DATA
309
CELLSTYLE_END
  0
ENDSEC
  0
EOF
