  0
SECTION
  2
HEADER
  9
$ACADVER
  1
AC1032
  9
$ACADMAINTVER
 90
       55
  9
$DWGCODEPAGE
  3
ANSI_1252
  9
$LASTSAVEDBY
  1
eac573
  9
$REQUIREDVERSIONS
160
                 0
  9
$INSBASE
 10
0.0
 20
0.0
 30
0.0
  9
$EXTMIN
 10
128.1418281646226
 20
122.4046212737566
 30
0.0
  9
$EXTMAX
 10
137.8088343059292
 20
125.3625289587784
 30
0.0
  9
$LIMMIN
 10
0.0
 20
0.0
  9
$LIMMAX
 10
420.0
 20
297.0
  9
$ORTHOMODE
 70
     0
  9
$REGENMODE
 70
     1
  9
$FILLMODE
 70
     1
  9
$QTEXTMODE
 70
     0
  9
$MIRRTEXT
 70
     0
  9
$LTSCALE
 40
1.0
  9
$ATTMODE
 70
     1
  9
$TEXTSIZE
 40
2.5
  9
$TRACEWID
 40
1.0
  9
$TEXTSTYLE
  7
Standard
  9
$CLAYER
  8
Context 1
  9
$CELTYPE
  6
ByLayer
  9
$CECOLOR
 62
     1
  9
$CELTSCALE
 40
1.0
  9
$DISPSILH
 70
     0
  9
$DIMSCALE
 40
1.0
  9
$DIMASZ
 40
2.5
  9
$DIMEXO
 40
0.625
  9
$DIMDLI
 40
3.75
  9
$DIMRND
 40
0.0
  9
$DIMDLE
 40
0.0
  9
$DIMEXE
 40
1.25
  9
$DIMTP
 40
0.0
  9
$DIMTM
 40
0.0
  9
$DIMTXT
 40
2.5
  9
$DIMCEN
 40
-2.5
  9
$DIMTSZ
 40
0.0
  9
$DIMTOL
 70
     0
  9
$DIMLIM
 70
     0
  9
$DIMTIH
 70
     0
  9
$DIMTOH
 70
     0
  9
$DIMSE1
 70
     0
  9
$DIMSE2
 70
     0
  9
$DIMTAD
 70
     1
  9
$DIMZIN
 70
     8
  9
$DIMBLK
  1

  9
$DIMASO
 70
     1
  9
$DIMSHO
 70
     1
  9
$DIMPOST
  1

  9
$DIMAPOST
  1

  9
$DIMALT
 70
     0
  9
$DIMALTD
 70
     3
  9
$DIMALTF
 40
0.03937007874016
  9
$DIMLFAC
 40
1.0
  9
$DIMTOFL
 70
     1
  9
$DIMTVP
 40
0.0
  9
$DIMTIX
 70
     0
  9
$DIMSOXD
 70
     0
  9
$DIMSAH
 70
     0
  9
$DIMBLK1
  1

  9
$DIMBLK2
  1

  9
$DIMSTYLE
  2
ISO-25
  9
$DIMCLRD
 70
     0
  9
$DIMCLRE
 70
     0
  9
$DIMCLRT
 70
     0
  9
$DIMTFAC
 40
1.0
  9
$DIMGAP
 40
0.625
  9
$DIMJUST
 70
     0
  9
$DIMSD1
 70
     0
  9
$DIMSD2
 70
     0
  9
$DIMTOLJ
 70
     0
  9
$DIMTZIN
 70
     8
  9
$DIMALTZ
 70
     0
  9
$DIMALTTZ
 70
     0
  9
$DIMUPT
 70
     0
  9
$DIMDEC
 70
     2
  9
$DIMTDEC
 70
     2
  9
$DIMALTU
 70
     2
  9
$DIMALTTD
 70
     3
  9
$DIMTXSTY
  7
Standard
  9
$DIMAUNIT
 70
     0
  9
$DIMADEC
 70
     0
  9
$DIMALTRND
 40
0.0
  9
$DIMAZIN
 70
     0
  9
$DIMDSEP
 70
    44
  9
$DIMATFIT
 70
     3
  9
$DIMFRAC
 70
     0
  9
$DIMLDRBLK
  1

  9
$DIMLUNIT
 70
     2
  9
$DIMLWD
 70
    -2
  9
$DIMLWE
 70
    -2
  9
$DIMTMOVE
 70
     0
  9
$DIMFXL
 40
1.0
  9
$DIMFXLON
 70
     0
  9
$DIMJOGANG
 40
0.7853981633974483
  9
$DIMTFILL
 70
     0
  9
$DIMTFILLCLR
 70
     0
  9
$DIMARCSYM
 70
     0
  9
$DIMLTYPE
  6

  9
$DIMLTEX1
  6

  9
$DIMLTEX2
  6

  9
$DIMTXTDIRECTION
 70
     0
  9
$LUNITS
 70
     2
  9
$LUPREC
 70
     3
  9
$SKETCHINC
 40
1.0
  9
$FILLETRAD
 40
10.0
  9
$AUNITS
 70
     0
  9
$AUPREC
 70
     0
  9
$MENU
  1
.
  9
$ELEVATION
 40
0.0
  9
$PELEVATION
 40
0.0
  9
$THICKNESS
 40
0.0
  9
$LIMCHECK
 70
     0
  9
$CHAMFERA
 40
10.0
  9
$CHAMFERB
 40
10.0
  9
$CHAMFERC
 40
20.0
  9
$CHAMFERD
 40
0.0
  9
$SKPOLY
 70
     0
  9
$TDCREATE
 40
2455022.637359514
  9
$TDUCREATE
 40
2455022.637359514
  9
$TDUPDATE
 40
2459661.624891319
  9
$TDUUPDATE
 40
2459661.624891319
  9
$TDINDWG
 40
0.0120593866
  9
$TDUSRTIMER
 40
2458948.651788727
  9
$USRTIMER
 70
     1
  9
$ANGBASE
 50
0.0
  9
$ANGDIR
 70
     0
  9
$PDMODE
 70
     0
  9
$PDSIZE
 40
0.0
  9
$PLINEWID
 40
0.0
  9
$SPLFRAME
 70
     0
  9
$SPLINETYPE
 70
     6
  9
$SPLINESEGS
 70
     8
  9
$HANDSEED
  5
776
  9
$SURFTAB1
 70
     6
  9
$SURFTAB2
 70
     6
  9
$SURFTYPE
 70
     6
  9
$SURFU
 70
     6
  9
$SURFV
 70
     6
  9
$UCSBASE
  2

  9
$UCSNAME
  2

  9
$UCSORG
 10
0.0
 20
0.0
 30
0.0
  9
$UCSXDIR
 10
1.0
 20
0.0
 30
0.0
  9
$UCSYDIR
 10
0.0
 20
1.0
 30
0.0
  9
$UCSORTHOREF
  2

  9
$UCSORTHOVIEW
 70
     0
  9
$UCSORGTOP
 10
0.0
 20
0.0
 30
0.0
  9
$UCSORGBOTTOM
 10
0.0
 20
0.0
 30
0.0
  9
$UCSORGLEFT
 10
0.0
 20
0.0
 30
0.0
  9
$UCSORGRIGHT
 10
0.0
 20
0.0
 30
0.0
  9
$UCSORGFRONT
 10
0.0
 20
0.0
 30
0.0
  9
$UCSORGBACK
 10
0.0
 20
0.0
 30
0.0
  9
$PUCSBASE
  2

  9
$PUCSNAME
  2

  9
$PUCSORG
 10
0.0
 20
0.0
 30
0.0
  9
$PUCSXDIR
 10
1.0
 20
0.0
 30
0.0
  9
$PUCSYDIR
 10
0.0
 20
1.0
 30
0.0
  9
$PUCSORTHOREF
  2

  9
$PUCSORTHOVIEW
 70
     0
  9
$PUCSORGTOP
 10
0.0
 20
0.0
 30
0.0
  9
$PUCSORGBOTTOM
 10
0.0
 20
0.0
 30
0.0
  9
$PUCSORGLEFT
 10
0.0
 20
0.0
 30
0.0
  9
$PUCSORGRIGHT
 10
0.0
 20
0.0
 30
0.0
  9
$PUCSORGFRONT
 10
0.0
 20
0.0
 30
0.0
  9
$PUCSORGBACK
 10
0.0
 20
0.0
 30
0.0
  9
$USERI1
 70
     0
  9
$USERI2
 70
     0
  9
$USERI3
 70
     0
  9
$USERI4
 70
     0
  9
$USERI5
 70
     0
  9
$USERR1
 40
0.0
  9
$USERR2
 40
0.0
  9
$USERR3
 40
0.0
  9
$USERR4
 40
0.0
  9
$USERR5
 40
0.0
  9
$WORLDVIEW
 70
     1
  9
$SHADEDGE
 70
     3
  9
$SHADEDIF
 70
    70
  9
$TILEMODE
 70
     1
  9
$MAXACTVP
 70
    64
  9
$PINSBASE
 10
0.0
 20
0.0
 30
0.0
  9
$PLIMCHECK
 70
     0
  9
$PEXTMIN
 10
1.000000000000000E+20
 20
1.000000000000000E+20
 30
1.000000000000000E+20
  9
$PEXTMAX
 10
-1.000000000000000E+20
 20
-1.000000000000000E+20
 30
-1.000000000000000E+20
  9
$PLIMMIN
 10
0.0
 20
0.0
  9
$PLIMMAX
 10
420.0
 20
297.0
  9
$UNITMODE
 70
     0
  9
$VISRETAIN
 70
     1
  9
$PLINEGEN
 70
     0
  9
$PSLTSCALE
 70
     1
  9
$TREEDEPTH
 70
  3020
  9
$CMLSTYLE
  2
Standard
  9
$CMLJUST
 70
     0
  9
$CMLSCALE
 40
20.0
  9
$PROXYGRAPHICS
 70
     1
  9
$MEASUREMENT
 70
     1
  9
$CELWEIGHT
370
    -1
  9
$ENDCAPS
280
     0
  9
$JOINSTYLE
280
     0
  9
$LWDISPLAY
290
     0
  9
$INSUNITS
 70
     4
  9
$HYPERLINKBASE
  1

  9
$STYLESHEET
  1

  9
$XEDIT
290
     1
  9
$CEPSNTYPE
380
     0
  9
$PSTYLEMODE
290
     1
  9
$FINGERPRINTGUID
  2
{EC6BB858-51AA-46EC-B484-6C9CC7AB3E2E}
  9
$VERSIONGUID
  2
{FAEB1C32-E019-11D5-929B-00C0DF256EC4}
  9
$EXTNAMES
290
     1
  9
$PSVPSCALE
 40
0.0
  9
$OLESTARTUP
290
     0
  9
$SORTENTS
280
   127
  9
$INDEXCTL
280
     0
  9
$HIDETEXT
280
     1
  9
$XCLIPFRAME
280
     0
  9
$HALOGAP
280
     0
  9
$OBSCOLOR
 70
   257
  9
$OBSLTYPE
280
     0
  9
$INTERSECTIONDISPLAY
280
     0
  9
$INTERSECTIONCOLOR
 70
   257
  9
$DIMASSOC
280
     2
  9
$PROJECTNAME
  1

  9
$CAMERADISPLAY
290
     0
  9
$LENSLENGTH
 40
50.0
  9
$CAMERAHEIGHT
 40
0.0
  9
$STEPSPERSEC
 40
2.0
  9
$STEPSIZE
 40
6.0
  9
$3DDWFPREC
 40
2.0
  9
$PSOLWIDTH
 40
5.0
  9
$PSOLHEIGHT
 40
80.0
  9
$LOFTANG1
 40
1.570796326794897
  9
$LOFTANG2
 40
1.570796326794897
  9
$LOFTMAG1
 40
0.0
  9
$LOFTMAG2
 40
0.0
  9
$LOFTPARAM
 70
     7
  9
$LOFTNORMALS
280
     1
  9
$LATITUDE
 40
37.795
  9
$LONGITUDE
 40
-122.394
  9
$NORTHDIRECTION
 40
0.0
  9
$TIMEZONE
 70
 -8000
  9
$LIGHTGLYPHDISPLAY
280
     1
  9
$TILEMODELIGHTSYNCH
280
     1
  9
$CMATERIAL
347
73
  9
$SOLIDHIST
280
     1
  9
$SHOWHIST
280
     1
  9
$DWFFRAME
280
     2
  9
$DGNFRAME
280
     2
  9
$REALWORLDSCALE
290
     1
  9
$INTERFERECOLOR
 62
   256
  9
$CSHADOW
280
     0
  9
$SHADOWPLANELOCATION
 40
0.0
  0
ENDSEC
  0
SECTION
  2
CLASSES
  0
CLASS
  1
ACDBDICTIONARYWDFLT
  2
AcDbDictionaryWithDefault
  3
ObjectDBX Classes
 90
        0
 91
        3
280
     0
281
     0
  0
CLASS
  1
VISUALSTYLE
  2
AcDbVisualStyle
  3
ObjectDBX Classes
 90
     4095
 91
        3
280
     0
281
     0
  0
CLASS
  1
TABLESTYLE
  2
AcDbTableStyle
  3
ObjectDBX Classes
 90
     4095
 91
        3
280
     0
281
     0
  0
CLASS
  1
DICTIONARYVAR
  2
AcDbDictionaryVar
  3
ObjectDBX Classes
 90
        0
 91
        3
280
     0
281
     0
  0
CLASS
  1
SCALE
  2
AcDbScale
  3
ObjectDBX Classes
 90
     1153
 91
        3
280
     0
281
     0
  0
CLASS
  1
CELLSTYLEMAP
  2
AcDbCellStyleMap
  3
ObjectDBX Classes
 90
     1152
 91
        3
280
     0
281
     0
  0
CLASS
  1
RASTERVARIABLES
  2
AcDbRasterVariables
  3
ISM
 90
        0
 91
        3
280
     0
281
     0
  0
CLASS
  1
MATERIAL
  2
AcDbMaterial
  3
ObjectDBX Classes
 90
     1153
 91
        3
280
     0
281
     0
  0
CLASS
  1
SUN
  2
AcDbSun
  3
SCENEOE
 90
     1153
 91
        3
280
     0
281
     0
  0
CLASS
  1
MLEADERSTYLE
  2
AcDbMLeaderStyle
  3
ACDB_MLEADERSTYLE_CLASS
 90
     4095
 91
        3
280
     0
281
     0
  0
CLASS
  1
SORTENTSTABLE
  2
AcDbSortentsTable
  3
ObjectDBX Classes
 90
        0
 91
        3
280
     0
281
     0
  0
CLASS
  1
IMAGE
  2
AcDbRasterImage
  3
ISM
 90
      127
 91
        4
280
     0
281
     1
  0
CLASS
  1
IMAGEDEF
  2
AcDbRasterImageDef
  3
ISM
 90
        0
 91
        3
280
     0
281
     0
  0
CLASS
  1
IMAGEDEF_REACTOR
  2
AcDbRasterImageDefReactor
  3
ISM
 90
        1
 91
        3
280
     0
281
     0
  0
ENDSEC
  0
SECTION
  2
TABLES
  0
TABLE
  2
VPORT
  5
8
330
0
100
AcDbSymbolTable
 70
     1
  0
VPORT
  5
29
330
8
100
AcDbSymbolTableRecord
100
AcDbViewportTableRecord
  2
*Active
 70
     0
 10
0.0
 20
0.0
 11
1.0
 21
1.0
 12
267.1622471231267
 22
123.8835751162675
 13
0.0
 23
0.0
 14
10.0
 24
10.0
 15
10.0
 25
10.0
 16
0.0
 26
0.0
 36
1.0
 17
-134.1869158878508
 27
0.0
 37
0.0
 40
3.744939591226197
 41
2.632978723404255
 42
50.0
 43
0.0
 44
0.0
 50
0.0
 51
0.0
 71
    16
 72
  1000
 73
     1
 74
     3
 75
     0
 76
     0
 77
     0
 78
     0
281
     0
 65
     1
110
0.0
120
0.0
130
0.0
111
1.0
121
0.0
131
0.0
112
0.0
122
1.0
132
0.0
 79
     0
146
0.0
348
2F
 60
     3
 61
     5
292
     1
282
     1
141
0.0
142
0.0
 63
   256
361
80
  0
ENDTAB
  0
TABLE
  2
LTYPE
  5
5
330
0
100
AcDbSymbolTable
 70
     2
  0
LTYPE
  5
14
330
5
100
AcDbSymbolTableRecord
100
AcDbLinetypeTableRecord
  2
ByBlock
 70
     0
  3

 72
    65
 73
     0
 40
0.0
  0
LTYPE
  5
15
330
5
100
AcDbSymbolTableRecord
100
AcDbLinetypeTableRecord
  2
ByLayer
 70
     0
  3

 72
    65
 73
     0
 40
0.0
  0
LTYPE
  5
16
330
5
100
AcDbSymbolTableRecord
100
AcDbLinetypeTableRecord
  2
Continuous
 70
     0
  3
Solid line
 72
    65
 73
     0
 40
0.0
  0
LTYPE
  5
17B
330
5
100
AcDbSymbolTableRecord
100
AcDbLinetypeTableRecord
  2
DASHDOT
 70
     0
  3
DashDot __  . __  . __  . __  . __  . __  . __ 
 72
    65
 73
     4
 40
25.4
 49
12.7
 74
     0
 49
-6.35
 74
     0
 49
0.0
 74
     0
 49
-6.35
 74
     0
  0
ENDTAB
  0
TABLE
  2
LAYER
  5
2
102
{ACAD_XDICTIONARY
360
115
102
}
330
0
100
AcDbSymbolTable
 70
    10
  0
LAYER
  5
10
330
2
100
AcDbSymbolTableRecord
100
AcDbLayerTableRecord
  2
0
 70
     0
 62
     7
  6
Continuous
370
    -3
390
F
347
75
348
0
  0
LAYER
  5
BE
330
2
100
AcDbSymbolTableRecord
100
AcDbLayerTableRecord
  2
Context 1
 70
     0
 62
     7
  6
Continuous
370
    -3
390
F
347
75
348
0
1001
AcAecLayerStandard
1000

1000

  0
LAYER
  5
173
330
2
100
AcDbSymbolTableRecord
100
AcDbLayerTableRecord
  2
Annotatons
 70
     0
 62
     7
  6
Continuous
370
    -3
390
F
347
75
348
0
1001
AcAecLayerStandard
1000

1000

  0
LAYER
  5
174
330
2
100
AcDbSymbolTableRecord
100
AcDbLayerTableRecord
  2
Evaluation trench (LOE)
 70
     0
 62
     7
  6
Continuous
370
    -3
390
F
347
75
348
0
1001
AcAecLayerStandard
1000

1000

  0
LAYER
  5
175
330
2
100
AcDbSymbolTableRecord
100
AcDbLayerTableRecord
  2
Drawing point
 70
     0
 62
     7
  6
Continuous
370
    -3
390
F
347
75
348
0
1001
AcAecLayerStandard
1000

1000

  0
LAYER
  5
176
330
2
100
AcDbSymbolTableRecord
100
AcDbLayerTableRecord
  2
Section point
 70
     0
 62
     7
  6
Continuous
370
    -3
390
F
347
75
348
0
1001
AcAecLayerStandard
1000

1000

  0
LAYER
  5
177
330
2
100
AcDbSymbolTableRecord
100
AcDbLayerTableRecord
  2
Context 2
 70
     0
 62
     7
  6
Continuous
370
    -3
390
F
347
75
348
0
1001
AcAecLayerStandard
1000

1000

  0
LAYER
  5
178
330
2
100
AcDbSymbolTableRecord
100
AcDbLayerTableRecord
  2
Details
 70
     0
 62
     7
  6
Continuous
370
    -3
390
F
347
75
348
0
1001
AcAecLayerStandard
1000

1000

  0
LAYER
  5
179
330
2
100
AcDbSymbolTableRecord
100
AcDbLayerTableRecord
  2
aOD
 70
     0
 62
     7
  6
Continuous
370
    -3
390
F
347
75
348
0
1001
AcAecLayerStandard
1000

1000

  0
LAYER
  5
17A
330
2
100
AcDbSymbolTableRecord
100
AcDbLayerTableRecord
  2
Co-ord
 70
     0
 62
     7
  6
Continuous
370
    -3
390
F
347
75
348
0
1001
AcAecLayerStandard
1000

1000

  0
ENDTAB
  0
TABLE
  2
STYLE
  5
3
330
0
100
AcDbSymbolTable
 70
     3
  0
STYLE
  5
11
330
3
100
AcDbSymbolTableRecord
100
AcDbTextStyleTableRecord
  2
Standard
 70
     0
 40
0.0
 41
1.0
 50
0.0
 71
     0
 42
2.5
  3
arial.ttf
  4

1001
ACAD
1000
Arial
1071
        0
  0
STYLE
  5
B8
330
3
100
AcDbSymbolTableRecord
100
AcDbTextStyleTableRecord
  2
Annotative
 70
     0
 40
0.0
 41
1.0
 50
0.0
 71
     0
 42
2.5
  3
arial.ttf
  4

1001
ACAD
1000
Arial
1071
        0
1001
AcadAnnotative
1000
AnnotativeData
1002
{
1070
     1
1070
     1
1002
}
  0
STYLE
  5
17E
330
3
100
AcDbSymbolTableRecord
100
AcDbTextStyleTableRecord
  2
Text
 70
     0
 40
0.0
 41
1.0
 50
0.0
 71
     0
 42
2.5
  3
ARIALUNI.TTF
  4

1001
ACAD
1000
Arial Unicode MS
1071
        0
  0
ENDTAB
  0
TABLE
  2
VIEW
  5
6
330
0
100
AcDbSymbolTable
 70
     0
  0
ENDTAB
  0
TABLE
  2
UCS
  5
7
330
0
100
AcDbSymbolTable
 70
     0
  0
ENDTAB
  0
TABLE
  2
APPID
  5
9
330
0
100
AcDbSymbolTable
 70
     4
  0
APPID
  5
12
330
9
100
AcDbSymbolTableRecord
100
AcDbRegAppTableRecord
  2
ACAD
 70
     0
  0
APPID
  5
B9
330
9
100
AcDbSymbolTableRecord
100
AcDbRegAppTableRecord
  2
AcadAnnotative
 70
     0
  0
APPID
  5
C0
330
9
100
AcDbSymbolTableRecord
100
AcDbRegAppTableRecord
  2
AcAecLayerStandard
 70
     0
  0
APPID
  5
C3
330
9
100
AcDbSymbolTableRecord
100
AcDbRegAppTableRecord
  2
HATCHBACKGROUNDCOLOR
 70
     0
  0
ENDTAB
  0
TABLE
  2
DIMSTYLE
  5
A
330
0
100
AcDbSymbolTable
 70
     2
100
AcDbDimStyleTable
  0
DIMSTYLE
105
27
330
A
100
AcDbSymbolTableRecord
100
AcDbDimStyleTableRecord
  2
ISO-25
 70
     0
 41
2.5
 42
0.625
 43
3.75
 44
1.25
 73
     0
 74
     0
 77
     1
 78
     8
140
2.5
141
-2.5
143
0.03937007874016
147
0.625
171
     3
172
     1
178
     0
271
     2
272
     2
274
     3
278
    44
283
     0
284
     8
340
11
  0
DIMSTYLE
105
BA
330
A
100
AcDbSymbolTableRecord
100
AcDbDimStyleTableRecord
  2
Annotative
 70
     0
 40
0.0
 41
2.5
 42
0.625
 43
3.75
 44
1.25
 73
     0
 74
     0
 77
     1
 78
     8
140
2.5
141
-2.5
143
0.03937007874016
147
0.625
171
     3
172
     1
178
     0
271
     2
272
     2
274
     3
278
    44
283
     0
284
     8
340
11
1001
AcadAnnotative
1000
AnnotativeData
1002
{
1070
     1
1070
     1
1002
}
  0
ENDTAB
  0
TABLE
  2
BLOCK_RECORD
  5
1
330
0
100
AcDbSymbolTable
 70
     1
  0
BLOCK_RECORD
  5
1F
102
{ACAD_XDICTIONARY
360
60B
102
}
330
1
100
AcDbSymbolTableRecord
100
AcDbBlockTableRecord
  2
*Model_Space
340
22
 70
     0
280
     1
281
     0
  0
BLOCK_RECORD
  5
1B
330
1
100
AcDbSymbolTableRecord
100
AcDbBlockTableRecord
  2
*Paper_Space
340
1E
 70
     0
280
     1
281
     0
  0
BLOCK_RECORD
  5
23
330
1
100
AcDbSymbolTableRecord
100
AcDbBlockTableRecord
  2
*Paper_Space0
340
26
 70
     0
280
     1
281
     0
  0
ENDTAB
  0
ENDSEC
  0
SECTION
  2
BLOCKS
  0
BLOCK
  5
20
330
1F
100
AcDbEntity
  8
0
100
AcDbBlockBegin
  2
*Model_Space
 70
     0
 10
0.0
 20
0.0
 30
0.0
  3
*Model_Space
  1

  0
ENDBLK
  5
21
330
1F
100
AcDbEntity
  8
0
100
AcDbBlockEnd
  0
BLOCK
  5
1C
330
1B
100
AcDbEntity
 67
     1
  8
0
100
AcDbBlockBegin
  2
*Paper_Space
 70
     0
 10
0.0
 20
0.0
 30
0.0
  3
*Paper_Space
  1

  0
ENDBLK
  5
1D
330
1B
100
AcDbEntity
 67
     1
  8
0
100
AcDbBlockEnd
  0
BLOCK
  5
24
330
23
100
AcDbEntity
  8
0
100
AcDbBlockBegin
  2
*Paper_Space0
 70
     0
 10
0.0
 20
0.0
 30
0.0
  3
*Paper_Space0
  1

  0
ENDBLK
  5
25
330
23
100
AcDbEntity
  8
0
100
AcDbBlockEnd
  0
ENDSEC
  0
SECTION
  2
ENTITIES
  0
IMAGE
  5
163
330
1F
100
AcDbEntity
  8
0
160
               140
310
8C000000010000008400000006000000050000000CC96472400A60403883A050E5995E400000000000000000AFEEFBF21E9060403883A050E5995E400000000000000000AFEEFBF21E9060409773A9AC33575F4000000000000000000CC96472400A60409773A9AC33575F4000000000000000000CC96472400A60403883A0
310
50E5995E400000000000000000
100
AcDbRasterImage
 90
        0
 10
128.3203670471634
 20
122.4046212737566
 30
0.0
 11
0.000843429622190424
 21
0.0
 31
0.0
 12
0.0
 22
0.0008434296221904242
 32
0.0
 13
4960.0
 23
3507.0
340
162
 70
     7
280
     0
281
    50
282
    50
283
     0
360
164
 71
     1
 91
        2
 14
-0.5
 24
-0.5
 14
4959.5
 24
3506.5
290
     0
  0
LWPOLYLINE
  5
166
330
1F
100
AcDbEntity
  8
Context 1
 62
     1
100
AcDbPolyline
 90
        6
 70
     0
 43
0.0
 10
128.4063150145635
 20
124.4610144811133
 10
129.2399456082876
 20
124.4022241532491
 10
129.8591985680157
 20
124.3925483257534
 10
130.473613613996
 20
124.3538450157703
 10
131.1557594524465
 20
124.3393312745267
 10
131.5234408972851
 20
124.3344933607788
  0
LWPOLYLINE
  5
167
330
1F
100
AcDbEntity
  8
Context 1
 62
     1
100
AcDbPolyline
 90
       10
 70
     0
 43
0.0
 10
128.4000837816563
 20
124.1202705400229
 10
128.7295263562317
 20
124.1499946820898
 10
129.3785034580268
 20
124.1376096228953
 10
129.9284000862653
 20
124.1376096228953
 10
130.3113693385472
 20
124.1237538379214
 10
130.7881941175379
 20
124.1051762491295
 10
131.0947243326033
 20
124.0989837195322
 10
131.2619226317299
 20
124.0587322771499
 10
131.3867442146945
 20
124.0286842257466
 10
131.5543648419616
 20
124.0230187978631
  0
LWPOLYLINE
  5
168
330
1F
100
AcDbEntity
  8
Context 1
 62
     1
100
AcDbPolyline
 90
       26
 70
     0
 43
0.0
 10
131.3807146469721
 20
124.0301357115919
 10
131.3166200030117
 20
123.9901043759681
 10
131.2373469587702
 20
123.9357883489439
 10
131.1637896152018
 20
123.9015461372828
 10
131.0559900599723
 20
123.8774497661139
 10
130.7521015780332
 20
123.823828652331
 10
130.5415753878203
 20
123.7769041400547
 10
130.4084112313604
 20
123.7058832566094
 10
130.2270543325625
 20
123.6348623731641
 10
130.0888172558565
 20
123.6044248516875
 10
129.9975046914269
 20
123.6107660019951
 10
129.7990068707037
 20
123.6214914632576
 10
129.5631953436393
 20
123.6313995106133
 10
129.3927769291221
 20
123.6254546821999
 10
129.182873955088
 20
123.6254473904963
 10
129.0651822053786
 20
123.6345786469393
 10
128.9921321538349
 20
123.6558849119728
 10
128.9485050397185
 20
123.7106724506307
 10
128.923136475269
 20
123.7892947880072
 10
128.8762119629927
 20
123.8552427512064
 10
128.8001181593013
 20
123.9326047849593
 10
128.7198322607737
 20
123.9934530761846
 10
128.6346072006393
 20
124.0401239424486
 10
128.58184883008
 20
124.069546879876
 10
128.5189446190284
 20
124.1101302418447
 10
128.4912667678539
 20
124.1284975763715
  0
LWPOLYLINE
  5
169
330
1F
100
AcDbEntity
  8
Context 1
 62
     1
100
AcDbPolyline
 90
       34
 70
     0
 43
0.0
 10
128.5305019843333
 20
124.1026738771319
 10
128.6284951015584
 20
124.0868875619865
 10
128.7395363745752
 20
124.079573466159
 10
128.8623360273887
 20
124.0752484161073
 10
128.9308508882324
 20
124.0720626221928
 10
128.9795509225949
 20
124.0688159532353
 10
129.0548736424089
 20
124.0493359394903
 10
129.1418843704699
 20
124.0337519284943
 10
129.2068177496199
 20
124.0298559257453
 10
129.278865899415
 20
124.0257722249471
 10
129.302241915909
 20
124.0205775546151
 10
129.336007273067
 20
124.0238242235726
 10
129.38925264397
 20
124.0309668952791
 10
129.4756140382395
 20
124.0147335504916
 10
129.5470407553045
 20
124.0056428774106
 10
129.6028834613735
 20
123.9965522043296
 10
129.6340514833655
 20
123.9933055353721
 10
129.6846995191025
 20
123.9913575339976
 10
129.7405422251715
 20
123.9997988732871
 10
129.7820995878274
 20
124.0088895463681
 10
129.8363722250803
 20
124.0166916977066
 10
129.9032536056048
 20
124.0108476935831
 10
129.9733816550868
 20
123.9965623501702
 10
130.0324710301133
 20
123.9790303377996
 10
130.1149364216338
 20
123.9640956605951
 10
130.2631975887461
 20
123.939521166693
 10
130.3684606838526
 20
123.9344482464469
 10
130.4813331593281
 20
123.9357164765084
 10
130.6702994384951
 20
123.9724951482926
 10
130.8465834170468
 20
123.9902503691539
 10
131.033982639444
 20
123.9965170109455
 10
131.1670960667015
 20
123.9981403454242
 10
131.3472231628086
 20
124.0220142690403
 10
131.3807146469721
 20
124.0301357115919
  0
LWPOLYLINE
  5
16A
330
1F
100
AcDbEntity
  8
Context 1
 62
     1
100
AcDbPolyline
 90
        8
 70
     0
 43
0.0
 10
128.3849829623954
 20
123.1901044221715
 10
128.577753931747
 20
123.191372652233
 10
128.8529598550975
 20
123.1774221215562
 10
129.0520719747567
 20
123.1634715908795
 10
129.2473794042312
 20
123.1786903516178
 10
129.6888507221245
 20
123.1607995143583
 10
129.8671955745262
 20
123.1528730764738
 10
129.970239267025
 20
123.1528730764738
  0
LWPOLYLINE
  5
16B
330
1F
100
AcDbEntity
  8
Context 1
 62
     1
100
AcDbPolyline
 90
       11
 70
     0
 43
0.0
 10
129.0689228770334
 20
123.1647846481998
 10
129.0194423736611
 20
123.1450395350479
 10
128.9590543310516
 20
123.1255595213029
 10
128.8791526666005
 20
123.0995779261475
 10
128.7973366088715
 20
123.0839939151515
 10
128.6999365401466
 20
123.0904872530665
 10
128.6044844727961
 20
123.1060712640625
 10
128.5693722553127
 20
123.1282881182803
 10
128.5440482374443
 20
123.1458201306508
 10
128.5232695561162
 20
123.1730921498938
 10
128.5148260162312
 20
123.1909586527888
  0
LWPOLYLINE
  5
16C
330
1F
100
AcDbEntity
  8
Context 1
 62
     1
100
AcDbPolyline
 90
       14
 70
     0
 43
0.0
 10
129.0026205551837
 20
123.1396131419907
 10
129.0960364941119
 20
123.1047573777188
 10
129.1668138773854
 20
123.0937187032633
 10
129.2968632608142
 20
123.0789869428686
 10
129.3741339820027
 20
123.0634029318726
 10
129.4377686935697
 20
123.0556109263746
 10
129.4923127320557
 20
123.0517149236257
 10
129.5695834532441
 20
123.0562602601661
 10
129.6494641918993
 20
123.059699700093
 10
129.7403709227092
 20
123.0668423717995
 10
129.7988109639442
 20
123.0733357097145
 10
129.8332256548937
 20
123.103854397915
 10
129.8579003389707
 20
123.135022419907
 10
129.8671955745262
 20
123.1528730764738
  0
LWPOLYLINE
  5
16D
330
1F
100
AcDbEntity
  8
Context 1
 62
     1
100
AcDbPolyline
 90
        5
 70
     0
 43
0.0
 10
131.3632667315252
 20
123.1600957360014
 10
131.5651689573197
 20
123.1570519838537
 10
131.8512816591994
 20
123.1600957360014
 10
132.016658859222
 20
123.1570519838537
 10
132.1171563763397
 20
123.1584876626697
  0
LWPOLYLINE
  5
16E
330
1F
100
AcDbEntity
  8
Context 1
 62
     1
100
AcDbPolyline
 90
        9
 70
     0
 43
0.0
 10
132.0968236270693
 20
123.158197194823
 10
132.0684026457322
 20
123.130672798574
 10
131.9912942579915
 20
123.1113957016389
 10
131.8705587561346
 20
123.107337365442
 10
131.6808315389307
 20
123.1154540378358
 10
131.598650230944
 20
123.116468621885
 10
131.5458918603846
 20
123.1225561261803
 10
131.5073376665143
 20
123.1357457188201
 10
131.4738771405063
 20
123.1584282423987
  0
LWPOLYLINE
  5
3E8
330
1F
100
AcDbEntity
  8
Section point
 62
     5
100
AcDbPolyline
 90
        9
 70
     0
 43
0.0
 10
128.360519271735
 20
124.2299698165208
 10
128.440519271735
 20
124.2299698165208
 10
128.400519271735
 20
124.2299698165208
 10
128.400519271735
 20
124.1899698165208
 10
128.400519271735
 20
124.2699698165207
 10
128.400519271735
 20
124.2299698165208
 10
128.440519271735
 20
124.2299698165208
 10
128.420519271735
 20
124.2299698165208
 10
128.420519271735
 20
124.2299698165208
  0
CIRCLE
  5
3E9
330
1F
100
AcDbEntity
  8
Section point
 62
     5
100
AcDbCircle
 10
128.400519271735
 20
124.2299698165208
 30
0.0
 40
0.0200000000000102
  0
LWPOLYLINE
  5
3EA
330
1F
100
AcDbEntity
  8
Section point
 62
     5
100
AcDbPolyline
 90
        9
 70
     0
 43
0.0
 10
131.4453872752717
 20
124.2296529687775
 10
131.5253872752717
 20
124.2296529687775
 10
131.4853872752717
 20
124.2296529687775
 10
131.4853872752717
 20
124.1896529687775
 10
131.4853872752717
 20
124.2696529687774
 10
131.4853872752717
 20
124.2296529687775
 10
131.5253872752717
 20
124.2296529687775
 10
131.5053872752717
 20
124.2296529687775
 10
131.5053872752717
 20
124.2296529687775
  0
CIRCLE
  5
3EB
330
1F
100
AcDbEntity
  8
Section point
 62
     5
100
AcDbCircle
 10
131.4853872752717
 20
124.2296529687775
 30
0.0
 40
0.0200000000000102
  0
LWPOLYLINE
  5
3EC
330
1F
100
AcDbEntity
  8
Context 2
 62
     1
100
AcDbPolyline
 90
        6
 70
     0
 43
0.0
 10
131.7841082687851
 20
124.2296529687775
 10
131.8641082687851
 20
124.2296529687775
 10
131.8241082687851
 20
124.2296529687775
 10
131.7841082687851
 20
124.1896529687775
 10
131.8241082687851
 20
124.2296529687775
 10
131.8641082687851
 20
124.1896529687775
  0
TEXT
  5
3ED
330
1F
100
AcDbEntity
  8
Context 2
 62
     1
100
AcDbText
 10
131.7718070133169
 20
124.2348460143256
 30
0.0
 40
0.025
  1
108.02
  7
Text
 72
     1
 11
131.8252579311641
 21
124.2253785226126
 31
0.0
100
AcDbText
 73
     1
  0
TEXT
  5
3EE
330
1F
100
AcDbEntity
  8
Co-ord
100
AcDbText
 10
131.5253872752717
 20
124.1646529687774
 30
0.0
 40
0.025
  1
N 258949.16
  7
Text
 11
131.5253872752717
 21
124.1896529687775
 31
0.0
100
AcDbText
 73
     3
  0
TEXT
  5
3EF
330
1F
100
AcDbEntity
  8
Co-ord
100
AcDbText
 10
128.1623018029294
 20
124.1994373082338
 30
0.0
 40
0.025
  1
E 442876.45
  7
Text
 72
     2
 11
128.3605192717351
 21
124.1899698165208
 31
0.0
100
AcDbText
 73
     1
  0
TEXT
  5
3F0
330
1F
100
AcDbEntity
  8
Co-ord
100
AcDbText
 10
128.1603754183404
 20
124.1649698165208
 30
0.0
 40
0.025
  1
N 258952.15
  7
Text
 72
     2
 11
128.3605192717351
 21
124.1899698165208
 31
0.0
100
AcDbText
 73
     3
  0
TEXT
  5
3F1
330
1F
100
AcDbEntity
  8
Co-ord
100
AcDbText
 10
131.5253872752717
 20
124.1991204604905
 30
0.0
 40
0.025
  1
E 442875.77
  7
Text
 11
131.5253872752717
 21
124.1896529687775
 31
0.0
100
AcDbText
 73
     1
  0
TEXT
  5
3F2
330
1F
100
AcDbEntity
  8
Annotatons
100
AcDbText
 10
131.5253872752717
 20
124.2885879522035
 30
0.0
 40
0.05
  1
S
  7
Text
 11
131.5253872752717
 21
124.2696529687774
 31
0.0
100
AcDbText
 73
     1
  0
TEXT
  5
3F3
330
1F
100
AcDbEntity
  8
Annotatons
100
AcDbText
 10
128.3100830206796
 20
124.2889047999468
 30
0.0
 40
0.05
  1
N
  7
Text
 72
     2
 11
128.3605192717351
 21
124.2699698165207
 31
0.0
100
AcDbText
 73
     1
  0
TEXT
  5
406
330
1F
100
AcDbEntity
  8
Annotatons
100
AcDbText
 10
129.8261894775772
 20
124.2333957867868
 30
0.0
 40
0.05
  1
(801)
  7
Text
 72
     1
 11
129.9077731158172
 21
124.2144608033608
 31
0.0
100
AcDbText
 73
     1
  0
TEXT
  5
407
330
1F
100
AcDbEntity
  8
Annotatons
100
AcDbText
 10
130.6256510891457
 20
123.6329767452165
 30
0.0
 40
0.05
  1
[803]
  7
Text
 72
     1
 11
130.7033819582078
 21
123.6140417617905
 31
0.0
100
AcDbText
 73
     1
  0
TEXT
  5
419
330
1F
100
AcDbEntity
  8
Annotatons
100
AcDbText
 10
130.3015036234794
 20
124.0216724864115
 30
0.0
 40
0.05
  1
(805)
  7
Text
 72
     1
 11
130.3830872617194
 21
124.0027375029854
 31
0.0
100
AcDbText
 73
     1
  0
TEXT
  5
42B
330
1F
100
AcDbEntity
  8
Annotatons
100
AcDbText
 10
129.8397997137192
 20
123.7721244424932
 30
0.0
 40
0.05
  1
(804)
  7
Text
 72
     1
 11
129.9213833519592
 21
123.7531894590671
 31
0.0
100
AcDbText
 73
     1
  0
LINE
  5
42C
330
1F
100
AcDbEntity
  8
Context 1
 62
     1
100
AcDbLine
 10
130.6036840038652
 20
123.6513000486407
 30
0.0
 11
130.5018090696756
 21
123.7556954370442
 31
0.0
  0
LWPOLYLINE
  5
450
330
1F
100
AcDbEntity
  8
Context 2
 62
     5
100
AcDbPolyline
 90
        9
 70
     0
 43
0.0
 10
132.0731694668071
 20
123.2188133729288
 10
132.1531694668072
 20
123.2188133729288
 10
132.1131694668072
 20
123.2188133729288
 10
132.1131694668072
 20
123.1788133729288
 10
132.1131694668072
 20
123.2588133729288
 10
132.1131694668072
 20
123.2188133729288
 10
132.1531694668072
 20
123.2188133729288
 10
132.1331694668071
 20
123.2188133729288
 10
132.1331694668071
 20
123.2188133729288
  0
CIRCLE
  5
451
330
1F
100
AcDbEntity
  8
Context 2
 62
     5
100
AcDbCircle
 10
132.1131694668072
 20
123.2188133729288
 30
0.0
 40
0.0200000000000102
  0
LWPOLYLINE
  5
452
330
1F
100
AcDbEntity
  8
aOD
 62
     1
100
AcDbPolyline
 90
        6
 70
     0
 43
0.0
 10
132.4118904603205
 20
123.2188133729288
 10
132.4918904603205
 20
123.2188133729288
 10
132.4518904603205
 20
123.2188133729288
 10
132.4118904603205
 20
123.1788133729288
 10
132.4518904603205
 20
123.2188133729288
 10
132.4918904603205
 20
123.1788133729288
  0
LWPOLYLINE
  5
453
330
1F
100
AcDbEntity
  8
Context 2
 62
     5
100
AcDbPolyline
 90
        9
 70
     0
 43
0.0
 10
130.5254027661406
 20
123.219313475271
 10
130.6054027661407
 20
123.219313475271
 10
130.5654027661407
 20
123.219313475271
 10
130.5654027661407
 20
123.179313475271
 10
130.5654027661407
 20
123.259313475271
 10
130.5654027661407
 20
123.219313475271
 10
130.6054027661407
 20
123.219313475271
 10
130.5854027661406
 20
123.219313475271
 10
130.5854027661406
 20
123.219313475271
  0
CIRCLE
  5
454
330
1F
100
AcDbEntity
  8
Context 2
 62
     5
100
AcDbCircle
 10
130.5654027661407
 20
123.219313475271
 30
0.0
 40
0.0200000000000102
  0
LWPOLYLINE
  5
455
330
1F
100
AcDbEntity
  8
Context 2
 62
     5
100
AcDbPolyline
 90
        9
 70
     0
 43
0.0
 10
131.3587673473434
 20
123.2158124161791
 10
131.4387673473434
 20
123.2158124161791
 10
131.3987673473434
 20
123.2158124161791
 10
131.3987673473434
 20
123.175812416179
 10
131.3987673473434
 20
123.255812416179
 10
131.3987673473434
 20
123.2158124161791
 10
131.4387673473434
 20
123.2158124161791
 10
131.4187673473434
 20
123.2158124161791
 10
131.4187673473434
 20
123.2158124161791
  0
CIRCLE
  5
456
330
1F
100
AcDbEntity
  8
Context 2
 62
     5
100
AcDbCircle
 10
131.3987673473434
 20
123.2158124161791
 30
0.0
 40
0.0200000000000102
  0
LWPOLYLINE
  5
457
330
1F
100
AcDbEntity
  8
Context 2
 62
     5
100
AcDbPolyline
 90
        9
 70
     0
 43
0.0
 10
132.0731694668071
 20
123.2189966275277
 10
132.1531694668072
 20
123.2189966275277
 10
132.1131694668072
 20
123.2189966275277
 10
132.1131694668072
 20
123.1789966275277
 10
132.1131694668072
 20
123.2589966275277
 10
132.1131694668072
 20
123.2189966275277
 10
132.1531694668072
 20
123.2189966275277
 10
132.1331694668071
 20
123.2189966275277
 10
132.1331694668071
 20
123.2189966275277
  0
CIRCLE
  5
458
330
1F
100
AcDbEntity
  8
Context 2
 62
     5
100
AcDbCircle
 10
132.1131694668072
 20
123.2189966275277
 30
0.0
 40
0.0200000000000102
  0
TEXT
  5
459
330
1F
100
AcDbEntity
  8
aOD
 62
     1
100
AcDbText
 10
132.3975923737653
 20
123.2241446309617
 30
0.0
 40
0.025
  1
107.66
  7
Text
 72
     1
 11
132.4510432916125
 21
123.2146771392487
 31
0.0
100
AcDbText
 73
     1
  0
TEXT
  5
45A
330
1F
100
AcDbEntity
  8
Context 2
100
AcDbText
 10
132.1531694668072
 20
123.1539966275277
 30
0.0
 40
0.025
  1
N 258895.12
  7
Text
 11
132.1531694668072
 21
123.1789966275277
 31
0.0
100
AcDbText
 73
     3
  0
TEXT
  5
45B
330
1F
100
AcDbEntity
  8
Co-ord
100
AcDbText
 10
131.1605498785378
 20
123.1852799078921
 30
0.0
 40
0.025
  1
E 442927.83
  7
Text
 72
     2
 11
131.3587673473434
 21
123.175812416179
 31
0.0
100
AcDbText
 73
     1
  0
TEXT
  5
45C
330
1F
100
AcDbEntity
  8
Co-ord
100
AcDbText
 10
131.1586234939488
 20
123.150812416179
 30
0.0
 40
0.025
  1
N 258894.39
  7
Text
 72
     2
 11
131.3587673473434
 21
123.175812416179
 31
0.0
100
AcDbText
 73
     3
  0
TEXT
  5
45D
330
1F
100
AcDbEntity
  8
Context 2
100
AcDbText
 10
132.1531694668072
 20
123.1884641192407
 30
0.0
 40
0.025
  1
E 442927.88
  7
Text
 11
132.1531694668072
 21
123.1789966275277
 31
0.0
100
AcDbText
 73
     1
  0
TEXT
  5
45E
330
1F
100
AcDbEntity
  8
Annotatons
100
AcDbText
 10
132.1531694668072
 20
123.2779316109537
 30
0.0
 40
0.05
  1
NE
  7
Text
 11
132.1531694668072
 21
123.2589966275277
 31
0.0
100
AcDbText
 73
     1
  0
TEXT
  5
45F
330
1F
100
AcDbEntity
  8
Annotatons
100
AcDbText
 10
130.4128718845695
 20
123.278248458697
 30
0.0
 40
0.05
  1
SW
  7
Text
 72
     2
 11
130.5254027661407
 21
123.259313475271
 31
0.0
100
AcDbText
 73
     1
  0
LWPOLYLINE
  5
483
330
1F
100
AcDbEntity
  8
Context 2
 62
     5
100
AcDbPolyline
 90
        9
 70
     0
 43
0.0
 10
129.8869867406995
 20
123.2236810488722
 10
129.9669867406995
 20
123.2236810488722
 10
129.9269867406995
 20
123.2236810488722
 10
129.9269867406995
 20
123.1836810488722
 10
129.9269867406995
 20
123.2636810488722
 10
129.9269867406995
 20
123.2236810488722
 10
129.9669867406995
 20
123.2236810488722
 10
129.9469867406995
 20
123.2236810488722
 10
129.9469867406995
 20
123.2236810488722
  0
CIRCLE
  5
484
330
1F
100
AcDbEntity
  8
Context 2
 62
     5
100
AcDbCircle
 10
129.9269867406995
 20
123.2236810488722
 30
0.0
 40
0.0200000000000102
  0
LWPOLYLINE
  5
485
330
1F
100
AcDbEntity
  8
aOD
 62
     1
100
AcDbPolyline
 90
        6
 70
     0
 43
0.0
 10
130.2257077342128
 20
123.2236810488722
 10
130.3057077342128
 20
123.2236810488722
 10
130.2657077342128
 20
123.2236810488722
 10
130.2257077342128
 20
123.1836810488722
 10
130.2657077342128
 20
123.2236810488722
 10
130.3057077342128
 20
123.1836810488722
  0
LWPOLYLINE
  5
486
330
1F
100
AcDbEntity
  8
Context 2
 62
     5
100
AcDbPolyline
 90
        9
 70
     0
 43
0.0
 10
128.339220040033
 20
123.2241811512144
 10
128.419220040033
 20
123.2241811512144
 10
128.379220040033
 20
123.2241811512144
 10
128.379220040033
 20
123.1841811512144
 10
128.379220040033
 20
123.2641811512144
 10
128.379220040033
 20
123.2241811512144
 10
128.419220040033
 20
123.2241811512144
 10
128.399220040033
 20
123.2241811512144
 10
128.399220040033
 20
123.2241811512144
  0
CIRCLE
  5
487
330
1F
100
AcDbEntity
  8
Context 2
 62
     5
100
AcDbCircle
 10
128.379220040033
 20
123.2241811512144
 30
0.0
 40
0.0200000000000102
  0
LWPOLYLINE
  5
488
330
1F
100
AcDbEntity
  8
Context 2
 62
     5
100
AcDbPolyline
 90
        9
 70
     0
 43
0.0
 10
128.339220040033
 20
123.2241811512144
 10
128.419220040033
 20
123.2241811512144
 10
128.379220040033
 20
123.2241811512144
 10
128.379220040033
 20
123.1841811512144
 10
128.379220040033
 20
123.2641811512144
 10
128.379220040033
 20
123.2241811512144
 10
128.419220040033
 20
123.2241811512144
 10
128.399220040033
 20
123.2241811512144
 10
128.399220040033
 20
123.2241811512144
  0
CIRCLE
  5
489
330
1F
100
AcDbEntity
  8
Context 2
 62
     5
100
AcDbCircle
 10
128.379220040033
 20
123.2241811512144
 30
0.0
 40
0.0200000000000102
  0
LWPOLYLINE
  5
48A
330
1F
100
AcDbEntity
  8
Context 2
 62
     5
100
AcDbPolyline
 90
        9
 70
     0
 43
0.0
 10
129.8869867406995
 20
123.2238643034711
 10
129.9669867406995
 20
123.2238643034711
 10
129.9269867406995
 20
123.2238643034711
 10
129.9269867406995
 20
123.1838643034711
 10
129.9269867406995
 20
123.2638643034711
 10
129.9269867406995
 20
123.2238643034711
 10
129.9669867406995
 20
123.2238643034711
 10
129.9469867406995
 20
123.2238643034711
 10
129.9469867406995
 20
123.2238643034711
  0
CIRCLE
  5
48B
330
1F
100
AcDbEntity
  8
Context 2
 62
     5
100
AcDbCircle
 10
129.9269867406995
 20
123.2238643034711
 30
0.0
 40
0.0200000000000102
  0
TEXT
  5
48C
330
1F
100
AcDbEntity
  8
aOD
 62
     1
100
AcDbText
 10
130.2134064787446
 20
123.2290573490192
 30
0.0
 40
0.025
  1
107.62
  7
Text
 72
     1
 11
130.2668573965919
 21
123.2195898573062
 31
0.0
100
AcDbText
 73
     1
  0
TEXT
  5
48D
330
1F
100
AcDbEntity
  8
Context 2
100
AcDbText
 10
129.9669867406995
 20
123.1588643034711
 30
0.0
 40
0.025
  1
N 258894.72
  7
Text
 11
129.9669867406995
 21
123.1838643034711
 31
0.0
100
AcDbText
 73
     3
  0
TEXT
  5
48E
330
1F
100
AcDbEntity
  8
Co-ord
100
AcDbText
 10
128.1410025712273
 20
123.1936486429274
 30
0.0
 40
0.025
  1
E 442926.94
  7
Text
 72
     2
 11
128.339220040033
 21
123.1841811512144
 31
0.0
100
AcDbText
 73
     1
  0
TEXT
  5
48F
330
1F
100
AcDbEntity
  8
Co-ord
100
AcDbText
 10
128.1390761866384
 20
123.1591811512144
 30
0.0
 40
0.025
  1
N 258894.87
  7
Text
 72
     2
 11
128.339220040033
 21
123.1841811512144
 31
0.0
100
AcDbText
 73
     3
  0
TEXT
  5
490
330
1F
100
AcDbEntity
  8
Context 2
100
AcDbText
 10
129.9669867406995
 20
123.1933317951841
 30
0.0
 40
0.025
  1
E 442926.20
  7
Text
 11
129.9669867406995
 21
123.1838643034711
 31
0.0
100
AcDbText
 73
     1
  0
TEXT
  5
491
330
1F
100
AcDbEntity
  8
Annotatons
100
AcDbText
 10
129.9669867406995
 20
123.2827992868971
 30
0.0
 40
0.05
  1
N
  7
Text
 11
129.9669867406995
 21
123.2638643034711
 31
0.0
100
AcDbText
 73
     1
  0
TEXT
  5
492
330
1F
100
AcDbEntity
  8
Annotatons
100
AcDbText
 10
128.2887837889775
 20
123.2831161346404
 30
0.0
 40
0.05
  1
N
  7
Text
 72
     2
 11
128.339220040033
 21
123.2641811512144
 31
0.0
100
AcDbText
 73
     1
  0
LWPOLYLINE
  5
4D8
330
1F
100
AcDbEntity
  8
Context 2
 62
     5
100
AcDbPolyline
 90
        9
 70
     0
 43
0.0
 10
128.6794969261898
 20
123.2240547394732
 10
128.7594969261898
 20
123.2240547394732
 10
128.7194969261898
 20
123.2240547394732
 10
128.7194969261898
 20
123.1840547394731
 10
128.7194969261898
 20
123.2640547394731
 10
128.7194969261898
 20
123.2240547394732
 10
128.7594969261898
 20
123.2240547394732
 10
128.7394969261898
 20
123.2240547394732
 10
128.7394969261898
 20
123.2240547394732
  0
CIRCLE
  5
4D9
330
1F
100
AcDbEntity
  8
Context 2
 62
     5
100
AcDbCircle
 10
128.7194969261898
 20
123.2240547394732
 30
0.0
 40
0.0200000000000102
  0
LWPOLYLINE
  5
4EB
330
1F
100
AcDbEntity
  8
Context 2
 62
     5
100
AcDbPolyline
 90
        9
 70
     0
 43
0.0
 10
129.3563633658035
 20
123.2243974030507
 10
129.4363633658035
 20
123.2243974030507
 10
129.3963633658036
 20
123.2243974030507
 10
129.3963633658036
 20
123.1843974030507
 10
129.3963633658036
 20
123.2643974030507
 10
129.3963633658036
 20
123.2243974030507
 10
129.4363633658035
 20
123.2243974030507
 10
129.4163633658035
 20
123.2243974030507
 10
129.4163633658035
 20
123.2243974030507
  0
CIRCLE
  5
4EC
330
1F
100
AcDbEntity
  8
Context 2
 62
     5
100
AcDbCircle
 10
129.3963633658036
 20
123.2243974030507
 30
0.0
 40
0.0200000000000102
  0
TEXT
  5
4FF
330
1F
100
AcDbEntity
  8
Context 2
100
AcDbText
 10
129.436533584761
 20
123.1958228049445
 30
0.0
 40
0.025
  1
N 258894.25
  7
Text
 11
129.436533584761
 21
123.2208228049445
 31
0.0
100
AcDbText
 73
     3
  0
TEXT
  5
500
330
1F
100
AcDbEntity
  8
Context 2
100
AcDbText
 10
129.4363633658035
 20
123.2281422201143
 30
0.0
 40
0.025
  1
E 442926.45
  7
Text
 11
129.4363633658035
 21
123.2186747284013
 31
0.0
100
AcDbText
 73
     1
  0
TEXT
  5
513
330
1F
100
AcDbEntity
  8
Context 2
100
AcDbText
 10
128.7625515623062
 20
123.1949118691454
 30
0.0
 40
0.025
  1
N 258894.61
  7
Text
 11
128.7625515623062
 21
123.2199118691454
 31
0.0
100
AcDbText
 73
     3
  0
TEXT
  5
514
330
1F
100
AcDbEntity
  8
Context 2
100
AcDbText
 10
128.7623813433487
 20
123.2272312843153
 30
0.0
 40
0.025
  1
E 442927.09
  7
Text
 11
128.7623813433487
 21
123.2177637926023
 31
0.0
100
AcDbText
 73
     1
  0
LWPOLYLINE
  5
528
330
1F
100
AcDbEntity
  8
Context 2
 62
     5
100
AcDbPolyline
 90
        9
 70
     0
 43
0.0
 10
128.6794969261898
 20
123.2240547394732
 10
128.7594969261898
 20
123.2240547394732
 10
128.7194969261898
 20
123.2240547394732
 10
128.7194969261898
 20
123.1840547394731
 10
128.7194969261898
 20
123.2640547394731
 10
128.7194969261898
 20
123.2240547394732
 10
128.7594969261898
 20
123.2240547394732
 10
128.7394969261898
 20
123.2240547394732
 10
128.7394969261898
 20
123.2240547394732
  0
TEXT
  5
529
330
1F
100
AcDbEntity
  8
Annotatons
100
AcDbText
 10
128.6329134443122
 20
123.2829897228992
 30
0.0
 40
0.05
  1
S
  7
Text
 72
     2
 11
128.6794969261898
 21
123.2640547394731
 31
0.0
100
AcDbText
 73
     1
  0
TEXT
  5
54D
330
1F
100
AcDbEntity
  8
Annotatons
100
AcDbText
 10
128.759380001218
 20
123.2832218835918
 30
0.0
 40
0.05
  1
E
  7
Text
 11
128.759380001218
 21
123.2642869001658
 31
0.0
100
AcDbText
 73
     1
  0
CIRCLE
  5
562
330
1F
100
AcDbEntity
  8
Context 2
 62
     5
100
AcDbCircle
 10
129.3963633658036
 20
123.2243974030507
 30
0.0
 40
0.0200000000000102
  0
TEXT
  5
563
330
1F
100
AcDbEntity
  8
Annotatons
100
AcDbText
 10
129.29041596611
 20
123.2833323864767
 30
0.0
 40
0.05
  1
W
  7
Text
 72
     2
 11
129.3563633658036
 21
123.2643974030507
 31
0.0
100
AcDbText
 73
     1
  0
TEXT
  5
564
330
1F
100
AcDbEntity
  8
Annotatons
100
AcDbText
 10
129.4362464408318
 20
123.2835645471694
 30
0.0
 40
0.05
  1
S
  7
Text
 11
129.4362464408318
 21
123.2646295637433
 31
0.0
100
AcDbText
 73
     1
  0
LWPOLYLINE
  5
5C1
330
1F
100
AcDbEntity
  8
Context 1
100
AcDbPolyline
 90
        6
 70
     0
 43
0.0
 10
133.7063412927128
 20
124.1199389288802
 10
134.5457676292653
 20
124.061148601016
 10
135.1650205889934
 20
124.0514727735203
 10
135.7794356349737
 20
124.0127694635373
 10
136.4615814734242
 20
123.9982557222936
 10
136.7912092962495
 20
123.9939185140986
  0
LWPOLYLINE
  5
5C2
330
1F
100
AcDbEntity
  8
Context 1
100
AcDbPolyline
 90
       10
 70
     0
 43
0.0
 10
133.7063412927128
 20
123.7792342801278
 10
134.0353483772094
 20
123.8089191298568
 10
134.6843254790045
 20
123.7965340706622
 10
135.2342221072431
 20
123.7965340706622
 10
135.617191359525
 20
123.7826782856883
 10
136.0940161385156
 20
123.7641006968964
 10
136.400546353581
 20
123.7579081672992
 10
136.5677446527076
 20
123.7176567249168
 10
136.6925662356722
 20
123.6876086735136
 10
136.7912092962495
 20
123.6842746259383
  0
LWPOLYLINE
  5
5C3
330
1F
100
AcDbEntity
  8
Context 1
100
AcDbPolyline
 90
       26
 70
     0
 43
0.0
 10
136.6865366679498
 20
123.6890601593589
 10
136.6224420239894
 20
123.649028823735
 10
136.5431689797479
 20
123.5947127967109
 10
136.4696116361796
 20
123.5604705850498
 10
136.3618120809501
 20
123.5363742138808
 10
136.0579235990109
 20
123.482753100098
 10
135.847397408798
 20
123.4358285878216
 10
135.7142332523381
 20
123.3648077043763
 10
135.5328763535403
 20
123.293786820931
 10
135.3946392768343
 20
123.2633492994544
 10
135.3033267124046
 20
123.2696904497621
 10
135.1048288916815
 20
123.2804159110246
 10
134.869017364617
 20
123.2903239583802
 10
134.6985989500998
 20
123.2843791299668
 10
134.4886959760657
 20
123.2843718382632
 10
134.3710042263563
 20
123.2935030947062
 10
134.2979541748126
 20
123.3148093597398
 10
134.2543270606962
 20
123.3695968983976
 10
134.2289584962468
 20
123.4482192357742
 10
134.1820339839704
 20
123.5141671989734
 10
134.105940180279
 20
123.5915292327263
 10
134.0256542817514
 20
123.6523775239515
 10
133.9404292216171
 20
123.6990483902156
 10
133.8876708510577
 20
123.7284713276429
 10
133.8247666400061
 20
123.7690546896117
 10
133.7970887888316
 20
123.7874220241385
  0
LWPOLYLINE
  5
5C4
330
1F
100
AcDbEntity
  8
Context 1
100
AcDbPolyline
 90
       34
 70
     0
 43
0.0
 10
133.836324005311
 20
123.7615983248988
 10
133.9343171225361
 20
123.7458120097534
 10
134.0453583955529
 20
123.738497913926
 10
134.1681580483665
 20
123.7341728638742
 10
134.2366729092102
 20
123.7309870699597
 10
134.2853729435727
 20
123.7277404010022
 10
134.3606956633867
 20
123.7082603872572
 10
134.4477063914476
 20
123.6926763762612
 10
134.5126397705976
 20
123.6887803735122
 10
134.5846879203928
 20
123.6846966727141
 10
134.6080639368867
 20
123.6795020023821
 10
134.6418292940448
 20
123.6827486713396
 10
134.6950746649477
 20
123.6898913430461
 10
134.7814360592172
 20
123.6736579982586
 10
134.8528627762822
 20
123.6645673251776
 10
134.9087054823512
 20
123.6554766520966
 10
134.9398735043432
 20
123.6522299831391
 10
134.9905215400802
 20
123.6502819817646
 10
135.0463642461492
 20
123.6587233210541
 10
135.0879216088052
 20
123.6678139941351
 10
135.1421942460581
 20
123.6756161454736
 10
135.2090756265825
 20
123.6697721413501
 10
135.2792036760645
 20
123.6554867979371
 10
135.338293051091
 20
123.6379547855666
 10
135.4207584426115
 20
123.6230201083621
 10
135.5690196097239
 20
123.5984456144599
 10
135.6742827048303
 20
123.5933726942139
 10
135.7871551803059
 20
123.5946409242754
 10
135.9761214594728
 20
123.6314195960595
 10
136.1524054380245
 20
123.6491748169209
 10
136.3398046604217
 20
123.6554414587124
 10
136.4729180876792
 20
123.6570647931911
 10
136.6530451837863
 20
123.6809387168073
 10
136.6865366679498
 20
123.6890601593589
  0
LWPOLYLINE
  5
5C5
330
1F
100
AcDbEntity
  8
Context 1
100
AcDbPolyline
 90
        8
 70
     0
 43
0.0
 10
133.6908049833732
 20
122.8490288699384
 10
133.8835759527247
 20
122.8502970999999
 10
134.1587818760752
 20
122.8363465693232
 10
134.3578939957344
 20
122.8223960386464
 10
134.553201425209
 20
122.8376147993847
 10
134.9946727431022
 20
122.8197239621252
 10
135.1730175955039
 20
122.8117975242407
 10
135.2760612880027
 20
122.8117975242407
  0
LWPOLYLINE
  5
5C6
330
1F
100
AcDbEntity
  8
Context 1
100
AcDbPolyline
 90
       11
 70
     0
 43
0.0
 10
134.3747448980111
 20
122.8237090959667
 10
134.3252643946389
 20
122.8039639828149
 10
134.2648763520294
 20
122.7844839690699
 10
134.1849746875783
 20
122.7585023739145
 10
134.1031586298493
 20
122.7429183629185
 10
134.0057585611243
 20
122.7494117008335
 10
133.9103064937738
 20
122.7649957118295
 10
133.8751942762905
 20
122.7872125660472
 10
133.849870258422
 20
122.8047445784177
 10
133.829091577094
 20
122.8320165976607
 10
133.8206480372089
 20
122.8498831005557
  0
LWPOLYLINE
  5
5C7
330
1F
100
AcDbEntity
  8
Context 1
100
AcDbPolyline
 90
       14
 70
     0
 43
0.0
 10
134.3084425761614
 20
122.7985375897576
 10
134.4018585150896
 20
122.7636818254857
 10
134.4726358983631
 20
122.7526431510302
 10
134.6026852817919
 20
122.7379113906356
 10
134.6799560029804
 20
122.7223273796396
 10
134.7435907145474
 20
122.7145353741416
 10
134.7981347530334
 20
122.7106393713926
 10
134.8754054742219
 20
122.7151847079331
 10
134.955286212877
 20
122.7186241478599
 10
135.046192943687
 20
122.7257668195664
 10
135.1046329849219
 20
122.7322601574814
 10
135.1390476758714
 20
122.7627788456819
 10
135.1637223599485
 20
122.7939468676739
 10
135.1730175955039
 20
122.8117975242407
  0
LWPOLYLINE
  5
5C8
330
1F
100
AcDbEntity
  8
Context 1
100
AcDbPolyline
 90
        5
 70
     0
 43
0.0
 10
136.669088752503
 20
122.8190201837683
 10
136.8709909782975
 20
122.8159764316207
 10
137.1571036801771
 20
122.8190201837683
 10
137.3224808801997
 20
122.8159764316207
 10
137.4229783973175
 20
122.8174121104366
  0
LWPOLYLINE
  5
5C9
330
1F
100
AcDbEntity
  8
Context 1
100
AcDbPolyline
 90
        9
 70
     0
 43
0.0
 10
137.402645648047
 20
122.8171216425899
 10
137.3742246667099
 20
122.789597246341
 10
137.2971162789693
 20
122.7703201494058
 10
137.1763807771123
 20
122.7662618132089
 10
136.9866535599084
 20
122.7743784856027
 10
136.9044722519217
 20
122.7753930696519
 10
136.8517138813623
 20
122.7814805739472
 10
136.813159687492
 20
122.7946701665871
 10
136.779699161484
 20
122.8173526901656
  0
LWPOLYLINE
  5
5CA
330
1F
100
AcDbEntity
  8
Section point
 62
     5
100
AcDbPolyline
 90
        9
 70
     0
 43
0.0
 10
133.6663412927128
 20
123.8888942642877
 10
133.7463412927128
 20
123.8888942642877
 10
133.7063412927128
 20
123.8888942642877
 10
133.7063412927128
 20
123.8488942642877
 10
133.7063412927128
 20
123.9288942642877
 10
133.7063412927128
 20
123.8888942642877
 10
133.7463412927128
 20
123.8888942642877
 10
133.7263412927128
 20
123.8888942642877
 10
133.7263412927128
 20
123.8888942642877
  0
CIRCLE
  5
5CB
330
1F
100
AcDbEntity
  8
Section point
 62
     5
100
AcDbCircle
 10
133.7063412927128
 20
123.8888942642877
 30
0.0
 40
0.0200000000000102
  0
LWPOLYLINE
  5
5CC
330
1F
100
AcDbEntity
  8
Section point
 62
     5
100
AcDbPolyline
 90
        9
 70
     0
 43
0.0
 10
136.7512092962494
 20
123.8885774165444
 10
136.8312092962495
 20
123.8885774165444
 10
136.7912092962495
 20
123.8885774165444
 10
136.7912092962495
 20
123.8485774165444
 10
136.7912092962495
 20
123.9285774165444
 10
136.7912092962495
 20
123.8885774165444
 10
136.8312092962495
 20
123.8885774165444
 10
136.8112092962494
 20
123.8885774165444
 10
136.8112092962494
 20
123.8885774165444
  0
CIRCLE
  5
5CD
330
1F
100
AcDbEntity
  8
Section point
 62
     5
100
AcDbCircle
 10
136.7912092962495
 20
123.8885774165444
 30
0.0
 40
0.0200000000000102
  0
LWPOLYLINE
  5
5CE
330
1F
100
AcDbEntity
  8
aOD
 62
     1
100
AcDbPolyline
 90
        6
 70
     0
 43
0.0
 10
137.0899302897628
 20
123.8885774165444
 10
137.1699302897628
 20
123.8885774165444
 10
137.1299302897628
 20
123.8885774165444
 10
137.0899302897628
 20
123.8485774165444
 10
137.1299302897628
 20
123.8885774165444
 10
137.1699302897628
 20
123.8485774165444
  0
TEXT
  5
5CF
330
1F
100
AcDbEntity
  8
aOD
 62
     1
100
AcDbText
 10
137.0776290342946
 20
123.8937704620925
 30
0.0
 40
0.025
  1
108.02
  7
Text
 72
     1
 11
137.1310799521418
 21
123.8843029703795
 31
0.0
100
AcDbText
 73
     1
  0
TEXT
  5
5D0
330
1F
100
AcDbEntity
  8
Co-ord
100
AcDbText
 10
136.8312092962495
 20
123.8235774165444
 30
0.0
 40
0.025
  1
N 258949.16
  7
Text
 11
136.8312092962495
 21
123.8485774165444
 31
0.0
100
AcDbText
 73
     3
  0
TEXT
  5
5D1
330
1F
100
AcDbEntity
  8
Co-ord
100
AcDbText
 10
133.4681238239071
 20
123.8583617560007
 30
0.0
 40
0.025
  1
E 442876.45
  7
Text
 72
     2
 11
133.6663412927128
 21
123.8488942642877
 31
0.0
100
AcDbText
 73
     1
  0
TEXT
  5
5D2
330
1F
100
AcDbEntity
  8
Co-ord
100
AcDbText
 10
133.4661974393182
 20
123.8238942642877
 30
0.0
 40
0.025
  1
N 258952.15
  7
Text
 72
     2
 11
133.6663412927128
 21
123.8488942642877
 31
0.0
100
AcDbText
 73
     3
  0
TEXT
  5
5D3
330
1F
100
AcDbEntity
  8
Co-ord
100
AcDbText
 10
136.8312092962495
 20
123.8580449082574
 30
0.0
 40
0.025
  1
E 442875.77
  7
Text
 11
136.8312092962495
 21
123.8485774165444
 31
0.0
100
AcDbText
 73
     1
  0
TEXT
  5
5D4
330
1F
100
AcDbEntity
  8
Annotatons
100
AcDbText
 10
136.8312092962495
 20
123.9475123999704
 30
0.0
 40
0.05
  1
S
  7
Text
 11
136.8312092962495
 21
123.9285774165444
 31
0.0
100
AcDbText
 73
     1
  0
TEXT
  5
5D5
330
1F
100
AcDbEntity
  8
Annotatons
100
AcDbText
 10
133.6159050416573
 20
123.9478292477137
 30
0.0
 40
0.05
  1
N
  7
Text
 72
     2
 11
133.6663412927128
 21
123.9288942642877
 31
0.0
100
AcDbText
 73
     1
  0
TEXT
  5
5D6
330
1F
100
AcDbEntity
  8
Annotatons
100
AcDbText
 10
135.132011498555
 20
123.8923202345537
 30
0.0
 40
0.05
  1
(801)
  7
Text
 72
     1
 11
135.2135951367949
 21
123.8733852511277
 31
0.0
100
AcDbText
 73
     1
  0
TEXT
  5
5D7
330
1F
100
AcDbEntity
  8
Annotatons
100
AcDbText
 10
135.9314731101234
 20
123.2919011929835
 30
0.0
 40
0.05
  1
[803]
  7
Text
 72
     1
 11
136.0092039791855
 21
123.2729662095574
 31
0.0
100
AcDbText
 73
     1
  0
TEXT
  5
5D8
330
1F
100
AcDbEntity
  8
Annotatons
100
AcDbText
 10
135.6073256444572
 20
123.6805969341784
 30
0.0
 40
0.05
  1
(805)
  7
Text
 72
     1
 11
135.6889092826972
 21
123.6616619507524
 31
0.0
100
AcDbText
 73
     1
  0
TEXT
  5
5D9
330
1F
100
AcDbEntity
  8
Annotatons
100
AcDbText
 10
135.1456217346969
 20
123.4310488902601
 30
0.0
 40
0.05
  1
(804)
  7
Text
 72
     1
 11
135.2272053729369
 21
123.412113906834
 31
0.0
100
AcDbText
 73
     1
  0
LINE
  5
5DA
330
1F
100
AcDbEntity
  8
Annotatons
100
AcDbLine
 10
135.9095060248429
 20
123.3102244964076
 30
0.0
 11
135.8076310906533
 21
123.4146198848111
 31
0.0
  0
LWPOLYLINE
  5
5DB
330
1F
100
AcDbEntity
  8
Context 2
 62
     5
100
AcDbPolyline
 90
        9
 70
     0
 43
0.0
 10
137.3789914877849
 20
122.8777378206958
 10
137.4589914877849
 20
122.8777378206958
 10
137.4189914877849
 20
122.8777378206958
 10
137.4189914877849
 20
122.8377378206958
 10
137.4189914877849
 20
122.9177378206957
 10
137.4189914877849
 20
122.8777378206958
 10
137.4589914877849
 20
122.8777378206958
 10
137.4389914877849
 20
122.8777378206958
 10
137.4389914877849
 20
122.8777378206958
  0
CIRCLE
  5
5DC
330
1F
100
AcDbEntity
  8
Context 2
 62
     5
100
AcDbCircle
 10
137.4189914877849
 20
122.8777378206958
 30
0.0
 40
0.0200000000000102
  0
LWPOLYLINE
  5
5DD
330
1F
100
AcDbEntity
  8
aOD
 62
     1
100
AcDbPolyline
 90
        6
 70
     0
 43
0.0
 10
137.7177124812982
 20
122.8777378206958
 10
137.7977124812982
 20
122.8777378206958
 10
137.7577124812982
 20
122.8777378206958
 10
137.7177124812982
 20
122.8377378206958
 10
137.7577124812982
 20
122.8777378206958
 10
137.7977124812982
 20
122.8377378206958
  0
LWPOLYLINE
  5
5DE
330
1F
100
AcDbEntity
  8
Context 2
 62
     5
100
AcDbPolyline
 90
        9
 70
     0
 43
0.0
 10
136.6645893683211
 20
122.874736863946
 10
136.7445893683212
 20
122.874736863946
 10
136.7045893683212
 20
122.874736863946
 10
136.7045893683212
 20
122.834736863946
 10
136.7045893683212
 20
122.914736863946
 10
136.7045893683212
 20
122.874736863946
 10
136.7445893683212
 20
122.874736863946
 10
136.7245893683211
 20
122.874736863946
 10
136.7245893683211
 20
122.874736863946
  0
CIRCLE
  5
5DF
330
1F
100
AcDbEntity
  8
Context 2
 62
     5
100
AcDbCircle
 10
136.7045893683212
 20
122.874736863946
 30
0.0
 40
0.0200000000000102
  0
LWPOLYLINE
  5
5E0
330
1F
100
AcDbEntity
  8
Context 2
 62
     5
100
AcDbPolyline
 90
        9
 70
     0
 43
0.0
 10
136.6645893683211
 20
122.874736863946
 10
136.7445893683212
 20
122.874736863946
 10
136.7045893683212
 20
122.874736863946
 10
136.7045893683212
 20
122.834736863946
 10
136.7045893683212
 20
122.914736863946
 10
136.7045893683212
 20
122.874736863946
 10
136.7445893683212
 20
122.874736863946
 10
136.7245893683211
 20
122.874736863946
 10
136.7245893683211
 20
122.874736863946
  0
CIRCLE
  5
5E1
330
1F
100
AcDbEntity
  8
Context 2
 62
     5
100
AcDbCircle
 10
136.7045893683212
 20
122.874736863946
 30
0.0
 40
0.0200000000000102
  0
LWPOLYLINE
  5
5E2
330
1F
100
AcDbEntity
  8
Context 2
 62
     5
100
AcDbPolyline
 90
        9
 70
     0
 43
0.0
 10
137.3789914877849
 20
122.8779210752947
 10
137.4589914877849
 20
122.8779210752947
 10
137.4189914877849
 20
122.8779210752947
 10
137.4189914877849
 20
122.8379210752946
 10
137.4189914877849
 20
122.9179210752946
 10
137.4189914877849
 20
122.8779210752947
 10
137.4589914877849
 20
122.8779210752947
 10
137.4389914877849
 20
122.8779210752947
 10
137.4389914877849
 20
122.8779210752947
  0
CIRCLE
  5
5E3
330
1F
100
AcDbEntity
  8
Context 2
 62
     5
100
AcDbCircle
 10
137.4189914877849
 20
122.8779210752947
 30
0.0
 40
0.0200000000000102
  0
TEXT
  5
5E4
330
1F
100
AcDbEntity
  8
aOD
 62
     1
100
AcDbText
 10
137.703414394743
 20
122.8830690787286
 30
0.0
 40
0.025
  1
107.66
  7
Text
 72
     1
 11
137.7568653125903
 21
122.8736015870156
 31
0.0
100
AcDbText
 73
     1
  0
TEXT
  5
5E5
330
1F
100
AcDbEntity
  8
Context 2
100
AcDbText
 10
137.4589914877849
 20
122.8129210752946
 30
0.0
 40
0.025
  1
N 258895.12
  7
Text
 11
137.4589914877849
 21
122.8379210752946
 31
0.0
100
AcDbText
 73
     3
  0
TEXT
  5
5E6
330
1F
100
AcDbEntity
  8
Co-ord
100
AcDbText
 10
136.4663718995155
 20
122.844204355659
 30
0.0
 40
0.025
  1
E 442927.83
  7
Text
 72
     2
 11
136.6645893683212
 21
122.834736863946
 31
0.0
100
AcDbText
 73
     1
  0
TEXT
  5
5E7
330
1F
100
AcDbEntity
  8
Co-ord
100
AcDbText
 10
136.4644455149266
 20
122.809736863946
 30
0.0
 40
0.025
  1
N 258894.39
  7
Text
 72
     2
 11
136.6645893683212
 21
122.834736863946
 31
0.0
100
AcDbText
 73
     3
  0
TEXT
  5
5E8
330
1F
100
AcDbEntity
  8
Context 2
100
AcDbText
 10
137.4589914877849
 20
122.8473885670077
 30
0.0
 40
0.025
  1
E 442927.88
  7
Text
 11
137.4589914877849
 21
122.8379210752946
 31
0.0
100
AcDbText
 73
     1
  0
TEXT
  5
5E9
330
1F
100
AcDbEntity
  8
Annotatons
100
AcDbText
 10
137.4589914877849
 20
122.9368560587207
 30
0.0
 40
0.05
  1
NE
  7
Text
 11
137.4589914877849
 21
122.9179210752946
 31
0.0
100
AcDbText
 73
     1
  0
TEXT
  5
5EA
330
1F
100
AcDbEntity
  8
Annotatons
100
AcDbText
 10
136.55205848675
 20
122.933671847372
 30
0.0
 40
0.05
  1
SW
  7
Text
 72
     2
 11
136.6645893683212
 21
122.914736863946
 31
0.0
100
AcDbText
 73
     1
  0
LWPOLYLINE
  5
5EB
330
1F
100
AcDbEntity
  8
Context 2
 62
     5
100
AcDbPolyline
 90
        9
 70
     0
 43
0.0
 10
135.1928087616772
 20
122.8826054966391
 10
135.2728087616772
 20
122.8826054966391
 10
135.2328087616772
 20
122.8826054966391
 10
135.2328087616772
 20
122.8426054966391
 10
135.2328087616772
 20
122.9226054966391
 10
135.2328087616772
 20
122.8826054966391
 10
135.2728087616772
 20
122.8826054966391
 10
135.2528087616772
 20
122.8826054966391
 10
135.2528087616772
 20
122.8826054966391
  0
CIRCLE
  5
5EC
330
1F
100
AcDbEntity
  8
Context 2
 62
     5
100
AcDbCircle
 10
135.2328087616772
 20
122.8826054966391
 30
0.0
 40
0.0200000000000102
  0
LWPOLYLINE
  5
5ED
330
1F
100
AcDbEntity
  8
aOD
 62
     1
100
AcDbPolyline
 90
        6
 70
     0
 43
0.0
 10
135.5315297551905
 20
122.8826054966391
 10
135.6115297551906
 20
122.8826054966391
 10
135.5715297551905
 20
122.8826054966391
 10
135.5315297551905
 20
122.8426054966391
 10
135.5715297551905
 20
122.8826054966391
 10
135.6115297551905
 20
122.8426054966391
  0
LWPOLYLINE
  5
5EE
330
1F
100
AcDbEntity
  8
Context 2
 62
     5
100
AcDbPolyline
 90
        9
 70
     0
 43
0.0
 10
133.6450420610107
 20
122.8831055989813
 10
133.7250420610107
 20
122.8831055989813
 10
133.6850420610107
 20
122.8831055989813
 10
133.6850420610107
 20
122.8431055989813
 10
133.6850420610107
 20
122.9231055989813
 10
133.6850420610107
 20
122.8831055989813
 10
133.7250420610107
 20
122.8831055989813
 10
133.7050420610107
 20
122.8831055989813
 10
133.7050420610107
 20
122.8831055989813
  0
CIRCLE
  5
5EF
330
1F
100
AcDbEntity
  8
Context 2
 62
     5
100
AcDbCircle
 10
133.6850420610107
 20
122.8831055989813
 30
0.0
 40
0.0200000000000102
  0
LWPOLYLINE
  5
5F0
330
1F
100
AcDbEntity
  8
Context 2
 62
     5
100
AcDbPolyline
 90
        9
 70
     0
 43
0.0
 10
133.6450420610107
 20
122.8831055989813
 10
133.7250420610107
 20
122.8831055989813
 10
133.6850420610107
 20
122.8831055989813
 10
133.6850420610107
 20
122.8431055989813
 10
133.6850420610107
 20
122.9231055989813
 10
133.6850420610107
 20
122.8831055989813
 10
133.7250420610107
 20
122.8831055989813
 10
133.7050420610107
 20
122.8831055989813
 10
133.7050420610107
 20
122.8831055989813
  0
CIRCLE
  5
5F1
330
1F
100
AcDbEntity
  8
Context 2
 62
     5
100
AcDbCircle
 10
133.6850420610107
 20
122.8831055989813
 30
0.0
 40
0.0200000000000102
  0
TEXT
  5
5F4
330
1F
100
AcDbEntity
  8
aOD
 62
     1
100
AcDbText
 10
135.5192284997224
 20
122.8879817967861
 30
0.0
 40
0.025
  1
107.62
  7
Text
 72
     1
 11
135.5726794175696
 21
122.8785143050731
 31
0.0
100
AcDbText
 73
     1
  0
TEXT
  5
5F5
330
1F
100
AcDbEntity
  8
Context 2
100
AcDbText
 10
135.2728087616772
 20
122.817788751238
 30
0.0
 40
0.025
  1
N 258894.72
  7
Text
 11
135.2728087616772
 21
122.842788751238
 31
0.0
100
AcDbText
 73
     3
  0
TEXT
  5
5F6
330
1F
100
AcDbEntity
  8
Co-ord
100
AcDbText
 10
133.446824592205
 20
122.8525730906943
 30
0.0
 40
0.025
  1
E 442926.94
  7
Text
 72
     2
 11
133.6450420610107
 21
122.8431055989813
 31
0.0
100
AcDbText
 73
     1
  0
TEXT
  5
5F7
330
1F
100
AcDbEntity
  8
Co-ord
100
AcDbText
 10
133.4448982076161
 20
122.8181055989813
 30
0.0
 40
0.025
  1
N 258894.87
  7
Text
 72
     2
 11
133.6450420610107
 21
122.8431055989813
 31
0.0
100
AcDbText
 73
     3
  0
TEXT
  5
5F8
330
1F
100
AcDbEntity
  8
Context 2
100
AcDbText
 10
135.2728087616772
 20
122.852256242951
 30
0.0
 40
0.025
  1
E 442926.20
  7
Text
 11
135.2728087616772
 21
122.842788751238
 31
0.0
100
AcDbText
 73
     1
  0
TEXT
  5
5F9
330
1F
100
AcDbEntity
  8
Annotatons
100
AcDbText
 10
135.2728087616772
 20
122.9417237346641
 30
0.0
 40
0.05
  1
N
  7
Text
 11
135.2728087616772
 21
122.922788751238
 31
0.0
100
AcDbText
 73
     1
  0
TEXT
  5
5FA
330
1F
100
AcDbEntity
  8
Annotatons
100
AcDbText
 10
133.5946058099553
 20
122.9420405824074
 30
0.0
 40
0.05
  1
N
  7
Text
 72
     2
 11
133.6450420610107
 21
122.9231055989813
 31
0.0
100
AcDbText
 73
     1
  0
LWPOLYLINE
  5
5FB
330
1F
100
AcDbEntity
  8
Context 2
 62
     5
100
AcDbPolyline
 90
        9
 70
     0
 43
0.0
 10
133.9853189471675
 20
122.8829791872401
 10
134.0653189471675
 20
122.8829791872401
 10
134.0253189471675
 20
122.8829791872401
 10
134.0253189471675
 20
122.8429791872401
 10
134.0253189471675
 20
122.9229791872401
 10
134.0253189471675
 20
122.8829791872401
 10
134.0653189471675
 20
122.8829791872401
 10
134.0453189471675
 20
122.8829791872401
 10
134.0453189471675
 20
122.8829791872401
  0
CIRCLE
  5
5FC
330
1F
100
AcDbEntity
  8
Context 2
 62
     5
100
AcDbCircle
 10
134.0253189471675
 20
122.8829791872401
 30
0.0
 40
0.0200000000000102
  0
LWPOLYLINE
  5
5FD
330
1F
100
AcDbEntity
  8
Context 2
 62
     5
100
AcDbPolyline
 90
        9
 70
     0
 43
0.0
 10
134.6621853867813
 20
122.8833218508176
 10
134.7421853867813
 20
122.8833218508176
 10
134.7021853867813
 20
122.8833218508176
 10
134.7021853867813
 20
122.8433218508176
 10
134.7021853867813
 20
122.9233218508176
 10
134.7021853867813
 20
122.8833218508176
 10
134.7421853867813
 20
122.8833218508176
 10
134.7221853867813
 20
122.8833218508176
 10
134.7221853867813
 20
122.8833218508176
  0
CIRCLE
  5
5FE
330
1F
100
AcDbEntity
  8
Context 2
 62
     5
100
AcDbCircle
 10
134.7021853867813
 20
122.8833218508176
 30
0.0
 40
0.0200000000000102
  0
TEXT
  5
5FF
330
1F
100
AcDbEntity
  8
Context 2
100
AcDbText
 10
134.7423556057387
 20
122.8547472527114
 30
0.0
 40
0.025
  1
N 258894.25
  7
Text
 11
134.7423556057387
 21
122.8797472527114
 31
0.0
100
AcDbText
 73
     3
  0
TEXT
  5
600
330
1F
100
AcDbEntity
  8
Context 2
100
AcDbText
 10
134.7421853867813
 20
122.8870666678813
 30
0.0
 40
0.025
  1
E 442926.45
  7
Text
 11
134.7421853867813
 21
122.8775991761682
 31
0.0
100
AcDbText
 73
     1
  0
TEXT
  5
601
330
1F
100
AcDbEntity
  8
Context 2
100
AcDbText
 10
134.0683735832839
 20
122.8538363169123
 30
0.0
 40
0.025
  1
N 258894.61
  7
Text
 11
134.0683735832839
 21
122.8788363169123
 31
0.0
100
AcDbText
 73
     3
  0
TEXT
  5
602
330
1F
100
AcDbEntity
  8
Context 2
100
AcDbText
 10
134.0682033643264
 20
122.8861557320822
 30
0.0
 40
0.025
  1
E 442927.09
  7
Text
 11
134.0682033643264
 21
122.8766882403692
 31
0.0
100
AcDbText
 73
     1
  0
LWPOLYLINE
  5
603
330
1F
100
AcDbEntity
  8
Context 2
 62
     5
100
AcDbPolyline
 90
        9
 70
     0
 43
0.0
 10
133.9853189471675
 20
122.8829791872401
 10
134.0653189471675
 20
122.8829791872401
 10
134.0253189471675
 20
122.8829791872401
 10
134.0253189471675
 20
122.8429791872401
 10
134.0253189471675
 20
122.9229791872401
 10
134.0253189471675
 20
122.8829791872401
 10
134.0653189471675
 20
122.8829791872401
 10
134.0453189471675
 20
122.8829791872401
 10
134.0453189471675
 20
122.8829791872401
  0
TEXT
  5
604
330
1F
100
AcDbEntity
  8
Annotatons
100
AcDbText
 10
133.9387354652899
 20
122.9419141706661
 30
0.0
 40
0.05
  1
S
  7
Text
 72
     2
 11
133.9853189471675
 21
122.9229791872401
 31
0.0
100
AcDbText
 73
     1
  0
TEXT
  5
605
330
1F
100
AcDbEntity
  8
Annotatons
100
AcDbText
 10
134.0652020221957
 20
122.9421463313588
 30
0.0
 40
0.05
  1
E
  7
Text
 11
134.0652020221957
 21
122.9232113479327
 31
0.0
100
AcDbText
 73
     1
  0
CIRCLE
  5
606
330
1F
100
AcDbEntity
  8
Context 2
 62
     5
100
AcDbCircle
 10
134.7021853867813
 20
122.8833218508176
 30
0.0
 40
0.0200000000000102
  0
TEXT
  5
607
330
1F
100
AcDbEntity
  8
Annotatons
100
AcDbText
 10
134.5962379870878
 20
122.9422568342436
 30
0.0
 40
0.05
  1
W
  7
Text
 72
     2
 11
134.6621853867813
 21
122.9233218508176
 31
0.0
100
AcDbText
 73
     1
  0
TEXT
  5
608
330
1F
100
AcDbEntity
  8
Annotatons
100
AcDbText
 10
134.7420684618095
 20
122.9424889949363
 30
0.0
 40
0.05
  1
S
  7
Text
 11
134.7420684618095
 21
122.9235540115103
 31
0.0
100
AcDbText
 73
     1
  0
LWPOLYLINE
  5
60A
330
1F
100
AcDbEntity
  8
Context 1
  6
DASHDOT
 48
0.003
100
AcDbPolyline
 90
        2
 70
     0
 43
0.0
 10
133.7063412927128
 20
123.7792342801278
 10
133.7063412927128
 20
124.1199389288802
  0
LWPOLYLINE
  5
60F
330
1F
100
AcDbEntity
  8
Context 1
  6
DASHDOT
 48
0.003
100
AcDbPolyline
 90
        2
 70
     0
 43
0.0
 10
136.7912092962495
 20
123.9939185140986
 10
136.7912092962495
 20
123.6842746259383
  0
TEXT
  5
623
330
1F
100
AcDbEntity
  8
Annotatons
100
AcDbText
 10
133.7721015530543
 20
122.6095258517717
 30
0.0
 40
0.05
  1
[4611]
  7
Text
 72
     1
 11
133.8692713938774
 21
122.5905908683457
 31
0.0
100
AcDbText
 73
     1
  0
LINE
  5
624
330
1F
100
AcDbEntity
  8
Annotatons
100
AcDbLine
 10
133.958032527449
 20
122.7572037063315
 30
0.0
 11
133.8797293318843
 21
122.6735983743163
 31
0.0
  0
TEXT
  5
638
330
1F
100
AcDbEntity
  8
Annotatons
100
AcDbText
 10
135.1358373920667
 20
122.5234444944501
 30
0.0
 40
0.05
  1
[4613]
  7
Text
 72
     1
 11
135.2330072328898
 21
122.5045095110241
 31
0.0
100
AcDbText
 73
     1
  0
LINE
  5
639
330
1F
100
AcDbEntity
  8
Annotatons
100
AcDbLine
 10
135.1138146557304
 20
122.5854970138401
 30
0.0
 11
135.024737264697
 21
122.7240810162172
 31
0.0
  0
TEXT
  5
64D
330
1F
100
AcDbEntity
  8
Annotatons
100
AcDbText
 10
134.7167590021964
 20
122.7470444595829
 30
0.0
 40
0.05
  1
(4614)
  7
Text
 72
     1
 11
134.8177816121973
 21
122.7281094761568
 31
0.0
100
AcDbText
 73
     1
  0
TEXT
  5
661
330
1F
100
AcDbEntity
  8
Annotatons
100
AcDbText
 10
134.1785267259238
 20
122.6287222397013
 30
0.0
 40
0.05
  1
(4612)
  7
Text
 72
     1
 11
134.2795493359247
 21
122.6097872562753
 31
0.0
100
AcDbText
 73
     1
  0
TEXT
  5
675
330
1F
100
AcDbEntity
  8
Annotatons
100
AcDbText
 10
136.7728563992994
 20
122.682914763071
 30
0.0
 40
0.05
  1
(4608)
  7
Text
 72
     1
 11
136.8738790093003
 21
122.663979779645
 31
0.0
100
AcDbText
 73
     1
  0
TEXT
  5
689
330
1F
100
AcDbEntity
  8
Annotatons
100
AcDbText
 10
137.1903701455756
 20
122.6358515381317
 30
0.0
 40
0.05
  1
[4607]
  7
Text
 72
     1
 11
137.2875399863987
 21
122.6169165547057
 31
0.0
100
AcDbText
 73
     1
  0
LINE
  5
68A
330
1F
100
AcDbEntity
  8
Annotatons
100
AcDbLine
 10
137.2136449582268
 20
122.7675143907254
 30
0.0
 11
137.2453527532873
 21
122.7040420928585
 31
0.0
  0
LINE
  5
68B
330
1F
100
AcDbEntity
  8
Annotatons
100
AcDbLine
 10
136.9194176274758
 20
122.7535030652579
 30
0.0
 11
137.0335583330129
 21
122.787745276919
 31
0.0
  0
TEXT
  5
69F
330
1F
100
AcDbEntity
  8
Section point
100
AcDbText
 10
133.5594477660089
 20
123.8983617560007
 30
0.0
 40
0.025
  1
sp46.1
  7
Text
 72
     2
 11
133.6643731811511
 21
123.8888942642877
 31
0.0
100
AcDbText
 73
     1
  0
TEXT
  5
6B3
330
1F
100
AcDbEntity
  8
Section point
100
AcDbText
 10
136.8312092962495
 20
123.8980449082574
 30
0.0
 40
0.025
  1
sp46.2
  7
Text
 11
136.8312092962495
 21
123.8885774165444
 31
0.0
100
AcDbText
 73
     1
  0
TEXT
  5
6C7
330
1F
100
AcDbEntity
  8
Section point
100
AcDbText
 10
137.4589914877849
 20
122.8873885670077
 30
0.0
 40
0.025
  1
sp48.2
  7
Text
 11
137.4589914877849
 21
122.8779210752947
 31
0.0
100
AcDbText
 73
     1
  0
TEXT
  5
6EE
330
1F
100
AcDbEntity
  8
Section point
100
AcDbText
 10
136.559663953179
 20
122.884204355659
 30
0.0
 40
0.025
  1
sp48.1
  7
Text
 72
     2
 11
136.6645893683211
 21
122.874736863946
 31
0.0
100
AcDbText
 73
     1
  0
TEXT
  5
702
330
1F
100
AcDbEntity
  8
Section point
100
AcDbText
 10
133.5401166458686
 20
122.8925730906944
 30
0.0
 40
0.025
  1
sp50.1
  7
Text
 72
     2
 11
133.6450420610107
 21
122.8831055989813
 31
0.0
100
AcDbText
 73
     1
  0
TEXT
  5
716
330
1F
100
AcDbEntity
  8
Section point
100
AcDbText
 10
133.8803935320254
 20
122.8924466789531
 30
0.0
 40
0.025
  1
sp50.2
  7
Text
 72
     2
 11
133.9853189471675
 21
122.8829791872401
 31
0.0
100
AcDbText
 73
     1
  0
TEXT
  5
72A
330
1F
100
AcDbEntity
  8
Section point
100
AcDbText
 10
134.5572599716391
 20
122.8927893425306
 30
0.0
 40
0.025
  1
sp50.3
  7
Text
 72
     2
 11
134.6621853867813
 21
122.8833218508176
 31
0.0
100
AcDbText
 73
     1
  0
TEXT
  5
752
330
1F
100
AcDbEntity
  8
Section point
100
AcDbText
 10
135.2728087616772
 20
122.8920729883522
 30
0.0
 40
0.025
  1
sp50.4
  7
Text
 11
135.2728087616772
 21
122.8826054966391
 31
0.0
100
AcDbText
 73
     1
  0
LWPOLYLINE
  5
76F
330
1F
100
AcDbEntity
  8
Section point
  6
DASHDOT
 62
     5
 48
0.002
100
AcDbPolyline
 90
        2
 70
     0
 43
0.0
 10
-134.7021853867813
 20
122.8433218508176
 10
-134.7019578669052
 20
122.7196332738529
210
0.0
220
0.0
230
-1.0
  0
LWPOLYLINE
  5
770
330
1F
100
AcDbEntity
  8
Section point
  6
DASHDOT
 62
     5
 48
0.002
100
AcDbPolyline
 90
        2
 70
     0
 43
0.0
 10
-134.0253189471675
 20
122.8429791872401
 10
-134.025089679222
 20
122.748122959627
210
0.0
220
0.0
230
-1.0
  0
LINE
  5
771
330
1F
100
AcDbEntity
  8
Annotatons
100
AcDbLine
 10
134.2153828742101
 20
122.6993529424187
 30
0.0
 11
134.1351747970667
 21
122.7996130388479
 31
0.0
  0
ENDSEC
  0
SECTION
  2
OBJECTS
  0
DICTIONARY
  5
C
330
0
100
AcDbDictionary
281
     1
  3
ACAD_DETAILVIEWSTYLE
350
B5
  3
ACAD_GROUP
350
D
  3
ACAD_IMAGE_DICT
350
CD
  3
ACAD_IMAGE_VARS
350
6A
  3
ACAD_LAYOUT
350
1A
  3
ACAD_MATERIAL
350
72
  3
ACAD_MLEADERSTYLE
350
3F
  3
ACAD_MLINESTYLE
350
17
  3
ACAD_PLOTSETTINGS
350
19
  3
ACAD_PLOTSTYLENAME
350
E
  3
ACAD_SCALELIST
350
40
  3
ACAD_SECTIONVIEWSTYLE
350
B6
  3
ACAD_TABLESTYLE
350
3B
  3
ACAD_VISUALSTYLE
350
2A
  3
ACDB_RECOMPOSE_DATA
350
775
  3
AcDbVariableDictionary
350
3D
  3
APPDATA
350
71
  0
SUN
  5
80
330
29
100
AcDbSun
 90
        1
290
     0
 63
     7
421
 16777215
 40
1.0
291
     1
 91
  2455826
 92
 54000000
292
     0
 70
     2
 71
   256
280
     1
  0
DICTIONARY
  5
115
330
2
100
AcDbDictionary
280
     1
281
     1
  3
ACAD_LAYERSTATES
360
116
  0
DICTIONARY
  5
60B
330
1F
100
AcDbDictionary
280
     1
281
     1
  3
ACAD_SORTENTS
360
60C
  0
IMAGEDEF_REACTOR
  5
164
330
163
100
AcDbRasterImageDefReactor
 90
        2
330
163
  0
DICTIONARY
  5
B5
102
{ACAD_REACTORS
330
C
102
}
330
C
100
AcDbDictionary
281
     1
  0
DICTIONARY
  5
D
102
{ACAD_REACTORS
330
C
102
}
330
C
100
AcDbDictionary
281
     1
  0
DICTIONARY
  5
CD
102
{ACAD_REACTORS
330
C
102
}
330
C
100
AcDbDictionary
281
     1
  3
1C20LADTT_SH_29
350
162
  0
RASTERVARIABLES
  5
6A
102
{ACAD_REACTORS
330
C
102
}
330
C
100
AcDbRasterVariables
 90
        0
 70
     1
 71
     1
 72
     1
  0
DICTIONARY
  5
1A
102
{ACAD_REACTORS
330
C
102
}
330
C
100
AcDbDictionary
281
     1
  3
Model
350
22
  3
Sheet1
350
1E
  3
Sheet2
350
26
  0
DICTIONARY
  5
72
102
{ACAD_REACTORS
330
C
102
}
330
C
100
AcDbDictionary
281
     1
  3
ByBlock
350
74
  3
ByLayer
350
73
  3
Global
350
75
  0
DICTIONARY
  5
3F
102
{ACAD_REACTORS
330
C
102
}
330
C
100
AcDbDictionary
281
     1
  3
Annotative
350
BC
  3
Standard
350
B7
  0
DICTIONARY
  5
17
102
{ACAD_REACTORS
330
C
102
}
330
C
100
AcDbDictionary
281
     1
  3
Standard
350
18
  0
DICTIONARY
  5
19
102
{ACAD_REACTORS
330
C
102
}
330
C
100
AcDbDictionary
281
     1
  0
ACDBDICTIONARYWDFLT
  5
E
102
{ACAD_REACTORS
330
C
102
}
330
C
100
AcDbDictionary
281
     1
  3
Normal
350
F
100
AcDbDictionaryWithDefault
340
F
  0
DICTIONARY
  5
40
102
{ACAD_REACTORS
330
C
102
}
330
C
100
AcDbDictionary
281
     1
  3
A0
350
41
  3
A1
350
42
  3
A2
350
43
  3
A3
350
44
  3
A4
350
45
  3
A5
350
46
  3
A6
350
47
  3
A7
350
48
  3
A8
350
49
  3
A9
350
4A
  3
B0
350
4B
  3
B1
350
4C
  3
B2
350
4D
  3
B3
350
4E
  3
B4
350
4F
  3
B5
350
50
  3
B6
350
51
  3
B7
350
52
  3
B8
350
53
  3
B9
350
54
  3
C0
350
55
  3
C1
350
56
  3
C2
350
57
  3
C3
350
58
  3
C4
350
59
  3
C5
350
5A
  3
C6
350
5B
  3
C7
350
5C
  3
C8
350
5D
  3
C9
350
5E
  3
D0
350
5F
  3
D1
350
60
  3
D2
350
61
  0
DICTIONARY
  5
B6
102
{ACAD_REACTORS
330
C
102
}
330
C
100
AcDbDictionary
281
     1
  0
DICTIONARY
  5
3B
102
{ACAD_REACTORS
330
C
102
}
330
C
100
AcDbDictionary
281
     1
  3
Standard
350
3C
  0
DICTIONARY
  5
2A
102
{ACAD_REACTORS
330
C
102
}
330
C
100
AcDbDictionary
281
     1
  3
2dWireframe
350
2F
  3
3D Hidden
350
31
  3
3dWireframe
350
30
  3
Basic
350
32
  3
Brighten
350
36
  3
ColorChange
350
3A
  3
Conceptual
350
34
  3
Dim
350
35
  3
EdgeColorOff
350
7A
  3
Facepattern
350
39
  3
Flat
350
2B
  3
FlatWithEdges
350
2C
  3
Gouraud
350
2D
  3
GouraudWithEdges
350
2E
  3
Hidden
350
77
  3
JitterOff
350
78
  3
Linepattern
350
38
  3
OverhangOff
350
79
  3
Realistic
350
33
  3
Shaded
350
7F
  3
Shaded with edges
350
7E
  3
Shades of Gray
350
7B
  3
Sketchy
350
7C
  3
Thicken
350
37
  3
Wireframe
350
76
  3
X-Ray
350
7D
  0
XRECORD
  5
775
102
{ACAD_REACTORS
330
C
102
}
330
C
100
AcDbXrecord
280
     1
 90
        1
330
3C
  0
DICTIONARY
  5
3D
102
{ACAD_REACTORS
330
C
102
}
330
C
100
AcDbDictionary
281
     1
  3
CANNOSCALE
350
62
  3
CMLEADERSTYLE
350
BB
  3
CTABLESTYLE
350
3E
  3
LIGHTSINBLOCKS
350
6F
  3
XCLIPFRAME
350
70
  0
DICTIONARY
  5
71
102
{ACAD_REACTORS
330
C
102
}
330
C
100
AcDbDictionary
281
     1
  0
DICTIONARY
  5
116
102
{ACAD_REACTORS
330
115
102
}
330
115
100
AcDbDictionary
281
     1
  0
SORTENTSTABLE
  5
60C
102
{ACAD_REACTORS
330
60B
102
}
330
60B
100
AcDbSortentsTable
330
1F
331
0
  5
11C
331
163
  5
167
331
166
  5
168
331
167
  5
169
331
168
  5
16A
331
169
  5
16B
331
16A
  5
16C
331
16B
  5
16D
331
16C
  5
16E
331
16D
  5
2A8
331
16E
  5
2A9
331
3E8
  5
3EA
331
3E9
  5
3EB
331
3EA
  5
3EC
331
3EB
  5
3ED
331
3EC
  5
3EE
331
3ED
  5
3EF
331
3EE
  5
3F0
331
3EF
  5
3F1
331
3F0
  5
3F2
331
3F1
  5
3F3
331
3F2
  5
405
331
3F3
  5
406
331
406
  5
418
331
407
  5
419
331
419
  5
42B
331
42B
  5
44F
331
42C
  5
450
331
450
  5
452
331
451
  5
453
331
452
  5
454
331
453
  5
455
331
454
  5
456
331
455
  5
457
331
456
  5
458
331
457
  5
459
331
458
  5
45A
331
459
  5
45B
331
45A
  5
45C
331
45B
  5
45D
331
45C
  5
45E
331
45D
  5
45F
331
45E
  5
482
331
45F
  5
483
331
483
  5
485
331
484
  5
486
331
485
  5
487
331
486
  5
488
331
487
  5
489
331
488
  5
48A
331
489
  5
48B
331
48A
  5
48C
331
48B
  5
48D
331
48C
  5
48E
331
48D
  5
48F
331
48E
  5
490
331
48F
  5
491
331
490
  5
492
331
491
  5
4A3
331
492
  5
4D7
331
4D8
  5
4EA
331
4D9
  5
4EB
331
4EB
  5
4FE
331
4EC
  5
4FF
331
4FF
  5
512
331
500
  5
513
331
513
  5
527
331
514
  5
528
331
528
  5
52A
331
529
  5
539
331
54D
  5
562
331
562
  5
564
331
563
  5
5C0
331
564
  5
5C1
331
5C1
  5
5C3
331
5C2
  5
5C4
331
5C3
  5
5C5
331
5C4
  5
5C6
331
5C5
  5
5C7
331
5C6
  5
5C8
331
5C7
  5
5C9
331
5C8
  5
5CA
331
5C9
  5
5CB
331
5CA
  5
5CC
331
5CB
  5
5CD
331
5CC
  5
5CE
331
5CD
  5
5CF
331
5CE
  5
5D0
331
5CF
  5
5D1
331
5D0
  5
5D2
331
5D1
  5
5D3
331
5D2
  5
5D4
331
5D3
  5
5D5
331
5D4
  5
5D6
331
5D5
  5
5D7
331
5D6
  5
5D8
331
5D7
  5
5D9
331
5D8
  5
5DA
331
5D9
  5
5DB
331
5DA
  5
5DC
331
5DB
  5
5DD
331
5DC
  5
5DE
331
5DD
  5
5DF
331
5DE
  5
5E0
331
5DF
  5
5E1
331
5E0
  5
5E2
331
5E1
  5
5E3
331
5E2
  5
5E4
331
5E3
  5
5E5
331
5E4
  5
5E6
331
5E5
  5
5E7
331
5E6
  5
5E8
331
5E7
  5
5E9
331
5E8
  5
5EA
331
5E9
  5
5EB
331
5EA
  5
5EC
331
5EB
  5
5ED
331
5EC
  5
5EE
331
5ED
  5
5EF
331
5EE
  5
5F0
331
5EF
  5
5F1
331
5F0
  5
5F2
331
5F1
  5
5F3
331
5F4
  5
5F6
331
5F5
  5
5F7
331
5F6
  5
5F8
331
5F7
  5
5F9
331
5F8
  5
5FA
331
5F9
  5
5FB
331
5FA
  5
5FC
331
5FB
  5
5FD
331
5FC
  5
5FE
331
5FD
  5
5FF
331
5FE
  5
600
331
5FF
  5
601
331
600
  5
602
331
601
  5
603
331
602
  5
604
331
603
  5
605
331
604
  5
606
331
605
  5
607
331
606
  5
608
331
607
  5
609
331
608
  5
60A
331
60A
  5
11A
331
60F
  5
119
  0
IMAGEDEF
  5
162
102
{ACAD_REACTORS
330
CD
330
164
102
}
330
CD
100
AcDbRasterImageDef
 90
        0
  1
Z:\HS2\Evaluations\Ladbroke_AC32031\Fieldwork\Evaluation\Draftsight\Scanned_Drawings\1C20LADTT_SH_29.tif
 10
4960.0
 20
3507.0
 11
0.08466683600033867
 21
0.08466683600033867
280
     1
281
     3
  0
LAYOUT
  5
22
102
{ACAD_REACTORS
330
1A
102
}
330
1A
100
AcDbPlotSettings
  1

  2
none_device
  4
ISO_A3_(420.00_x_297.00_MM)
  6

 40
7.5
 41
20.0
 42
7.5
 43
20.0
 44
420.0
 45
297.0
 46
20.78282828282826
 47
0.0
 48
0.0
 49
0.0
140
0.0
141
0.0
142
1.0
143
1.155642023346303
 70
  1204
 72
     1
 73
     0
 74
     1
  7
monochrome.ctb
 75
     0
 76
     0
 77
     2
 78
   300
147
0.8653198653198654
148
-134.1869158878504
149
0.0
100
AcDbLayout
  1
Model
 70
     1
 71
     0
 10
0.0
 20
0.0
 11
420.0
 21
297.0
 12
0.0
 22
0.0
 32
0.0
 14
128.1418281646226
 24
122.4046212737566
 34
0.0
 15
137.8088343059292
 25
125.3625289587784
 35
0.0
146
0.0
 13
0.0
 23
0.0
 33
0.0
 16
1.0
 26
0.0
 36
0.0
 17
0.0
 27
1.0
 37
0.0
 76
     0
330
1F
331
29
  0
LAYOUT
  5
1E
102
{ACAD_REACTORS
330
1A
102
}
330
1A
100
AcDbPlotSettings
  1

  2
none_device
  4

  6

 40
0.0
 41
0.0
 42
0.0
 43
0.0
 44
0.0
 45
0.0
 46
0.0
 47
0.0
 48
0.0
 49
0.0
140
0.0
141
0.0
142
1.0
143
1.0
 70
   688
 72
     0
 73
     0
 74
     5
  7

 75
    16
 76
     0
 77
     2
 78
   300
147
1.0
148
0.0
149
0.0
100
AcDbLayout
  1
Sheet1
 70
     1
 71
     1
 10
0.0
 20
0.0
 11
420.0
 21
297.0
 12
0.0
 22
0.0
 32
0.0
 14
1.000000000000000E+20
 24
1.000000000000000E+20
 34
1.000000000000000E+20
 15
-1.000000000000000E+20
 25
-1.000000000000000E+20
 35
-1.000000000000000E+20
146
0.0
 13
0.0
 23
0.0
 33
0.0
 16
1.0
 26
0.0
 36
0.0
 17
0.0
 27
1.0
 37
0.0
 76
     0
330
1B
  0
LAYOUT
  5
26
102
{ACAD_REACTORS
330
1A
102
}
330
1A
100
AcDbPlotSettings
  1

  2
none_device
  4

  6

 40
0.0
 41
0.0
 42
0.0
 43
0.0
 44
0.0
 45
0.0
 46
0.0
 47
0.0
 48
0.0
 49
0.0
140
0.0
141
0.0
142
1.0
143
1.0
 70
   688
 72
     0
 73
     0
 74
     5
  7

 75
    16
 76
     0
 77
     2
 78
   300
147
1.0
148
0.0
149
0.0
100
AcDbLayout
  1
Sheet2
 70
     1
 71
     2
 10
0.0
 20
0.0
 11
0.0
 21
0.0
 12
0.0
 22
0.0
 32
0.0
 14
0.0
 24
0.0
 34
0.0
 15
0.0
 25
0.0
 35
0.0
146
0.0
 13
0.0
 23
0.0
 33
0.0
 16
1.0
 26
0.0
 36
0.0
 17
0.0
 27
1.0
 37
0.0
 76
     0
330
23
  0
MATERIAL
  5
74
102
{ACAD_REACTORS
330
72
102
}
330
72
100
AcDbMaterial
  1
ByBlock
 72
     1
 94
      127
  0
MATERIAL
  5
73
102
{ACAD_REACTORS
330
72
102
}
330
72
100
AcDbMaterial
  1
ByLayer
 72
     1
 94
      127
  0
MATERIAL
  5
75
102
{ACAD_REACTORS
330
72
102
}
330
72
100
AcDbMaterial
  1
Global
 72
     1
 94
      127
  0
MLEADERSTYLE
  5
BC
102
{ACAD_REACTORS
330
3F
102
}
330
3F
100
AcDbMLeaderStyle
179
     2
170
     2
171
     1
172
     0
 90
        2
 40
0.0
 41
0.0
173
     1
 91
-1056964608
340
14
 92
       -2
290
     1
 42
2.0
291
     1
 43
8.0
  3
Annotative
341
0
 44
4.0
300

342
11
174
     1
178
     1
175
     1
176
     0
 93
-1056964608
 45
4.0
292
     0
297
     0
 46
4.0
343
0
 94
-1056964608
 47
1.0
 49
1.0
140
1.0
293
     1
141
0.0
294
     1
177
     0
142
1.0
295
     0
296
     1
143
3.75
271
     0
272
     9
273
     9
298
     0
  0
MLEADERSTYLE
  5
B7
102
{ACAD_REACTORS
330
3F
102
}
330
3F
100
AcDbMLeaderStyle
179
     2
170
     2
171
     1
172
     0
 90
        2
 40
0.0
 41
0.0
173
     1
 91
-1056964608
340
14
 92
       -2
290
     1
 42
2.0
291
     1
 43
8.0
  3
Standard
341
0
 44
4.0
300

342
11
174
     1
178
     6
175
     1
176
     0
 93
-1056964608
 45
4.0
292
     0
297
     0
 46
4.0
343
0
 94
-1056964608
 47
1.0
 49
1.0
140
1.0
293
     1
141
0.0
294
     1
177
     0
142
1.0
295
     0
296
     0
143
3.75
271
     0
272
     9
273
     9
298
     0
  0
MLINESTYLE
  5
18
102
{ACAD_REACTORS
330
17
102
}
330
17
100
AcDbMlineStyle
  2
Standard
 70
     0
  3

 62
   256
 51
90.0
 52
90.0
 71
     2
 49
0.5
 62
   256
  6
BYLAYER
 49
-0.5
 62
   256
  6
BYLAYER
  0
ACDBPLACEHOLDER
  5
F
102
{ACAD_REACTORS
330
E
102
}
330
E
  0
SCALE
  5
41
102
{ACAD_REACTORS
330
40
102
}
330
40
100
AcDbScale
 70
     0
300
1:1
140
1.0
141
1.0
290
     1
  0
SCALE
  5
42
102
{ACAD_REACTORS
330
40
102
}
330
40
100
AcDbScale
 70
     0
300
1:2
140
1.0
141
2.0
290
     0
  0
SCALE
  5
43
102
{ACAD_REACTORS
330
40
102
}
330
40
100
AcDbScale
 70
     0
300
1:4
140
1.0
141
4.0
290
     0
  0
SCALE
  5
44
102
{ACAD_REACTORS
330
40
102
}
330
40
100
AcDbScale
 70
     0
300
1:5
140
1.0
141
5.0
290
     0
  0
SCALE
  5
45
102
{ACAD_REACTORS
330
40
102
}
330
40
100
AcDbScale
 70
     0
300
1:8
140
1.0
141
8.0
290
     0
  0
SCALE
  5
46
102
{ACAD_REACTORS
330
40
102
}
330
40
100
AcDbScale
 70
     0
300
1:10
140
1.0
141
10.0
290
     0
  0
SCALE
  5
47
102
{ACAD_REACTORS
330
40
102
}
330
40
100
AcDbScale
 70
     0
300
1:16
140
1.0
141
16.0
290
     0
  0
SCALE
  5
48
102
{ACAD_REACTORS
330
40
102
}
330
40
100
AcDbScale
 70
     0
300
1:20
140
1.0
141
20.0
290
     0
  0
SCALE
  5
49
102
{ACAD_REACTORS
330
40
102
}
330
40
100
AcDbScale
 70
     0
300
1:30
140
1.0
141
30.0
290
     0
  0
SCALE
  5
4A
102
{ACAD_REACTORS
330
40
102
}
330
40
100
AcDbScale
 70
     0
300
1:40
140
1.0
141
40.0
290
     0
  0
SCALE
  5
4B
102
{ACAD_REACTORS
330
40
102
}
330
40
100
AcDbScale
 70
     0
300
1:50
140
1.0
141
50.0
290
     0
  0
SCALE
  5
4C
102
{ACAD_REACTORS
330
40
102
}
330
40
100
AcDbScale
 70
     0
300
1:100
140
1.0
141
100.0
290
     0
  0
SCALE
  5
4D
102
{ACAD_REACTORS
330
40
102
}
330
40
100
AcDbScale
 70
     0
300
2:1
140
2.0
141
1.0
290
     0
  0
SCALE
  5
4E
102
{ACAD_REACTORS
330
40
102
}
330
40
100
AcDbScale
 70
     0
300
4:1
140
4.0
141
1.0
290
     0
  0
SCALE
  5
4F
102
{ACAD_REACTORS
330
40
102
}
330
40
100
AcDbScale
 70
     0
300
8:1
140
8.0
141
1.0
290
     0
  0
SCALE
  5
50
102
{ACAD_REACTORS
330
40
102
}
330
40
100
AcDbScale
 70
     0
300
10:1
140
10.0
141
1.0
290
     0
  0
SCALE
  5
51
102
{ACAD_REACTORS
330
40
102
}
330
40
100
AcDbScale
 70
     0
300
100:1
140
100.0
141
1.0
290
     0
  0
SCALE
  5
52
102
{ACAD_REACTORS
330
40
102
}
330
40
100
AcDbScale
 70
     0
300
1/128" = 1'-0"
140
0.0078125
141
12.0
290
     0
  0
SCALE
  5
53
102
{ACAD_REACTORS
330
40
102
}
330
40
100
AcDbScale
 70
     0
300
1/64" = 1'-0"
140
0.015625
141
12.0
290
     0
  0
SCALE
  5
54
102
{ACAD_REACTORS
330
40
102
}
330
40
100
AcDbScale
 70
     0
300
1/32" = 1'-0"
140
0.03125
141
12.0
290
     0
  0
SCALE
  5
55
102
{ACAD_REACTORS
330
40
102
}
330
40
100
AcDbScale
 70
     0
300
1/16" = 1'-0"
140
0.0625
141
12.0
290
     0
  0
SCALE
  5
56
102
{ACAD_REACTORS
330
40
102
}
330
40
100
AcDbScale
 70
     0
300
3/32" = 1'-0"
140
0.09375
141
12.0
290
     0
  0
SCALE
  5
57
102
{ACAD_REACTORS
330
40
102
}
330
40
100
AcDbScale
 70
     0
300
1/8" = 1'-0"
140
0.125
141
12.0
290
     0
  0
SCALE
  5
58
102
{ACAD_REACTORS
330
40
102
}
330
40
100
AcDbScale
 70
     0
300
3/16" = 1'-0"
140
0.1875
141
12.0
290
     0
  0
SCALE
  5
59
102
{ACAD_REACTORS
330
40
102
}
330
40
100
AcDbScale
 70
     0
300
1/4" = 1'-0"
140
0.25
141
12.0
290
     0
  0
SCALE
  5
5A
102
{ACAD_REACTORS
330
40
102
}
330
40
100
AcDbScale
 70
     0
300
3/8" = 1'-0"
140
0.375
141
12.0
290
     0
  0
SCALE
  5
5B
102
{ACAD_REACTORS
330
40
102
}
330
40
100
AcDbScale
 70
     0
300
1/2" = 1'-0"
140
0.5
141
12.0
290
     0
  0
SCALE
  5
5C
102
{ACAD_REACTORS
330
40
102
}
330
40
100
AcDbScale
 70
     0
300
3/4" = 1'-0"
140
0.75
141
12.0
290
     0
  0
SCALE
  5
5D
102
{ACAD_REACTORS
330
40
102
}
330
40
100
AcDbScale
 70
     0
300
1" = 1'-0"
140
1.0
141
12.0
290
     0
  0
SCALE
  5
5E
102
{ACAD_REACTORS
330
40
102
}
330
40
100
AcDbScale
 70
     0
300
1-1/2" = 1'-0"
140
1.5
141
12.0
290
     0
  0
SCALE
  5
5F
102
{ACAD_REACTORS
330
40
102
}
330
40
100
AcDbScale
 70
     0
300
3" = 1'-0"
140
3.0
141
12.0
290
     0
  0
SCALE
  5
60
102
{ACAD_REACTORS
330
40
102
}
330
40
100
AcDbScale
 70
     0
300
6" = 1'-0"
140
6.0
141
12.0
290
     0
  0
SCALE
  5
61
102
{ACAD_REACTORS
330
40
102
}
330
40
100
AcDbScale
 70
     0
300
1'-0" = 1'-0"
140
12.0
141
12.0
290
     0
  0
TABLESTYLE
  5
3C
102
{ACAD_REACTORS
330
3B
102
}
102
{ACAD_XDICTIONARY
360
773
102
}
330
3B
100
AcDbTableStyle
  3
Standard
 70
     0
 71
     0
 40
1.5
 41
1.5
280
     0
281
     0
  7
Standard
140
4.5
170
     2
 62
     0
 63
   257
283
     0
 90
      512
 91
        0
  1

274
    -2
284
     1
 64
     0
275
    -2
285
     1
 65
     0
276
    -2
286
     1
 66
     0
277
    -2
287
     1
 67
     0
278
    -2
288
     1
 68
     0
279
    -2
289
     1
 69
     0
  7
Standard
140
6.0
170
     5
 62
     0
 63
   257
283
     0
 90
      512
 91
        0
  1

274
    -2
284
     1
 64
     0
275
    -2
285
     1
 65
     0
276
    -2
286
     1
 66
     0
277
    -2
287
     1
 67
     0
278
    -2
288
     1
 68
     0
279
    -2
289
     1
 69
     0
  7
Standard
140
4.5
170
     5
 62
     0
 63
   257
283
     0
 90
      512
 91
        0
  1

274
    -2
284
     1
 64
     0
275
    -2
285
     1
 65
     0
276
    -2
286
     1
 66
     0
277
    -2
287
     1
 67
     0
278
    -2
288
     1
 68
     0
279
    -2
289
     1
 69
     0
  0
VISUALSTYLE
  5
2F
102
{ACAD_REACTORS
330
2A
102
}
330
2A
100
AcDbVisualStyle
  2
2dWireframe
 70
     4
177
     3
291
     0
 70
    58
 90
        0
176
     1
 90
        2
176
     1
 90
        0
176
     1
 90
        0
176
     1
 40
-0.6
176
     1
 40
-30.0
176
     1
 62
     7
420
 16777215
176
     1
 90
        1
176
     1
 90
        4
176
     1
 62
     7
176
     1
 62
   257
176
     1
 90
        1
176
     1
 90
        1
176
     1
 40
1.0
176
     1
 90
        0
176
     1
 62
   257
176
     1
 40
1.0
176
     1
 90
        1
176
     1
 90
        6
176
     1
 90
        2
176
     1
 62
     7
176
     1
 90
        5
176
     1
 90
        0
176
     1
 90
        0
176
     1
290
     0
176
     1
 90
        1
176
     1
 40
0.0
176
     1
 90
        0
176
     1
290
     1
176
     1
290
     1
176
     1
290
     0
176
     1
290
     0
176
     1
290
     0
176
     1
290
     0
176
     1
290
     0
176
     1
290
     0
176
     1
290
     0
176
     1
 90
       50
176
     1
 40
0.0
176
     1
 40
1.0
176
     1
 90
        0
176
     1
 62
    18
420
        0
176
     1
 90
       50
176
     1
 90
        3
176
     1
 62
     5
420
      255
176
     1
290
     0
176
     1
 90
       50
176
     1
 90
       50
176
     1
 90
       50
176
     1
290
     0
176
     1
 90
       50
176
     1
 62
   256
176
     0
 40
1.0
176
     0
 90
        2
176
     1
  1
strokes_ogs.tif
176
     1
290
     0
176
     1
 40
1.0
176
     1
 40
1.0
176
     1
  0
VISUALSTYLE
  5
31
102
{ACAD_REACTORS
330
2A
102
}
330
2A
100
AcDbVisualStyle
  2
3D Hidden
 70
     6
177
     3
291
     0
 70
    58
 90
        1
176
     1
 90
        2
176
     1
 90
        2
176
     1
 90
        0
176
     1
 40
-0.6
176
     1
 40
-30.0
176
     1
 62
     7
420
 16777215
176
     1
 90
        2
176
     1
 90
        2
176
     1
 62
     7
176
     1
 62
   257
176
     1
 90
        2
176
     1
 90
        1
176
     1
 40
40.0
176
     1
 90
        0
176
     1
 62
   257
176
     1
 40
1.0
176
     1
 90
        1
176
     1
 90
        6
176
     1
 90
        2
176
     1
 62
     7
176
     1
 90
        3
176
     1
 90
        0
176
     1
 90
        0
176
     1
290
     0
176
     1
 90
        1
176
     1
 40
0.0
176
     1
 90
        0
176
     1
290
     0
176
     1
290
     1
176
     1
290
     1
176
     1
290
     0
176
     1
290
     0
176
     1
290
     0
176
     1
290
     0
176
     1
290
     0
176
     1
290
     0
176
     1
 90
       50
176
     1
 40
0.0
176
     1
 40
1.0
176
     1
 90
        0
176
     1
 62
    18
420
        0
176
     1
 90
       50
176
     1
 90
        3
176
     1
 62
     5
420
      255
176
     1
290
     0
176
     1
 90
       50
176
     1
 90
       50
176
     1
 90
       50
176
     1
290
     0
176
     1
 90
       50
176
     1
 62
   256
176
     0
 40
1.0
176
     0
 90
        2
176
     1
  1
strokes_ogs.tif
176
     1
290
     0
176
     1
 40
1.0
176
     1
 40
1.0
176
     1
  0
VISUALSTYLE
  5
30
102
{ACAD_REACTORS
330
2A
102
}
330
2A
100
AcDbVisualStyle
  2
3dWireframe
 70
     5
177
     3
291
     0
 70
    58
 90
        0
176
     1
 90
        2
176
     1
 90
        0
176
     1
 90
        0
176
     1
 40
-0.6
176
     1
 40
-30.0
176
     1
 62
     7
420
 16777215
176
     1
 90
        1
176
     1
 90
        4
176
     1
 62
     7
176
     1
 62
   257
176
     1
 90
        1
176
     1
 90
        1
176
     1
 40
1.0
176
     1
 90
        0
176
     1
 62
   257
176
     1
 40
1.0
176
     1
 90
        1
176
     1
 90
        6
176
     1
 90
        2
176
     1
 62
     7
176
     1
 90
        5
176
     1
 90
        0
176
     1
 90
        0
176
     1
290
     0
176
     1
 90
        1
176
     1
 40
0.0
176
     1
 90
        0
176
     1
290
     0
176
     1
290
     1
176
     1
290
     1
176
     1
290
     0
176
     1
290
     0
176
     1
290
     0
176
     1
290
     0
176
     1
290
     0
176
     1
290
     0
176
     1
 90
       50
176
     1
 40
0.0
176
     1
 40
1.0
176
     1
 90
        0
176
     1
 62
    18
420
        0
176
     1
 90
       50
176
     1
 90
        3
176
     1
 62
     5
420
      255
176
     1
290
     0
176
     1
 90
       50
176
     1
 90
       50
176
     1
 90
       50
176
     1
290
     0
176
     1
 90
       50
176
     1
 62
   256
176
     0
 40
1.0
176
     0
 90
        2
176
     1
  1
strokes_ogs.tif
176
     1
290
     0
176
     1
 40
1.0
176
     1
 40
1.0
176
     1
  0
VISUALSTYLE
  5
32
102
{ACAD_REACTORS
330
2A
102
}
330
2A
100
AcDbVisualStyle
  2
Basic
 70
     7
177
     3
291
     1
 70
    58
 90
        1
176
     1
 90
        0
176
     1
 90
        1
176
     1
 90
        0
176
     1
 40
-0.6
176
     1
 40
-30.0
176
     1
 62
     7
420
 16777215
176
     1
 90
        0
176
     1
 90
        4
176
     1
 62
     7
176
     1
 62
   257
176
     1
 90
        1
176
     1
 90
        1
176
     1
 40
1.0
176
     1
 90
        8
176
     1
 62
     7
176
     1
 40
1.0
176
     1
 90
        1
176
     1
 90
        6
176
     1
 90
        2
176
     1
 62
     7
176
     1
 90
        5
176
     1
 90
        0
176
     1
 90
        0
176
     1
290
     0
176
     1
 90
        1
176
     1
 40
0.0
176
     1
 90
        0
176
     1
290
     0
176
     1
290
     1
176
     1
290
     1
176
     1
290
     0
176
     1
290
     0
176
     1
290
     0
176
     1
290
     0
176
     1
290
     0
176
     1
290
     0
176
     1
 90
       50
176
     1
 40
0.0
176
     1
 40
1.0
176
     1
 90
        0
176
     1
 62
    18
420
        0
176
     1
 90
       50
176
     1
 90
        3
176
     1
 62
     5
420
      255
176
     1
290
     0
176
     1
 90
       50
176
     1
 90
       50
176
     1
 90
       50
176
     1
290
     0
176
     1
 90
       50
176
     1
 62
   256
176
     0
 40
1.0
176
     0
 90
        2
176
     1
  1
strokes_ogs.tif
176
     1
290
     0
176
     1
 40
1.0
176
     1
 40
1.0
176
     1
  0
VISUALSTYLE
  5
36
102
{ACAD_REACTORS
330
2A
102
}
330
2A
100
AcDbVisualStyle
  2
Brighten
 70
    12
177
     3
291
     1
 70
    58
 90
        2
176
     1
 90
        2
176
     1
 90
        0
176
     1
 90
        0
176
     1
 40
-0.6
176
     1
 40
-30.0
176
     1
 62
     7
420
 16777215
176
     1
 90
        1
176
     1
 90
        4
176
     1
 62
     7
176
     1
 62
   257
176
     1
 90
        1
176
     1
 90
        1
176
     1
 40
1.0
176
     1
 90
        8
176
     1
 62
     7
176
     1
 40
1.0
176
     1
 90
        1
176
     1
 90
        6
176
     1
 90
        2
176
     1
 62
     7
176
     1
 90
        5
176
     1
 90
        0
176
     1
 90
        0
176
     1
290
     0
176
     1
 90
        1
176
     1
 40
50.0
176
     1
 90
        0
176
     1
290
     0
176
     1
290
     1
176
     1
290
     1
176
     1
290
     0
176
     1
290
     0
176
     1
290
     0
176
     1
290
     0
176
     1
290
     0
176
     1
290
     0
176
     1
 90
       50
176
     1
 40
0.0
176
     1
 40
1.0
176
     1
 90
        0
176
     1
 62
    18
420
        0
176
     1
 90
       50
176
     1
 90
        3
176
     1
 62
     5
420
      255
176
     1
290
     0
176
     1
 90
       50
176
     1
 90
       50
176
     1
 90
       50
176
     1
290
     0
176
     1
 90
       50
176
     1
 62
   256
176
     0
 40
1.0
176
     0
 90
        2
176
     1
  1
strokes_ogs.tif
176
     1
290
     0
176
     1
 40
1.0
176
     1
 40
1.0
176
     1
  0
VISUALSTYLE
  5
3A
102
{ACAD_REACTORS
330
2A
102
}
330
2A
100
AcDbVisualStyle
  2
ColorChange
 70
    16
177
     3
291
     1
 70
    58
 90
        2
176
     1
 90
        2
176
     1
 90
        3
176
     1
 90
        0
176
     1
 40
-0.6
176
     1
 40
-30.0
176
     1
 62
     8
420
  8421504
176
     1
 90
        1
176
     1
 90
        4
176
     1
 62
     7
176
     1
 62
   257
176
     1
 90
        1
176
     1
 90
        1
176
     1
 40
1.0
176
     1
 90
        8
176
     1
 62
     8
420
  8421504
176
     1
 40
1.0
176
     1
 90
        1
176
     1
 90
        6
176
     1
 90
        2
176
     1
 62
     7
176
     1
 90
        5
176
     1
 90
        0
176
     1
 90
        0
176
     1
290
     0
176
     1
 90
        1
176
     1
 40
0.0
176
     1
 90
        0
176
     1
290
     0
176
     1
290
     1
176
     1
290
     1
176
     1
290
     0
176
     1
290
     0
176
     1
290
     0
176
     1
290
     0
176
     1
290
     0
176
     1
290
     0
176
     1
 90
       50
176
     1
 40
0.0
176
     1
 40
1.0
176
     1
 90
        0
176
     1
 62
    18
420
        0
176
     1
 90
       50
176
     1
 90
        3
176
     1
 62
     5
420
      255
176
     1
290
     0
176
     1
 90
       50
176
     1
 90
       50
176
     1
 90
       50
176
     1
290
     0
176
     1
 90
       50
176
     1
 62
   256
176
     0
 40
1.0
176
     0
 90
        2
176
     1
  1
strokes_ogs.tif
176
     1
290
     0
176
     1
 40
1.0
176
     1
 40
1.0
176
     1
  0
VISUALSTYLE
  5
34
102
{ACAD_REACTORS
330
2A
102
}
330
2A
100
AcDbVisualStyle
  2
Conceptual
 70
     9
177
     3
291
     0
 70
    58
 90
        3
176
     1
 90
        2
176
     1
 90
        0
176
     1
 90
        0
176
     1
 40
-0.6
176
     1
 40
-30.0
176
     1
 62
     7
420
 16777215
176
     1
 90
        2
176
     1
 90
        2
176
     1
 62
     7
176
     1
 62
   257
176
     1
 90
        1
176
     1
 90
        1
176
     1
 40
40.0
176
     1
 90
        8
176
     1
 62
     7
176
     1
 40
1.0
176
     1
 90
        1
176
     1
 90
        6
176
     1
 90
        2
176
     1
 62
     7
176
     1
 90
        3
176
     1
 90
        0
176
     1
 90
        0
176
     1
290
     0
176
     1
 90
        1
176
     1
 40
0.0
176
     1
 90
        0
176
     1
290
     0
176
     1
290
     1
176
     1
290
     1
176
     1
290
     0
176
     1
290
     0
176
     1
290
     0
176
     1
290
     0
176
     1
290
     0
176
     1
290
     0
176
     1
 90
       50
176
     1
 40
0.0
176
     1
 40
1.0
176
     1
 90
        0
176
     1
 62
    18
420
        0
176
     1
 90
       50
176
     1
 90
        3
176
     1
 62
     5
420
      255
176
     1
290
     0
176
     1
 90
       50
176
     1
 90
       50
176
     1
 90
       50
176
     1
290
     0
176
     1
 90
       50
176
     1
 62
   256
176
     0
 40
1.0
176
     0
 90
        2
176
     1
  1
strokes_ogs.tif
176
     1
290
     0
176
     1
 40
1.0
176
     1
 40
1.0
176
     1
  0
VISUALSTYLE
  5
35
102
{ACAD_REACTORS
330
2A
102
}
330
2A
100
AcDbVisualStyle
  2
Dim
 70
    11
177
     3
291
     1
 70
    58
 90
        2
176
     1
 90
        2
176
     1
 90
        0
176
     1
 90
        0
176
     1
 40
-0.6
176
     1
 40
-30.0
176
     1
 62
     7
420
 16777215
176
     1
 90
        1
176
     1
 90
        4
176
     1
 62
     7
176
     1
 62
   257
176
     1
 90
        1
176
     1
 90
        1
176
     1
 40
1.0
176
     1
 90
        8
176
     1
 62
     7
176
     1
 40
1.0
176
     1
 90
        1
176
     1
 90
        6
176
     1
 90
        2
176
     1
 62
     7
176
     1
 90
        5
176
     1
 90
        0
176
     1
 90
        0
176
     1
290
     0
176
     1
 90
        1
176
     1
 40
-50.0
176
     1
 90
        0
176
     1
290
     0
176
     1
290
     1
176
     1
290
     1
176
     1
290
     0
176
     1
290
     0
176
     1
290
     0
176
     1
290
     0
176
     1
290
     0
176
     1
290
     0
176
     1
 90
       50
176
     1
 40
0.0
176
     1
 40
1.0
176
     1
 90
        0
176
     1
 62
    18
420
        0
176
     1
 90
       50
176
     1
 90
        3
176
     1
 62
     5
420
      255
176
     1
290
     0
176
     1
 90
       50
176
     1
 90
       50
176
     1
 90
       50
176
     1
290
     0
176
     1
 90
       50
176
     1
 62
   256
176
     0
 40
1.0
176
     0
 90
        2
176
     1
  1
strokes_ogs.tif
176
     1
290
     0
176
     1
 40
1.0
176
     1
 40
1.0
176
     1
  0
VISUALSTYLE
  5
7A
102
{ACAD_REACTORS
330
2A
102
}
330
2A
100
AcDbVisualStyle
  2
EdgeColorOff
 70
    22
177
     3
291
     1
 70
    58
 90
        2
176
     0
 90
        2
176
     0
 90
        0
176
     0
 90
        0
176
     0
 40
0.6
176
     0
 40
30.0
176
     0
 62
     7
420
 16777215
176
     0
 90
        1
176
     0
 90
        4
176
     0
 62
     7
176
     0
 62
   257
176
     0
 90
        1
176
     0
 90
        1
176
     0
 40
1.0
176
     0
 90
        8
176
     2
 62
     7
176
     0
 40
1.0
176
     0
 90
        1
176
     0
 90
        6
176
     0
 90
        2
176
     0
 62
     7
176
     0
 90
        5
176
     0
 90
        0
176
     0
 90
        0
176
     0
290
     0
176
     0
 90
        1
176
     0
 40
0.0
176
     0
 90
        0
176
     0
290
     0
176
     0
290
     1
176
     0
290
     1
176
     0
290
     0
176
     0
290
     0
176
     0
290
     0
176
     0
290
     0
176
     0
290
     0
176
     0
290
     0
176
     0
 90
       50
176
     0
 40
0.0
176
     0
 40
1.0
176
     0
 90
        0
176
     0
 62
    18
420
        0
176
     0
 90
       50
176
     0
 90
        3
176
     0
 62
     5
420
      255
176
     0
290
     0
176
     0
 90
       50
176
     0
 90
       50
176
     0
 90
       50
176
     0
290
     0
176
     0
 90
       50
176
     0
 62
   256
176
     0
 40
1.0
176
     0
 90
        2
176
     0
  1
strokes_ogs.tif
176
     0
290
     0
176
     0
 40
1.0
176
     0
 40
1.0
176
     0
  0
VISUALSTYLE
  5
39
102
{ACAD_REACTORS
330
2A
102
}
330
2A
100
AcDbVisualStyle
  2
Facepattern
 70
    15
177
     3
291
     1
 70
    58
 90
        2
176
     1
 90
        2
176
     1
 90
        0
176
     1
 90
        0
176
     1
 40
-0.6
176
     1
 40
-30.0
176
     1
 62
     7
420
 16777215
176
     1
 90
        1
176
     1
 90
        4
176
     1
 62
     7
176
     1
 62
   257
176
     1
 90
        1
176
     1
 90
        1
176
     1
 40
1.0
176
     1
 90
        8
176
     1
 62
     7
176
     1
 40
1.0
176
     1
 90
        1
176
     1
 90
        6
176
     1
 90
        2
176
     1
 62
     7
176
     1
 90
        5
176
     1
 90
        0
176
     1
 90
        0
176
     1
290
     0
176
     1
 90
        1
176
     1
 40
0.0
176
     1
 90
        0
176
     1
290
     0
176
     1
290
     1
176
     1
290
     1
176
     1
290
     0
176
     1
290
     0
176
     1
290
     0
176
     1
290
     0
176
     1
290
     0
176
     1
290
     0
176
     1
 90
       50
176
     1
 40
0.0
176
     1
 40
1.0
176
     1
 90
        0
176
     1
 62
    18
420
        0
176
     1
 90
       50
176
     1
 90
        3
176
     1
 62
     5
420
      255
176
     1
290
     0
176
     1
 90
       50
176
     1
 90
       50
176
     1
 90
       50
176
     1
290
     0
176
     1
 90
       50
176
     1
 62
   256
176
     0
 40
1.0
176
     0
 90
        2
176
     1
  1
strokes_ogs.tif
176
     1
290
     0
176
     1
 40
1.0
176
     1
 40
1.0
176
     1
  0
VISUALSTYLE
  5
2B
102
{ACAD_REACTORS
330
2A
102
}
330
2A
100
AcDbVisualStyle
  2
Flat
 70
     0
177
     3
291
     1
 70
    58
 90
        2
176
     1
 90
        1
176
     1
 90
        1
176
     1
 90
        2
176
     1
 40
-0.6
176
     1
 40
30.0
176
     1
 62
     7
420
 16777215
176
     1
 90
        0
176
     1
 90
        4
176
     1
 62
     7
176
     1
 62
   257
176
     1
 90
        1
176
     1
 90
        1
176
     1
 40
1.0
176
     1
 90
        8
176
     1
 62
     7
176
     1
 40
1.0
176
     1
 90
        1
176
     1
 90
        6
176
     1
 90
        2
176
     1
 62
     7
176
     1
 90
        5
176
     1
 90
        0
176
     1
 90
        0
176
     1
290
     0
176
     1
 90
       13
176
     1
 40
0.0
176
     1
 90
        0
176
     1
290
     0
176
     1
290
     1
176
     1
290
     1
176
     1
290
     0
176
     1
290
     0
176
     1
290
     0
176
     1
290
     0
176
     1
290
     0
176
     1
290
     0
176
     1
 90
       50
176
     1
 40
0.0
176
     1
 40
1.0
176
     1
 90
        0
176
     1
 62
    18
420
        0
176
     1
 90
       50
176
     1
 90
        3
176
     1
 62
     5
420
      255
176
     1
290
     0
176
     1
 90
       50
176
     1
 90
       50
176
     1
 90
       50
176
     1
290
     0
176
     1
 90
       50
176
     1
 62
   256
176
     0
 40
1.0
176
     0
 90
        2
176
     1
  1
strokes_ogs.tif
176
     1
290
     0
176
     1
 40
1.0
176
     1
 40
1.0
176
     1
  0
VISUALSTYLE
  5
2C
102
{ACAD_REACTORS
330
2A
102
}
330
2A
100
AcDbVisualStyle
  2
FlatWithEdges
 70
     1
177
     3
291
     1
 70
    58
 90
        2
176
     1
 90
        1
176
     1
 90
        1
176
     1
 90
        2
176
     1
 40
-0.6
176
     1
 40
30.0
176
     1
 62
     7
420
 16777215
176
     1
 90
        1
176
     1
 90
        4
176
     1
 62
     7
176
     1
 62
   257
176
     1
 90
        1
176
     1
 90
        1
176
     1
 40
1.0
176
     1
 90
        0
176
     1
 62
   257
176
     1
 40
1.0
176
     1
 90
        1
176
     1
 90
        6
176
     1
 90
        2
176
     1
 62
     7
176
     1
 90
        5
176
     1
 90
        0
176
     1
 90
        0
176
     1
290
     0
176
     1
 90
       13
176
     1
 40
0.0
176
     1
 90
        0
176
     1
290
     0
176
     1
290
     1
176
     1
290
     1
176
     1
290
     0
176
     1
290
     0
176
     1
290
     0
176
     1
290
     0
176
     1
290
     0
176
     1
290
     0
176
     1
 90
       50
176
     1
 40
0.0
176
     1
 40
1.0
176
     1
 90
        0
176
     1
 62
    18
420
        0
176
     1
 90
       50
176
     1
 90
        3
176
     1
 62
     5
420
      255
176
     1
290
     0
176
     1
 90
       50
176
     1
 90
       50
176
     1
 90
       50
176
     1
290
     0
176
     1
 90
       50
176
     1
 62
   256
176
     0
 40
1.0
176
     0
 90
        2
176
     1
  1
strokes_ogs.tif
176
     1
290
     0
176
     1
 40
1.0
176
     1
 40
1.0
176
     1
  0
VISUALSTYLE
  5
2D
102
{ACAD_REACTORS
330
2A
102
}
330
2A
100
AcDbVisualStyle
  2
Gouraud
 70
     2
177
     3
291
     1
 70
    58
 90
        2
176
     1
 90
        2
176
     1
 90
        1
176
     1
 90
        2
176
     1
 40
-0.6
176
     1
 40
30.0
176
     1
 62
     7
420
 16777215
176
     1
 90
        0
176
     1
 90
        4
176
     1
 62
     7
176
     1
 62
   257
176
     1
 90
        1
176
     1
 90
        1
176
     1
 40
1.0
176
     1
 90
        0
176
     1
 62
     7
176
     1
 40
1.0
176
     1
 90
        1
176
     1
 90
        6
176
     1
 90
        2
176
     1
 62
     7
176
     1
 90
        5
176
     1
 90
        0
176
     1
 90
        0
176
     1
290
     0
176
     1
 90
       13
176
     1
 40
0.0
176
     1
 90
        0
176
     1
290
     0
176
     1
290
     1
176
     1
290
     1
176
     1
290
     0
176
     1
290
     0
176
     1
290
     0
176
     1
290
     0
176
     1
290
     0
176
     1
290
     0
176
     1
 90
       50
176
     1
 40
0.0
176
     1
 40
1.0
176
     1
 90
        0
176
     1
 62
    18
420
        0
176
     1
 90
       50
176
     1
 90
        3
176
     1
 62
     5
420
      255
176
     1
290
     0
176
     1
 90
       50
176
     1
 90
       50
176
     1
 90
       50
176
     1
290
     0
176
     1
 90
       50
176
     1
 62
   256
176
     0
 40
1.0
176
     0
 90
        2
176
     1
  1
strokes_ogs.tif
176
     1
290
     0
176
     1
 40
1.0
176
     1
 40
1.0
176
     1
  0
VISUALSTYLE
  5
2E
102
{ACAD_REACTORS
330
2A
102
}
330
2A
100
AcDbVisualStyle
  2
GouraudWithEdges
 70
     3
177
     3
291
     1
 70
    58
 90
        2
176
     1
 90
        2
176
     1
 90
        1
176
     1
 90
        2
176
     1
 40
-0.6
176
     1
 40
30.0
176
     1
 62
     7
420
 16777215
176
     1
 90
        1
176
     1
 90
        4
176
     1
 62
     7
176
     1
 62
   257
176
     1
 90
        1
176
     1
 90
        1
176
     1
 40
1.0
176
     1
 90
        0
176
     1
 62
   257
176
     1
 40
1.0
176
     1
 90
        1
176
     1
 90
        6
176
     1
 90
        2
176
     1
 62
     7
176
     1
 90
        5
176
     1
 90
        0
176
     1
 90
        0
176
     1
290
     0
176
     1
 90
       13
176
     1
 40
0.0
176
     1
 90
        0
176
     1
290
     0
176
     1
290
     1
176
     1
290
     1
176
     1
290
     0
176
     1
290
     0
176
     1
290
     0
176
     1
290
     0
176
     1
290
     0
176
     1
290
     0
176
     1
 90
       50
176
     1
 40
0.0
176
     1
 40
1.0
176
     1
 90
        0
176
     1
 62
    18
420
        0
176
     1
 90
       50
176
     1
 90
        3
176
     1
 62
     5
420
      255
176
     1
290
     0
176
     1
 90
       50
176
     1
 90
       50
176
     1
 90
       50
176
     1
290
     0
176
     1
 90
       50
176
     1
 62
   256
176
     0
 40
1.0
176
     0
 90
        2
176
     1
  1
strokes_ogs.tif
176
     1
290
     0
176
     1
 40
1.0
176
     1
 40
1.0
176
     1
  0
VISUALSTYLE
  5
77
102
{ACAD_REACTORS
330
2A
102
}
330
2A
100
AcDbVisualStyle
  2
Hidden
 70
     6
177
     3
291
     0
 70
    58
 90
        1
176
     1
 90
        2
176
     1
 90
        2
176
     1
 90
        0
176
     1
 40
0.6
176
     1
 40
30.0
176
     1
 62
     7
420
 16777215
176
     1
 90
        2
176
     1
 90
        2
176
     1
 62
     7
176
     1
 62
   257
176
     1
 90
        2
176
     1
 90
        1
176
     1
 40
40.0
176
     1
 90
        0
176
     1
 62
   257
176
     1
 40
1.0
176
     1
 90
        1
176
     1
 90
        6
176
     1
 90
        2
176
     1
 62
     7
176
     1
 90
        3
176
     1
 90
        0
176
     1
 90
        0
176
     1
290
     0
176
     1
 90
        1
176
     1
 40
0.0
176
     1
 90
        0
176
     1
290
     0
176
     1
290
     1
176
     1
290
     1
176
     1
290
     0
176
     1
290
     0
176
     1
290
     0
176
     1
290
     0
176
     1
290
     0
176
     1
290
     0
176
     1
 90
       50
176
     1
 40
0.0
176
     1
 40
1.0
176
     1
 90
        0
176
     1
 62
    18
420
        0
176
     1
 90
       50
176
     1
 90
        3
176
     1
 62
     5
420
      255
176
     1
290
     0
176
     1
 90
       50
176
     1
 90
       50
176
     1
 90
       50
176
     1
290
     0
176
     1
 90
       50
176
     1
 62
   256
176
     0
 40
1.0
176
     0
 90
        2
176
     1
  1
strokes_ogs.tif
176
     1
290
     0
176
     1
 40
1.0
176
     1
 40
1.0
176
     1
  0
VISUALSTYLE
  5
78
102
{ACAD_REACTORS
330
2A
102
}
330
2A
100
AcDbVisualStyle
  2
JitterOff
 70
    20
177
     3
291
     1
 70
    58
 90
        2
176
     0
 90
        2
176
     0
 90
        0
176
     0
 90
        0
176
     0
 40
0.6
176
     0
 40
30.0
176
     0
 62
     7
420
 16777215
176
     0
 90
        1
176
     0
 90
        4
176
     0
 62
     7
176
     0
 62
   257
176
     0
 90
        1
176
     0
 90
        1
176
     0
 40
1.0
176
     0
 90
       10
176
     2
 62
     7
176
     0
 40
1.0
176
     0
 90
        1
176
     0
 90
        6
176
     0
 90
        2
176
     0
 62
     7
176
     0
 90
        5
176
     0
 90
        0
176
     0
 90
        0
176
     0
290
     0
176
     0
 90
        1
176
     0
 40
0.0
176
     0
 90
        0
176
     0
290
     0
176
     0
290
     1
176
     0
290
     1
176
     0
290
     0
176
     0
290
     0
176
     0
290
     0
176
     0
290
     0
176
     0
290
     0
176
     0
290
     0
176
     0
 90
       50
176
     0
 40
0.0
176
     0
 40
1.0
176
     0
 90
        0
176
     0
 62
    18
420
        0
176
     0
 90
       50
176
     0
 90
        3
176
     0
 62
     5
420
      255
176
     0
290
     0
176
     0
 90
       50
176
     0
 90
       50
176
     0
 90
       50
176
     0
290
     0
176
     0
 90
       50
176
     0
 62
   256
176
     0
 40
1.0
176
     0
 90
        2
176
     0
  1
strokes_ogs.tif
176
     0
290
     0
176
     0
 40
1.0
176
     0
 40
1.0
176
     0
  0
VISUALSTYLE
  5
38
102
{ACAD_REACTORS
330
2A
102
}
330
2A
100
AcDbVisualStyle
  2
Linepattern
 70
    14
177
     3
291
     1
 70
    58
 90
        2
176
     1
 90
        2
176
     1
 90
        0
176
     1
 90
        0
176
     1
 40
-0.6
176
     1
 40
-30.0
176
     1
 62
     7
420
 16777215
176
     1
 90
        1
176
     1
 90
        4
176
     1
 62
     7
176
     1
 62
   257
176
     1
 90
        7
176
     1
 90
        7
176
     1
 40
1.0
176
     1
 90
        8
176
     1
 62
     7
176
     1
 40
1.0
176
     1
 90
        1
176
     1
 90
        6
176
     1
 90
        2
176
     1
 62
     7
176
     1
 90
        5
176
     1
 90
        0
176
     1
 90
        0
176
     1
290
     0
176
     1
 90
        1
176
     1
 40
0.0
176
     1
 90
        0
176
     1
290
     0
176
     1
290
     1
176
     1
290
     1
176
     1
290
     0
176
     1
290
     0
176
     1
290
     0
176
     1
290
     0
176
     1
290
     0
176
     1
290
     0
176
     1
 90
       50
176
     1
 40
0.0
176
     1
 40
1.0
176
     1
 90
        0
176
     1
 62
    18
420
        0
176
     1
 90
       50
176
     1
 90
        3
176
     1
 62
     5
420
      255
176
     1
290
     0
176
     1
 90
       50
176
     1
 90
       50
176
     1
 90
       50
176
     1
290
     0
176
     1
 90
       50
176
     1
 62
   256
176
     0
 40
1.0
176
     0
 90
        2
176
     1
  1
strokes_ogs.tif
176
     1
290
     0
176
     1
 40
1.0
176
     1
 40
1.0
176
     1
  0
VISUALSTYLE
  5
79
102
{ACAD_REACTORS
330
2A
102
}
330
2A
100
AcDbVisualStyle
  2
OverhangOff
 70
    21
177
     3
291
     1
 70
    58
 90
        2
176
     0
 90
        2
176
     0
 90
        0
176
     0
 90
        0
176
     0
 40
0.6
176
     0
 40
30.0
176
     0
 62
     7
420
 16777215
176
     0
 90
        1
176
     0
 90
        4
176
     0
 62
     7
176
     0
 62
   257
176
     0
 90
        1
176
     0
 90
        1
176
     0
 40
1.0
176
     0
 90
        9
176
     2
 62
     7
176
     0
 40
1.0
176
     0
 90
        1
176
     0
 90
        6
176
     0
 90
        2
176
     0
 62
     7
176
     0
 90
        5
176
     0
 90
        0
176
     0
 90
        0
176
     0
290
     0
176
     0
 90
        1
176
     0
 40
0.0
176
     0
 90
        0
176
     0
290
     0
176
     0
290
     1
176
     0
290
     1
176
     0
290
     0
176
     0
290
     0
176
     0
290
     0
176
     0
290
     0
176
     0
290
     0
176
     0
290
     0
176
     0
 90
       50
176
     0
 40
0.0
176
     0
 40
1.0
176
     0
 90
        0
176
     0
 62
    18
420
        0
176
     0
 90
       50
176
     0
 90
        3
176
     0
 62
     5
420
      255
176
     0
290
     0
176
     0
 90
       50
176
     0
 90
       50
176
     0
 90
       50
176
     0
290
     0
176
     0
 90
       50
176
     0
 62
   256
176
     0
 40
1.0
176
     0
 90
        2
176
     0
  1
strokes_ogs.tif
176
     0
290
     0
176
     0
 40
1.0
176
     0
 40
1.0
176
     0
  0
VISUALSTYLE
  5
33
102
{ACAD_REACTORS
330
2A
102
}
330
2A
100
AcDbVisualStyle
  2
Realistic
 70
     8
177
     3
291
     0
 70
    58
 90
        2
176
     1
 90
        2
176
     1
 90
        0
176
     1
 90
        0
176
     1
 40
-0.6
176
     1
 40
-30.0
176
     1
 62
     7
420
 16777215
176
     1
 90
        1
176
     1
 90
        0
176
     1
 62
     7
176
     1
 62
   257
176
     1
 90
        1
176
     1
 90
        1
176
     1
 40
1.0
176
     1
 90
        8
176
     1
 62
     8
420
  7895160
176
     1
 40
1.0
176
     1
 90
        1
176
     1
 90
        6
176
     1
 90
        2
176
     1
 62
     7
176
     1
 90
        5
176
     1
 90
        0
176
     1
 90
        0
176
     1
290
     0
176
     1
 90
       13
176
     1
 40
0.0
176
     1
 90
        0
176
     1
290
     0
176
     1
290
     1
176
     1
290
     1
176
     1
290
     0
176
     1
290
     0
176
     1
290
     0
176
     1
290
     0
176
     1
290
     0
176
     1
290
     0
176
     1
 90
       50
176
     1
 40
0.0
176
     1
 40
1.0
176
     1
 90
        0
176
     1
 62
    18
420
        0
176
     1
 90
       50
176
     1
 90
        3
176
     1
 62
     5
420
      255
176
     1
290
     0
176
     1
 90
       50
176
     1
 90
       50
176
     1
 90
       50
176
     1
290
     0
176
     1
 90
       50
176
     1
 62
   256
176
     0
 40
1.0
176
     0
 90
        2
176
     1
  1
strokes_ogs.tif
176
     1
290
     0
176
     1
 40
1.0
176
     1
 40
1.0
176
     1
  0
VISUALSTYLE
  5
7F
102
{ACAD_REACTORS
330
2A
102
}
330
2A
100
AcDbVisualStyle
  2
Shaded
 70
    27
177
     3
291
     0
 70
    58
 90
        2
176
     1
 90
        2
176
     1
 90
        1
176
     1
 90
        2
176
     1
 40
0.6
176
     1
 40
30.0
176
     1
 62
     7
420
 16777215
176
     1
 90
        0
176
     1
 90
        4
176
     1
 62
     7
176
     1
 62
   257
176
     1
 90
        1
176
     1
 90
        1
176
     1
 40
1.0
176
     1
 90
        8
176
     1
 62
   257
176
     1
 40
1.0
176
     1
 90
        1
176
     1
 90
        6
176
     1
 90
        2
176
     1
 62
     8
420
  7895160
176
     1
 90
        3
176
     1
 90
        0
176
     1
 90
        0
176
     1
290
     0
176
     1
 90
        5
176
     1
 40
0.0
176
     1
 90
        0
176
     1
290
     0
176
     1
290
     1
176
     1
290
     1
176
     1
290
     0
176
     1
290
     0
176
     1
290
     0
176
     1
290
     0
176
     1
290
     0
176
     1
290
     0
176
     1
 90
       50
176
     1
 40
0.0
176
     1
 40
1.0
176
     1
 90
        0
176
     1
 62
    18
420
        0
176
     1
 90
       50
176
     1
 90
        3
176
     1
 62
     5
420
      255
176
     1
290
     0
176
     1
 90
       50
176
     1
 90
       50
176
     1
 90
       50
176
     1
290
     0
176
     1
 90
       50
176
     1
 62
   256
176
     0
 40
1.0
176
     0
 90
        2
176
     1
  1
strokes_ogs.tif
176
     1
290
     0
176
     1
 40
1.0
176
     1
 40
1.0
176
     1
  0
VISUALSTYLE
  5
7E
102
{ACAD_REACTORS
330
2A
102
}
330
2A
100
AcDbVisualStyle
  2
Shaded with edges
 70
    26
177
     3
291
     0
 70
    58
 90
        2
176
     1
 90
        2
176
     1
 90
        1
176
     1
 90
        2
176
     1
 40
0.6
176
     1
 40
30.0
176
     1
 62
     7
420
 16777215
176
     1
 90
        1
176
     1
 90
       10
176
     1
 62
     7
176
     1
 62
   257
176
     1
 90
        2
176
     1
 90
        1
176
     1
 40
1.0
176
     1
 90
        8
176
     1
 62
   257
176
     1
 40
1.0
176
     1
 90
        1
176
     1
 90
        6
176
     1
 90
        2
176
     1
 62
     7
176
     1
 90
        3
176
     1
 90
        0
176
     1
 90
        0
176
     1
290
     0
176
     1
 90
        5
176
     1
 40
0.0
176
     1
 90
        0
176
     1
290
     0
176
     1
290
     1
176
     1
290
     1
176
     1
290
     0
176
     1
290
     0
176
     1
290
     0
176
     1
290
     0
176
     1
290
     0
176
     1
290
     0
176
     1
 90
       50
176
     1
 40
0.0
176
     1
 40
1.0
176
     1
 90
        0
176
     1
 62
    18
420
        0
176
     1
 90
       50
176
     1
 90
        3
176
     1
 62
     5
420
      255
176
     1
290
     0
176
     1
 90
       50
176
     1
 90
       50
176
     1
 90
       50
176
     1
290
     0
176
     1
 90
       50
176
     1
 62
   256
176
     0
 40
1.0
176
     0
 90
        2
176
     1
  1
strokes_ogs.tif
176
     1
290
     0
176
     1
 40
1.0
176
     1
 40
1.0
176
     1
  0
VISUALSTYLE
  5
7B
102
{ACAD_REACTORS
330
2A
102
}
330
2A
100
AcDbVisualStyle
  2
Shades of Gray
 70
    23
177
     3
291
     0
 70
    58
 90
        2
176
     1
 90
        2
176
     1
 90
        3
176
     1
 90
        0
176
     1
 40
0.6
176
     1
 40
30.0
176
     1
 62
     7
420
 16777215
176
     1
 90
        2
176
     1
 90
        2
176
     1
 62
     7
176
     1
 62
     7
176
     1
 90
        1
176
     1
 90
        1
176
     1
 40
40.0
176
     1
 90
        8
176
     1
 62
     7
176
     1
 40
1.0
176
     1
 90
        1
176
     1
 90
        6
176
     1
 90
        2
176
     1
 62
     7
176
     1
 90
        3
176
     1
 90
        0
176
     1
 90
        0
176
     1
290
     0
176
     1
 90
        1
176
     1
 40
0.0
176
     1
 90
        0
176
     1
290
     0
176
     1
290
     1
176
     1
290
     1
176
     1
290
     0
176
     1
290
     0
176
     1
290
     0
176
     1
290
     0
176
     1
290
     0
176
     1
290
     0
176
     1
 90
       50
176
     1
 40
0.0
176
     1
 40
1.0
176
     1
 90
        0
176
     1
 62
    18
420
        0
176
     1
 90
       50
176
     1
 90
        3
176
     1
 62
     5
420
      255
176
     1
290
     0
176
     1
 90
       50
176
     1
 90
       50
176
     1
 90
       50
176
     1
290
     0
176
     1
 90
       50
176
     1
 62
   256
176
     0
 40
1.0
176
     0
 90
        2
176
     1
  1
strokes_ogs.tif
176
     1
290
     0
176
     1
 40
1.0
176
     1
 40
1.0
176
     1
  0
VISUALSTYLE
  5
7C
102
{ACAD_REACTORS
330
2A
102
}
330
2A
100
AcDbVisualStyle
  2
Sketchy
 70
    24
177
     3
291
     0
 70
    58
 90
        1
176
     1
 90
        2
176
     1
 90
        2
176
     1
 90
        0
176
     1
 40
0.6
176
     1
 40
30.0
176
     1
 62
     7
420
 16777215
176
     1
 90
        2
176
     1
 90
        2
176
     1
 62
     7
176
     1
 62
     7
176
     1
 90
        1
176
     1
 90
        1
176
     1
 40
40.0
176
     1
 90
       11
176
     1
 62
     7
176
     1
 40
1.0
176
     1
 90
        1
176
     1
 90
        6
176
     1
 90
        2
176
     1
 62
     7
176
     1
 90
        6
176
     1
 90
        0
176
     1
 90
        0
176
     1
290
     0
176
     1
 90
        1
176
     1
 40
0.0
176
     1
 90
        0
176
     1
290
     0
176
     1
290
     1
176
     1
290
     1
176
     1
290
     0
176
     1
290
     0
176
     1
290
     0
176
     1
290
     0
176
     1
290
     0
176
     1
290
     0
176
     1
 90
       50
176
     1
 40
0.0
176
     1
 40
1.0
176
     1
 90
        0
176
     1
 62
    18
420
        0
176
     1
 90
       50
176
     1
 90
        3
176
     1
 62
     5
420
      255
176
     1
290
     0
176
     1
 90
       50
176
     1
 90
       50
176
     1
 90
       50
176
     1
290
     0
176
     1
 90
       50
176
     1
 62
   256
176
     0
 40
1.0
176
     0
 90
        2
176
     1
  1
strokes_ogs.tif
176
     1
290
     0
176
     1
 40
1.0
176
     1
 40
1.0
176
     1
  0
VISUALSTYLE
  5
37
102
{ACAD_REACTORS
330
2A
102
}
330
2A
100
AcDbVisualStyle
  2
Thicken
 70
    13
177
     3
291
     1
 70
    58
 90
        2
176
     1
 90
        2
176
     1
 90
        0
176
     1
 90
        0
176
     1
 40
-0.6
176
     1
 40
-30.0
176
     1
 62
     7
420
 16777215
176
     1
 90
        1
176
     1
 90
        4
176
     1
 62
     7
176
     1
 62
   257
176
     1
 90
        1
176
     1
 90
        1
176
     1
 40
1.0
176
     1
 90
       12
176
     1
 62
     7
176
     1
 40
1.0
176
     1
 90
        1
176
     1
 90
        6
176
     1
 90
        2
176
     1
 62
     7
176
     1
 90
        5
176
     1
 90
        0
176
     1
 90
        0
176
     1
290
     0
176
     1
 90
        1
176
     1
 40
0.0
176
     1
 90
        0
176
     1
290
     0
176
     1
290
     1
176
     1
290
     1
176
     1
290
     0
176
     1
290
     0
176
     1
290
     0
176
     1
290
     0
176
     1
290
     0
176
     1
290
     0
176
     1
 90
       50
176
     1
 40
0.0
176
     1
 40
1.0
176
     1
 90
        0
176
     1
 62
    18
420
        0
176
     1
 90
       50
176
     1
 90
        3
176
     1
 62
     5
420
      255
176
     1
290
     0
176
     1
 90
       50
176
     1
 90
       50
176
     1
 90
       50
176
     1
290
     0
176
     1
 90
       50
176
     1
 62
   256
176
     0
 40
1.0
176
     0
 90
        2
176
     1
  1
strokes_ogs.tif
176
     1
290
     0
176
     1
 40
1.0
176
     1
 40
1.0
176
     1
  0
VISUALSTYLE
  5
76
102
{ACAD_REACTORS
330
2A
102
}
330
2A
100
AcDbVisualStyle
  2
Wireframe
 70
     5
177
     3
291
     0
 70
    58
 90
        0
176
     1
 90
        2
176
     1
 90
        0
176
     1
 90
        0
176
     1
 40
0.6
176
     1
 40
30.0
176
     1
 62
     7
420
 16777215
176
     1
 90
        1
176
     1
 90
        4
176
     1
 62
     7
176
     1
 62
   257
176
     1
 90
        1
176
     1
 90
        1
176
     1
 40
1.0
176
     1
 90
        0
176
     1
 62
   257
176
     1
 40
1.0
176
     1
 90
        1
176
     1
 90
        6
176
     1
 90
        2
176
     1
 62
     7
176
     1
 90
        3
176
     1
 90
        0
176
     1
 90
        0
176
     1
290
     0
176
     1
 90
        1
176
     1
 40
0.0
176
     1
 90
        0
176
     1
290
     0
176
     1
290
     1
176
     1
290
     1
176
     1
290
     0
176
     1
290
     0
176
     1
290
     0
176
     1
290
     0
176
     1
290
     0
176
     1
290
     0
176
     1
 90
       50
176
     1
 40
0.0
176
     1
 40
1.0
176
     1
 90
        0
176
     1
 62
    18
420
        0
176
     1
 90
       50
176
     1
 90
        3
176
     1
 62
     5
420
      255
176
     1
290
     0
176
     1
 90
       50
176
     1
 90
       50
176
     1
 90
       50
176
     1
290
     0
176
     1
 90
       50
176
     1
 62
   256
176
     0
 40
1.0
176
     0
 90
        2
176
     1
  1
strokes_ogs.tif
176
     1
290
     0
176
     1
 40
1.0
176
     1
 40
1.0
176
     1
  0
VISUALSTYLE
  5
7D
102
{ACAD_REACTORS
330
2A
102
}
330
2A
100
AcDbVisualStyle
  2
X-Ray
 70
    25
177
     3
291
     0
 70
    58
 90
        2
176
     1
 90
        2
176
     1
 90
        1
176
     1
 90
        1
176
     1
 40
0.5
176
     1
 40
30.0
176
     1
 62
     7
420
 16777215
176
     1
 90
        1
176
     1
 90
        0
176
     1
 62
     7
176
     1
 62
   257
176
     1
 90
        1
176
     1
 90
        1
176
     1
 40
1.0
176
     1
 90
        8
176
     1
 62
     7
176
     1
 40
1.0
176
     1
 90
        1
176
     1
 90
        6
176
     1
 90
        2
176
     1
 62
     7
176
     1
 90
        3
176
     1
 90
        0
176
     1
 90
        0
176
     1
290
     0
176
     1
 90
       13
176
     1
 40
0.0
176
     1
 90
        0
176
     1
290
     0
176
     1
290
     1
176
     1
290
     1
176
     1
290
     0
176
     1
290
     0
176
     1
290
     0
176
     1
290
     0
176
     1
290
     0
176
     1
290
     0
176
     1
 90
       50
176
     1
 40
0.0
176
     1
 40
1.0
176
     1
 90
        0
176
     1
 62
    18
420
        0
176
     1
 90
       50
176
     1
 90
        3
176
     1
 62
     5
420
      255
176
     1
290
     0
176
     1
 90
       50
176
     1
 90
       50
176
     1
 90
       50
176
     1
290
     0
176
     1
 90
       50
176
     1
 62
   256
176
     0
 40
1.0
176
     0
 90
        2
176
     1
  1
strokes_ogs.tif
176
     1
290
     0
176
     1
 40
1.0
176
     1
 40
1.0
176
     1
  0
DICTIONARYVAR
  5
62
102
{ACAD_REACTORS
330
3D
102
}
330
3D
100
DictionaryVariables
280
     0
  1
1:1
  0
DICTIONARYVAR
  5
BB
102
{ACAD_REACTORS
330
3D
102
}
330
3D
100
DictionaryVariables
280
     0
  1
Standard
  0
DICTIONARYVAR
  5
3E
102
{ACAD_REACTORS
330
3D
102
}
330
3D
100
DictionaryVariables
280
     0
  1
Standard
  0
DICTIONARYVAR
  5
6F
102
{ACAD_REACTORS
330
3D
102
}
330
3D
100
DictionaryVariables
280
     0
  1
0
  0
DICTIONARYVAR
  5
70
102
{ACAD_REACTORS
330
3D
102
}
330
3D
100
DictionaryVariables
280
     0
  1
0
  0
DICTIONARY
  5
773
330
3C
100
AcDbDictionary
280
     1
281
     1
  3
ACAD_ROUNDTRIP_2008_TABLESTYLE_CELLSTYLEMAP
360
774
  0
CELLSTYLEMAP
  5
774
102
{ACAD_REACTORS
330
773
102
}
330
773
100
AcDbCellStyleMap
 90
        3
300
CELLSTYLE
  1
TABLEFORMAT_BEGIN
 90
        5
170
     1
 91
        0
 92
    32768
 62
   257
 93
        1
300
CONTENTFORMAT
  1
CONTENTFORMAT_BEGIN
 90
        0
 91
        0
 92
      512
 93
        0
300

 40
0.0
140
1.0
 94
        5
 62
     0
340
11
144
6.0
309
CONTENTFORMAT_END
171
     1
301
MARGIN
  1
CELLMARGIN_BEGIN
 40
1.5
 40
1.5
 40
1.5
 40
1.5
 40
0.18
 40
0.18
309
CELLMARGIN_END
 94
        6
 95
        1
302
GRIDFORMAT
  1
GRIDFORMAT_BEGIN
 90
        0
 91
        1
 62
     0
 92
       -2
340
0
 93
        0
 40
0.045
309
GRIDFORMAT_END
 95
        2
302
GRIDFORMAT
  1
GRIDFORMAT_BEGIN
 90
        0
 91
        1
 62
     0
 92
       -2
340
0
 93
        0
 40
0.045
309
GRIDFORMAT_END
 95
        4
302
GRIDFORMAT
  1
GRIDFORMAT_BEGIN
 90
        0
 91
        1
 62
     0
 92
       -2
340
0
 93
        0
 40
0.045
309
GRIDFORMAT_END
 95
        8
302
GRIDFORMAT
  1
GRIDFORMAT_BEGIN
 90
        0
 91
        1
 62
     0
 92
       -2
340
0
 93
        0
 40
0.045
309
GRIDFORMAT_END
 95
       16
302
GRIDFORMAT
  1
GRIDFORMAT_BEGIN
 90
        0
 91
        1
 62
     0
 92
       -2
340
0
 93
        0
 40
0.045
309
GRIDFORMAT_END
 95
       32
302
GRIDFORMAT
  1
GRIDFORMAT_BEGIN
 90
        0
 91
        1
 62
     0
 92
       -2
340
0
 93
        0
 40
0.045
309
GRIDFORMAT_END
309
TABLEFORMAT_END
  1
CELLSTYLE_BEGIN
 90
        1
 91
        1
300
_TITLE
309
CELLSTYLE_END
300
CELLSTYLE
  1
TABLEFORMAT_BEGIN
 90
        5
170
     1
 91
        0
 92
        0
 62
   257
 93
        1
300
CONTENTFORMAT
  1
CONTENTFORMAT_BEGIN
 90
        0
 91
        0
 92
      512
 93
        0
300

 40
0.0
140
1.0
 94
        5
 62
     0
340
11
144
4.5
309
CONTENTFORMAT_END
171
     1
301
MARGIN
  1
CELLMARGIN_BEGIN
 40
1.5
 40
1.5
 40
1.5
 40
1.5
 40
0.18
 40
0.18
309
CELLMARGIN_END
 94
        6
 95
        1
302
GRIDFORMAT
  1
GRIDFORMAT_BEGIN
 90
        0
 91
        1
 62
     0
 92
       -2
340
0
 93
        0
 40
0.045
309
GRIDFORMAT_END
 95
        2
302
GRIDFORMAT
  1
GRIDFORMAT_BEGIN
 90
        0
 91
        1
 62
     0
 92
       -2
340
0
 93
        0
 40
0.045
309
GRIDFORMAT_END
 95
        4
302
GRIDFORMAT
  1
GRIDFORMAT_BEGIN
 90
        0
 91
        1
 62
     0
 92
       -2
340
0
 93
        0
 40
0.045
309
GRIDFORMAT_END
 95
        8
302
GRIDFORMAT
  1
GRIDFORMAT_BEGIN
 90
        0
 91
        1
 62
     0
 92
       -2
340
0
 93
        0
 40
0.045
309
GRIDFORMAT_END
 95
       16
302
GRIDFORMAT
  1
GRIDFORMAT_BEGIN
 90
        0
 91
        1
 62
     0
 92
       -2
340
0
 93
        0
 40
0.045
309
GRIDFORMAT_END
 95
       32
302
GRIDFORMAT
  1
GRIDFORMAT_BEGIN
 90
        0
 91
        1
 62
     0
 92
       -2
340
0
 93
        0
 40
0.045
309
GRIDFORMAT_END
309
TABLEFORMAT_END
  1
CELLSTYLE_BEGIN
 90
        2
 91
        1
300
_HEADER
309
CELLSTYLE_END
300
CELLSTYLE
  1
TABLEFORMAT_BEGIN
 90
        5
170
     1
 91
        0
 92
        0
 62
   257
 93
        1
300
CONTENTFORMAT
  1
CONTENTFORMAT_BEGIN
 90
        0
 91
        0
 92
      512
 93
        0
300

 40
0.0
140
1.0
 94
        2
 62
     0
340
11
144
4.5
309
CONTENTFORMAT_END
171
     1
301
MARGIN
  1
CELLMARGIN_BEGIN
 40
1.5
 40
1.5
 40
1.5
 40
1.5
 40
0.18
 40
0.18
309
CELLMARGIN_END
 94
        6
 95
        1
302
GRIDFORMAT
  1
GRIDFORMAT_BEGIN
 90
        0
 91
        1
 62
     0
 92
       -2
340
0
 93
        0
 40
0.045
309
GRIDFORMAT_END
 95
        2
302
GRIDFORMAT
  1
GRIDFORMAT_BEGIN
 90
        0
 91
        1
 62
     0
 92
       -2
340
0
 93
        0
 40
0.045
309
GRIDFORMAT_END
 95
        4
302
GRIDFORMAT
  1
GRIDFORMAT_BEGIN
 90
        0
 91
        1
 62
     0
 92
       -2
340
0
 93
        0
 40
0.045
309
GRIDFORMAT_END
 95
        8
302
GRIDFORMAT
  1
GRIDFORMAT_BEGIN
 90
        0
 91
        1
 62
     0
 92
       -2
340
0
 93
        0
 40
0.045
309
GRIDFORMAT_END
 95
       16
302
GRIDFORMAT
  1
GRIDFORMAT_BEGIN
 90
        0
 91
        1
 62
     0
 92
       -2
340
0
 93
        0
 40
0.045
309
GRIDFORMAT_END
 95
       32
302
GRIDFORMAT
  1
GRIDFORMAT_BEGIN
 90
        0
 91
        1
 62
     0
 92
       -2
340
0
 93
        0
 40
0.045
309
GRIDFORMAT_END
309
TABLEFORMAT_END
  1
CELLSTYLE_BEGIN
 90
        3
 91
        2
300
_DATA
309
CELLSTYLE_END
  0
ENDSEC
  0
EOF
