  0
SECTION
  2
HEADER
  9
$ACADVER
  1
AC1032
  9
$ACADMAINTVER
 90
       55
  9
$DWGCODEPAGE
  3
ANSI_1252
  9
$LASTSAVEDBY
  1
eac573
  9
$REQUIREDVERSIONS
160
                 0
  9
$INSBASE
 10
0.0
 20
0.0
 30
0.0
  9
$EXTMIN
 10
49.26213795851703
 20
156.8490739047784
 30
0.0
  9
$EXTMAX
 10
63.77413558490155
 20
162.7767146706479
 30
0.0
  9
$LIMMIN
 10
0.0
 20
0.0
  9
$LIMMAX
 10
420.0
 20
297.0
  9
$ORTHOMODE
 70
     0
  9
$REGENMODE
 70
     1
  9
$FILLMODE
 70
     1
  9
$QTEXTMODE
 70
     0
  9
$MIRRTEXT
 70
     0
  9
$LTSCALE
 40
1.0
  9
$ATTMODE
 70
     1
  9
$TEXTSIZE
 40
2.5
  9
$TRACEWID
 40
1.0
  9
$TEXTSTYLE
  7
Standard
  9
$CLAYER
  8
0
  9
$CELTYPE
  6
ByLayer
  9
$CECOLOR
 62
   256
  9
$CELTSCALE
 40
1.0
  9
$DISPSILH
 70
     0
  9
$DIMSCALE
 40
1.0
  9
$DIMASZ
 40
2.5
  9
$DIMEXO
 40
0.625
  9
$DIMDLI
 40
3.75
  9
$DIMRND
 40
0.0
  9
$DIMDLE
 40
0.0
  9
$DIMEXE
 40
1.25
  9
$DIMTP
 40
0.0
  9
$DIMTM
 40
0.0
  9
$DIMTXT
 40
2.5
  9
$DIMCEN
 40
-2.5
  9
$DIMTSZ
 40
0.0
  9
$DIMTOL
 70
     0
  9
$DIMLIM
 70
     0
  9
$DIMTIH
 70
     0
  9
$DIMTOH
 70
     0
  9
$DIMSE1
 70
     0
  9
$DIMSE2
 70
     0
  9
$DIMTAD
 70
     1
  9
$DIMZIN
 70
     8
  9
$DIMBLK
  1

  9
$DIMASO
 70
     1
  9
$DIMSHO
 70
     1
  9
$DIMPOST
  1

  9
$DIMAPOST
  1

  9
$DIMALT
 70
     0
  9
$DIMALTD
 70
     3
  9
$DIMALTF
 40
0.03937007874016
  9
$DIMLFAC
 40
1.0
  9
$DIMTOFL
 70
     1
  9
$DIMTVP
 40
0.0
  9
$DIMTIX
 70
     0
  9
$DIMSOXD
 70
     0
  9
$DIMSAH
 70
     0
  9
$DIMBLK1
  1

  9
$DIMBLK2
  1

  9
$DIMSTYLE
  2
ISO-25
  9
$DIMCLRD
 70
     0
  9
$DIMCLRE
 70
     0
  9
$DIMCLRT
 70
     0
  9
$DIMTFAC
 40
1.0
  9
$DIMGAP
 40
0.625
  9
$DIMJUST
 70
     0
  9
$DIMSD1
 70
     0
  9
$DIMSD2
 70
     0
  9
$DIMTOLJ
 70
     0
  9
$DIMTZIN
 70
     8
  9
$DIMALTZ
 70
     0
  9
$DIMALTTZ
 70
     0
  9
$DIMUPT
 70
     0
  9
$DIMDEC
 70
     2
  9
$DIMTDEC
 70
     2
  9
$DIMALTU
 70
     2
  9
$DIMALTTD
 70
     3
  9
$DIMTXSTY
  7
Standard
  9
$DIMAUNIT
 70
     0
  9
$DIMADEC
 70
     0
  9
$DIMALTRND
 40
0.0
  9
$DIMAZIN
 70
     0
  9
$DIMDSEP
 70
    44
  9
$DIMATFIT
 70
     3
  9
$DIMFRAC
 70
     0
  9
$DIMLDRBLK
  1

  9
$DIMLUNIT
 70
     2
  9
$DIMLWD
 70
    -2
  9
$DIMLWE
 70
    -2
  9
$DIMTMOVE
 70
     0
  9
$DIMFXL
 40
1.0
  9
$DIMFXLON
 70
     0
  9
$DIMJOGANG
 40
0.7853981633974483
  9
$DIMTFILL
 70
     0
  9
$DIMTFILLCLR
 70
     0
  9
$DIMARCSYM
 70
     0
  9
$DIMLTYPE
  6

  9
$DIMLTEX1
  6

  9
$DIMLTEX2
  6

  9
$DIMTXTDIRECTION
 70
     0
  9
$LUNITS
 70
     2
  9
$LUPREC
 70
     3
  9
$SKETCHINC
 40
1.0
  9
$FILLETRAD
 40
10.0
  9
$AUNITS
 70
     0
  9
$AUPREC
 70
     0
  9
$MENU
  1
.
  9
$ELEVATION
 40
0.0
  9
$PELEVATION
 40
0.0
  9
$THICKNESS
 40
0.0
  9
$LIMCHECK
 70
     0
  9
$CHAMFERA
 40
10.0
  9
$CHAMFERB
 40
10.0
  9
$CHAMFERC
 40
20.0
  9
$CHAMFERD
 40
0.0
  9
$SKPOLY
 70
     0
  9
$TDCREATE
 40
2455022.637359514
  9
$TDUCREATE
 40
2455022.637359514
  9
$TDUPDATE
 40
2459661.624892373
  9
$TDUUPDATE
 40
2459661.624892373
  9
$TDINDWG
 40
0.0172089583
  9
$TDUSRTIMER
 40
2458964.444665266
  9
$USRTIMER
 70
     1
  9
$ANGBASE
 50
0.0
  9
$ANGDIR
 70
     0
  9
$PDMODE
 70
     0
  9
$PDSIZE
 40
0.0
  9
$PLINEWID
 40
0.0
  9
$SPLFRAME
 70
     0
  9
$SPLINETYPE
 70
     6
  9
$SPLINESEGS
 70
     8
  9
$HANDSEED
  5
4F9
  9
$SURFTAB1
 70
     6
  9
$SURFTAB2
 70
     6
  9
$SURFTYPE
 70
     6
  9
$SURFU
 70
     6
  9
$SURFV
 70
     6
  9
$UCSBASE
  2

  9
$UCSNAME
  2

  9
$UCSORG
 10
0.0
 20
0.0
 30
0.0
  9
$UCSXDIR
 10
1.0
 20
0.0
 30
0.0
  9
$UCSYDIR
 10
0.0
 20
1.0
 30
0.0
  9
$UCSORTHOREF
  2

  9
$UCSORTHOVIEW
 70
     0
  9
$UCSORGTOP
 10
0.0
 20
0.0
 30
0.0
  9
$UCSORGBOTTOM
 10
0.0
 20
0.0
 30
0.0
  9
$UCSORGLEFT
 10
0.0
 20
0.0
 30
0.0
  9
$UCSORGRIGHT
 10
0.0
 20
0.0
 30
0.0
  9
$UCSORGFRONT
 10
0.0
 20
0.0
 30
0.0
  9
$UCSORGBACK
 10
0.0
 20
0.0
 30
0.0
  9
$PUCSBASE
  2

  9
$PUCSNAME
  2

  9
$PUCSORG
 10
0.0
 20
0.0
 30
0.0
  9
$PUCSXDIR
 10
1.0
 20
0.0
 30
0.0
  9
$PUCSYDIR
 10
0.0
 20
1.0
 30
0.0
  9
$PUCSORTHOREF
  2

  9
$PUCSORTHOVIEW
 70
     0
  9
$PUCSORGTOP
 10
0.0
 20
0.0
 30
0.0
  9
$PUCSORGBOTTOM
 10
0.0
 20
0.0
 30
0.0
  9
$PUCSORGLEFT
 10
0.0
 20
0.0
 30
0.0
  9
$PUCSORGRIGHT
 10
0.0
 20
0.0
 30
0.0
  9
$PUCSORGFRONT
 10
0.0
 20
0.0
 30
0.0
  9
$PUCSORGBACK
 10
0.0
 20
0.0
 30
0.0
  9
$USERI1
 70
     0
  9
$USERI2
 70
     0
  9
$USERI3
 70
     0
  9
$USERI4
 70
     0
  9
$USERI5
 70
     0
  9
$USERR1
 40
0.0
  9
$USERR2
 40
0.0
  9
$USERR3
 40
0.0
  9
$USERR4
 40
0.0
  9
$USERR5
 40
0.0
  9
$WORLDVIEW
 70
     1
  9
$SHADEDGE
 70
     3
  9
$SHADEDIF
 70
    70
  9
$TILEMODE
 70
     1
  9
$MAXACTVP
 70
    64
  9
$PINSBASE
 10
0.0
 20
0.0
 30
0.0
  9
$PLIMCHECK
 70
     0
  9
$PEXTMIN
 10
1.000000000000000E+20
 20
1.000000000000000E+20
 30
1.000000000000000E+20
  9
$PEXTMAX
 10
-1.000000000000000E+20
 20
-1.000000000000000E+20
 30
-1.000000000000000E+20
  9
$PLIMMIN
 10
0.0
 20
0.0
  9
$PLIMMAX
 10
420.0
 20
297.0
  9
$UNITMODE
 70
     0
  9
$VISRETAIN
 70
     1
  9
$PLINEGEN
 70
     0
  9
$PSLTSCALE
 70
     1
  9
$TREEDEPTH
 70
  3020
  9
$CMLSTYLE
  2
Standard
  9
$CMLJUST
 70
     0
  9
$CMLSCALE
 40
20.0
  9
$PROXYGRAPHICS
 70
     1
  9
$MEASUREMENT
 70
     1
  9
$CELWEIGHT
370
    -1
  9
$ENDCAPS
280
     0
  9
$JOINSTYLE
280
     0
  9
$LWDISPLAY
290
     0
  9
$INSUNITS
 70
     4
  9
$HYPERLINKBASE
  1

  9
$STYLESHEET
  1

  9
$XEDIT
290
     1
  9
$CEPSNTYPE
380
     0
  9
$PSTYLEMODE
290
     1
  9
$FINGERPRINTGUID
  2
{EC6BB858-51AA-46EC-B484-6C9CC7AB3E2E}
  9
$VERSIONGUID
  2
{FAEB1C32-E019-11D5-929B-00C0DF256EC4}
  9
$EXTNAMES
290
     1
  9
$PSVPSCALE
 40
0.0
  9
$OLESTARTUP
290
     0
  9
$SORTENTS
280
   127
  9
$INDEXCTL
280
     0
  9
$HIDETEXT
280
     1
  9
$XCLIPFRAME
280
     0
  9
$HALOGAP
280
     0
  9
$OBSCOLOR
 70
   257
  9
$OBSLTYPE
280
     0
  9
$INTERSECTIONDISPLAY
280
     0
  9
$INTERSECTIONCOLOR
 70
   257
  9
$DIMASSOC
280
     2
  9
$PROJECTNAME
  1

  9
$CAMERADISPLAY
290
     0
  9
$LENSLENGTH
 40
50.0
  9
$CAMERAHEIGHT
 40
0.0
  9
$STEPSPERSEC
 40
2.0
  9
$STEPSIZE
 40
6.0
  9
$3DDWFPREC
 40
2.0
  9
$PSOLWIDTH
 40
5.0
  9
$PSOLHEIGHT
 40
80.0
  9
$LOFTANG1
 40
1.570796326794897
  9
$LOFTANG2
 40
1.570796326794897
  9
$LOFTMAG1
 40
0.0
  9
$LOFTMAG2
 40
0.0
  9
$LOFTPARAM
 70
     7
  9
$LOFTNORMALS
280
     1
  9
$LATITUDE
 40
37.795
  9
$LONGITUDE
 40
-122.394
  9
$NORTHDIRECTION
 40
0.0
  9
$TIMEZONE
 70
 -8000
  9
$LIGHTGLYPHDISPLAY
280
     1
  9
$TILEMODELIGHTSYNCH
280
     1
  9
$CMATERIAL
347
73
  9
$SOLIDHIST
280
     1
  9
$SHOWHIST
280
     1
  9
$DWFFRAME
280
     2
  9
$DGNFRAME
280
     2
  9
$REALWORLDSCALE
290
     1
  9
$INTERFERECOLOR
 62
   256
  9
$CSHADOW
280
     0
  9
$SHADOWPLANELOCATION
 40
0.0
  0
ENDSEC
  0
SECTION
  2
CLASSES
  0
CLASS
  1
ACDBDICTIONARYWDFLT
  2
AcDbDictionaryWithDefault
  3
ObjectDBX Classes
 90
        0
 91
        3
280
     0
281
     0
  0
CLASS
  1
VISUALSTYLE
  2
AcDbVisualStyle
  3
ObjectDBX Classes
 90
     4095
 91
        3
280
     0
281
     0
  0
CLASS
  1
TABLESTYLE
  2
AcDbTableStyle
  3
ObjectDBX Classes
 90
     4095
 91
        3
280
     0
281
     0
  0
CLASS
  1
DICTIONARYVAR
  2
AcDbDictionaryVar
  3
ObjectDBX Classes
 90
        0
 91
        3
280
     0
281
     0
  0
CLASS
  1
SCALE
  2
AcDbScale
  3
ObjectDBX Classes
 90
     1153
 91
        3
280
     0
281
     0
  0
CLASS
  1
CELLSTYLEMAP
  2
AcDbCellStyleMap
  3
ObjectDBX Classes
 90
     1152
 91
        3
280
     0
281
     0
  0
CLASS
  1
RASTERVARIABLES
  2
AcDbRasterVariables
  3
ISM
 90
        0
 91
        3
280
     0
281
     0
  0
CLASS
  1
MATERIAL
  2
AcDbMaterial
  3
ObjectDBX Classes
 90
     1153
 91
        3
280
     0
281
     0
  0
CLASS
  1
SUN
  2
AcDbSun
  3
SCENEOE
 90
     1153
 91
        3
280
     0
281
     0
  0
CLASS
  1
MLEADERSTYLE
  2
AcDbMLeaderStyle
  3
ACDB_MLEADERSTYLE_CLASS
 90
     4095
 91
        3
280
     0
281
     0
  0
CLASS
  1
SORTENTSTABLE
  2
AcDbSortentsTable
  3
ObjectDBX Classes
 90
        0
 91
        3
280
     0
281
     0
  0
CLASS
  1
IMAGE
  2
AcDbRasterImage
  3
ISM
 90
      127
 91
        4
280
     0
281
     1
  0
CLASS
  1
IMAGEDEF
  2
AcDbRasterImageDef
  3
ISM
 90
        0
 91
        3
280
     0
281
     0
  0
CLASS
  1
IMAGEDEF_REACTOR
  2
AcDbRasterImageDefReactor
  3
ISM
 90
        1
 91
        3
280
     0
281
     0
  0
CLASS
  1
ACDB_HATCHSCALECONTEXTDATA_CLASS
  2
AcDbHatchScaleContextData
  3
ObjectDBX Classes
 90
     1153
 91
        4
280
     0
281
     0
  0
ENDSEC
  0
SECTION
  2
TABLES
  0
TABLE
  2
VPORT
  5
8
330
0
100
AcDbSymbolTable
 70
     1
  0
VPORT
  5
29
330
8
100
AcDbSymbolTableRecord
100
AcDbViewportTableRecord
  2
*Active
 70
     0
 10
0.0
 20
0.0
 11
1.0
 21
1.0
 12
191.766877042081
 22
162.46815066805
 13
0.0
 23
0.0
 14
10.0
 24
10.0
 15
10.0
 25
10.0
 16
0.0
 26
0.0
 36
1.0
 17
-134.1869158878503
 27
0.0
 37
0.0
 40
11.92756406607808
 41
2.705202312138729
 42
50.0
 43
0.0
 44
0.0
 50
0.0
 51
0.0
 71
    16
 72
  1000
 73
     1
 74
     3
 75
     0
 76
     0
 77
     0
 78
     0
281
     0
 65
     1
110
0.0
120
0.0
130
0.0
111
1.0
121
0.0
131
0.0
112
0.0
122
1.0
132
0.0
 79
     0
146
0.0
348
2F
 60
     3
 61
     5
292
     1
282
     1
141
0.0
142
0.0
 63
   256
361
80
  0
ENDTAB
  0
TABLE
  2
LTYPE
  5
5
330
0
100
AcDbSymbolTable
 70
     3
  0
LTYPE
  5
14
330
5
100
AcDbSymbolTableRecord
100
AcDbLinetypeTableRecord
  2
ByBlock
 70
     0
  3

 72
    65
 73
     0
 40
0.0
  0
LTYPE
  5
15
330
5
100
AcDbSymbolTableRecord
100
AcDbLinetypeTableRecord
  2
ByLayer
 70
     0
  3

 72
    65
 73
     0
 40
0.0
  0
LTYPE
  5
16
330
5
100
AcDbSymbolTableRecord
100
AcDbLinetypeTableRecord
  2
Continuous
 70
     0
  3
Solid line
 72
    65
 73
     0
 40
0.0
  0
LTYPE
  5
C2
330
5
100
AcDbSymbolTableRecord
100
AcDbLinetypeTableRecord
  2
DASHDOT
 70
     0
  3
DashDot __  . __  . __  . __  . __  . __  . __ 
 72
    65
 73
     4
 40
25.4
 49
12.7
 74
     0
 49
-6.35
 74
     0
 49
0.0
 74
     0
 49
-6.35
 74
     0
  0
LTYPE
  5
253
330
5
100
AcDbSymbolTableRecord
100
AcDbLinetypeTableRecord
  2
DASH2DOT
 70
     0
  3
DashDotDot ____ . . ____ . . ____ . . ____ . . 
 72
    65
 73
     6
 40
31.75
 49
12.7
 74
     0
 49
-6.35
 74
     0
 49
0.0
 74
     0
 49
-6.35
 74
     0
 49
0.0
 74
     0
 49
-6.35
 74
     0
  0
ENDTAB
  0
TABLE
  2
LAYER
  5
2
102
{ACAD_XDICTIONARY
360
F6
102
}
330
0
100
AcDbSymbolTable
 70
     9
  0
LAYER
  5
10
330
2
100
AcDbSymbolTableRecord
100
AcDbLayerTableRecord
  2
0
 70
     0
 62
     7
  6
Continuous
370
    -3
390
F
347
75
348
0
  0
LAYER
  5
BE
330
2
100
AcDbSymbolTableRecord
100
AcDbLayerTableRecord
  2
Context 1
 70
     0
 62
     7
  6
Continuous
370
    -3
390
F
347
75
348
0
1001
AcAecLayerStandard
1000

1000

  0
LAYER
  5
12B
330
2
100
AcDbSymbolTableRecord
100
AcDbLayerTableRecord
  2
aOD
 70
     0
 62
     7
  6
Continuous
370
    -3
390
F
347
75
348
0
1001
AcAecLayerStandard
1000

1000

  0
LAYER
  5
359
330
2
100
AcDbSymbolTableRecord
100
AcDbLayerTableRecord
  2
Section Point
 70
     0
 62
     7
  6
Continuous
370
    -3
390
F
347
75
348
0
1001
AcAecLayerStandard
1000

1000

  0
LAYER
  5
35F
330
2
100
AcDbSymbolTableRecord
100
AcDbLayerTableRecord
  2
Co-ord
 70
     0
 62
     7
  6
Continuous
370
    -3
390
F
347
75
348
0
1001
AcAecLayerStandard
1000

1000

  0
LAYER
  5
363
330
2
100
AcDbSymbolTableRecord
100
AcDbLayerTableRecord
  2
Drawing Point
 70
     0
 62
     7
  6
Continuous
370
    -3
390
F
347
75
348
0
1001
AcAecLayerStandard
1000

1000

  0
LAYER
  5
370
330
2
100
AcDbSymbolTableRecord
100
AcDbLayerTableRecord
  2
Annotatons
 70
     0
 62
     7
  6
Continuous
370
    -3
390
F
347
75
348
0
1001
AcAecLayerStandard
1000

1000

  0
LAYER
  5
371
330
2
100
AcDbSymbolTableRecord
100
AcDbLayerTableRecord
  2
Evaluation trench (LOE)
 70
     0
 62
     7
  6
Continuous
370
    -3
390
F
347
75
348
0
1001
AcAecLayerStandard
1000

1000

  0
LAYER
  5
373
330
2
100
AcDbSymbolTableRecord
100
AcDbLayerTableRecord
  2
Details
 70
     0
 62
     7
  6
Continuous
370
    -3
390
F
347
75
348
0
1001
AcAecLayerStandard
1000

1000

  0
ENDTAB
  0
TABLE
  2
STYLE
  5
3
330
0
100
AcDbSymbolTable
 70
     3
  0
STYLE
  5
11
330
3
100
AcDbSymbolTableRecord
100
AcDbTextStyleTableRecord
  2
Standard
 70
     0
 40
0.0
 41
1.0
 50
0.0
 71
     0
 42
2.5
  3
arial.ttf
  4

1001
ACAD
1000
Arial
1071
        0
  0
STYLE
  5
B8
330
3
100
AcDbSymbolTableRecord
100
AcDbTextStyleTableRecord
  2
Annotative
 70
     0
 40
0.0
 41
1.0
 50
0.0
 71
     0
 42
2.5
  3
arial.ttf
  4

1001
ACAD
1000
Arial
1071
        0
1001
AcadAnnotative
1000
AnnotativeData
1002
{
1070
     1
1070
     1
1002
}
  0
STYLE
  5
377
330
3
100
AcDbSymbolTableRecord
100
AcDbTextStyleTableRecord
  2
Text
 70
     0
 40
0.0
 41
1.0
 50
0.0
 71
     0
 42
2.5
  3
ARIALUNI.TTF
  4

1001
ACAD
1000
Arial Unicode MS
1071
        0
  0
ENDTAB
  0
TABLE
  2
VIEW
  5
6
330
0
100
AcDbSymbolTable
 70
     0
  0
ENDTAB
  0
TABLE
  2
UCS
  5
7
330
0
100
AcDbSymbolTable
 70
     0
  0
ENDTAB
  0
TABLE
  2
APPID
  5
9
330
0
100
AcDbSymbolTable
 70
     4
  0
APPID
  5
12
330
9
100
AcDbSymbolTableRecord
100
AcDbRegAppTableRecord
  2
ACAD
 70
     0
  0
APPID
  5
B9
330
9
100
AcDbSymbolTableRecord
100
AcDbRegAppTableRecord
  2
AcadAnnotative
 70
     0
  0
APPID
  5
C0
330
9
100
AcDbSymbolTableRecord
100
AcDbRegAppTableRecord
  2
AcAecLayerStandard
 70
     0
  0
APPID
  5
C5
330
9
100
AcDbSymbolTableRecord
100
AcDbRegAppTableRecord
  2
HATCHBACKGROUNDCOLOR
 70
     0
  0
ENDTAB
  0
TABLE
  2
DIMSTYLE
  5
A
330
0
100
AcDbSymbolTable
 70
     2
100
AcDbDimStyleTable
  0
DIMSTYLE
105
27
330
A
100
AcDbSymbolTableRecord
100
AcDbDimStyleTableRecord
  2
ISO-25
 70
     0
 41
2.5
 42
0.625
 43
3.75
 44
1.25
 73
     0
 74
     0
 77
     1
 78
     8
140
2.5
141
-2.5
143
0.03937007874016
147
0.625
171
     3
172
     1
178
     0
271
     2
272
     2
274
     3
278
    44
283
     0
284
     8
340
11
  0
DIMSTYLE
105
BA
330
A
100
AcDbSymbolTableRecord
100
AcDbDimStyleTableRecord
  2
Annotative
 70
     0
 40
0.0
 41
2.5
 42
0.625
 43
3.75
 44
1.25
 73
     0
 74
     0
 77
     1
 78
     8
140
2.5
141
-2.5
143
0.03937007874016
147
0.625
171
     3
172
     1
178
     0
271
     2
272
     2
274
     3
278
    44
283
     0
284
     8
340
11
1001
AcadAnnotative
1000
AnnotativeData
1002
{
1070
     1
1070
     1
1002
}
  0
ENDTAB
  0
TABLE
  2
BLOCK_RECORD
  5
1
330
0
100
AcDbSymbolTable
 70
     2
  0
BLOCK_RECORD
  5
1F
102
{ACAD_XDICTIONARY
360
227
102
}
330
1
100
AcDbSymbolTableRecord
100
AcDbBlockTableRecord
  2
*Model_Space
340
22
 70
     0
280
     1
281
     0
  0
BLOCK_RECORD
  5
1B
330
1
100
AcDbSymbolTableRecord
100
AcDbBlockTableRecord
  2
*Paper_Space
340
1E
 70
     0
280
     1
281
     0
  0
BLOCK_RECORD
  5
23
330
1
100
AcDbSymbolTableRecord
100
AcDbBlockTableRecord
  2
*Paper_Space0
340
26
 70
     0
280
     1
281
     0
  0
BLOCK_RECORD
  5
13A
330
1
100
AcDbSymbolTableRecord
100
AcDbBlockTableRecord
  2
aOD
340
0
102
{BLKREFS
331
14C
102
}
 70
     6
280
     1
281
     0
  0
ENDTAB
  0
ENDSEC
  0
SECTION
  2
BLOCKS
  0
BLOCK
  5
20
330
1F
100
AcDbEntity
  8
0
100
AcDbBlockBegin
  2
*Model_Space
 70
     0
 10
0.0
 20
0.0
 30
0.0
  3
*Model_Space
  1

  0
ENDBLK
  5
21
330
1F
100
AcDbEntity
  8
0
100
AcDbBlockEnd
  0
BLOCK
  5
1C
330
1B
100
AcDbEntity
 67
     1
  8
0
100
AcDbBlockBegin
  2
*Paper_Space
 70
     0
 10
0.0
 20
0.0
 30
0.0
  3
*Paper_Space
  1

  0
ENDBLK
  5
1D
330
1B
100
AcDbEntity
 67
     1
  8
0
100
AcDbBlockEnd
  0
BLOCK
  5
24
330
23
100
AcDbEntity
  8
0
100
AcDbBlockBegin
  2
*Paper_Space0
 70
     0
 10
0.0
 20
0.0
 30
0.0
  3
*Paper_Space0
  1

  0
ENDBLK
  5
25
330
23
100
AcDbEntity
  8
0
100
AcDbBlockEnd
  0
BLOCK
  5
13B
330
13A
100
AcDbEntity
  8
0
100
AcDbBlockBegin
  2
aOD
 70
     0
 10
0.0
 20
0.0
 30
0.0
  3
aOD
  1

  0
LWPOLYLINE
  5
13C
330
13A
100
AcDbEntity
  8
aOD
 62
     1
100
AcDbPolyline
 90
        2
 70
     0
 43
0.0
 10
-115.9863501218275
 20
383.7892450618204
 10
-116.0363501218275
 20
383.7892450618204
  0
LWPOLYLINE
  5
13D
330
13A
100
AcDbEntity
  8
aOD
 62
     1
100
AcDbPolyline
 90
        2
 70
     0
 43
0.0
 10
-116.0113501218275
 20
383.7892450618204
 10
-116.0363501218275
 20
383.7628064395357
  0
LWPOLYLINE
  5
13E
330
13A
100
AcDbEntity
  8
aOD
 62
     1
100
AcDbPolyline
 90
        2
 70
     0
 43
0.0
 10
-116.0113501218275
 20
383.7892450618204
 10
-115.9863501218275
 20
383.7628064395357
  0
ENDBLK
  5
13F
330
13A
100
AcDbEntity
  8
0
100
AcDbBlockEnd
  0
ENDSEC
  0
SECTION
  2
ENTITIES
  0
IMAGE
  5
FB
330
1F
100
AcDbEntity
  8
0
  6
DASHDOT
 48
0.1
370
    -2
160
               140
310
8C00000001000000840000000600000005000000776F93BC8DA14840219D099D2B9B63400000000000000000A8B3CCE060D44C40219D099D2B9B63400000000000000000A8B3CCE060D44C403298B9D8DA5864400000000000000000776F93BC8DA148403298B9D8DA5864400000000000000000776F93BC8DA14840219D09
310
9D2B9B63400000000000000000
100
AcDbRasterImage
 90
        0
 10
49.26213795851702
 20
156.8490739047784
 30
0.0
 11
0.002535346777531864
 21
0.0
 31
0.0
 12
0.0
 22
0.002535346777531864
 32
0.0
 13
3312.0
 23
2338.0
340
CE
 70
     3
280
     0
281
    50
282
    50
283
     0
360
FC
 71
     1
 91
        2
 14
-0.5
 24
-0.5
 14
3311.5
 24
2337.5
290
     0
  0
LWPOLYLINE
  5
FD
330
1F
100
AcDbEntity
  8
0
 62
    18
420
   327680
100
AcDbPolyline
 90
       11
 70
     0
 43
0.0
 10
51.57031692926495
 20
161.5014261899927
 10
51.57031692926495
 20
161.428258569795
 10
51.59726681807232
 20
161.2982649884889
 10
51.64437493885124
 20
160.9818979401583
 10
51.66419103356254
 20
160.7857186025164
 10
51.67211747144706
 20
160.656913986893
 10
51.69321464571879
 20
160.538311563781
 10
51.71055372859117
 20
160.3054724509232
 10
51.71798476410792
 20
160.0825413854211
 10
51.69720689214353
 20
159.7137781830685
 10
51.69720689214353
 20
159.6444218515789
  0
LWPOLYLINE
  5
FE
330
1F
100
AcDbEntity
  8
Context 1
 62
    18
420
   327680
100
AcDbPolyline
 90
       12
 70
     0
 43
0.0
 10
54.86361158254234
 20
161.5014261899927
 10
54.90300060666197
 20
161.3510317342632
 10
54.93074313925779
 20
161.2143006807552
 10
54.93668796767118
 20
161.0458638757092
 10
54.92677992031553
 20
160.8833718990765
 10
54.90124347638874
 20
160.7306641192075
 10
54.85170323961048
 20
160.6216755982954
 10
54.81801587860127
 20
160.4809813258451
 10
54.81207105018787
 20
160.3462318818083
 10
54.78836140249229
 20
160.0067167708098
 10
54.79083841433121
 20
159.8680041078307
 10
54.7951402097703
 20
159.6443107449985
  0
LWPOLYLINE
  5
FF
330
1F
100
AcDbEntity
  8
0
 62
     0
100
AcDbPolyline
 90
        9
 70
     0
 43
0.0
 10
53.05823001404257
 20
161.5617584668862
 10
53.09043116794845
 20
161.3388274013841
 10
53.14244841656561
 20
161.1059882885263
 10
53.21630158888383
 20
160.7939815550983
 10
53.25345676646752
 20
160.6422645799649
 10
53.30918953284304
 20
160.3976596608722
 10
53.42301354854622
 20
160.0199969952325
 10
53.49654983751393
 20
159.7374628323566
 10
53.5208127299367
 20
159.6443564484253
  0
LWPOLYLINE
  5
103
330
1F
100
AcDbEntity
  8
0
 62
    18
420
   327680
100
AcDbPolyline
 90
        2
 70
     0
 43
0.0
 10
54.75963740129797
 20
161.4215693113168
 10
54.88600283993637
 20
161.4159322981245
  0
LWPOLYLINE
  5
106
330
1F
100
AcDbEntity
  8
0
 62
    18
420
   327680
100
AcDbPolyline
 90
        2
 70
     0
 43
0.0
 10
54.79376700151092
 20
161.2869846953393
 10
54.91924207402258
 20
161.2709845022716
  0
LWPOLYLINE
  5
109
330
1F
100
AcDbEntity
  8
0
 62
    18
420
   327680
100
AcDbPolyline
 90
        2
 70
     0
 43
0.0
 10
54.8122488651377
 20
161.1653787883563
 10
54.93371555346449
 20
161.1300822782322
  0
LWPOLYLINE
  5
10C
330
1F
100
AcDbEntity
  8
0
 62
    18
420
   327680
100
AcDbPolyline
 90
        2
 70
     0
 43
0.0
 10
54.81640850429093
 20
161.0281314613622
 10
54.93255133855236
 20
160.9780231581607
  0
LWPOLYLINE
  5
10F
330
1F
100
AcDbEntity
  8
0
 62
    18
420
   327680
100
AcDbPolyline
 90
        2
 70
     0
 43
0.0
 10
54.79527417864785
 20
160.8276963822734
 10
54.90781224944762
 20
160.7699453422769
  0
LWPOLYLINE
  5
112
330
1F
100
AcDbEntity
  8
0
 62
    18
420
   327680
100
AcDbPolyline
 90
        2
 70
     0
 43
0.0
 10
53.20312658352893
 20
161.3911361351955
 10
53.07920879018267
 20
161.4165207859162
  0
LWPOLYLINE
  5
115
330
1F
100
AcDbEntity
  8
0
 62
    18
420
   327680
100
AcDbPolyline
 90
        2
 70
     0
 43
0.0
 10
53.2345509243051
 20
161.2408841717817
 10
53.10895538319395
 20
161.2559094855231
  0
LWPOLYLINE
  5
118
330
1F
100
AcDbEntity
  8
0
 62
    18
420
   327680
100
AcDbPolyline
 90
        2
 70
     0
 43
0.0
 10
53.26804395767673
 20
161.0909629747849
 10
53.14244841656558
 20
161.1059882885263
  0
LWPOLYLINE
  5
11B
330
1F
100
AcDbEntity
  8
0
 62
    18
420
   327680
100
AcDbPolyline
 90
        2
 70
     0
 43
0.0
 10
53.30678949580085
 20
160.9272751005128
 10
53.1811939546897
 20
160.9423004142542
  0
LWPOLYLINE
  5
11E
330
1F
100
AcDbEntity
  8
0
 62
    18
420
   327680
100
AcDbPolyline
 90
        2
 70
     0
 43
0.0
 10
53.34799588457911
 20
160.7540529934716
 10
53.22240034346796
 20
160.7690783072129
  0
LWPOLYLINE
  5
121
330
1F
100
AcDbEntity
  8
0
  6
DASH2DOT
 62
     5
 48
0.005
100
AcDbPolyline
 90
        2
 70
     0
 43
0.0
 10
51.47943792002723
 20
161.5014261899927
 10
55.11197936184865
 20
161.5014261899927
  0
LINE
  5
125
330
1F
100
AcDbEntity
  8
0
  6
DASHDOT
 48
0.005
100
AcDbLine
 10
55.90072937828996
 20
159.6443107449985
 30
0.0
 11
50.44718894371404
 21
159.6443107449985
 31
0.0
  0
MTEXT
  5
14B
330
1F
100
AcDbEntity
  8
0
100
AcDbMText
 10
55.16197936184864
 20
161.4614261899926
 30
0.0
 40
0.025
 41
0.1442806233542349
 46
0.0990393427018454
 71
     1
 72
     5
  1
{\fArial|b0|i0|c0|p0;E.442873.113\PN.258765.528
 73
     1
 44
1.0
  0
INSERT
  5
14C
330
1F
100
AcDbEntity
  8
0
 62
     1
100
AcDbBlockReference
  2
aOD
 10
171.2713849964692
 20
-222.2878188718277
 30
0.0
  0
MTEXT
  5
14D
330
1F
100
AcDbEntity
  8
0
 62
     1
100
AcDbMText
 10
55.25919263034161
 20
161.5042971007946
 30
0.0
 40
0.025
 41
0.1015759086396038
 46
0.0262644061505477
 71
     8
 72
     5
  1
{\fArial|b0|i0|c0|p0;104.33
 73
     1
 44
1.0
  0
CIRCLE
  5
14E
330
1F
100
AcDbEntity
  8
0
 62
     5
100
AcDbCircle
 10
55.11197936184865
 20
161.5014261899927
 30
0.0
 40
0.0264386222847008
  0
LWPOLYLINE
  5
14F
330
1F
100
AcDbEntity
  8
0
 62
     5
100
AcDbPolyline
 90
        2
 70
     0
 43
0.0
 10
55.16197936184864
 20
161.5014261899927
 10
55.06197936184865
 20
161.5014261899927
  0
LWPOLYLINE
  5
167
330
1F
100
AcDbEntity
  8
0
  6
DASHDOT
 48
0.005
100
AcDbPolyline
 90
        2
 70
     0
 43
0.0
 10
56.28471845509114
 20
160.6936115243915
 10
56.28482168552607
 20
160.8585898912075
  0
LWPOLYLINE
  5
168
330
1F
100
AcDbEntity
  8
0
 62
     5
100
AcDbPolyline
 90
        2
 70
     0
 43
0.0
 10
56.28471845509114
 20
160.7436115243916
 10
56.28471845509114
 20
160.6436115243915
  0
CIRCLE
  5
169
330
1F
100
AcDbEntity
  8
0
 62
     5
100
AcDbCircle
 10
56.28471845509114
 20
160.6936115243915
 30
0.0
 40
0.0264386222847008
  0
LWPOLYLINE
  5
16A
330
1F
100
AcDbEntity
  8
0
 62
     5
100
AcDbPolyline
 90
        2
 70
     0
 43
0.0
 10
56.33471845509114
 20
160.6936115243915
 10
56.23471845509114
 20
160.6936115243915
  0
LWPOLYLINE
  5
19A
330
1F
100
AcDbEntity
  8
0
 62
     5
100
AcDbPolyline
 90
        2
 70
     0
 43
0.0
 10
55.11197936184865
 20
161.5514261899927
 10
55.11197936184865
 20
161.4514261899926
  0
CIRCLE
  5
19B
330
1F
100
AcDbEntity
  8
0
 62
     5
100
AcDbCircle
 10
55.11197936184865
 20
161.5014261899927
 30
0.0
 40
0.0264386222847008
  0
LWPOLYLINE
  5
19C
330
1F
100
AcDbEntity
  8
0
 62
     5
100
AcDbPolyline
 90
        2
 70
     0
 43
0.0
 10
55.16197936184864
 20
161.5014261899927
 10
55.06197936184865
 20
161.5014261899927
  0
MTEXT
  5
1B2
330
1F
100
AcDbEntity
  8
0
100
AcDbMText
 10
51.21557847820295
 20
161.461835249376
 30
0.0
 40
0.025
 41
0.1442806233542349
 46
0.0990393427018454
 71
     1
 72
     5
  1
{\fArial|b0|i0|c0|p0;E.442874.775\PN.258768.750
 73
     1
 44
1.0
  0
LWPOLYLINE
  5
1B3
330
1F
100
AcDbEntity
  8
0
 62
     5
100
AcDbPolyline
 90
        2
 70
     0
 43
0.0
 10
51.47943792002723
 20
161.5514261899927
 10
51.47943792002723
 20
161.4514261899926
  0
CIRCLE
  5
1B4
330
1F
100
AcDbEntity
  8
0
 62
     5
100
AcDbCircle
 10
51.47943792002723
 20
161.5014261899927
 30
0.0
 40
0.0264386222847008
  0
LWPOLYLINE
  5
1B5
330
1F
100
AcDbEntity
  8
0
 62
     5
100
AcDbPolyline
 90
        2
 70
     0
 43
0.0
 10
51.47943792002723
 20
161.5514261899927
 10
51.47943792002723
 20
161.4514261899926
  0
CIRCLE
  5
1B6
330
1F
100
AcDbEntity
  8
0
 62
     5
100
AcDbCircle
 10
51.47943792002723
 20
161.5014261899927
 30
0.0
 40
0.0264386222847008
  0
LWPOLYLINE
  5
1B7
330
1F
100
AcDbEntity
  8
0
 62
     5
100
AcDbPolyline
 90
        2
 70
     0
 43
0.0
 10
51.52943792002723
 20
161.5014261899927
 10
51.42943792002723
 20
161.5014261899927
  0
LWPOLYLINE
  5
217
102
{ACAD_REACTORS
330
236
102
}
330
1F
100
AcDbEntity
  8
0
100
AcDbPolyline
 90
        4
 70
     1
 43
0.0
 10
54.90781224944762
 20
160.7699453422769
 10
54.92094051997598
 20
160.848452320447
 10
54.91995525928554
 20
160.849018392756
 10
54.79527417864784
 20
160.8276963822734
  0
LWPOLYLINE
  5
218
102
{ACAD_REACTORS
330
237
102
}
330
1F
100
AcDbEntity
  8
0
100
AcDbPolyline
 90
        4
 70
     1
 43
0.0
 10
54.93255133855236
 20
160.9780231581607
 10
54.93668796767118
 20
161.0458638757091
 10
54.93629541347627
 20
161.0569862445652
 10
54.81640850429092
 20
161.0281314613622
  0
LWPOLYLINE
  5
219
102
{ACAD_REACTORS
330
238
102
}
330
1F
100
AcDbEntity
  8
0
100
AcDbPolyline
 90
        4
 70
     1
 43
0.0
 10
54.93371555346449
 20
161.1300822782322
 10
54.93089776600297
 20
161.2099195896419
 10
54.93060012187349
 20
161.2100215932531
 10
54.81224886513769
 20
161.1653787883563
  0
LWPOLYLINE
  5
21A
102
{ACAD_REACTORS
330
239
102
}
330
1F
100
AcDbEntity
  8
0
100
AcDbPolyline
 90
        3
 70
     1
 43
0.0
 10
54.91924207402258
 20
161.2709845022716
 10
54.90336196964694
 20
161.3492507309801
 10
54.79376700151091
 20
161.2869846953393
  0
LWPOLYLINE
  5
21B
102
{ACAD_REACTORS
330
245
102
}
330
1F
100
AcDbEntity
  8
0
100
AcDbPolyline
 90
        4
 70
     1
 43
0.0
 10
54.88600283993637
 20
161.4159322981245
 10
54.86589315381929
 20
161.4927147360261
 10
54.86411196012404
 20
161.492878963946
 10
54.75963740129797
 20
161.4215693113167
  0
LWPOLYLINE
  5
21C
102
{ACAD_REACTORS
330
23A
102
}
330
1F
100
AcDbEntity
  8
0
100
AcDbPolyline
 90
        4
 70
     1
 43
0.0
 10
53.09062217644851
 20
161.3379724109552
 10
53.20312658352893
 20
161.3911361351955
 10
53.07920879018266
 20
161.4165207859162
 10
53.09043116794844
 20
161.3388274013841
  0
LWPOLYLINE
  5
21D
102
{ACAD_REACTORS
330
23B
102
}
330
1F
100
AcDbEntity
  8
0
100
AcDbPolyline
 90
        3
 70
     1
 43
0.0
 10
53.12630136094913
 20
161.1782655850953
 10
53.2345509243051
 20
161.2408841717817
 10
53.10895538319394
 20
161.2559094855231
  0
LWPOLYLINE
  5
21E
102
{ACAD_REACTORS
330
23C
102
}
330
1F
100
AcDbEntity
  8
0
100
AcDbPolyline
 90
        3
 70
     1
 43
0.0
 10
53.16070265729629
 20
161.0288697864659
 10
53.26804395767672
 20
161.0909629747849
 10
53.14244841656559
 20
161.1059882885263
  0
LWPOLYLINE
  5
21F
102
{ACAD_REACTORS
330
23D
102
}
330
1F
100
AcDbEntity
  8
0
100
AcDbPolyline
 90
        3
 70
     1
 43
0.0
 10
53.19944819542041
 20
160.8651819121938
 10
53.30678949580084
 20
160.9272751005128
 10
53.1811939546897
 20
160.9423004142542
  0
LWPOLYLINE
  5
220
102
{ACAD_REACTORS
330
23E
102
}
330
1F
100
AcDbEntity
  8
0
100
AcDbPolyline
 90
        3
 70
     1
 43
0.0
 10
53.2412080942843
 20
160.6922799913797
 10
53.34799588457911
 20
160.7540529934716
 10
53.22240034346797
 20
160.769078307213
  0
LWPOLYLINE
  5
221
102
{ACAD_REACTORS
330
23F
102
}
330
1F
100
AcDbEntity
  8
0
100
AcDbPolyline
 90
        4
 70
     1
 43
0.0
 10
51.67274182843722
 20
160.6534040262241
 10
51.78612245805787
 20
160.7069818076084
 10
51.6675415198936
 20
160.7312731996366
 10
51.67211747144706
 20
160.656913986893
  0
LWPOLYLINE
  5
222
102
{ACAD_REACTORS
330
240
102
}
330
1F
100
AcDbEntity
  8
0
100
AcDbPolyline
 90
        3
 70
     1
 43
0.0
 10
51.77254418032167
 20
160.8926940992309
 10
51.65086769891167
 20
160.91761961556
 10
51.65881400929356
 20
160.8389511427793
  0
LWPOLYLINE
  5
223
102
{ACAD_REACTORS
330
241
102
}
330
1F
100
AcDbEntity
  8
0
100
AcDbPolyline
 90
        3
 70
     1
 43
0.0
 10
51.64197130394062
 20
160.9980401863223
 10
51.75280336580087
 20
161.050413647297
 10
51.63044028203995
 20
161.0754798146206
  0
LWPOLYLINE
  5
224
102
{ACAD_REACTORS
330
242
102
}
330
1F
100
AcDbEntity
  8
0
100
AcDbPolyline
 90
        4
 70
     1
 43
0.0
 10
51.61513300552488
 20
161.1782798798531
 10
51.72797458548057
 20
161.2316029344362
 10
51.6040567921343
 20
161.256987585157
 10
51.60345136494443
 20
161.2567310277442
  0
LWPOLYLINE
  5
225
102
{ACAD_REACTORS
330
243
102
}
330
1F
100
AcDbEntity
  8
0
100
AcDbPolyline
 90
        3
 70
     1
 43
0.0
 10
51.59160757197703
 20
161.325562528478
 10
51.69886587381512
 20
161.376247216566
 10
51.57587652965609
 20
161.4014416737907
  0
HATCH
  5
236
330
1F
100
AcDbEntity
  8
0
100
AcDbHatch
 10
0.0
 20
0.0
 30
0.0
210
0.0
220
0.0
230
1.0
  2
SOLID
 70
     1
 71
     1
 91
        1
 92
        1
 93
        4
 72
     1
 10
54.90781224944762
 20
160.7699453422769
 11
54.92094051997598
 21
160.848452320447
 72
     1
 10
54.92094051997598
 20
160.848452320447
 11
54.91995525928554
 21
160.849018392756
 72
     1
 10
54.91995525928554
 20
160.849018392756
 11
54.79527417864784
 21
160.8276963822734
 72
     1
 10
54.79527417864784
 20
160.8276963822734
 11
54.90781224944762
 21
160.7699453422769
 97
        1
330
217
 75
     0
 76
     1
 98
        1
 10
0.0
 20
0.0
450
        1
451
        0
460
0.0
461
0.0
452
        0
462
0.0
453
        2
463
0.0
 63
    18
421
   327680
463
1.0
 63
    18
421
   327680
470
LINEAR
1001
ACAD
1010
0.0
1020
0.0
1030
0.0
  0
HATCH
  5
237
330
1F
100
AcDbEntity
  8
0
100
AcDbHatch
 10
0.0
 20
0.0
 30
0.0
210
0.0
220
0.0
230
1.0
  2
SOLID
 70
     1
 71
     1
 91
        1
 92
        1
 93
        4
 72
     1
 10
54.93255133855236
 20
160.9780231581607
 11
54.93668796767118
 21
161.0458638757091
 72
     1
 10
54.93668796767118
 20
161.0458638757091
 11
54.93629541347627
 21
161.0569862445652
 72
     1
 10
54.93629541347627
 20
161.0569862445652
 11
54.81640850429092
 21
161.0281314613622
 72
     1
 10
54.81640850429092
 20
161.0281314613622
 11
54.93255133855236
 21
160.9780231581607
 97
        1
330
218
 75
     0
 76
     1
 98
        1
 10
0.0
 20
0.0
450
        1
451
        0
460
0.0
461
0.0
452
        0
462
0.0
453
        2
463
0.0
 63
    18
421
   327680
463
1.0
 63
    18
421
   327680
470
LINEAR
1001
ACAD
1010
0.0
1020
0.0
1030
0.0
  0
HATCH
  5
238
330
1F
100
AcDbEntity
  8
0
100
AcDbHatch
 10
0.0
 20
0.0
 30
0.0
210
0.0
220
0.0
230
1.0
  2
SOLID
 70
     1
 71
     1
 91
        1
 92
        1
 93
        4
 72
     1
 10
54.93371555346449
 20
161.1300822782322
 11
54.93089776600297
 21
161.2099195896419
 72
     1
 10
54.93089776600297
 20
161.2099195896419
 11
54.93060012187349
 21
161.2100215932531
 72
     1
 10
54.93060012187349
 20
161.2100215932531
 11
54.81224886513769
 21
161.1653787883563
 72
     1
 10
54.81224886513769
 20
161.1653787883563
 11
54.93371555346449
 21
161.1300822782322
 97
        1
330
219
 75
     0
 76
     1
 98
        1
 10
0.0
 20
0.0
450
        1
451
        0
460
0.0
461
0.0
452
        0
462
0.0
453
        2
463
0.0
 63
    18
421
   327680
463
1.0
 63
    18
421
   327680
470
LINEAR
1001
ACAD
1010
0.0
1020
0.0
1030
0.0
  0
HATCH
  5
239
330
1F
100
AcDbEntity
  8
0
100
AcDbHatch
 10
0.0
 20
0.0
 30
0.0
210
0.0
220
0.0
230
1.0
  2
SOLID
 70
     1
 71
     1
 91
        1
 92
        1
 93
        3
 72
     1
 10
54.91924207402258
 20
161.2709845022716
 11
54.90336196964694
 21
161.3492507309801
 72
     1
 10
54.90336196964694
 20
161.3492507309801
 11
54.79376700151091
 21
161.2869846953393
 72
     1
 10
54.79376700151091
 20
161.2869846953393
 11
54.91924207402258
 21
161.2709845022716
 97
        1
330
21A
 75
     0
 76
     1
 98
        1
 10
0.0
 20
0.0
450
        1
451
        0
460
0.0
461
0.0
452
        0
462
0.0
453
        2
463
0.0
 63
    18
421
   327680
463
1.0
 63
    18
421
   327680
470
LINEAR
1001
ACAD
1010
0.0
1020
0.0
1030
0.0
  0
HATCH
  5
23A
330
1F
100
AcDbEntity
  8
0
100
AcDbHatch
 10
0.0
 20
0.0
 30
0.0
210
0.0
220
0.0
230
1.0
  2
SOLID
 70
     1
 71
     1
 91
        1
 92
        1
 93
        4
 72
     1
 10
53.09062217644851
 20
161.3379724109552
 11
53.20312658352893
 21
161.3911361351955
 72
     1
 10
53.20312658352893
 20
161.3911361351955
 11
53.07920879018266
 21
161.4165207859162
 72
     1
 10
53.07920879018266
 20
161.4165207859162
 11
53.09043116794844
 21
161.3388274013841
 72
     1
 10
53.09043116794844
 20
161.3388274013841
 11
53.09062217644851
 21
161.3379724109552
 97
        1
330
21C
 75
     0
 76
     1
 98
        1
 10
0.0
 20
0.0
450
        1
451
        0
460
0.0
461
0.0
452
        0
462
0.0
453
        2
463
0.0
 63
    18
421
   327680
463
1.0
 63
    18
421
   327680
470
LINEAR
1001
ACAD
1010
0.0
1020
0.0
1030
0.0
  0
HATCH
  5
23B
330
1F
100
AcDbEntity
  8
0
100
AcDbHatch
 10
0.0
 20
0.0
 30
0.0
210
0.0
220
0.0
230
1.0
  2
SOLID
 70
     1
 71
     1
 91
        1
 92
        1
 93
        3
 72
     1
 10
53.12630136094913
 20
161.1782655850953
 11
53.2345509243051
 21
161.2408841717817
 72
     1
 10
53.2345509243051
 20
161.2408841717817
 11
53.10895538319394
 21
161.2559094855231
 72
     1
 10
53.10895538319394
 20
161.2559094855231
 11
53.12630136094913
 21
161.1782655850953
 97
        1
330
21D
 75
     0
 76
     1
 98
        1
 10
0.0
 20
0.0
450
        1
451
        0
460
0.0
461
0.0
452
        0
462
0.0
453
        2
463
0.0
 63
    18
421
   327680
463
1.0
 63
    18
421
   327680
470
LINEAR
1001
ACAD
1010
0.0
1020
0.0
1030
0.0
  0
HATCH
  5
23C
330
1F
100
AcDbEntity
  8
0
100
AcDbHatch
 10
0.0
 20
0.0
 30
0.0
210
0.0
220
0.0
230
1.0
  2
SOLID
 70
     1
 71
     1
 91
        1
 92
        1
 93
        3
 72
     1
 10
53.16070265729629
 20
161.0288697864659
 11
53.26804395767672
 21
161.0909629747849
 72
     1
 10
53.26804395767672
 20
161.0909629747849
 11
53.14244841656559
 21
161.1059882885263
 72
     1
 10
53.14244841656559
 20
161.1059882885263
 11
53.16070265729629
 21
161.0288697864659
 97
        1
330
21E
 75
     0
 76
     1
 98
        1
 10
0.0
 20
0.0
450
        1
451
        0
460
0.0
461
0.0
452
        0
462
0.0
453
        2
463
0.0
 63
    18
421
   327680
463
1.0
 63
    18
421
   327680
470
LINEAR
1001
ACAD
1010
0.0
1020
0.0
1030
0.0
  0
HATCH
  5
23D
330
1F
100
AcDbEntity
  8
0
100
AcDbHatch
 10
0.0
 20
0.0
 30
0.0
210
0.0
220
0.0
230
1.0
  2
SOLID
 70
     1
 71
     1
 91
        1
 92
        1
 93
        3
 72
     1
 10
53.19944819542041
 20
160.8651819121938
 11
53.30678949580084
 21
160.9272751005128
 72
     1
 10
53.30678949580084
 20
160.9272751005128
 11
53.1811939546897
 21
160.9423004142542
 72
     1
 10
53.1811939546897
 20
160.9423004142542
 11
53.19944819542041
 21
160.8651819121938
 97
        1
330
21F
 75
     0
 76
     1
 98
        1
 10
0.0
 20
0.0
450
        1
451
        0
460
0.0
461
0.0
452
        0
462
0.0
453
        2
463
0.0
 63
    18
421
   327680
463
1.0
 63
    18
421
   327680
470
LINEAR
1001
ACAD
1010
0.0
1020
0.0
1030
0.0
  0
HATCH
  5
23E
330
1F
100
AcDbEntity
  8
0
100
AcDbHatch
 10
0.0
 20
0.0
 30
0.0
210
0.0
220
0.0
230
1.0
  2
SOLID
 70
     1
 71
     1
 91
        1
 92
        1
 93
        3
 72
     1
 10
53.2412080942843
 20
160.6922799913797
 11
53.34799588457911
 21
160.7540529934716
 72
     1
 10
53.34799588457911
 20
160.7540529934716
 11
53.22240034346797
 21
160.769078307213
 72
     1
 10
53.22240034346797
 20
160.769078307213
 11
53.2412080942843
 21
160.6922799913797
 97
        1
330
220
 75
     0
 76
     1
 98
        1
 10
0.0
 20
0.0
450
        1
451
        0
460
0.0
461
0.0
452
        0
462
0.0
453
        2
463
0.0
 63
    18
421
   327680
463
1.0
 63
    18
421
   327680
470
LINEAR
1001
ACAD
1010
0.0
1020
0.0
1030
0.0
  0
HATCH
  5
23F
330
1F
100
AcDbEntity
  8
0
100
AcDbHatch
 10
0.0
 20
0.0
 30
0.0
210
0.0
220
0.0
230
1.0
  2
SOLID
 70
     1
 71
     1
 91
        1
 92
        1
 93
        4
 72
     1
 10
51.67274182843722
 20
160.6534040262241
 11
51.78612245805787
 21
160.7069818076084
 72
     1
 10
51.78612245805787
 20
160.7069818076084
 11
51.6675415198936
 21
160.7312731996366
 72
     1
 10
51.6675415198936
 20
160.7312731996366
 11
51.67211747144706
 21
160.656913986893
 72
     1
 10
51.67211747144706
 20
160.656913986893
 11
51.67274182843722
 21
160.6534040262241
 97
        1
330
221
 75
     0
 76
     1
 98
        1
 10
0.0
 20
0.0
450
        1
451
        0
460
0.0
461
0.0
452
        0
462
0.0
453
        2
463
0.0
 63
    18
421
   327680
463
1.0
 63
    18
421
   327680
470
LINEAR
1001
ACAD
1010
0.0
1020
0.0
1030
0.0
  0
HATCH
  5
240
330
1F
100
AcDbEntity
  8
0
100
AcDbHatch
 10
0.0
 20
0.0
 30
0.0
210
0.0
220
0.0
230
1.0
  2
SOLID
 70
     1
 71
     1
 91
        1
 92
        1
 93
        3
 72
     1
 10
51.77254418032167
 20
160.8926940992309
 11
51.65086769891167
 21
160.91761961556
 72
     1
 10
51.65086769891167
 20
160.91761961556
 11
51.65881400929356
 21
160.8389511427793
 72
     1
 10
51.65881400929356
 20
160.8389511427793
 11
51.77254418032167
 21
160.8926940992309
 97
        1
330
222
 75
     0
 76
     1
 98
        1
 10
0.0
 20
0.0
450
        1
451
        0
460
0.0
461
0.0
452
        0
462
0.0
453
        2
463
0.0
 63
    18
421
   327680
463
1.0
 63
    18
421
   327680
470
LINEAR
1001
ACAD
1010
0.0
1020
0.0
1030
0.0
  0
HATCH
  5
241
330
1F
100
AcDbEntity
  8
0
100
AcDbHatch
 10
0.0
 20
0.0
 30
0.0
210
0.0
220
0.0
230
1.0
  2
SOLID
 70
     1
 71
     1
 91
        1
 92
        1
 93
        3
 72
     1
 10
51.64197130394062
 20
160.9980401863223
 11
51.75280336580087
 21
161.050413647297
 72
     1
 10
51.75280336580087
 20
161.050413647297
 11
51.63044028203995
 21
161.0754798146206
 72
     1
 10
51.63044028203995
 20
161.0754798146206
 11
51.64197130394062
 21
160.9980401863223
 97
        1
330
223
 75
     0
 76
     1
 98
        1
 10
0.0
 20
0.0
450
        1
451
        0
460
0.0
461
0.0
452
        0
462
0.0
453
        2
463
0.0
 63
    18
421
   327680
463
1.0
 63
    18
421
   327680
470
LINEAR
1001
ACAD
1010
0.0
1020
0.0
1030
0.0
  0
HATCH
  5
242
330
1F
100
AcDbEntity
  8
0
100
AcDbHatch
 10
0.0
 20
0.0
 30
0.0
210
0.0
220
0.0
230
1.0
  2
SOLID
 70
     1
 71
     1
 91
        1
 92
        1
 93
        4
 72
     1
 10
51.61513300552488
 20
161.1782798798531
 11
51.72797458548057
 21
161.2316029344362
 72
     1
 10
51.72797458548057
 20
161.2316029344362
 11
51.6040567921343
 21
161.256987585157
 72
     1
 10
51.6040567921343
 20
161.256987585157
 11
51.60345136494443
 21
161.2567310277442
 72
     1
 10
51.60345136494443
 20
161.2567310277442
 11
51.61513300552488
 21
161.1782798798531
 97
        1
330
224
 75
     0
 76
     1
 98
        1
 10
0.0
 20
0.0
450
        1
451
        0
460
0.0
461
0.0
452
        0
462
0.0
453
        2
463
0.0
 63
    18
421
   327680
463
1.0
 63
    18
421
   327680
470
LINEAR
1001
ACAD
1010
0.0
1020
0.0
1030
0.0
  0
HATCH
  5
243
330
1F
100
AcDbEntity
  8
0
100
AcDbHatch
 10
0.0
 20
0.0
 30
0.0
210
0.0
220
0.0
230
1.0
  2
SOLID
 70
     1
 71
     1
 91
        1
 92
        1
 93
        3
 72
     1
 10
51.59160757197703
 20
161.325562528478
 11
51.69886587381512
 21
161.376247216566
 72
     1
 10
51.69886587381512
 20
161.376247216566
 11
51.57587652965609
 21
161.4014416737907
 72
     1
 10
51.57587652965609
 20
161.4014416737907
 11
51.59160757197703
 21
161.325562528478
 97
        1
330
225
 75
     0
 76
     1
 98
        1
 10
0.0
 20
0.0
450
        1
451
        0
460
0.0
461
0.0
452
        0
462
0.0
453
        2
463
0.0
 63
    18
421
   327680
463
1.0
 63
    18
421
   327680
470
LINEAR
1001
ACAD
1010
0.0
1020
0.0
1030
0.0
  0
HATCH
  5
245
330
1F
100
AcDbEntity
  8
0
100
AcDbHatch
 10
0.0
 20
0.0
 30
0.0
210
0.0
220
0.0
230
1.0
  2
SOLID
 70
     1
 71
     1
 91
        1
 92
        1
 93
        4
 72
     1
 10
54.88600283993637
 20
161.4159322981245
 11
54.86589315381929
 21
161.4927147360261
 72
     1
 10
54.86589315381929
 20
161.4927147360261
 11
54.86411196012404
 21
161.492878963946
 72
     1
 10
54.86411196012404
 20
161.492878963946
 11
54.75963740129797
 21
161.4215693113167
 72
     1
 10
54.75963740129797
 20
161.4215693113167
 11
54.88600283993637
 21
161.4159322981245
 97
        1
330
21B
 75
     0
 76
     1
 98
        1
 10
0.0
 20
0.0
450
        1
451
        0
460
0.0
461
0.0
452
        0
462
0.0
453
        2
463
0.0
 63
    18
421
   327680
463
1.0
 63
    18
421
   327680
470
LINEAR
1001
ACAD
1010
0.0
1020
0.0
1030
0.0
  0
LWPOLYLINE
  5
246
330
1F
100
AcDbEntity
  8
0
100
AcDbPolyline
 90
        2
 70
     0
 43
0.0
 10
53.20312658352893
 20
161.3911361351955
 10
53.64931452565461
 20
161.4085196325686
  0
LWPOLYLINE
  5
247
330
1F
100
AcDbEntity
  8
0
100
AcDbPolyline
 90
        2
 70
     0
 43
0.0
 10
53.2345509243051
 20
161.2408841717817
 10
53.67087370277108
 20
161.3038036294315
  0
LWPOLYLINE
  5
248
330
1F
100
AcDbEntity
  8
0
100
AcDbPolyline
 90
        2
 70
     0
 43
0.0
 10
53.26804395767672
 20
161.0909629747849
 10
53.68627311499711
 20
161.149809507171
  0
LWPOLYLINE
  5
249
330
1F
100
AcDbEntity
  8
0
100
AcDbPolyline
 90
        2
 70
     0
 43
0.0
 10
53.30678949580085
 20
160.9272751005128
 10
53.71541650263491
 20
160.9771748776426
  0
LWPOLYLINE
  5
24A
330
1F
100
AcDbEntity
  8
0
100
AcDbPolyline
 90
        2
 70
     0
 43
0.0
 10
53.34799588457911
 20
160.7540529934716
 10
53.75730290388974
 20
160.8022375547548
  0
LWPOLYLINE
  5
24C
330
1F
100
AcDbEntity
  8
0
100
AcDbPolyline
 90
        2
 70
     0
 43
0.0
 10
54.79527417864784
 20
160.8276963822734
 10
54.42502141801099
 20
160.8490517679219
  0
LWPOLYLINE
  5
24D
330
1F
100
AcDbEntity
  8
0
100
AcDbPolyline
 90
        2
 70
     0
 43
0.0
 10
54.81640850429093
 20
161.0281314613622
 10
54.39052673462465
 20
161.0387725265468
  0
LWPOLYLINE
  5
24E
330
1F
100
AcDbEntity
  8
0
100
AcDbPolyline
 90
        2
 70
     0
 43
0.0
 10
54.8122488651377
 20
161.1653787883563
 10
54.36835158101915
 20
161.1126897052318
  0
LWPOLYLINE
  5
24F
330
1F
100
AcDbEntity
  8
0
100
AcDbPolyline
 90
        2
 70
     0
 43
0.0
 10
54.79376700151092
 20
161.2869846953393
 10
54.35128056259596
 20
161.2054969579092
  0
LWPOLYLINE
  5
250
330
1F
100
AcDbEntity
  8
0
100
AcDbPolyline
 90
        2
 70
     0
 43
0.0
 10
54.75963740129797
 20
161.4215693113167
 10
54.31501186692118
 20
161.3127261451216
  0
LWPOLYLINE
  5
252
330
1F
100
AcDbEntity
  8
0
  6
DASHDOT
 48
0.005
100
AcDbPolyline
 90
        2
 70
     0
 43
0.0
 10
51.69014746437882
 20
160.5555544008718
 10
54.83485955910587
 20
160.5513284620702
  0
MTEXT
  5
266
330
1F
100
AcDbEntity
  8
0
100
AcDbMText
 10
52.34545846211412
 20
160.387480208502
 30
0.0
 40
0.0486011622821708
 41
0.1442806233542349
 46
0.0990393427018454
 71
     1
 72
     5
  1
{\fArial|b0|i0|c0|p0;(2604)
 73
     1
 44
1.0
  0
MTEXT
  5
267
330
1F
100
AcDbEntity
  8
0
100
AcDbMText
 10
51.21699244190496
 20
161.0534281967619
 30
0.0
 40
0.0486011622821708
 41
0.1442806233542349
 46
0.0990393427018454
 71
     1
 72
     5
  1
{\fArial|b0|i0|c0|p0;[2603]
 73
     1
 44
1.0
  0
LWPOLYLINE
  5
268
330
1F
100
AcDbEntity
  8
0
100
AcDbPolyline
 90
        2
 70
     0
 43
0.0
 10
51.4400784415436
 20
161.0215993464371
 10
51.63416004651496
 20
161.0504987521628
  0
MTEXT
  5
27B
330
1F
100
AcDbEntity
  8
0
100
AcDbMText
 10
54.00699322200828
 20
160.4027922300618
 30
0.0
 40
0.0486011622821708
 41
0.1442806233542349
 46
0.0990393427018454
 71
     1
 72
     5
  1
{\fArial|b0|i0|c0|p0;(2606)
 73
     1
 44
1.0
  0
MTEXT
  5
27C
330
1F
100
AcDbEntity
  8
0
100
AcDbMText
 10
55.27229915394479
 20
160.8729799130836
 30
0.0
 40
0.0486011622821708
 41
0.1442806233542349
 46
0.0990393427018454
 71
     1
 72
     5
  1
{\fArial|b0|i0|c0|p0;[2605]
 73
     1
 44
1.0
  0
LWPOLYLINE
  5
27D
330
1F
100
AcDbEntity
  8
0
100
AcDbPolyline
 90
        2
 70
     0
 43
0.0
 10
55.25873553763033
 20
160.840076912945
 10
54.92814955585997
 20
160.9058339220052
  0
MTEXT
  5
28F
330
1F
100
AcDbEntity
  8
0
100
AcDbMText
 10
52.90648227811006
 20
159.9981273559351
 30
0.0
 40
0.0486011622821708
 41
0.1442806233542349
 46
0.0990393427018454
 71
     1
 72
     5
  1
{\fArial|b0|i0|c0|p0;[2605]
 73
     1
 44
1.0
  0
LINE
  5
290
330
1F
100
AcDbEntity
  8
0
100
AcDbLine
 10
53.14292340973382
 20
159.9742715512903
 30
0.0
 11
53.42301354854622
 21
160.0199969952325
 31
0.0
  0
LWPOLYLINE
  5
302
330
1F
100
AcDbEntity
  8
Context 1
 62
     0
100
AcDbPolyline
 90
       11
 70
     0
 43
0.0
 10
59.44372313587655
 20
161.4863842169698
 10
59.44372313587655
 20
161.4132165967721
 10
59.47067302468391
 20
161.283223015466
 10
59.51778114546283
 20
160.9668559671354
 10
59.53759724017413
 20
160.7706766294936
 10
59.54552367805865
 20
160.6418720138701
 10
59.56662085233038
 20
160.5232695907581
 10
59.58395993520276
 20
160.2904304779004
 10
59.59139097071951
 20
160.0674994123982
 10
59.57061309875512
 20
159.6987362100456
 10
59.57061309875512
 20
159.6293798785561
  0
LWPOLYLINE
  5
303
330
1F
100
AcDbEntity
  8
Context 1
 62
     0
100
AcDbPolyline
 90
       12
 70
     0
 43
0.0
 10
62.73701778915393
 20
161.4863842169698
 10
62.77640681327356
 20
161.3359897612403
 10
62.80414934586938
 20
161.1992587077323
 10
62.81009417428277
 20
161.0308219026863
 10
62.80018612692712
 20
160.8683299260537
 10
62.77464968300033
 20
160.7156221461846
 10
62.72510944622207
 20
160.6066336252725
 10
62.69142208521286
 20
160.4659393528223
 10
62.68547725679947
 20
160.3311899087854
 10
62.66176760910388
 20
159.9916747977869
 10
62.6642446209428
 20
159.8529621348078
 10
62.66854641638188
 20
159.6292687719756
  0
LWPOLYLINE
  5
304
330
1F
100
AcDbEntity
  8
Context 1
 62
     0
100
AcDbPolyline
 90
        9
 70
     0
 43
0.0
 10
60.94035088287212
 20
161.4863842169698
 10
60.96383737456004
 20
161.3237854283612
 10
61.0158546231772
 20
161.0909463155034
 10
61.08970779549542
 20
160.7789395820754
 10
61.12686297307911
 20
160.627222606942
 10
61.18259573945463
 20
160.3826176878493
 10
61.29641975515781
 20
160.0049550222096
 10
61.36995604412552
 20
159.7224208593337
 10
61.39421893654829
 20
159.6293144754024
  0
LWPOLYLINE
  5
305
330
1F
100
AcDbEntity
  8
Details
 62
     0
100
AcDbPolyline
 90
        2
 70
     0
 43
0.0
 10
62.63304360790956
 20
161.4065273382939
 10
62.75940904654797
 20
161.4008903251017
  0
LWPOLYLINE
  5
306
330
1F
100
AcDbEntity
  8
Details
 62
     0
100
AcDbPolyline
 90
        2
 70
     0
 43
0.0
 10
62.66717320812251
 20
161.2719427223164
 10
62.79264828063418
 20
161.2559425292487
  0
LWPOLYLINE
  5
307
330
1F
100
AcDbEntity
  8
Details
 62
     0
100
AcDbPolyline
 90
        2
 70
     0
 43
0.0
 10
62.68565507174929
 20
161.1503368153334
 10
62.80712176007608
 20
161.1150403052093
  0
LWPOLYLINE
  5
308
330
1F
100
AcDbEntity
  8
Details
 62
     0
100
AcDbPolyline
 90
        2
 70
     0
 43
0.0
 10
62.68981471090252
 20
161.0130894883393
 10
62.80595754516396
 20
160.9629811851378
  0
LWPOLYLINE
  5
309
330
1F
100
AcDbEntity
  8
Details
 62
     0
100
AcDbPolyline
 90
        2
 70
     0
 43
0.0
 10
62.66868038525944
 20
160.8126544092506
 10
62.78121845605921
 20
160.754903369254
  0
LWPOLYLINE
  5
30A
330
1F
100
AcDbEntity
  8
Details
 62
     0
100
AcDbPolyline
 90
        2
 70
     0
 43
0.0
 10
61.07653279014053
 20
161.3760941621726
 10
60.95261499679426
 20
161.4014788128933
  0
LWPOLYLINE
  5
30B
330
1F
100
AcDbEntity
  8
Details
 62
     0
100
AcDbPolyline
 90
        2
 70
     0
 43
0.0
 10
61.1079571309167
 20
161.2258421987589
 10
60.98236158980554
 20
161.2408675125002
  0
LWPOLYLINE
  5
30C
330
1F
100
AcDbEntity
  8
Details
 62
     0
100
AcDbPolyline
 90
        2
 70
     0
 43
0.0
 10
61.14145016428832
 20
161.075921001762
 10
61.01585462317717
 20
161.0909463155034
  0
LWPOLYLINE
  5
30D
330
1F
100
AcDbEntity
  8
Details
 62
     0
100
AcDbPolyline
 90
        2
 70
     0
 43
0.0
 10
61.18019570241244
 20
160.91223312749
 10
61.05460016130129
 20
160.9272584412313
  0
LWPOLYLINE
  5
30E
330
1F
100
AcDbEntity
  8
Details
 62
     0
100
AcDbPolyline
 90
        2
 70
     0
 43
0.0
 10
61.2214020911907
 20
160.7390110204487
 10
61.09580655007955
 20
160.7540363341901
  0
LWPOLYLINE
  5
30F
330
1F
100
AcDbEntity
  8
Section Point
  6
DASH2DOT
 62
     0
 48
0.005
100
AcDbPolyline
 90
        2
 70
     0
 43
0.0
 10
59.35284412663882
 20
161.4863842169698
 10
62.98538556846024
 20
161.4863842169698
  0
LINE
  5
310
330
1F
100
AcDbEntity
  8
Evaluation trench (LOE)
  6
DASHDOT
 48
0.005
100
AcDbLine
 10
63.77413558490155
 20
159.6292687719756
 30
0.0
 11
58.32059515032563
 21
159.6292687719756
 31
0.0
  0
CIRCLE
  5
314
330
1F
100
AcDbEntity
  8
Details
 62
     0
100
AcDbCircle
 10
62.98538556846024
 20
161.4863842169698
 30
0.0
 40
0.0264386222847008
  0
LWPOLYLINE
  5
315
330
1F
100
AcDbEntity
  8
Details
 62
     0
100
AcDbPolyline
 90
        2
 70
     0
 43
0.0
 10
63.03538556846024
 20
161.4863842169698
 10
62.93538556846024
 20
161.4863842169698
  0
LWPOLYLINE
  5
31A
330
1F
100
AcDbEntity
  8
Details
 62
     0
100
AcDbPolyline
 90
        2
 70
     0
 43
0.0
 10
62.98538556846024
 20
161.5363842169698
 10
62.98538556846024
 20
161.4363842169698
  0
LWPOLYLINE
  5
31C
330
1F
100
AcDbEntity
  8
Details
 62
     0
100
AcDbPolyline
 90
        2
 70
     0
 43
0.0
 10
63.03538556846024
 20
161.4863842169698
 10
62.93538556846024
 20
161.4863842169698
  0
LWPOLYLINE
  5
31E
330
1F
100
AcDbEntity
  8
Details
 62
     0
100
AcDbPolyline
 90
        2
 70
     0
 43
0.0
 10
59.35284412663882
 20
161.5363842169698
 10
59.35284412663882
 20
161.4363842169698
  0
LWPOLYLINE
  5
320
330
1F
100
AcDbEntity
  8
Details
 62
     0
100
AcDbPolyline
 90
        2
 70
     0
 43
0.0
 10
59.35284412663882
 20
161.5363842169698
 10
59.35284412663882
 20
161.4363842169698
  0
LWPOLYLINE
  5
322
330
1F
100
AcDbEntity
  8
Details
 62
     0
100
AcDbPolyline
 90
        2
 70
     0
 43
0.0
 10
59.40284412663882
 20
161.4863842169698
 10
59.30284412663882
 20
161.4863842169698
  0
HATCH
  5
323
330
1F
100
AcDbEntity
  8
Details
 62
     0
100
AcDbHatch
 10
0.0
 20
0.0
 30
0.0
210
0.0
220
0.0
230
1.0
  2
SOLID
 70
     1
 71
     1
 91
        1
 92
        1
 93
        4
 72
     1
 10
62.78121845605921
 20
160.754903369254
 11
62.79434672658757
 21
160.8334103474241
 72
     1
 10
62.79434672658757
 20
160.8334103474241
 11
62.79336146589713
 21
160.8339764197331
 72
     1
 10
62.79336146589713
 20
160.8339764197331
 11
62.66868038525943
 21
160.8126544092506
 72
     1
 10
62.66868038525943
 20
160.8126544092506
 11
62.78121845605921
 21
160.754903369254
 97
        1
330
324
 75
     0
 76
     1
 98
        1
 10
7.873406206611591
 20
-0.0150419730228748
450
        1
451
        0
460
0.0
461
0.0
452
        0
462
0.0
453
        2
463
0.0
 63
    18
421
   327680
463
1.0
 63
    18
421
   327680
470
LINEAR
1001
ACAD
1010
0.0
1020
0.0
1030
0.0
  0
LWPOLYLINE
  5
324
102
{ACAD_REACTORS
330
323
102
}
330
1F
100
AcDbEntity
  8
Details
 62
     0
100
AcDbPolyline
 90
        4
 70
     1
 43
0.0
 10
62.78121845605921
 20
160.754903369254
 10
62.79434672658757
 20
160.8334103474241
 10
62.79336146589713
 20
160.8339764197331
 10
62.66868038525943
 20
160.8126544092506
  0
HATCH
  5
325
330
1F
100
AcDbEntity
  8
Details
 62
     0
100
AcDbHatch
 10
0.0
 20
0.0
 30
0.0
210
0.0
220
0.0
230
1.0
  2
SOLID
 70
     1
 71
     1
 91
        1
 92
        1
 93
        4
 72
     1
 10
62.80595754516396
 20
160.9629811851378
 11
62.81009417428277
 21
161.0308219026863
 72
     1
 10
62.81009417428277
 20
161.0308219026863
 11
62.80970162008786
 21
161.0419442715423
 72
     1
 10
62.80970162008786
 20
161.0419442715423
 11
62.68981471090252
 21
161.0130894883393
 72
     1
 10
62.68981471090252
 20
161.0130894883393
 11
62.80595754516396
 21
160.9629811851378
 97
        1
330
326
 75
     0
 76
     1
 98
        1
 10
7.873406206611591
 20
-0.0150419730228748
450
        1
451
        0
460
0.0
461
0.0
452
        0
462
0.0
453
        2
463
0.0
 63
    18
421
   327680
463
1.0
 63
    18
421
   327680
470
LINEAR
1001
ACAD
1010
0.0
1020
0.0
1030
0.0
  0
LWPOLYLINE
  5
326
102
{ACAD_REACTORS
330
325
102
}
330
1F
100
AcDbEntity
  8
Details
 62
     0
100
AcDbPolyline
 90
        4
 70
     1
 43
0.0
 10
62.80595754516396
 20
160.9629811851378
 10
62.81009417428277
 20
161.0308219026863
 10
62.80970162008786
 20
161.0419442715423
 10
62.68981471090252
 20
161.0130894883393
  0
HATCH
  5
327
330
1F
100
AcDbEntity
  8
Details
 62
     0
100
AcDbHatch
 10
0.0
 20
0.0
 30
0.0
210
0.0
220
0.0
230
1.0
  2
SOLID
 70
     1
 71
     1
 91
        1
 92
        1
 93
        4
 72
     1
 10
62.80712176007608
 20
161.1150403052093
 11
62.80430397261456
 21
161.194877616619
 72
     1
 10
62.80430397261456
 20
161.194877616619
 11
62.80400632848508
 21
161.1949796202302
 72
     1
 10
62.80400632848508
 20
161.1949796202302
 11
62.68565507174927
 21
161.1503368153334
 72
     1
 10
62.68565507174927
 20
161.1503368153334
 11
62.80712176007608
 21
161.1150403052093
 97
        1
330
328
 75
     0
 76
     1
 98
        1
 10
7.873406206611591
 20
-0.0150419730228748
450
        1
451
        0
460
0.0
461
0.0
452
        0
462
0.0
453
        2
463
0.0
 63
    18
421
   327680
463
1.0
 63
    18
421
   327680
470
LINEAR
1001
ACAD
1010
0.0
1020
0.0
1030
0.0
  0
LWPOLYLINE
  5
328
102
{ACAD_REACTORS
330
327
102
}
330
1F
100
AcDbEntity
  8
Details
 62
     0
100
AcDbPolyline
 90
        4
 70
     1
 43
0.0
 10
62.80712176007608
 20
161.1150403052093
 10
62.80430397261456
 20
161.194877616619
 10
62.80400632848508
 20
161.1949796202302
 10
62.68565507174927
 20
161.1503368153334
  0
HATCH
  5
329
330
1F
100
AcDbEntity
  8
Details
 62
     0
100
AcDbHatch
 10
0.0
 20
0.0
 30
0.0
210
0.0
220
0.0
230
1.0
  2
SOLID
 70
     1
 71
     1
 91
        1
 92
        1
 93
        3
 72
     1
 10
62.79264828063418
 20
161.2559425292487
 11
62.77676817625852
 21
161.3342087579573
 72
     1
 10
62.77676817625852
 20
161.3342087579573
 11
62.66717320812251
 21
161.2719427223164
 72
     1
 10
62.66717320812251
 20
161.2719427223164
 11
62.79264828063418
 21
161.2559425292487
 97
        1
330
32A
 75
     0
 76
     1
 98
        1
 10
7.873406206611591
 20
-0.0150419730228748
450
        1
451
        0
460
0.0
461
0.0
452
        0
462
0.0
453
        2
463
0.0
 63
    18
421
   327680
463
1.0
 63
    18
421
   327680
470
LINEAR
1001
ACAD
1010
0.0
1020
0.0
1030
0.0
  0
LWPOLYLINE
  5
32A
102
{ACAD_REACTORS
330
329
102
}
330
1F
100
AcDbEntity
  8
Details
 62
     0
100
AcDbPolyline
 90
        3
 70
     1
 43
0.0
 10
62.79264828063418
 20
161.2559425292487
 10
62.77676817625852
 20
161.3342087579573
 10
62.66717320812251
 20
161.2719427223164
  0
HATCH
  5
32B
330
1F
100
AcDbEntity
  8
Details
 62
     0
100
AcDbHatch
 10
0.0
 20
0.0
 30
0.0
210
0.0
220
0.0
230
1.0
  2
SOLID
 70
     1
 71
     1
 91
        1
 92
        1
 93
        4
 72
     1
 10
62.75940904654797
 20
161.4008903251016
 11
62.73929936043088
 21
161.4776727630033
 72
     1
 10
62.73929936043088
 20
161.4776727630033
 11
62.73751816673563
 21
161.4778369909231
 72
     1
 10
62.73751816673563
 20
161.4778369909231
 11
62.63304360790956
 21
161.4065273382939
 72
     1
 10
62.63304360790956
 20
161.4065273382939
 11
62.75940904654797
 21
161.4008903251016
 97
        1
330
32C
 75
     0
 76
     1
 98
        1
 10
7.873406206611591
 20
-0.0150419730228748
450
        1
451
        0
460
0.0
461
0.0
452
        0
462
0.0
453
        2
463
0.0
 63
    18
421
   327680
463
1.0
 63
    18
421
   327680
470
LINEAR
1001
ACAD
1010
0.0
1020
0.0
1030
0.0
  0
LWPOLYLINE
  5
32C
102
{ACAD_REACTORS
330
32B
102
}
330
1F
100
AcDbEntity
  8
Details
 62
     0
100
AcDbPolyline
 90
        4
 70
     1
 43
0.0
 10
62.75940904654797
 20
161.4008903251016
 10
62.73929936043088
 20
161.4776727630033
 10
62.73751816673563
 20
161.4778369909231
 10
62.63304360790956
 20
161.4065273382939
  0
HATCH
  5
32D
330
1F
100
AcDbEntity
  8
Details
 62
     0
100
AcDbHatch
 10
0.0
 20
0.0
 30
0.0
210
0.0
220
0.0
230
1.0
  2
SOLID
 70
     1
 71
     1
 91
        1
 92
        1
 93
        4
 72
     1
 10
60.96402838306009
 20
161.3229304379324
 11
61.07653279014053
 21
161.3760941621726
 72
     1
 10
61.07653279014053
 20
161.3760941621726
 11
60.95261499679425
 21
161.4014788128933
 72
     1
 10
60.95261499679425
 20
161.4014788128933
 11
60.96383737456004
 21
161.3237854283612
 72
     1
 10
60.96383737456004
 20
161.3237854283612
 11
60.96402838306009
 21
161.3229304379324
 97
        1
330
32E
 75
     0
 76
     1
 98
        1
 10
7.873406206611591
 20
-0.0150419730228748
450
        1
451
        0
460
0.0
461
0.0
452
        0
462
0.0
453
        2
463
0.0
 63
    18
421
   327680
463
1.0
 63
    18
421
   327680
470
LINEAR
1001
ACAD
1010
0.0
1020
0.0
1030
0.0
  0
LWPOLYLINE
  5
32E
102
{ACAD_REACTORS
330
32D
102
}
330
1F
100
AcDbEntity
  8
Details
 62
     0
100
AcDbPolyline
 90
        4
 70
     1
 43
0.0
 10
60.96402838306009
 20
161.3229304379324
 10
61.07653279014053
 20
161.3760941621726
 10
60.95261499679425
 20
161.4014788128933
 10
60.96383737456004
 20
161.3237854283612
  0
HATCH
  5
32F
330
1F
100
AcDbEntity
  8
Details
 62
     0
100
AcDbHatch
 10
0.0
 20
0.0
 30
0.0
210
0.0
220
0.0
230
1.0
  2
SOLID
 70
     1
 71
     1
 91
        1
 92
        1
 93
        3
 72
     1
 10
60.99970756756071
 20
161.1632236120724
 11
61.10795713091668
 21
161.2258421987589
 72
     1
 10
61.10795713091668
 20
161.2258421987589
 11
60.98236158980553
 21
161.2408675125003
 72
     1
 10
60.98236158980553
 20
161.2408675125003
 11
60.99970756756071
 21
161.1632236120724
 97
        1
330
330
 75
     0
 76
     1
 98
        1
 10
7.873406206611591
 20
-0.0150419730228748
450
        1
451
        0
460
0.0
461
0.0
452
        0
462
0.0
453
        2
463
0.0
 63
    18
421
   327680
463
1.0
 63
    18
421
   327680
470
LINEAR
1001
ACAD
1010
0.0
1020
0.0
1030
0.0
  0
LWPOLYLINE
  5
330
102
{ACAD_REACTORS
330
32F
102
}
330
1F
100
AcDbEntity
  8
Details
 62
     0
100
AcDbPolyline
 90
        3
 70
     1
 43
0.0
 10
60.99970756756071
 20
161.1632236120724
 10
61.10795713091668
 20
161.2258421987589
 10
60.98236158980553
 20
161.2408675125003
  0
HATCH
  5
331
330
1F
100
AcDbEntity
  8
Details
 62
     0
100
AcDbHatch
 10
0.0
 20
0.0
 30
0.0
210
0.0
220
0.0
230
1.0
  2
SOLID
 70
     1
 71
     1
 91
        1
 92
        1
 93
        3
 72
     1
 10
61.03410886390788
 20
161.013827813443
 11
61.14145016428831
 21
161.075921001762
 72
     1
 10
61.14145016428831
 20
161.075921001762
 11
61.01585462317718
 21
161.0909463155034
 72
     1
 10
61.01585462317718
 20
161.0909463155034
 11
61.03410886390788
 21
161.013827813443
 97
        1
330
332
 75
     0
 76
     1
 98
        1
 10
7.873406206611591
 20
-0.0150419730228748
450
        1
451
        0
460
0.0
461
0.0
452
        0
462
0.0
453
        2
463
0.0
 63
    18
421
   327680
463
1.0
 63
    18
421
   327680
470
LINEAR
1001
ACAD
1010
0.0
1020
0.0
1030
0.0
  0
LWPOLYLINE
  5
332
102
{ACAD_REACTORS
330
331
102
}
330
1F
100
AcDbEntity
  8
Details
 62
     0
100
AcDbPolyline
 90
        3
 70
     1
 43
0.0
 10
61.03410886390788
 20
161.013827813443
 10
61.14145016428831
 20
161.075921001762
 10
61.01585462317718
 20
161.0909463155034
  0
HATCH
  5
333
330
1F
100
AcDbEntity
  8
Details
 62
     0
100
AcDbHatch
 10
0.0
 20
0.0
 30
0.0
210
0.0
220
0.0
230
1.0
  2
SOLID
 70
     1
 71
     1
 91
        1
 92
        1
 93
        3
 72
     1
 10
61.072854402032
 20
160.850139939171
 11
61.18019570241243
 21
160.91223312749
 72
     1
 10
61.18019570241243
 20
160.91223312749
 11
61.05460016130129
 21
160.9272584412313
 72
     1
 10
61.05460016130129
 20
160.9272584412313
 11
61.072854402032
 21
160.850139939171
 97
        1
330
334
 75
     0
 76
     1
 98
        1
 10
7.873406206611591
 20
-0.0150419730228748
450
        1
451
        0
460
0.0
461
0.0
452
        0
462
0.0
453
        2
463
0.0
 63
    18
421
   327680
463
1.0
 63
    18
421
   327680
470
LINEAR
1001
ACAD
1010
0.0
1020
0.0
1030
0.0
  0
LWPOLYLINE
  5
334
102
{ACAD_REACTORS
330
333
102
}
330
1F
100
AcDbEntity
  8
Details
 62
     0
100
AcDbPolyline
 90
        3
 70
     1
 43
0.0
 10
61.072854402032
 20
160.850139939171
 10
61.18019570241243
 20
160.91223312749
 10
61.05460016130129
 20
160.9272584412313
  0
HATCH
  5
335
330
1F
100
AcDbEntity
  8
Details
 62
     0
100
AcDbHatch
 10
0.0
 20
0.0
 30
0.0
210
0.0
220
0.0
230
1.0
  2
SOLID
 70
     1
 71
     1
 91
        1
 92
        1
 93
        3
 72
     1
 10
61.11461430089589
 20
160.6772380183568
 11
61.2214020911907
 21
160.7390110204487
 72
     1
 10
61.2214020911907
 20
160.7390110204487
 11
61.09580655007955
 21
160.7540363341901
 72
     1
 10
61.09580655007955
 20
160.7540363341901
 11
61.11461430089589
 21
160.6772380183568
 97
        1
330
336
 75
     0
 76
     1
 98
        1
 10
7.873406206611591
 20
-0.0150419730228748
450
        1
451
        0
460
0.0
461
0.0
452
        0
462
0.0
453
        2
463
0.0
 63
    18
421
   327680
463
1.0
 63
    18
421
   327680
470
LINEAR
1001
ACAD
1010
0.0
1020
0.0
1030
0.0
  0
LWPOLYLINE
  5
336
102
{ACAD_REACTORS
330
335
102
}
330
1F
100
AcDbEntity
  8
Details
 62
     0
100
AcDbPolyline
 90
        3
 70
     1
 43
0.0
 10
61.11461430089589
 20
160.6772380183568
 10
61.2214020911907
 20
160.7390110204487
 10
61.09580655007955
 20
160.7540363341901
  0
HATCH
  5
337
330
1F
100
AcDbEntity
  8
Details
 62
     0
100
AcDbHatch
 10
0.0
 20
0.0
 30
0.0
210
0.0
220
0.0
230
1.0
  2
SOLID
 70
     1
 71
     1
 91
        1
 92
        1
 93
        4
 72
     1
 10
59.54614803504881
 20
160.6383620532012
 11
59.65952866466947
 21
160.6919398345856
 72
     1
 10
59.65952866466947
 20
160.6919398345856
 11
59.54094772650519
 21
160.7162312266138
 72
     1
 10
59.54094772650519
 20
160.7162312266138
 11
59.54552367805865
 21
160.6418720138701
 72
     1
 10
59.54552367805865
 20
160.6418720138701
 11
59.54614803504881
 21
160.6383620532012
 97
        1
330
338
 75
     0
 76
     1
 98
        1
 10
7.873406206611591
 20
-0.0150419730228748
450
        1
451
        0
460
0.0
461
0.0
452
        0
462
0.0
453
        2
463
0.0
 63
    18
421
   327680
463
1.0
 63
    18
421
   327680
470
LINEAR
1001
ACAD
1010
0.0
1020
0.0
1030
0.0
  0
LWPOLYLINE
  5
338
102
{ACAD_REACTORS
330
337
102
}
330
1F
100
AcDbEntity
  8
Details
 62
     0
100
AcDbPolyline
 90
        4
 70
     1
 43
0.0
 10
59.54614803504881
 20
160.6383620532012
 10
59.65952866466947
 20
160.6919398345856
 10
59.54094772650519
 20
160.7162312266138
 10
59.54552367805865
 20
160.6418720138701
  0
HATCH
  5
339
330
1F
100
AcDbEntity
  8
Details
 62
     0
100
AcDbHatch
 10
0.0
 20
0.0
 30
0.0
210
0.0
220
0.0
230
1.0
  2
SOLID
 70
     1
 71
     1
 91
        1
 92
        1
 93
        3
 72
     1
 10
59.64595038693327
 20
160.877652126208
 11
59.52427390552326
 21
160.9025776425372
 72
     1
 10
59.52427390552326
 20
160.9025776425372
 11
59.53222021590515
 21
160.8239091697564
 72
     1
 10
59.53222021590515
 20
160.8239091697564
 11
59.64595038693327
 21
160.877652126208
 97
        1
330
33A
 75
     0
 76
     1
 98
        1
 10
7.873406206611591
 20
-0.0150419730228748
450
        1
451
        0
460
0.0
461
0.0
452
        0
462
0.0
453
        2
463
0.0
 63
    18
421
   327680
463
1.0
 63
    18
421
   327680
470
LINEAR
1001
ACAD
1010
0.0
1020
0.0
1030
0.0
  0
LWPOLYLINE
  5
33A
102
{ACAD_REACTORS
330
339
102
}
330
1F
100
AcDbEntity
  8
Details
 62
     0
100
AcDbPolyline
 90
        3
 70
     1
 43
0.0
 10
59.64595038693327
 20
160.877652126208
 10
59.52427390552326
 20
160.9025776425372
 10
59.53222021590515
 20
160.8239091697564
  0
HATCH
  5
33B
330
1F
100
AcDbEntity
  8
Details
 62
     0
100
AcDbHatch
 10
0.0
 20
0.0
 30
0.0
210
0.0
220
0.0
230
1.0
  2
SOLID
 70
     1
 71
     1
 91
        1
 92
        1
 93
        3
 72
     1
 10
59.51537751055221
 20
160.9829982132994
 11
59.62620957241246
 21
161.0353716742742
 72
     1
 10
59.62620957241246
 20
161.0353716742742
 11
59.50384648865154
 21
161.0604378415977
 72
     1
 10
59.50384648865154
 20
161.0604378415977
 11
59.51537751055221
 21
160.9829982132994
 97
        1
330
33C
 75
     0
 76
     1
 98
        1
 10
7.873406206611591
 20
-0.0150419730228748
450
        1
451
        0
460
0.0
461
0.0
452
        0
462
0.0
453
        2
463
0.0
 63
    18
421
   327680
463
1.0
 63
    18
421
   327680
470
LINEAR
1001
ACAD
1010
0.0
1020
0.0
1030
0.0
  0
LWPOLYLINE
  5
33C
102
{ACAD_REACTORS
330
33B
102
}
330
1F
100
AcDbEntity
  8
Details
 62
     0
100
AcDbPolyline
 90
        3
 70
     1
 43
0.0
 10
59.51537751055221
 20
160.9829982132994
 10
59.62620957241246
 20
161.0353716742742
 10
59.50384648865154
 20
161.0604378415977
  0
HATCH
  5
33D
330
1F
100
AcDbEntity
  8
Details
 62
     0
100
AcDbHatch
 10
0.0
 20
0.0
 30
0.0
210
0.0
220
0.0
230
1.0
  2
SOLID
 70
     1
 71
     1
 91
        1
 92
        1
 93
        4
 72
     1
 10
59.48853921213647
 20
161.1632379068302
 11
59.60138079209216
 21
161.2165609614133
 72
     1
 10
59.60138079209216
 20
161.2165609614133
 11
59.47746299874589
 21
161.2419456121341
 72
     1
 10
59.47746299874589
 20
161.2419456121341
 11
59.47685757155602
 21
161.2416890547213
 72
     1
 10
59.47685757155602
 20
161.2416890547213
 11
59.48853921213647
 21
161.1632379068302
 97
        1
330
33E
 75
     0
 76
     1
 98
        1
 10
7.873406206611591
 20
-0.0150419730228748
450
        1
451
        0
460
0.0
461
0.0
452
        0
462
0.0
453
        2
463
0.0
 63
    18
421
   327680
463
1.0
 63
    18
421
   327680
470
LINEAR
1001
ACAD
1010
0.0
1020
0.0
1030
0.0
  0
LWPOLYLINE
  5
33E
102
{ACAD_REACTORS
330
33D
102
}
330
1F
100
AcDbEntity
  8
Details
 62
     0
100
AcDbPolyline
 90
        4
 70
     1
 43
0.0
 10
59.48853921213647
 20
161.1632379068302
 10
59.60138079209216
 20
161.2165609614133
 10
59.47746299874589
 20
161.2419456121341
 10
59.47685757155602
 20
161.2416890547213
  0
HATCH
  5
33F
330
1F
100
AcDbEntity
  8
Details
 62
     0
100
AcDbHatch
 10
0.0
 20
0.0
 30
0.0
210
0.0
220
0.0
230
1.0
  2
SOLID
 70
     1
 71
     1
 91
        1
 92
        1
 93
        3
 72
     1
 10
59.46501377858862
 20
161.3105205554551
 11
59.57227208042671
 21
161.3612052435431
 72
     1
 10
59.57227208042671
 20
161.3612052435431
 11
59.44928273626768
 21
161.3863997007679
 72
     1
 10
59.44928273626768
 20
161.3863997007679
 11
59.46501377858862
 21
161.3105205554551
 97
        1
330
340
 75
     0
 76
     1
 98
        1
 10
7.873406206611591
 20
-0.0150419730228748
450
        1
451
        0
460
0.0
461
0.0
452
        0
462
0.0
453
        2
463
0.0
 63
    18
421
   327680
463
1.0
 63
    18
421
   327680
470
LINEAR
1001
ACAD
1010
0.0
1020
0.0
1030
0.0
  0
LWPOLYLINE
  5
340
102
{ACAD_REACTORS
330
33F
102
}
330
1F
100
AcDbEntity
  8
Details
 62
     0
100
AcDbPolyline
 90
        3
 70
     1
 43
0.0
 10
59.46501377858862
 20
161.3105205554551
 10
59.57227208042671
 20
161.3612052435431
 10
59.44928273626768
 20
161.3863997007679
  0
LWPOLYLINE
  5
341
330
1F
100
AcDbEntity
  8
Details
 62
     0
100
AcDbPolyline
 90
        2
 70
     0
 43
0.0
 10
61.07653279014053
 20
161.3760941621726
 10
61.5227207322662
 20
161.3934776595457
  0
LWPOLYLINE
  5
342
330
1F
100
AcDbEntity
  8
Details
 62
     0
100
AcDbPolyline
 90
        2
 70
     0
 43
0.0
 10
61.1079571309167
 20
161.2258421987589
 10
61.54427990938266
 20
161.2887616564086
  0
LWPOLYLINE
  5
343
330
1F
100
AcDbEntity
  8
Details
 62
     0
100
AcDbPolyline
 90
        2
 70
     0
 43
0.0
 10
61.14145016428831
 20
161.075921001762
 10
61.55967932160871
 20
161.1347675341482
  0
LWPOLYLINE
  5
344
330
1F
100
AcDbEntity
  8
Details
 62
     0
100
AcDbPolyline
 90
        2
 70
     0
 43
0.0
 10
61.18019570241244
 20
160.91223312749
 10
61.58882270924651
 20
160.9621329046197
  0
LWPOLYLINE
  5
345
330
1F
100
AcDbEntity
  8
Details
 62
     0
100
AcDbPolyline
 90
        2
 70
     0
 43
0.0
 10
61.2214020911907
 20
160.7390110204487
 10
61.63070911050134
 20
160.7871955817319
  0
LWPOLYLINE
  5
346
330
1F
100
AcDbEntity
  8
Details
 62
     0
100
AcDbPolyline
 90
        2
 70
     0
 43
0.0
 10
62.66868038525943
 20
160.8126544092506
 10
62.29842762462258
 20
160.834009794899
  0
LWPOLYLINE
  5
347
330
1F
100
AcDbEntity
  8
Details
 62
     0
100
AcDbPolyline
 90
        2
 70
     0
 43
0.0
 10
62.68981471090252
 20
161.0130894883393
 10
62.26393294123624
 20
161.0237305535239
  0
LWPOLYLINE
  5
348
330
1F
100
AcDbEntity
  8
Details
 62
     0
100
AcDbPolyline
 90
        2
 70
     0
 43
0.0
 10
62.68565507174929
 20
161.1503368153334
 10
62.24175778763074
 20
161.0976477322089
  0
LWPOLYLINE
  5
349
330
1F
100
AcDbEntity
  8
Details
 62
     0
100
AcDbPolyline
 90
        2
 70
     0
 43
0.0
 10
62.66717320812251
 20
161.2719427223164
 10
62.22468676920756
 20
161.1904549848863
  0
LWPOLYLINE
  5
34A
330
1F
100
AcDbEntity
  8
Details
 62
     0
100
AcDbPolyline
 90
        2
 70
     0
 43
0.0
 10
62.63304360790956
 20
161.4065273382939
 10
62.18841807353278
 20
161.2976841720987
  0
LWPOLYLINE
  5
34B
330
1F
100
AcDbEntity
  8
Details
  6
DASHDOT
 62
     0
 48
0.005
100
AcDbPolyline
 90
        2
 70
     0
 43
0.0
 10
59.56355367099041
 20
160.5405124278489
 10
62.70826576571746
 20
160.5362864890474
  0
MTEXT
  5
34C
330
1F
100
AcDbEntity
  8
Annotatons
 62
     0
100
AcDbMText
 10
60.21886466872571
 20
160.3724382354791
 30
0.0
 40
0.0486011622821708
 41
0.1442806233542349
 46
0.0990393427018454
 71
     1
 72
     5
  1
{\fArial|b0|i0|c0|p0;(2604)
 73
     1
 44
1.0
  0
MTEXT
  5
34D
330
1F
100
AcDbEntity
  8
Annotatons
 62
     0
100
AcDbMText
 10
59.09039864851655
 20
161.038386223739
 30
0.0
 40
0.0486011622821708
 41
0.1442806233542349
 46
0.0990393427018454
 71
     1
 72
     5
  1
{\fArial|b0|i0|c0|p0;[2603]
 73
     1
 44
1.0
  0
LWPOLYLINE
  5
34E
330
1F
100
AcDbEntity
  8
Annotatons
 62
     0
100
AcDbPolyline
 90
        2
 70
     0
 43
0.0
 10
59.3134846481552
 20
161.0065573734142
 10
59.50756625312656
 20
161.03545677914
  0
MTEXT
  5
34F
330
1F
100
AcDbEntity
  8
Annotatons
 62
     0
100
AcDbMText
 10
61.88039942861986
 20
160.387750257039
 30
0.0
 40
0.0486011622821708
 41
0.1442806233542349
 46
0.0990393427018454
 71
     1
 72
     5
  1
{\fArial|b0|i0|c0|p0;(2606)
 73
     1
 44
1.0
  0
MTEXT
  5
350
330
1F
100
AcDbEntity
  8
Annotatons
 62
     0
100
AcDbMText
 10
63.14570536055638
 20
160.8579379400607
 30
0.0
 40
0.0486011622821708
 41
0.1442806233542349
 46
0.0990393427018454
 71
     1
 72
     5
  1
{\fArial|b0|i0|c0|p0;[2605]
 73
     1
 44
1.0
  0
LWPOLYLINE
  5
351
330
1F
100
AcDbEntity
  8
Details
 62
     0
100
AcDbPolyline
 90
        2
 70
     0
 43
0.0
 10
63.13214174424193
 20
160.8250349399221
 10
62.80155576247156
 20
160.8907919489823
  0
MTEXT
  5
352
330
1F
100
AcDbEntity
  8
Annotatons
 62
     0
100
AcDbMText
 10
60.77988848472166
 20
159.9830853829122
 30
0.0
 40
0.0486011622821708
 41
0.1442806233542349
 46
0.0990393427018454
 71
     1
 72
     5
  1
{\fArial|b0|i0|c0|p0;[2605]
 73
     1
 44
1.0
  0
LINE
  5
353
330
1F
100
AcDbEntity
  8
Annotatons
 62
     0
100
AcDbLine
 10
61.01632961634541
 20
159.9592295782674
 30
0.0
 11
61.29641975515781
 21
160.0049550222096
 31
0.0
  0
LWPOLYLINE
  5
4D6
330
1F
100
AcDbEntity
  8
Drawing Point
 62
     0
100
AcDbPolyline
 90
        9
 70
     0
 43
0.0
 10
59.31304154762667
 20
161.4868105392636
 10
59.39304154762671
 20
161.4868105392636
 10
59.35304154762675
 20
161.4868105392636
 10
59.35304154762675
 20
161.4468105392637
 10
59.35304154762675
 20
161.5268105392637
 10
59.35304154762675
 20
161.4868105392636
 10
59.39304154762671
 20
161.4868105392636
 10
59.37304154762673
 20
161.4868105392636
 10
59.37304154762673
 20
161.4868105392636
  0
CIRCLE
  5
4D7
330
1F
100
AcDbEntity
  8
Drawing Point
 62
     0
100
AcDbCircle
 10
59.35304154762675
 20
161.4868105392636
 30
0.0
 40
0.0200000000000102
  0
TEXT
  5
4DC
330
1F
100
AcDbEntity
  8
Co-ord
 62
     0
100
AcDbText
 10
63.02517767981501
 20
161.4203189748722
 30
0.0
 40
0.025
  1
N 258765.53
  7
Text
 11
63.02517767981501
 21
161.4453189748722
 31
0.0
100
AcDbText
 73
     3
  0
TEXT
  5
4DD
330
1F
100
AcDbEntity
  8
Co-ord
 62
     0
100
AcDbText
 10
59.11482407882097
 20
161.4562780309767
 30
0.0
 40
0.025
  1
E 442874.76
  7
Text
 72
     2
 11
59.31304154762667
 21
161.4468105392637
 31
0.0
100
AcDbText
 73
     1
  0
TEXT
  5
4DE
330
1F
100
AcDbEntity
  8
Co-ord
 62
     0
100
AcDbText
 10
59.11289769423204
 20
161.4218105392637
 30
0.0
 40
0.025
  1
N 258768.75
  7
Text
 72
     2
 11
59.31304154762667
 21
161.4468105392637
 31
0.0
100
AcDbText
 73
     3
  0
TEXT
  5
4DF
330
1F
100
AcDbEntity
  8
Co-ord
 62
     0
100
AcDbText
 10
63.02517767981501
 20
161.4547864665852
 30
0.0
 40
0.025
  1
E 442873.11
  7
Text
 11
63.02517767981501
 21
161.4453189748722
 31
0.0
100
AcDbText
 73
     1
  0
TEXT
  5
4E0
330
1F
100
AcDbEntity
  8
Drawing Point
 62
     0
100
AcDbText
 10
63.02517767981501
 20
161.4947864665852
 30
0.0
 40
0.025
  1
dp43.2
  7
Text
 11
63.02517767981501
 21
161.4853189748721
 31
0.0
100
AcDbText
 73
     1
  0
TEXT
  5
4E1
330
1F
100
AcDbEntity
  8
Drawing Point
 62
     0
100
AcDbText
 10
59.20613971193226
 20
161.4962780309767
 30
0.0
 40
0.025
  1
dp14.1
  7
Text
 72
     2
 11
59.31304154762667
 21
161.4868105392636
 31
0.0
100
AcDbText
 73
     1
  0
ENDSEC
  0
SECTION
  2
OBJECTS
  0
DICTIONARY
  5
C
330
0
100
AcDbDictionary
281
     1
  3
ACAD_DETAILVIEWSTYLE
350
B5
  3
ACAD_GROUP
350
D
  3
ACAD_IMAGE_DICT
350
CF
  3
ACAD_IMAGE_VARS
350
6A
  3
ACAD_LAYOUT
350
1A
  3
ACAD_MATERIAL
350
72
  3
ACAD_MLEADERSTYLE
350
3F
  3
ACAD_MLINESTYLE
350
17
  3
ACAD_PLOTSETTINGS
350
19
  3
ACAD_PLOTSTYLENAME
350
E
  3
ACAD_SCALELIST
350
40
  3
ACAD_SECTIONVIEWSTYLE
350
B6
  3
ACAD_TABLESTYLE
350
3B
  3
ACAD_VISUALSTYLE
350
2A
  3
ACDB_RECOMPOSE_DATA
350
4F8
  3
AcDbVariableDictionary
350
3D
  3
APPDATA
350
71
  0
SUN
  5
80
330
29
100
AcDbSun
 90
        1
290
     0
 63
     7
421
 16777215
 40
1.0
291
     1
 91
  2455826
 92
 54000000
292
     0
 70
     2
 71
   256
280
     1
  0
DICTIONARY
  5
F6
330
2
100
AcDbDictionary
280
     1
281
     1
  3
ACAD_LAYERSTATES
360
F7
  3
ACLYDICTIONARY
360
48D
  0
DICTIONARY
  5
227
330
1F
100
AcDbDictionary
280
     1
281
     1
  3
ACAD_SORTENTS
360
228
  0
IMAGEDEF_REACTOR
  5
FC
330
FB
100
AcDbRasterImageDefReactor
 90
        2
330
FB
  0
DICTIONARY
  5
B5
102
{ACAD_REACTORS
330
C
102
}
330
C
100
AcDbDictionary
281
     1
  0
DICTIONARY
  5
D
102
{ACAD_REACTORS
330
C
102
}
330
C
100
AcDbDictionary
281
     1
  0
DICTIONARY
  5
CF
102
{ACAD_REACTORS
330
C
102
}
330
C
100
AcDbDictionary
281
     1
  3
1C20LADTT_SH_8
350
CE
  0
RASTERVARIABLES
  5
6A
102
{ACAD_REACTORS
330
C
102
}
330
C
100
AcDbRasterVariables
 90
        0
 70
     1
 71
     1
 72
     1
  0
DICTIONARY
  5
1A
102
{ACAD_REACTORS
330
C
102
}
330
C
100
AcDbDictionary
281
     1
  3
Model
350
22
  3
Sheet1
350
1E
  3
Sheet2
350
26
  0
DICTIONARY
  5
72
102
{ACAD_REACTORS
330
C
102
}
330
C
100
AcDbDictionary
281
     1
  3
ByBlock
350
74
  3
ByLayer
350
73
  3
Global
350
75
  0
DICTIONARY
  5
3F
102
{ACAD_REACTORS
330
C
102
}
330
C
100
AcDbDictionary
281
     1
  3
Annotative
350
BC
  3
Standard
350
B7
  0
DICTIONARY
  5
17
102
{ACAD_REACTORS
330
C
102
}
330
C
100
AcDbDictionary
281
     1
  3
Standard
350
18
  0
DICTIONARY
  5
19
102
{ACAD_REACTORS
330
C
102
}
330
C
100
AcDbDictionary
281
     1
  0
ACDBDICTIONARYWDFLT
  5
E
102
{ACAD_REACTORS
330
C
102
}
330
C
100
AcDbDictionary
281
     1
  3
Normal
350
F
100
AcDbDictionaryWithDefault
340
F
  0
DICTIONARY
  5
40
102
{ACAD_REACTORS
330
C
102
}
330
C
100
AcDbDictionary
281
     1
  3
A0
350
41
  3
A1
350
42
  3
A2
350
43
  3
A3
350
44
  3
A4
350
45
  3
A5
350
46
  3
A6
350
47
  3
A7
350
48
  3
A8
350
49
  3
A9
350
4A
  3
B0
350
4B
  3
B1
350
4C
  3
B2
350
4D
  3
B3
350
4E
  3
B4
350
4F
  3
B5
350
50
  3
B6
350
51
  3
B7
350
52
  3
B8
350
53
  3
B9
350
54
  3
C0
350
55
  3
C1
350
56
  3
C2
350
57
  3
C3
350
58
  3
C4
350
59
  3
C5
350
5A
  3
C6
350
5B
  3
C7
350
5C
  3
C8
350
5D
  3
C9
350
5E
  3
D0
350
5F
  3
D1
350
60
  3
D2
350
61
  0
DICTIONARY
  5
B6
102
{ACAD_REACTORS
330
C
102
}
330
C
100
AcDbDictionary
281
     1
  0
DICTIONARY
  5
3B
102
{ACAD_REACTORS
330
C
102
}
330
C
100
AcDbDictionary
281
     1
  3
Standard
350
3C
  0
DICTIONARY
  5
2A
102
{ACAD_REACTORS
330
C
102
}
330
C
100
AcDbDictionary
281
     1
  3
2dWireframe
350
2F
  3
3D Hidden
350
31
  3
3dWireframe
350
30
  3
Basic
350
32
  3
Brighten
350
36
  3
ColorChange
350
3A
  3
Conceptual
350
34
  3
Dim
350
35
  3
EdgeColorOff
350
7A
  3
Facepattern
350
39
  3
Flat
350
2B
  3
FlatWithEdges
350
2C
  3
Gouraud
350
2D
  3
GouraudWithEdges
350
2E
  3
Hidden
350
77
  3
JitterOff
350
78
  3
Linepattern
350
38
  3
OverhangOff
350
79
  3
Realistic
350
33
  3
Shaded
350
7F
  3
Shaded with edges
350
7E
  3
Shades of Gray
350
7B
  3
Sketchy
350
7C
  3
Thicken
350
37
  3
Wireframe
350
76
  3
X-Ray
350
7D
  0
XRECORD
  5
4F8
102
{ACAD_REACTORS
330
C
102
}
330
C
100
AcDbXrecord
280
     1
 90
        1
330
3C
  0
DICTIONARY
  5
3D
102
{ACAD_REACTORS
330
C
102
}
330
C
100
AcDbDictionary
281
     1
  3
CANNOSCALE
350
62
  3
CMLEADERSTYLE
350
BB
  3
CTABLESTYLE
350
3E
  3
LIGHTSINBLOCKS
350
6F
  3
XCLIPFRAME
350
70
  0
DICTIONARY
  5
71
102
{ACAD_REACTORS
330
C
102
}
330
C
100
AcDbDictionary
281
     1
  0
DICTIONARY
  5
F7
102
{ACAD_REACTORS
330
F6
102
}
330
F6
100
AcDbDictionary
281
     1
  0
DICTIONARY
  5
48D
102
{ACAD_REACTORS
330
F6
102
}
330
F6
100
AcDbDictionary
281
     1
1001
ACAD
1000
<All
  0
SORTENTSTABLE
  5
228
102
{ACAD_REACTORS
330
227
102
}
330
227
100
AcDbSortentsTable
330
1F
331
0
  5
217
331
217
  5
21B
331
218
  5
21D
331
219
  5
21F
331
21A
  5
221
331
21B
  5
224
331
21C
  5
226
331
21D
  5
22A
331
21E
  5
230
331
21F
  5
236
331
220
  5
238
331
221
  5
23A
331
222
  5
23C
331
223
  5
23E
331
224
  5
240
331
225
  5
242
331
236
  5
21A
331
237
  5
21C
331
238
  5
21E
331
239
  5
220
331
23A
  5
225
331
23B
  5
229
331
23C
  5
22B
331
23D
  5
235
331
23E
  5
237
331
23F
  5
239
331
240
  5
23B
331
241
  5
23D
331
242
  5
23F
331
243
  5
241
331
245
  5
223
  0
IMAGEDEF
  5
CE
102
{ACAD_REACTORS
330
CF
330
FC
102
}
330
CF
100
AcDbRasterImageDef
 90
        0
  1
\\172.18.0.1\arsltd$\HS2\Evaluations\Ladbroke_AC32031\Fieldwork\Evaluation\Draftsight\Scanned_Drawings\1C20LADTT_SH_8.tif
 10
3312.0
 20
2338.0
 11
0.127000254000508
 21
0.127000254000508
280
     1
281
     3
  0
LAYOUT
  5
22
102
{ACAD_REACTORS
330
1A
102
}
330
1A
100
AcDbPlotSettings
  1

  2
none_device
  4
ISO_A3_(420.00_x_297.00_MM)
  6

 40
7.5
 41
20.0
 42
7.5
 43
20.0
 44
420.0
 45
297.0
 46
20.78282828282826
 47
0.0
 48
0.0
 49
0.0
140
0.0
141
0.0
142
1.0
143
1.155642023346303
 70
  1204
 72
     1
 73
     0
 74
     1
  7
monochrome.ctb
 75
     0
 76
     0
 77
     2
 78
   300
147
0.8653198653198654
148
-134.1869158878504
149
0.0
100
AcDbLayout
  1
Model
 70
     1
 71
     0
 10
0.0
 20
0.0
 11
420.0
 21
297.0
 12
0.0
 22
0.0
 32
0.0
 14
49.26213795851703
 24
156.8490739047784
 34
0.0
 15
63.77413558490155
 25
162.7767146706479
 35
0.0
146
0.0
 13
0.0
 23
0.0
 33
0.0
 16
1.0
 26
0.0
 36
0.0
 17
0.0
 27
1.0
 37
0.0
 76
     0
330
1F
331
29
  0
LAYOUT
  5
1E
102
{ACAD_REACTORS
330
1A
102
}
330
1A
100
AcDbPlotSettings
  1

  2
none_device
  4

  6

 40
0.0
 41
0.0
 42
0.0
 43
0.0
 44
0.0
 45
0.0
 46
0.0
 47
0.0
 48
0.0
 49
0.0
140
0.0
141
0.0
142
1.0
143
1.0
 70
   688
 72
     0
 73
     0
 74
     5
  7

 75
    16
 76
     0
 77
     2
 78
   300
147
1.0
148
0.0
149
0.0
100
AcDbLayout
  1
Sheet1
 70
     1
 71
     1
 10
0.0
 20
0.0
 11
420.0
 21
297.0
 12
0.0
 22
0.0
 32
0.0
 14
1.000000000000000E+20
 24
1.000000000000000E+20
 34
1.000000000000000E+20
 15
-1.000000000000000E+20
 25
-1.000000000000000E+20
 35
-1.000000000000000E+20
146
0.0
 13
0.0
 23
0.0
 33
0.0
 16
1.0
 26
0.0
 36
0.0
 17
0.0
 27
1.0
 37
0.0
 76
     0
330
1B
  0
LAYOUT
  5
26
102
{ACAD_REACTORS
330
1A
102
}
330
1A
100
AcDbPlotSettings
  1

  2
none_device
  4

  6

 40
0.0
 41
0.0
 42
0.0
 43
0.0
 44
0.0
 45
0.0
 46
0.0
 47
0.0
 48
0.0
 49
0.0
140
0.0
141
0.0
142
1.0
143
1.0
 70
   688
 72
     0
 73
     0
 74
     5
  7

 75
    16
 76
     0
 77
     2
 78
   300
147
1.0
148
0.0
149
0.0
100
AcDbLayout
  1
Sheet2
 70
     1
 71
     2
 10
0.0
 20
0.0
 11
0.0
 21
0.0
 12
0.0
 22
0.0
 32
0.0
 14
0.0
 24
0.0
 34
0.0
 15
0.0
 25
0.0
 35
0.0
146
0.0
 13
0.0
 23
0.0
 33
0.0
 16
1.0
 26
0.0
 36
0.0
 17
0.0
 27
1.0
 37
0.0
 76
     0
330
23
  0
MATERIAL
  5
74
102
{ACAD_REACTORS
330
72
102
}
330
72
100
AcDbMaterial
  1
ByBlock
 72
     1
 94
      127
  0
MATERIAL
  5
73
102
{ACAD_REACTORS
330
72
102
}
330
72
100
AcDbMaterial
  1
ByLayer
 72
     1
 94
      127
  0
MATERIAL
  5
75
102
{ACAD_REACTORS
330
72
102
}
330
72
100
AcDbMaterial
  1
Global
 72
     1
 94
      127
  0
MLEADERSTYLE
  5
BC
102
{ACAD_REACTORS
330
3F
102
}
330
3F
100
AcDbMLeaderStyle
179
     2
170
     2
171
     1
172
     0
 90
        2
 40
0.0
 41
0.0
173
     1
 91
-1056964608
340
14
 92
       -2
290
     1
 42
2.0
291
     1
 43
8.0
  3
Annotative
341
0
 44
4.0
300

342
11
174
     1
178
     1
175
     1
176
     0
 93
-1056964608
 45
4.0
292
     0
297
     0
 46
4.0
343
0
 94
-1056964608
 47
1.0
 49
1.0
140
1.0
293
     1
141
0.0
294
     1
177
     0
142
1.0
295
     0
296
     1
143
3.75
271
     0
272
     9
273
     9
298
     0
  0
MLEADERSTYLE
  5
B7
102
{ACAD_REACTORS
330
3F
102
}
330
3F
100
AcDbMLeaderStyle
179
     2
170
     2
171
     1
172
     0
 90
        2
 40
0.0
 41
0.0
173
     1
 91
-1056964608
340
14
 92
       -2
290
     1
 42
2.0
291
     1
 43
8.0
  3
Standard
341
0
 44
4.0
300

342
11
174
     1
178
     6
175
     1
176
     0
 93
-1056964608
 45
4.0
292
     0
297
     0
 46
4.0
343
0
 94
-1056964608
 47
1.0
 49
1.0
140
1.0
293
     1
141
0.0
294
     1
177
     0
142
1.0
295
     0
296
     0
143
3.75
271
     0
272
     9
273
     9
298
     0
  0
MLINESTYLE
  5
18
102
{ACAD_REACTORS
330
17
102
}
330
17
100
AcDbMlineStyle
  2
Standard
 70
     0
  3

 62
   256
 51
90.0
 52
90.0
 71
     2
 49
0.5
 62
   256
  6
BYLAYER
 49
-0.5
 62
   256
  6
BYLAYER
  0
ACDBPLACEHOLDER
  5
F
102
{ACAD_REACTORS
330
E
102
}
330
E
  0
SCALE
  5
41
102
{ACAD_REACTORS
330
40
102
}
330
40
100
AcDbScale
 70
     0
300
1:1
140
1.0
141
1.0
290
     1
  0
SCALE
  5
42
102
{ACAD_REACTORS
330
40
102
}
330
40
100
AcDbScale
 70
     0
300
1:2
140
1.0
141
2.0
290
     0
  0
SCALE
  5
43
102
{ACAD_REACTORS
330
40
102
}
330
40
100
AcDbScale
 70
     0
300
1:4
140
1.0
141
4.0
290
     0
  0
SCALE
  5
44
102
{ACAD_REACTORS
330
40
102
}
330
40
100
AcDbScale
 70
     0
300
1:5
140
1.0
141
5.0
290
     0
  0
SCALE
  5
45
102
{ACAD_REACTORS
330
40
102
}
330
40
100
AcDbScale
 70
     0
300
1:8
140
1.0
141
8.0
290
     0
  0
SCALE
  5
46
102
{ACAD_REACTORS
330
40
102
}
330
40
100
AcDbScale
 70
     0
300
1:10
140
1.0
141
10.0
290
     0
  0
SCALE
  5
47
102
{ACAD_REACTORS
330
40
102
}
330
40
100
AcDbScale
 70
     0
300
1:16
140
1.0
141
16.0
290
     0
  0
SCALE
  5
48
102
{ACAD_REACTORS
330
40
102
}
330
40
100
AcDbScale
 70
     0
300
1:20
140
1.0
141
20.0
290
     0
  0
SCALE
  5
49
102
{ACAD_REACTORS
330
40
102
}
330
40
100
AcDbScale
 70
     0
300
1:30
140
1.0
141
30.0
290
     0
  0
SCALE
  5
4A
102
{ACAD_REACTORS
330
40
102
}
330
40
100
AcDbScale
 70
     0
300
1:40
140
1.0
141
40.0
290
     0
  0
SCALE
  5
4B
102
{ACAD_REACTORS
330
40
102
}
330
40
100
AcDbScale
 70
     0
300
1:50
140
1.0
141
50.0
290
     0
  0
SCALE
  5
4C
102
{ACAD_REACTORS
330
40
102
}
330
40
100
AcDbScale
 70
     0
300
1:100
140
1.0
141
100.0
290
     0
  0
SCALE
  5
4D
102
{ACAD_REACTORS
330
40
102
}
330
40
100
AcDbScale
 70
     0
300
2:1
140
2.0
141
1.0
290
     0
  0
SCALE
  5
4E
102
{ACAD_REACTORS
330
40
102
}
330
40
100
AcDbScale
 70
     0
300
4:1
140
4.0
141
1.0
290
     0
  0
SCALE
  5
4F
102
{ACAD_REACTORS
330
40
102
}
330
40
100
AcDbScale
 70
     0
300
8:1
140
8.0
141
1.0
290
     0
  0
SCALE
  5
50
102
{ACAD_REACTORS
330
40
102
}
330
40
100
AcDbScale
 70
     0
300
10:1
140
10.0
141
1.0
290
     0
  0
SCALE
  5
51
102
{ACAD_REACTORS
330
40
102
}
330
40
100
AcDbScale
 70
     0
300
100:1
140
100.0
141
1.0
290
     0
  0
SCALE
  5
52
102
{ACAD_REACTORS
330
40
102
}
330
40
100
AcDbScale
 70
     0
300
1/128" = 1'-0"
140
0.0078125
141
12.0
290
     0
  0
SCALE
  5
53
102
{ACAD_REACTORS
330
40
102
}
330
40
100
AcDbScale
 70
     0
300
1/64" = 1'-0"
140
0.015625
141
12.0
290
     0
  0
SCALE
  5
54
102
{ACAD_REACTORS
330
40
102
}
330
40
100
AcDbScale
 70
     0
300
1/32" = 1'-0"
140
0.03125
141
12.0
290
     0
  0
SCALE
  5
55
102
{ACAD_REACTORS
330
40
102
}
330
40
100
AcDbScale
 70
     0
300
1/16" = 1'-0"
140
0.0625
141
12.0
290
     0
  0
SCALE
  5
56
102
{ACAD_REACTORS
330
40
102
}
330
40
100
AcDbScale
 70
     0
300
3/32" = 1'-0"
140
0.09375
141
12.0
290
     0
  0
SCALE
  5
57
102
{ACAD_REACTORS
330
40
102
}
330
40
100
AcDbScale
 70
     0
300
1/8" = 1'-0"
140
0.125
141
12.0
290
     0
  0
SCALE
  5
58
102
{ACAD_REACTORS
330
40
102
}
330
40
100
AcDbScale
 70
     0
300
3/16" = 1'-0"
140
0.1875
141
12.0
290
     0
  0
SCALE
  5
59
102
{ACAD_REACTORS
330
40
102
}
330
40
100
AcDbScale
 70
     0
300
1/4" = 1'-0"
140
0.25
141
12.0
290
     0
  0
SCALE
  5
5A
102
{ACAD_REACTORS
330
40
102
}
330
40
100
AcDbScale
 70
     0
300
3/8" = 1'-0"
140
0.375
141
12.0
290
     0
  0
SCALE
  5
5B
102
{ACAD_REACTORS
330
40
102
}
330
40
100
AcDbScale
 70
     0
300
1/2" = 1'-0"
140
0.5
141
12.0
290
     0
  0
SCALE
  5
5C
102
{ACAD_REACTORS
330
40
102
}
330
40
100
AcDbScale
 70
     0
300
3/4" = 1'-0"
140
0.75
141
12.0
290
     0
  0
SCALE
  5
5D
102
{ACAD_REACTORS
330
40
102
}
330
40
100
AcDbScale
 70
     0
300
1" = 1'-0"
140
1.0
141
12.0
290
     0
  0
SCALE
  5
5E
102
{ACAD_REACTORS
330
40
102
}
330
40
100
AcDbScale
 70
     0
300
1-1/2" = 1'-0"
140
1.5
141
12.0
290
     0
  0
SCALE
  5
5F
102
{ACAD_REACTORS
330
40
102
}
330
40
100
AcDbScale
 70
     0
300
3" = 1'-0"
140
3.0
141
12.0
290
     0
  0
SCALE
  5
60
102
{ACAD_REACTORS
330
40
102
}
330
40
100
AcDbScale
 70
     0
300
6" = 1'-0"
140
6.0
141
12.0
290
     0
  0
SCALE
  5
61
102
{ACAD_REACTORS
330
40
102
}
330
40
100
AcDbScale
 70
     0
300
1'-0" = 1'-0"
140
12.0
141
12.0
290
     0
  0
TABLESTYLE
  5
3C
102
{ACAD_REACTORS
330
3B
102
}
102
{ACAD_XDICTIONARY
360
4F6
102
}
330
3B
100
AcDbTableStyle
  3
Standard
 70
     0
 71
     0
 40
1.5
 41
1.5
280
     0
281
     0
  7
Standard
140
4.5
170
     2
 62
     0
 63
   257
283
     0
 90
      512
 91
        0
  1

274
    -2
284
     1
 64
     0
275
    -2
285
     1
 65
     0
276
    -2
286
     1
 66
     0
277
    -2
287
     1
 67
     0
278
    -2
288
     1
 68
     0
279
    -2
289
     1
 69
     0
  7
Standard
140
6.0
170
     5
 62
     0
 63
   257
283
     0
 90
      512
 91
        0
  1

274
    -2
284
     1
 64
     0
275
    -2
285
     1
 65
     0
276
    -2
286
     1
 66
     0
277
    -2
287
     1
 67
     0
278
    -2
288
     1
 68
     0
279
    -2
289
     1
 69
     0
  7
Standard
140
4.5
170
     5
 62
     0
 63
   257
283
     0
 90
      512
 91
        0
  1

274
    -2
284
     1
 64
     0
275
    -2
285
     1
 65
     0
276
    -2
286
     1
 66
     0
277
    -2
287
     1
 67
     0
278
    -2
288
     1
 68
     0
279
    -2
289
     1
 69
     0
  0
VISUALSTYLE
  5
2F
102
{ACAD_REACTORS
330
2A
102
}
330
2A
100
AcDbVisualStyle
  2
2dWireframe
 70
     4
177
     3
291
     0
 70
    58
 90
        0
176
     1
 90
        2
176
     1
 90
        0
176
     1
 90
        0
176
     1
 40
-0.6
176
     1
 40
-30.0
176
     1
 62
     7
420
 16777215
176
     1
 90
        1
176
     1
 90
        4
176
     1
 62
     7
176
     1
 62
   257
176
     1
 90
        1
176
     1
 90
        1
176
     1
 40
1.0
176
     1
 90
        0
176
     1
 62
   257
176
     1
 40
1.0
176
     1
 90
        1
176
     1
 90
        6
176
     1
 90
        2
176
     1
 62
     7
176
     1
 90
        5
176
     1
 90
        0
176
     1
 90
        0
176
     1
290
     0
176
     1
 90
        1
176
     1
 40
0.0
176
     1
 90
        0
176
     1
290
     1
176
     1
290
     1
176
     1
290
     0
176
     1
290
     0
176
     1
290
     0
176
     1
290
     0
176
     1
290
     0
176
     1
290
     0
176
     1
290
     0
176
     1
 90
       50
176
     1
 40
0.0
176
     1
 40
1.0
176
     1
 90
        0
176
     1
 62
    18
420
        0
176
     1
 90
       50
176
     1
 90
        3
176
     1
 62
     5
420
      255
176
     1
290
     0
176
     1
 90
       50
176
     1
 90
       50
176
     1
 90
       50
176
     1
290
     0
176
     1
 90
       50
176
     1
 62
   256
176
     0
 40
1.0
176
     0
 90
        2
176
     1
  1
strokes_ogs.tif
176
     1
290
     0
176
     1
 40
1.0
176
     1
 40
1.0
176
     1
  0
VISUALSTYLE
  5
31
102
{ACAD_REACTORS
330
2A
102
}
330
2A
100
AcDbVisualStyle
  2
3D Hidden
 70
     6
177
     3
291
     0
 70
    58
 90
        1
176
     1
 90
        2
176
     1
 90
        2
176
     1
 90
        0
176
     1
 40
-0.6
176
     1
 40
-30.0
176
     1
 62
     7
420
 16777215
176
     1
 90
        2
176
     1
 90
        2
176
     1
 62
     7
176
     1
 62
   257
176
     1
 90
        2
176
     1
 90
        1
176
     1
 40
40.0
176
     1
 90
        0
176
     1
 62
   257
176
     1
 40
1.0
176
     1
 90
        1
176
     1
 90
        6
176
     1
 90
        2
176
     1
 62
     7
176
     1
 90
        3
176
     1
 90
        0
176
     1
 90
        0
176
     1
290
     0
176
     1
 90
        1
176
     1
 40
0.0
176
     1
 90
        0
176
     1
290
     0
176
     1
290
     1
176
     1
290
     1
176
     1
290
     0
176
     1
290
     0
176
     1
290
     0
176
     1
290
     0
176
     1
290
     0
176
     1
290
     0
176
     1
 90
       50
176
     1
 40
0.0
176
     1
 40
1.0
176
     1
 90
        0
176
     1
 62
    18
420
        0
176
     1
 90
       50
176
     1
 90
        3
176
     1
 62
     5
420
      255
176
     1
290
     0
176
     1
 90
       50
176
     1
 90
       50
176
     1
 90
       50
176
     1
290
     0
176
     1
 90
       50
176
     1
 62
   256
176
     0
 40
1.0
176
     0
 90
        2
176
     1
  1
strokes_ogs.tif
176
     1
290
     0
176
     1
 40
1.0
176
     1
 40
1.0
176
     1
  0
VISUALSTYLE
  5
30
102
{ACAD_REACTORS
330
2A
102
}
330
2A
100
AcDbVisualStyle
  2
3dWireframe
 70
     5
177
     3
291
     0
 70
    58
 90
        0
176
     1
 90
        2
176
     1
 90
        0
176
     1
 90
        0
176
     1
 40
-0.6
176
     1
 40
-30.0
176
     1
 62
     7
420
 16777215
176
     1
 90
        1
176
     1
 90
        4
176
     1
 62
     7
176
     1
 62
   257
176
     1
 90
        1
176
     1
 90
        1
176
     1
 40
1.0
176
     1
 90
        0
176
     1
 62
   257
176
     1
 40
1.0
176
     1
 90
        1
176
     1
 90
        6
176
     1
 90
        2
176
     1
 62
     7
176
     1
 90
        5
176
     1
 90
        0
176
     1
 90
        0
176
     1
290
     0
176
     1
 90
        1
176
     1
 40
0.0
176
     1
 90
        0
176
     1
290
     0
176
     1
290
     1
176
     1
290
     1
176
     1
290
     0
176
     1
290
     0
176
     1
290
     0
176
     1
290
     0
176
     1
290
     0
176
     1
290
     0
176
     1
 90
       50
176
     1
 40
0.0
176
     1
 40
1.0
176
     1
 90
        0
176
     1
 62
    18
420
        0
176
     1
 90
       50
176
     1
 90
        3
176
     1
 62
     5
420
      255
176
     1
290
     0
176
     1
 90
       50
176
     1
 90
       50
176
     1
 90
       50
176
     1
290
     0
176
     1
 90
       50
176
     1
 62
   256
176
     0
 40
1.0
176
     0
 90
        2
176
     1
  1
strokes_ogs.tif
176
     1
290
     0
176
     1
 40
1.0
176
     1
 40
1.0
176
     1
  0
VISUALSTYLE
  5
32
102
{ACAD_REACTORS
330
2A
102
}
330
2A
100
AcDbVisualStyle
  2
Basic
 70
     7
177
     3
291
     1
 70
    58
 90
        1
176
     1
 90
        0
176
     1
 90
        1
176
     1
 90
        0
176
     1
 40
-0.6
176
     1
 40
-30.0
176
     1
 62
     7
420
 16777215
176
     1
 90
        0
176
     1
 90
        4
176
     1
 62
     7
176
     1
 62
   257
176
     1
 90
        1
176
     1
 90
        1
176
     1
 40
1.0
176
     1
 90
        8
176
     1
 62
     7
176
     1
 40
1.0
176
     1
 90
        1
176
     1
 90
        6
176
     1
 90
        2
176
     1
 62
     7
176
     1
 90
        5
176
     1
 90
        0
176
     1
 90
        0
176
     1
290
     0
176
     1
 90
        1
176
     1
 40
0.0
176
     1
 90
        0
176
     1
290
     0
176
     1
290
     1
176
     1
290
     1
176
     1
290
     0
176
     1
290
     0
176
     1
290
     0
176
     1
290
     0
176
     1
290
     0
176
     1
290
     0
176
     1
 90
       50
176
     1
 40
0.0
176
     1
 40
1.0
176
     1
 90
        0
176
     1
 62
    18
420
        0
176
     1
 90
       50
176
     1
 90
        3
176
     1
 62
     5
420
      255
176
     1
290
     0
176
     1
 90
       50
176
     1
 90
       50
176
     1
 90
       50
176
     1
290
     0
176
     1
 90
       50
176
     1
 62
   256
176
     0
 40
1.0
176
     0
 90
        2
176
     1
  1
strokes_ogs.tif
176
     1
290
     0
176
     1
 40
1.0
176
     1
 40
1.0
176
     1
  0
VISUALSTYLE
  5
36
102
{ACAD_REACTORS
330
2A
102
}
330
2A
100
AcDbVisualStyle
  2
Brighten
 70
    12
177
     3
291
     1
 70
    58
 90
        2
176
     1
 90
        2
176
     1
 90
        0
176
     1
 90
        0
176
     1
 40
-0.6
176
     1
 40
-30.0
176
     1
 62
     7
420
 16777215
176
     1
 90
        1
176
     1
 90
        4
176
     1
 62
     7
176
     1
 62
   257
176
     1
 90
        1
176
     1
 90
        1
176
     1
 40
1.0
176
     1
 90
        8
176
     1
 62
     7
176
     1
 40
1.0
176
     1
 90
        1
176
     1
 90
        6
176
     1
 90
        2
176
     1
 62
     7
176
     1
 90
        5
176
     1
 90
        0
176
     1
 90
        0
176
     1
290
     0
176
     1
 90
        1
176
     1
 40
50.0
176
     1
 90
        0
176
     1
290
     0
176
     1
290
     1
176
     1
290
     1
176
     1
290
     0
176
     1
290
     0
176
     1
290
     0
176
     1
290
     0
176
     1
290
     0
176
     1
290
     0
176
     1
 90
       50
176
     1
 40
0.0
176
     1
 40
1.0
176
     1
 90
        0
176
     1
 62
    18
420
        0
176
     1
 90
       50
176
     1
 90
        3
176
     1
 62
     5
420
      255
176
     1
290
     0
176
     1
 90
       50
176
     1
 90
       50
176
     1
 90
       50
176
     1
290
     0
176
     1
 90
       50
176
     1
 62
   256
176
     0
 40
1.0
176
     0
 90
        2
176
     1
  1
strokes_ogs.tif
176
     1
290
     0
176
     1
 40
1.0
176
     1
 40
1.0
176
     1
  0
VISUALSTYLE
  5
3A
102
{ACAD_REACTORS
330
2A
102
}
330
2A
100
AcDbVisualStyle
  2
ColorChange
 70
    16
177
     3
291
     1
 70
    58
 90
        2
176
     1
 90
        2
176
     1
 90
        3
176
     1
 90
        0
176
     1
 40
-0.6
176
     1
 40
-30.0
176
     1
 62
     8
420
  8421504
176
     1
 90
        1
176
     1
 90
        4
176
     1
 62
     7
176
     1
 62
   257
176
     1
 90
        1
176
     1
 90
        1
176
     1
 40
1.0
176
     1
 90
        8
176
     1
 62
     8
420
  8421504
176
     1
 40
1.0
176
     1
 90
        1
176
     1
 90
        6
176
     1
 90
        2
176
     1
 62
     7
176
     1
 90
        5
176
     1
 90
        0
176
     1
 90
        0
176
     1
290
     0
176
     1
 90
        1
176
     1
 40
0.0
176
     1
 90
        0
176
     1
290
     0
176
     1
290
     1
176
     1
290
     1
176
     1
290
     0
176
     1
290
     0
176
     1
290
     0
176
     1
290
     0
176
     1
290
     0
176
     1
290
     0
176
     1
 90
       50
176
     1
 40
0.0
176
     1
 40
1.0
176
     1
 90
        0
176
     1
 62
    18
420
        0
176
     1
 90
       50
176
     1
 90
        3
176
     1
 62
     5
420
      255
176
     1
290
     0
176
     1
 90
       50
176
     1
 90
       50
176
     1
 90
       50
176
     1
290
     0
176
     1
 90
       50
176
     1
 62
   256
176
     0
 40
1.0
176
     0
 90
        2
176
     1
  1
strokes_ogs.tif
176
     1
290
     0
176
     1
 40
1.0
176
     1
 40
1.0
176
     1
  0
VISUALSTYLE
  5
34
102
{ACAD_REACTORS
330
2A
102
}
330
2A
100
AcDbVisualStyle
  2
Conceptual
 70
     9
177
     3
291
     0
 70
    58
 90
        3
176
     1
 90
        2
176
     1
 90
        0
176
     1
 90
        0
176
     1
 40
-0.6
176
     1
 40
-30.0
176
     1
 62
     7
420
 16777215
176
     1
 90
        2
176
     1
 90
        2
176
     1
 62
     7
176
     1
 62
   257
176
     1
 90
        1
176
     1
 90
        1
176
     1
 40
40.0
176
     1
 90
        8
176
     1
 62
     7
176
     1
 40
1.0
176
     1
 90
        1
176
     1
 90
        6
176
     1
 90
        2
176
     1
 62
     7
176
     1
 90
        3
176
     1
 90
        0
176
     1
 90
        0
176
     1
290
     0
176
     1
 90
        1
176
     1
 40
0.0
176
     1
 90
        0
176
     1
290
     0
176
     1
290
     1
176
     1
290
     1
176
     1
290
     0
176
     1
290
     0
176
     1
290
     0
176
     1
290
     0
176
     1
290
     0
176
     1
290
     0
176
     1
 90
       50
176
     1
 40
0.0
176
     1
 40
1.0
176
     1
 90
        0
176
     1
 62
    18
420
        0
176
     1
 90
       50
176
     1
 90
        3
176
     1
 62
     5
420
      255
176
     1
290
     0
176
     1
 90
       50
176
     1
 90
       50
176
     1
 90
       50
176
     1
290
     0
176
     1
 90
       50
176
     1
 62
   256
176
     0
 40
1.0
176
     0
 90
        2
176
     1
  1
strokes_ogs.tif
176
     1
290
     0
176
     1
 40
1.0
176
     1
 40
1.0
176
     1
  0
VISUALSTYLE
  5
35
102
{ACAD_REACTORS
330
2A
102
}
330
2A
100
AcDbVisualStyle
  2
Dim
 70
    11
177
     3
291
     1
 70
    58
 90
        2
176
     1
 90
        2
176
     1
 90
        0
176
     1
 90
        0
176
     1
 40
-0.6
176
     1
 40
-30.0
176
     1
 62
     7
420
 16777215
176
     1
 90
        1
176
     1
 90
        4
176
     1
 62
     7
176
     1
 62
   257
176
     1
 90
        1
176
     1
 90
        1
176
     1
 40
1.0
176
     1
 90
        8
176
     1
 62
     7
176
     1
 40
1.0
176
     1
 90
        1
176
     1
 90
        6
176
     1
 90
        2
176
     1
 62
     7
176
     1
 90
        5
176
     1
 90
        0
176
     1
 90
        0
176
     1
290
     0
176
     1
 90
        1
176
     1
 40
-50.0
176
     1
 90
        0
176
     1
290
     0
176
     1
290
     1
176
     1
290
     1
176
     1
290
     0
176
     1
290
     0
176
     1
290
     0
176
     1
290
     0
176
     1
290
     0
176
     1
290
     0
176
     1
 90
       50
176
     1
 40
0.0
176
     1
 40
1.0
176
     1
 90
        0
176
     1
 62
    18
420
        0
176
     1
 90
       50
176
     1
 90
        3
176
     1
 62
     5
420
      255
176
     1
290
     0
176
     1
 90
       50
176
     1
 90
       50
176
     1
 90
       50
176
     1
290
     0
176
     1
 90
       50
176
     1
 62
   256
176
     0
 40
1.0
176
     0
 90
        2
176
     1
  1
strokes_ogs.tif
176
     1
290
     0
176
     1
 40
1.0
176
     1
 40
1.0
176
     1
  0
VISUALSTYLE
  5
7A
102
{ACAD_REACTORS
330
2A
102
}
330
2A
100
AcDbVisualStyle
  2
EdgeColorOff
 70
    22
177
     3
291
     1
 70
    58
 90
        2
176
     0
 90
        2
176
     0
 90
        0
176
     0
 90
        0
176
     0
 40
0.6
176
     0
 40
30.0
176
     0
 62
     7
420
 16777215
176
     0
 90
        1
176
     0
 90
        4
176
     0
 62
     7
176
     0
 62
   257
176
     0
 90
        1
176
     0
 90
        1
176
     0
 40
1.0
176
     0
 90
        8
176
     2
 62
     7
176
     0
 40
1.0
176
     0
 90
        1
176
     0
 90
        6
176
     0
 90
        2
176
     0
 62
     7
176
     0
 90
        5
176
     0
 90
        0
176
     0
 90
        0
176
     0
290
     0
176
     0
 90
        1
176
     0
 40
0.0
176
     0
 90
        0
176
     0
290
     0
176
     0
290
     1
176
     0
290
     1
176
     0
290
     0
176
     0
290
     0
176
     0
290
     0
176
     0
290
     0
176
     0
290
     0
176
     0
290
     0
176
     0
 90
       50
176
     0
 40
0.0
176
     0
 40
1.0
176
     0
 90
        0
176
     0
 62
    18
420
        0
176
     0
 90
       50
176
     0
 90
        3
176
     0
 62
     5
420
      255
176
     0
290
     0
176
     0
 90
       50
176
     0
 90
       50
176
     0
 90
       50
176
     0
290
     0
176
     0
 90
       50
176
     0
 62
   256
176
     0
 40
1.0
176
     0
 90
        2
176
     0
  1
strokes_ogs.tif
176
     0
290
     0
176
     0
 40
1.0
176
     0
 40
1.0
176
     0
  0
VISUALSTYLE
  5
39
102
{ACAD_REACTORS
330
2A
102
}
330
2A
100
AcDbVisualStyle
  2
Facepattern
 70
    15
177
     3
291
     1
 70
    58
 90
        2
176
     1
 90
        2
176
     1
 90
        0
176
     1
 90
        0
176
     1
 40
-0.6
176
     1
 40
-30.0
176
     1
 62
     7
420
 16777215
176
     1
 90
        1
176
     1
 90
        4
176
     1
 62
     7
176
     1
 62
   257
176
     1
 90
        1
176
     1
 90
        1
176
     1
 40
1.0
176
     1
 90
        8
176
     1
 62
     7
176
     1
 40
1.0
176
     1
 90
        1
176
     1
 90
        6
176
     1
 90
        2
176
     1
 62
     7
176
     1
 90
        5
176
     1
 90
        0
176
     1
 90
        0
176
     1
290
     0
176
     1
 90
        1
176
     1
 40
0.0
176
     1
 90
        0
176
     1
290
     0
176
     1
290
     1
176
     1
290
     1
176
     1
290
     0
176
     1
290
     0
176
     1
290
     0
176
     1
290
     0
176
     1
290
     0
176
     1
290
     0
176
     1
 90
       50
176
     1
 40
0.0
176
     1
 40
1.0
176
     1
 90
        0
176
     1
 62
    18
420
        0
176
     1
 90
       50
176
     1
 90
        3
176
     1
 62
     5
420
      255
176
     1
290
     0
176
     1
 90
       50
176
     1
 90
       50
176
     1
 90
       50
176
     1
290
     0
176
     1
 90
       50
176
     1
 62
   256
176
     0
 40
1.0
176
     0
 90
        2
176
     1
  1
strokes_ogs.tif
176
     1
290
     0
176
     1
 40
1.0
176
     1
 40
1.0
176
     1
  0
VISUALSTYLE
  5
2B
102
{ACAD_REACTORS
330
2A
102
}
330
2A
100
AcDbVisualStyle
  2
Flat
 70
     0
177
     3
291
     1
 70
    58
 90
        2
176
     1
 90
        1
176
     1
 90
        1
176
     1
 90
        2
176
     1
 40
-0.6
176
     1
 40
30.0
176
     1
 62
     7
420
 16777215
176
     1
 90
        0
176
     1
 90
        4
176
     1
 62
     7
176
     1
 62
   257
176
     1
 90
        1
176
     1
 90
        1
176
     1
 40
1.0
176
     1
 90
        8
176
     1
 62
     7
176
     1
 40
1.0
176
     1
 90
        1
176
     1
 90
        6
176
     1
 90
        2
176
     1
 62
     7
176
     1
 90
        5
176
     1
 90
        0
176
     1
 90
        0
176
     1
290
     0
176
     1
 90
       13
176
     1
 40
0.0
176
     1
 90
        0
176
     1
290
     0
176
     1
290
     1
176
     1
290
     1
176
     1
290
     0
176
     1
290
     0
176
     1
290
     0
176
     1
290
     0
176
     1
290
     0
176
     1
290
     0
176
     1
 90
       50
176
     1
 40
0.0
176
     1
 40
1.0
176
     1
 90
        0
176
     1
 62
    18
420
        0
176
     1
 90
       50
176
     1
 90
        3
176
     1
 62
     5
420
      255
176
     1
290
     0
176
     1
 90
       50
176
     1
 90
       50
176
     1
 90
       50
176
     1
290
     0
176
     1
 90
       50
176
     1
 62
   256
176
     0
 40
1.0
176
     0
 90
        2
176
     1
  1
strokes_ogs.tif
176
     1
290
     0
176
     1
 40
1.0
176
     1
 40
1.0
176
     1
  0
VISUALSTYLE
  5
2C
102
{ACAD_REACTORS
330
2A
102
}
330
2A
100
AcDbVisualStyle
  2
FlatWithEdges
 70
     1
177
     3
291
     1
 70
    58
 90
        2
176
     1
 90
        1
176
     1
 90
        1
176
     1
 90
        2
176
     1
 40
-0.6
176
     1
 40
30.0
176
     1
 62
     7
420
 16777215
176
     1
 90
        1
176
     1
 90
        4
176
     1
 62
     7
176
     1
 62
   257
176
     1
 90
        1
176
     1
 90
        1
176
     1
 40
1.0
176
     1
 90
        0
176
     1
 62
   257
176
     1
 40
1.0
176
     1
 90
        1
176
     1
 90
        6
176
     1
 90
        2
176
     1
 62
     7
176
     1
 90
        5
176
     1
 90
        0
176
     1
 90
        0
176
     1
290
     0
176
     1
 90
       13
176
     1
 40
0.0
176
     1
 90
        0
176
     1
290
     0
176
     1
290
     1
176
     1
290
     1
176
     1
290
     0
176
     1
290
     0
176
     1
290
     0
176
     1
290
     0
176
     1
290
     0
176
     1
290
     0
176
     1
 90
       50
176
     1
 40
0.0
176
     1
 40
1.0
176
     1
 90
        0
176
     1
 62
    18
420
        0
176
     1
 90
       50
176
     1
 90
        3
176
     1
 62
     5
420
      255
176
     1
290
     0
176
     1
 90
       50
176
     1
 90
       50
176
     1
 90
       50
176
     1
290
     0
176
     1
 90
       50
176
     1
 62
   256
176
     0
 40
1.0
176
     0
 90
        2
176
     1
  1
strokes_ogs.tif
176
     1
290
     0
176
     1
 40
1.0
176
     1
 40
1.0
176
     1
  0
VISUALSTYLE
  5
2D
102
{ACAD_REACTORS
330
2A
102
}
330
2A
100
AcDbVisualStyle
  2
Gouraud
 70
     2
177
     3
291
     1
 70
    58
 90
        2
176
     1
 90
        2
176
     1
 90
        1
176
     1
 90
        2
176
     1
 40
-0.6
176
     1
 40
30.0
176
     1
 62
     7
420
 16777215
176
     1
 90
        0
176
     1
 90
        4
176
     1
 62
     7
176
     1
 62
   257
176
     1
 90
        1
176
     1
 90
        1
176
     1
 40
1.0
176
     1
 90
        0
176
     1
 62
     7
176
     1
 40
1.0
176
     1
 90
        1
176
     1
 90
        6
176
     1
 90
        2
176
     1
 62
     7
176
     1
 90
        5
176
     1
 90
        0
176
     1
 90
        0
176
     1
290
     0
176
     1
 90
       13
176
     1
 40
0.0
176
     1
 90
        0
176
     1
290
     0
176
     1
290
     1
176
     1
290
     1
176
     1
290
     0
176
     1
290
     0
176
     1
290
     0
176
     1
290
     0
176
     1
290
     0
176
     1
290
     0
176
     1
 90
       50
176
     1
 40
0.0
176
     1
 40
1.0
176
     1
 90
        0
176
     1
 62
    18
420
        0
176
     1
 90
       50
176
     1
 90
        3
176
     1
 62
     5
420
      255
176
     1
290
     0
176
     1
 90
       50
176
     1
 90
       50
176
     1
 90
       50
176
     1
290
     0
176
     1
 90
       50
176
     1
 62
   256
176
     0
 40
1.0
176
     0
 90
        2
176
     1
  1
strokes_ogs.tif
176
     1
290
     0
176
     1
 40
1.0
176
     1
 40
1.0
176
     1
  0
VISUALSTYLE
  5
2E
102
{ACAD_REACTORS
330
2A
102
}
330
2A
100
AcDbVisualStyle
  2
GouraudWithEdges
 70
     3
177
     3
291
     1
 70
    58
 90
        2
176
     1
 90
        2
176
     1
 90
        1
176
     1
 90
        2
176
     1
 40
-0.6
176
     1
 40
30.0
176
     1
 62
     7
420
 16777215
176
     1
 90
        1
176
     1
 90
        4
176
     1
 62
     7
176
     1
 62
   257
176
     1
 90
        1
176
     1
 90
        1
176
     1
 40
1.0
176
     1
 90
        0
176
     1
 62
   257
176
     1
 40
1.0
176
     1
 90
        1
176
     1
 90
        6
176
     1
 90
        2
176
     1
 62
     7
176
     1
 90
        5
176
     1
 90
        0
176
     1
 90
        0
176
     1
290
     0
176
     1
 90
       13
176
     1
 40
0.0
176
     1
 90
        0
176
     1
290
     0
176
     1
290
     1
176
     1
290
     1
176
     1
290
     0
176
     1
290
     0
176
     1
290
     0
176
     1
290
     0
176
     1
290
     0
176
     1
290
     0
176
     1
 90
       50
176
     1
 40
0.0
176
     1
 40
1.0
176
     1
 90
        0
176
     1
 62
    18
420
        0
176
     1
 90
       50
176
     1
 90
        3
176
     1
 62
     5
420
      255
176
     1
290
     0
176
     1
 90
       50
176
     1
 90
       50
176
     1
 90
       50
176
     1
290
     0
176
     1
 90
       50
176
     1
 62
   256
176
     0
 40
1.0
176
     0
 90
        2
176
     1
  1
strokes_ogs.tif
176
     1
290
     0
176
     1
 40
1.0
176
     1
 40
1.0
176
     1
  0
VISUALSTYLE
  5
77
102
{ACAD_REACTORS
330
2A
102
}
330
2A
100
AcDbVisualStyle
  2
Hidden
 70
     6
177
     3
291
     0
 70
    58
 90
        1
176
     1
 90
        2
176
     1
 90
        2
176
     1
 90
        0
176
     1
 40
0.6
176
     1
 40
30.0
176
     1
 62
     7
420
 16777215
176
     1
 90
        2
176
     1
 90
        2
176
     1
 62
     7
176
     1
 62
   257
176
     1
 90
        2
176
     1
 90
        1
176
     1
 40
40.0
176
     1
 90
        0
176
     1
 62
   257
176
     1
 40
1.0
176
     1
 90
        1
176
     1
 90
        6
176
     1
 90
        2
176
     1
 62
     7
176
     1
 90
        3
176
     1
 90
        0
176
     1
 90
        0
176
     1
290
     0
176
     1
 90
        1
176
     1
 40
0.0
176
     1
 90
        0
176
     1
290
     0
176
     1
290
     1
176
     1
290
     1
176
     1
290
     0
176
     1
290
     0
176
     1
290
     0
176
     1
290
     0
176
     1
290
     0
176
     1
290
     0
176
     1
 90
       50
176
     1
 40
0.0
176
     1
 40
1.0
176
     1
 90
        0
176
     1
 62
    18
420
        0
176
     1
 90
       50
176
     1
 90
        3
176
     1
 62
     5
420
      255
176
     1
290
     0
176
     1
 90
       50
176
     1
 90
       50
176
     1
 90
       50
176
     1
290
     0
176
     1
 90
       50
176
     1
 62
   256
176
     0
 40
1.0
176
     0
 90
        2
176
     1
  1
strokes_ogs.tif
176
     1
290
     0
176
     1
 40
1.0
176
     1
 40
1.0
176
     1
  0
VISUALSTYLE
  5
78
102
{ACAD_REACTORS
330
2A
102
}
330
2A
100
AcDbVisualStyle
  2
JitterOff
 70
    20
177
     3
291
     1
 70
    58
 90
        2
176
     0
 90
        2
176
     0
 90
        0
176
     0
 90
        0
176
     0
 40
0.6
176
     0
 40
30.0
176
     0
 62
     7
420
 16777215
176
     0
 90
        1
176
     0
 90
        4
176
     0
 62
     7
176
     0
 62
   257
176
     0
 90
        1
176
     0
 90
        1
176
     0
 40
1.0
176
     0
 90
       10
176
     2
 62
     7
176
     0
 40
1.0
176
     0
 90
        1
176
     0
 90
        6
176
     0
 90
        2
176
     0
 62
     7
176
     0
 90
        5
176
     0
 90
        0
176
     0
 90
        0
176
     0
290
     0
176
     0
 90
        1
176
     0
 40
0.0
176
     0
 90
        0
176
     0
290
     0
176
     0
290
     1
176
     0
290
     1
176
     0
290
     0
176
     0
290
     0
176
     0
290
     0
176
     0
290
     0
176
     0
290
     0
176
     0
290
     0
176
     0
 90
       50
176
     0
 40
0.0
176
     0
 40
1.0
176
     0
 90
        0
176
     0
 62
    18
420
        0
176
     0
 90
       50
176
     0
 90
        3
176
     0
 62
     5
420
      255
176
     0
290
     0
176
     0
 90
       50
176
     0
 90
       50
176
     0
 90
       50
176
     0
290
     0
176
     0
 90
       50
176
     0
 62
   256
176
     0
 40
1.0
176
     0
 90
        2
176
     0
  1
strokes_ogs.tif
176
     0
290
     0
176
     0
 40
1.0
176
     0
 40
1.0
176
     0
  0
VISUALSTYLE
  5
38
102
{ACAD_REACTORS
330
2A
102
}
330
2A
100
AcDbVisualStyle
  2
Linepattern
 70
    14
177
     3
291
     1
 70
    58
 90
        2
176
     1
 90
        2
176
     1
 90
        0
176
     1
 90
        0
176
     1
 40
-0.6
176
     1
 40
-30.0
176
     1
 62
     7
420
 16777215
176
     1
 90
        1
176
     1
 90
        4
176
     1
 62
     7
176
     1
 62
   257
176
     1
 90
        7
176
     1
 90
        7
176
     1
 40
1.0
176
     1
 90
        8
176
     1
 62
     7
176
     1
 40
1.0
176
     1
 90
        1
176
     1
 90
        6
176
     1
 90
        2
176
     1
 62
     7
176
     1
 90
        5
176
     1
 90
        0
176
     1
 90
        0
176
     1
290
     0
176
     1
 90
        1
176
     1
 40
0.0
176
     1
 90
        0
176
     1
290
     0
176
     1
290
     1
176
     1
290
     1
176
     1
290
     0
176
     1
290
     0
176
     1
290
     0
176
     1
290
     0
176
     1
290
     0
176
     1
290
     0
176
     1
 90
       50
176
     1
 40
0.0
176
     1
 40
1.0
176
     1
 90
        0
176
     1
 62
    18
420
        0
176
     1
 90
       50
176
     1
 90
        3
176
     1
 62
     5
420
      255
176
     1
290
     0
176
     1
 90
       50
176
     1
 90
       50
176
     1
 90
       50
176
     1
290
     0
176
     1
 90
       50
176
     1
 62
   256
176
     0
 40
1.0
176
     0
 90
        2
176
     1
  1
strokes_ogs.tif
176
     1
290
     0
176
     1
 40
1.0
176
     1
 40
1.0
176
     1
  0
VISUALSTYLE
  5
79
102
{ACAD_REACTORS
330
2A
102
}
330
2A
100
AcDbVisualStyle
  2
OverhangOff
 70
    21
177
     3
291
     1
 70
    58
 90
        2
176
     0
 90
        2
176
     0
 90
        0
176
     0
 90
        0
176
     0
 40
0.6
176
     0
 40
30.0
176
     0
 62
     7
420
 16777215
176
     0
 90
        1
176
     0
 90
        4
176
     0
 62
     7
176
     0
 62
   257
176
     0
 90
        1
176
     0
 90
        1
176
     0
 40
1.0
176
     0
 90
        9
176
     2
 62
     7
176
     0
 40
1.0
176
     0
 90
        1
176
     0
 90
        6
176
     0
 90
        2
176
     0
 62
     7
176
     0
 90
        5
176
     0
 90
        0
176
     0
 90
        0
176
     0
290
     0
176
     0
 90
        1
176
     0
 40
0.0
176
     0
 90
        0
176
     0
290
     0
176
     0
290
     1
176
     0
290
     1
176
     0
290
     0
176
     0
290
     0
176
     0
290
     0
176
     0
290
     0
176
     0
290
     0
176
     0
290
     0
176
     0
 90
       50
176
     0
 40
0.0
176
     0
 40
1.0
176
     0
 90
        0
176
     0
 62
    18
420
        0
176
     0
 90
       50
176
     0
 90
        3
176
     0
 62
     5
420
      255
176
     0
290
     0
176
     0
 90
       50
176
     0
 90
       50
176
     0
 90
       50
176
     0
290
     0
176
     0
 90
       50
176
     0
 62
   256
176
     0
 40
1.0
176
     0
 90
        2
176
     0
  1
strokes_ogs.tif
176
     0
290
     0
176
     0
 40
1.0
176
     0
 40
1.0
176
     0
  0
VISUALSTYLE
  5
33
102
{ACAD_REACTORS
330
2A
102
}
330
2A
100
AcDbVisualStyle
  2
Realistic
 70
     8
177
     3
291
     0
 70
    58
 90
        2
176
     1
 90
        2
176
     1
 90
        0
176
     1
 90
        0
176
     1
 40
-0.6
176
     1
 40
-30.0
176
     1
 62
     7
420
 16777215
176
     1
 90
        1
176
     1
 90
        0
176
     1
 62
     7
176
     1
 62
   257
176
     1
 90
        1
176
     1
 90
        1
176
     1
 40
1.0
176
     1
 90
        8
176
     1
 62
     8
420
  7895160
176
     1
 40
1.0
176
     1
 90
        1
176
     1
 90
        6
176
     1
 90
        2
176
     1
 62
     7
176
     1
 90
        5
176
     1
 90
        0
176
     1
 90
        0
176
     1
290
     0
176
     1
 90
       13
176
     1
 40
0.0
176
     1
 90
        0
176
     1
290
     0
176
     1
290
     1
176
     1
290
     1
176
     1
290
     0
176
     1
290
     0
176
     1
290
     0
176
     1
290
     0
176
     1
290
     0
176
     1
290
     0
176
     1
 90
       50
176
     1
 40
0.0
176
     1
 40
1.0
176
     1
 90
        0
176
     1
 62
    18
420
        0
176
     1
 90
       50
176
     1
 90
        3
176
     1
 62
     5
420
      255
176
     1
290
     0
176
     1
 90
       50
176
     1
 90
       50
176
     1
 90
       50
176
     1
290
     0
176
     1
 90
       50
176
     1
 62
   256
176
     0
 40
1.0
176
     0
 90
        2
176
     1
  1
strokes_ogs.tif
176
     1
290
     0
176
     1
 40
1.0
176
     1
 40
1.0
176
     1
  0
VISUALSTYLE
  5
7F
102
{ACAD_REACTORS
330
2A
102
}
330
2A
100
AcDbVisualStyle
  2
Shaded
 70
    27
177
     3
291
     0
 70
    58
 90
        2
176
     1
 90
        2
176
     1
 90
        1
176
     1
 90
        2
176
     1
 40
0.6
176
     1
 40
30.0
176
     1
 62
     7
420
 16777215
176
     1
 90
        0
176
     1
 90
        4
176
     1
 62
     7
176
     1
 62
   257
176
     1
 90
        1
176
     1
 90
        1
176
     1
 40
1.0
176
     1
 90
        8
176
     1
 62
   257
176
     1
 40
1.0
176
     1
 90
        1
176
     1
 90
        6
176
     1
 90
        2
176
     1
 62
     8
420
  7895160
176
     1
 90
        3
176
     1
 90
        0
176
     1
 90
        0
176
     1
290
     0
176
     1
 90
        5
176
     1
 40
0.0
176
     1
 90
        0
176
     1
290
     0
176
     1
290
     1
176
     1
290
     1
176
     1
290
     0
176
     1
290
     0
176
     1
290
     0
176
     1
290
     0
176
     1
290
     0
176
     1
290
     0
176
     1
 90
       50
176
     1
 40
0.0
176
     1
 40
1.0
176
     1
 90
        0
176
     1
 62
    18
420
        0
176
     1
 90
       50
176
     1
 90
        3
176
     1
 62
     5
420
      255
176
     1
290
     0
176
     1
 90
       50
176
     1
 90
       50
176
     1
 90
       50
176
     1
290
     0
176
     1
 90
       50
176
     1
 62
   256
176
     0
 40
1.0
176
     0
 90
        2
176
     1
  1
strokes_ogs.tif
176
     1
290
     0
176
     1
 40
1.0
176
     1
 40
1.0
176
     1
  0
VISUALSTYLE
  5
7E
102
{ACAD_REACTORS
330
2A
102
}
330
2A
100
AcDbVisualStyle
  2
Shaded with edges
 70
    26
177
     3
291
     0
 70
    58
 90
        2
176
     1
 90
        2
176
     1
 90
        1
176
     1
 90
        2
176
     1
 40
0.6
176
     1
 40
30.0
176
     1
 62
     7
420
 16777215
176
     1
 90
        1
176
     1
 90
       10
176
     1
 62
     7
176
     1
 62
   257
176
     1
 90
        2
176
     1
 90
        1
176
     1
 40
1.0
176
     1
 90
        8
176
     1
 62
   257
176
     1
 40
1.0
176
     1
 90
        1
176
     1
 90
        6
176
     1
 90
        2
176
     1
 62
     7
176
     1
 90
        3
176
     1
 90
        0
176
     1
 90
        0
176
     1
290
     0
176
     1
 90
        5
176
     1
 40
0.0
176
     1
 90
        0
176
     1
290
     0
176
     1
290
     1
176
     1
290
     1
176
     1
290
     0
176
     1
290
     0
176
     1
290
     0
176
     1
290
     0
176
     1
290
     0
176
     1
290
     0
176
     1
 90
       50
176
     1
 40
0.0
176
     1
 40
1.0
176
     1
 90
        0
176
     1
 62
    18
420
        0
176
     1
 90
       50
176
     1
 90
        3
176
     1
 62
     5
420
      255
176
     1
290
     0
176
     1
 90
       50
176
     1
 90
       50
176
     1
 90
       50
176
     1
290
     0
176
     1
 90
       50
176
     1
 62
   256
176
     0
 40
1.0
176
     0
 90
        2
176
     1
  1
strokes_ogs.tif
176
     1
290
     0
176
     1
 40
1.0
176
     1
 40
1.0
176
     1
  0
VISUALSTYLE
  5
7B
102
{ACAD_REACTORS
330
2A
102
}
330
2A
100
AcDbVisualStyle
  2
Shades of Gray
 70
    23
177
     3
291
     0
 70
    58
 90
        2
176
     1
 90
        2
176
     1
 90
        3
176
     1
 90
        0
176
     1
 40
0.6
176
     1
 40
30.0
176
     1
 62
     7
420
 16777215
176
     1
 90
        2
176
     1
 90
        2
176
     1
 62
     7
176
     1
 62
     7
176
     1
 90
        1
176
     1
 90
        1
176
     1
 40
40.0
176
     1
 90
        8
176
     1
 62
     7
176
     1
 40
1.0
176
     1
 90
        1
176
     1
 90
        6
176
     1
 90
        2
176
     1
 62
     7
176
     1
 90
        3
176
     1
 90
        0
176
     1
 90
        0
176
     1
290
     0
176
     1
 90
        1
176
     1
 40
0.0
176
     1
 90
        0
176
     1
290
     0
176
     1
290
     1
176
     1
290
     1
176
     1
290
     0
176
     1
290
     0
176
     1
290
     0
176
     1
290
     0
176
     1
290
     0
176
     1
290
     0
176
     1
 90
       50
176
     1
 40
0.0
176
     1
 40
1.0
176
     1
 90
        0
176
     1
 62
    18
420
        0
176
     1
 90
       50
176
     1
 90
        3
176
     1
 62
     5
420
      255
176
     1
290
     0
176
     1
 90
       50
176
     1
 90
       50
176
     1
 90
       50
176
     1
290
     0
176
     1
 90
       50
176
     1
 62
   256
176
     0
 40
1.0
176
     0
 90
        2
176
     1
  1
strokes_ogs.tif
176
     1
290
     0
176
     1
 40
1.0
176
     1
 40
1.0
176
     1
  0
VISUALSTYLE
  5
7C
102
{ACAD_REACTORS
330
2A
102
}
330
2A
100
AcDbVisualStyle
  2
Sketchy
 70
    24
177
     3
291
     0
 70
    58
 90
        1
176
     1
 90
        2
176
     1
 90
        2
176
     1
 90
        0
176
     1
 40
0.6
176
     1
 40
30.0
176
     1
 62
     7
420
 16777215
176
     1
 90
        2
176
     1
 90
        2
176
     1
 62
     7
176
     1
 62
     7
176
     1
 90
        1
176
     1
 90
        1
176
     1
 40
40.0
176
     1
 90
       11
176
     1
 62
     7
176
     1
 40
1.0
176
     1
 90
        1
176
     1
 90
        6
176
     1
 90
        2
176
     1
 62
     7
176
     1
 90
        6
176
     1
 90
        0
176
     1
 90
        0
176
     1
290
     0
176
     1
 90
        1
176
     1
 40
0.0
176
     1
 90
        0
176
     1
290
     0
176
     1
290
     1
176
     1
290
     1
176
     1
290
     0
176
     1
290
     0
176
     1
290
     0
176
     1
290
     0
176
     1
290
     0
176
     1
290
     0
176
     1
 90
       50
176
     1
 40
0.0
176
     1
 40
1.0
176
     1
 90
        0
176
     1
 62
    18
420
        0
176
     1
 90
       50
176
     1
 90
        3
176
     1
 62
     5
420
      255
176
     1
290
     0
176
     1
 90
       50
176
     1
 90
       50
176
     1
 90
       50
176
     1
290
     0
176
     1
 90
       50
176
     1
 62
   256
176
     0
 40
1.0
176
     0
 90
        2
176
     1
  1
strokes_ogs.tif
176
     1
290
     0
176
     1
 40
1.0
176
     1
 40
1.0
176
     1
  0
VISUALSTYLE
  5
37
102
{ACAD_REACTORS
330
2A
102
}
330
2A
100
AcDbVisualStyle
  2
Thicken
 70
    13
177
     3
291
     1
 70
    58
 90
        2
176
     1
 90
        2
176
     1
 90
        0
176
     1
 90
        0
176
     1
 40
-0.6
176
     1
 40
-30.0
176
     1
 62
     7
420
 16777215
176
     1
 90
        1
176
     1
 90
        4
176
     1
 62
     7
176
     1
 62
   257
176
     1
 90
        1
176
     1
 90
        1
176
     1
 40
1.0
176
     1
 90
       12
176
     1
 62
     7
176
     1
 40
1.0
176
     1
 90
        1
176
     1
 90
        6
176
     1
 90
        2
176
     1
 62
     7
176
     1
 90
        5
176
     1
 90
        0
176
     1
 90
        0
176
     1
290
     0
176
     1
 90
        1
176
     1
 40
0.0
176
     1
 90
        0
176
     1
290
     0
176
     1
290
     1
176
     1
290
     1
176
     1
290
     0
176
     1
290
     0
176
     1
290
     0
176
     1
290
     0
176
     1
290
     0
176
     1
290
     0
176
     1
 90
       50
176
     1
 40
0.0
176
     1
 40
1.0
176
     1
 90
        0
176
     1
 62
    18
420
        0
176
     1
 90
       50
176
     1
 90
        3
176
     1
 62
     5
420
      255
176
     1
290
     0
176
     1
 90
       50
176
     1
 90
       50
176
     1
 90
       50
176
     1
290
     0
176
     1
 90
       50
176
     1
 62
   256
176
     0
 40
1.0
176
     0
 90
        2
176
     1
  1
strokes_ogs.tif
176
     1
290
     0
176
     1
 40
1.0
176
     1
 40
1.0
176
     1
  0
VISUALSTYLE
  5
76
102
{ACAD_REACTORS
330
2A
102
}
330
2A
100
AcDbVisualStyle
  2
Wireframe
 70
     5
177
     3
291
     0
 70
    58
 90
        0
176
     1
 90
        2
176
     1
 90
        0
176
     1
 90
        0
176
     1
 40
0.6
176
     1
 40
30.0
176
     1
 62
     7
420
 16777215
176
     1
 90
        1
176
     1
 90
        4
176
     1
 62
     7
176
     1
 62
   257
176
     1
 90
        1
176
     1
 90
        1
176
     1
 40
1.0
176
     1
 90
        0
176
     1
 62
   257
176
     1
 40
1.0
176
     1
 90
        1
176
     1
 90
        6
176
     1
 90
        2
176
     1
 62
     7
176
     1
 90
        3
176
     1
 90
        0
176
     1
 90
        0
176
     1
290
     0
176
     1
 90
        1
176
     1
 40
0.0
176
     1
 90
        0
176
     1
290
     0
176
     1
290
     1
176
     1
290
     1
176
     1
290
     0
176
     1
290
     0
176
     1
290
     0
176
     1
290
     0
176
     1
290
     0
176
     1
290
     0
176
     1
 90
       50
176
     1
 40
0.0
176
     1
 40
1.0
176
     1
 90
        0
176
     1
 62
    18
420
        0
176
     1
 90
       50
176
     1
 90
        3
176
     1
 62
     5
420
      255
176
     1
290
     0
176
     1
 90
       50
176
     1
 90
       50
176
     1
 90
       50
176
     1
290
     0
176
     1
 90
       50
176
     1
 62
   256
176
     0
 40
1.0
176
     0
 90
        2
176
     1
  1
strokes_ogs.tif
176
     1
290
     0
176
     1
 40
1.0
176
     1
 40
1.0
176
     1
  0
VISUALSTYLE
  5
7D
102
{ACAD_REACTORS
330
2A
102
}
330
2A
100
AcDbVisualStyle
  2
X-Ray
 70
    25
177
     3
291
     0
 70
    58
 90
        2
176
     1
 90
        2
176
     1
 90
        1
176
     1
 90
        1
176
     1
 40
0.5
176
     1
 40
30.0
176
     1
 62
     7
420
 16777215
176
     1
 90
        1
176
     1
 90
        0
176
     1
 62
     7
176
     1
 62
   257
176
     1
 90
        1
176
     1
 90
        1
176
     1
 40
1.0
176
     1
 90
        8
176
     1
 62
     7
176
     1
 40
1.0
176
     1
 90
        1
176
     1
 90
        6
176
     1
 90
        2
176
     1
 62
     7
176
     1
 90
        3
176
     1
 90
        0
176
     1
 90
        0
176
     1
290
     0
176
     1
 90
       13
176
     1
 40
0.0
176
     1
 90
        0
176
     1
290
     0
176
     1
290
     1
176
     1
290
     1
176
     1
290
     0
176
     1
290
     0
176
     1
290
     0
176
     1
290
     0
176
     1
290
     0
176
     1
290
     0
176
     1
 90
       50
176
     1
 40
0.0
176
     1
 40
1.0
176
     1
 90
        0
176
     1
 62
    18
420
        0
176
     1
 90
       50
176
     1
 90
        3
176
     1
 62
     5
420
      255
176
     1
290
     0
176
     1
 90
       50
176
     1
 90
       50
176
     1
 90
       50
176
     1
290
     0
176
     1
 90
       50
176
     1
 62
   256
176
     0
 40
1.0
176
     0
 90
        2
176
     1
  1
strokes_ogs.tif
176
     1
290
     0
176
     1
 40
1.0
176
     1
 40
1.0
176
     1
  0
DICTIONARYVAR
  5
62
102
{ACAD_REACTORS
330
3D
102
}
330
3D
100
DictionaryVariables
280
     0
  1
1:1
  0
DICTIONARYVAR
  5
BB
102
{ACAD_REACTORS
330
3D
102
}
330
3D
100
DictionaryVariables
280
     0
  1
Standard
  0
DICTIONARYVAR
  5
3E
102
{ACAD_REACTORS
330
3D
102
}
330
3D
100
DictionaryVariables
280
     0
  1
Standard
  0
DICTIONARYVAR
  5
6F
102
{ACAD_REACTORS
330
3D
102
}
330
3D
100
DictionaryVariables
280
     0
  1
0
  0
DICTIONARYVAR
  5
70
102
{ACAD_REACTORS
330
3D
102
}
330
3D
100
DictionaryVariables
280
     0
  1
0
  0
DICTIONARY
  5
4F6
330
3C
100
AcDbDictionary
280
     1
281
     1
  3
ACAD_ROUNDTRIP_2008_TABLESTYLE_CELLSTYLEMAP
360
4F7
  0
CELLSTYLEMAP
  5
4F7
102
{ACAD_REACTORS
330
4F6
102
}
330
4F6
100
AcDbCellStyleMap
 90
        3
300
CELLSTYLE
  1
TABLEFORMAT_BEGIN
 90
        5
170
     1
 91
        0
 92
    32768
 62
   257
 93
        1
300
CONTENTFORMAT
  1
CONTENTFORMAT_BEGIN
 90
        0
 91
        0
 92
      512
 93
        0
300

 40
0.0
140
1.0
 94
        5
 62
     0
340
11
144
6.0
309
CONTENTFORMAT_END
171
     1
301
MARGIN
  1
CELLMARGIN_BEGIN
 40
1.5
 40
1.5
 40
1.5
 40
1.5
 40
0.18
 40
0.18
309
CELLMARGIN_END
 94
        6
 95
        1
302
GRIDFORMAT
  1
GRIDFORMAT_BEGIN
 90
        0
 91
        1
 62
     0
 92
       -2
340
0
 93
        0
 40
0.045
309
GRIDFORMAT_END
 95
        2
302
GRIDFORMAT
  1
GRIDFORMAT_BEGIN
 90
        0
 91
        1
 62
     0
 92
       -2
340
0
 93
        0
 40
0.045
309
GRIDFORMAT_END
 95
        4
302
GRIDFORMAT
  1
GRIDFORMAT_BEGIN
 90
        0
 91
        1
 62
     0
 92
       -2
340
0
 93
        0
 40
0.045
309
GRIDFORMAT_END
 95
        8
302
GRIDFORMAT
  1
GRIDFORMAT_BEGIN
 90
        0
 91
        1
 62
     0
 92
       -2
340
0
 93
        0
 40
0.045
309
GRIDFORMAT_END
 95
       16
302
GRIDFORMAT
  1
GRIDFORMAT_BEGIN
 90
        0
 91
        1
 62
     0
 92
       -2
340
0
 93
        0
 40
0.045
309
GRIDFORMAT_END
 95
       32
302
GRIDFORMAT
  1
GRIDFORMAT_BEGIN
 90
        0
 91
        1
 62
     0
 92
       -2
340
0
 93
        0
 40
0.045
309
GRIDFORMAT_END
309
TABLEFORMAT_END
  1
CELLSTYLE_BEGIN
 90
        1
 91
        1
300
_TITLE
309
CELLSTYLE_END
300
CELLSTYLE
  1
TABLEFORMAT_BEGIN
 90
        5
170
     1
 91
        0
 92
        0
 62
   257
 93
        1
300
CONTENTFORMAT
  1
CONTENTFORMAT_BEGIN
 90
        0
 91
        0
 92
      512
 93
        0
300

 40
0.0
140
1.0
 94
        5
 62
     0
340
11
144
4.5
309
CONTENTFORMAT_END
171
     1
301
MARGIN
  1
CELLMARGIN_BEGIN
 40
1.5
 40
1.5
 40
1.5
 40
1.5
 40
0.18
 40
0.18
309
CELLMARGIN_END
 94
        6
 95
        1
302
GRIDFORMAT
  1
GRIDFORMAT_BEGIN
 90
        0
 91
        1
 62
     0
 92
       -2
340
0
 93
        0
 40
0.045
309
GRIDFORMAT_END
 95
        2
302
GRIDFORMAT
  1
GRIDFORMAT_BEGIN
 90
        0
 91
        1
 62
     0
 92
       -2
340
0
 93
        0
 40
0.045
309
GRIDFORMAT_END
 95
        4
302
GRIDFORMAT
  1
GRIDFORMAT_BEGIN
 90
        0
 91
        1
 62
     0
 92
       -2
340
0
 93
        0
 40
0.045
309
GRIDFORMAT_END
 95
        8
302
GRIDFORMAT
  1
GRIDFORMAT_BEGIN
 90
        0
 91
        1
 62
     0
 92
       -2
340
0
 93
        0
 40
0.045
309
GRIDFORMAT_END
 95
       16
302
GRIDFORMAT
  1
GRIDFORMAT_BEGIN
 90
        0
 91
        1
 62
     0
 92
       -2
340
0
 93
        0
 40
0.045
309
GRIDFORMAT_END
 95
       32
302
GRIDFORMAT
  1
GRIDFORMAT_BEGIN
 90
        0
 91
        1
 62
     0
 92
       -2
340
0
 93
        0
 40
0.045
309
GRIDFORMAT_END
309
TABLEFORMAT_END
  1
CELLSTYLE_BEGIN
 90
        2
 91
        1
300
_HEADER
309
CELLSTYLE_END
300
CELLSTYLE
  1
TABLEFORMAT_BEGIN
 90
        5
170
     1
 91
        0
 92
        0
 62
   257
 93
        1
300
CONTENTFORMAT
  1
CONTENTFORMAT_BEGIN
 90
        0
 91
        0
 92
      512
 93
        0
300

 40
0.0
140
1.0
 94
        2
 62
     0
340
11
144
4.5
309
CONTENTFORMAT_END
171
     1
301
MARGIN
  1
CELLMARGIN_BEGIN
 40
1.5
 40
1.5
 40
1.5
 40
1.5
 40
0.18
 40
0.18
309
CELLMARGIN_END
 94
        6
 95
        1
302
GRIDFORMAT
  1
GRIDFORMAT_BEGIN
 90
        0
 91
        1
 62
     0
 92
       -2
340
0
 93
        0
 40
0.045
309
GRIDFORMAT_END
 95
        2
302
GRIDFORMAT
  1
GRIDFORMAT_BEGIN
 90
        0
 91
        1
 62
     0
 92
       -2
340
0
 93
        0
 40
0.045
309
GRIDFORMAT_END
 95
        4
302
GRIDFORMAT
  1
GRIDFORMAT_BEGIN
 90
        0
 91
        1
 62
     0
 92
       -2
340
0
 93
        0
 40
0.045
309
GRIDFORMAT_END
 95
        8
302
GRIDFORMAT
  1
GRIDFORMAT_BEGIN
 90
        0
 91
        1
 62
     0
 92
       -2
340
0
 93
        0
 40
0.045
309
GRIDFORMAT_END
 95
       16
302
GRIDFORMAT
  1
GRIDFORMAT_BEGIN
 90
        0
 91
        1
 62
     0
 92
       -2
340
0
 93
        0
 40
0.045
309
GRIDFORMAT_END
 95
       32
302
GRIDFORMAT
  1
GRIDFORMAT_BEGIN
 90
        0
 91
        1
 62
     0
 92
       -2
340
0
 93
        0
 40
0.045
309
GRIDFORMAT_END
309
TABLEFORMAT_END
  1
CELLSTYLE_BEGIN
 90
        3
 91
        2
300
_DATA
309
CELLSTYLE_END
  0
ENDSEC
  0
EOF
