  0
SECTION
  2
HEADER
  9
$ACADVER
  1
AC1032
  9
$ACADMAINTVER
 90
       55
  9
$DWGCODEPAGE
  3
ANSI_1252
  9
$LASTSAVEDBY
  1
eac573
  9
$REQUIREDVERSIONS
160
                 0
  9
$INSBASE
 10
0.0
 20
0.0
 30
0.0
  9
$EXTMIN
 10
34.36966181346023
 20
11.43596708716497
 30
0.0
  9
$EXTMAX
 10
42.86796376600217
 20
20.59663505246636
 30
0.0
  9
$LIMMIN
 10
0.0
 20
0.0
  9
$LIMMAX
 10
12.0
 20
9.0
  9
$ORTHOMODE
 70
     0
  9
$REGENMODE
 70
     1
  9
$FILLMODE
 70
     1
  9
$QTEXTMODE
 70
     0
  9
$MIRRTEXT
 70
     0
  9
$LTSCALE
 40
1.0
  9
$ATTMODE
 70
     1
  9
$TEXTSIZE
 40
0.2
  9
$TRACEWID
 40
0.05
  9
$TEXTSTYLE
  7
Standard
  9
$CLAYER
  8
CONTEXT
  9
$CELTYPE
  6
ByLayer
  9
$CECOLOR
 62
   256
  9
$CELTSCALE
 40
1.0
  9
$DISPSILH
 70
     0
  9
$DIMSCALE
 40
1.0
  9
$DIMASZ
 40
0.18
  9
$DIMEXO
 40
0.0625
  9
$DIMDLI
 40
0.38
  9
$DIMRND
 40
0.0
  9
$DIMDLE
 40
0.0
  9
$DIMEXE
 40
0.18
  9
$DIMTP
 40
0.0
  9
$DIMTM
 40
0.0
  9
$DIMTXT
 40
0.18
  9
$DIMCEN
 40
0.09
  9
$DIMTSZ
 40
0.0
  9
$DIMTOL
 70
     0
  9
$DIMLIM
 70
     0
  9
$DIMTIH
 70
     1
  9
$DIMTOH
 70
     1
  9
$DIMSE1
 70
     0
  9
$DIMSE2
 70
     0
  9
$DIMTAD
 70
     0
  9
$DIMZIN
 70
     0
  9
$DIMBLK
  1

  9
$DIMASO
 70
     1
  9
$DIMSHO
 70
     1
  9
$DIMPOST
  1

  9
$DIMAPOST
  1

  9
$DIMALT
 70
     0
  9
$DIMALTD
 70
     2
  9
$DIMALTF
 40
25.4
  9
$DIMLFAC
 40
1.0
  9
$DIMTOFL
 70
     0
  9
$DIMTVP
 40
0.0
  9
$DIMTIX
 70
     0
  9
$DIMSOXD
 70
     0
  9
$DIMSAH
 70
     0
  9
$DIMBLK1
  1

  9
$DIMBLK2
  1

  9
$DIMSTYLE
  2
Standard
  9
$DIMCLRD
 70
     0
  9
$DIMCLRE
 70
     0
  9
$DIMCLRT
 70
     0
  9
$DIMTFAC
 40
1.0
  9
$DIMGAP
 40
0.09
  9
$DIMJUST
 70
     0
  9
$DIMSD1
 70
     0
  9
$DIMSD2
 70
     0
  9
$DIMTOLJ
 70
     1
  9
$DIMTZIN
 70
     0
  9
$DIMALTZ
 70
     0
  9
$DIMALTTZ
 70
     0
  9
$DIMUPT
 70
     0
  9
$DIMDEC
 70
     4
  9
$DIMTDEC
 70
     4
  9
$DIMALTU
 70
     2
  9
$DIMALTTD
 70
     2
  9
$DIMTXSTY
  7
Standard
  9
$DIMAUNIT
 70
     0
  9
$DIMADEC
 70
     0
  9
$DIMALTRND
 40
0.0
  9
$DIMAZIN
 70
     0
  9
$DIMDSEP
 70
    46
  9
$DIMATFIT
 70
     3
  9
$DIMFRAC
 70
     0
  9
$DIMLDRBLK
  1

  9
$DIMLUNIT
 70
     2
  9
$DIMLWD
 70
    -2
  9
$DIMLWE
 70
    -2
  9
$DIMTMOVE
 70
     0
  9
$DIMFXL
 40
1.0
  9
$DIMFXLON
 70
     0
  9
$DIMJOGANG
 40
0.7853981633974483
  9
$DIMTFILL
 70
     0
  9
$DIMTFILLCLR
 70
     0
  9
$DIMARCSYM
 70
     0
  9
$DIMLTYPE
  6

  9
$DIMLTEX1
  6

  9
$DIMLTEX2
  6

  9
$DIMTXTDIRECTION
 70
     0
  9
$LUNITS
 70
     2
  9
$LUPREC
 70
     4
  9
$SKETCHINC
 40
0.1
  9
$FILLETRAD
 40
0.0
  9
$AUNITS
 70
     0
  9
$AUPREC
 70
     0
  9
$MENU
  1
.
  9
$ELEVATION
 40
0.0
  9
$PELEVATION
 40
0.0
  9
$THICKNESS
 40
0.0
  9
$LIMCHECK
 70
     0
  9
$CHAMFERA
 40
0.0
  9
$CHAMFERB
 40
0.0
  9
$CHAMFERC
 40
0.0
  9
$CHAMFERD
 40
0.0
  9
$SKPOLY
 70
     0
  9
$TDCREATE
 40
2452643.063384271
  9
$TDUCREATE
 40
2452643.063384271
  9
$TDUPDATE
 40
2459647.477761655
  9
$TDUUPDATE
 40
2459647.477761655
  9
$TDINDWG
 40
1.4352361111
  9
$TDUSRTIMER
 40
2459052.879309757
  9
$USRTIMER
 70
     1
  9
$ANGBASE
 50
0.0
  9
$ANGDIR
 70
     0
  9
$PDMODE
 70
     0
  9
$PDSIZE
 40
0.0
  9
$PLINEWID
 40
0.0
  9
$SPLFRAME
 70
     0
  9
$SPLINETYPE
 70
     6
  9
$SPLINESEGS
 70
     8
  9
$HANDSEED
  5
219D
  9
$SURFTAB1
 70
     6
  9
$SURFTAB2
 70
     6
  9
$SURFTYPE
 70
     6
  9
$SURFU
 70
     6
  9
$SURFV
 70
     6
  9
$UCSBASE
  2

  9
$UCSNAME
  2

  9
$UCSORG
 10
0.0
 20
0.0
 30
0.0
  9
$UCSXDIR
 10
1.0
 20
0.0
 30
0.0
  9
$UCSYDIR
 10
0.0
 20
1.0
 30
0.0
  9
$UCSORTHOREF
  2

  9
$UCSORTHOVIEW
 70
     0
  9
$UCSORGTOP
 10
0.0
 20
0.0
 30
0.0
  9
$UCSORGBOTTOM
 10
0.0
 20
0.0
 30
0.0
  9
$UCSORGLEFT
 10
0.0
 20
0.0
 30
0.0
  9
$UCSORGRIGHT
 10
0.0
 20
0.0
 30
0.0
  9
$UCSORGFRONT
 10
0.0
 20
0.0
 30
0.0
  9
$UCSORGBACK
 10
0.0
 20
0.0
 30
0.0
  9
$PUCSBASE
  2

  9
$PUCSNAME
  2

  9
$PUCSORG
 10
0.0
 20
0.0
 30
0.0
  9
$PUCSXDIR
 10
1.0
 20
0.0
 30
0.0
  9
$PUCSYDIR
 10
0.0
 20
1.0
 30
0.0
  9
$PUCSORTHOREF
  2

  9
$PUCSORTHOVIEW
 70
     0
  9
$PUCSORGTOP
 10
0.0
 20
0.0
 30
0.0
  9
$PUCSORGBOTTOM
 10
0.0
 20
0.0
 30
0.0
  9
$PUCSORGLEFT
 10
0.0
 20
0.0
 30
0.0
  9
$PUCSORGRIGHT
 10
0.0
 20
0.0
 30
0.0
  9
$PUCSORGFRONT
 10
0.0
 20
0.0
 30
0.0
  9
$PUCSORGBACK
 10
0.0
 20
0.0
 30
0.0
  9
$USERI1
 70
     0
  9
$USERI2
 70
     0
  9
$USERI3
 70
     0
  9
$USERI4
 70
     0
  9
$USERI5
 70
     0
  9
$USERR1
 40
0.0
  9
$USERR2
 40
0.0
  9
$USERR3
 40
0.0
  9
$USERR4
 40
0.0
  9
$USERR5
 40
0.0
  9
$WORLDVIEW
 70
     1
  9
$SHADEDGE
 70
     3
  9
$SHADEDIF
 70
    70
  9
$TILEMODE
 70
     1
  9
$MAXACTVP
 70
    64
  9
$PINSBASE
 10
0.0
 20
0.0
 30
0.0
  9
$PLIMCHECK
 70
     0
  9
$PEXTMIN
 10
0.0
 20
0.0
 30
0.0
  9
$PEXTMAX
 10
0.0
 20
0.0
 30
0.0
  9
$PLIMMIN
 10
0.0
 20
0.0
  9
$PLIMMAX
 10
12.0
 20
9.0
  9
$UNITMODE
 70
     0
  9
$VISRETAIN
 70
     1
  9
$PLINEGEN
 70
     0
  9
$PSLTSCALE
 70
     1
  9
$TREEDEPTH
 70
  3020
  9
$CMLSTYLE
  2
Standard
  9
$CMLJUST
 70
     0
  9
$CMLSCALE
 40
1.0
  9
$PROXYGRAPHICS
 70
     1
  9
$MEASUREMENT
 70
     0
  9
$CELWEIGHT
370
    -1
  9
$ENDCAPS
280
     0
  9
$JOINSTYLE
280
     0
  9
$LWDISPLAY
290
     0
  9
$INSUNITS
 70
     6
  9
$HYPERLINKBASE
  1

  9
$STYLESHEET
  1

  9
$XEDIT
290
     1
  9
$CEPSNTYPE
380
     0
  9
$PSTYLEMODE
290
     1
  9
$FINGERPRINTGUID
  2
{FDEAD576-A652-11D2-9A35-0060089B3A3F}
  9
$VERSIONGUID
  2
{BA77F59E-3B32-471F-B1D5-B50150A21C6E}
  9
$EXTNAMES
290
     1
  9
$PSVPSCALE
 40
0.0
  9
$OLESTARTUP
290
     0
  9
$SORTENTS
280
   127
  9
$INDEXCTL
280
     0
  9
$HIDETEXT
280
     1
  9
$XCLIPFRAME
280
     0
  9
$HALOGAP
280
     0
  9
$OBSCOLOR
 70
   257
  9
$OBSLTYPE
280
     0
  9
$INTERSECTIONDISPLAY
280
     0
  9
$INTERSECTIONCOLOR
 70
   257
  9
$DIMASSOC
280
     2
  9
$PROJECTNAME
  1

  9
$CAMERADISPLAY
290
     0
  9
$LENSLENGTH
 40
50.0
  9
$CAMERAHEIGHT
 40
0.0
  9
$STEPSPERSEC
 40
2.0
  9
$STEPSIZE
 40
6.0
  9
$3DDWFPREC
 40
2.0
  9
$PSOLWIDTH
 40
0.25
  9
$PSOLHEIGHT
 40
4.0
  9
$LOFTANG1
 40
1.570796326794897
  9
$LOFTANG2
 40
1.570796326794897
  9
$LOFTMAG1
 40
0.0
  9
$LOFTMAG2
 40
0.0
  9
$LOFTPARAM
 70
     7
  9
$LOFTNORMALS
280
     1
  9
$LATITUDE
 40
37.795
  9
$LONGITUDE
 40
-122.394
  9
$NORTHDIRECTION
 40
0.0
  9
$TIMEZONE
 70
 -8000
  9
$LIGHTGLYPHDISPLAY
280
     1
  9
$TILEMODELIGHTSYNCH
280
     1
  9
$CMATERIAL
347
96
  9
$SOLIDHIST
280
     1
  9
$SHOWHIST
280
     1
  9
$DWFFRAME
280
     2
  9
$DGNFRAME
280
     2
  9
$REALWORLDSCALE
290
     1
  9
$INTERFERECOLOR
 62
     1
  9
$INTERFEREOBJVS
345
A3
  9
$INTERFEREVPVS
346
E3
  9
$CSHADOW
280
     0
  9
$SHADOWPLANELOCATION
 40
0.0
  0
ENDSEC
  0
SECTION
  2
CLASSES
  0
CLASS
  1
ACDBDICTIONARYWDFLT
  2
AcDbDictionaryWithDefault
  3
ObjectDBX Classes
 90
        0
 91
        3
280
     0
281
     0
  0
CLASS
  1
ACDBPLACEHOLDER
  2
AcDbPlaceHolder
  3
ObjectDBX Classes
 90
        0
 91
        1
280
     0
281
     0
  0
CLASS
  1
LAYOUT
  2
AcDbLayout
  3
ObjectDBX Classes
 90
        0
 91
        1
280
     0
281
     0
  0
CLASS
  1
DICTIONARYVAR
  2
AcDbDictionaryVar
  3
ObjectDBX Classes
 90
        0
 91
        3
280
     0
281
     0
  0
CLASS
  1
TABLESTYLE
  2
AcDbTableStyle
  3
ObjectDBX Classes
 90
     4095
 91
        3
280
     0
281
     0
  0
CLASS
  1
MATERIAL
  2
AcDbMaterial
  3
ObjectDBX Classes
 90
     1153
 91
        3
280
     0
281
     0
  0
CLASS
  1
VISUALSTYLE
  2
AcDbVisualStyle
  3
ObjectDBX Classes
 90
     4095
 91
        3
280
     0
281
     0
  0
CLASS
  1
SCALE
  2
AcDbScale
  3
ObjectDBX Classes
 90
     1153
 91
        3
280
     0
281
     0
  0
CLASS
  1
CELLSTYLEMAP
  2
AcDbCellStyleMap
  3
ObjectDBX Classes
 90
     1152
 91
        3
280
     0
281
     0
  0
CLASS
  1
RASTERVARIABLES
  2
AcDbRasterVariables
  3
ISM
 90
        0
 91
        3
280
     0
281
     0
  0
CLASS
  1
SUN
  2
AcDbSun
  3
SCENEOE
 90
     1153
 91
        3
280
     0
281
     0
  0
CLASS
  1
MLEADERSTYLE
  2
AcDbMLeaderStyle
  3
ACDB_MLEADERSTYLE_CLASS
 90
     4095
 91
        3
280
     0
281
     0
  0
CLASS
  1
SORTENTSTABLE
  2
AcDbSortentsTable
  3
ObjectDBX Classes
 90
        0
 91
        3
280
     0
281
     0
  0
CLASS
  1
ACDBSECTIONVIEWSTYLE
  2
AcDbSectionViewStyle
  3
ObjectDBX Classes
 90
     1025
 91
        3
280
     0
281
     0
  0
CLASS
  1
ACDBDETAILVIEWSTYLE
  2
AcDbDetailViewStyle
  3
ObjectDBX Classes
 90
     1025
 91
        3
280
     0
281
     0
  0
CLASS
  1
DMMAPMANAGER
  2
AcMapDMMapManager
  3
AcMapDisplayManagement
 90
     1024
 91
        2
280
     1
281
     0
  0
CLASS
  1
DMSTYLELIBRARY
  2
AcMapDMStyleLibrary
  3
AcMapDisplayManagement
 90
     1024
 91
        2
280
     1
281
     0
  0
CLASS
  1
DMSTYLECATEGORY
  2
AcMapDMStyleCategory
  3
AcMapDisplayManagement
 90
     1024
 91
        2
280
     1
281
     0
  0
CLASS
  1
DATATABLE
  2
AcDbDataTable
  3
ObjectDBX Classes
 90
        0
 91
        3
280
     0
281
     0
  0
CLASS
  1
MAPGWSUNDOOBJECT
  2
AcMapGWSUndoRecorder
  3
AcMapFeatureSourceManager
 90
     1025
 91
        1
280
     1
281
     0
  0
CLASS
  1
DMMAP
  2
AcMapDMMap
  3
AcMapDisplayManagement
 90
     1024
 91
        2
280
     1
281
     0
  0
CLASS
  1
DMBASEELEMENT
  2
AcMapDMBaseElement
  3
AcMapDisplayManagement
 90
     1024
 91
        2
280
     1
281
     0
  0
CLASS
  1
DMDEFAULTSTYLE
  2
AcMapDMDefaultStyle
  3
AcMapDisplayManagement
 90
     1024
 91
        2
280
     1
281
     0
  0
CLASS
  1
DMSTYLEREFERENCE
  2
AcMapDMStyleReference
  3
AcMapDisplayManagement
 90
     1024
 91
        2
280
     1
281
     0
  0
CLASS
  1
DMSURROGATESTYLESETS
  2
AcMapDMSurrogateStyleSets
  3
AcMapDisplayManagement
 90
     1153
 91
        2
280
     1
281
     0
  0
CLASS
  1
DMSTYLIZEDENTITIESTABLE
  2
AcMapDMStylizedEntitiesTable
  3
AcMapDisplayManagement
 90
     1024
 91
        2
280
     1
281
     0
  0
CLASS
  1
IMAGEDEF
  2
AcDbRasterImageDef
  3
ISM
 90
        0
 91
        3
280
     0
281
     0
  0
CLASS
  1
IMAGEDEF_REACTOR
  2
AcDbRasterImageDefReactor
  3
ISM
 90
        1
 91
        3
280
     0
281
     0
  0
CLASS
  1
IMAGE
  2
AcDbRasterImage
  3
ISM
 90
      127
 91
        4
280
     0
281
     1
  0
CLASS
  1
MAPRESOURCEMANAGEROBJECT
  2
AcMapResourceManager
  3
AcMapSharedComponents
 90
     1024
 91
        1
280
     1
281
     0
  0
ENDSEC
  0
SECTION
  2
TABLES
  0
TABLE
  2
VPORT
  5
8
330
0
100
AcDbSymbolTable
 70
     1
  0
VPORT
  5
94
330
8
100
AcDbSymbolTableRecord
100
AcDbViewportTableRecord
  2
*Active
 70
     0
 10
0.0
 20
0.0
 11
1.0
 21
1.0
 12
64.3395983237279
 22
35.09162862430007
 13
0.0
 23
0.0
 14
0.5
 24
0.5
 15
0.5
 25
0.5
 16
0.0
 26
0.0
 36
1.0
 17
-27.66959356597977
 27
-19.53870295786203
 37
0.0
 40
3.355160908634813
 41
1.974308300395257
 42
50.0
 43
0.0
 44
0.0
 50
0.0
 51
0.0
 71
    16
 72
  1000
 73
     1
 74
     3
 75
     0
 76
     0
 77
     0
 78
     0
281
     0
 65
     1
110
0.0
120
0.0
130
0.0
111
1.0
121
0.0
131
0.0
112
0.0
122
1.0
132
0.0
 79
     0
146
0.0
348
9F
 60
     2
 61
     5
292
     1
282
     1
141
0.0
142
0.0
 63
   250
421
  3355443
361
ED
1001
ACAD_NAV_VCDISPLAY
1070
     3
  0
ENDTAB
  0
TABLE
  2
LTYPE
  5
5
330
0
100
AcDbSymbolTable
 70
     3
  0
LTYPE
  5
14
330
5
100
AcDbSymbolTableRecord
100
AcDbLinetypeTableRecord
  2
ByBlock
 70
     0
  3

 72
    65
 73
     0
 40
0.0
  0
LTYPE
  5
15
330
5
100
AcDbSymbolTableRecord
100
AcDbLinetypeTableRecord
  2
ByLayer
 70
     0
  3

 72
    65
 73
     0
 40
0.0
  0
LTYPE
  5
16
330
5
100
AcDbSymbolTableRecord
100
AcDbLinetypeTableRecord
  2
Continuous
 70
     0
  3
Solid line
 72
    65
 73
     0
 40
0.0
  0
LTYPE
  5
134
330
5
100
AcDbSymbolTableRecord
100
AcDbLinetypeTableRecord
  2
DASHDOT
 70
     0
  3
DashDot __  . __  . __  . __  . __  . __  . __ 
 72
    65
 73
     4
 40
25.4
 49
12.7
 74
     0
 49
-6.35
 74
     0
 49
0.0
 74
     0
 49
-6.35
 74
     0
  0
LTYPE
  5
38A
330
5
100
AcDbSymbolTableRecord
100
AcDbLinetypeTableRecord
  2
ACAD_ISO02W100
 70
     0
  3
ISO dash __ __ __ __ __ __ __ __ __ __ __ __ __
 72
    65
 73
     2
 40
15.0
 49
12.0
 74
     0
 49
-3.0
 74
     0
  0
ENDTAB
  0
TABLE
  2
LAYER
  5
2
102
{ACAD_XDICTIONARY
360
191
102
}
330
0
100
AcDbSymbolTable
 70
     7
  0
LAYER
  5
10
330
2
100
AcDbSymbolTableRecord
100
AcDbLayerTableRecord
  2
0
 70
     0
 62
     7
  6
Continuous
370
    -3
390
F
347
98
348
0
  0
LAYER
  5
12D
330
2
100
AcDbSymbolTableRecord
100
AcDbLayerTableRecord
  2
CONTEXT
 70
     0
 62
     7
  6
Continuous
370
    -3
390
F
347
98
348
0
1001
AcAecLayerStandard
1000

1000

  0
LAYER
  5
130
330
2
100
AcDbSymbolTableRecord
100
AcDbLayerTableRecord
  2
Annotatons
 70
     0
 62
     7
  6
Continuous
370
    -3
390
F
347
98
348
0
1001
AcAecLayerStandard
1000

1000

  0
LAYER
  5
131
330
2
100
AcDbSymbolTableRecord
100
AcDbLayerTableRecord
  2
Section point
 70
     0
 62
     7
  6
Continuous
370
    -3
390
F
347
98
348
0
1001
AcAecLayerStandard
1000

1000

  0
LAYER
  5
132
330
2
100
AcDbSymbolTableRecord
100
AcDbLayerTableRecord
  2
aOD
 70
     0
 62
     7
  6
Continuous
370
    -3
390
F
347
98
348
0
1001
AcAecLayerStandard
1000

1000

  0
LAYER
  5
133
330
2
100
AcDbSymbolTableRecord
100
AcDbLayerTableRecord
  2
Point_ID
 70
     0
 62
     7
  6
Continuous
370
    -3
390
F
347
98
348
0
  0
LAYER
  5
46F
330
2
100
AcDbSymbolTableRecord
100
AcDbLayerTableRecord
  2
Scanned drawing
 70
     0
 62
     7
  6
Continuous
370
    -3
390
F
347
98
348
0
1001
AcAecLayerStandard
1000

1000

1001
AcCmTransparency
1071
        0
  0
ENDTAB
  0
TABLE
  2
STYLE
  5
3
330
0
100
AcDbSymbolTable
 70
     5
  0
STYLE
  5
11
330
3
100
AcDbSymbolTableRecord
100
AcDbTextStyleTableRecord
  2
Standard
 70
     0
 40
0.0
 41
1.0
 50
0.0
 71
     0
 42
0.2
  3
arial.ttf
  4

1001
ACAD
1000
Arial
1071
        0
  0
STYLE
  5
125
330
3
100
AcDbSymbolTableRecord
100
AcDbTextStyleTableRecord
  2
Annotative
 70
     0
 40
0.0
 41
1.0
 50
0.0
 71
     0
 42
0.2
  3
arial.ttf
  4

1001
ACAD
1000
Arial
1071
        0
1001
AcadAnnotative
1000
AnnotativeData
1002
{
1070
     1
1070
     1
1002
}
  0
STYLE
  5
138
330
3
100
AcDbSymbolTableRecord
100
AcDbTextStyleTableRecord
  2
Text
 70
     0
 40
0.0
 41
1.0
 50
0.0
 71
     0
 42
0.2
  3
ARIALUNI.TTF
  4

1001
ACAD
1000
Arial Unicode MS
1071
        0
  0
STYLE
  5
233
330
3
100
AcDbSymbolTableRecord
100
AcDbTextStyleTableRecord
  2
Legend
 70
     0
 40
0.0
 41
1.0
 50
0.0
 71
     0
 42
0.2
  3
CALIBRI.TTF
  4

1001
ACAD
1000
Calibri
1071
      256
  0
STYLE
  5
389
330
3
100
AcDbSymbolTableRecord
100
AcDbTextStyleTableRecord
  2

 70
     1
 40
0.0
 41
1.0
 50
0.0
 71
     0
 42
0.2
  3
ltypeshp.shx
  4

  0
ENDTAB
  0
TABLE
  2
VIEW
  5
6
330
0
100
AcDbSymbolTable
 70
     0
  0
ENDTAB
  0
TABLE
  2
UCS
  5
7
330
0
100
AcDbSymbolTable
 70
     0
  0
ENDTAB
  0
TABLE
  2
APPID
  5
9
330
0
100
AcDbSymbolTable
 70
    10
  0
APPID
  5
12
330
9
100
AcDbSymbolTableRecord
100
AcDbRegAppTableRecord
  2
ACAD
 70
     0
  0
APPID
  5
126
330
9
100
AcDbSymbolTableRecord
100
AcDbRegAppTableRecord
  2
AcadAnnotative
 70
     0
  0
APPID
  5
12F
330
9
100
AcDbSymbolTableRecord
100
AcDbRegAppTableRecord
  2
AcAecLayerStandard
 70
     0
  0
APPID
  5
237
330
9
100
AcDbSymbolTableRecord
100
AcDbRegAppTableRecord
  2
AcMapDMDisplayStyleRegapp
 70
     0
  0
APPID
  5
246
330
9
100
AcDbSymbolTableRecord
100
AcDbRegAppTableRecord
  2
ACAD_NAV_VCDISPLAY
 70
     0
  0
APPID
  5
247
330
9
100
AcDbSymbolTableRecord
100
AcDbRegAppTableRecord
  2
DCO15
 70
     0
  0
APPID
  5
256
330
9
100
AcDbSymbolTableRecord
100
AcDbRegAppTableRecord
  2
ACAD_EXEMPT_FROM_CAD_STANDARDS
 70
     0
  0
APPID
  5
27B
330
9
100
AcDbSymbolTableRecord
100
AcDbRegAppTableRecord
  2
ADE
 70
     0
  0
APPID
  5
303
330
9
100
AcDbSymbolTableRecord
100
AcDbRegAppTableRecord
  2
MapGWS
 70
     0
  0
APPID
  5
470
330
9
100
AcDbSymbolTableRecord
100
AcDbRegAppTableRecord
  2
AcCmTransparency
 70
     0
  0
ENDTAB
  0
TABLE
  2
DIMSTYLE
  5
A
330
0
100
AcDbSymbolTable
 70
     3
100
AcDbDimStyleTable
  0
DIMSTYLE
105
27
330
A
100
AcDbSymbolTableRecord
100
AcDbDimStyleTableRecord
  2
Standard
 70
     0
178
     0
340
11
  0
DIMSTYLE
105
127
330
A
100
AcDbSymbolTableRecord
100
AcDbDimStyleTableRecord
  2
Annotative
 70
     0
 40
0.0
178
     0
340
11
1001
AcadAnnotative
1000
AnnotativeData
1002
{
1070
     1
1070
     1
1002
}
  0
DIMSTYLE
105
137
330
A
100
AcDbSymbolTableRecord
100
AcDbDimStyleTableRecord
  2
ISO-25
 70
     0
 41
2.5
 42
0.625
 43
3.75
 44
1.25
 73
     0
 74
     0
 77
     1
 78
     8
140
2.5
141
2.5
143
0.03937007874016
147
0.625
171
     3
172
     1
178
     0
271
     2
272
     2
274
     3
278
    44
283
     0
284
     8
340
11
  0
ENDTAB
  0
TABLE
  2
BLOCK_RECORD
  5
1
330
0
100
AcDbSymbolTable
 70
    43
  0
BLOCK_RECORD
  5
1F
102
{ACAD_XDICTIONARY
360
23B
102
}
330
1
100
AcDbSymbolTableRecord
100
AcDbBlockTableRecord
  2
*Model_Space
340
22
 70
     0
280
     1
281
     0
  0
BLOCK_RECORD
  5
58
330
1
100
AcDbSymbolTableRecord
100
AcDbBlockTableRecord
  2
*Paper_Space
340
59
 70
     0
280
     1
281
     0
  0
BLOCK_RECORD
  5
5D
330
1
100
AcDbSymbolTableRecord
100
AcDbBlockTableRecord
  2
*Paper_Space0
340
5E
 70
     0
280
     1
281
     0
  0
BLOCK_RECORD
  5
29E
102
{ACAD_XDICTIONARY
360
2A3
102
}
330
1
100
AcDbSymbolTableRecord
100
AcDbBlockTableRecord
  2
A$C11336558
340
0
 70
     6
280
     1
281
     0
  0
BLOCK_RECORD
  5
2C3
102
{ACAD_XDICTIONARY
360
2C5
102
}
330
1
100
AcDbSymbolTableRecord
100
AcDbBlockTableRecord
  2
A$C6D9D1ACC
340
0
 70
     6
280
     1
281
     0
  0
BLOCK_RECORD
  5
320
102
{ACAD_XDICTIONARY
360
324
102
}
330
1
100
AcDbSymbolTableRecord
100
AcDbBlockTableRecord
  2
A$C04FD1CE1
340
0
 70
     6
280
     1
281
     0
  0
BLOCK_RECORD
  5
430
102
{ACAD_XDICTIONARY
360
432
102
}
330
1
100
AcDbSymbolTableRecord
100
AcDbBlockTableRecord
  2
A$C19F96357
340
0
 70
     6
280
     1
281
     0
  0
BLOCK_RECORD
  5
485
102
{ACAD_XDICTIONARY
360
488
102
}
330
1
100
AcDbSymbolTableRecord
100
AcDbBlockTableRecord
  2
A$C27A72A64
340
0
 70
     6
280
     1
281
     0
  0
BLOCK_RECORD
  5
48C
102
{ACAD_XDICTIONARY
360
48F
102
}
330
1
100
AcDbSymbolTableRecord
100
AcDbBlockTableRecord
  2
A$C4F0C64B1
340
0
 70
     6
280
     1
281
     0
  0
BLOCK_RECORD
  5
4AF
102
{ACAD_XDICTIONARY
360
4B2
102
}
330
1
100
AcDbSymbolTableRecord
100
AcDbBlockTableRecord
  2
A$C56044FEE
340
0
 70
     6
280
     1
281
     0
  0
BLOCK_RECORD
  5
71F
102
{ACAD_XDICTIONARY
360
723
102
}
330
1
100
AcDbSymbolTableRecord
100
AcDbBlockTableRecord
  2
A$C6A5D518D
340
0
 70
     6
280
     1
281
     0
  0
BLOCK_RECORD
  5
808
102
{ACAD_XDICTIONARY
360
80B
102
}
330
1
100
AcDbSymbolTableRecord
100
AcDbBlockTableRecord
  2
A$C42D858AF
340
0
 70
     6
280
     1
281
     0
  0
BLOCK_RECORD
  5
87C
102
{ACAD_XDICTIONARY
360
884
102
}
330
1
100
AcDbSymbolTableRecord
100
AcDbBlockTableRecord
  2
A$C26DD5F65
340
0
 70
     6
280
     1
281
     0
  0
BLOCK_RECORD
  5
954
102
{ACAD_XDICTIONARY
360
957
102
}
330
1
100
AcDbSymbolTableRecord
100
AcDbBlockTableRecord
  2
A$C0CA467E1
340
0
 70
     6
280
     1
281
     0
  0
BLOCK_RECORD
  5
A4F
102
{ACAD_XDICTIONARY
360
A52
102
}
330
1
100
AcDbSymbolTableRecord
100
AcDbBlockTableRecord
  2
A$C35CC0266
340
0
 70
     6
280
     1
281
     0
  0
BLOCK_RECORD
  5
A84
102
{ACAD_XDICTIONARY
360
A87
102
}
330
1
100
AcDbSymbolTableRecord
100
AcDbBlockTableRecord
  2
A$C00E978D5
340
0
 70
     6
280
     1
281
     0
  0
BLOCK_RECORD
  5
BDD
102
{ACAD_XDICTIONARY
360
BE0
102
}
330
1
100
AcDbSymbolTableRecord
100
AcDbBlockTableRecord
  2
A$C4F632BC0
340
0
 70
     6
280
     1
281
     0
  0
BLOCK_RECORD
  5
D12
102
{ACAD_XDICTIONARY
360
D15
102
}
330
1
100
AcDbSymbolTableRecord
100
AcDbBlockTableRecord
  2
A$C24402BE7
340
0
 70
     6
280
     1
281
     0
  0
BLOCK_RECORD
  5
D6D
102
{ACAD_XDICTIONARY
360
D6F
102
}
330
1
100
AcDbSymbolTableRecord
100
AcDbBlockTableRecord
  2
A$C1B232DAC
340
0
 70
     6
280
     1
281
     0
  0
BLOCK_RECORD
  5
ECF
102
{ACAD_XDICTIONARY
360
ED2
102
}
330
1
100
AcDbSymbolTableRecord
100
AcDbBlockTableRecord
  2
A$C0DB84EC2
340
0
 70
     6
280
     1
281
     0
  0
BLOCK_RECORD
  5
EF6
102
{ACAD_XDICTIONARY
360
EF8
102
}
330
1
100
AcDbSymbolTableRecord
100
AcDbBlockTableRecord
  2
A$C31475676
340
0
 70
     6
280
     1
281
     0
  0
BLOCK_RECORD
  5
F5B
102
{ACAD_XDICTIONARY
360
F60
102
}
330
1
100
AcDbSymbolTableRecord
100
AcDbBlockTableRecord
  2
A$C7C0C41CD
340
0
 70
     6
280
     1
281
     0
  0
BLOCK_RECORD
  5
106C
102
{ACAD_XDICTIONARY
360
106F
102
}
330
1
100
AcDbSymbolTableRecord
100
AcDbBlockTableRecord
  2
A$C5C2F151C
340
0
 70
     6
280
     1
281
     0
  0
BLOCK_RECORD
  5
1094
102
{ACAD_XDICTIONARY
360
1098
102
}
330
1
100
AcDbSymbolTableRecord
100
AcDbBlockTableRecord
  2
A$C6DCE0CB8
340
0
 70
     6
280
     1
281
     0
  0
BLOCK_RECORD
  5
120B
102
{ACAD_XDICTIONARY
360
120D
102
}
330
1
100
AcDbSymbolTableRecord
100
AcDbBlockTableRecord
  2
A$C61BD4E3A
340
0
 70
     6
280
     1
281
     0
  0
BLOCK_RECORD
  5
1397
102
{ACAD_XDICTIONARY
360
139B
102
}
330
1
100
AcDbSymbolTableRecord
100
AcDbBlockTableRecord
  2
A$C2C157546
340
0
 70
     6
280
     1
281
     0
  0
BLOCK_RECORD
  5
139F
102
{ACAD_XDICTIONARY
360
13A5
102
}
330
1
100
AcDbSymbolTableRecord
100
AcDbBlockTableRecord
  2
A$C72307F84
340
0
 70
     6
280
     1
281
     0
  0
BLOCK_RECORD
  5
149E
102
{ACAD_XDICTIONARY
360
14A0
102
}
330
1
100
AcDbSymbolTableRecord
100
AcDbBlockTableRecord
  2
A$C24D274F3
340
0
 70
     6
280
     1
281
     0
  0
BLOCK_RECORD
  5
15DD
102
{ACAD_XDICTIONARY
360
15DF
102
}
330
1
100
AcDbSymbolTableRecord
100
AcDbBlockTableRecord
  2
A$C7C3605DB
340
0
 70
     6
280
     1
281
     0
  0
BLOCK_RECORD
  5
1629
102
{ACAD_XDICTIONARY
360
162B
102
}
330
1
100
AcDbSymbolTableRecord
100
AcDbBlockTableRecord
  2
A$C7EB9609F
340
0
 70
     6
280
     1
281
     0
  0
BLOCK_RECORD
  5
1637
102
{ACAD_XDICTIONARY
360
1639
102
}
330
1
100
AcDbSymbolTableRecord
100
AcDbBlockTableRecord
  2
A$C11403F6C
340
0
 70
     6
280
     1
281
     0
  0
BLOCK_RECORD
  5
1654
102
{ACAD_XDICTIONARY
360
165C
102
}
330
1
100
AcDbSymbolTableRecord
100
AcDbBlockTableRecord
  2
A$C058704BE
340
0
 70
     6
280
     1
281
     0
  0
BLOCK_RECORD
  5
1660
102
{ACAD_XDICTIONARY
360
1666
102
}
330
1
100
AcDbSymbolTableRecord
100
AcDbBlockTableRecord
  2
A$C2DD707F3
340
0
 70
     6
280
     1
281
     0
  0
BLOCK_RECORD
  5
16B1
102
{ACAD_XDICTIONARY
360
16B7
102
}
330
1
100
AcDbSymbolTableRecord
100
AcDbBlockTableRecord
  2
A$C2CFB5E8F
340
0
 70
     6
280
     1
281
     0
  0
BLOCK_RECORD
  5
1774
102
{ACAD_XDICTIONARY
360
1776
102
}
330
1
100
AcDbSymbolTableRecord
100
AcDbBlockTableRecord
  2
A$C5DD95233
340
0
 70
     6
280
     1
281
     0
  0
BLOCK_RECORD
  5
1783
102
{ACAD_XDICTIONARY
360
1787
102
}
330
1
100
AcDbSymbolTableRecord
100
AcDbBlockTableRecord
  2
A$C33A50D34
340
0
 70
     6
280
     1
281
     0
  0
BLOCK_RECORD
  5
185F
102
{ACAD_XDICTIONARY
360
1863
102
}
330
1
100
AcDbSymbolTableRecord
100
AcDbBlockTableRecord
  2
A$C4ADB1A45
340
0
 70
     6
280
     1
281
     0
  0
BLOCK_RECORD
  5
19C6
102
{ACAD_XDICTIONARY
360
19C9
102
}
330
1
100
AcDbSymbolTableRecord
100
AcDbBlockTableRecord
  2
A$C3A5E4A09
340
0
 70
     6
280
     1
281
     0
  0
BLOCK_RECORD
  5
1CED
102
{ACAD_XDICTIONARY
360
1CEF
102
}
330
1
100
AcDbSymbolTableRecord
100
AcDbBlockTableRecord
  2
A$C03BC79CE
340
0
 70
     6
280
     1
281
     0
  0
BLOCK_RECORD
  5
1D5A
102
{ACAD_XDICTIONARY
360
1D5E
102
}
330
1
100
AcDbSymbolTableRecord
100
AcDbBlockTableRecord
  2
A$C3D817E1C
340
0
 70
     6
280
     1
281
     0
  0
BLOCK_RECORD
  5
1D9C
102
{ACAD_XDICTIONARY
360
1D9E
102
}
330
1
100
AcDbSymbolTableRecord
100
AcDbBlockTableRecord
  2
A$C326633BF
340
0
 70
     6
280
     1
281
     0
  0
BLOCK_RECORD
  5
1DDE
102
{ACAD_XDICTIONARY
360
1DE1
102
}
330
1
100
AcDbSymbolTableRecord
100
AcDbBlockTableRecord
  2
A$C688D25D6
340
0
 70
     6
280
     1
281
     0
  0
BLOCK_RECORD
  5
1E31
102
{ACAD_XDICTIONARY
360
1E33
102
}
330
1
100
AcDbSymbolTableRecord
100
AcDbBlockTableRecord
  2
A$C7A1871A4
340
0
 70
     6
280
     1
281
     0
  0
BLOCK_RECORD
  5
1F1F
102
{ACAD_XDICTIONARY
360
1F25
102
}
330
1
100
AcDbSymbolTableRecord
100
AcDbBlockTableRecord
  2
A$C14D1743E
340
0
 70
     6
280
     1
281
     0
  0
BLOCK_RECORD
  5
2156
102
{ACAD_XDICTIONARY
360
2159
102
}
330
1
100
AcDbSymbolTableRecord
100
AcDbBlockTableRecord
  2
A$C73995ACF
340
0
 70
     6
280
     1
281
     0
  0
ENDTAB
  0
ENDSEC
  0
SECTION
  2
BLOCKS
  0
BLOCK
  5
20
330
1F
100
AcDbEntity
  8
0
100
AcDbBlockBegin
  2
*Model_Space
 70
     0
 10
0.0
 20
0.0
 30
0.0
  3
*Model_Space
  1

  0
ENDBLK
  5
21
330
1F
100
AcDbEntity
  8
0
100
AcDbBlockEnd
  0
BLOCK
  5
5A
330
58
100
AcDbEntity
 67
     1
  8
0
100
AcDbBlockBegin
  2
*Paper_Space
 70
     0
 10
0.0
 20
0.0
 30
0.0
  3
*Paper_Space
  1

  0
ENDBLK
  5
5B
330
58
100
AcDbEntity
 67
     1
  8
0
100
AcDbBlockEnd
  0
BLOCK
  5
5F
330
5D
100
AcDbEntity
  8
0
100
AcDbBlockBegin
  2
*Paper_Space0
 70
     0
 10
0.0
 20
0.0
 30
0.0
  3
*Paper_Space0
  1

  0
ENDBLK
  5
60
330
5D
100
AcDbEntity
  8
0
100
AcDbBlockEnd
  0
BLOCK
  5
2A5
330
29E
100
AcDbEntity
  8
0
100
AcDbBlockBegin
  2
A$C11336558
 70
     0
 10
0.0
 20
0.0
 30
0.0
  3
A$C11336558
  1

  0
CIRCLE
  5
29F
330
29E
100
AcDbEntity
  8
Section point
 62
     5
100
AcDbCircle
 10
0.0199999833688569
 20
0.0383319153611996
 30
0.0
 40
0.0200000000000102
  0
LWPOLYLINE
  5
2A0
330
29E
100
AcDbEntity
  8
aOD
 62
     1
100
AcDbPolyline
 90
        6
 70
     0
 43
0.0
 10
0.1147833400149327
 20
0.0400000088835117
 10
0.1947833400312309
 20
0.0400000088835117
 10
0.1547833400521856
 20
0.0400000088835117
 10
0.1147833400149327
 20
0.0000000088753627
 10
0.1547833400521856
 20
0.0400000088835117
 10
0.1947833400312309
 20
0.0000000088753627
  0
TEXT
  5
2A1
330
29E
100
AcDbEntity
  8
aOD
 62
     1
100
AcDbText
 10
0.146221201596509
 20
0.045190092047043
 30
0.0
 40
0.025
  1
?
  7
Text
 72
     1
 11
0.1559330024150629
 21
0.0357255627155286
 31
0.0
100
AcDbText
 73
     1
  0
TEXT
  5
2A2
330
29E
100
AcDbEntity
  8
Annotatons
100
AcDbText
 10
0.0599999833479021
 20
0.0972609740032735
 30
0.0
 40
0.05
  1
NW
  7
Text
 11
0.0599999833479021
 21
0.0783319153402449
 31
0.0
100
AcDbText
 73
     1
  0
ENDBLK
  5
2A6
330
29E
100
AcDbEntity
  8
0
100
AcDbBlockEnd
  0
BLOCK
  5
2C7
330
2C3
100
AcDbEntity
  8
0
100
AcDbBlockBegin
  2
A$C6D9D1ACC
 70
     0
 10
0.0
 20
0.0
 30
0.0
  3
A$C6D9D1ACC
  1

  0
TEXT
  5
2C4
330
2C3
100
AcDbEntity
  8
Annotatons
100
AcDbText
 10
0.0040382074247174
 20
0.0208401790144568
 30
0.0
 40
0.05
  1
(1608)
  7
Text
 72
     1
 11
0.1049931869608702
 21
0.0019111203514282
 31
0.0
100
AcDbText
 73
     1
  0
ENDBLK
  5
2C8
330
2C3
100
AcDbEntity
  8
0
100
AcDbBlockEnd
  0
BLOCK
  5
326
330
320
100
AcDbEntity
  8
0
100
AcDbBlockBegin
  2
A$C04FD1CE1
 70
     0
 10
0.0
 20
0.0
 30
0.0
  3
A$C04FD1CE1
  1

  0
LWPOLYLINE
  5
321
330
320
100
AcDbEntity
  8
Section point
 62
     5
100
AcDbPolyline
 90
        9
 70
     0
 43
0.0
 10
0.1147673824232474
 20
0.0400000034731232
 10
0.1947673823813378
 20
0.0400000034731232
 10
0.1547673824022926
 20
0.0400000034731232
 10
0.1547673824022926
 20
0.0000000034649741
 10
0.1547673824022926
 20
0.0800000034812722
 10
0.1547673824022926
 20
0.0400000034731232
 10
0.1947673823813378
 20
0.0400000034731232
 10
0.174767382420919
 20
0.0400000034731232
 10
0.174767382420919
 20
0.0400000034731232
  0
CIRCLE
  5
322
330
320
100
AcDbEntity
  8
Section point
 62
     5
100
AcDbCircle
 10
0.1547673824022926
 20
0.0400000034731232
 30
0.0
 40
0.0200000000000102
  0
TEXT
  5
323
330
320
100
AcDbEntity
  8
Annotatons
100
AcDbText
 10
0.0022503292172446
 20
0.0989290621443009
 30
0.0
 40
0.05
  1
SW
  7
Text
 72
     2
 11
0.1147673824232474
 21
0.0800000034812722
 31
0.0
100
AcDbText
 73
     1
  0
ENDBLK
  5
327
330
320
100
AcDbEntity
  8
0
100
AcDbBlockEnd
  0
BLOCK
  5
434
330
430
100
AcDbEntity
  8
0
100
AcDbBlockBegin
  2
A$C19F96357
 70
     0
 10
0.0
 20
0.0
 30
0.0
  3
A$C19F96357
  1

  0
LWPOLYLINE
  5
431
330
430
100
AcDbEntity
  8
CONTEXT
100
AcDbPolyline
 90
        2
 70
     0
 43
0.0
 10
0.0000000014199451
 20
0.0719120082121911
 10
0.0000366076411993
 20
0.0
  0
ENDBLK
  5
435
330
430
100
AcDbEntity
  8
0
100
AcDbBlockEnd
  0
BLOCK
  5
48A
330
485
100
AcDbEntity
  8
0
100
AcDbBlockBegin
  2
A$C27A72A64
 70
     0
 10
0.0
 20
0.0
 30
0.0
  3
A$C27A72A64
  1

  0
CIRCLE
  5
486
330
485
100
AcDbEntity
  8
Section point
 62
     5
100
AcDbCircle
 10
0.1350422947931644
 20
0.0200000007853323
 30
0.0
 40
0.0200000000000102
  0
TEXT
  5
487
330
485
100
AcDbEntity
  8
Annotatons
100
AcDbText
 10
0.0018635772152106
 20
0.07892905945651
 30
0.0
 40
0.05
  1
SE
  7
Text
 72
     2
 11
0.0950422948141192
 21
0.0600000007934813
 31
0.0
100
AcDbText
 73
     1
  0
ENDBLK
  5
48B
330
485
100
AcDbEntity
  8
0
100
AcDbBlockEnd
  0
BLOCK
  5
491
330
48C
100
AcDbEntity
  8
0
100
AcDbBlockBegin
  2
A$C4F0C64B1
 70
     0
 10
0.0
 20
0.0
 30
0.0
  3
A$C4F0C64B1
  1

  0
CIRCLE
  5
48D
330
48C
100
AcDbEntity
  8
Section point
 62
     5
100
AcDbCircle
 10
0.1350422947931644
 20
0.0200000007853323
 30
0.0
 40
0.0200000000000102
  0
TEXT
  5
48E
330
48C
100
AcDbEntity
  8
Annotatons
100
AcDbText
 10
0.0018635772152106
 20
0.07892905945651
 30
0.0
 40
0.05
  1
SE
  7
Text
 72
     2
 11
0.0950422948141192
 21
0.0600000007934813
 31
0.0
100
AcDbText
 73
     1
  0
ENDBLK
  5
492
330
48C
100
AcDbEntity
  8
0
100
AcDbBlockEnd
  0
BLOCK
  5
4B4
330
4AF
100
AcDbEntity
  8
0
100
AcDbBlockBegin
  2
A$C56044FEE
 70
     0
 10
0.0
 20
0.0
 30
0.0
  3
A$C56044FEE
  1

  0
LWPOLYLINE
  5
4B0
330
4AF
100
AcDbEntity
  8
aOD
 62
     1
100
AcDbPolyline
 90
        6
 70
     0
 43
0.0
 10
-0.0000000056047131
 20
0.0400000011302932
 10
0.079999994411585
 20
0.0400000011302932
 10
0.0399999944325398
 20
0.0400000011302932
 10
-0.0000000056047131
 20
0.0000000011221442
 10
0.0399999944325398
 20
0.0400000011302932
 10
0.079999994411585
 20
0.0000000011221442
  0
TEXT
  5
4B1
330
4AF
100
AcDbEntity
  8
aOD
 62
     1
100
AcDbText
 10
0.0314378559768632
 20
0.0451900842938244
 30
0.0
 40
0.025
  1
?
  7
Text
 72
     1
 11
0.041149656795417
 21
0.0357255549623101
 31
0.0
100
AcDbText
 73
     1
  0
ENDBLK
  5
4B5
330
4AF
100
AcDbEntity
  8
0
100
AcDbBlockEnd
  0
BLOCK
  5
725
330
71F
100
AcDbEntity
  8
0
100
AcDbBlockBegin
  2
A$C6A5D518D
 70
     0
 10
0.0
 20
0.0
 30
0.0
  3
A$C6A5D518D
  1

  0
LWPOLYLINE
  5
720
330
71F
100
AcDbEntity
  8
Section point
 62
     5
100
AcDbPolyline
 90
        9
 70
     0
 43
0.0
 10
0.0475211417707424
 20
0.0399999941176237
 10
0.1275211417288329
 20
0.0399999941176237
 10
0.0875211417497876
 20
0.0399999941176237
 10
0.0875211417497876
 20
-0.0000000058905254
 10
0.0875211417497876
 20
0.0799999941257727
 10
0.0875211417497876
 20
0.0399999941176237
 10
0.1275211417288329
 20
0.0399999941176237
 10
0.1075211417684141
 20
0.0399999941176237
 10
0.1075211417684141
 20
0.0399999941176237
  0
CIRCLE
  5
721
330
71F
100
AcDbEntity
  8
Section point
 62
     5
100
AcDbCircle
 10
0.0875211417497876
 20
0.0399999941176237
 30
0.0
 40
0.0200000000000102
  0
TEXT
  5
722
330
71F
100
AcDbEntity
  8
Annotatons
100
AcDbText
 10
0.0009317829712881
 20
0.0989290527888014
 30
0.0
 40
0.05
  1
S
  7
Text
 72
     2
 11
0.0475211417707424
 21
0.0799999941257727
 31
0.0
100
AcDbText
 73
     1
  0
ENDBLK
  5
726
330
71F
100
AcDbEntity
  8
0
100
AcDbBlockEnd
  0
BLOCK
  5
80D
330
808
100
AcDbEntity
  8
0
100
AcDbBlockBegin
  2
A$C42D858AF
 70
     0
 10
0.0
 20
0.0
 30
0.0
  3
A$C42D858AF
  1

  0
CIRCLE
  5
809
330
808
100
AcDbEntity
  8
Section point
 62
     5
100
AcDbCircle
 10
0.0200000149646034
 20
0.0199999944229763
 30
0.0
 40
0.0200000000000102
  0
TEXT
  5
80A
330
808
100
AcDbEntity
  8
Annotatons
100
AcDbText
 10
0.0600000149436486
 20
0.0789290530650502
 30
0.0
 40
0.05
  1
?
  7
Text
 11
0.0600000149436486
 21
0.0599999944020215
 31
0.0
100
AcDbText
 73
     1
  0
ENDBLK
  5
80E
330
808
100
AcDbEntity
  8
0
100
AcDbBlockEnd
  0
BLOCK
  5
886
330
87C
100
AcDbEntity
  8
0
100
AcDbBlockBegin
  2
A$C26DD5F65
 70
     0
 10
0.0
 20
0.0
 30
0.0
  3
A$C26DD5F65
  1

  0
CIRCLE
  5
87D
330
87C
100
AcDbEntity
  8
Section point
 62
     5
100
AcDbCircle
 10
0.0796241266830275
 20
0.0475738848851197
 30
0.0
 40
0.0200000000000102
  0
TEXT
  5
87E
330
87C
100
AcDbEntity
  8
Annotatons
100
AcDbText
 10
0.0007769234297667
 20
0.1065029435562974
 30
0.0
 40
0.05
  1
?
  7
Text
 72
     2
 11
0.0396241267039823
 21
0.0875738848932688
 31
0.0
100
AcDbText
 73
     1
  0
LWPOLYLINE
  5
87F
330
87C
100
AcDbEntity
  8
Section point
 62
     5
100
AcDbPolyline
 90
        9
 70
     0
 43
0.0
 10
1.740068463329083
 20
0.041148520843203
 10
1.820068463287173
 20
0.041148520843203
 10
1.780068463308128
 20
0.041148520843203
 10
1.780068463308128
 20
0.0011485208350539
 10
1.780068463308128
 20
0.0811485208222482
 10
1.780068463308128
 20
0.041148520843203
 10
1.820068463287173
 20
0.041148520843203
 10
1.800068463326754
 20
0.041148520843203
 10
1.800068463326754
 20
0.041148520843203
  0
CIRCLE
  5
880
330
87C
100
AcDbEntity
  8
Section point
 62
     5
100
AcDbCircle
 10
1.780068463308128
 20
0.041148520843203
 30
0.0
 40
0.0200000000000102
  0
TEXT
  5
881
330
87C
100
AcDbEntity
  8
Annotatons
100
AcDbText
 10
1.820068463287173
 20
0.1000775794852769
 30
0.0
 40
0.05
  1
?
  7
Text
 11
1.820068463287173
 21
0.0811485208222482
 31
0.0
100
AcDbText
 73
     1
  0
LWPOLYLINE
  5
882
330
87C
100
AcDbEntity
  8
aOD
 62
     1
100
AcDbPolyline
 90
        6
 70
     0
 43
0.0
 10
1.911813160137415
 20
0.0400000010911992
 10
1.991813160153713
 20
0.0400000010911992
 10
1.951813160174668
 20
0.0400000010911992
 10
1.911813160137415
 20
0.0000000010830501
 10
1.951813160174668
 20
0.0400000010911992
 10
1.991813160153713
 20
0.0000000010830501
  0
TEXT
  5
883
330
87C
100
AcDbEntity
  8
aOD
 62
     1
100
AcDbText
 10
1.899552181336999
 20
0.0451900842547304
 30
0.0
 40
0.025
  1
174.02
  7
Text
 72
     1
 11
1.952962822537545
 21
0.0357255549232161
 31
0.0
100
AcDbText
 73
     1
  0
ENDBLK
  5
887
330
87C
100
AcDbEntity
  8
0
100
AcDbBlockEnd
  0
BLOCK
  5
959
330
954
100
AcDbEntity
  8
0
100
AcDbBlockBegin
  2
A$C0CA467E1
 70
     0
 10
0.0
 20
0.0
 30
0.0
  3
A$C0CA467E1
  1

  0
CIRCLE
  5
955
330
954
100
AcDbEntity
  8
Section point
 62
     5
100
AcDbCircle
 10
0.1586985003881818
 20
0.0200000009661725
 30
0.0
 40
0.0200000000000102
  0
TEXT
  5
956
330
954
100
AcDbEntity
  8
Annotatons
100
AcDbText
 10
0.0023274226465172
 20
0.0789290596373502
 30
0.0
 40
0.05
  1
NW
  7
Text
 72
     2
 11
0.1186985004091365
 21
0.0600000009743216
 31
0.0
100
AcDbText
 73
     1
  0
ENDBLK
  5
95A
330
954
100
AcDbEntity
  8
0
100
AcDbBlockEnd
  0
BLOCK
  5
A54
330
A4F
100
AcDbEntity
  8
0
100
AcDbBlockBegin
  2
A$C35CC0266
 70
     0
 10
0.0
 20
0.0
 30
0.0
  3
A$C35CC0266
  1

  0
CIRCLE
  5
A50
330
A4F
100
AcDbEntity
  8
Section point
 62
     5
100
AcDbCircle
 10
0.01999998575271
 20
0.0200000009661725
 30
0.0
 40
0.0200000000000102
  0
TEXT
  5
A51
330
A4F
100
AcDbEntity
  8
Annotatons
100
AcDbText
 10
0.0852800635271771
 20
0.0771815066111939
 30
0.0
 40
0.05
  1
NE
  7
Text
 72
     2
 11
0.1823128056827024
 21
0.0582524479481652
 31
0.0
100
AcDbText
 73
     1
  0
ENDBLK
  5
A55
330
A4F
100
AcDbEntity
  8
0
100
AcDbBlockEnd
  0
BLOCK
  5
A89
330
A84
100
AcDbEntity
  8
0
100
AcDbBlockBegin
  2
A$C00E978D5
 70
     0
 10
0.0
 20
0.0
 30
0.0
  3
A$C00E978D5
  1

  0
CIRCLE
  5
A85
330
A84
100
AcDbEntity
  8
Section point
 62
     5
100
AcDbCircle
 10
0.01999998575271
 20
0.0200000009661725
 30
0.0
 40
0.0200000000000102
  0
TEXT
  5
A86
330
A84
100
AcDbEntity
  8
Annotatons
100
AcDbText
 10
0.0844459450441926
 20
0.0794148566215047
 30
0.0
 40
0.05
  1
NE
  7
Text
 72
     2
 11
0.1814786871997178
 21
0.0604857979584761
 31
0.0
100
AcDbText
 73
     1
  0
ENDBLK
  5
A8A
330
A84
100
AcDbEntity
  8
0
100
AcDbBlockEnd
  0
BLOCK
  5
BE2
330
BDD
100
AcDbEntity
  8
0
100
AcDbBlockBegin
  2
A$C4F632BC0
 70
     0
 10
0.0
 20
0.0
 30
0.0
  3
A$C4F632BC0
  1

  0
CIRCLE
  5
BDE
330
BDD
100
AcDbEntity
  8
Section point
 62
     5
100
AcDbCircle
 10
0.0199999715719752
 20
0.0199999780391895
 30
0.0
 40
0.0200000000000102
  0
TEXT
  5
BDF
330
BDD
100
AcDbEntity
  8
Annotatons
100
AcDbText
 10
0.0844459308634578
 20
0.0794148336945218
 30
0.0
 40
0.05
  1
NE
  7
Text
 72
     2
 11
0.181478673018983
 21
0.0604857750314931
 31
0.0
100
AcDbText
 73
     1
  0
ENDBLK
  5
BE3
330
BDD
100
AcDbEntity
  8
0
100
AcDbBlockEnd
  0
BLOCK
  5
D17
330
D12
100
AcDbEntity
  8
0
100
AcDbBlockBegin
  2
A$C24402BE7
 70
     0
 10
0.0
 20
0.0
 30
0.0
  3
A$C24402BE7
  1

  0
CIRCLE
  5
D13
330
D12
100
AcDbEntity
  8
Section point
 62
     5
100
AcDbCircle
 10
0.0199999814650198
 20
0.0200000215899951
 30
0.0
 40
0.0200000000000102
  0
TEXT
  5
D14
330
D12
100
AcDbEntity
  8
Annotatons
100
AcDbText
 10
0.0669025389200877
 20
0.0794393686173014
 30
0.0
 40
0.05
  1
NE
  7
Text
 72
     2
 11
0.1639352810756129
 21
0.0605103099542728
 31
0.0
100
AcDbText
 73
     1
  0
ENDBLK
  5
D18
330
D12
100
AcDbEntity
  8
0
100
AcDbBlockEnd
  0
BLOCK
  5
D71
330
D6D
100
AcDbEntity
  8
0
100
AcDbBlockBegin
  2
A$C1B232DAC
 70
     0
 10
0.0
 20
0.0
 30
0.0
  3
A$C1B232DAC
  1

  0
TEXT
  5
D6E
330
D6D
100
AcDbEntity
  8
Annotatons
100
AcDbText
 10
0.0040381628790827
 20
0.0209513874189402
 30
0.0
 40
0.05
  1
(5701)
  7
Text
 72
     1
 11
0.1049931424152355
 21
0.0020223287559116
 31
0.0
100
AcDbText
 73
     1
  0
ENDBLK
  5
D72
330
D6D
100
AcDbEntity
  8
0
100
AcDbBlockEnd
  0
BLOCK
  5
ED4
330
ECF
100
AcDbEntity
  8
0
100
AcDbBlockBegin
  2
A$C0DB84EC2
 70
     0
 10
0.0
 20
0.0
 30
0.0
  3
A$C0DB84EC2
  1

  0
CIRCLE
  5
ED0
330
ECF
100
AcDbEntity
  8
Section point
 62
     5
100
AcDbCircle
 10
0.1547673505020981
 20
0.0199999949137855
 30
0.0
 40
0.0200000000000102
  0
TEXT
  5
ED1
330
ECF
100
AcDbEntity
  8
Annotatons
100
AcDbText
 10
0.0022502973170501
 20
0.0789290535849632
 30
0.0
 40
0.05
  1
SW
  7
Text
 72
     2
 11
0.1147673505230529
 21
0.0599999949219345
 31
0.0
100
AcDbText
 73
     1
  0
ENDBLK
  5
ED5
330
ECF
100
AcDbEntity
  8
0
100
AcDbBlockEnd
  0
BLOCK
  5
EFA
330
EF6
100
AcDbEntity
  8
0
100
AcDbBlockBegin
  2
A$C31475676
 70
     0
 10
0.0
 20
0.0
 30
0.0
  3
A$C31475676
  1

  0
LWPOLYLINE
  5
EF7
330
EF6
100
AcDbEntity
  8
CONTEXT
  6
DASHDOT
 48
0.003
100
AcDbPolyline
 90
        2
 70
     0
 43
0.0
 10
0.0
 20
0.0
 10
0.0006569245793884
 20
0.0418226830322368
  0
ENDBLK
  5
EFB
330
EF6
100
AcDbEntity
  8
0
100
AcDbBlockEnd
  0
BLOCK
  5
F62
330
F5B
100
AcDbEntity
  8
0
100
AcDbBlockBegin
  2
A$C7C0C41CD
 70
     0
 10
0.0
 20
0.0
 30
0.0
  3
A$C7C0C41CD
  1

  0
CIRCLE
  5
F5C
330
F5B
100
AcDbEntity
  8
Section point
 62
     5
100
AcDbCircle
 10
0.0199999814650198
 20
0.0406340922638311
 30
0.0
 40
0.0200000000000102
  0
TEXT
  5
F5D
330
F5B
100
AcDbEntity
  8
Annotatons
100
AcDbText
 10
0.0116048634736386
 20
0.1010333400891495
 30
0.0
 40
0.05
  1
NW
  7
Text
 72
     2
 11
0.127975941236258
 21
0.0821042814261208
 31
0.0
100
AcDbText
 73
     1
  0
LWPOLYLINE
  5
F5E
330
F5B
100
AcDbEntity
  8
aOD
 62
     1
100
AcDbPolyline
 90
        6
 70
     0
 43
0.0
 10
0.0960444799297875
 20
0.0400000004768195
 10
0.1760444799460856
 20
0.0400000004768195
 10
0.1360444799088327
 20
0.0400000004768195
 10
0.0960444799297875
 20
0.0000000004686704
 10
0.1360444799088327
 20
0.0400000004768195
 10
0.1760444799460856
 20
0.0000000004686704
  0
TEXT
  5
F5F
330
F5B
100
AcDbEntity
  8
aOD
 62
     1
100
AcDbText
 10
0.1032071027664797
 20
0.0451900836403507
 30
0.0
 40
0.025
  1
30.2
  7
Text
 72
     1
 11
0.1371941423299177
 21
0.0357255543088364
 31
0.0
100
AcDbText
 73
     1
  0
ENDBLK
  5
F63
330
F5B
100
AcDbEntity
  8
0
100
AcDbBlockEnd
  0
BLOCK
  5
1071
330
106C
100
AcDbEntity
  8
0
100
AcDbBlockBegin
  2
A$C5C2F151C
 70
     0
 10
0.0
 20
0.0
 30
0.0
  3
A$C5C2F151C
  1

  0
TEXT
  5
106D
330
106C
100
AcDbEntity
  8
Annotatons
100
AcDbText
 10
0.003884044834836
 20
0.0208741816583786
 30
0.0
 40
0.05
  1
[3705]
  7
Text
 72
     1
 11
0.1009849998143721
 21
0.00194512299535
 31
0.0
100
AcDbText
 73
     1
  0
LWPOLYLINE
  5
106E
330
106C
100
AcDbEntity
  8
aOD
100
AcDbPolyline
 90
        2
 70
     0
 43
0.0
 10
0.047600450731025
 20
0.2153525399053109
 10
0.0973618230181899
 20
0.0814178585832153
  0
ENDBLK
  5
1072
330
106C
100
AcDbEntity
  8
0
100
AcDbBlockEnd
  0
BLOCK
  5
109A
330
1094
100
AcDbEntity
  8
0
100
AcDbBlockBegin
  2
A$C6DCE0CB8
 70
     0
 10
0.0
 20
0.0
 30
0.0
  3
A$C6DCE0CB8
  1

  0
LWPOLYLINE
  5
1095
330
1094
100
AcDbEntity
  8
Section point
 62
     5
100
AcDbPolyline
 90
        9
 70
     0
 43
0.0
 10
0.0437583143091445
 20
0.0399999809559795
 10
0.1237583142672349
 20
0.0399999809559795
 10
0.0837583142881897
 20
0.0399999809559795
 10
0.0837583142881897
 20
-0.0000000190521696
 10
0.0837583142881897
 20
0.0799999809641285
 10
0.0837583142881897
 20
0.0399999809559795
 10
0.1237583142672349
 20
0.0399999809559795
 10
0.1037583143068161
 20
0.0399999809559795
 10
0.1037583143068161
 20
0.0399999809559795
  0
CIRCLE
  5
1096
330
1094
100
AcDbEntity
  8
Section point
 62
     5
100
AcDbCircle
 10
0.0837583142881897
 20
0.0399999809559795
 30
0.0
 40
0.0200000000000102
  0
TEXT
  5
1097
330
1094
100
AcDbEntity
  8
Annotatons
100
AcDbText
 10
0.0018635369457855
 20
0.0980764977866486
 30
0.0
 40
0.05
  1
SE
  7
Text
 72
     2
 11
0.0950422545446941
 21
0.07914743912362
 31
0.0
100
AcDbText
 73
     1
  0
ENDBLK
  5
109B
330
1094
100
AcDbEntity
  8
0
100
AcDbBlockEnd
  0
BLOCK
  5
120F
330
120B
100
AcDbEntity
  8
0
100
AcDbBlockBegin
  2
A$C61BD4E3A
 70
     0
 10
0.0
 20
0.0
 30
0.0
  3
A$C61BD4E3A
  1

  0
LWPOLYLINE
  5
120C
330
120B
100
AcDbEntity
  8
CONTEXT
  6
DASHDOT
 48
0.003
100
AcDbPolyline
 90
        2
 70
     0
 43
0.0
 10
0.0021193383350138
 20
-0.0000000066881043
 10
-0.0000000146975196
 20
0.27178454182447
  0
ENDBLK
  5
1210
330
120B
100
AcDbEntity
  8
0
100
AcDbBlockEnd
  0
BLOCK
  5
139D
330
1397
100
AcDbEntity
  8
0
100
AcDbBlockBegin
  2
A$C2C157546
 70
     0
 10
0.0
 20
0.0
 30
0.0
  3
A$C2C157546
  1

  0
LWPOLYLINE
  5
1398
330
1397
100
AcDbEntity
  8
Section point
 62
     5
100
AcDbPolyline
 90
        9
 70
     0
 43
0.0
 10
0.0437583823758985
 20
0.0400000123016717
 10
0.1237583823339889
 20
0.0400000123016717
 10
0.0837583823549437
 20
0.0400000123016717
 10
0.0837583823549437
 20
0.0000000122935226
 10
0.0837583823549437
 20
0.0800000123098208
 10
0.0837583823549437
 20
0.0400000123016717
 10
0.1237583823339889
 20
0.0400000123016717
 10
0.1037583823735702
 20
0.0400000123016717
 10
0.1037583823735702
 20
0.0400000123016717
  0
CIRCLE
  5
1399
330
1397
100
AcDbEntity
  8
Section point
 62
     5
100
AcDbCircle
 10
0.0837583823549437
 20
0.0400000123016717
 30
0.0
 40
0.0200000000000102
  0
TEXT
  5
139A
330
1397
100
AcDbEntity
  8
Annotatons
100
AcDbText
 10
0.0018636050125395
 20
0.0980765291323409
 30
0.0
 40
0.05
  1
SE
  7
Text
 72
     2
 11
0.0950423226114481
 21
0.0791474704693123
 31
0.0
100
AcDbText
 73
     1
  0
ENDBLK
  5
139E
330
1397
100
AcDbEntity
  8
0
100
AcDbBlockEnd
  0
BLOCK
  5
13A7
330
139F
100
AcDbEntity
  8
0
100
AcDbBlockBegin
  2
A$C72307F84
 70
     0
 10
0.0
 20
0.0
 30
0.0
  3
A$C72307F84
  1

  0
LWPOLYLINE
  5
13A0
330
139F
100
AcDbEntity
  8
Section point
 62
     5
100
AcDbPolyline
 90
        9
 70
     0
 43
0.0
 10
0.0000000044436632
 20
0.0406341029127066
 10
0.0800000044017537
 20
0.0406341029127066
 10
0.0400000044227085
 20
0.0406341029127066
 10
0.0400000044227085
 20
0.0006341029045576
 10
0.0400000044227085
 20
0.0806341029208557
 10
0.0400000044227085
 20
0.0406341029127066
 10
0.0800000044017537
 20
0.0406341029127066
 10
0.0600000044413349
 20
0.0406341029127066
 10
0.0600000044413349
 20
0.0406341029127066
  0
CIRCLE
  5
13A1
330
139F
100
AcDbEntity
  8
Section point
 62
     5
100
AcDbCircle
 10
0.0400000044227085
 20
0.0406341029127066
 30
0.0
 40
0.0200000000000102
  0
TEXT
  5
13A2
330
139F
100
AcDbEntity
  8
Annotatons
100
AcDbText
 10
0.0509432220384214
 20
0.101033350738025
 30
0.0
 40
0.05
  1
NE
  7
Text
 72
     2
 11
0.1479759641939467
 21
0.0821042920749964
 31
0.0
100
AcDbText
 73
     1
  0
LWPOLYLINE
  5
13A3
330
139F
100
AcDbEntity
  8
aOD
 62
     1
100
AcDbPolyline
 90
        6
 70
     0
 43
0.0
 10
0.1160445028874761
 20
0.0400000111256951
 10
0.1960445029037743
 20
0.0400000111256951
 10
0.1560445028665214
 20
0.0400000111256951
 10
0.1160445028874761
 20
0.000000011117546
 10
0.1560445028665214
 20
0.0400000111256951
 10
0.1960445029037743
 20
0.000000011117546
  0
TEXT
  5
13A4
330
139F
100
AcDbEntity
  8
aOD
 62
     1
100
AcDbText
 10
0.1232071257241684
 20
0.0451900942892263
 30
0.0
 40
0.025
  1
32.3
  7
Text
 72
     1
 11
0.1571941652876063
 21
0.035725564957712
 31
0.0
100
AcDbText
 73
     1
  0
ENDBLK
  5
13A8
330
139F
100
AcDbEntity
  8
0
100
AcDbBlockEnd
  0
BLOCK
  5
14A2
330
149E
100
AcDbEntity
  8
0
100
AcDbBlockBegin
  2
A$C24D274F3
 70
     0
 10
0.0
 20
0.0
 30
0.0
  3
A$C24D274F3
  1

  0
LWPOLYLINE
  5
149F
330
149E
100
AcDbEntity
  8
CONTEXT
  6
DASHDOT
 48
0.003
100
AcDbPolyline
 90
        2
 70
     0
 43
0.0
 10
0.0021193514035929
 20
0.0000000034608689
 10
-0.0000000016289405
 20
0.2717845519734432
  0
ENDBLK
  5
14A3
330
149E
100
AcDbEntity
  8
0
100
AcDbBlockEnd
  0
BLOCK
  5
15E1
330
15DD
100
AcDbEntity
  8
0
100
AcDbBlockBegin
  2
A$C7C3605DB
 70
     0
 10
0.0
 20
0.0
 30
0.0
  3
A$C7C3605DB
  1

  0
TEXT
  5
15DE
330
15DD
100
AcDbEntity
  8
Annotatons
100
AcDbText
 10
0.0038840284868321
 20
0.0208963482316382
 30
0.0
 40
0.05
  1
[6903]
  7
Text
 72
     1
 11
0.1009849834663683
 21
0.0019672895686096
 31
0.0
100
AcDbText
 73
     1
  0
ENDBLK
  5
15E2
330
15DD
100
AcDbEntity
  8
0
100
AcDbBlockEnd
  0
BLOCK
  5
162D
330
1629
100
AcDbEntity
  8
0
100
AcDbBlockBegin
  2
A$C7EB9609F
 70
     0
 10
0.0
 20
0.0
 30
0.0
  3
A$C7EB9609F
  1

  0
TEXT
  5
162A
330
1629
100
AcDbEntity
  8
Annotatons
100
AcDbText
 10
0.0040382134305
 20
0.0209744326761485
 30
0.0
 40
0.05
  1
(4516)
  7
Text
 72
     1
 11
0.1049931929666528
 21
0.0020453740131199
 31
0.0
100
AcDbText
 73
     1
  0
ENDBLK
  5
162E
330
1629
100
AcDbEntity
  8
0
100
AcDbBlockEnd
  0
BLOCK
  5
163B
330
1637
100
AcDbEntity
  8
0
100
AcDbBlockBegin
  2
A$C11403F6C
 70
     0
 10
0.0
 20
0.0
 30
0.0
  3
A$C11403F6C
  1

  0
TEXT
  5
1638
330
1637
100
AcDbEntity
  8
Annotatons
100
AcDbText
 10
0.0040382134305
 20
0.0209744326761485
 30
0.0
 40
0.05
  1
(451?)
  7
Text
 72
     1
 11
0.1049931929666528
 21
0.0020453740131199
 31
0.0
100
AcDbText
 73
     1
  0
ENDBLK
  5
163C
330
1637
100
AcDbEntity
  8
0
100
AcDbBlockEnd
  0
BLOCK
  5
165E
330
1654
100
AcDbEntity
  8
0
100
AcDbBlockBegin
  2
A$C058704BE
 70
     0
 10
0.0
 20
0.0
 30
0.0
  3
A$C058704BE
  1

  0
IMAGE
  5
1655
330
1654
100
AcDbEntity
  8
Scanned drawing
160
               140
310
8C00000001000000840000000600000005000000E069373A8D5BF8BF00A0A77D063803C00000000000000000D118B45DBB6A054000A0A77D063803C00000000000000000D118B45DBB6A05404BC58B951324E23F0000000000000000E069373A8D5BF8BF4BC58B951324E23F0000000000000000E069373A8D5BF8BF00A0A7
310
7D063803C00000000000000000
100
AcDbRasterImage
 90
        0
 10
-1.522351481826824
 20
-2.402356130292901
 30
0.0
 11
0.0008466666666666666
 21
0.0
 31
0.0
 12
5.184166897848064E-20
 22
0.0008466666666666666
 32
0.0
 13
4960.0
 23
3507.0
340
15F4
 70
     7
280
     0
281
    50
282
    50
283
     0
360
1656
 71
     1
 91
        2
 14
-0.5
 24
-0.5
 14
4959.5
 24
3506.5
290
     0
  0
LWPOLYLINE
  5
1657
330
1654
100
AcDbEntity
  8
Section point
 62
     5
100
AcDbPolyline
 90
        9
 70
     0
 43
0.0
 10
0.6367996639337363
 20
0.4396980992471526
 10
0.7167996638918268
 20
0.4396980992471526
 10
0.6767996639127816
 20
0.4396980992471526
 10
0.6767996639127816
 20
0.3996980992390053
 10
0.6767996639127816
 20
0.4796980992553017
 10
0.6767996639127816
 20
0.4396980992471526
 10
0.7167996638918268
 20
0.4396980992471526
 10
0.696799663931408
 20
0.4396980992471526
 10
0.696799663931408
 20
0.4396980992471526
  0
CIRCLE
  5
1658
330
1654
100
AcDbEntity
  8
Section point
 62
     5
100
AcDbCircle
 10
0.6767996639127816
 20
0.4396980992471526
 30
0.0
 40
0.0200000000000102
  0
TEXT
  5
1659
330
1654
100
AcDbEntity
  8
Annotatons
100
AcDbText
 10
0.6877428815284945
 20
0.500097347072471
 30
0.0
 40
0.05
  1
NE
  7
Text
 72
     2
 11
0.7847756236840198
 21
0.4811682884094424
 31
0.0
100
AcDbText
 73
     1
  0
LWPOLYLINE
  5
165A
330
1654
100
AcDbEntity
  8
aOD
 62
     1
100
AcDbPolyline
 90
        6
 70
     0
 43
0.0
 10
0.7528441623775493
 20
0.4390640074601428
 10
0.8328441623938474
 20
0.4390640074601428
 10
0.7928441623565945
 20
0.4390640074601428
 10
0.7528441623775493
 20
0.3990640074519938
 10
0.7928441623565945
 20
0.4390640074601428
 10
0.8328441623938474
 20
0.3990640074519938
  0
TEXT
  5
165B
330
1654
100
AcDbEntity
  8
aOD
 62
     1
100
AcDbText
 10
0.7600067852142415
 20
0.444254090623674
 30
0.0
 40
0.025
  1
60.1
  7
Text
 72
     1
 11
0.7939938247776794
 21
0.4347895612921597
 31
0.0
100
AcDbText
 73
     1
  0
ENDBLK
  5
165F
330
1654
100
AcDbEntity
  8
0
100
AcDbBlockEnd
  0
BLOCK
  5
1668
330
1660
100
AcDbEntity
  8
0
100
AcDbBlockBegin
  2
A$C2DD707F3
 70
     0
 10
0.0
 20
0.0
 30
0.0
  3
A$C2DD707F3
  1

  0
LWPOLYLINE
  5
1661
330
1660
100
AcDbEntity
  8
Section point
 62
     5
100
AcDbPolyline
 90
        9
 70
     0
 43
0.0
 10
-0.000000005627605
 20
0.0406340838709767
 10
0.0799999943304854
 20
0.0406340838709767
 10
0.0399999943514402
 20
0.0406340838709767
 10
0.0399999943514402
 20
0.0006340838628294
 10
0.0399999943514402
 20
0.0806340838791257
 10
0.0399999943514402
 20
0.0406340838709767
 10
0.0799999943304854
 20
0.0406340838709767
 10
0.0599999943700666
 20
0.0406340838709767
 10
0.0599999943700666
 20
0.0406340838709767
  0
CIRCLE
  5
1662
330
1660
100
AcDbEntity
  8
Section point
 62
     5
100
AcDbCircle
 10
0.0399999943514402
 20
0.0406340838709767
 30
0.0
 40
0.0200000000000102
  0
TEXT
  5
1663
330
1660
100
AcDbEntity
  8
Annotatons
100
AcDbText
 10
0.0509432119671531
 20
0.1010333316962951
 30
0.0
 40
0.05
  1
NE
  7
Text
 72
     2
 11
0.1479759541226784
 21
0.0821042730332664
 31
0.0
100
AcDbText
 73
     1
  0
LWPOLYLINE
  5
1664
330
1660
100
AcDbEntity
  8
aOD
 62
     1
100
AcDbPolyline
 90
        6
 70
     0
 43
0.0
 10
0.1160444928162079
 20
0.0399999920839669
 10
0.196044492832506
 20
0.0399999920839669
 10
0.1560444927952531
 20
0.0399999920839669
 10
0.1160444928162079
 20
-0.0000000079241822
 10
0.1560444927952531
 20
0.0399999920839669
 10
0.196044492832506
 20
-0.0000000079241822
  0
TEXT
  5
1665
330
1660
100
AcDbEntity
  8
aOD
 62
     1
100
AcDbText
 10
0.1232071156529001
 20
0.0451900752474981
 30
0.0
 40
0.025
  1
60.1
  7
Text
 72
     1
 11
0.1571941552163381
 21
0.0357255459159838
 31
0.0
100
AcDbText
 73
     1
  0
ENDBLK
  5
1669
330
1660
100
AcDbEntity
  8
0
100
AcDbBlockEnd
  0
BLOCK
  5
16B9
330
16B1
100
AcDbEntity
  8
0
100
AcDbBlockBegin
  2
A$C2CFB5E8F
 70
     0
 10
0.0
 20
0.0
 30
0.0
  3
A$C2CFB5E8F
  1

  0
LWPOLYLINE
  5
16B2
330
16B1
100
AcDbEntity
  8
Section point
 62
     5
100
AcDbPolyline
 90
        9
 70
     0
 43
0.0
 10
-0.000000005627605
 20
0.0406340838709784
 10
0.0799999943304854
 20
0.0406340838709784
 10
0.0399999943514402
 20
0.0406340838709784
 10
0.0399999943514402
 20
0.0006340838628294
 10
0.0399999943514402
 20
0.0806340838791275
 10
0.0399999943514402
 20
0.0406340838709784
 10
0.0799999943304854
 20
0.0406340838709784
 10
0.0599999943700666
 20
0.0406340838709784
 10
0.0599999943700666
 20
0.0406340838709784
  0
CIRCLE
  5
16B3
330
16B1
100
AcDbEntity
  8
Section point
 62
     5
100
AcDbCircle
 10
0.0399999943514402
 20
0.0406340838709784
 30
0.0
 40
0.0200000000000102
  0
TEXT
  5
16B4
330
16B1
100
AcDbEntity
  8
Annotatons
100
AcDbText
 10
0.0509432119671531
 20
0.1010333316962968
 30
0.0
 40
0.05
  1
NE
  7
Text
 72
     2
 11
0.1479759541226784
 21
0.0821042730332682
 31
0.0
100
AcDbText
 73
     1
  0
LWPOLYLINE
  5
16B5
330
16B1
100
AcDbEntity
  8
aOD
 62
     1
100
AcDbPolyline
 90
        6
 70
     0
 43
0.0
 10
0.1160444928162079
 20
0.0399999920839669
 10
0.196044492832506
 20
0.0399999920839669
 10
0.1560444927952531
 20
0.0399999920839669
 10
0.1160444928162079
 20
-0.0000000079241822
 10
0.1560444927952531
 20
0.0399999920839669
 10
0.196044492832506
 20
-0.0000000079241822
  0
TEXT
  5
16B6
330
16B1
100
AcDbEntity
  8
aOD
 62
     1
100
AcDbText
 10
0.1232071156529001
 20
0.0451900752474981
 30
0.0
 40
0.025
  1
32.3
  7
Text
 72
     1
 11
0.1571941552163381
 21
0.0357255459159838
 31
0.0
100
AcDbText
 73
     1
  0
ENDBLK
  5
16BA
330
16B1
100
AcDbEntity
  8
0
100
AcDbBlockEnd
  0
BLOCK
  5
1778
330
1774
100
AcDbEntity
  8
0
100
AcDbBlockBegin
  2
A$C5DD95233
 70
     0
 10
0.0
 20
0.0
 30
0.0
  3
A$C5DD95233
  1

  0
LWPOLYLINE
  5
1775
330
1774
100
AcDbEntity
  8
CONTEXT
  6
DASHDOT
 48
0.003
100
AcDbPolyline
 90
        2
 70
     0
 43
0.0
 10
0.0006941684215676
 20
0.0
 10
0.0000000095641539
 20
0.3559735874672754
  0
ENDBLK
  5
1779
330
1774
100
AcDbEntity
  8
0
100
AcDbBlockEnd
  0
BLOCK
  5
1789
330
1783
100
AcDbEntity
  8
0
100
AcDbBlockBegin
  2
A$C33A50D34
 70
     0
 10
0.0
 20
0.0
 30
0.0
  3
A$C33A50D34
  1

  0
LWPOLYLINE
  5
1784
330
1783
100
AcDbEntity
  8
Section point
 62
     5
100
AcDbPolyline
 90
        9
 70
     0
 43
0.0
 10
0.0868771235500034
 20
0.039999995374874
 10
0.1668771235080939
 20
0.039999995374874
 10
0.1268771235290487
 20
0.039999995374874
 10
0.1268771235290487
 20
-0.0000000046332751
 10
0.1268771235290487
 20
0.079999995383023
 10
0.1268771235290487
 20
0.039999995374874
 10
0.1668771235080939
 20
0.039999995374874
 10
0.1468771235476751
 20
0.039999995374874
 10
0.1468771235476751
 20
0.039999995374874
  0
CIRCLE
  5
1785
330
1783
100
AcDbEntity
  8
Section point
 62
     5
100
AcDbCircle
 10
0.1268771235290487
 20
0.039999995374874
 30
0.0
 40
0.0200000000000102
  0
TEXT
  5
1786
330
1783
100
AcDbEntity
  8
Annotatons
100
AcDbText
 10
0.0022503225396617
 20
0.0924122030812389
 30
0.0
 40
0.05
  1
SW
  7
Text
 72
     2
 11
0.1147673757456644
 21
0.0734831444182102
 31
0.0
100
AcDbText
 73
     1
  0
ENDBLK
  5
178A
330
1783
100
AcDbEntity
  8
0
100
AcDbBlockEnd
  0
BLOCK
  5
1865
330
185F
100
AcDbEntity
  8
0
100
AcDbBlockBegin
  2
A$C4ADB1A45
 70
     0
 10
0.0
 20
0.0
 30
0.0
  3
A$C4ADB1A45
  1

  0
LWPOLYLINE
  5
1860
330
185F
100
AcDbEntity
  8
Section point
 62
     5
100
AcDbPolyline
 90
        9
 70
     0
 43
0.0
 10
0.0476894332663278
 20
0.0399999953748811
 10
0.1276894332244183
 20
0.0399999953748811
 10
0.087689433245373
 20
0.0399999953748811
 10
0.087689433245373
 20
-0.000000004633268
 10
0.087689433245373
 20
0.0799999953830302
 10
0.087689433245373
 20
0.0399999953748811
 10
0.1276894332244183
 20
0.0399999953748811
 10
0.1076894332639995
 20
0.0399999953748811
 10
0.1076894332639995
 20
0.0399999953748811
  0
CIRCLE
  5
1861
330
185F
100
AcDbEntity
  8
Section point
 62
     5
100
AcDbCircle
 10
0.087689433245373
 20
0.0399999953748811
 30
0.0
 40
0.0200000000000102
  0
TEXT
  5
1862
330
185F
100
AcDbEntity
  8
Annotatons
100
AcDbText
 10
0.0019406313463522
 20
0.0980765122055503
 30
0.0
 40
0.05
  1
NE
  7
Text
 72
     2
 11
0.0989733735018774
 21
0.0791474535425216
 31
0.0
100
AcDbText
 73
     1
  0
ENDBLK
  5
1866
330
185F
100
AcDbEntity
  8
0
100
AcDbBlockEnd
  0
BLOCK
  5
19CB
330
19C6
100
AcDbEntity
  8
0
100
AcDbBlockBegin
  2
A$C3A5E4A09
 70
     0
 10
0.0
 20
0.0
 30
0.0
  3
A$C3A5E4A09
  1

  0
LWPOLYLINE
  5
19C7
330
19C6
100
AcDbEntity
  8
aOD
 62
     1
100
AcDbPolyline
 90
        6
 70
     0
 43
0.0
 10
0.0042971289285632
 20
0.039999999265536
 10
0.0842971289448613
 20
0.039999999265536
 10
0.0442971289076084
 20
0.039999999265536
 10
0.0042971289285632
 20
-0.0000000007426131
 10
0.0442971289076084
 20
0.039999999265536
 10
0.0842971289448613
 20
-0.0000000007426131
  0
TEXT
  5
19C8
330
19C6
100
AcDbEntity
  8
aOD
 62
     1
100
AcDbText
 10
0.0017479509467015
 20
0.0451900824290672
 30
0.0
 40
0.025
  1
66.01
  7
Text
 72
     1
 11
0.0454467913286933
 21
0.0357255530975529
 31
0.0
100
AcDbText
 73
     1
  0
ENDBLK
  5
19CC
330
19C6
100
AcDbEntity
  8
0
100
AcDbBlockEnd
  0
BLOCK
  5
1CF1
330
1CED
100
AcDbEntity
  8
0
100
AcDbBlockBegin
  2
A$C03BC79CE
 70
     0
 10
0.0
 20
0.0
 30
0.0
  3
A$C03BC79CE
  1

  0
TEXT
  5
1CEE
330
1CED
100
AcDbEntity
  8
Annotatons
100
AcDbText
 10
0.0040381997021606
 20
0.0209744399703031
 30
0.0
 40
0.05
  1
(7804)
  7
Text
 72
     1
 11
0.1049931792383134
 21
0.0020453813072745
 31
0.0
100
AcDbText
 73
     1
  0
ENDBLK
  5
1CF2
330
1CED
100
AcDbEntity
  8
0
100
AcDbBlockEnd
  0
BLOCK
  5
1D60
330
1D5A
100
AcDbEntity
  8
0
100
AcDbBlockBegin
  2
A$C3D817E1C
 70
     0
 10
0.0
 20
0.0
 30
0.0
  3
A$C3D817E1C
  1

  0
LWPOLYLINE
  5
1D5B
330
1D5A
100
AcDbEntity
  8
Section point
 62
     5
100
AcDbPolyline
 90
        9
 70
     0
 43
0.0
 10
0.0437583522809959
 20
0.0400000011114265
 10
0.1237583522390864
 20
0.0400000011114265
 10
0.0837583522600411
 20
0.0400000011114265
 10
0.0837583522600411
 20
0.0000000011032775
 10
0.0837583522600411
 20
0.0800000011195756
 10
0.0837583522600411
 20
0.0400000011114265
 10
0.1237583522390864
 20
0.0400000011114265
 10
0.1037583522786676
 20
0.0400000011114265
 10
0.1037583522786676
 20
0.0400000011114265
  0
CIRCLE
  5
1D5C
330
1D5A
100
AcDbEntity
  8
Section point
 62
     5
100
AcDbCircle
 10
0.0837583522600411
 20
0.0400000011114265
 30
0.0
 40
0.0200000000000102
  0
TEXT
  5
1D5D
330
1D5A
100
AcDbEntity
  8
Annotatons
100
AcDbText
 10
0.0018635749176369
 20
0.0980765179420957
 30
0.0
 40
0.05
  1
SE
  7
Text
 72
     2
 11
0.0950422925165455
 21
0.0791474592790671
 31
0.0
100
AcDbText
 73
     1
  0
ENDBLK
  5
1D61
330
1D5A
100
AcDbEntity
  8
0
100
AcDbBlockEnd
  0
BLOCK
  5
1DA0
330
1D9C
100
AcDbEntity
  8
0
100
AcDbBlockBegin
  2
A$C326633BF
 70
     0
 10
0.0
 20
0.0
 30
0.0
  3
A$C326633BF
  1

  0
TEXT
  5
1D9D
330
1D9C
100
AcDbEntity
  8
Annotatons
100
AcDbText
 10
0.0040381997021606
 20
0.0209744399703031
 30
0.0
 40
0.05
  1
(7904)
  7
Text
 72
     1
 11
0.1049931792383134
 21
0.0020453813072745
 31
0.0
100
AcDbText
 73
     1
  0
ENDBLK
  5
1DA1
330
1D9C
100
AcDbEntity
  8
0
100
AcDbBlockEnd
  0
BLOCK
  5
1DE3
330
1DDE
100
AcDbEntity
  8
0
100
AcDbBlockBegin
  2
A$C688D25D6
 70
     0
 10
0.0
 20
0.0
 30
0.0
  3
A$C688D25D6
  1

  0
TEXT
  5
1DDF
330
1DDE
100
AcDbEntity
  8
Annotatons
100
AcDbText
 10
0.0038840445552374
 20
0.0208963437716183
 30
0.0
 40
0.05
  1
[9111]
  7
Text
 72
     1
 11
0.1009849995347736
 21
0.0019672851085897
 31
0.0
100
AcDbText
 73
     1
  0
LWPOLYLINE
  5
1DE0
330
1DDE
100
AcDbEntity
  8
aOD
100
AcDbPolyline
 90
        2
 70
     0
 43
0.0
 10
0.0444842377198853
 20
0.1775092577338029
 10
0.0976507228956507
 20
0.0857485519311325
  0
ENDBLK
  5
1DE4
330
1DDE
100
AcDbEntity
  8
0
100
AcDbBlockEnd
  0
BLOCK
  5
1E35
330
1E31
100
AcDbEntity
  8
0
100
AcDbBlockBegin
  2
A$C7A1871A4
 70
     0
 10
0.0
 20
0.0
 30
0.0
  3
A$C7A1871A4
  1

  0
TEXT
  5
1E32
330
1E31
100
AcDbEntity
  8
Annotatons
100
AcDbText
 10
0.0040381997021606
 20
0.0209744399703049
 30
0.0
 40
0.05
  1
(9001)
  7
Text
 72
     1
 11
0.1049931792383134
 21
0.0020453813072763
 31
0.0
100
AcDbText
 73
     1
  0
ENDBLK
  5
1E36
330
1E31
100
AcDbEntity
  8
0
100
AcDbBlockEnd
  0
BLOCK
  5
1F27
330
1F1F
100
AcDbEntity
  8
0
100
AcDbBlockBegin
  2
A$C14D1743E
 70
     0
 10
0.0
 20
0.0
 30
0.0
  3
A$C14D1743E
  1

  0
LWPOLYLINE
  5
1F20
330
1F1F
100
AcDbEntity
  8
Section point
 62
     5
100
AcDbPolyline
 90
        9
 70
     0
 43
0.0
 10
-0.0000000032934864
 20
0.0406340979573816
 10
0.0799999966646041
 20
0.0406340979573816
 10
0.0399999966855589
 20
0.0406340979573816
 10
0.0399999966855589
 20
0.0006340979492325
 10
0.0399999966855589
 20
0.0806340979655307
 10
0.0399999966855589
 20
0.0406340979573816
 10
0.0799999966646041
 20
0.0406340979573816
 10
0.0599999967041853
 20
0.0406340979573816
 10
0.0599999967041853
 20
0.0406340979573816
  0
CIRCLE
  5
1F21
330
1F1F
100
AcDbEntity
  8
Section point
 62
     5
100
AcDbCircle
 10
0.0399999966855589
 20
0.0406340979573816
 30
0.0
 40
0.0200000000000102
  0
TEXT
  5
1F22
330
1F1F
100
AcDbEntity
  8
Annotatons
100
AcDbText
 10
0.0509432143012718
 20
0.1010333457827
 30
0.0
 40
0.05
  1
NE
  7
Text
 72
     2
 11
0.1479759564567971
 21
0.0821042871196713
 31
0.0
100
AcDbText
 73
     1
  0
LWPOLYLINE
  5
1F23
330
1F1F
100
AcDbEntity
  8
aOD
 62
     1
100
AcDbPolyline
 90
        6
 70
     0
 43
0.0
 10
0.1160444951503266
 20
0.04000000617037
 10
0.1960444951666247
 20
0.04000000617037
 10
0.1560444951293718
 20
0.04000000617037
 10
0.1160444951503266
 20
0.000000006162221
 10
0.1560444951293718
 20
0.04000000617037
 10
0.1960444951666247
 20
0.000000006162221
  0
TEXT
  5
1F24
330
1F1F
100
AcDbEntity
  8
aOD
 62
     1
100
AcDbText
 10
0.1232071179870188
 20
0.0451900893339012
 30
0.0
 40
0.025
  1
32.3
  7
Text
 72
     1
 11
0.1571941575504567
 21
0.0357255600023869
 31
0.0
100
AcDbText
 73
     1
  0
ENDBLK
  5
1F28
330
1F1F
100
AcDbEntity
  8
0
100
AcDbBlockEnd
  0
BLOCK
  5
215B
330
2156
100
AcDbEntity
  8
0
100
AcDbBlockBegin
  2
A$C73995ACF
 70
     0
 10
0.0
 20
0.0
 30
0.0
  3
A$C73995ACF
  1

  0
TEXT
  5
2157
330
2156
100
AcDbEntity
  8
Annotatons
100
AcDbText
 10
0.0038840152331353
 20
0.0208963403928526
 30
0.0
 40
0.05
  1
[3705]
  7
Text
 72
     1
 11
0.1009849702126715
 21
0.001967281729824
 31
0.0
100
AcDbText
 73
     1
  0
LWPOLYLINE
  5
2158
330
2156
100
AcDbEntity
  8
aOD
100
AcDbPolyline
 90
        2
 70
     0
 43
0.0
 10
0.0476004211293244
 20
0.2153746986397849
 10
0.0973617934164892
 20
0.0814400173176892
  0
ENDBLK
  5
215C
330
2156
100
AcDbEntity
  8
0
100
AcDbBlockEnd
  0
ENDSEC
  0
SECTION
  2
ENTITIES
  0
IMAGE
  5
2055
330
1F
100
AcDbEntity
  8
Scanned drawing
160
               140
310
8C0000000100000084000000060000000500000019927030093C41400A03FB1337DF26400000000000000000D18BCA6F196F45400A03FB1337DF26400000000000000000D18BCA6F196F4540DA25C062DE5F3140000000000000000019927030093C4140DA25C062DE5F3140000000000000000019927030093C41400A03FB
310
1337DF26400000000000000000
100
AcDbRasterImage
 90
        0
 10
34.46903043266884
 20
11.43596708716497
 30
0.0
 11
0.001693333333333333
 21
0.0
 31
0.0
 12
1.036833379569613E-19
 22
0.001693333333333333
 32
0.0
 13
4960.0
 23
3507.0
340
2053
 70
     7
280
     0
281
    50
282
    50
283
     0
360
2054
 71
     1
 91
        2
 14
-0.5
 24
-0.5
 14
4959.5
 24
3506.5
290
     0
  0
LWPOLYLINE
  5
205E
330
1F
100
AcDbEntity
  8
CONTEXT
100
AcDbPolyline
 90
       32
 70
     0
 43
0.0
 10
35.04189764710309
 20
20.2794675292043
 10
35.06891651600813
 20
20.24970648476369
 10
35.07861560779385
 20
20.24589984838065
 10
35.09281782311643
 20
20.24105502080057
 10
35.10563447669889
 20
20.23967078203938
 10
35.11498716208909
 20
20.24105502080057
 10
35.12364706660924
 20
20.24659195967715
 10
35.14027406285849
 20
20.2652791263646
 10
35.15071238052952
 20
20.28996897253196
 10
35.16263307625081
 20
20.32522926782075
 10
35.16497061715915
 20
20.36181540240327
 10
35.16185388530771
 20
20.39022803677037
 10
35.15795793059218
 20
20.39917995402905
 10
35.14588056673698
 20
20.41552695445993
 10
35.13971005119222
 20
20.41914781845069
 10
35.13469606440859
 20
20.41914781845069
 10
35.12948921110805
 20
20.41799187439612
 10
35.11425438424026
 20
20.41240478182408
 10
35.09970039979876
 20
20.40388287349015
 10
35.08952705812194
 20
20.39679927031251
 10
35.06455611114012
 20
20.38386396612312
 10
35.04575082771522
 20
20.37062069043431
 10
35.03866031781686
 20
20.36168917741924
 10
35.0155390954389
 20
20.33797446654551
 10
35.01245626366045
 20
20.33273875703714
 10
35.01153138539803
 20
20.32257530951983
 10
35.01399766358919
 20
20.31241186200251
 10
35.01709425330687
 20
20.30617857576618
 10
35.02381799122914
 20
20.29729453252862
 10
35.03032485806303
 20
20.29252749006424
 10
35.03683536388781
 20
20.2857961592002
 10
35.04189764710309
 20
20.2794675292043
  0
LWPOLYLINE
  5
205F
330
1F
100
AcDbEntity
  8
CONTEXT
100
AcDbPolyline
 90
       19
 70
     0
 43
0.0
 10
35.0095152567636
 20
20.29289491196283
 10
34.99547644490016
 20
20.29289491196283
 10
34.99040685178214
 20
20.29094696959353
 10
34.98923694813344
 20
20.28705110102309
 10
34.98611721571056
 20
20.26835090278227
 10
34.98884700153118
 20
20.25939040021982
 10
34.99625637002564
 20
20.25354658928008
 10
35.01263498918647
 20
20.25081946996305
 10
35.03291326589567
 20
20.25081946996305
 10
35.03876275221819
 20
20.25354658928008
 10
35.04656209923587
 20
20.26094873794709
 10
35.04695207775909
 20
20.26640296041297
 10
35.04383234533622
 20
20.26951966820386
 10
35.03915273074141
 20
20.27419471372202
 10
35.02900735183666
 20
20.27731371739452
 10
35.02393775871864
 20
20.28120958596496
 10
35.01769829387288
 20
20.28978050005355
 10
35.01384533670756
 20
20.29223731973138
 10
35.0095152567636
 20
20.29289491196283
  0
LWPOLYLINE
  5
2067
330
1F
100
AcDbEntity
  8
CONTEXT
  6
DASHDOT
 48
0.003
100
AcDbPolyline
 90
        2
 70
     0
 43
0.0
 10
34.51104559292773
 20
20.29690736576109
 10
34.50866545952693
 20
20.5541080499648
  0
LWPOLYLINE
  5
206F
330
1F
100
AcDbEntity
  8
CONTEXT
  6
DASHDOT
 48
0.003
100
AcDbPolyline
 90
        2
 70
     0
 43
0.0
 10
35.51409544454541
 20
20.30089500492323
 10
35.51325351897609
 20
20.52493986036148
  0
LWPOLYLINE
  5
2070
330
1F
100
AcDbEntity
  8
CONTEXT
100
AcDbPolyline
 90
       30
 70
     0
 43
0.0
 10
34.50953690208108
 20
20.55602601652773
 10
34.51232941261302
 20
20.56265173683767
 10
34.52140502396037
 20
20.56648766996353
 10
34.54234872526603
 20
20.56997488777547
 10
34.61041576248967
 20
20.56962617246154
 10
34.69872838934648
 20
20.56962617246154
 10
34.75592170683176
 20
20.56735140649452
 10
34.81842756795811
 20
20.56175642385045
 10
34.87534630123639
 20
20.56379474634795
 10
34.91905974308985
 20
20.56776482686622
 10
34.96189012315509
 20
20.56952930889303
 10
35.00030497083252
 20
20.56820594333088
 10
35.03938323208514
 20
20.56112971284349
 10
35.05660370305844
 20
20.55936524698486
 10
35.07117486098325
 20
20.56112971284349
 10
35.12990102357659
 20
20.5628941948703
 10
35.17714690410869
 20
20.5646586768971
 10
35.20893850108583
 20
20.5673054080214
 10
35.23410687928367
 20
20.56642315892391
 10
35.27232458303382
 20
20.56510241260698
 10
35.31073943071124
 20
20.56554352907163
 10
35.33060918281208
 20
20.56377904704483
 10
35.36328390541938
 20
20.5611323320887
 10
35.39595862802668
 20
20.55804448449975
 10
35.44055519551027
 20
20.55054543992787
 10
35.4930996702184
 20
20.54481087738279
 10
35.50647564308414
 20
20.54335994487763
 10
35.51016618634047
 20
20.54151648128978
 10
35.51185767868276
 20
20.53829039575879
 10
35.51278032247708
 20
20.5287657853837
  0
IMAGE
  5
208A
330
1F
100
AcDbEntity
  8
Scanned drawing
160
               140
310
8C000000010000008400000006000000050000008DB963B01636414058ABC4A69BA03140000000000000000069B610D09E4F434058ABC4A69BA03140000000000000000069B610D09E4F434083FD2513BD98344000000000000000008DB963B01636414083FD2513BD98344000000000000000008DB963B01636414058ABC4
310
A69BA031400000000000000000
100
AcDbRasterImage
 90
        0
 10
34.42256741399169
 20
17.62737505246636
 30
0.0
 11
0.0008466666666666666
 21
0.0
 31
0.0
 12
5.184166897848064E-20
 22
0.0008466666666666666
 32
0.0
 13
4960.0
 23
3507.0
340
2053
 70
     7
280
     0
281
    50
282
    50
283
     0
360
2089
 71
     1
 91
        2
 14
-0.5
 24
-0.5
 14
4959.5
 24
3506.5
290
     0
  0
LWPOLYLINE
  5
2094
330
1F
100
AcDbEntity
  8
Section point
 62
     5
100
AcDbPolyline
 90
        9
 70
     0
 43
0.0
 10
34.47305360194377
 20
20.2634679053406
 10
34.55305360190187
 20
20.2634679053406
 10
34.51305360192282
 20
20.2634679053406
 10
34.51305360192282
 20
20.22346790533245
 10
34.51305360192282
 20
20.30346790534875
 10
34.51305360192282
 20
20.2634679053406
 10
34.55305360190187
 20
20.2634679053406
 10
34.53305360194145
 20
20.2634679053406
 10
34.53305360194145
 20
20.2634679053406
  0
CIRCLE
  5
2095
330
1F
100
AcDbEntity
  8
Section point
 62
     5
100
AcDbCircle
 10
34.51305360192282
 20
20.2634679053406
 30
0.0
 40
0.0200000000000102
  0
TEXT
  5
2096
330
1F
100
AcDbEntity
  8
Annotatons
100
AcDbText
 10
34.36966181346023
 20
20.32273159115115
 30
0.0
 40
0.05
  1
SW
  7
Text
 72
     2
 11
34.48217886666623
 21
20.30380253248812
 31
0.0
100
AcDbText
 73
     1
  0
LWPOLYLINE
  5
20A0
330
1F
100
AcDbEntity
  8
Section point
 62
     5
100
AcDbPolyline
 90
        9
 70
     0
 43
0.0
 10
35.47803414238099
 20
20.2662113001807
 10
35.55803414233908
 20
20.2662113001807
 10
35.51803414236004
 20
20.2662113001807
 10
35.51803414236004
 20
20.22621130017255
 10
35.51803414236004
 20
20.30621130018885
 10
35.51803414236004
 20
20.2662113001807
 10
35.55803414233908
 20
20.2662113001807
 10
35.53803414237866
 20
20.2662113001807
 10
35.53803414237866
 20
20.2662113001807
  0
CIRCLE
  5
20A1
330
1F
100
AcDbEntity
  8
Section point
 62
     5
100
AcDbCircle
 10
35.51803414236004
 20
20.2662113001807
 30
0.0
 40
0.0200000000000102
  0
TEXT
  5
20A2
330
1F
100
AcDbEntity
  8
Annotatons
100
AcDbText
 10
35.52897735997575
 20
20.32661054800602
 30
0.0
 40
0.05
  1
NE
  7
Text
 72
     2
 11
35.62601010213127
 21
20.30768148934299
 31
0.0
100
AcDbText
 73
     1
  0
LWPOLYLINE
  5
20AC
330
1F
100
AcDbEntity
  8
Section point
 62
     5
100
AcDbPolyline
 90
        9
 70
     0
 43
0.0
 10
34.61449504883458
 20
15.10955053747645
 10
34.69449504879267
 20
15.10955053747645
 10
34.65449504881363
 20
15.10955053747645
 10
34.65449504881363
 20
15.0695505374683
 10
34.65449504881363
 20
15.1495505374846
 10
34.65449504881363
 20
15.10955053747645
 10
34.69449504879267
 20
15.10955053747645
 10
34.67449504883226
 20
15.10955053747645
 10
34.67449504883226
 20
15.10955053747645
  0
CIRCLE
  5
20AD
330
1F
100
AcDbEntity
  8
Section point
 62
     5
100
AcDbCircle
 10
34.65449504881363
 20
15.10955053747645
 30
0.0
 40
0.0200000000000102
  0
TEXT
  5
20AE
330
1F
100
AcDbEntity
  8
Annotatons
100
AcDbText
 10
34.49151819740632
 20
15.16939576039805
 30
0.0
 40
0.05
  1
NW
  7
Text
 72
     2
 11
34.60788927516894
 21
15.15046670173502
 31
0.0
100
AcDbText
 73
     1
  0
LWPOLYLINE
  5
20B8
330
1F
100
AcDbEntity
  8
Section point
 62
     5
100
AcDbPolyline
 90
        9
 70
     0
 43
0.0
 10
40.38245595395259
 20
15.11870063845538
 10
40.46245595391068
 20
15.11870063845538
 10
40.42245595393164
 20
15.11870063845538
 10
40.42245595393164
 20
15.07870063844723
 10
40.42245595393164
 20
15.15870063846353
 10
40.42245595393164
 20
15.11870063845538
 10
40.46245595391068
 20
15.11870063845538
 10
40.44245595395027
 20
15.11870063845538
 10
40.44245595395027
 20
15.11870063845538
  0
CIRCLE
  5
20B9
330
1F
100
AcDbEntity
  8
Section point
 62
     5
100
AcDbCircle
 10
40.42245595393164
 20
15.11870063845538
 30
0.0
 40
0.0200000000000102
  0
TEXT
  5
20BA
330
1F
100
AcDbEntity
  8
Annotatons
100
AcDbText
 10
40.45468768044768
 20
15.17927177000499
 30
0.0
 40
0.05
  1
SE
  7
Text
 72
     2
 11
40.54786639804659
 21
15.16034271134196
 31
0.0
100
AcDbText
 73
     1
  0
LWPOLYLINE
  5
20C2
330
1F
100
AcDbEntity
  8
CONTEXT
  6
DASHDOT
 48
0.003
100
AcDbPolyline
 90
        2
 70
     0
 43
0.0
 10
34.65124542367289
 20
15.17773880492861
 10
34.65018574715662
 20
15.3136310791849
  0
LWPOLYLINE
  5
20D4
330
1F
100
AcDbEntity
  8
CONTEXT
  6
DASHDOT
 48
0.003
100
AcDbPolyline
 90
        2
 70
     0
 43
0.0
 10
40.4218709912757
 20
15.17278538707335
 10
40.42059737232313
 20
15.37413464128646
  0
LWPOLYLINE
  5
20D7
330
1F
100
AcDbEntity
  8
CONTEXT
100
AcDbPolyline
 90
       59
 70
     0
 43
0.0
 10
34.65018574715662
 20
15.3136310791849
 10
34.79465218908702
 20
15.31513881008256
 10
34.88270893742683
 20
15.30726079953131
 10
34.99442270167103
 20
15.29938278898005
 10
35.06933662792955
 20
15.30463479601421
 10
35.10876503033149
 20
15.30463479601421
 10
35.19025039955164
 20
15.31119982097511
 10
35.2809357123077
 20
15.30726079953131
 10
35.39396372683907
 20
15.29675681779933
 10
35.46493483839416
 20
15.28887880724808
 10
35.52093967422463
 20
15.28757613695679
 10
35.664196147622
 20
15.30464514364965
 10
35.85082390196666
 20
15.32434015385959
 10
36.11737047187624
 20
15.34300369883553
 10
36.24973384950481
 20
15.34510265200937
 10
36.33587508411608
 20
15.34930055835704
 10
36.47454144932604
 20
15.35349849704107
 10
36.55437969635591
 20
15.3472016051832
 10
36.63631891796561
 20
15.33670680697767
 10
36.87583359521331
 20
15.3472016051832
 10
37.07963113002666
 20
15.35139954386723
 10
37.33051720689778
 20
15.34492845603421
 10
37.68768818434756
 20
15.34492845603421
 10
37.82943262511105
 20
15.35228882612319
 10
37.90535135974757
 20
15.35852266207766
 10
37.95943046713823
 20
15.35228882612319
 10
38.03118932445712
 20
15.34917192431412
 10
38.21214631800528
 20
15.34813295704444
 10
38.29014508706354
 20
15.34189912108997
 10
38.40713104683935
 20
15.33150734652966
 10
38.62032758437428
 20
15.32423454330551
 10
38.74408557850404
 20
15.31488383787834
 10
38.8116844308214
 20
15.30345513323907
 10
38.90320294480635
 20
15.29722132962095
 10
38.96144199335659
 20
15.30345513323907
 10
39.01552110074725
 20
15.31072793646324
 10
39.14621948044086
 20
15.3180048464052
 10
39.24709786203488
 20
15.32008278094457
 10
39.3354963563082
 20
15.32839455143842
 10
39.42597488500324
 20
15.340862191011
 10
39.5823817776734
 20
15.35117587326019
 10
39.64838560282791
 20
15.35059744043977
 10
39.72365308577983
 20
15.34886220665122
 10
39.80297344694895
 20
15.34944060713528
 10
39.86087151566905
 20
15.36158737300052
 10
39.91473113445156
 20
15.36621538528202
 10
39.96378568921665
 20
15.36529072704745
 10
39.99421639936556
 20
15.37163175803769
 10
40.03133378718745
 20
15.37943833756813
 10
40.07431186559329
 20
15.38008888047294
 10
40.10101037561651
 20
15.37813725175852
 10
40.12380175858378
 20
15.38138999861891
 10
40.16287270993365
 20
15.38919657814935
 10
40.21496735429479
 20
15.38984712105416
 10
40.26250368375729
 20
15.38464271314297
 10
40.31459832811842
 20
15.37748667651734
 10
40.37125122353623
 20
15.37098121513289
 10
40.40522752380453
 20
15.37183942214618
 10
40.42059737232313
 20
15.37413464128646
  0
LWPOLYLINE
  5
20D8
330
1F
100
AcDbEntity
  8
CONTEXT
100
AcDbPolyline
 90
       68
 70
     0
 43
0.0
 10
34.61270583691164
 20
15.0456956640748
 10
34.69523687335481
 20
15.05324397309222
 10
34.73940834924523
 20
15.0573084596156
 10
34.75975049982076
 20
15.05266334139928
 10
34.79694756239046
 20
15.04337313730299
 10
34.84111910212284
 20
15.03698609167147
 10
34.95677874548382
 20
15.0416312098878
 10
35.09426282170768
 20
15.05259815129608
 10
35.17072376598613
 20
15.05627059178218
 10
35.2670352140189
 20
15.05480161558773
 10
35.35231860441038
 20
15.05039468700443
 10
35.39422509576337
 20
15.05259815129608
 10
35.46970281024134
 20
15.0636342925163
 10
35.53219494534945
 20
15.06877567686047
 10
35.57704225207345
 20
15.06804118876325
 10
35.76451865739777
 20
15.05482043534967
 10
35.83530156289795
 20
15.04995985996193
 10
35.87529171057709
 20
15.04624347436163
 10
36.05292228340429
 20
15.04531438604565
 10
36.21195276081897
 20
15.0434561770773
 10
36.32355307792626
 20
15.0481016509936
 10
36.46212348869234
 20
15.05832175181487
 10
36.52350368863813
 20
15.05739263116253
 10
36.67281608128835
 20
15.05646719685531
 10
36.78534638401368
 20
15.06482908870825
 10
36.86160667305788
 20
15.07412006887719
 10
36.94344687581031
 20
15.08526922567809
 10
37.01691714415843
 20
15.0880565229624
 10
37.10097400309569
 20
15.09214930380141
 10
37.14076426164391
 20
15.10098692819315
 10
37.16313767139492
 20
15.11039813495121
 10
37.16931374118893
 20
15.11185747491015
 10
37.20317429601029
 20
15.11157453175393
 10
37.43632859176772
 20
15.10804530900943
 10
37.47636521638309
 20
15.09981049905407
 10
37.57410161663627
 20
15.08451730828244
 10
37.71380764792639
 20
15.07860741798959
 10
37.86453369277268
 20
15.06801981442882
 10
37.94107424795699
 20
15.06801981442882
 10
38.02585762823242
 20
15.0762545920478
 10
38.19542438878328
 20
15.07037260803425
 10
38.26607724824076
 20
15.06684338528974
 10
38.36970134422077
 20
15.05743217853168
 10
38.51163756618811
 20
15.05741824156021
 10
38.58817812137242
 20
15.05977103516564
 10
38.66354111187459
 20
15.0727114646682
 10
38.69960836353728
 20
15.07185600624555
 10
38.72700358071022
 20
15.06836212714332
 10
38.77596530928675
 20
15.06253902764261
 10
38.8540708859196
 20
15.06370365401003
 10
38.94372917330068
 20
15.06664044228991
 10
39.02704610409121
 20
15.06369401777454
 10
39.08381966078575
 20
15.06295742781387
 10
39.18040831054526
 20
15.07253322664795
 10
39.25119089683572
 20
15.06885024450827
 10
39.34740983788966
 20
15.06960846749425
 10
39.4705236029488
 20
15.06122251738893
 10
39.56379164160437
 20
15.05749542845324
 10
39.6253485560549
 20
15.06494960632463
 10
39.70835706640742
 20
15.07706264536564
 10
39.82587482958807
 20
15.08451682323704
 10
40.00028604463665
 20
15.08638036770489
 10
40.10101548297214
 20
15.08638036770489
 10
40.16828848600039
 20
15.0910854051976
 10
40.21537881563262
 20
15.09938737777415
 10
40.2772426183145
 20
15.10630567747583
 10
40.36034325259416
 20
15.10768935035071
 10
40.45837211279903
 20
15.11507523382828
  0
LWPOLYLINE
  5
20D9
330
1F
100
AcDbEntity
  8
CONTEXT
100
AcDbPolyline
 90
       49
 70
     0
 43
0.0
 10
35.0586646705594
 20
15.05088836216464
 10
35.10718366534496
 20
15.03451924772182
 10
35.21532643037551
 20
14.97904052972041
 10
35.25179939760095
 20
14.96072919238534
 10
35.25822949449554
 20
14.95488934264979
 10
35.28102713397346
 20
14.94437756785489
 10
35.32603793991952
 20
14.92919393267336
 10
35.35409660258862
 20
14.92685798631186
 10
35.37689424206653
 20
14.92218609358888
 10
35.44996371068168
 20
14.8970746782869
 10
35.47159227645619
 20
14.88656290349199
 10
35.48562160779073
 20
14.8789711020694
 10
35.50841924726864
 20
14.87137926831046
 10
35.56896547988222
 20
14.86063900479076
 10
35.67593910736741
 20
14.84311939091137
 10
35.70750511883063
 20
14.83727954117582
 10
35.74257847908796
 20
14.83027170209134
 10
35.78291279869455
 20
14.82443182001941
 10
35.82149344390407
 20
14.81859197028386
 10
35.86007415295553
 20
14.81041614185045
 10
35.98073223758644
 20
14.80310776862952
 10
36.03171571288861
 20
14.80362751095524
 10
36.06501101112577
 20
14.80986428951854
 10
36.14148619215803
 20
14.81662081040757
 10
36.21952205338653
 20
14.81298267880018
 10
36.28560778775695
 20
14.8067608719719
 10
36.30181278874738
 20
14.80722344361189
 10
36.32311071708687
 20
14.80768598291552
 10
36.34440870926831
 20
14.80491068242102
 10
36.4087656037584
 20
14.78872148343042
 10
36.43978659653409
 20
14.78872148343042
 10
36.52307077640666
 20
14.79454393620391
 10
36.59856604741961
 20
14.8048959693769
 10
36.66369925996527
 20
14.81524797021352
 10
36.68146283436774
 20
14.82116342236043
 10
36.70366738217326
 20
14.83669143978355
 10
36.78212325956029
 20
14.88845150863939
 10
36.79692629143065
 20
14.90619783274373
 10
36.81839065572169
 20
14.9283807055378
 10
36.85539810771367
 20
14.95204244945268
 10
36.87278258864461
 20
14.9649894109001
 10
36.92517333194832
 20
14.99207434663271
 10
37.00120059789194
 20
15.02960648144789
 10
37.09139483840431
 20
15.0734895098433
 10
37.10694111820253
 20
15.0805947783826
 10
37.12752446364762
 20
15.0884146481573
 10
37.14115005851971
 20
15.09623448559563
 10
37.15187659065307
 20
15.10289584057507
 10
37.16313767139492
 20
15.11039813495121
  0
LWPOLYLINE
  5
20DA
330
1F
100
AcDbEntity
  8
CONTEXT
100
AcDbPolyline
 90
       39
 70
     0
 43
0.0
 10
34.84111910212284
 20
15.03698609167147
 10
34.87997988578859
 20
15.00757254993125
 10
34.96864351566098
 20
14.95409189565827
 10
35.07152678970704
 20
14.8997756374881
 10
35.08658289104878
 20
14.88640545775168
 10
35.09996607805436
 20
14.87136403788456
 10
35.12004085856272
 20
14.85966516295156
 10
35.16269972724177
 20
14.83793865321621
 10
35.24830136973086
 20
14.81678191015664
 10
35.29932474624886
 20
14.80006918548609
 10
35.36456776694053
 20
14.76915070951833
 10
35.44235758131163
 20
14.7206838726465
 10
35.48111634554871
 20
14.69273801364629
 10
35.50871917672794
 20
14.67853219767635
 10
35.58232670525857
 20
14.63507917820567
 10
35.66178937012391
 20
14.57909164756846
 10
35.73372398431837
 20
14.50722702849426
 10
35.7782985582518
 20
14.46240168621132
 10
35.79419111676165
 20
14.452374051409
 10
35.83350422061026
 20
14.44151081270951
 10
35.87365378162698
 20
14.4381682677754
 10
35.93053229447968
 20
14.42897626920661
 10
36.01919592435207
 20
14.42897626920661
 10
36.07523804387863
 20
14.43399008660776
 10
36.12877079190091
 20
14.44401772141009
 10
36.17226611774804
 20
14.44736023400783
 10
36.19652318409685
 20
14.44736023400783
 10
36.21408859310095
 20
14.44652463011067
 10
36.24001850994399
 20
14.44568899387714
 10
36.2810045281288
 20
14.45153841517546
 10
36.31028027364422
 20
14.45989477751074
 10
36.34039241248578
 20
14.46490859491189
 10
36.39513330548203
 20
14.46826268392678
 10
36.4913249860253
 20
14.4690983201603
 10
36.61177366907545
 20
14.4690983201603
 10
36.65699215286976
 20
14.47195038717513
 10
36.69995190863727
 20
14.48429663604961
 10
36.73055339599001
 20
14.49781873200865
 10
36.75941289202169
 20
14.50607394620761
  0
LWPOLYLINE
  5
20DB
330
1F
100
AcDbEntity
  8
CONTEXT
100
AcDbPolyline
 90
       88
 70
     0
 43
0.0
 10
35.7782985582518
 20
14.46240168621132
 10
35.802206983737
 20
14.43399002193505
 10
35.83837114747275
 20
14.39645846917438
 10
35.88234324496782
 20
14.35418692331505
 10
35.90930720979984
 20
14.33263671141832
 10
35.92548565254101
 20
14.31564521498208
 10
35.94290850248111
 20
14.30528451566443
 10
35.96365004826679
 20
14.30528451566443
 10
36.00015512799074
 20
14.30984323112493
 10
36.02214120865926
 20
14.30818550759301
 10
36.0652835523905
 20
14.30735666199523
 10
36.1007833130009
 20
14.30888824138401
 10
36.1368735477639
 20
14.3113748105137
 10
36.18623843822539
 20
14.31593349363783
 10
36.25883381655431
 20
14.32505089222246
 10
36.33209679010585
 20
14.33309957408555
 10
36.41565338355927
 20
14.34634962424194
 10
36.48926282734827
 20
14.37152470983816
 10
36.54960923467287
 20
14.38808726444954
 10
36.61128202225424
 20
14.4086248308742
 10
36.65770233066993
 20
14.42783738258233
 10
36.68555452848774
 20
14.45102497844007
 10
36.71075415731782
 20
14.4702375301482
 10
36.74621152687651
 20
14.49036002704676
 10
36.75615880422481
 20
14.50029757274814
 10
36.75941289202169
 20
14.50607394620761
 10
36.82512610864093
 20
14.58112285606661
 10
36.85695725570322
 20
14.61093546083437
 10
36.8695570381973
 20
14.61623545502783
 10
36.93454552105283
 20
14.63478553171404
 10
37.06394759004591
 20
14.67402108133882
 10
37.10174700137009
 20
14.68660862413692
 10
37.13291495830399
 20
14.70052118165158
 10
37.19150820196708
 20
14.73992956912436
 10
37.23991795308405
 20
14.77967968725713
 10
37.26246501292643
 20
14.79822976394334
 10
37.2717490363044
 20
14.80419226549508
 10
37.28302256622558
 20
14.80750476995009
 10
37.32918993285377
 20
14.80419097204064
 10
37.34908435986648
 20
14.80021596022738
 10
37.39417835186735
 20
14.78564089535445
 10
37.45187225404618
 20
14.76907834074306
 10
37.46911404822923
 20
14.7637783465496
 10
37.49431367705932
 20
14.75715330530322
 10
37.5248185077068
 20
14.75847832001978
 10
37.56394417160384
 20
14.76510332892978
 10
37.59511212853775
 20
14.76841586572115
 10
37.68728968292463
 20
14.7763658893477
 10
37.81169848184538
 20
14.78100470197369
 10
37.95029634464797
 20
14.79425475213006
 10
37.96570006538219
 20
14.79522532799685
 10
37.97456285960469
 20
14.79391360352454
 10
37.9913038137264
 20
14.78079622945617
 10
38.03929201647817
 20
14.74915319265392
 10
38.10187129584169
 20
14.70203112801504
 10
38.11728261376742
 20
14.68616823524039
 10
38.1373640338381
 20
14.67263815220024
 10
38.17097732880508
 20
14.6496017288288
 10
38.1898813118775
 20
14.647241012815
 10
38.36001735105512
 20
14.62776524313068
 10
38.42204612132382
 20
14.62363401435881
 10
38.47107839524998
 20
14.62953575588877
 10
38.51124940716034
 20
14.63661787159381
 10
38.53960538176896
 20
14.63661787159381
 10
38.56382612205087
 20
14.6419294422044
 10
38.60399713396122
 20
14.65019189974817
 10
38.62161731935441
 20
14.65080654929258
 10
38.81302032352804
 20
14.64608514960135
 10
38.95048556637801
 20
14.64290347806178
 10
38.9948940235696
 20
14.64337047978319
 10
39.02527876751785
 20
14.64663949183304
 10
39.06454520290441
 20
14.65597955859754
 10
39.10931813376206
 20
14.66822262214497
 10
39.12764894384905
 20
14.67885598165616
 10
39.17377168495743
 20
14.72552449649969
 10
39.22048566632178
 20
14.7597874575832
 10
39.25419070216424
 20
14.77750969109881
 10
39.29676549100124
 20
14.79109671847019
 10
39.4073416556211
 20
14.81000042559714
 10
39.65413450616553
 20
14.87128937322768
 10
39.75750138294768
 20
14.90451766777748
 10
39.84510051222315
 20
14.94341271552395
 10
39.94991998478805
 20
14.98529968504532
 10
40.03527296289998
 20
15.01970686629762
 10
40.06597008548687
 20
15.03915437400268
 10
40.11837985369029
 20
15.061593835819
 10
40.14698806782503
 20
15.07714245150389
 10
40.16828848600039
 20
15.0910854051976
  0
LWPOLYLINE
  5
20DC
330
1F
100
AcDbEntity
  8
CONTEXT
100
AcDbPolyline
 90
       19
 70
     0
 43
0.0
 10
38.17097732880508
 20
14.6496017288288
 10
38.20963739339463
 20
14.62855887443165
 10
38.27869337427285
 20
14.59717064815182
 10
38.33485641044392
 20
14.57548171326764
 10
38.3608140985332
 20
14.56369423670627
 10
38.44718241894411
 20
14.53351830058953
 10
38.46908901639065
 20
14.52340998656723
 10
38.48891123816317
 20
14.51303703176887
 10
38.54129859784376
 20
14.50313554110969
 10
38.61633995262522
 20
14.49229105749941
 10
38.6767506487888
 20
14.49653455811568
 10
38.7786936586636
 20
14.50266404463414
 10
38.81862149660408
 20
14.5089015992701
 10
38.85401840784051
 20
14.51738860050264
 10
38.88799936857082
 20
14.53153355944174
 10
38.9658724966806
 20
14.57066796093019
 10
39.04704931777883
 20
14.61498885598603
 10
39.10621841578906
 20
14.65764177688358
 10
39.12764894384905
 20
14.67885598165616
  0
TEXT
  5
20E5
330
1F
100
AcDbEntity
  8
Annotatons
100
AcDbText
 10
36.07308972633999
 20
15.20139815929347
 30
0.0
 40
0.05
  1
(3401)
  7
Text
 72
     1
 11
36.17404470587614
 21
15.18246910063044
 31
0.0
100
AcDbText
 73
     1
  0
TEXT
  5
20ED
330
1F
100
AcDbEntity
  8
Annotatons
100
AcDbText
 10
36.08718104820348
 20
14.91583006664384
 30
0.0
 40
0.05
  1
(3408)
  7
Text
 72
     1
 11
36.18813602773963
 21
14.89690100798081
 31
0.0
100
AcDbText
 73
     1
  0
TEXT
  5
20F5
330
1F
100
AcDbEntity
  8
Annotatons
100
AcDbText
 10
36.16132350839428
 20
14.58870266881595
 30
0.0
 40
0.05
  1
(3424)
  7
Text
 72
     1
 11
36.26227848793043
 21
14.56977361015292
 31
0.0
100
AcDbText
 73
     1
  0
TEXT
  5
20FD
330
1F
100
AcDbEntity
  8
Annotatons
100
AcDbText
 10
36.12952606987913
 20
14.36389398355384
 30
0.0
 40
0.05
  1
(3425)
  7
Text
 72
     1
 11
36.23048104941529
 21
14.34496492489082
 31
0.0
100
AcDbText
 73
     1
  0
TEXT
  5
2106
330
1F
100
AcDbEntity
  8
Annotatons
100
AcDbText
 10
36.8142279044779
 20
14.40987346915283
 30
0.0
 40
0.05
  1
[3407]
  7
Text
 72
     1
 11
36.91132885945743
 21
14.3909444104898
 31
0.0
100
AcDbText
 73
     1
  0
LWPOLYLINE
  5
2107
330
1F
100
AcDbEntity
  8
aOD
100
AcDbPolyline
 90
        2
 70
     0
 43
0.0
 10
36.8695570381973
 20
14.61623545502783
 10
36.90770568266125
 20
14.47041714607766
  0
TEXT
  5
210F
330
1F
100
AcDbEntity
  8
Annotatons
100
AcDbText
 10
37.90651726911833
 20
14.98024212466471
 30
0.0
 40
0.05
  1
(3421)
  7
Text
 72
     1
 11
38.00747224865449
 21
14.96131306600168
 31
0.0
100
AcDbText
 73
     1
  0
TEXT
  5
2117
330
1F
100
AcDbEntity
  8
Annotatons
100
AcDbText
 10
38.64845222353755
 20
14.78878603492299
 30
0.0
 40
0.05
  1
(3428)
  7
Text
 72
     1
 11
38.74940720307371
 21
14.76985697625996
 31
0.0
100
AcDbText
 73
     1
  0
TEXT
  5
211F
330
1F
100
AcDbEntity
  8
Annotatons
100
AcDbText
 10
38.5457016768959
 20
14.55600773019973
 30
0.0
 40
0.05
  1
(3429)
  7
Text
 72
     1
 11
38.64665665643205
 21
14.5370786715367
 31
0.0
100
AcDbText
 73
     1
  0
TEXT
  5
2128
330
1F
100
AcDbEntity
  8
Annotatons
100
AcDbText
 10
39.36766369401614
 20
14.61196340345114
 30
0.0
 40
0.05
  1
[3420]
  7
Text
 72
     1
 11
39.46476464899568
 21
14.59303434478811
 31
0.0
100
AcDbText
 73
     1
  0
LWPOLYLINE
  5
2129
330
1F
100
AcDbEntity
  8
aOD
100
AcDbPolyline
 90
        2
 70
     0
 43
0.0
 10
39.4073416556211
 20
14.81000042559714
 10
39.46114147219949
 20
14.67250708037598
  0
LWPOLYLINE
  5
2132
330
1F
100
AcDbEntity
  8
CONTEXT
100
AcDbPolyline
 90
        9
 70
     0
 43
0.0
 10
34.51269155604806
 20
20.28469504144523
 10
34.59010451141571
 20
20.28544589174098
 10
34.67583390163747
 20
20.28780550831851
 10
34.81400178893805
 20
20.28703865152421
 10
34.92837405947089
 20
20.2885723651128
 10
34.94694280848822
 20
20.28757058465793
 10
34.95683371339877
 20
20.2846329232963
 10
34.97394226944187
 20
20.27742227055744
 10
34.98710757847416
 20
20.27428730292796
  0
LWPOLYLINE
  5
2134
330
1F
100
AcDbEntity
  8
CONTEXT
100
AcDbPolyline
 90
        9
 70
     0
 43
0.0
 10
35.13710914140982
 20
20.25779310934901
 10
35.19373176467399
 20
20.28050615694221
 10
35.2153734180473
 20
20.2828709150011
 10
35.29281005877667
 20
20.28760043111888
 10
35.36314549608183
 20
20.28523567305999
 10
35.43372027684014
 20
20.28160352367934
 10
35.48034487948099
 20
20.28288553103613
 10
35.49177957839323
 20
20.28324388258555
 10
35.505467483004
 20
20.28324388258555
  0
LWPOLYLINE
  5
2135
330
1F
100
AcDbEntity
  8
CONTEXT
100
AcDbPolyline
 90
       77
 70
     0
 43
0.0
 10
34.51231278178624
 20
20.2039216579857
 10
34.55836133855411
 20
20.2048750955813
 10
34.61753260719049
 20
20.20463674426649
 10
34.65379885419686
 20
20.20702035442368
 10
34.68004415024999
 20
20.20702035442368
 10
34.70414212247096
 20
20.20439836061533
 10
34.71595798971797
 20
20.2027227874123
 10
34.72526314477987
 20
20.2029611387271
 10
34.73218239865979
 20
20.2036762250079
 10
34.74005596193896
 20
20.2027227874123
 10
34.75198565937455
 20
20.20105426353589
 10
34.75938206795409
 20
20.20010079360394
 10
34.76868722301598
 20
20.20010079360394
 10
34.77656078629513
 20
20.20129261485071
 10
34.78801332903111
 20
20.20486804625467
 10
34.79664488772752
 20
20.20650630329743
 10
34.8113711177376
 20
20.20952412649727
 10
34.82024463740691
 20
20.21008998047337
 10
34.83270530830205
 20
20.20858106887346
 10
34.85271784291368
 20
20.20084786054548
 10
34.86102495684377
 20
20.19877312730581
 10
34.87084244351716
 20
20.19877312730581
 10
34.88967077388433
 20
20.1974524456616
 10
34.90798415512024
 20
20.19669800602982
 10
34.92969597079148
 20
20.19273709286982
 10
34.95442846810739
 20
20.18990788766202
 10
34.99143285568599
 20
20.1883989760621
 10
35.00796670653697
 20
20.1898837000642
 10
35.01872822405638
 20
20.18912922809606
 10
35.03100005047714
 20
20.18611140489624
 10
35.04553749985481
 20
20.18611140489624
 10
35.05271180230644
 20
20.18837475612793
 10
35.05969732412566
 20
20.1898837000642
 10
35.06989243590585
 20
20.19026090371192
 10
35.07498995987498
 20
20.19101537568005
 10
35.07933236131439
 20
20.19327872691174
 10
35.0859402580268
 20
20.19667378609566
 10
35.09963633440659
 20
20.20232437111196
 10
35.10869863470833
 20
20.20307884308009
 10
35.11568415652754
 20
20.20213575311992
 10
35.12078168049666
 20
20.19892931192805
 10
35.12720079657665
 20
20.19364813749652
 10
35.13192075928092
 20
20.19213922589661
 10
35.13588553561355
 20
20.19081889995236
 10
35.14041665384344
 20
20.18836693072863
 10
35.14381502443684
 20
20.1876124587605
 10
35.14947895414519
 20
20.18704663712076
 10
35.19063689868884
 20
20.18591496150491
 10
35.23264866540972
 20
20.18497151584477
 10
35.2473748954198
 20
20.18685766342875
 10
35.25454919787145
 20
20.18817795703663
 10
35.26757627450581
 20
20.18817795703663
 10
35.27406536135792
 20
20.19016447668427
 10
35.27916780115682
 20
20.19752749835482
 10
35.28634899853858
 20
20.20413530432093
 10
35.30467993630945
 20
20.21055433061321
 10
35.31488481590728
 20
20.21149832599147
 10
35.32584558413816
 20
20.20942155556109
 10
35.34001900674338
 20
20.20432411633112
 10
35.3483340370747
 20
20.20168097454287
 10
35.35230264392404
 20
20.19771627802865
 10
35.35967281346404
 20
20.19016447668427
 10
35.36269643183818
 20
20.18544462913835
 10
35.36685401084578
 20
20.18412304207604
 10
35.3776258069184
 20
20.18544462913835
 10
35.39066533273211
 20
20.18771014690621
 10
35.40225085824026
 20
20.1902734178835
 10
35.41239789703558
 20
20.19073088037851
 10
35.43177054382888
 20
20.19260564556352
 10
35.44547798407493
 20
20.1938499810601
 10
35.45563651442043
 20
20.19652914555418
 10
35.46832478185078
 20
20.19924539985402
 10
35.47587728398673
 20
20.20075444079937
 10
35.48010668518285
 20
20.20256527699927
 10
35.49611805355301
 20
20.20497973604456
 10
35.5091084210688
 20
20.20829961318982
 10
35.51847358755931
 20
20.20860144078071
  0
LWPOLYLINE
  5
213D
330
1F
100
AcDbEntity
  8
CONTEXT
  6
DASHDOT
 48
0.003
100
AcDbPolyline
 90
        2
 70
     0
 43
0.0
 10
34.7745950487854
 20
20.19471985445816
 10
34.85668044862016
 20
20.19280681006352
  0
LWPOLYLINE
  5
2145
330
1F
100
AcDbEntity
  8
CONTEXT
  6
DASHDOT
 48
0.003
100
AcDbPolyline
 90
        2
 70
     0
 43
0.0
 10
35.27666208847324
 20
20.18717940317638
 10
35.36268417418467
 20
20.18389681689649
  0
LWPOLYLINE
  5
214D
330
1F
100
AcDbEntity
  8
CONTEXT
  6
DASHDOT
 48
0.003
100
AcDbPolyline
 90
        2
 70
     0
 43
0.0
 10
35.07601387682445
 20
20.18717468206771
 10
35.13427582480326
 20
20.18560401506029
  0
TEXT
  5
2155
330
1F
100
AcDbEntity
  8
Annotatons
100
AcDbText
 10
34.91810868547348
 20
20.47678166600106
 30
0.0
 40
0.05
  1
(8901)
  7
Text
 72
     1
 11
35.01906366500964
 21
20.45785260733803
 31
0.0
100
AcDbText
 73
     1
  0
TEXT
  5
2164
330
1F
100
AcDbEntity
  8
Annotatons
100
AcDbText
 10
34.52467826434086
 20
20.01782768058638
 30
0.0
 40
0.05
  1
(8904)
  7
Text
 72
     1
 11
34.62563324387701
 21
19.99889862192335
 31
0.0
100
AcDbText
 73
     1
  0
LWPOLYLINE
  5
2165
330
1F
100
AcDbEntity
  8
CONTEXT
100
AcDbPolyline
 90
        2
 70
     0
 43
0.0
 10
34.63687805731507
 20
20.08508204004112
 10
34.71702076658237
 20
20.25161659359097
  0
TEXT
  5
216D
330
1F
100
AcDbEntity
  8
Annotatons
100
AcDbText
 10
35.10951344945693
 20
20.07888755743764
 30
0.0
 40
0.05
  1
(8903)
  7
Text
 72
     1
 11
35.21046842899309
 21
20.05995849877461
 31
0.0
100
AcDbText
 73
     1
  0
LWPOLYLINE
  5
216E
330
1F
100
AcDbEntity
  8
CONTEXT
100
AcDbPolyline
 90
       36
 70
     0
 43
0.0
 10
37.33445465887779
 20
15.10802383766591
 10
37.35496024483342
 20
15.08089427775552
 10
37.40262183219272
 20
15.03549373628825
 10
37.4430787283344
 20
14.99452253250224
 10
37.47245157744871
 20
14.97569792011359
 10
37.50071597078673
 20
14.96130262923803
 10
37.51845056094601
 20
14.95133665987559
 10
37.53673933111197
 20
14.93361935765499
 10
37.54992671487113
 20
14.9186661513799
 10
37.56694132749162
 20
14.91474177830749
 10
37.63725164299129
 20
14.91297074816764
 10
37.68158795878463
 20
14.91352441133576
 10
37.70874402403025
 20
14.91297074816764
 10
37.74255050472389
 20
14.91297074816764
 10
37.80406719874885
 20
14.91407807450388
 10
37.86059604926683
 20
14.92182939119385
 10
37.88830626259816
 20
14.92293671753008
 10
37.9193416836535
 20
14.92791968604313
 10
37.9594823706398
 20
14.933470545723
 10
37.98719258397114
 20
14.93402420889112
 10
38.08085312290676
 20
14.93568519839546
 10
38.14680344851106
 20
14.93734622023617
 10
38.20042972498331
 20
14.94233465359417
 10
38.37112470039254
 20
14.95506893879718
 10
38.45924324773547
 20
14.96891058267281
 10
38.49748336000845
 20
14.97223256168149
 10
38.54237388772944
 20
14.98330585738017
 10
38.57667673954825
 20
14.9929465552902
 10
38.61614529853382
 20
14.99426089900771
 10
38.68192618761515
 20
15.00170880362514
 10
38.77445793711489
 20
15.01660464519632
 10
38.89532082670651
 20
15.03298534011506
 10
38.93522791601475
 20
15.03386155848129
 10
38.97908184206896
 20
15.04393815053372
 10
39.03916170927168
 20
15.05664339768482
 10
39.08381966078575
 20
15.06295742781387
  0
LWPOLYLINE
  5
2187
330
1F
100
AcDbEntity
  8
aOD
 62
     1
100
AcDbPolyline
 90
        6
 70
     0
 43
0.0
 10
35.60454996251183
 20
20.26785753017999
 10
35.68454996252813
 20
20.26785753017999
 10
35.64454996249088
 20
20.26785753017999
 10
35.60454996251183
 20
20.22785753017184
 10
35.64454996249088
 20
20.26785753017999
 10
35.68454996252813
 20
20.22785753017184
  0
TEXT
  5
2188
330
1F
100
AcDbEntity
  8
aOD
 62
     1
100
AcDbText
 10
35.59228898371142
 20
20.27304761334352
 30
0.0
 40
0.025
  1
105.77
  7
Text
 72
     1
 11
35.64569962491196
 21
20.26358308401201
 31
0.0
100
AcDbText
 73
     1
  0
LWPOLYLINE
  5
218B
330
1F
100
AcDbEntity
  8
aOD
 62
     1
100
AcDbPolyline
 90
        6
 70
     0
 43
0.0
 10
40.50897177408343
 20
15.12034686845467
 10
40.58897177409973
 20
15.12034686845467
 10
40.54897177406248
 20
15.12034686845467
 10
40.50897177408343
 20
15.08034686844652
 10
40.54897177406248
 20
15.12034686845467
 10
40.58897177409973
 20
15.08034686844652
  0
TEXT
  5
218C
330
1F
100
AcDbEntity
  8
aOD
 62
     1
100
AcDbText
 10
40.49671079528302
 20
15.1255369516182
 30
0.0
 40
0.025
  1
103.67
  7
Text
 72
     1
 11
40.55012143648356
 21
15.11607242228669
 31
0.0
100
AcDbText
 73
     1
  0
ENDSEC
  0
SECTION
  2
OBJECTS
  0
DICTIONARY
  5
C
330
0
100
AcDbDictionary
281
     1
  3
ACAD_CIP_PREVIOUS_PRODUCT_INFO
350
22A
  3
ACAD_COLOR
350
73
  3
ACAD_DETAILVIEWSTYLE
350
122
  3
ACAD_GROUP
350
D
  3
ACAD_IMAGE_DICT
350
23F
  3
ACAD_IMAGE_VARS
350
DC
  3
ACAD_LAYOUT
350
1A
  3
ACAD_MATERIAL
350
72
  3
ACAD_MLEADERSTYLE
350
B5
  3
ACAD_MLINESTYLE
350
17
  3
ACAD_PLOTSETTINGS
350
19
  3
ACAD_PLOTSTYLENAME
350
E
  3
ACAD_SCALELIST
350
B6
  3
ACAD_SECTIONVIEWSTYLE
350
123
  3
ACAD_TABLESTYLE
350
86
  3
ACAD_VISUALSTYLE
350
99
  3
ACDB_RECOMPOSE_DATA
350
219C
  3
AcDbVariableDictionary
350
66
  3
ADE_QUERY_LIBRARY
350
27C
  3
APPDATA
350
E1
  3
ASE_INDEX_DICTIONARY
350
280
  3
Autodesk_MAP
350
22B
  3
DimOffsetDictionary
350
129
1001
ADE
1000
ADE02C004
1000
[Query]
1000
CaseSensitiveMatch=0
1000
SaveCurrQueryInSession=1
1000
MkSelSetWithQryObj=0
1000
ShowBlockAsInsPt=0
1000
CreateAssociativeHatchObjects=0
1000
ReferenceBoundaryForAreaLocation=1
1000
ShowImageAsBoundary=1
1000
DefaultJoinOperator=2
1000
ColorForAdd=red
1000
ColorForRemove=red
1000
BlockLocnForQuery=1
1000
TextLocnForQuery=1
1000
IncludeAllObjectsInGroups=0
1000
AlwaysUseLibraryDefinitions=0
1000
PreviewDefinitionsFrom=2
1000
[Save Back]
1000
RedefineBlockDefinitions=1
1000
RedefineLayerDefinitions=1
1000
RedefineTextStyleDefinitions=1
1000
RemoveUnusedGroups=1
1000
EraseSavedBackObjects=1
1000
RemoveLockAfterSave=1
1000
CreateHistoryFileOfChanges=0
1000
CreateBackupFileOfSourceDwg=1
1000
DontAddObjectsToSaveSet=0
1000
MarkObjectsForEditingWithoutPrompting=0
1000
FdoDontAddObjsToSvSet=0
1000
FdoEditWithoutPrompt=1
1000
FdoRemUnusedGrps=1
1000
FdoEraseSvdBkObjs=1
1000
FdoRemoveLockOnSave=1
1000
FdoTesselationMaxPointsDistance=0
1000
FdoTesselationMaxCurvesDistance=0
1000
[Coordinate Transformation]
1000
RestoreLastActiveDwgsOnStartup=1
1000
ActivateDwgsOnAttach=1
1000
AdjustSizesAndScalesForChangesInUnits=1
1000
AdjustRotationsForMapDistortions=1
1000
AdjustSizesAndScalesForMapDistortions=1
1000
AdjustElevations=1
1000
AdjustZeroRotationObjects=1
1000
ReconnectDbOnWSOpen=1
1000
NoOfSQLConditionsInHistory=10
  0
SUN
  5
ED
330
94
100
AcDbSun
 90
        1
290
     0
 63
     7
421
 16777215
 40
1.0
291
     1
 91
  2455826
 92
 54000000
292
     0
 70
     2
 71
   256
280
     1
1001
ACAD
1000
AcDbSavedByObjectVersion
1070
     0
  0
DICTIONARY
  5
191
330
2
100
AcDbDictionary
280
     1
281
     1
  3
ACAD_LAYERSTATES
360
192
  0
DICTIONARY
  5
23B
330
1F
100
AcDbDictionary
280
     1
281
     1
  3
ACAD_SORTENTS
360
23C
  0
DICTIONARY
  5
2A3
330
29E
100
AcDbDictionary
280
     1
281
     1
  3
ACAD_SORTENTS
360
2A4
  0
DICTIONARY
  5
2C5
330
2C3
100
AcDbDictionary
280
     1
281
     1
  3
ACAD_SORTENTS
360
2C6
  0
DICTIONARY
  5
324
330
320
100
AcDbDictionary
280
     1
281
     1
  3
ACAD_SORTENTS
360
325
  0
DICTIONARY
  5
432
330
430
100
AcDbDictionary
280
     1
281
     1
  3
ACAD_SORTENTS
360
433
  0
DICTIONARY
  5
488
330
485
100
AcDbDictionary
280
     1
281
     1
  3
ACAD_SORTENTS
360
489
  0
DICTIONARY
  5
48F
330
48C
100
AcDbDictionary
280
     1
281
     1
  3
ACAD_SORTENTS
360
490
  0
DICTIONARY
  5
4B2
330
4AF
100
AcDbDictionary
280
     1
281
     1
  3
ACAD_SORTENTS
360
4B3
  0
DICTIONARY
  5
723
330
71F
100
AcDbDictionary
280
     1
281
     1
  3
ACAD_SORTENTS
360
724
  0
DICTIONARY
  5
80B
330
808
100
AcDbDictionary
280
     1
281
     1
  3
ACAD_SORTENTS
360
80C
  0
DICTIONARY
  5
884
330
87C
100
AcDbDictionary
280
     1
281
     1
  3
ACAD_SORTENTS
360
885
  0
DICTIONARY
  5
957
330
954
100
AcDbDictionary
280
     1
281
     1
  3
ACAD_SORTENTS
360
958
  0
DICTIONARY
  5
A52
330
A4F
100
AcDbDictionary
280
     1
281
     1
  3
ACAD_SORTENTS
360
A53
  0
DICTIONARY
  5
A87
330
A84
100
AcDbDictionary
280
     1
281
     1
  3
ACAD_SORTENTS
360
A88
  0
DICTIONARY
  5
BE0
330
BDD
100
AcDbDictionary
280
     1
281
     1
  3
ACAD_SORTENTS
360
BE1
  0
DICTIONARY
  5
D15
330
D12
100
AcDbDictionary
280
     1
281
     1
  3
ACAD_SORTENTS
360
D16
  0
DICTIONARY
  5
D6F
330
D6D
100
AcDbDictionary
280
     1
281
     1
  3
ACAD_SORTENTS
360
D70
  0
DICTIONARY
  5
ED2
330
ECF
100
AcDbDictionary
280
     1
281
     1
  3
ACAD_SORTENTS
360
ED3
  0
DICTIONARY
  5
EF8
330
EF6
100
AcDbDictionary
280
     1
281
     1
  3
ACAD_SORTENTS
360
EF9
  0
DICTIONARY
  5
F60
330
F5B
100
AcDbDictionary
280
     1
281
     1
  3
ACAD_SORTENTS
360
F61
  0
DICTIONARY
  5
106F
330
106C
100
AcDbDictionary
280
     1
281
     1
  3
ACAD_SORTENTS
360
1070
  0
DICTIONARY
  5
1098
330
1094
100
AcDbDictionary
280
     1
281
     1
  3
ACAD_SORTENTS
360
1099
  0
DICTIONARY
  5
120D
330
120B
100
AcDbDictionary
280
     1
281
     1
  3
ACAD_SORTENTS
360
120E
  0
DICTIONARY
  5
139B
330
1397
100
AcDbDictionary
280
     1
281
     1
  3
ACAD_SORTENTS
360
139C
  0
DICTIONARY
  5
13A5
330
139F
100
AcDbDictionary
280
     1
281
     1
  3
ACAD_SORTENTS
360
13A6
  0
DICTIONARY
  5
14A0
330
149E
100
AcDbDictionary
280
     1
281
     1
  3
ACAD_SORTENTS
360
14A1
  0
DICTIONARY
  5
15DF
330
15DD
100
AcDbDictionary
280
     1
281
     1
  3
ACAD_SORTENTS
360
15E0
  0
DICTIONARY
  5
162B
330
1629
100
AcDbDictionary
280
     1
281
     1
  3
ACAD_SORTENTS
360
162C
  0
DICTIONARY
  5
1639
330
1637
100
AcDbDictionary
280
     1
281
     1
  3
ACAD_SORTENTS
360
163A
  0
DICTIONARY
  5
165C
330
1654
100
AcDbDictionary
280
     1
281
     1
  3
ACAD_SORTENTS
360
165D
  0
DICTIONARY
  5
1666
330
1660
100
AcDbDictionary
280
     1
281
     1
  3
ACAD_SORTENTS
360
1667
  0
DICTIONARY
  5
16B7
330
16B1
100
AcDbDictionary
280
     1
281
     1
  3
ACAD_SORTENTS
360
16B8
  0
DICTIONARY
  5
1776
330
1774
100
AcDbDictionary
280
     1
281
     1
  3
ACAD_SORTENTS
360
1777
  0
DICTIONARY
  5
1787
330
1783
100
AcDbDictionary
280
     1
281
     1
  3
ACAD_SORTENTS
360
1788
  0
DICTIONARY
  5
1863
330
185F
100
AcDbDictionary
280
     1
281
     1
  3
ACAD_SORTENTS
360
1864
  0
DICTIONARY
  5
19C9
330
19C6
100
AcDbDictionary
280
     1
281
     1
  3
ACAD_SORTENTS
360
19CA
  0
DICTIONARY
  5
1CEF
330
1CED
100
AcDbDictionary
280
     1
281
     1
  3
ACAD_SORTENTS
360
1CF0
  0
DICTIONARY
  5
1D5E
330
1D5A
100
AcDbDictionary
280
     1
281
     1
  3
ACAD_SORTENTS
360
1D5F
  0
DICTIONARY
  5
1D9E
330
1D9C
100
AcDbDictionary
280
     1
281
     1
  3
ACAD_SORTENTS
360
1D9F
  0
DICTIONARY
  5
1DE1
330
1DDE
100
AcDbDictionary
280
     1
281
     1
  3
ACAD_SORTENTS
360
1DE2
  0
DICTIONARY
  5
1E33
330
1E31
100
AcDbDictionary
280
     1
281
     1
  3
ACAD_SORTENTS
360
1E34
  0
DICTIONARY
  5
1F25
330
1F1F
100
AcDbDictionary
280
     1
281
     1
  3
ACAD_SORTENTS
360
1F26
  0
DICTIONARY
  5
2159
330
2156
100
AcDbDictionary
280
     1
281
     1
  3
ACAD_SORTENTS
360
215A
  0
IMAGEDEF_REACTOR
  5
1656
330
1655
100
AcDbRasterImageDefReactor
 90
        2
330
1655
  0
IMAGEDEF_REACTOR
  5
2054
330
2055
100
AcDbRasterImageDefReactor
 90
        2
330
2055
  0
IMAGEDEF_REACTOR
  5
2089
330
208A
100
AcDbRasterImageDefReactor
 90
        2
330
208A
  0
XRECORD
  5
22A
102
{ACAD_REACTORS
330
C
102
}
330
C
100
AcDbXrecord
280
     1
300
MAP
300
2012
300
MAP_F_S
  0
DICTIONARY
  5
73
102
{ACAD_REACTORS
330
C
102
}
330
C
100
AcDbDictionary
281
     1
  0
DICTIONARY
  5
122
102
{ACAD_REACTORS
330
C
102
}
330
C
100
AcDbDictionary
281
     1
  3
Imperial24
350
1E9
  0
DICTIONARY
  5
D
102
{ACAD_REACTORS
330
C
102
}
330
C
100
AcDbDictionary
281
     1
  0
DICTIONARY
  5
23F
102
{ACAD_REACTORS
330
C
102
}
330
C
100
AcDbDictionary
281
     1
  3
Sheet_16
350
15F4
  3
Sheet_28
350
2053
  0
RASTERVARIABLES
  5
DC
102
{ACAD_REACTORS
330
C
102
}
330
C
100
AcDbRasterVariables
 90
        0
 70
     1
 71
     1
 72
     3
  0
DICTIONARY
  5
1A
102
{ACAD_REACTORS
330
C
102
}
330
C
100
AcDbDictionary
281
     1
  3
Model
350
22
  3
Sheet1
350
59
  3
Sheet2
350
5E
  0
DICTIONARY
  5
72
102
{ACAD_REACTORS
330
C
102
}
330
C
100
AcDbDictionary
281
     1
  3
ByBlock
350
E2
  3
ByLayer
350
96
  3
Global
350
98
  0
DICTIONARY
  5
B5
102
{ACAD_REACTORS
330
C
102
}
330
C
100
AcDbDictionary
281
     1
  3
Standard
350
124
  0
DICTIONARY
  5
17
102
{ACAD_REACTORS
330
C
102
}
330
C
100
AcDbDictionary
281
     1
  3
Standard
350
18
  0
DICTIONARY
  5
19
102
{ACAD_REACTORS
330
C
102
}
330
C
100
AcDbDictionary
281
     1
  0
ACDBDICTIONARYWDFLT
  5
E
102
{ACAD_REACTORS
330
C
102
}
330
C
100
AcDbDictionary
281
     1
  3
Normal
350
F
100
AcDbDictionaryWithDefault
340
F
  0
DICTIONARY
  5
B6
102
{ACAD_REACTORS
330
C
102
}
330
C
100
AcDbDictionary
281
     1
  3
A0
350
B7
  3
A1
350
B8
  3
A2
350
B9
  3
A3
350
BA
  3
A4
350
BB
  3
A5
350
BC
  3
A6
350
BD
  3
A7
350
BE
  3
A8
350
BF
  3
A9
350
C0
  3
B0
350
C1
  3
B1
350
C2
  3
B2
350
C3
  3
B3
350
C4
  3
B4
350
C5
  3
B5
350
C6
  3
B6
350
C7
  3
B7
350
C8
  3
B8
350
C9
  3
B9
350
CA
  3
C0
350
CB
  3
C1
350
CC
  3
C2
350
CD
  3
C3
350
CE
  3
C4
350
CF
  3
C5
350
D0
  3
C6
350
D1
  3
C7
350
D2
  3
C8
350
D3
  3
C9
350
D4
  3
D0
350
D5
  3
D1
350
D6
  3
D2
350
D7
  0
DICTIONARY
  5
123
102
{ACAD_REACTORS
330
C
102
}
330
C
100
AcDbDictionary
281
     1
  3
Imperial24
350
1E8
  0
DICTIONARY
  5
86
102
{ACAD_REACTORS
330
C
102
}
330
C
100
AcDbDictionary
281
     1
  3
Legend
350
234
  3
Standard
350
87
  0
DICTIONARY
  5
99
102
{ACAD_REACTORS
330
C
102
}
330
C
100
AcDbDictionary
281
     1
  3
2dWireframe
350
9F
  3
3D Hidden
350
A1
  3
3dWireframe
350
A0
  3
Basic
350
9E
  3
Brighten
350
A5
  3
ColorChange
350
A9
  3
Conceptual
350
A2
  3
Dim
350
A4
  3
EdgeColorOff
350
E7
  3
Facepattern
350
A8
  3
Flat
350
9A
  3
FlatWithEdges
350
9B
  3
Gouraud
350
9C
  3
GouraudWithEdges
350
9D
  3
Hidden
350
E4
  3
JitterOff
350
E5
  3
Linepattern
350
A7
  3
OverhangOff
350
E6
  3
Realistic
350
A3
  3
Shaded
350
EC
  3
Shaded with edges
350
EB
  3
Shades of Gray
350
E8
  3
Sketchy
350
E9
  3
Thicken
350
A6
  3
Wireframe
350
E3
  3
X-Ray
350
EA
  0
XRECORD
  5
219C
102
{ACAD_REACTORS
330
C
102
}
330
C
100
AcDbXrecord
280
     1
 90
        1
330
234
330
87
  0
DICTIONARY
  5
66
102
{ACAD_REACTORS
330
C
102
}
330
C
100
AcDbDictionary
281
     1
  3
CANNOSCALE
350
D8
  3
CMLEADERSTYLE
350
128
  3
CTABLESTYLE
350
89
  3
CVIEWDETAILSTYLE
350
223
  3
CVIEWSECTIONSTYLE
350
224
  3
DIMASSOC
350
67
  3
HIDETEXT
350
6B
  3
LIGHTSINBLOCKS
350
DF
  3
XCLIPFRAME
350
E0
  0
DICTIONARY
  5
27C
102
{ACAD_REACTORS
330
C
102
}
330
C
100
AcDbDictionary
281
     1
  3
_CurrQry
350
2190
  0
DICTIONARY
  5
E1
102
{ACAD_REACTORS
330
C
102
}
330
C
100
AcDbDictionary
281
     1
  0
DICTIONARY
  5
280
102
{ACAD_REACTORS
330
C
102
}
330
C
100
AcDbDictionary
281
     1
  3
ASEBlockHierarchyIndexRecord
350
281
1001
DCO15
1040
2009438610.478
  0
DICTIONARY
  5
22B
102
{ACAD_REACTORS
330
C
102
}
330
C
100
AcDbDictionary
281
     1
  3
AcMapDMStylizedEntities
350
23D
  3
FSD_Dictionary
350
230
  3
MAP_DISPLAY_CUSTOMOBJ_REG_TABLE
350
22F
  3
MAP_DISPLAY_MANAGEMENT_DICTIONARY
350
22C
  3
MAP_DISPLAY_STYLELIBRARY_DICTIONARY
350
22D
  3
MAP_RESOURCE_VERSION_MANAGEMENT_DICTIONARY
350
23E
1001
MapGWS
1000
C:\ProgramData\Autodesk\AutoCAD Map 3D 2012\R18.2\MapCache\1C20LOWTT_SHEET_28GWS1596029314.xml
  0
DICTIONARY
  5
129
102
{ACAD_REACTORS
330
C
102
}
330
C
100
AcDbDictionary
281
     1
  3
DIMRAILSENABLED
350
12B
  0
DICTIONARY
  5
192
102
{ACAD_REACTORS
330
191
102
}
330
191
100
AcDbDictionary
281
     1
  0
SORTENTSTABLE
  5
23C
102
{ACAD_REACTORS
330
23B
102
}
330
23B
100
AcDbSortentsTable
330
1F
  0
SORTENTSTABLE
  5
2A4
102
{ACAD_REACTORS
330
2A3
102
}
330
2A3
100
AcDbSortentsTable
330
29E
  0
SORTENTSTABLE
  5
2C6
102
{ACAD_REACTORS
330
2C5
102
}
330
2C5
100
AcDbSortentsTable
330
2C3
  0
SORTENTSTABLE
  5
325
102
{ACAD_REACTORS
330
324
102
}
330
324
100
AcDbSortentsTable
330
320
  0
SORTENTSTABLE
  5
433
102
{ACAD_REACTORS
330
432
102
}
330
432
100
AcDbSortentsTable
330
430
  0
SORTENTSTABLE
  5
489
102
{ACAD_REACTORS
330
488
102
}
330
488
100
AcDbSortentsTable
330
485
  0
SORTENTSTABLE
  5
490
102
{ACAD_REACTORS
330
48F
102
}
330
48F
100
AcDbSortentsTable
330
48C
  0
SORTENTSTABLE
  5
4B3
102
{ACAD_REACTORS
330
4B2
102
}
330
4B2
100
AcDbSortentsTable
330
4AF
  0
SORTENTSTABLE
  5
724
102
{ACAD_REACTORS
330
723
102
}
330
723
100
AcDbSortentsTable
330
71F
  0
SORTENTSTABLE
  5
80C
102
{ACAD_REACTORS
330
80B
102
}
330
80B
100
AcDbSortentsTable
330
808
  0
SORTENTSTABLE
  5
885
102
{ACAD_REACTORS
330
884
102
}
330
884
100
AcDbSortentsTable
330
87C
  0
SORTENTSTABLE
  5
958
102
{ACAD_REACTORS
330
957
102
}
330
957
100
AcDbSortentsTable
330
954
  0
SORTENTSTABLE
  5
A53
102
{ACAD_REACTORS
330
A52
102
}
330
A52
100
AcDbSortentsTable
330
A4F
  0
SORTENTSTABLE
  5
A88
102
{ACAD_REACTORS
330
A87
102
}
330
A87
100
AcDbSortentsTable
330
A84
  0
SORTENTSTABLE
  5
BE1
102
{ACAD_REACTORS
330
BE0
102
}
330
BE0
100
AcDbSortentsTable
330
BDD
  0
SORTENTSTABLE
  5
D16
102
{ACAD_REACTORS
330
D15
102
}
330
D15
100
AcDbSortentsTable
330
D12
  0
SORTENTSTABLE
  5
D70
102
{ACAD_REACTORS
330
D6F
102
}
330
D6F
100
AcDbSortentsTable
330
D6D
  0
SORTENTSTABLE
  5
ED3
102
{ACAD_REACTORS
330
ED2
102
}
330
ED2
100
AcDbSortentsTable
330
ECF
  0
SORTENTSTABLE
  5
EF9
102
{ACAD_REACTORS
330
EF8
102
}
330
EF8
100
AcDbSortentsTable
330
EF6
  0
SORTENTSTABLE
  5
F61
102
{ACAD_REACTORS
330
F60
102
}
330
F60
100
AcDbSortentsTable
330
F5B
  0
SORTENTSTABLE
  5
1070
102
{ACAD_REACTORS
330
106F
102
}
330
106F
100
AcDbSortentsTable
330
106C
  0
SORTENTSTABLE
  5
1099
102
{ACAD_REACTORS
330
1098
102
}
330
1098
100
AcDbSortentsTable
330
1094
  0
SORTENTSTABLE
  5
120E
102
{ACAD_REACTORS
330
120D
102
}
330
120D
100
AcDbSortentsTable
330
120B
  0
SORTENTSTABLE
  5
139C
102
{ACAD_REACTORS
330
139B
102
}
330
139B
100
AcDbSortentsTable
330
1397
  0
SORTENTSTABLE
  5
13A6
102
{ACAD_REACTORS
330
13A5
102
}
330
13A5
100
AcDbSortentsTable
330
139F
  0
SORTENTSTABLE
  5
14A1
102
{ACAD_REACTORS
330
14A0
102
}
330
14A0
100
AcDbSortentsTable
330
149E
  0
SORTENTSTABLE
  5
15E0
102
{ACAD_REACTORS
330
15DF
102
}
330
15DF
100
AcDbSortentsTable
330
15DD
  0
SORTENTSTABLE
  5
162C
102
{ACAD_REACTORS
330
162B
102
}
330
162B
100
AcDbSortentsTable
330
1629
  0
SORTENTSTABLE
  5
163A
102
{ACAD_REACTORS
330
1639
102
}
330
1639
100
AcDbSortentsTable
330
1637
  0
SORTENTSTABLE
  5
165D
102
{ACAD_REACTORS
330
165C
102
}
330
165C
100
AcDbSortentsTable
330
1654
  0
SORTENTSTABLE
  5
1667
102
{ACAD_REACTORS
330
1666
102
}
330
1666
100
AcDbSortentsTable
330
1660
  0
SORTENTSTABLE
  5
16B8
102
{ACAD_REACTORS
330
16B7
102
}
330
16B7
100
AcDbSortentsTable
330
16B1
  0
SORTENTSTABLE
  5
1777
102
{ACAD_REACTORS
330
1776
102
}
330
1776
100
AcDbSortentsTable
330
1774
  0
SORTENTSTABLE
  5
1788
102
{ACAD_REACTORS
330
1787
102
}
330
1787
100
AcDbSortentsTable
330
1783
  0
SORTENTSTABLE
  5
1864
102
{ACAD_REACTORS
330
1863
102
}
330
1863
100
AcDbSortentsTable
330
185F
  0
SORTENTSTABLE
  5
19CA
102
{ACAD_REACTORS
330
19C9
102
}
330
19C9
100
AcDbSortentsTable
330
19C6
  0
SORTENTSTABLE
  5
1CF0
102
{ACAD_REACTORS
330
1CEF
102
}
330
1CEF
100
AcDbSortentsTable
330
1CED
  0
SORTENTSTABLE
  5
1D5F
102
{ACAD_REACTORS
330
1D5E
102
}
330
1D5E
100
AcDbSortentsTable
330
1D5A
  0
SORTENTSTABLE
  5
1D9F
102
{ACAD_REACTORS
330
1D9E
102
}
330
1D9E
100
AcDbSortentsTable
330
1D9C
  0
SORTENTSTABLE
  5
1DE2
102
{ACAD_REACTORS
330
1DE1
102
}
330
1DE1
100
AcDbSortentsTable
330
1DDE
  0
SORTENTSTABLE
  5
1E34
102
{ACAD_REACTORS
330
1E33
102
}
330
1E33
100
AcDbSortentsTable
330
1E31
  0
SORTENTSTABLE
  5
1F26
102
{ACAD_REACTORS
330
1F25
102
}
330
1F25
100
AcDbSortentsTable
330
1F1F
  0
SORTENTSTABLE
  5
215A
102
{ACAD_REACTORS
330
2159
102
}
330
2159
100
AcDbSortentsTable
330
2156
  0
ACDBDETAILVIEWSTYLE
  5
1E9
102
{ACAD_REACTORS
330
122
102
}
102
{ACAD_XDICTIONARY
360
221
102
}
330
122
100
AcDbModelDocViewStyle
 70
     0
  3
Imperial24
290
     0
300
Imperial24
 90
        0
100
AcDbDetailViewStyle
 70
     0
 71
     0
 90
        3
 71
     1
340
11
 62
   256
 40
0.24
340
0
 62
   256
 40
0.24
300

 40
0.36
280
     3
 71
     2
340
16
 90
       25
 62
   256
 71
     3
340
11
 62
   256
 40
0.24
 90
        1
 40
0.75
 90
        1
300
%<\AcVar ViewType \f "%tc1">% %<\AcVar ViewDetailId>%\PSCALE %<\AcVar ViewScale \f "%sn">%
 71
     4
340
16
 90
       25
 62
   256
340
16
 90
       25
 62
   256
280
     0
  0
IMAGEDEF
  5
15F4
102
{ACAD_REACTORS
330
23F
330
1656
102
}
330
23F
100
AcDbRasterImageDef
 90
        0
  1
C:\Users\user1\Documents\ARS HS2\Scanned drawings\Sheet_16.tif
 10
4960.0
 20
3507.0
 11
0.08466666666666667
 21
0.08466666666666667
280
     1
281
     5
  0
IMAGEDEF
  5
2053
102
{ACAD_REACTORS
330
23F
330
2054
330
2089
102
}
330
23F
100
AcDbRasterImageDef
 90
        0
  1
C:\Users\user1\Documents\ARS HS2\Scanned drawings\Sheet_28.tif
 10
4960.0
 20
3507.0
 11
0.08466666666666667
 21
0.08466666666666667
280
     1
281
     5
  0
LAYOUT
  5
22
102
{ACAD_REACTORS
330
1A
102
}
330
1A
100
AcDbPlotSettings
  1

  2
none_device
  4
ANSI_A_(8.50_x_11.00_Inches)
  6

 40
6.35
 41
19.05
 42
6.35
 43
19.05
 44
215.9
 45
279.4
 46
11.11250000000003
 47
0.0000000000000142
 48
0.0
 49
0.0
140
0.0
141
0.0
142
1.0
143
1.263157894736842
 70
 11444
 72
     0
 73
     1
 74
     1
  7
monochrome.ctb
 75
     0
 76
     0
 77
     2
 78
   300
147
0.7916666666666665
148
-702.8076765758875
149
-496.2830551296954
100
AcDbLayout
  1
Model
 70
     1
 71
     0
 10
0.0
 20
0.0
 11
12.0
 21
9.0
 12
0.0
 22
0.0
 32
0.0
 14
-1.73237793040362
 24
4.477053320163619
 34
0.0
 15
9.745915846886714
 25
5.433169448467941
 35
0.0
146
0.0
 13
0.0
 23
0.0
 33
0.0
 16
1.0
 26
0.0
 36
0.0
 17
0.0
 27
1.0
 37
0.0
 76
     0
330
1F
331
94
  0
LAYOUT
  5
59
102
{ACAD_REACTORS
330
1A
102
}
330
1A
100
AcDbPlotSettings
  1

  2
None
  4

  6

 40
0.0
 41
0.0
 42
0.0
 43
0.0
 44
0.0
 45
0.0
 46
0.0
 47
0.0
 48
0.0
 49
0.0
140
0.0
141
0.0
142
1.0
143
1.0
 70
   688
 72
     0
 73
     0
 74
     5
  7

 75
    16
 76
     0
 77
     2
 78
   300
147
1.0
148
0.0
149
0.0
100
AcDbLayout
  1
Sheet1
 70
     1
 71
     1
 10
0.0
 20
0.0
 11
12.0
 21
9.0
 12
0.0
 22
0.0
 32
0.0
 14
0.0
 24
0.0
 34
0.0
 15
0.0
 25
0.0
 35
0.0
146
0.0
 13
0.0
 23
0.0
 33
0.0
 16
1.0
 26
0.0
 36
0.0
 17
0.0
 27
1.0
 37
0.0
 76
     0
330
58
  0
LAYOUT
  5
5E
102
{ACAD_REACTORS
330
1A
102
}
330
1A
100
AcDbPlotSettings
  1

  2
None
  4

  6

 40
0.0
 41
0.0
 42
0.0
 43
0.0
 44
0.0
 45
0.0
 46
0.0
 47
0.0
 48
0.0
 49
0.0
140
0.0
141
0.0
142
1.0
143
1.0
 70
   688
 72
     0
 73
     0
 74
     5
  7

 75
    16
 76
     0
 77
     2
 78
   300
147
1.0
148
0.0
149
0.0
100
AcDbLayout
  1
Sheet2
 70
     1
 71
     2
 10
0.0
 20
0.0
 11
12.0
 21
9.0
 12
0.0
 22
0.0
 32
0.0
 14
0.0
 24
0.0
 34
0.0
 15
0.0
 25
0.0
 35
0.0
146
0.0
 13
0.0
 23
0.0
 33
0.0
 16
1.0
 26
0.0
 36
0.0
 17
0.0
 27
1.0
 37
0.0
 76
     0
330
5D
  0
MATERIAL
  5
E2
102
{ACAD_REACTORS
330
72
102
}
330
72
100
AcDbMaterial
  1
ByBlock
 72
     1
 94
      127
  0
MATERIAL
  5
96
102
{ACAD_REACTORS
330
72
102
}
330
72
100
AcDbMaterial
  1
ByLayer
 72
     1
 94
       63
  0
MATERIAL
  5
98
102
{ACAD_REACTORS
330
72
102
}
330
72
100
AcDbMaterial
  1
Global
 72
     1
 94
       63
  0
MLEADERSTYLE
  5
124
102
{ACAD_REACTORS
330
B5
102
}
330
B5
100
AcDbMLeaderStyle
179
     2
170
     2
171
     1
172
     0
 90
        2
 40
0.0
 41
0.0
173
     1
 91
-1056964608
340
14
 92
       -2
290
     1
 42
0.09
291
     1
 43
0.36
  3
Standard
341
0
 44
0.18
300

342
11
174
     1
178
     6
175
     1
176
     0
 93
-1056964608
 45
0.18
292
     0
297
     0
 46
0.18
343
0
 94
-1056964608
 47
1.0
 49
1.0
140
1.0
293
     1
141
0.0
294
     1
177
     0
142
1.0
295
     0
296
     0
143
0.125
271
     0
272
     9
273
     9
298
     0
  0
MLINESTYLE
  5
18
102
{ACAD_REACTORS
330
17
102
}
330
17
100
AcDbMlineStyle
  2
STANDARD
 70
     0
  3

 62
   256
 51
90.0
 52
90.0
 71
     2
 49
0.5
 62
   256
  6
BYLAYER
 49
-0.5
 62
   256
  6
BYLAYER
  0
ACDBPLACEHOLDER
  5
F
102
{ACAD_REACTORS
330
E
102
}
330
E
  0
SCALE
  5
B7
102
{ACAD_REACTORS
330
B6
102
}
330
B6
100
AcDbScale
 70
     0
300
1:1
140
1.0
141
1.0
290
     1
  0
SCALE
  5
B8
102
{ACAD_REACTORS
330
B6
102
}
330
B6
100
AcDbScale
 70
     0
300
1:2
140
1.0
141
2.0
290
     0
  0
SCALE
  5
B9
102
{ACAD_REACTORS
330
B6
102
}
330
B6
100
AcDbScale
 70
     0
300
1:4
140
1.0
141
4.0
290
     0
  0
SCALE
  5
BA
102
{ACAD_REACTORS
330
B6
102
}
330
B6
100
AcDbScale
 70
     0
300
1:5
140
1.0
141
5.0
290
     0
  0
SCALE
  5
BB
102
{ACAD_REACTORS
330
B6
102
}
330
B6
100
AcDbScale
 70
     0
300
1:8
140
1.0
141
8.0
290
     0
  0
SCALE
  5
BC
102
{ACAD_REACTORS
330
B6
102
}
330
B6
100
AcDbScale
 70
     0
300
1:10
140
1.0
141
10.0
290
     0
  0
SCALE
  5
BD
102
{ACAD_REACTORS
330
B6
102
}
330
B6
100
AcDbScale
 70
     0
300
1:16
140
1.0
141
16.0
290
     0
  0
SCALE
  5
BE
102
{ACAD_REACTORS
330
B6
102
}
330
B6
100
AcDbScale
 70
     0
300
1:20
140
1.0
141
20.0
290
     0
  0
SCALE
  5
BF
102
{ACAD_REACTORS
330
B6
102
}
330
B6
100
AcDbScale
 70
     0
300
1:30
140
1.0
141
30.0
290
     0
  0
SCALE
  5
C0
102
{ACAD_REACTORS
330
B6
102
}
330
B6
100
AcDbScale
 70
     0
300
1:40
140
1.0
141
40.0
290
     0
  0
SCALE
  5
C1
102
{ACAD_REACTORS
330
B6
102
}
330
B6
100
AcDbScale
 70
     0
300
1:50
140
1.0
141
50.0
290
     0
  0
SCALE
  5
C2
102
{ACAD_REACTORS
330
B6
102
}
330
B6
100
AcDbScale
 70
     0
300
1:100
140
1.0
141
100.0
290
     0
  0
SCALE
  5
C3
102
{ACAD_REACTORS
330
B6
102
}
330
B6
100
AcDbScale
 70
     0
300
2:1
140
2.0
141
1.0
290
     0
  0
SCALE
  5
C4
102
{ACAD_REACTORS
330
B6
102
}
330
B6
100
AcDbScale
 70
     0
300
4:1
140
4.0
141
1.0
290
     0
  0
SCALE
  5
C5
102
{ACAD_REACTORS
330
B6
102
}
330
B6
100
AcDbScale
 70
     0
300
8:1
140
8.0
141
1.0
290
     0
  0
SCALE
  5
C6
102
{ACAD_REACTORS
330
B6
102
}
330
B6
100
AcDbScale
 70
     0
300
10:1
140
10.0
141
1.0
290
     0
  0
SCALE
  5
C7
102
{ACAD_REACTORS
330
B6
102
}
330
B6
100
AcDbScale
 70
     0
300
100:1
140
100.0
141
1.0
290
     0
  0
SCALE
  5
C8
102
{ACAD_REACTORS
330
B6
102
}
330
B6
100
AcDbScale
 70
     0
300
1/128" = 1'-0"
140
0.0078125
141
12.0
290
     0
  0
SCALE
  5
C9
102
{ACAD_REACTORS
330
B6
102
}
330
B6
100
AcDbScale
 70
     0
300
1/64" = 1'-0"
140
0.015625
141
12.0
290
     0
  0
SCALE
  5
CA
102
{ACAD_REACTORS
330
B6
102
}
330
B6
100
AcDbScale
 70
     0
300
1/32" = 1'-0"
140
0.03125
141
12.0
290
     0
  0
SCALE
  5
CB
102
{ACAD_REACTORS
330
B6
102
}
330
B6
100
AcDbScale
 70
     0
300
1/16" = 1'-0"
140
0.0625
141
12.0
290
     0
  0
SCALE
  5
CC
102
{ACAD_REACTORS
330
B6
102
}
330
B6
100
AcDbScale
 70
     0
300
3/32" = 1'-0"
140
0.09375
141
12.0
290
     0
  0
SCALE
  5
CD
102
{ACAD_REACTORS
330
B6
102
}
330
B6
100
AcDbScale
 70
     0
300
1/8" = 1'-0"
140
0.125
141
12.0
290
     0
  0
SCALE
  5
CE
102
{ACAD_REACTORS
330
B6
102
}
330
B6
100
AcDbScale
 70
     0
300
3/16" = 1'-0"
140
0.1875
141
12.0
290
     0
  0
SCALE
  5
CF
102
{ACAD_REACTORS
330
B6
102
}
330
B6
100
AcDbScale
 70
     0
300
1/4" = 1'-0"
140
0.25
141
12.0
290
     0
  0
SCALE
  5
D0
102
{ACAD_REACTORS
330
B6
102
}
330
B6
100
AcDbScale
 70
     0
300
3/8" = 1'-0"
140
0.375
141
12.0
290
     0
  0
SCALE
  5
D1
102
{ACAD_REACTORS
330
B6
102
}
330
B6
100
AcDbScale
 70
     0
300
1/2" = 1'-0"
140
0.5
141
12.0
290
     0
  0
SCALE
  5
D2
102
{ACAD_REACTORS
330
B6
102
}
330
B6
100
AcDbScale
 70
     0
300
3/4" = 1'-0"
140
0.75
141
12.0
290
     0
  0
SCALE
  5
D3
102
{ACAD_REACTORS
330
B6
102
}
330
B6
100
AcDbScale
 70
     0
300
1" = 1'-0"
140
1.0
141
12.0
290
     0
  0
SCALE
  5
D4
102
{ACAD_REACTORS
330
B6
102
}
330
B6
100
AcDbScale
 70
     0
300
1-1/2" = 1'-0"
140
1.5
141
12.0
290
     0
  0
SCALE
  5
D5
102
{ACAD_REACTORS
330
B6
102
}
330
B6
100
AcDbScale
 70
     0
300
3" = 1'-0"
140
3.0
141
12.0
290
     0
  0
SCALE
  5
D6
102
{ACAD_REACTORS
330
B6
102
}
330
B6
100
AcDbScale
 70
     0
300
6" = 1'-0"
140
6.0
141
12.0
290
     0
  0
SCALE
  5
D7
102
{ACAD_REACTORS
330
B6
102
}
330
B6
100
AcDbScale
 70
     0
300
1'-0" = 1'-0"
140
12.0
141
12.0
290
     0
  0
ACDBSECTIONVIEWSTYLE
  5
1E8
102
{ACAD_REACTORS
330
123
102
}
102
{ACAD_XDICTIONARY
360
21F
102
}
330
123
100
AcDbModelDocViewStyle
 70
     0
  3
Imperial24
290
     0
300
Imperial24
 90
        0
100
AcDbSectionViewStyle
 70
     0
 71
     0
 90
       78
 71
     1
340
11
 62
   256
 40
0.24
340
0
340
0
 62
   256
 40
0.24
300
I, O, Q, S, X, Z
 40
0.48
 90
        3
 40
0.18
 90
        1
 71
     2
340
16
 90
       25
 62
   256
340
16
 90
       50
 62
   256
 40
0.24
 40
0.0
 40
0.24
 71
     3
340
11
 62
   256
 40
0.24
 90
        1
 40
0.75
 90
        1
300
%<\AcVar ViewType \f "%tc1">% %<\AcVar ViewSectionStartId>%-%<\AcVar ViewSectionEndId>%\PSCALE %<\AcVar ViewScale \f "%sn">%
 71
     4
 62
   256
 62
   257
300
ANSI31
 40
1.0
 90
        0
290
     0
290
     0
 90
        6
 40
0.0
 40
1.570796326794897
 40
0.2617993877991494
 40
1.308996938995747
 40
-0.2617993877991494
 40
1.832595714594046
  0
TABLESTYLE
  5
234
102
{ACAD_REACTORS
330
86
102
}
102
{ACAD_XDICTIONARY
360
2198
102
}
330
86
100
AcDbTableStyle
  3

 70
     0
 71
     0
 40
0.06
 41
0.06
280
     0
281
     0
  7
Legend
140
0.4
170
     4
 62
     0
 63
   257
283
     0
 90
      512
 91
        0
  1

274
    -2
284
     0
 64
     0
275
    -2
285
     0
 65
     0
276
    -2
286
     0
 66
     0
277
    -2
287
     0
 67
     0
278
    -2
288
     0
 68
     0
279
    -2
289
     0
 69
     0
  7
Legend
140
0.5
170
     5
 62
     0
 63
   257
283
     0
 90
      512
 91
        0
  1

274
    -2
284
     0
 64
     0
275
    -2
285
     0
 65
     0
276
    -2
286
     0
 66
     0
277
    -2
287
     0
 67
     0
278
    -2
288
     0
 68
     0
279
    -2
289
     0
 69
     0
  7
Legend
140
0.4
170
     4
 62
     0
 63
   257
283
     0
 90
      512
 91
        0
  1

274
    -2
284
     0
 64
     0
275
    -2
285
     0
 65
     0
276
    -2
286
     0
 66
     0
277
    -2
287
     0
 67
     0
278
    -2
288
     0
 68
     0
279
    -2
289
     0
 69
     0
  0
TABLESTYLE
  5
87
102
{ACAD_REACTORS
330
86
102
}
102
{ACAD_XDICTIONARY
360
219A
102
}
330
86
100
AcDbTableStyle
  3
Standard
 70
     0
 71
     0
 40
0.06
 41
0.06
280
     0
281
     0
  7
Standard
140
0.18
170
     2
 62
     0
 63
   257
283
     0
 90
      512
 91
        0
  1

274
    -2
284
     1
 64
     0
275
    -2
285
     1
 65
     0
276
    -2
286
     1
 66
     0
277
    -2
287
     1
 67
     0
278
    -2
288
     1
 68
     0
279
    -2
289
     1
 69
     0
  7
Standard
140
0.25
170
     5
 62
     0
 63
   257
283
     0
 90
      512
 91
        0
  1

274
    -2
284
     1
 64
     0
275
    -2
285
     1
 65
     0
276
    -2
286
     1
 66
     0
277
    -2
287
     1
 67
     0
278
    -2
288
     1
 68
     0
279
    -2
289
     1
 69
     0
  7
Standard
140
0.18
170
     5
 62
     0
 63
   257
283
     0
 90
      512
 91
        0
  1

274
    -2
284
     1
 64
     0
275
    -2
285
     1
 65
     0
276
    -2
286
     1
 66
     0
277
    -2
287
     1
 67
     0
278
    -2
288
     1
 68
     0
279
    -2
289
     1
 69
     0
  0
VISUALSTYLE
  5
9F
102
{ACAD_REACTORS
330
99
102
}
330
99
100
AcDbVisualStyle
  2
2dWireframe
 70
     4
177
     3
291
     0
 70
    58
 90
        0
176
     1
 90
        2
176
     1
 90
        1
176
     1
 90
        0
176
     1
 40
0.6
176
     1
 40
30.0
176
     1
 62
     7
420
 16777215
176
     1
 90
        1
176
     1
 90
        4
176
     1
 62
     7
176
     1
 62
   257
176
     1
 90
        1
176
     1
 90
        1
176
     1
 40
1.0
176
     1
 90
        0
176
     1
 62
   257
176
     1
 40
1.0
176
     1
 90
        1
176
     1
 90
        6
176
     1
 90
        2
176
     1
 62
     7
176
     1
 90
        5
176
     1
 90
        0
176
     1
 90
        0
176
     1
290
     0
176
     1
 90
        1
176
     1
 40
0.0
176
     1
 90
        0
176
     1
290
     1
176
     1
290
     1
176
     1
290
     0
176
     1
290
     0
176
     1
290
     0
176
     1
290
     0
176
     1
290
     0
176
     1
290
     0
176
     1
290
     0
176
     1
 90
       50
176
     1
 40
0.0
176
     1
 40
1.0
176
     1
 90
        0
176
     1
 62
    18
420
        0
176
     1
 90
       50
176
     1
 90
        3
176
     1
 62
     5
420
      255
176
     1
290
     0
176
     1
 90
       50
176
     1
 90
       50
176
     1
 90
       50
176
     1
290
     0
176
     1
 90
       50
176
     1
 62
   256
176
     0
 40
1.0
176
     0
 90
        2
176
     1
  1
strokes_ogs.tif
176
     1
290
     0
176
     1
 40
1.0
176
     1
 40
1.0
176
     1
  0
VISUALSTYLE
  5
A1
102
{ACAD_REACTORS
330
99
102
}
330
99
100
AcDbVisualStyle
  2
3D Hidden
 70
     6
177
     3
291
     0
 70
    58
 90
        1
176
     1
 90
        2
176
     1
 90
        2
176
     1
 90
        0
176
     1
 40
0.6
176
     1
 40
30.0
176
     1
 62
     7
420
 16777215
176
     1
 90
        2
176
     1
 90
        2
176
     1
 62
     7
176
     1
 62
   257
176
     1
 90
        2
176
     1
 90
        1
176
     1
 40
40.0
176
     1
 90
        0
176
     1
 62
   257
176
     1
 40
1.0
176
     1
 90
        1
176
     1
 90
        6
176
     1
 90
        2
176
     1
 62
     7
176
     1
 90
        3
176
     1
 90
        0
176
     1
 90
        0
176
     1
290
     0
176
     1
 90
        1
176
     1
 40
0.0
176
     1
 90
        0
176
     1
290
     0
176
     1
290
     1
176
     1
290
     1
176
     1
290
     0
176
     1
290
     0
176
     1
290
     0
176
     1
290
     0
176
     1
290
     0
176
     1
290
     0
176
     1
 90
       50
176
     1
 40
0.0
176
     1
 40
1.0
176
     1
 90
        0
176
     1
 62
    18
420
        0
176
     1
 90
       50
176
     1
 90
        3
176
     1
 62
     5
420
      255
176
     1
290
     0
176
     1
 90
       50
176
     1
 90
       50
176
     1
 90
       50
176
     1
290
     0
176
     1
 90
       50
176
     1
 62
   256
176
     0
 40
1.0
176
     0
 90
        2
176
     1
  1
strokes_ogs.tif
176
     1
290
     0
176
     1
 40
1.0
176
     1
 40
1.0
176
     1
  0
VISUALSTYLE
  5
A0
102
{ACAD_REACTORS
330
99
102
}
330
99
100
AcDbVisualStyle
  2
3dWireframe
 70
     5
177
     3
291
     0
 70
    58
 90
        0
176
     1
 90
        2
176
     1
 90
        1
176
     1
 90
        0
176
     1
 40
0.6
176
     1
 40
30.0
176
     1
 62
     7
420
 16777215
176
     1
 90
        1
176
     1
 90
        4
176
     1
 62
     7
176
     1
 62
   257
176
     1
 90
        1
176
     1
 90
        1
176
     1
 40
1.0
176
     1
 90
        0
176
     1
 62
   257
176
     1
 40
1.0
176
     1
 90
        1
176
     1
 90
        6
176
     1
 90
        2
176
     1
 62
     7
176
     1
 90
        5
176
     1
 90
        0
176
     1
 90
        0
176
     1
290
     0
176
     1
 90
        1
176
     1
 40
0.0
176
     1
 90
        0
176
     1
290
     0
176
     1
290
     1
176
     1
290
     1
176
     1
290
     0
176
     1
290
     0
176
     1
290
     0
176
     1
290
     0
176
     1
290
     0
176
     1
290
     0
176
     1
 90
       50
176
     1
 40
0.0
176
     1
 40
1.0
176
     1
 90
        0
176
     1
 62
    18
420
        0
176
     1
 90
       50
176
     1
 90
        3
176
     1
 62
     5
420
      255
176
     1
290
     0
176
     1
 90
       50
176
     1
 90
       50
176
     1
 90
       50
176
     1
290
     0
176
     1
 90
       50
176
     1
 62
   256
176
     0
 40
1.0
176
     0
 90
        2
176
     1
  1
strokes_ogs.tif
176
     1
290
     0
176
     1
 40
1.0
176
     1
 40
1.0
176
     1
  0
VISUALSTYLE
  5
9E
102
{ACAD_REACTORS
330
99
102
}
330
99
100
AcDbVisualStyle
  2
Basic
 70
     7
177
     3
291
     1
 70
    58
 90
        1
176
     1
 90
        0
176
     1
 90
        1
176
     1
 90
        0
176
     1
 40
0.6
176
     1
 40
30.0
176
     1
 62
     7
420
 16777215
176
     1
 90
        0
176
     1
 90
        4
176
     1
 62
     7
176
     1
 62
   257
176
     1
 90
        1
176
     1
 90
        1
176
     1
 40
1.0
176
     1
 90
        8
176
     1
 62
     7
176
     1
 40
1.0
176
     1
 90
        1
176
     1
 90
        6
176
     1
 90
        2
176
     1
 62
     7
176
     1
 90
        5
176
     1
 90
        0
176
     1
 90
        0
176
     1
290
     0
176
     1
 90
        1
176
     1
 40
0.0
176
     1
 90
        0
176
     1
290
     0
176
     1
290
     1
176
     1
290
     1
176
     1
290
     0
176
     1
290
     0
176
     1
290
     0
176
     1
290
     0
176
     1
290
     0
176
     1
290
     0
176
     1
 90
       50
176
     1
 40
0.0
176
     1
 40
1.0
176
     1
 90
        0
176
     1
 62
    18
420
        0
176
     1
 90
       50
176
     1
 90
        3
176
     1
 62
     5
420
      255
176
     1
290
     0
176
     1
 90
       50
176
     1
 90
       50
176
     1
 90
       50
176
     1
290
     0
176
     1
 90
       50
176
     1
 62
   256
176
     0
 40
1.0
176
     0
 90
        2
176
     1
  1
strokes_ogs.tif
176
     1
290
     0
176
     1
 40
1.0
176
     1
 40
1.0
176
     1
  0
VISUALSTYLE
  5
A5
102
{ACAD_REACTORS
330
99
102
}
330
99
100
AcDbVisualStyle
  2
Brighten
 70
    12
177
     3
291
     1
 70
    58
 90
        2
176
     1
 90
        2
176
     1
 90
        1
176
     1
 90
        0
176
     1
 40
0.6
176
     1
 40
30.0
176
     1
 62
     7
420
 16777215
176
     1
 90
        1
176
     1
 90
        4
176
     1
 62
     7
176
     1
 62
   257
176
     1
 90
        1
176
     1
 90
        1
176
     1
 40
1.0
176
     1
 90
        8
176
     1
 62
     7
176
     1
 40
1.0
176
     1
 90
        1
176
     1
 90
        6
176
     1
 90
        2
176
     1
 62
     7
176
     1
 90
        5
176
     1
 90
        0
176
     1
 90
        0
176
     1
290
     0
176
     1
 90
        1
176
     1
 40
50.0
176
     1
 90
        0
176
     1
290
     0
176
     1
290
     1
176
     1
290
     1
176
     1
290
     0
176
     1
290
     0
176
     1
290
     0
176
     1
290
     0
176
     1
290
     0
176
     1
290
     0
176
     1
 90
       50
176
     1
 40
0.0
176
     1
 40
1.0
176
     1
 90
        0
176
     1
 62
    18
420
        0
176
     1
 90
       50
176
     1
 90
        3
176
     1
 62
     5
420
      255
176
     1
290
     0
176
     1
 90
       50
176
     1
 90
       50
176
     1
 90
       50
176
     1
290
     0
176
     1
 90
       50
176
     1
 62
   256
176
     0
 40
1.0
176
     0
 90
        2
176
     1
  1
strokes_ogs.tif
176
     1
290
     0
176
     1
 40
1.0
176
     1
 40
1.0
176
     1
  0
VISUALSTYLE
  5
A9
102
{ACAD_REACTORS
330
99
102
}
330
99
100
AcDbVisualStyle
  2
ColorChange
 70
    16
177
     3
291
     1
 70
    58
 90
        2
176
     1
 90
        2
176
     1
 90
        3
176
     1
 90
        0
176
     1
 40
0.6
176
     1
 40
30.0
176
     1
 62
     8
420
  8421504
176
     1
 90
        1
176
     1
 90
        4
176
     1
 62
     7
176
     1
 62
   257
176
     1
 90
        1
176
     1
 90
        1
176
     1
 40
1.0
176
     1
 90
        8
176
     1
 62
     8
420
  8421504
176
     1
 40
1.0
176
     1
 90
        1
176
     1
 90
        6
176
     1
 90
        2
176
     1
 62
     7
176
     1
 90
        5
176
     1
 90
        0
176
     1
 90
        0
176
     1
290
     0
176
     1
 90
        1
176
     1
 40
0.0
176
     1
 90
        0
176
     1
290
     0
176
     1
290
     1
176
     1
290
     1
176
     1
290
     0
176
     1
290
     0
176
     1
290
     0
176
     1
290
     0
176
     1
290
     0
176
     1
290
     0
176
     1
 90
       50
176
     1
 40
0.0
176
     1
 40
1.0
176
     1
 90
        0
176
     1
 62
    18
420
        0
176
     1
 90
       50
176
     1
 90
        3
176
     1
 62
     5
420
      255
176
     1
290
     0
176
     1
 90
       50
176
     1
 90
       50
176
     1
 90
       50
176
     1
290
     0
176
     1
 90
       50
176
     1
 62
   256
176
     0
 40
1.0
176
     0
 90
        2
176
     1
  1
strokes_ogs.tif
176
     1
290
     0
176
     1
 40
1.0
176
     1
 40
1.0
176
     1
  0
VISUALSTYLE
  5
A2
102
{ACAD_REACTORS
330
99
102
}
330
99
100
AcDbVisualStyle
  2
Conceptual
 70
     9
177
     3
291
     0
 70
    58
 90
        3
176
     1
 90
        2
176
     1
 90
        1
176
     1
 90
        0
176
     1
 40
0.6
176
     1
 40
30.0
176
     1
 62
     7
420
 16777215
176
     1
 90
        2
176
     1
 90
        2
176
     1
 62
     7
176
     1
 62
   257
176
     1
 90
        1
176
     1
 90
        1
176
     1
 40
40.0
176
     1
 90
        8
176
     1
 62
     7
176
     1
 40
1.0
176
     1
 90
        1
176
     1
 90
        6
176
     1
 90
        2
176
     1
 62
     7
176
     1
 90
        3
176
     1
 90
        0
176
     1
 90
        0
176
     1
290
     0
176
     1
 90
        1
176
     1
 40
0.0
176
     1
 90
        0
176
     1
290
     0
176
     1
290
     1
176
     1
290
     1
176
     1
290
     0
176
     1
290
     0
176
     1
290
     0
176
     1
290
     0
176
     1
290
     0
176
     1
290
     0
176
     1
 90
       50
176
     1
 40
0.0
176
     1
 40
1.0
176
     1
 90
        0
176
     1
 62
    18
420
        0
176
     1
 90
       50
176
     1
 90
        3
176
     1
 62
     5
420
      255
176
     1
290
     0
176
     1
 90
       50
176
     1
 90
       50
176
     1
 90
       50
176
     1
290
     0
176
     1
 90
       50
176
     1
 62
   256
176
     0
 40
1.0
176
     0
 90
        2
176
     1
  1
strokes_ogs.tif
176
     1
290
     0
176
     1
 40
1.0
176
     1
 40
1.0
176
     1
  0
VISUALSTYLE
  5
A4
102
{ACAD_REACTORS
330
99
102
}
330
99
100
AcDbVisualStyle
  2
Dim
 70
    11
177
     3
291
     1
 70
    58
 90
        2
176
     1
 90
        2
176
     1
 90
        1
176
     1
 90
        0
176
     1
 40
0.6
176
     1
 40
30.0
176
     1
 62
     7
420
 16777215
176
     1
 90
        1
176
     1
 90
        4
176
     1
 62
     7
176
     1
 62
   257
176
     1
 90
        1
176
     1
 90
        1
176
     1
 40
1.0
176
     1
 90
        8
176
     1
 62
     7
176
     1
 40
1.0
176
     1
 90
        1
176
     1
 90
        6
176
     1
 90
        2
176
     1
 62
     7
176
     1
 90
        5
176
     1
 90
        0
176
     1
 90
        0
176
     1
290
     0
176
     1
 90
        1
176
     1
 40
-50.0
176
     1
 90
        0
176
     1
290
     0
176
     1
290
     1
176
     1
290
     1
176
     1
290
     0
176
     1
290
     0
176
     1
290
     0
176
     1
290
     0
176
     1
290
     0
176
     1
290
     0
176
     1
 90
       50
176
     1
 40
0.0
176
     1
 40
1.0
176
     1
 90
        0
176
     1
 62
    18
420
        0
176
     1
 90
       50
176
     1
 90
        3
176
     1
 62
     5
420
      255
176
     1
290
     0
176
     1
 90
       50
176
     1
 90
       50
176
     1
 90
       50
176
     1
290
     0
176
     1
 90
       50
176
     1
 62
   256
176
     0
 40
1.0
176
     0
 90
        2
176
     1
  1
strokes_ogs.tif
176
     1
290
     0
176
     1
 40
1.0
176
     1
 40
1.0
176
     1
  0
VISUALSTYLE
  5
E7
102
{ACAD_REACTORS
330
99
102
}
330
99
100
AcDbVisualStyle
  2
EdgeColorOff
 70
    22
177
     3
291
     1
 70
    58
 90
        2
176
     0
 90
        2
176
     0
 90
        0
176
     0
 90
        0
176
     0
 40
0.6
176
     0
 40
30.0
176
     0
 62
     7
420
 16777215
176
     0
 90
        1
176
     0
 90
        4
176
     0
 62
     7
176
     0
 62
   257
176
     0
 90
        1
176
     0
 90
        1
176
     0
 40
1.0
176
     0
 90
        8
176
     2
 62
     7
176
     0
 40
1.0
176
     0
 90
        1
176
     0
 90
        6
176
     0
 90
        2
176
     0
 62
     7
176
     0
 90
        5
176
     0
 90
        0
176
     0
 90
        0
176
     0
290
     0
176
     0
 90
        1
176
     0
 40
0.0
176
     0
 90
        0
176
     0
290
     0
176
     0
290
     1
176
     0
290
     1
176
     0
290
     0
176
     0
290
     0
176
     0
290
     0
176
     0
290
     0
176
     0
290
     0
176
     0
290
     0
176
     0
 90
       50
176
     0
 40
0.0
176
     0
 40
1.0
176
     0
 90
        0
176
     0
 62
    18
420
        0
176
     0
 90
       50
176
     0
 90
        3
176
     0
 62
     5
420
      255
176
     0
290
     0
176
     0
 90
       50
176
     0
 90
       50
176
     0
 90
       50
176
     0
290
     0
176
     0
 90
       50
176
     0
 62
   256
176
     0
 40
1.0
176
     0
 90
        2
176
     0
  1
strokes_ogs.tif
176
     0
290
     0
176
     0
 40
1.0
176
     0
 40
1.0
176
     0
  0
VISUALSTYLE
  5
A8
102
{ACAD_REACTORS
330
99
102
}
330
99
100
AcDbVisualStyle
  2
Facepattern
 70
    15
177
     3
291
     1
 70
    58
 90
        2
176
     1
 90
        2
176
     1
 90
        1
176
     1
 90
        0
176
     1
 40
0.6
176
     1
 40
30.0
176
     1
 62
     7
420
 16777215
176
     1
 90
        1
176
     1
 90
        4
176
     1
 62
     7
176
     1
 62
   257
176
     1
 90
        1
176
     1
 90
        1
176
     1
 40
1.0
176
     1
 90
        8
176
     1
 62
     7
176
     1
 40
1.0
176
     1
 90
        1
176
     1
 90
        6
176
     1
 90
        2
176
     1
 62
     7
176
     1
 90
        5
176
     1
 90
        0
176
     1
 90
        0
176
     1
290
     0
176
     1
 90
        1
176
     1
 40
0.0
176
     1
 90
        0
176
     1
290
     0
176
     1
290
     1
176
     1
290
     1
176
     1
290
     0
176
     1
290
     0
176
     1
290
     0
176
     1
290
     0
176
     1
290
     0
176
     1
290
     0
176
     1
 90
       50
176
     1
 40
0.0
176
     1
 40
1.0
176
     1
 90
        0
176
     1
 62
    18
420
        0
176
     1
 90
       50
176
     1
 90
        3
176
     1
 62
     5
420
      255
176
     1
290
     0
176
     1
 90
       50
176
     1
 90
       50
176
     1
 90
       50
176
     1
290
     0
176
     1
 90
       50
176
     1
 62
   256
176
     0
 40
1.0
176
     0
 90
        2
176
     1
  1
strokes_ogs.tif
176
     1
290
     0
176
     1
 40
1.0
176
     1
 40
1.0
176
     1
  0
VISUALSTYLE
  5
9A
102
{ACAD_REACTORS
330
99
102
}
330
99
100
AcDbVisualStyle
  2
Flat
 70
     0
177
     3
291
     1
 70
    58
 90
        2
176
     1
 90
        1
176
     1
 90
        1
176
     1
 90
        2
176
     1
 40
0.6
176
     1
 40
30.0
176
     1
 62
     7
420
 16777215
176
     1
 90
        0
176
     1
 90
        4
176
     1
 62
     7
176
     1
 62
   257
176
     1
 90
        1
176
     1
 90
        1
176
     1
 40
1.0
176
     1
 90
        8
176
     1
 62
     7
176
     1
 40
1.0
176
     1
 90
        1
176
     1
 90
        6
176
     1
 90
        2
176
     1
 62
     7
176
     1
 90
        5
176
     1
 90
        0
176
     1
 90
        0
176
     1
290
     0
176
     1
 90
        1
176
     1
 40
0.0
176
     1
 90
        0
176
     1
290
     0
176
     1
290
     1
176
     1
290
     1
176
     1
290
     0
176
     1
290
     0
176
     1
290
     0
176
     1
290
     0
176
     1
290
     0
176
     1
290
     0
176
     1
 90
       50
176
     1
 40
0.0
176
     1
 40
1.0
176
     1
 90
        0
176
     1
 62
    18
420
        0
176
     1
 90
       50
176
     1
 90
        3
176
     1
 62
     5
420
      255
176
     1
290
     0
176
     1
 90
       50
176
     1
 90
       50
176
     1
 90
       50
176
     1
290
     0
176
     1
 90
       50
176
     1
 62
   256
176
     0
 40
1.0
176
     0
 90
        2
176
     1
  1
strokes_ogs.tif
176
     1
290
     0
176
     1
 40
1.0
176
     1
 40
1.0
176
     1
  0
VISUALSTYLE
  5
9B
102
{ACAD_REACTORS
330
99
102
}
330
99
100
AcDbVisualStyle
  2
FlatWithEdges
 70
     1
177
     3
291
     1
 70
    58
 90
        2
176
     1
 90
        1
176
     1
 90
        1
176
     1
 90
        2
176
     1
 40
0.6
176
     1
 40
30.0
176
     1
 62
     7
420
 16777215
176
     1
 90
        1
176
     1
 90
        4
176
     1
 62
     7
176
     1
 62
   257
176
     1
 90
        1
176
     1
 90
        1
176
     1
 40
1.0
176
     1
 90
        0
176
     1
 62
   257
176
     1
 40
1.0
176
     1
 90
        1
176
     1
 90
        6
176
     1
 90
        2
176
     1
 62
     7
176
     1
 90
        5
176
     1
 90
        0
176
     1
 90
        0
176
     1
290
     0
176
     1
 90
        1
176
     1
 40
0.0
176
     1
 90
        0
176
     1
290
     0
176
     1
290
     1
176
     1
290
     1
176
     1
290
     0
176
     1
290
     0
176
     1
290
     0
176
     1
290
     0
176
     1
290
     0
176
     1
290
     0
176
     1
 90
       50
176
     1
 40
0.0
176
     1
 40
1.0
176
     1
 90
        0
176
     1
 62
    18
420
        0
176
     1
 90
       50
176
     1
 90
        3
176
     1
 62
     5
420
      255
176
     1
290
     0
176
     1
 90
       50
176
     1
 90
       50
176
     1
 90
       50
176
     1
290
     0
176
     1
 90
       50
176
     1
 62
   256
176
     0
 40
1.0
176
     0
 90
        2
176
     1
  1
strokes_ogs.tif
176
     1
290
     0
176
     1
 40
1.0
176
     1
 40
1.0
176
     1
  0
VISUALSTYLE
  5
9C
102
{ACAD_REACTORS
330
99
102
}
330
99
100
AcDbVisualStyle
  2
Gouraud
 70
     2
177
     3
291
     1
 70
    58
 90
        2
176
     1
 90
        2
176
     1
 90
        1
176
     1
 90
        2
176
     1
 40
0.6
176
     1
 40
30.0
176
     1
 62
     7
420
 16777215
176
     1
 90
        0
176
     1
 90
        4
176
     1
 62
     7
176
     1
 62
   257
176
     1
 90
        1
176
     1
 90
        1
176
     1
 40
1.0
176
     1
 90
        0
176
     1
 62
     7
176
     1
 40
1.0
176
     1
 90
        1
176
     1
 90
        6
176
     1
 90
        2
176
     1
 62
     7
176
     1
 90
        5
176
     1
 90
        0
176
     1
 90
        0
176
     1
290
     0
176
     1
 90
        1
176
     1
 40
0.0
176
     1
 90
        0
176
     1
290
     0
176
     1
290
     1
176
     1
290
     1
176
     1
290
     0
176
     1
290
     0
176
     1
290
     0
176
     1
290
     0
176
     1
290
     0
176
     1
290
     0
176
     1
 90
       50
176
     1
 40
0.0
176
     1
 40
1.0
176
     1
 90
        0
176
     1
 62
    18
420
        0
176
     1
 90
       50
176
     1
 90
        3
176
     1
 62
     5
420
      255
176
     1
290
     0
176
     1
 90
       50
176
     1
 90
       50
176
     1
 90
       50
176
     1
290
     0
176
     1
 90
       50
176
     1
 62
   256
176
     0
 40
1.0
176
     0
 90
        2
176
     1
  1
strokes_ogs.tif
176
     1
290
     0
176
     1
 40
1.0
176
     1
 40
1.0
176
     1
  0
VISUALSTYLE
  5
9D
102
{ACAD_REACTORS
330
99
102
}
330
99
100
AcDbVisualStyle
  2
GouraudWithEdges
 70
     3
177
     3
291
     1
 70
    58
 90
        2
176
     1
 90
        2
176
     1
 90
        1
176
     1
 90
        2
176
     1
 40
0.6
176
     1
 40
30.0
176
     1
 62
     7
420
 16777215
176
     1
 90
        1
176
     1
 90
        4
176
     1
 62
     7
176
     1
 62
   257
176
     1
 90
        1
176
     1
 90
        1
176
     1
 40
1.0
176
     1
 90
        0
176
     1
 62
   257
176
     1
 40
1.0
176
     1
 90
        1
176
     1
 90
        6
176
     1
 90
        2
176
     1
 62
     7
176
     1
 90
        5
176
     1
 90
        0
176
     1
 90
        0
176
     1
290
     0
176
     1
 90
        1
176
     1
 40
0.0
176
     1
 90
        0
176
     1
290
     0
176
     1
290
     1
176
     1
290
     1
176
     1
290
     0
176
     1
290
     0
176
     1
290
     0
176
     1
290
     0
176
     1
290
     0
176
     1
290
     0
176
     1
 90
       50
176
     1
 40
0.0
176
     1
 40
1.0
176
     1
 90
        0
176
     1
 62
    18
420
        0
176
     1
 90
       50
176
     1
 90
        3
176
     1
 62
     5
420
      255
176
     1
290
     0
176
     1
 90
       50
176
     1
 90
       50
176
     1
 90
       50
176
     1
290
     0
176
     1
 90
       50
176
     1
 62
   256
176
     0
 40
1.0
176
     0
 90
        2
176
     1
  1
strokes_ogs.tif
176
     1
290
     0
176
     1
 40
1.0
176
     1
 40
1.0
176
     1
  0
VISUALSTYLE
  5
E4
102
{ACAD_REACTORS
330
99
102
}
330
99
100
AcDbVisualStyle
  2
Hidden
 70
     6
177
     3
291
     0
 70
    58
 90
        1
176
     1
 90
        2
176
     1
 90
        2
176
     1
 90
        0
176
     1
 40
0.6
176
     1
 40
30.0
176
     1
 62
     7
420
 16777215
176
     1
 90
        2
176
     1
 90
        2
176
     1
 62
     7
176
     1
 62
   257
176
     1
 90
        2
176
     1
 90
        1
176
     1
 40
40.0
176
     1
 90
        0
176
     1
 62
   257
176
     1
 40
1.0
176
     1
 90
        1
176
     1
 90
        6
176
     1
 90
        2
176
     1
 62
     7
176
     1
 90
        3
176
     1
 90
        0
176
     1
 90
        0
176
     1
290
     0
176
     1
 90
        1
176
     1
 40
0.0
176
     1
 90
        0
176
     1
290
     0
176
     1
290
     1
176
     1
290
     1
176
     1
290
     0
176
     1
290
     0
176
     1
290
     0
176
     1
290
     0
176
     1
290
     0
176
     1
290
     0
176
     1
 90
       50
176
     1
 40
0.0
176
     1
 40
1.0
176
     1
 90
        0
176
     1
 62
    18
420
        0
176
     1
 90
       50
176
     1
 90
        3
176
     1
 62
     5
420
      255
176
     1
290
     0
176
     1
 90
       50
176
     1
 90
       50
176
     1
 90
       50
176
     1
290
     0
176
     1
 90
       50
176
     1
 62
   256
176
     0
 40
1.0
176
     0
 90
        2
176
     1
  1
strokes_ogs.tif
176
     1
290
     0
176
     1
 40
1.0
176
     1
 40
1.0
176
     1
  0
VISUALSTYLE
  5
E5
102
{ACAD_REACTORS
330
99
102
}
330
99
100
AcDbVisualStyle
  2
JitterOff
 70
    20
177
     3
291
     1
 70
    58
 90
        2
176
     0
 90
        2
176
     0
 90
        0
176
     0
 90
        0
176
     0
 40
0.6
176
     0
 40
30.0
176
     0
 62
     7
420
 16777215
176
     0
 90
        1
176
     0
 90
        4
176
     0
 62
     7
176
     0
 62
   257
176
     0
 90
        1
176
     0
 90
        1
176
     0
 40
1.0
176
     0
 90
       10
176
     2
 62
     7
176
     0
 40
1.0
176
     0
 90
        1
176
     0
 90
        6
176
     0
 90
        2
176
     0
 62
     7
176
     0
 90
        5
176
     0
 90
        0
176
     0
 90
        0
176
     0
290
     0
176
     0
 90
        1
176
     0
 40
0.0
176
     0
 90
        0
176
     0
290
     0
176
     0
290
     1
176
     0
290
     1
176
     0
290
     0
176
     0
290
     0
176
     0
290
     0
176
     0
290
     0
176
     0
290
     0
176
     0
290
     0
176
     0
 90
       50
176
     0
 40
0.0
176
     0
 40
1.0
176
     0
 90
        0
176
     0
 62
    18
420
        0
176
     0
 90
       50
176
     0
 90
        3
176
     0
 62
     5
420
      255
176
     0
290
     0
176
     0
 90
       50
176
     0
 90
       50
176
     0
 90
       50
176
     0
290
     0
176
     0
 90
       50
176
     0
 62
   256
176
     0
 40
1.0
176
     0
 90
        2
176
     0
  1
strokes_ogs.tif
176
     0
290
     0
176
     0
 40
1.0
176
     0
 40
1.0
176
     0
  0
VISUALSTYLE
  5
A7
102
{ACAD_REACTORS
330
99
102
}
330
99
100
AcDbVisualStyle
  2
Linepattern
 70
    14
177
     3
291
     1
 70
    58
 90
        2
176
     1
 90
        2
176
     1
 90
        1
176
     1
 90
        0
176
     1
 40
0.6
176
     1
 40
30.0
176
     1
 62
     7
420
 16777215
176
     1
 90
        1
176
     1
 90
        4
176
     1
 62
     7
176
     1
 62
   257
176
     1
 90
        7
176
     1
 90
        7
176
     1
 40
1.0
176
     1
 90
        8
176
     1
 62
     7
176
     1
 40
1.0
176
     1
 90
        1
176
     1
 90
        6
176
     1
 90
        2
176
     1
 62
     7
176
     1
 90
        5
176
     1
 90
        0
176
     1
 90
        0
176
     1
290
     0
176
     1
 90
        1
176
     1
 40
0.0
176
     1
 90
        0
176
     1
290
     0
176
     1
290
     1
176
     1
290
     1
176
     1
290
     0
176
     1
290
     0
176
     1
290
     0
176
     1
290
     0
176
     1
290
     0
176
     1
290
     0
176
     1
 90
       50
176
     1
 40
0.0
176
     1
 40
1.0
176
     1
 90
        0
176
     1
 62
    18
420
        0
176
     1
 90
       50
176
     1
 90
        3
176
     1
 62
     5
420
      255
176
     1
290
     0
176
     1
 90
       50
176
     1
 90
       50
176
     1
 90
       50
176
     1
290
     0
176
     1
 90
       50
176
     1
 62
   256
176
     0
 40
1.0
176
     0
 90
        2
176
     1
  1
strokes_ogs.tif
176
     1
290
     0
176
     1
 40
1.0
176
     1
 40
1.0
176
     1
  0
VISUALSTYLE
  5
E6
102
{ACAD_REACTORS
330
99
102
}
330
99
100
AcDbVisualStyle
  2
OverhangOff
 70
    21
177
     3
291
     1
 70
    58
 90
        2
176
     0
 90
        2
176
     0
 90
        0
176
     0
 90
        0
176
     0
 40
0.6
176
     0
 40
30.0
176
     0
 62
     7
420
 16777215
176
     0
 90
        1
176
     0
 90
        4
176
     0
 62
     7
176
     0
 62
   257
176
     0
 90
        1
176
     0
 90
        1
176
     0
 40
1.0
176
     0
 90
        9
176
     2
 62
     7
176
     0
 40
1.0
176
     0
 90
        1
176
     0
 90
        6
176
     0
 90
        2
176
     0
 62
     7
176
     0
 90
        5
176
     0
 90
        0
176
     0
 90
        0
176
     0
290
     0
176
     0
 90
        1
176
     0
 40
0.0
176
     0
 90
        0
176
     0
290
     0
176
     0
290
     1
176
     0
290
     1
176
     0
290
     0
176
     0
290
     0
176
     0
290
     0
176
     0
290
     0
176
     0
290
     0
176
     0
290
     0
176
     0
 90
       50
176
     0
 40
0.0
176
     0
 40
1.0
176
     0
 90
        0
176
     0
 62
    18
420
        0
176
     0
 90
       50
176
     0
 90
        3
176
     0
 62
     5
420
      255
176
     0
290
     0
176
     0
 90
       50
176
     0
 90
       50
176
     0
 90
       50
176
     0
290
     0
176
     0
 90
       50
176
     0
 62
   256
176
     0
 40
1.0
176
     0
 90
        2
176
     0
  1
strokes_ogs.tif
176
     0
290
     0
176
     0
 40
1.0
176
     0
 40
1.0
176
     0
  0
VISUALSTYLE
  5
A3
102
{ACAD_REACTORS
330
99
102
}
330
99
100
AcDbVisualStyle
  2
Realistic
 70
     8
177
     3
291
     0
 70
    58
 90
        2
176
     1
 90
        2
176
     1
 90
        1
176
     1
 90
        0
176
     1
 40
0.6
176
     1
 40
30.0
176
     1
 62
     7
420
 16777215
176
     1
 90
        1
176
     1
 90
        0
176
     1
 62
     7
176
     1
 62
   257
176
     1
 90
        1
176
     1
 90
        1
176
     1
 40
1.0
176
     1
 90
        8
176
     1
 62
     8
420
  7895160
176
     1
 40
1.0
176
     1
 90
        1
176
     1
 90
        6
176
     1
 90
        2
176
     1
 62
     7
176
     1
 90
        5
176
     1
 90
        0
176
     1
 90
        0
176
     1
290
     0
176
     1
 90
       13
176
     1
 40
0.0
176
     1
 90
        0
176
     1
290
     0
176
     1
290
     1
176
     1
290
     1
176
     1
290
     0
176
     1
290
     0
176
     1
290
     0
176
     1
290
     0
176
     1
290
     0
176
     1
290
     0
176
     1
 90
       50
176
     1
 40
0.0
176
     1
 40
1.0
176
     1
 90
        0
176
     1
 62
    18
420
        0
176
     1
 90
       50
176
     1
 90
        3
176
     1
 62
     5
420
      255
176
     1
290
     0
176
     1
 90
       50
176
     1
 90
       50
176
     1
 90
       50
176
     1
290
     0
176
     1
 90
       50
176
     1
 62
   256
176
     0
 40
1.0
176
     0
 90
        2
176
     1
  1
strokes_ogs.tif
176
     1
290
     0
176
     1
 40
1.0
176
     1
 40
1.0
176
     1
  0
VISUALSTYLE
  5
EC
102
{ACAD_REACTORS
330
99
102
}
330
99
100
AcDbVisualStyle
  2
Shaded
 70
    27
177
     3
291
     0
 70
    58
 90
        2
176
     1
 90
        2
176
     1
 90
        1
176
     1
 90
        2
176
     1
 40
0.6
176
     1
 40
30.0
176
     1
 62
     7
420
 16777215
176
     1
 90
        0
176
     1
 90
        4
176
     1
 62
     7
176
     1
 62
   257
176
     1
 90
        1
176
     1
 90
        1
176
     1
 40
1.0
176
     1
 90
        8
176
     1
 62
   257
176
     1
 40
1.0
176
     1
 90
        1
176
     1
 90
        6
176
     1
 90
        2
176
     1
 62
     8
420
  7895160
176
     1
 90
        3
176
     1
 90
        0
176
     1
 90
        0
176
     1
290
     0
176
     1
 90
        5
176
     1
 40
0.0
176
     1
 90
        0
176
     1
290
     0
176
     1
290
     1
176
     1
290
     1
176
     1
290
     0
176
     1
290
     0
176
     1
290
     0
176
     1
290
     0
176
     1
290
     0
176
     1
290
     0
176
     1
 90
       50
176
     1
 40
0.0
176
     1
 40
1.0
176
     1
 90
        0
176
     1
 62
    18
420
        0
176
     1
 90
       50
176
     1
 90
        3
176
     1
 62
     5
420
      255
176
     1
290
     0
176
     1
 90
       50
176
     1
 90
       50
176
     1
 90
       50
176
     1
290
     0
176
     1
 90
       50
176
     1
 62
   256
176
     0
 40
1.0
176
     0
 90
        2
176
     1
  1
strokes_ogs.tif
176
     1
290
     0
176
     1
 40
1.0
176
     1
 40
1.0
176
     1
  0
VISUALSTYLE
  5
EB
102
{ACAD_REACTORS
330
99
102
}
330
99
100
AcDbVisualStyle
  2
Shaded with edges
 70
    26
177
     3
291
     0
 70
    58
 90
        2
176
     1
 90
        2
176
     1
 90
        1
176
     1
 90
        2
176
     1
 40
0.6
176
     1
 40
30.0
176
     1
 62
     7
420
 16777215
176
     1
 90
        1
176
     1
 90
        2
176
     1
 62
     7
176
     1
 62
   257
176
     1
 90
        2
176
     1
 90
        1
176
     1
 40
1.0
176
     1
 90
        8
176
     1
 62
   257
176
     1
 40
1.0
176
     1
 90
        1
176
     1
 90
        6
176
     1
 90
        2
176
     1
 62
     7
176
     1
 90
        3
176
     1
 90
        0
176
     1
 90
        0
176
     1
290
     0
176
     1
 90
        5
176
     1
 40
0.0
176
     1
 90
        0
176
     1
290
     0
176
     1
290
     1
176
     1
290
     1
176
     1
290
     0
176
     1
290
     0
176
     1
290
     0
176
     1
290
     0
176
     1
290
     0
176
     1
290
     0
176
     1
 90
       50
176
     1
 40
0.0
176
     1
 40
1.0
176
     1
 90
        0
176
     1
 62
    18
420
        0
176
     1
 90
       50
176
     1
 90
        3
176
     1
 62
     5
420
      255
176
     1
290
     0
176
     1
 90
       50
176
     1
 90
       50
176
     1
 90
       50
176
     1
290
     0
176
     1
 90
       50
176
     1
 62
   256
176
     0
 40
1.0
176
     0
 90
        2
176
     1
  1
strokes_ogs.tif
176
     1
290
     0
176
     1
 40
1.0
176
     1
 40
1.0
176
     1
  0
VISUALSTYLE
  5
E8
102
{ACAD_REACTORS
330
99
102
}
330
99
100
AcDbVisualStyle
  2
Shades of Gray
 70
    23
177
     3
291
     0
 70
    58
 90
        2
176
     1
 90
        2
176
     1
 90
        3
176
     1
 90
        0
176
     1
 40
0.6
176
     1
 40
30.0
176
     1
 62
     7
420
 16777215
176
     1
 90
        2
176
     1
 90
        2
176
     1
 62
     7
176
     1
 62
     7
176
     1
 90
        1
176
     1
 90
        1
176
     1
 40
40.0
176
     1
 90
        8
176
     1
 62
     7
176
     1
 40
1.0
176
     1
 90
        1
176
     1
 90
        6
176
     1
 90
        2
176
     1
 62
     7
176
     1
 90
        3
176
     1
 90
        0
176
     1
 90
        0
176
     1
290
     0
176
     1
 90
        1
176
     1
 40
0.0
176
     1
 90
        0
176
     1
290
     0
176
     1
290
     1
176
     1
290
     1
176
     1
290
     0
176
     1
290
     0
176
     1
290
     0
176
     1
290
     0
176
     1
290
     0
176
     1
290
     0
176
     1
 90
       50
176
     1
 40
0.0
176
     1
 40
1.0
176
     1
 90
        0
176
     1
 62
    18
420
        0
176
     1
 90
       50
176
     1
 90
        3
176
     1
 62
     5
420
      255
176
     1
290
     0
176
     1
 90
       50
176
     1
 90
       50
176
     1
 90
       50
176
     1
290
     0
176
     1
 90
       50
176
     1
 62
   256
176
     0
 40
1.0
176
     0
 90
        2
176
     1
  1
strokes_ogs.tif
176
     1
290
     0
176
     1
 40
1.0
176
     1
 40
1.0
176
     1
  0
VISUALSTYLE
  5
E9
102
{ACAD_REACTORS
330
99
102
}
330
99
100
AcDbVisualStyle
  2
Sketchy
 70
    24
177
     3
291
     0
 70
    58
 90
        1
176
     1
 90
        2
176
     1
 90
        2
176
     1
 90
        0
176
     1
 40
0.6
176
     1
 40
30.0
176
     1
 62
     7
420
 16777215
176
     1
 90
        2
176
     1
 90
        2
176
     1
 62
     7
176
     1
 62
     7
176
     1
 90
        1
176
     1
 90
        1
176
     1
 40
40.0
176
     1
 90
       11
176
     1
 62
     7
176
     1
 40
1.0
176
     1
 90
        1
176
     1
 90
        6
176
     1
 90
        2
176
     1
 62
     7
176
     1
 90
        6
176
     1
 90
        0
176
     1
 90
        0
176
     1
290
     0
176
     1
 90
        1
176
     1
 40
0.0
176
     1
 90
        0
176
     1
290
     0
176
     1
290
     1
176
     1
290
     1
176
     1
290
     0
176
     1
290
     0
176
     1
290
     0
176
     1
290
     0
176
     1
290
     0
176
     1
290
     0
176
     1
 90
       50
176
     1
 40
0.0
176
     1
 40
1.0
176
     1
 90
        0
176
     1
 62
    18
420
        0
176
     1
 90
       50
176
     1
 90
        3
176
     1
 62
     5
420
      255
176
     1
290
     0
176
     1
 90
       50
176
     1
 90
       50
176
     1
 90
       50
176
     1
290
     0
176
     1
 90
       50
176
     1
 62
   256
176
     0
 40
1.0
176
     0
 90
        2
176
     1
  1
strokes_ogs.tif
176
     1
290
     0
176
     1
 40
1.0
176
     1
 40
1.0
176
     1
  0
VISUALSTYLE
  5
A6
102
{ACAD_REACTORS
330
99
102
}
330
99
100
AcDbVisualStyle
  2
Thicken
 70
    13
177
     3
291
     1
 70
    58
 90
        2
176
     1
 90
        2
176
     1
 90
        1
176
     1
 90
        0
176
     1
 40
0.6
176
     1
 40
30.0
176
     1
 62
     7
420
 16777215
176
     1
 90
        1
176
     1
 90
        4
176
     1
 62
     7
176
     1
 62
   257
176
     1
 90
        1
176
     1
 90
        1
176
     1
 40
1.0
176
     1
 90
       12
176
     1
 62
     7
176
     1
 40
1.0
176
     1
 90
        1
176
     1
 90
        6
176
     1
 90
        2
176
     1
 62
     7
176
     1
 90
        5
176
     1
 90
        0
176
     1
 90
        0
176
     1
290
     0
176
     1
 90
        1
176
     1
 40
0.0
176
     1
 90
        0
176
     1
290
     0
176
     1
290
     1
176
     1
290
     1
176
     1
290
     0
176
     1
290
     0
176
     1
290
     0
176
     1
290
     0
176
     1
290
     0
176
     1
290
     0
176
     1
 90
       50
176
     1
 40
0.0
176
     1
 40
1.0
176
     1
 90
        0
176
     1
 62
    18
420
        0
176
     1
 90
       50
176
     1
 90
        3
176
     1
 62
     5
420
      255
176
     1
290
     0
176
     1
 90
       50
176
     1
 90
       50
176
     1
 90
       50
176
     1
290
     0
176
     1
 90
       50
176
     1
 62
   256
176
     0
 40
1.0
176
     0
 90
        2
176
     1
  1
strokes_ogs.tif
176
     1
290
     0
176
     1
 40
1.0
176
     1
 40
1.0
176
     1
  0
VISUALSTYLE
  5
E3
102
{ACAD_REACTORS
330
99
102
}
330
99
100
AcDbVisualStyle
  2
Wireframe
 70
     5
177
     3
291
     0
 70
    58
 90
        0
176
     1
 90
        2
176
     1
 90
        0
176
     1
 90
        0
176
     1
 40
0.6
176
     1
 40
30.0
176
     1
 62
     7
420
 16777215
176
     1
 90
        1
176
     1
 90
        4
176
     1
 62
     7
176
     1
 62
   257
176
     1
 90
        1
176
     1
 90
        1
176
     1
 40
1.0
176
     1
 90
        0
176
     1
 62
   257
176
     1
 40
1.0
176
     1
 90
        1
176
     1
 90
        6
176
     1
 90
        2
176
     1
 62
     7
176
     1
 90
        3
176
     1
 90
        0
176
     1
 90
        0
176
     1
290
     0
176
     1
 90
        1
176
     1
 40
0.0
176
     1
 90
        0
176
     1
290
     0
176
     1
290
     1
176
     1
290
     1
176
     1
290
     0
176
     1
290
     0
176
     1
290
     0
176
     1
290
     0
176
     1
290
     0
176
     1
290
     0
176
     1
 90
       50
176
     1
 40
0.0
176
     1
 40
1.0
176
     1
 90
        0
176
     1
 62
    18
420
        0
176
     1
 90
       50
176
     1
 90
        3
176
     1
 62
     5
420
      255
176
     1
290
     0
176
     1
 90
       50
176
     1
 90
       50
176
     1
 90
       50
176
     1
290
     0
176
     1
 90
       50
176
     1
 62
   256
176
     0
 40
1.0
176
     0
 90
        2
176
     1
  1
strokes_ogs.tif
176
     1
290
     0
176
     1
 40
1.0
176
     1
 40
1.0
176
     1
  0
VISUALSTYLE
  5
EA
102
{ACAD_REACTORS
330
99
102
}
330
99
100
AcDbVisualStyle
  2
X-Ray
 70
    25
177
     3
291
     0
 70
    58
 90
        2
176
     1
 90
        2
176
     1
 90
        1
176
     1
 90
        1
176
     1
 40
0.5
176
     1
 40
30.0
176
     1
 62
     7
420
 16777215
176
     1
 90
        1
176
     1
 90
        0
176
     1
 62
     7
176
     1
 62
   257
176
     1
 90
        1
176
     1
 90
        1
176
     1
 40
1.0
176
     1
 90
        8
176
     1
 62
     7
176
     1
 40
1.0
176
     1
 90
        1
176
     1
 90
        6
176
     1
 90
        2
176
     1
 62
     7
176
     1
 90
        3
176
     1
 90
        0
176
     1
 90
        0
176
     1
290
     0
176
     1
 90
       13
176
     1
 40
0.0
176
     1
 90
        0
176
     1
290
     0
176
     1
290
     1
176
     1
290
     1
176
     1
290
     0
176
     1
290
     0
176
     1
290
     0
176
     1
290
     0
176
     1
290
     0
176
     1
290
     0
176
     1
 90
       50
176
     1
 40
0.0
176
     1
 40
1.0
176
     1
 90
        0
176
     1
 62
    18
420
        0
176
     1
 90
       50
176
     1
 90
        3
176
     1
 62
     5
420
      255
176
     1
290
     0
176
     1
 90
       50
176
     1
 90
       50
176
     1
 90
       50
176
     1
290
     0
176
     1
 90
       50
176
     1
 62
   256
176
     0
 40
1.0
176
     0
 90
        2
176
     1
  1
strokes_ogs.tif
176
     1
290
     0
176
     1
 40
1.0
176
     1
 40
1.0
176
     1
  0
DICTIONARYVAR
  5
D8
102
{ACAD_REACTORS
330
66
102
}
330
66
100
DictionaryVariables
280
     0
  1
1:1
  0
DICTIONARYVAR
  5
128
102
{ACAD_REACTORS
330
66
102
}
330
66
100
DictionaryVariables
280
     0
  1
Standard
  0
DICTIONARYVAR
  5
89
102
{ACAD_REACTORS
330
66
102
}
330
66
100
DictionaryVariables
280
     0
  1
Standard
  0
DICTIONARYVAR
  5
223
102
{ACAD_REACTORS
330
66
102
}
330
66
100
DictionaryVariables
280
     0
  1
Imperial24
  0
DICTIONARYVAR
  5
224
102
{ACAD_REACTORS
330
66
102
}
330
66
100
DictionaryVariables
280
     0
  1
Imperial24
  0
DICTIONARYVAR
  5
67
102
{ACAD_REACTORS
330
66
102
}
330
66
100
DictionaryVariables
280
     0
  1
2
  0
DICTIONARYVAR
  5
6B
102
{ACAD_REACTORS
330
66
102
}
330
66
100
DictionaryVariables
280
     0
  1
1
  0
DICTIONARYVAR
  5
DF
102
{ACAD_REACTORS
330
66
102
}
330
66
100
DictionaryVariables
280
     0
  1
0
  0
DICTIONARYVAR
  5
E0
102
{ACAD_REACTORS
330
66
102
}
330
66
100
DictionaryVariables
280
     0
  1
0
  0
XRECORD
  5
2190
102
{ACAD_REACTORS
330
27C
102
}
330
27C
100
AcDbXrecord
280
     1
1000
ADE02C001
1070
     1
1070
     0
1002
{
1002
}
1002
{
1002
}
1002
{
1002
}
1000

  0
XRECORD
  5
281
102
{ACAD_REACTORS
330
280
102
}
330
280
100
AcDbXrecord
280
     1
  0
ACAD_PROXY_OBJECT
  5
23D
102
{ACAD_REACTORS
330
22B
102
}
330
22B
100
AcDbProxyObject
 90
      499
 91
      525
 71
    29
 97
       63
 70
     0
161
                10
310
4040
  0
DICTIONARY
  5
230
102
{ACAD_REACTORS
330
22B
102
}
330
22B
100
AcDbDictionary
280
     1
281
     1
  0
DATATABLE
  5
22F
102
{ACAD_REACTORS
330
22B
102
}
330
22B
100
AcDbDataTable
 70
     2
 90
        4
 91
       15
  1

 92
        3
  2
OriginalClassName
  3
AcMapDMDefaultStyle
  3
AcMapDMEntityStyle
  3
AcMapDMRasterStyle
  3
AcMapDMSEAnnotationStyle
  3
AcMapDMSEHatchStyle
  3
AcMapDMSETextStyle
  3
AcMapDMThematicStyle
  3
AcMapDMBaseElement
  3
AcMapDMAttachedDwgsQueryElement
  3
AcMapDMFeatureElement
  3
AcMapDMLayerElement
  3
AcMapDMCurrentDwgQueryElement
  3
AcMapDMRasterElement
  3
AcMapDMTopoElement
  3
AcMapDMTopoQueryElement
 92
        3
  2
ProxyDisplayName
  3
Default
  3
Entity
  3
Raster
  3
Annotation
  3
Hatch
  3
Text
  3
Thematic
  3
Map Base
  3
Ade Query
  3
Feature Class
  3
Layer
  3
Ade Project Query
  3
Raster
  3
Topology
  3
Topology Query
 92
        1
  2
CustomObjectType
 93
        2
 93
        2
 93
        2
 93
        2
 93
        2
 93
        2
 93
        2
 93
        1
 93
        1
 93
        1
 93
        1
 93
        1
 93
        1
 93
        1
 93
        1
 92
        1
  2
StyleCoExistanceType
 93
        1
 93
        1
 93
        1
 93
        1
 93
        1
 93
        1
 93
        2
 93
        0
 93
        0
 93
        0
 93
        0
 93
        0
 93
        0
 93
        0
 93
        0
  0
ACAD_PROXY_OBJECT
  5
22C
102
{ACAD_REACTORS
330
22B
102
}
330
22B
100
AcDbProxyObject
 90
      499
 91
      515
 71
    29
 97
       63
 70
     0
162
               186
311
42D1001A401CC01C001B0018401E40134018401C000C4000
161
                38
310
4050100404
350
232
340
232
340
232
 94
        0
  0
ACAD_PROXY_OBJECT
  5
22D
102
{ACAD_REACTORS
330
22B
102
}
330
22B
100
AcDbProxyObject
 90
      499
 91
      516
 71
    29
 97
       63
 70
     0
161
                20
310
405010
360
22E
 94
        0
  0
DICTIONARY
  5
23E
102
{ACAD_REACTORS
330
22B
102
}
330
22B
100
AcDbDictionary
281
     1
  0
DICTIONARYVAR
  5
12B
102
{ACAD_REACTORS
330
129
102
}
330
129
100
DictionaryVariables
280
     0
  1
1
  0
DICTIONARY
  5
221
330
1E9
100
AcDbDictionary
280
     1
281
     1
  0
DICTIONARY
  5
21F
330
1E8
100
AcDbDictionary
280
     1
281
     1
  0
DICTIONARY
  5
2198
330
234
100
AcDbDictionary
280
     1
281
     1
  3
ACAD_ROUNDTRIP_2008_TABLESTYLE_CELLSTYLEMAP
360
2199
  0
DICTIONARY
  5
219A
330
87
100
AcDbDictionary
280
     1
281
     1
  3
ACAD_ROUNDTRIP_2008_TABLESTYLE_CELLSTYLEMAP
360
219B
  0
ACAD_PROXY_OBJECT
  5
232
102
{ACAD_REACTORS
330
22C
330
235
102
}
330
22C
100
AcDbProxyObject
 90
      499
 91
      520
 71
    29
 97
       63
 70
     0
162
               230
311
41D1001940198018401D401B001D001064C006500670065006E0064008
161
               572
310
4050140501404FFFFFFFFFFFFEF7FA0B1FFFFFFFFFFFFDEFFA00000000000004202027FFFFFFFFFFFF7BF9C11FC7350DBE328A02D0000000000201190000000000008046404A1010
330
0
360
235
360
236
 94
        0
  0
ACAD_PROXY_OBJECT
  5
22E
102
{ACAD_REACTORS
330
22D
102
}
330
22D
100
AcDbProxyObject
 90
      499
 91
      517
 71
    29
 97
       63
 70
     0
162
               234
311
4391001A401CC01C001B0018401E40080014C01D001E401B0019401CC000
161
                12
310
4060
  0
CELLSTYLEMAP
  5
2199
102
{ACAD_REACTORS
330
2198
102
}
330
2198
100
AcDbCellStyleMap
 90
        3
300
CELLSTYLE
  1
TABLEFORMAT_BEGIN
 90
        5
170
     1
 91
        0
 92
    32768
 62
   257
 93
        1
300
CONTENTFORMAT
  1
CONTENTFORMAT_BEGIN
 90
        0
 91
        0
 92
      512
 93
        0
300

 40
0.0
140
1.0
 94
        5
 62
     0
340
233
144
0.5
309
CONTENTFORMAT_END
171
     0
 94
        6
 95
        1
302
GRIDFORMAT
  1
GRIDFORMAT_BEGIN
 90
        0
 91
        1
 62
     0
 92
       -2
340
0
 93
        1
 40
0.045
309
GRIDFORMAT_END
 95
        2
302
GRIDFORMAT
  1
GRIDFORMAT_BEGIN
 90
        0
 91
        1
 62
     0
 92
       -2
340
0
 93
        1
 40
0.045
309
GRIDFORMAT_END
 95
        4
302
GRIDFORMAT
  1
GRIDFORMAT_BEGIN
 90
        0
 91
        1
 62
     0
 92
       -2
340
0
 93
        1
 40
0.045
309
GRIDFORMAT_END
 95
        8
302
GRIDFORMAT
  1
GRIDFORMAT_BEGIN
 90
        0
 91
        1
 62
     0
 92
       -2
340
0
 93
        1
 40
0.045
309
GRIDFORMAT_END
 95
       16
302
GRIDFORMAT
  1
GRIDFORMAT_BEGIN
 90
        0
 91
        1
 62
     0
 92
       -2
340
0
 93
        1
 40
0.045
309
GRIDFORMAT_END
 95
       32
302
GRIDFORMAT
  1
GRIDFORMAT_BEGIN
 90
        0
 91
        1
 62
     0
 92
       -2
340
0
 93
        1
 40
0.045
309
GRIDFORMAT_END
309
TABLEFORMAT_END
  1
CELLSTYLE_BEGIN
 90
        1
 91
        1
300
_TITLE
309
CELLSTYLE_END
300
CELLSTYLE
  1
TABLEFORMAT_BEGIN
 90
        5
170
     1
 91
        0
 92
        0
 62
   257
 93
        1
300
CONTENTFORMAT
  1
CONTENTFORMAT_BEGIN
 90
        0
 91
        0
 92
      512
 93
        0
300

 40
0.0
140
1.0
 94
        4
 62
     0
340
233
144
0.4
309
CONTENTFORMAT_END
171
     0
 94
        6
 95
        1
302
GRIDFORMAT
  1
GRIDFORMAT_BEGIN
 90
        0
 91
        1
 62
     0
 92
       -2
340
0
 93
        1
 40
0.045
309
GRIDFORMAT_END
 95
        2
302
GRIDFORMAT
  1
GRIDFORMAT_BEGIN
 90
        0
 91
        1
 62
     0
 92
       -2
340
0
 93
        1
 40
0.045
309
GRIDFORMAT_END
 95
        4
302
GRIDFORMAT
  1
GRIDFORMAT_BEGIN
 90
        0
 91
        1
 62
     0
 92
       -2
340
0
 93
        1
 40
0.045
309
GRIDFORMAT_END
 95
        8
302
GRIDFORMAT
  1
GRIDFORMAT_BEGIN
 90
        0
 91
        1
 62
     0
 92
       -2
340
0
 93
        1
 40
0.045
309
GRIDFORMAT_END
 95
       16
302
GRIDFORMAT
  1
GRIDFORMAT_BEGIN
 90
        0
 91
        1
 62
     0
 92
       -2
340
0
 93
        1
 40
0.045
309
GRIDFORMAT_END
 95
       32
302
GRIDFORMAT
  1
GRIDFORMAT_BEGIN
 90
        0
 91
        1
 62
     0
 92
       -2
340
0
 93
        1
 40
0.045
309
GRIDFORMAT_END
309
TABLEFORMAT_END
  1
CELLSTYLE_BEGIN
 90
        2
 91
        1
300
_HEADER
309
CELLSTYLE_END
300
CELLSTYLE
  1
TABLEFORMAT_BEGIN
 90
        5
170
     1
 91
        0
 92
        0
 62
   257
 93
        1
300
CONTENTFORMAT
  1
CONTENTFORMAT_BEGIN
 90
        0
 91
        0
 92
      512
 93
        0
300

 40
0.0
140
1.0
 94
        4
 62
     0
340
233
144
0.4
309
CONTENTFORMAT_END
171
     0
 94
        6
 95
        1
302
GRIDFORMAT
  1
GRIDFORMAT_BEGIN
 90
        0
 91
        1
 62
     0
 92
       -2
340
0
 93
        1
 40
0.045
309
GRIDFORMAT_END
 95
        2
302
GRIDFORMAT
  1
GRIDFORMAT_BEGIN
 90
        0
 91
        1
 62
     0
 92
       -2
340
0
 93
        1
 40
0.045
309
GRIDFORMAT_END
 95
        4
302
GRIDFORMAT
  1
GRIDFORMAT_BEGIN
 90
        0
 91
        1
 62
     0
 92
       -2
340
0
 93
        1
 40
0.045
309
GRIDFORMAT_END
 95
        8
302
GRIDFORMAT
  1
GRIDFORMAT_BEGIN
 90
        0
 91
        1
 62
     0
 92
       -2
340
0
 93
        1
 40
0.045
309
GRIDFORMAT_END
 95
       16
302
GRIDFORMAT
  1
GRIDFORMAT_BEGIN
 90
        0
 91
        1
 62
     0
 92
       -2
340
0
 93
        1
 40
0.045
309
GRIDFORMAT_END
 95
       32
302
GRIDFORMAT
  1
GRIDFORMAT_BEGIN
 90
        0
 91
        1
 62
     0
 92
       -2
340
0
 93
        1
 40
0.045
309
GRIDFORMAT_END
309
TABLEFORMAT_END
  1
CELLSTYLE_BEGIN
 90
        3
 91
        2
300
_DATA
309
CELLSTYLE_END
  0
CELLSTYLEMAP
  5
219B
102
{ACAD_REACTORS
330
219A
102
}
330
219A
100
AcDbCellStyleMap
 90
        3
300
CELLSTYLE
  1
TABLEFORMAT_BEGIN
 90
        5
170
     1
 91
        0
 92
    32768
 62
   257
 93
        1
300
CONTENTFORMAT
  1
CONTENTFORMAT_BEGIN
 90
        0
 91
        0
 92
      512
 93
        0
300

 40
0.0
140
1.0
 94
        5
 62
     0
340
11
144
0.25
309
CONTENTFORMAT_END
171
     0
 94
        6
 95
        1
302
GRIDFORMAT
  1
GRIDFORMAT_BEGIN
 90
        0
 91
        1
 62
     0
 92
       -2
340
0
 93
        0
 40
0.045
309
GRIDFORMAT_END
 95
        2
302
GRIDFORMAT
  1
GRIDFORMAT_BEGIN
 90
        0
 91
        1
 62
     0
 92
       -2
340
0
 93
        0
 40
0.045
309
GRIDFORMAT_END
 95
        4
302
GRIDFORMAT
  1
GRIDFORMAT_BEGIN
 90
        0
 91
        1
 62
     0
 92
       -2
340
0
 93
        0
 40
0.045
309
GRIDFORMAT_END
 95
        8
302
GRIDFORMAT
  1
GRIDFORMAT_BEGIN
 90
        0
 91
        1
 62
     0
 92
       -2
340
0
 93
        0
 40
0.045
309
GRIDFORMAT_END
 95
       16
302
GRIDFORMAT
  1
GRIDFORMAT_BEGIN
 90
        0
 91
        1
 62
     0
 92
       -2
340
0
 93
        0
 40
0.045
309
GRIDFORMAT_END
 95
       32
302
GRIDFORMAT
  1
GRIDFORMAT_BEGIN
 90
        0
 91
        1
 62
     0
 92
       -2
340
0
 93
        0
 40
0.045
309
GRIDFORMAT_END
309
TABLEFORMAT_END
  1
CELLSTYLE_BEGIN
 90
        1
 91
        1
300
_TITLE
309
CELLSTYLE_END
300
CELLSTYLE
  1
TABLEFORMAT_BEGIN
 90
        5
170
     1
 91
        0
 92
        0
 62
   257
 93
        1
300
CONTENTFORMAT
  1
CONTENTFORMAT_BEGIN
 90
        0
 91
        0
 92
      512
 93
        0
300

 40
0.0
140
1.0
 94
        5
 62
     0
340
11
144
0.18
309
CONTENTFORMAT_END
171
     0
 94
        6
 95
        1
302
GRIDFORMAT
  1
GRIDFORMAT_BEGIN
 90
        0
 91
        1
 62
     0
 92
       -2
340
0
 93
        0
 40
0.045
309
GRIDFORMAT_END
 95
        2
302
GRIDFORMAT
  1
GRIDFORMAT_BEGIN
 90
        0
 91
        1
 62
     0
 92
       -2
340
0
 93
        0
 40
0.045
309
GRIDFORMAT_END
 95
        4
302
GRIDFORMAT
  1
GRIDFORMAT_BEGIN
 90
        0
 91
        1
 62
     0
 92
       -2
340
0
 93
        0
 40
0.045
309
GRIDFORMAT_END
 95
        8
302
GRIDFORMAT
  1
GRIDFORMAT_BEGIN
 90
        0
 91
        1
 62
     0
 92
       -2
340
0
 93
        0
 40
0.045
309
GRIDFORMAT_END
 95
       16
302
GRIDFORMAT
  1
GRIDFORMAT_BEGIN
 90
        0
 91
        1
 62
     0
 92
       -2
340
0
 93
        0
 40
0.045
309
GRIDFORMAT_END
 95
       32
302
GRIDFORMAT
  1
GRIDFORMAT_BEGIN
 90
        0
 91
        1
 62
     0
 92
       -2
340
0
 93
        0
 40
0.045
309
GRIDFORMAT_END
309
TABLEFORMAT_END
  1
CELLSTYLE_BEGIN
 90
        2
 91
        1
300
_HEADER
309
CELLSTYLE_END
300
CELLSTYLE
  1
TABLEFORMAT_BEGIN
 90
        5
170
     1
 91
        0
 92
        0
 62
   257
 93
        1
300
CONTENTFORMAT
  1
CONTENTFORMAT_BEGIN
 90
        0
 91
        0
 92
      512
 93
        0
300

 40
0.0
140
1.0
 94
        2
 62
     0
340
11
144
0.18
309
CONTENTFORMAT_END
171
     0
 94
        6
 95
        1
302
GRIDFORMAT
  1
GRIDFORMAT_BEGIN
 90
        0
 91
        1
 62
     0
 92
       -2
340
0
 93
        0
 40
0.045
309
GRIDFORMAT_END
 95
        2
302
GRIDFORMAT
  1
GRIDFORMAT_BEGIN
 90
        0
 91
        1
 62
     0
 92
       -2
340
0
 93
        0
 40
0.045
309
GRIDFORMAT_END
 95
        4
302
GRIDFORMAT
  1
GRIDFORMAT_BEGIN
 90
        0
 91
        1
 62
     0
 92
       -2
340
0
 93
        0
 40
0.045
309
GRIDFORMAT_END
 95
        8
302
GRIDFORMAT
  1
GRIDFORMAT_BEGIN
 90
        0
 91
        1
 62
     0
 92
       -2
340
0
 93
        0
 40
0.045
309
GRIDFORMAT_END
 95
       16
302
GRIDFORMAT
  1
GRIDFORMAT_BEGIN
 90
        0
 91
        1
 62
     0
 92
       -2
340
0
 93
        0
 40
0.045
309
GRIDFORMAT_END
 95
       32
302
GRIDFORMAT
  1
GRIDFORMAT_BEGIN
 90
        0
 91
        1
 62
     0
 92
       -2
340
0
 93
        0
 40
0.045
309
GRIDFORMAT_END
309
TABLEFORMAT_END
  1
CELLSTYLE_BEGIN
 90
        3
 91
        2
300
_DATA
309
CELLSTYLE_END
  0
ACAD_PROXY_OBJECT
  5
235
102
{ACAD_REACTORS
330
232
102
}
102
{ACAD_XDICTIONARY
360
239
102
}
330
232
100
AcDbProxyObject
 90
      499
 91
      521
 71
    29
 97
       63
 70
     0
162
               142
311
42134018401C000800108018401CC0194028
161
               148
310
4050140902404FFFFFFFFFFFFEF7FA03405010
330
232
360
238
 94
        0
  0
ACAD_PROXY_OBJECT
  5
236
102
{ACAD_REACTORS
330
232
102
}
330
232
100
AcDbProxyObject
 90
      499
 91
      522
 71
    29
 97
       63
 70
     0
162
               122
311
41D1001940198018401D401B001D0000
161
                40
310
4050140592
1001
AcMapDMDisplayStyleRegapp
1070
     2
1071
        1
1000
Default
1000

  0
DICTIONARY
  5
239
330
235
100
AcDbDictionary
280
     1
281
     1
  3
AcMapDMSurrogateStyleSets
360
23A
  0
ACAD_PROXY_OBJECT
  5
238
330
235
100
AcDbProxyObject
 90
      499
 91
      523
 71
    29
 97
       63
 70
     0
161
                11
310
4040
340
236
330
232
 94
        0
  0
ACAD_PROXY_OBJECT
  5
23A
102
{ACAD_REACTORS
330
239
102
}
330
239
100
AcDbProxyObject
 90
      499
 91
      524
 71
    29
 97
       63
 70
     0
162
               138
311
42134018401C000800108018401CC0194000
161
               110
310
405013FFFFFFFFFFFFBDFE80D018
330
238
 94
        0
  0
ENDSEC
  0
SECTION
  2
THUMBNAILIMAGE
 90
    34088
310
28000000000100008100000001000800000000000081000000000000000000000001000000000000FFFFFF00FFFFFF00C8C8C800FFFFFF00FFFFFF00FFFFFF00FFFFFF00FFFFFF00FFFFFF00FFFFFF00FFFFFF00330000006600000099000000CC000000FF00000000330000333300006633000099330000CC330000FF3300
310
0000660000336600006666000099660000CC660000FF66000000990000339900006699000099990000CC990000FF99000000CC000033CC000066CC000099CC0000CCCC0000FFCC000000FF000033FF000066FF000099FF0000CCFF0000FFFF000000003300330033006600330099003300CC003300FF003300003333003333
310
33006633330099333300CC333300FF33330000663300336633006666330099663300CC663300FF66330000993300339933006699330099993300CC993300FF99330000CC330033CC330066CC330099CC3300CCCC3300FFCC330000FF330033FF330066FF330099FF3300CCFF3300FFFF330000006600330066006600660099
310
006600CC006600FF00660000336600333366006633660099336600CC336600FF33660000666600336666006666660099666600CC666600FF66660000996600339966006699660099996600CC996600FF99660000CC660033CC660066CC660099CC6600CCCC6600FFCC660000FF660033FF660066FF660099FF6600CCFF6600
310
FFFF660000009900330099006600990099009900CC009900FF00990000339900333399006633990099339900CC339900FF33990000669900336699006666990099669900CC669900FF66990000999900339999006699990099999900CC999900FF99990000CC990033CC990066CC990099CC9900CCCC9900FFCC990000FF99
310
0033FF990066FF990099FF9900CCFF9900FFFF99000000CC003300CC006600CC009900CC00CC00CC00FF00CC000033CC003333CC006633CC009933CC00CC33CC00FF33CC000066CC003366CC006666CC009966CC00CC66CC00FF66CC000099CC003399CC006699CC009999CC00CC99CC00FF99CC0000CCCC0033CCCC0066CC
310
CC0099CCCC00CCCCCC00FFCCCC0000FFCC0033FFCC0066FFCC0099FFCC00CCFFCC00FFFFCC000000FF003300FF006600FF009900FF00CC00FF00FF00FF000033FF003333FF006633FF009933FF00CC33FF00FF33FF000066FF003366FF006666FF009966FF00CC66FF00FF66FF000099FF003399FF006699FF009999FF00CC
310
99FF00FF99FF0000CCFF0033CCFF0066CCFF0099CCFF00CCCCFF00FFCCFF0000FFFF0033FFFF0066FFFF0099FFFF00CCFFFF0000000000FFFFFF000D0D0D001A1A1A00282828003535350043434300505050005D5D5D006B6B6B00787878008686860093939300A1A1A100AEAEAE00BBBBBB00C9C9C900D6D6D600E4E4E400
310
F1F1F10000000000FFFFFF00FFFFFF00FFFFFF00FFFFFF00FFFFFF00FFFFFF00FFFFFF00FFFFFF00FFFFFF00FFFFFF0000000000000000000000000000000000000000000000000000000000000000000000000000000000000000F500000000000000000000000000E1E1E1F4F3E1E1E1E1EC000000000000000000000000
310
000000000000000000000000000000000000000000000000000000000000000000000000000000000000000000000000000000000000F4E800000000000000000000E8E1ECE8F4E1E1000000000000000000000000000000000000000000000000EBE1E1E1F400000000000000000000000000000000000000000000000000
310
000000000000000000000000000000000000000000000000000000000000000000000000000000000000000000000000000000000000000000000000000000000000000000000000000000000000000000000000000000000000000000F500000000000000000000000000E1E1000000000000000000000000000000000000
310
00000000E10000000000000000000000000000000000000000000000000000000000000000000000000000000000000000000000000000000000000000000000000000000000000000E8F4000000000000000000000000000000000000000000000000ECE10000000000000000000000000000000000000000000000000000
310
0000000000000000000000000000000000000000000000000000000000000000000000000000000000000000000000000000000000000000000000000000000000000000000000000000000000000000000000000000000000000000000000F500000000000000000000000000E1E100000000000000000000000000000000
310
000000000000E1000000000000000000000000000000000000000000000000000000000000000000000000000000000000000000000000000000000000000000000000000000000000000000E8000000000000000000000000000000000000000000000000E8E1000000000000000000000000000000000000000000000000
310
00000000000000000000000000000000000000000000000000000000000000000000000000000000000000000000000000000000000000000000000000000000000000000000000000000000000000000000000000000000000000000000000000F500000000000000000000000000F3E10000000000000000000000000000
310
0000000000000000F4000000000000000000000000000000000000000000000000000000000000000000000000000000000000000000000000E8F4E1E1E8000000000000000000000000000000000000000000000000000000000000000000000000000000000000E100000000000000000000000000000000000000000000
310
000000000000000000000000000000000000000000000000000000000000000000000000000000000000000000000000000000000000000000000000000000000000000000000000000000000000000000000000000000000000000000000000000000F500000000000000000000000000ECE1000000000000000000000000
310
000000000000000000000000000000E8000000000000000000000000000000000000000000000000000000000000000000000000000000000000F4E1E1E1E1E800000000000000000000000000000000F400000000000000000000000000000000000000000000000000E10000000000000000000000000000000000000000
310
0000000000000000000000000000000000000000000000000000000000000000000000000000000000000000000000000000000000000000000000000000000000000000000000000000000000000000000000000000000000000000000000000000000000F5000000000000F4000000000000E8F400000000000000000000
310
000000000000000000000000E1E1E1E1E1E1F4000000000000000000000000000000000000000000000000000000000000000000000000000000000000000000E800000000000000000000000000000000E1E100000000000000000000000000000000000000000000000000E1F4F3F4000000000000000000000000000000
310
00000000000000000000000000000000000000000000000000000000000000000000000000000000000000000000000000000000000000000000000000000000000000000000000000000000000000000000000000000000000000000000000000000000000000F50000000000E8E1000000000000E1E1E1E1E1E1E1000000
310
0000000000000000000000000000E1E1E8E9E80000000000000000000000000000000000000000000000000000000000000000000000000000000000000000000000EC0000000000000000000000E1E1E1E1E1E1E100000000000000000000000000000000000000000000000000E1E1E1EB00000000000000000000000000
310
000000000000000000000000000000000000000000000000000000000000000000000000000000000000000000000000000000000000000000000000000000000000000000000000000000000000000000000000000000000000000000000000000000000000000000F50000000000E8E10000000000F3E1E1E1EBE8ECEB00
310
0000000000000000000000000000000000000000000000000000000000000000000000000000E80000000000000000000000000000000000000000000000000000000000EB0000000000000000000000E9E80000E8E1E100000000000000000000000000000000000000000000000000E1EC00000000000000000000000000
310
0000000000000000000000000000000000000000000000000000000000000000000000000000000000000000000000000000000000000000000000000000000000000000000000000000000000000000000000000000000000000000000000000000000000000000000000F5000000E1E1E1E1E100E80000E1E1E1E1E1E1F4
310
E1E1EB00F4E1E1EBEC00F4E1E1E800E1E1E1F3000000EB0000E8E1E1E1F3ECE80000E1E1E1E1E800ECE800F4E1E1E1E1E100000000E1E1E1E1E800000000000000F4EB00000000000000F4E1F40000000000000000E1E1E1E10000E8000000000000F4F3EBE9000000000000000000E8E8ECE1E80000000000000000000000
310
E1E1E1E1E800000000E800000000E8E80000000000F4E8E80000E800E800000000F4EB000000E1E1E1E1E1E100000000E80000000000E1E1E1E1E1000000E800000000000000000000000000000000000000000000000000000000000000000000000000000000000000000000F500000000EBF3E1F4E8E1E100E1E1E1E8EC
310
E800E800000000E8F4E8E1ECE8E1E1EB00ECF3E1F4000000F4000000F4F3F40000000000E8F4F3F4E80000000000E8F3F4F3EC00000000E8F3F4E80000000000000000F3EC00000000000000E8F3F40000000000000000F4F3F4E10000E80000000000EBE1E1E1EC0000000000000000E1E1E1E1E1E1EC0000E80000000000
310
0000F3F4E1E1E8000000000000000000E9E80000000000E1E1E1E1E1E1E1E1000000000000000000ECE1E1E1E1E100000000000000000000E8F3F4ECE80000000000000000000000000000000000000000000000000000000000000000000000000000000000000000000000000000F50000000000ECE10000000000E1E1E1
310
F4000000000000000000000000000000000000000000000000000000000000000000000000000000000000000000000000000000000000000000000000000000000000000000000000000000000000000000000000000000000000000000000000000000000000000000000000000000000000E8E900000000000000000000
310
000000000000000000000000000000000000000000000000000000E8E90000000000000000E8000000000000000000000000000000000000000000000000000000000000000000000000000000000000000000000000000000000000000000000000000000000000000000000000000000F5000000000000E800000000F3E1
310
E1E1E1E1EBE1EB0000000000000000000000000000000000000000000000000000000000000000000000000000000000000000000000000000000000000000000000000000000000000000000000000000000000000000000000000000000000000000EC000000000000000000000000000000000000000000000000000000
310
00000000000000000000000000000000000000000000000000000000000000000000000000000000000000000000000000000000000000000000000000000000000000000000000000000000000000000000000000000000000000000000000000000000000000000000000000000000000000F50000000000000000000000
310
F4E1E1E1E1E1E1E1E100000000000000000000000000000000000000000000000000000000000000000000000000000000000000000000000000000000000000000000000000000000000000000000000000000000000000000000000000000000000000000000000000000000000000000000000000000000000000000000
310
000000000000000000000000000000000000000000000000000000000000000000000000000000000000000000000000000000000000000000000000000000000000000000000000000000000000000000000000000000000000000000000000000000000000000000000000000000000000000000F5000000000000000000
310
000000E80000E8E1E1E1E80000000000000000000000000000000000000000000000000000000000000000000000000000000000000000000000000000000000000000000000000000000000000000000000000000000000000000000000000000000000000000000000000000000000000000000000000000000000000000
310
0000000000000000000000000000000000000000000000000000000000000000000000000000000000000000000000000000000000000000000000000000000000000000000000000000000000000000000000000000000000000000000000000000000000000000000000000000000000000000000000F500000000000000
310
000000000000000000F4E1E100000000000000000000000000000000000000000000000000000000000000000000000000000000000000000000000000000000000000000000000000000000000000000000000000000000000000000000000000000000000000000000000000000000000000000000000000000000000000
310
00000000000000000000000000000000000000000000000000000000000000000000000000000000000000000000000000000000000000000000000000000000000000000000000000000000000000000000000000000000000000000000000000000000000000000000000000000000000000000000000000F50000000000
310
000000000000000000000000E80000000000000000000000000000000000000000000000000000000000000000000000000000F4E80000000000000000000000000000000000000000000000000000000000000000000000000000000000000000000000000000000000000000000000000000000000000000000000000000
310
000000000000000000000000000000000000000000000000000000000000000000000000000000000000000000000000000000000000000000000000000000000000000000000000000000000000000000000000000000000000000000000000000000000000000000000000000000000000000000000000000000F5000000
310
000000000000000000000000000000000000000000000000000000000000000000000000000000000000000000000000000000E8E1F5E1E1E1F5F4E1E1E1E1E1E1E1EBE80000000000000000000000000000000000000000000000000000000000000000000000000000000000000000000000000000000000000000000000
310
0000000000000000000000000000000000000000000000000000000000000000000000000000000000000000000000000000000000000000000000000000000000000000000000000000000000000000000000000000000000000000000000000000000000000000000000000000000000000000000000000000000000F500
310
00000000000000000000000000000000000000000000000000000000000000000000000000000000000000000000000000000000F4F5F500F5F5F500F5F5F5F5F5F5F5F5F5F5F5F4F3F4E800000000000000000000000000000000000000000000000000000000000000000000000000000000000000000000000000000000
310
00000000000000000000000000000000000000000000000000000000000000000000000000000000000000000000000000000000000000000000000000000000000000000000000000000000000000000000000000000000000000000000000000000000000000000000000000000000000000000000000000000000000000
310
F500000000000000000000000000000000000000000000000000000000000000000000000000000000000000000000000000000000ECF5F30000000000000000F5F5F5F5F5F5F5E1EBF5F5F5F5E1E1EBE80000000000000000000000E1F4000000000000000000000000000000000000000000000000000000000000000000
310
00000000000000000000000000000000000000000000000000000000000000000000000000000000000000000000000000000000000000000000000000000000000000000000000000000000000000000000000000000000000000000000000000000000000000000000000000000000000000000000000000000000000000
310
0000F5000000000000000000000000000000000000000000000000000000000000000000000000000000000000000000000000000000F3F5EC000000000000000000F5F5F5F5F5F5F5E1EB00000000F5F5E1E1E1F40000000000000000EBE1E10000E8E800000000E800000000000000000000000000000000000000000000
310
00000000000000000000000000000000000000000000000000000000000000000000000000000000000000000000000000000000000000000000000000000000000000000000000000000000000000000000000000000000000000000000000000000000000000000000000000000000000000000000000000000000000000
310
00000000F50000000000000000000000000000000000000000000000000000000000000000000000000000000000000000000000000000F4F5F3E8ECE8E9F30000E80000F5F5F5F5F5F5F5E100000000000000F5F5F5F5E1E1E800000000F5F5F5F5F5F5F5F5E1F3E1F4E10000000000000000000000000000000000000000
310
00000000000000000000000000000000000000000000000000000000000000000000000000000000000000000000000000000000000000000000000000000000000000000000000000000000000000000000000000000000000000000000000000000000000000000000000000000000000000000000000000000000000000
310
000000000000F500000000000000000000000000000000000000000000000000000000000000000000000000000000000000000000000000F3F5E1E1F5F5F5F5F5F5F5F5F5E1E1E1EBE1E1E1E1F4E800000000000000000000F5F5E1E8000000F5F5F5F5F5F5F5F5E1E1E1E1E1000000000000000000000000000000000000
310
00000000000000000000000000000000000000000000000000000000000000000000000000000000000000000000000000000000000000000000000000000000000000000000000000000000000000000000000000000000000000000000000000000000000000000000000000000000000000000000000000000000000000
310
0000000000000000F5000000000000000000000000000000000000000000000000000000000000000000000000000000000000000000000000F4F5F5F5F5000000000000000000F5F5F5F5F5F5F5F5F5F5E1E1F3E1E1E1E1E1E1E1E1E1F5E1E1E8F4F5F5F5F5F5F5F5F5E1E1E1F4E100000000000000000000000000000000
310
00000000000000000000000000000000000000000000000000000000000000000000000000000000000000000000000000000000000000000000000000000000000000000000000000000000000000000000000000000000000000000000000000000000000000000000000000000000000000000000000000000000000000
310
00000000000000000000F50000000000000000000000000000000000000000000000000000000000000000000000000000000000000000000000F3F5EC00000000000000000000000000000000000000000000F5F5F5F5F5F5F5F5F5F5F5F5F5F5F5E1E1E800E1E1F50000000000E1E1E10000000000000000000000000000
310
0000000000000000000000000000000000000000000000000000000000000000000000000000E8F3E1E1E1E1F3E1E1E1E1E1E1E1EB000000000000000000EBEC00E8E80000F3E1E800000000000000000000000000000000000000000000000000000000000000000000000000000000000000000000000000000000000000
310
000000000000000000000000F500000000000000000000000000000000000000000000000000000000000000000000000000000000000000000000E8F5EB00000000000000000000000000000000000000000000000000000000000000000000000000F5F5E100000000F5000000000000E800000000000000000000000000
310
0000000000000000000000000000000000000000000000000000000000000000000000000000F4E1F5F5F5F5F5F5F5F5F5F5F5F5F5F5F5E1EB0000000000E800E1E1E1E1E1E1E1E1E1E10000000000000000000000000000000000000000000000000000000000000000000000000000000000000000000000000000000000
310
0000000000000000000000000000F5000000000000000000000000000000000000000000000000000000000000000000000000000000000000000000E8F5F40000000000000000000000000000000000E8E8000000000000000000000000000000000000000000F5E10000F500000000000000000000000000000000000000
310
00000000000000000000000000000000000000000000000000000000000000000000000000EBE1F5F5F50000F5F5F5F5F5F5F5E1E1E1E8E1E1F5E1E1EB00F4E1E1E1E1E1E1E1E1E1E1E1E1E1000000000000000000000000000000000000000000000000000000000000000000000000000000000000000000000000000000
310
00000000000000000000000000000000F50000000000000000000000000000000000000000000000000000000000000000000000000000000000000000F4E1F50000000000000000000000000000000000F5F5F5F5F5F5F5F5E1000000000000000000000000000000F5E1E100F50000000000000000000000000000000000
310
00000000000000000000000000000000000000000000000000000000000000000000000000F3E1F5F50000000000F5F5F5F5F5F5F5E1E1E1E1E1E100F5F5E1E1E1E1EBE9E1E1E1E1E8E1E1E1E1F400000000000000000000000000000000000000000000000000000000000000000000000000000000000000000000000000
310
000000000000000000000000000000000000F5000000000000000000000000000000000000000000000000000000000000000000000000000000000000E8E1E1F5000000000000000000000000000000000000F5F5F5F5F5F5F5F5E1EC000000000000000000000000000000F5E1F5E8000000000000000000000000000000
310
000000000000000000000000000000000000000000000000000000000000000000000000E8E1E1F5F500000000000000F5F5F5F5F5F5F5F4E1E1E1E1E1000000F5F5E1E1F300E1E1E1E80000E8E1E1F5F5F5F5F5F5F5F500000000000000000000000000000000000000000000000000000000000000000000000000000000
310
0000000000000000000000000000000000000000F50000000000000000000000000000000000000000000000000000000000000000000000000000000000F4E1F5F500000000000000000000000000000000000000F5F5F5F5F5F5F5F5E10000000000000000000000000000000000F5F5F5E1F3EC00000000000000000000
310
000000000000000000000000000000000000000000000000000000000000000000000000EBE1E1F5F5E1F4E1F4E1E1E1E1F4F5F5F5F5F5F5F5E8E8E9F3E1E1E80000ECF3F5F5E1E1E8F4F300000000E8ECF5F5F5F5F5F5F5F50000000000000000000000000000000000000000000000000000000000000000000000000000
310
00000000000000000000000000000000000000000000F5000000000000000000000000000000000000000000000000000000000000000000000000000000E8E1E1F5000000000000000000000000000000000000000000F5F5F5F5F5F5F5F5000000000000000000000000000000000000000000F5F5F5F5E1F4E800000000
310
00000000000000000000000000000000000000000000000000000000000000000000000000E1F5F5F5F5F5F5F5F5F5F5F5F5F5F5F5E1E1E1E1E1E1F5F5F5F5F5F5F5F5F5F5F5F5E1F5E1E10000000000000000F5F5F5F5F5F5F5F5000000000000000000000000000000000000000000000000000000000000000000000000
310
000000000000000000000000000000000000000000000000F500000000000000000000000000000000000000000000000000000000000000000000000000E8E1E1F5F5000000000000000000000000000000000000000000000000000000000000000000000000000000000000000000000000000000000000E8F5F5F5E1EB
310
00000000000000000000000000000000000000000000000000000000000000000000000000EBF5F5F50000000000000000000000000000F5F5F5F5F5F50000000000E8000000000000F5F5F5E1E100000000000000F5F5F5F5F5F5F5F500000000000000000000000000000000000000000000000000000000000000000000
310
0000000000000000000000000000000000000000000000000000F5000000000000000000000000000000000000000000000000000000000000000000000000F4E1F5F5000000000000000000000000000000000000000000000000000000000000000000000000000000000000000000000000000000000000000000000000
310
F5F5E10000000000000000000000000000000000000000000000000000000000000000000000F4F5F400000000000000000000000000000000000000000000000000000000000000000000000000F5E1E100000000000000000000F50000000000000000000000000000000000000000000000000000000000000000000000
310
00000000000000000000000000000000000000000000000000000000F50000000000000000000000000000000000000000000000000000000000000000000000E1F5F5000000000000000000000000000000000000000000000000000000000000000000000000000000000000000000000000000000000000000000000000
310
00000000F5F5F40000000000000000000000000000000000000000000000000000000000000000E1F5F5000000000000000000000000000000000000000000000000000000000000000000000000000000F5F5E10000000000000000F500000000000000000000000000000000000000000000000000000000000000000000
310
000000000000000000000000000000000000000000000000000000000000F5000000000000000000000000000000000000000000000000000000000000000000F4F5F5EC0000000000000000000000000000000000000000000000000000000000000000000000000000000000000000000000000000000000000000000000
310
00000000000000E8F5E100000000000000E8F4E1E1F3F4F3F4E8E9E8E8E8000000000000000000EBF5F500000000000000000000000000000000000000000000E8E800000000000000000000000000000000000000F5E1E1E80000000000F50000000000000000000000000000000000000000000000000000000000000000
310
0000000000000000000000000000000000000000000000000000000000000000F500000000000000000000000000000000000000000000000000000000000000F3E1F5EB0000000000000000000000000000000000F4E80000E8E8E9E8EBF400000000000000000000EBF4E1E1E1EBE8ECE8E8000000000000000000000000
310
0000000000000000000000F5E1EC0000EBE1E1F5F5F5F5F5F5F5F5F5F5F5F5E1E1F4E1E1E1E1E1F3E1F5F400000000000000000000000000000000000000000000E1F5F5F5F5F5F5F5F4E1F3000000000000000000000000F5F5E1E1F3E80000F5000000000000000000000000000000000000000000000000000000000000
310
00000000000000000000000000000000000000000000000000000000000000000000F500000000000000E8000000000000000000000000E8E1E1E1E1E1E1E1E1E1E1F5F500000000000000000000000000000000ECF3E1E1E1E1F5F5F5F5F5E1E1E1E1E1F4E1E1E1E1E1F5F5F5F5F5F5F5F5F5F5F5E1E1E1EC000000000000
310
00000000000000000000000000F5F5F5E1F5F5F5F5000000000000000000000000F5F5F5F5F5F5F5F5F5F5E80000000000000000000000000000000000000000000000E1F5F5F5F5F5F5F5E1E1E100E8000000000000000000000000F5F5F5E1E1F5E1F3ECE800000000000000000000000000000000000000000000000000
310
000000000000000000000000000000000000000000000000000000000000000000000000F5000000000000000000000000000000000000F4E1E1E1E1F3E1E1E1E1F5F5F5000000000000000000000000E8ECF3E1E1F5F5F5F5F5F5F500000000E8F5F5F5F5F5F5F5F5F5F5F50000000000000000000000F5F5F5E1EB000000
310
0000000000000000000000000000000000F5F50000000000000000000000000000000000000000000000000000000000000000000000000000000000000000000000000000E1F5F5F5F5F5F5F5E1E1E100EB000000000000000000000000000000F5F5F5F5F5E1E1E1E1EB0000000000000000000000000000000000000000
310
0000000000000000000000000000000000000000000000000000000000000000000000000000F500000000000000000000000000E80000E8E1E1E1000000E1E1F5F5F500000000000000000000E8F3E1E1E1E1F5F5F5F5000000E800000000000000000000E1E800000000000000000000E9E800000000E1F4000000F5E1E1
310
0000000000000000000000000000000000000000000000000000000000000000000000000000000000000000000000000000000000000000000000000000000000000000000000E8F5F5F5F5F5F5F5F3E1F400000000000000000000000000000000000000000000F5F5F5F5E1E1E1E1E80000000000000000000000000000
310
00000000000000000000000000000000000000000000000000000000000000000000000000000000F5000000000000E800000000E8E9E1E1E1E1E1E8000000E1F5F500000000000000000000E8F4E1F5F5F5F5F5F50000000000000000000000000000000000E1E1E1E8F40000000000000000E1E100000000ECE800000000
310
F5F5E1E800000000000000000000000000000000000000000000000000000000000000000000000000000000000000000000000000000000000000000000000000000000000000000000000000000000000000000000000000000000000000000000000000000000000000000000F5F5F5F5E1E1F4EB000000000000000000
310
000000000000000000000000000000000000000000000000000000000000000000000000000000000000F5000000000000E8E8E1F3E1E1E1E1E1EB00000000F4E1F5F500000000000000E8EBF3E1E1F5F5000000000000000000000000E8F4E800000000000000F3F5F5F5F5F5F5F5F5E10000000000000000000000000000
310
00000000F5E1E80000000000000000000000000000000000000000000000000000E8E1F4E1E1E1E1E1E1E1E1F3F4F4EBE9E8E800E9EBE800000000000000000000000000000000000000000000000000000000000000000000000000000000000000000000000000000000000000000000000000F5F5F5E1E1EB0000000000
310
0000000000000000000000000000000000000000000000000000000000000000000000000000000000000000F50000000000F4E1E1E1E1F4F3000000000000ECE1F5F500000000000000F4E1E1F5F5F5F500000000000000000000000000F4E1E1E100000000000000E1F5F5F5F5F5F5F5F5E1E8000000000000E100000000
310
00E80000000000F5E1F4000000000000000000000000000000000000000000000000E8F5F5F5F5F5F5F5F5F5F5F5F5F5F5F5F5F5F5F5F5F5F5E1E1F4F3F4E1E1E1E1F3F4E800000000000000000000000000000000000000000000000000000000000000000000000000000000000000000000000000000000F5F5E1E1F400
310
00000000000000000000000000000000000000000000000000000000000000000000000000000000000000000000F5000000000000E100F4EB000000000000E8E1F5F500000000000000E8E1F5F5F50000000000000000000000000000000000E8F3EC0000000000000000ECF5F5F5F5F5F5F5F5E1000000000000EBE1E1E1
310
E100E1E1000000000000F5F5E1E80000000000000000000000000000000000000000E8F5F5F400000000000000EBF400000000F5F5F5F5F5F5F5F5F5F5F5F5F5F5F5F5F5F5F5F5E1E1E1E1E1F4E80000000000000000000000000000000000000000000000000000000000000000000000000000000000000000000000F5F5
310
F5E1E1E80000000000000000000000000000000000000000000000000000000000000000000000000000000000000000F5000000000000F40000000000000000E1F5F500000000000000EBE1F5F50000000000000000000000000000000000000000000000000000000000000000F5F5F5F5F5F5F5F50000000000000000EC
310
F3E8EC00000000000000000000F5F4E1E1E80000000000000000000000000000000000F3F5F400000000000000EBE100E8E1E80000F5F5F5F5F5F5F5F5E1E10000000000F4E1F3F400F5F5F5F5F5F5E1E1E1E1E1F4F3EBE8000000000000000000000000000000000000000000000000000000000000000000000000000000
310
000000F5F5F5E100000000000000000000000000000000000000000000000000000000000000000000000000000000000000F5000000000000EB000000000000E8E1F5E1E80000000000E8E1F5F5E8000000000000000000000000000000000000000000000000000000000000000000000000E80000000000000000000000
310
00000000000000000000000000000000F5F5F5E1E1EB0000000000000000000000000000F4F5E80000000000000000F4E10000E8000000F5F5F5F5F5F5F5F5F4E80000000000E1E1E1E100000000000000F5F5F5F5F5F5E1E1E1E1E1E1F4E8E8E8000000000000000000000000000000000000000000000000000000000000
310
0000000000000000F500000000000000000000000000000000000000000000000000000000000000000000000000000000000000F500000000E8E1E1E1E1E1E1E1E1F5F5F5F5F5F5F5F5E1E1F5F5E1E1F3F4E1E1F3E1E1F3E8E9EBE8000000000000E80000E8F4F3E1E1E1E1E1E1F4E1E1E1E1E1E1E1F4F3E8E1E1E1E1F3F4
310
F3E8E8E80000E8E8E9E1F3E8EBEC000000E8000000F5F5E1E1E80000000000000000000000F4F5E80000000000000000000000000000000000F5F5F5F5F5F5F5F500000000000000E8E9EBECE8E8E8F4E1E1E1F3E8E9000000F5F5F5F5F5F5F5F5F5E1E1E1E1F3E80000000000000000000000000000E8E8F4F3ECE8E80000
310
000000000000000000000000000000000000000000000000000000000000000000000000000000000000000000000000000000000000F500000000F5F5F5F5F5F5F5F5F500000000E9E8E8F4F5F5F5F5F5F5F5F5F5F5F5F5F5F5F5F5F5F5E1E1E1E1E1E1E1F5F5F5F5F5F5F5F5F5F5F5F5F5F5F5F5F5F5F5F5F5F5F5F5F5F5
310
F5F5F5F5F5F5F5F5F5F5F5F5F5F5F5F5F5F5E1E1E1F4E8E9E8F5F5E1E1F40000000000000000F3F5E80000000000E9E8F3E1F4F4E8E8ECE8ECEBF4E8E8F4F3F4E1F3E1E1E1F4E1E1F5F5F5F5F5F5F5F5F5F5F5F5F5F5F5E1E1E1E1E1E1F5F5F5F5F5F5F5F5F5F5F5F5F5F4E1E1E1F4E1E1F4F3F4E1E1F5F5F5F5F5F5F5F5F5
310
E1E1E1E1E8E8E900E8E8E8ECEB00000000000000000000000000000000000000000000000000000000000000000000000000000000000000F50000000000E10FE100000000000000000000000000000000000000000000000000000000000000F5F5F5F5F5F5F500F400000000000000000000000000000000000000000000
310
0000000000000000000000000000E80000000000F5F5F5F5F5F5F5F5F5F5F5F5E1E1E8F4F3F4E1E1F5E1E1F3F4E1E1F5F5F5F5F5F5F5F5F5F5F5F5F5F5F5F5F5F5F5F5F5F5F5F5F5F5F5E9E800000000000000000000000000F5F5F5F5F5F50000000000E8E9E8000000E800F5F5F5F5F5F5F5F5F5F5F5F500000000000000
310
00E8F5F5F5F5F5F5F5F5F5F5F5F5F500000000000000000000000000000000000000000000000000000000000000000000000000000000000000F5000000000F0F0F0FE10000000000000000000000000000000000000000000000000000000000000000000000000000000000000000000000000000000000000000000000
310
00000000000000000000000000000000F3E1F40000000000000000000000000000F5F5F5F5F5F5F5F5F5F5F5F5F5F5F5F5000000000000E8E1E1000000000000000000000000000000000000000000000000000000000000000000000000E1EC000000000000000000000000E8000000000000000000000000000000000000
310
000000000000000000000000000000000000000000000000000000000000000000000000000000000000000000000000000000000000000000000000F50000000000EC0FE1E1E1000000000000E80000000000000000000000000000000000000000000000000000000000E100000000000000000000000000000000000000
310
000000000000000000000000000000000000E1E1E1000000000000000000000000000000000000000000000000000000000000000000000000E8E1E10000000000000000000000000000000000000000000000000000000000000000000000E1E1E80000000000000000000000000000000000000000000000000000000000
310
0000000000000000E1E100000000000000000000000000000000000000000000000000000000000000000000000000000000000000000000000000000000F5F5F5F5F5E8E80FE1E1F4000000000000000000000000000000000000000000000000000000000000000000000000E10000000000000000000000000000000000
310
0000000000000000000000000000000000000000ECE1E8000000000000000000000000000000000000000000000000000000000000000000000000F3E1F40000000000000000000000000000000000000000000000000000000000000000000000E1E100000000000000000000000000000000000000000000000000000000
310
000000000000000000E8E1E100000000000000000000000000000000000000000000000000000000000000000000000000000000000000000000000000000000F5F5F5F5F50000F5000000000000000000000000000000000000000000000000000000000000000000000000000000000000000000000000000000000000F5
310
F5F5F5F5F5F500000000E1E1E1E1E1F3E8F4E800000000E80000000000000000000000000000000000000000000000000000000000000000000000000000EC000000000000000000000000000000000000000000000000000000000000000000000000E8E90000000000000000000000000000000000000000000000000000
310
000000000000000000000000E1EC00000000000000000000000000000000000000000000000000000000000000000000000000000000000000000000000000000000F5F5F5F5F500E8F50000000000000000000000000000000000000000000000000000000000000000000000000000000000000000000000000000000000
310
00F5F5F5F5F5F5F500000000E1E1E1E1E1E1E1E1E100000000000000000000000000000000000000000000000000000000000000000000000000000000000000000000000000000000000000000000000000000000000000000000000000000000000000000000000000000000000000000000000000000000000000000000
310
0000000000000000000000000000000000000000000000000000000000000000000000000000000000000000000000000000000000000000000000000000000000000000F500000000E8E1F5000000000000000000000000000000000000000000000000000000000000000000000000000000000000000000000000000000
310
000000F5F5F5F5F5F5F5000000E8E1E1E1E1E1E1E1E1F30000000000000000000000000000000000000000000000000000000000000000000000000000000000000000000000000000000000000000000000000000000000000000000000000000000000000000000000000000000000000000000000000000000000000000
310
00000000000000000000000000000000000000000000000000000000000000000000000000000000000000000000000000000000000000000000000000000000000000000000F50000000000E1F50000000000000000000000E9E8E8000000000000000000000000000000E8EBF4F3F4ECE8E8000000000000000000000000
310
00000000000000000000000000000000E1E1EC00000000E100000000000000000000000000000000000000000000000000000000000000000000000000000000000000000000000000000000000000000000000000000000000000000000000000000000000000000000000000000000E8E800E80000000000000000000000
310
000000000000000000000000000000000000000000000000000000000000000000000000000000000000000000000000000000000000000000000000000000000000000000000000F50000000000E1F5E1E1E1E1E1E1E1E1E1E1E1F5F5F5E1E1E1E1E1E1E1E1E1E1E1E1F5F5F5F5F5F5F5F5F5E1E1E1E1E1E1F4F3EB000000
310
0000000000000000000000000000000000000000000000000000000000000000000000000000000000000000000000000000000000000000000000000000000000000000000000000000000000000000000000000000000000000000000000000000000000000000000000EBE1E1E1F5F5F5F5F5F5F5F5E1F4E1E1F3F3F4E8
310
0000ECF300000000000000000000000000000000000000000000000000000000000000000000000000000000000000000000000000000000000000000000000000000000000000000000F50000000000E8F5F5F5F5F5F5F5F5F5F5F5F5000000F5F5F5F5F5F5F5F5F5F5F5F5000000000000000000F5F5F5F5F5F5F5F5F5F5
310
F5F5F5F5F5F4E8E9EBECEBE1E1E1E1F4EBECE8E800000000000000E8EBE1E1E1ECE8E9E8E800E8E80000000000000000000000000000000000000000E90000000000000000000000E8ECE8000000E80000000000000000000000E8E800E8ECE8E1E1E1F4E8E1F4F5F5F5F5F5F5F5F5F5F5E800000000000000F5F5F5F5F5F5
310
F5F5F5F5F5F5F5F5F5E1E1E1ECE8E80000000000E8E9E8E80000E800000000000000000000000000000000000000000000000000000000000000000000000000000000000000000000000000F50000000000000000000000000000000000000000000000000000000000000000000000000000000000000000000000000000
310
000000000000E8F5F5F5F5F5F5F5F5F5F5F5F5F5F5F5F5F5F5F5F5F5F5F5F5F5F5F5F5F5F5F5F5F5F5F5F5F5F5F5F5F5F5F5F5F5F5F5F5F5F5F5F5F5F5F5F5F5F5F5F5F5F5F5F5F5F5F5F5F5F5F5F5F5E1E1E1F5F5F5F5F5F5F5F5F5F5F5F5F5F5F5F5F5F5F5F5F5F500000000000000000000000000000000000000000000
310
0000000000000000000000F5F5F5F5F5F5F5F5F5F5F5F5F5F5F5F5F5E1E1E1E1E1E1E100000000000000000000000000000000000000000000000000000000000000000000000000000000000000F5000000000000000000000000000000000000000000000000000000000000000000000000000000000000000000000000
310
00000000000000000000000000000000000000000000000000000000000000000000000000000000000000000000000000000000000000000000000000000000000000000000000000000000000000000000F5F5F5000000000000000000000000000000000000000000000000000000000000000000000000000000000000
310
000000000000000000000000000000000000000000000000000000000000F5F5F5F5F5F5F500000000000000000000000000000000000000000000000000000000000000000000000000000000000000F500000000000000000000000000000000000000000000000000000000000000000000000000000000000000000000
310
00000000000000000000000000000000000000000000000000000000000000000000000000000000000000000000000000000000000000000000000000000000000000000000000000000000000000000000000000000000000000000000000000000000000000000000000000000000000000000000000000000000000000
310
00000000000000000000000000000000000000000000000000000000000000000000000000000000000000000000000000000000000000000000000000000000000000000000000000000000000000000000F50000000000000000000000000000000000000000000000000000E80000000000000000000000000000000000
310
00000000000000000000000000000000000000000000000000000000000000000000000000000000000000000000000000000000000000000000000000000000000000000000000000000000000000000000000000000000000000000000000000000000000000000000000000000000000000000000000000000000000000
310
000000000000000000000000000000000000000000000000000000000000000000000000000000000000000000000000000000000000000000000000000000000000000000000000000000000000000000000000F5000000000000000000000000000000000000000000000000000000000000000000000000000000000000
310
00000000000000000000000000000000000000000000000000000000000000000000000000000000000000000000000000000000000000000000000000000000000000000000000000000000000000000000000000000000000000000000000000000000000000000000000000000000000000000000000000000000000000
310
0000000000000000000000000000000000000000000000000000000000000000000000000000000000000000000000000000000000000000000000000000000000000000000000000000000000000000000000000000F500000000000000000000000000000000000000000000000000000000000000000000000000000000
310
00000000000000000000000000000000000000000000000000000000000000000000000000000000000000000000000000000000000000000000000000000000000000000000000000000000000000000000000000000000000000000000000000000000000000000000000000000000000000000000000000000000000000
310
00000000000000000000000000000000000000000000000000000000000000000000000000000000000000000000000000000000000000000000000000000000000000000000000000000000000000000000000000000000F50000000000000000000000000000000000000000000000000000000000000000000000000000
310
00000000000000000000000000000000000000000000000000000000000000000000000000000000000000000000000000000000000000000000000000000000000000000000000000000000000000000000000000000000000000000000000000000000000000000000000000000000000000000000000000000000000000
310
000000000000000000000000000000000000000000000000000000000000000000000000000000000000000000000000000000000000000000000000000000000000000000000000000000000000000000000000000000000000F5000000000000000000ECE800000000000000000000000000000000000000000000000000
310
00000000000000000000000000000000000000000000000000000000000000000000000000000000000000000000000000000000000000000000000000000000000000000000000000000000000000000000000000000000000000000000000000000000000000000000000000000000000000000000000000000000000000
310
0000000000000000000000000000000000000000000000000000000000000000000000000000000000000000000000000000000000000000000000000000000000000000000000000000000000000000000000000000000000000000F5000000000000000000F4F30000000000000000000000000000000000000000000000
310
00000000000000000000000000000000000000000000000000000000000000000000000000000000000000000000000000000000000000000000000000000000000000000000000000000000000000000000000000000000000000000000000000000000000000000000000000000000000000000000000000000000000000
310
00000000000000000000000000000000000000000000000000000000000000000000000000000000000000000000000000000000000000000000000000000000000000000000000000000000000000000000000000000000000000000000F50000000000000000000000000000000000000000000000000000000000000000
310
00000000000000000000000000000000000000000000000000000000000000000000000000000000000000000000000000000000000000000000000000000000000000000000000000000000000000000000000000000000000000000000000000000000000000000000000000000000000000000000000000000000000000
310
000000000000000000000000000000000000000000000000000000000000000000000000000000000000000000000000000000000000000000000000000000000000000000000000000000000000000000000000000000000000000000000000F5000000000000000000000000000000000000000000000000000000000000
310
00000000000000000000000000000000000000000000000000000000000000000000000000000000000000000000000000000000000000000000000000000000000000000000000000000000000000000000000000000000000000000000000000000000000000000000000000000000000000000000000000000000000000
310
0000000000000000000000000000000000000000000000000000000000000000000000000000000000000000000000000000000000000000000000000000000000000000000000000000000000000000000000000000000000000000000000000000F500000000000000000000000000000000000000000000000000000000
310
00000000000000000000000000000000000000000000000000000000000000000000000000000000000000000000000000000000000000000000000000000000000000000000000000000000000000000000000000000000000000000000000000000000000000000000000000000000000000000000000000000000000000
310
00000000000000000000000000000000000000000000000000000000000000000000000000000000000000000000000000000000000000000000000000000000000000000000000000000000000000000000000000000000000000000000000000000000F50000000000000000000000000000000000000000000000000000
310
00000000000000000000000000000000000000000000000000000000000000000000000000000000000000000000000000000000000000000000000000000000000000000000000000000000000000000000000000000000000000000000000000000000000000000000000000000000000000000000000000000000000000
310
000000000000000000000000000000000000000000000000000000000000000000000000000000000000000000000000000000000000000000000000000000000000000000000000000000000000000000000000000000000000000000000000000000000000F5000000000000000000000000000000000000000000000000
310
00000000000000000000000000000000000000000000000000000000000000000000000000000000000000000000000000000000000000000000000000000000000000000000000000000000000000000000000000000000000000000000000000000000000000000000000000000000000000000000000000000000000000
310
0000000000000000000000000000000000000000000000000000000000000000000000000000000000000000000000000000000000000000000000000000000000000000000000000000000000000000000000000000000000000000000000000000000000000000F5000000000000E8000000000000000000000000000000
310
00000000000000000000000000000000000000000000000000000000000000000000000000000000000000000000000000000000000000000000000000000000000000000000000000000000000000000000000000000000000000000000000000000000000000000000000000000000000000000000000000000000000000
310
00000000000000000000000000000000000000000000000000000000000000000000000000000000000000000000000000000000000000000000000000000000000000000000000000000000000000000000000000000000000000000000000000000000000000000000F50000000000000000000000000000000000000000
310
00000000000000000000000000000000000000000000000000000000000000000000000000000000000000000000000000000000000000000000000000000000000000000000000000000000000000000000000000000000000000000000000000000000000000000000000000000000000000000000000000000000000000
310
000000000000000000000000000000000000000000000000000000000000000000000000000000000000000000000000000000000000000000000000000000000000000000000000000000000000000000000000000000000000000000000000000000000000000000000000F5000000000000000000000000000000000000
310
00000000000000000000000000000000000000000000000000000000000000000000000000000000000000000000000000000000000000000000000000000000000000000000000000000000000000000000000000000000000000000000000000000000000000000000000000000000000000000000000000000000000000
310
0000000000000000000000000000000000000000000000000000000000000000000000000000000000000000000000000000000000000000000000000000000000000000000000000000000000000000000000000000000000000000000000000000000000000000000000000000F500000000000000000000000000000000
310
00000000000000000000000000000000000000000000000000000000000000000000000000000000000000000000000000000000000000000000000000000000000000000000000000000000000000000000000000000000000000000000000000000000000000000000000000000000000000000000000000000000000000
310
00000000000000000000000000000000000000000000000000000000000000000000000000000000000000000000000000000000000000000000000000000000000000000000000000000000000000000000000000000000000000000000000000000000000000000000000000000000F50000000000000000000000000000
310
00000000000000000000000000000000000000000000000000000000000000000000000000000000000000000000000000000000000000000000000000000000000000000000000000000000000000000000000000000000000000000000000000000000000000000000000000000000000000000000000000000000000000
310
000000000000000000000000000000000000000000000000000000000000000000000000000000000000000000000000000000000000000000000000000000000000000000000000000000000000000000000000000000000000000000000000000000000000000000000000000000000000F5000000000000000000000000
310
00000000000000000000000000000000000000000000000000000000000000000000000000000000000000000000000000000000000000000000000000000000000000000000000000000000000000000000000000000000000000000000000000000000000000000000000000000000000000000000000000000000000000
310
0000000000000000000000000000000000000000000000000000000000000000000000000000000000000000000000000000000000000000000000000000000000000000000000000000000000000000000000000000000000000000000000000000000000000000000000000000000000000000F500000000000000000000
310
00000000000000000000000000000000000000000000000000000000000000000000000000000000000000000000000000000000000000000000000000000000000000000000000000000000000000000000000000000000000000000000000000000000000000000000000000000000000000000000000000000000000000
310
00000000000000000000000000000000000000000000000000000000000000000000000000000000000000000000000000000000000000000000000000000000000000000000000000000000000000000000000000000000000000000000000000000000000000000000000000000000000000000000F50000000000000000
310
00000000000000000000000000000000000000000000000000000000000000000000000000000000000000000000000000000000000000000000000000000000000000000000000000000000000000000000000000000000000000000000000000000000000000000000000000000000000000000000000000000000000000
310
000000000000000000000000000000000000000000000000000000000000000000000000000000000000000000000000000000000000000000000000000000000000000000000000000000000000000000000000000000000000000000000000000000000000000000000000000000000000000000000000F5000000000000
310
00000000000000000000000000E8E1000000EB000000000000000000000000000000000000000000000000000000000000000000000000000000000000000000000000000000000000000000000000000000000000000000000000000000000000000000000000000000000000000000000000000000000000000000000000
310
0000000000000000000000000000000000000000000000000000000000000000000000000000000000000000000000000000000000000000000000000000000000000000000000000000000000000000000000000000000000000000000000000000000000000000000000000000000000000000000000000000F500000000
310
0000000000000000E8ECF3E1E1E1F3E8E1E1E1E1E1F40000000000000000000000000000000000000000000000000000000000000000000000000000000000000000000000000000000000000000000000000000000000000000000000000000000000000000000000000000000000000000000000000000000000000000E8
310
00000000000000000000000000000000000000000000000000000000000000000000000000000000000000000000000000000000000000000000000000000000000000000000000000000000000000000000000000000000000000000000000000000000000000000000000000000000000000000000000000000000F50000
310
0000000000E1E1E1E1E1E1E1E1E1E1E1E100F4E1E1E1F30000000000000000000000000000000000000000000000000000000000000000000000000000000000000000000000000000000000000000000000000000000000000000000000000000000000000000000000000000000000000000000000000000000000000000
310
00ECE8000000000000000000000000000000000000000000000000000000000000000000000000000000000000000000000000000000000000000000000000000000000000000000000000000000000000000000000000000000000000000000000000000000000000000000000000000000000000000000000000000000F5
310
00000000000000E1E1E1E1E1E1E1E1E1E1E1E10000E1E1E1E1000000000000000000000000000000000000000000000000000000000000000000000000000000000000000000000000000000000000000000000000000000000000000000000000000000000000000000000000000000000000000000000000000000000000
310
0000000000000000000000000000000000000000E800000000000000000000000000000000000000000000000000000000000000000000000000000000000000000000000000000000000000000000000000000000000000000000000000000000000000000000000000000000000000000000000000000000000000000000
310
00F500000000000000ECF4E1F3E1E8E800E8E80000000000E8E1E800000000000000000000000000000000000000000000000000000000000000000000000000000000000000000000000000000000000000000000000000000000000000000000000000000000000000000000000000000000000000000000000000000000
310
00000000000000000000000000000000000000000000000000000000000000000000000000000000000000000000000000000000000000000000000000000000000000000000000000000000000000000000000000000000000000000000000000000000000000000000000000000000000000000000000000000000000000
310
000000F5000000000000E8E8EBF4F3F4F3E1F4E8F4EBE1E1E1E80000000000000000000000000000000000000000000000000000000000000000000000000000000000000000000000000000000000000000000000000000000000000000000000000000000000000000000000000000000000000000000000000000000000
310
00000000000000000000000000000000000000000000000000000000000000000000000000000000000000000000000000000000000000000000000000000000000000000000000000000000000000000000000000000000000000000000000000000000000000000000000000000000000000000000000000000000000000
310
0000000000F50000000000ECE1E1E1E1E1E1E1E1E1E1E1E1E1E1E1F3000000000000000000000000000000000000000000000000000000000000000000000000000000000000000000000000000000000000000000000000000000000000000000000000000000000000000000000000000000000000000000000000000000
310
00000000000000000000000000000000000000000000000000000000000000000000000000000000000000000000000000000000000000000000000000000000000000000000000000000000000000000000000000000000000000000000000000000000000000000000000000000000000000000000000000000000000000
310
00000000000000F500000000F3E1E1E1E1E1E1E1E1E1EBE1E1E1E1F3F4000000000000000000000000000000000000000000E8E8000000000000000000000000000000000000000000000000000000000000000000000000000000000000000000000000000000000000000000000000000000000000000000000000000000
310
00000000000000000000000000000000000000000000000000000000000000000000000000000000000000000000000000000000000000000000000000000000000000000000000000000000000000000000000000000000000000000000000000000000000000000000000000000000000000000000000000000000000000
310
000000000000000000F50000000000F4E1EBECE80000000000000000000000000000000000000000EBE900000000F4E1E1E1E1E1E1E1F3000000000000000000000000000000000000000000000000000000000000000000000000000000000000000000000000000000000000000000000000000000000000000000000000
310
00000000000000000000000000000000000000000000000000000000000000000000000000000000000000000000000000000000000000000000000000000000000000000000000000000000000000000000000000000000000000000000000000000000000000000000000000000000000000000000000000000000000000
310
0000000000000000000000F5000000000000E800E8ECF3E1EC00F3E1E1F3E1E1F4E1EBECE1E1E10000E1E1E1E1EC0000E1E1E1E1E1E1E1E1E800000000000000000000000000000000000000000000000000000000000000000000000000000000000000000000000000000000000000000000000000000000000000E9EBE8
310
F4000000000000000000000000000000000000000000000000000000000000000000000000000000000000000000000000000000000000000000000000000000000000000000000000000000000000000000000000000000000000000000000000000000000000000000000000000000000000000000000000000000000000
310
00000000000000000000000000F500000000000000EBE1E1E1E1E100E1E1E1E1E1E1E1F4E1E8E1E1E1E8E8E1E1E1E1F30000E1E1E1E1E8E9E1E10000000000000000000000000000E8ECE80000E80000F3F4F3F4F3E8ECEBE1EB000000000000000000000000000000000000000000000000000000000000000000000000E1
310
E1F4E100E80000000000000000000000000000000000000000000000000000000000000000000000000000000000000000000000000000000000000000000000000000000000000000000000000000000000000000000000000000000000000000000000000000000000000000000000000000000000000000000000000000
310
000000000000000000000000000000F50000000000000000E1E1E1E1EB00E1E1E1E1E1E1F4F4E80000000000E9E8E8E8F40000E8ECF300E8E8F3E1E1F4F3E1F400F3E1E1E800E1E1E1E1E1E1E1E1E1E1E1F4E1E1E1E1E1E1E1E1E1E10000000000000000000000000000000000000000000000000000000000000000000000
310
0000E800E80000000000000000000000000000000000000000000000000000000000000000000000000000000000000000000000000000000000000000000000000000000000000000000000000000000000000000000000000000000000000000000000000000000000000000000000000000000000000000000000000000
310
0000000000000000000000000000000000F500000000000000F3E1E1E1E1E1E1E1E1E1E1E1E100EBE1E1E1E1E1E1E1E1E1E1E1E1E1E1E1E1F4E1E1E1E1E1E1E1E1E1E8E1E1E1F400E1E1E1E1E1E1E1E1E1E1F4E8E1E1ECE1E1E1E1E1E1E1000000000000000000000000000000000000000000000000000000000000000000
310
00000000000000000000000000000000000000000000000000000000000000000000000000000000000000000000000000000000000000000000000000000000000000000000000000000000000000000000000000000000000000000000000000000000000000000000000000000000000000000000000000000000000000
310
00000000000000000000000000000000000000F5000000000000F4E1E1E1E1E1E1E1E1E1E1E1E1E1E8E1E1E1E1E1E1E1E1E1E1E1E1E1E1E1E1E1F3F4E1E1E1F3ECE1F3EC0000EBEC0000000000E800E80000E80000000000000000000000000000000000000000000000000000000000000000000000000000000000000000
310
00000000000000000000000000000000000000000000000000000000000000000000000000000000000000000000000000000000000000000000000000000000000000000000000000000000000000000000000000000000000000000000000000000000000000000000000000000000000000000000000000000000000000
310
000000000000000000000000000000000000000000F5000000000000E8E1E1E1ECEBE1E1F4EBEC00F3E800F4E1E1F3E1E1ECE8E80000000000000000000000000000000000000000000000000000000000000000000000000000000000000000000000000000000000000000E8F40000000000000000000000000000000000
310
00000000000000000000000000000000000000000000000000000000000000000000000000000000000000000000000000000000000000000000000000000000000000000000000000000000000000000000000000000000000000000000000000000000000000000000000000000000000000000000000000000000000000
310
0000000000000000000000000000000000000000000000F50000000000000000000000E80000000000000000000000000000000000000000000000000000000000000000000000000000000000000000000000000000000000000000000000000000000000000000000000000000F4E1000000000000000000000000000000
310
00000000000000000000000000000000000000000000000000000000000000000000000000000000000000000000000000000000000000000000000000000000000000000000000000000000000000000000000000000000000000000000000000000000000000000000000000000000000000000000000000000000000000
310
00000000000000000000000000000000000000000000000000F500000000000000E1E1E1E1E1E1E100E1E1E10000F4E1E1F30000000000000000000000000000000000000000000000000000000000000000000000000000000000000000000000000000000000000000000000000000ECF300000000000000000000000000
310
00000000000000000000000000000000000000000000000000000000000000000000000000000000000000000000000000000000000000000000000000000000000000000000000000000000000000000000000000000000000000000000000000000000000000000000000000000000000000000000000000000000000000
310
000000000000000000000000000000000000000000000000000000F5000000000000E8E1F4E1E1E1E1E1F3E1E1E1E100E1E1E1E1000000000000000000000000000000000000000000000000000000000000000000000000000000000000000000000000000000000000000000000000000000000000000000000000000000
310
00000000000000000000000000000000000000000000000000000000000000000000000000000000000000000000000000000000000000000000000000000000000000000000000000000000000000000000000000000000000000000000000000000000000000000000000000000000000000000000000000000000000000
310
0000000000000000000000000000000000000000000000000000000000F500000000000000E1E1F4E8F4F3E1E1E1E1E1E1E8E1E1F3E800000000000000000000000000000000000000000000000000000000000000000000000000000000000000000000000000000000000000000000000000000000000000000000000000
310
00000000000000000000000000000000000000000000000000000000000000000000000000000000000000000000000000000000000000000000000000000000000000000000000000000000000000000000000000000000000000000000000000000000000000000000000000000000000000000000000000000000000000
310
00000000000000000000000000000000000000000000000000000000000000F500000000000000EBE1E1E1E1E1E1E1E1E1E1E1E1E1E1F4000000000000000000000000000000000000000000000000000000000000000000000000000000000000000000000000000000000000000000000000000000000000000000000000
310
00000000000000000000000000000000000000000000000000000000000000000000000000000000000000000000000000000000000000000000000000000000000000000000000000000000000000000000000000000000000000000000000000000000000000000000000000000000000000000000000000000000000000
310
000000000000000000000000000000000000000000000000000000000000000000F500000000000000F4E1E1E1E1E1E1E1E1E1E1E1E1E1E1E1000000000000000000000000000000000000000000000000000000000000000000000000000000000000000000000000000000F4F300EBE1E1E80000000000000000000000E8
310
EC000000000000000000000000000000000000000000000000000000000000000000000000000000000000000000000000000000000000000000000000000000000000000000000000000000000000000000000000000000000000000000000000000000000000000000000000000000000000000000000000000000000000
310
0000000000000000000000000000000000000000000000000000000000000000000000F5EC000000000000000000E8E8E9E80000000000E8E8E9E8000000000000000000E80000000000000000000000000000000000000000000000000000000000000000000000EB0000000000E1E1E1E1E1E1E100000000000000000000
310
E8E1E100000000000000000000000000000000000000000000000000000000000000000000000000000000000000000000000000000000000000000000000000000000000000000000000000000000000000000000000000000000000000000000000000000000000000000000000000000000000000000000000000000000
310
00000000000000000000000000000000000000000000000000000000000000000000000000F5E10000000000000000000000000000000000000000000000000000000000000000000000000000000000EC0000E8000000E1E800ECE10000F400E8E1E800F4F300E8E100E1F3F4E1F300E1E1E1E1E1E1F30000000000000000
310
000000E8000000000000000000000000000000000000000000000000000000000000000000000000000000000000000000000000000000000000000000000000000000000000000000000000000000000000000000000000000000000000000000000000000000000000000000000000000000000000000000000000000000
310
000000000000000000000000000000000000000000000000000000000000000000000000000000F5ECE8000000000000E8000000000000000000000000E80000EB0000EB000000E8F300F30000E1E8E8E1EBE1E100E1E10000E1E100E8E1ECE8E1E1EBE1E1E8F4E100E8E1F4E1E1E1E1ECE8E1F4E8E8E1E8E9EBF4E8000000
310
000000000000000000000000000000000000000000000000000000000000000000000000000000E8000000000000000000000000000000000000000000000000000000000000000000000000000000000000000000000000000000000000000000000000000000000000000000000000000000000000000000000000000000
310
0000000000000000000000000000000000000000000000000000000000000000000000000000000000F5EBE900000000ECF3E1EBE1EBE1EBF4E1E1E1E8E1F4E1F3E8E1F4EBE1E1F4EBE1E1F4E1E1F3E1E1E1E1E1E1E1E1E1E1E1E1E1E1F3E8E1E1E1E1E1E1E1E1E1E1E1E1E1E1F3E1E1E1E1E1E1E1E1E1E1E1E1F3E1E1E100
310
0000000000000000000000000000000000000000000000000000000000000000000000000000000000F400000000000000000000000000000000000000000000000000000000000000000000000000000000000000000000000000000000000000000000000000000000000000000000000000000000000000000000000000
310
00000000000000000000000000000000000000000000000000000000000000000000000000000000000000F5F4E8000000F3E1E1E1E1E1E1E1E1E1E1E1E1E1E1E1E1E1E1E1E1E1E1E1E1E1E1E1E1E1E1E1E1E1F4EBECF3ECE80000E9E8F3E1E1E1E1F400000000000000E9EBE1E1E1ECEBE1E1E1E8E8E1E1F4E1E1E1E1E1E1
310
E1000000000000000000000000000000000000000000000000000000000000000000000000000000000000000000000000000000000000000000000000000000000000000000000000000000000000000000000000000000000000000000000000000000000000000000000000000000000000000000000000000000000000
310
000000000000000000000000000000000000000000000000000000000000000000000000000000000000000000F50000000000E8F4EBF4E1E1F3F4F3F4E1E1E1E1E1E1F3F4EBE800E8F4E1E1E1E1E8000000000000000000000000000000000000E8EC000000000000000000000000ECE1E1E1E1F4000000000000EBECE8E8
310
F4E1E100000000000000000000000000000000000000000000000000000000000000000000000000000000000000000000000000000000000000000000000000000000000000000000000000000000000000000000000000000000000000000000000000000000000000000000000000000000000000000000000000000000
310
0000000000000000000000000000000000000000000000000000000000000000000000000000000000000000000000F50000000000000000000000000000000000000000000000000000000000000000000000000000000000000000000000000000000000000000000000000000000000000000E8E1E1E1EBF3F4F3E1E1E1
310
E1000000000000000000000000000000000000000000000000000000000000000000000000000000000000000000000000000000000000000000000000000000000000000000000000000000000000000000000000000000000000000000000000000000000000000000000000000000000000000000000000000000000000
310
00000000000000000000000000000000000000000000000000000000000000000000000000000000000000000000000000F50000000000EBEC00000000000000000000000000000000000000000000000000000000000000000000000000E8ECEB0000E1E1E1E1F40000000000000000000000000000EBE1E1E1E1E1E1E1E1
310
E1E1EB000000000000000000000000000000000000000000000000000000000000000000000000000000000000000000E8000000000000000000000000000000000000000000000000000000000000000000000000000000000000000000000000000000000000000000000000000000000000000000000000000000000000
310
000000000000000000000000000000000000000000000000000000000000000000000000000000000000000000000000000000F500000000E8F4E1E800000000000000000000000000000000000000000000000000000000000000000000E8E1E1E1E1E1E1E1E1E9E8E1E1E1EB0000000000000000000000F4F4E1E1E1E1E1
310
E1E1E1E100000000E1F300000000000000000000000000000000000000000000E800000000000000000000000000000000E9EB00000000000000000000000000000000000000000000000000000000000000000000000000000000000000000000000000000000000000000000000000000000000000000000000000000000
310
0000000000000000000000000000000000000000000000000000000000000000000000000000000000000000000000000000000000F5000000ECE1E1E1E1E10000000000000000000000000000000000000000000000000000000000000000F4E1E10000E1E1E1E8000000E8E1E1E1E1F30000000000000000E8F4E1F4E1E8
310
0000E8ECE1E1E800F4E1E1E1E1E800000000000000000000000000000000000000000000000000000000000000000000000000EC000000000000000000000000000000000000000000000000000000000000000000000000000000000000000000000000000000000000000000000000000000000000000000000000000000
310
00000000000000000000000000000000000000000000000000000000000000000000000000000000000000000000000000000000000000F50000000000F3E1F4F3F4EBECEBE9EBF4F3E9E8E8F4F4EBF4E8E8000000EBEC0000E8F3F4F3E1E1E1E1E1E1E1EBE1E1E1E10000000000E1E1E1E1E1E1E1E1E1E1F3F4F3E1E1E1F3
310
E1E1E1E1E1E1E1E1E1E1E1E1E1E1EC00000000000000000000000000000000000000000000000000000000000000000000000000000000000000000000000000000000000000000000000000000000000000000000000000000000000000000000000000000000000000000000000000000000000000000000000000000000
310
000000000000000000000000000000000000000000000000000000000000000000000000000000000000000000000000000000000000000000F50000000000E8E1F4F3E1F4F3F4EBE1E1E1E1E1E1E1E1E1E1E1E1F4F3F4E1E1F3F4E1E1E1E1E1E1E1E1EBECE1E1E1E1E1000000000000E8E1E100F4E1E1E1E1E1E1E1E1E1E1
310
E1E1E1E1E1E1E1E1E1E1E1E1E1E1E1F3000000000000000000000000000000000000000000000000000000000000000000000000000000000000000000000000000000000000000000000000000000000000000000000000000000000000000000000000000000000000000000000000000000000000000000000000000000
310
00000000000000000000E8000000000000000000000000000000000000000000000000000000000000000000000000000000000000000000000000F5E8E800F4F3ECE80000000000000000000000000000000000000000000000000000000000000000F4EB000000E1E1F40000000000000000E1E100000000000000000000
310
00000000000000000000000000000000F4E80000000000000000000000000000000000000000000000000000000000000000000000000000F400000000000000000000000000000000000000000000000000000000000000000000000000000000000000000000000000000000000000000000000000000000000000000000
310
00000000000000000000000000000000000000000000000000000000000000000000000000000000000000000000000000000000000000000000000000F5E1E1E1E1E1E1E1000000000000000000000000000000000000000000000000000000000000000000F4F30000E1E1000000000000000000F4E10000000000000000
310
000000000000000000000000000000000000F4E80000000000000000000000000000000000000000000000000000000000000000000000000000000000000000000000000000000000000000000000000000000000000000000000000000000000000000000000000000000000000000000000000000000000000000000000
310
000000000000000000000000000000000000000000000000000000000000000000000000000000000000000000000000000000000000000000000000000000F5E1E1E1E1E1E1E100000000000000000000000000000000000000000000000000000000000000000000ECEB00E1E100000000000000000000E1000000000000
310
0000000000000000000000000000000000000000EB00000000000000000000000000000000000000000000000000000000000000000000000000000000000000000000000000000000000000000000000000000000000000000000000000000000000000000000000000000000000000000000000000000000000000000000
310
0000000000000000000000000000000000000000000000000000000000000000000000000000000000000000000000000000000000000000000000000000000000F5E9EBE8EC00E1E10000000000000000000000000000000000000000000000000000000000000000000000F4F3E8E1F4000000000000000000E1E8000000
310
00000000000000000000000000000000000000000000F40000000000000000000000000000000000000000000000000000000000000000000000000000000000000000000000000000000000000000000000000000000000000000000000000000000000000000000000000000000000000000000000000000000000000000
310
00000000000000000000000000000000000000000000000000000000000000000000000000000000000000000000000000000000000000000000000000000000000000F5E1E1E1E1E1E1E10000000000000000000000000000000000000000000000000000000000000000000000000000E8E1F40000000000000000E80000
310
000000000000000000000000000000000000000000000000E1E80000000000000000E80000000000000000000000000000000000000000000000000000000000000000000000000000000000000000000000000000000000000000000000000000000000000000000000000000000000000000000000000000000000000000
310
000000000000000000000000000000000000000000000000000000000000000000000000000000000000000000000000000000000000000000000000000000000000000000F5E1F3E1E1E1E1E1000000000000000000000000000000000000000000000000000000000000000000000000000000F4E1F300000000000000E1
310
0000000000000000000000000000000000000000000000000000E1E80000000000000000E8000000000000000000000000000000000000000000000000000000000000000000000000000000000000000000000000000000000000000000000000000000000000000000000000000000000000000000000000000000000000
310
0000000000000000000000000000000000000000000000000000000000000000000000000000000000000000000000000000000000000000000000000000000000000000000000F50000000000E1E1000000000000000000000000000000000000000000000000000000000000000000000000F3000000EBE1E1F400000000
310
00E10000000000000000000000000000000000000000000000000000E1E800000000000000E80000000000000000000000000000000000000000000000000000000000000000000000000000000000000000000000000000000000000000000000000000000000000000000000000000000000000000000000000000000000
310
0000000000000000000000000000000000000000000000000000000000E100000000000000000000000000000000000000000000000000000000000000000000000000000000000000F50000000000F4E1000000000000000000000000000000000000000000000000000000000000000000000000E1F400000000ECE1E1E8
310
0000E1E10000000000000000000000000000000000000000000000000000E1ECF3E1E1E1F3E1E1E1E10000000000000000000000000000000000000000000000000000000000000000000000000000000000000000000000000000000000000000000000000000000000000000000000000000000000000000000000000000
310
000000000000000000000000000000000000000000000000000000000000000000000000000000000000000000000000000000000000000000000000000000000000000000000000000000F50000000000E1E1000000000000000000000000000000000000000000000000000000000000000000000000ECE1000000000000
310
E1E1E1E1E1E100000000000000000000000000000000000000000000000000E8E1F3E1E1E1E1E1E1E1E1F4000000000000000000000000000000000000E80000000000EB0000000000000000000000000000000000000000000000000000000000000000000000000000000000000000000000000000000000000000000000
310
0000000000000000000000000000000000000000000000000000000000000000000000000000000000000000000000000000000000000000000000000000000000000000000000000000000000F500000000E8E1E1000000E80000000000000000000000000000000000000000000000000000000000000000E8E100000000
310
000000E8E1E1F4000000000000000000000000000000000000000000000000000000E1ECEBE1E1E1E1E1E1E100000000000000000000000000000000000000E800E8E90000E1000000000000000000000000000000000000000000000000000000000000000000000000000000000000000000000000000000000000000000
310
000000000000000000000000000000000000F4E80000000000000000000000000000000000000000000000000000000000000000000000000000000000000000000000000000000000000000000000F50000000000E1E100000000000000000000000000000000000000000000000000000000000000000000000000E80000
310
000000000000000000000000000000000000000000000000000000000000000000000000E1E800E1E1E1E1E1E1E1000000000000000000000000000000000000000000000000000000000000000000000000000000000000000000000000000000000000000000000000000000000000000000000000000000000000000000
310
0000000000000000000000000000000000000000E8000000000000000000000000000000000000000000000000000000000000000000000000000000000000000000000000000000000000000000000000F50000000000E1E1000000000000000000000000000000000000000000000000E80000000000000000000000EBE1
310
E800000000000000000000000000000000000000000000000000000000000000000000000000E1EB00E1E1F4E8F4E1F3000000000000000000000000000000000000000000000000000000E8E1E1000000000000000000000000000000E8000000000000000000000000000000000000000000E8E800000000000000000000
310
000000000000000000000000000000000000000000000000000000E8E8000000000000000000000000000000000000000000000000000000000000000000000000000000000000000000000000000000000000F50000000000E1E1E80000000000000000000000000000000000000000E800F4E1E1EBE1E1E8F4E1E8000000
310
ECE1E10000000000000000E9E800000000000000000000000000000000000000000000E8000000F4E1E1E8E8000000000000000000000000000000000000000000000000000000000000000000F4E1E1F40000000000000000000000000000F3EC0000000000000000000000000000000000000000E1E10000000000000000
310
0000000000000000000000000000000000000000000000000000000000E1E1000000000000000000000000000000000000000000000000000000000000000000000000000000000000000000000000000000000000F500000000E8E1E1EC00000000000000000000000000000000000000000000E1E1E1E1E1E1E1E1E1E800
310
0000E8E1E1E80000000000000000000000000000000000000000000000000000000000000000000000E1E1E1F400000000000000000000000000000000000000000000000000000000000000000000EBE1E1E10000000000000000000000000000000000000000000000000000000000000000000000E1E1E1E10000000000
310
000000000000000000000000000000000000000000000000000000000000E1E1E1EB0000000000000000000000000000000000000000000000000000000000000000000000000000000000000000000000000000000000F50000000000F3E10000000000000000000000000000000000000000000000E1E1E1E1E1E1E1E1E1
310
0000000000E8EC00000000000000000000000000000000000000000000000000000000000000000000000000E1E8000000000000000000000000000000000000F40000000000000000000000000000000000ECE100000000000000000000000000000000000000000000000000000000000000000000000000E1F400000000
310
000000000000000000000000000000000000000000000000000000000000000000E1E1000000000000000000000000000000000000000000000000000000000000000000000000000000000000000000000000000000000000F50000000000F4E1EB00000000000000000000000000000000000000000000ECE1EBE9000000
310
F4E80000000000000000000000000000000000000000000000000000000000000000000000000000000000000000F400000000000000000000000000000000000000E1E80000000000000000000000000000000000000000000000000000000000000000000000000000000000000000000000000000000000000000000000
310
0000000000000000000000000000000000000000000000000000000000000000000000E8E9000000000000000000000000000000000000000000000000000000000000000000000000000000000000000000000000000000000000F50000000000E8F400000000000000000000000000000000E8E1E8000000000000000000
310
000000000000000000000000000000000000000000000000000000000000000000000000000000000000000000000000F400000000000000000000000000000000000000F400000000000000000000000000000000000000000000000000000000000000000000000000000000000000000000000000000000000000000000
310
000000000000000000000000000000000000000000000000000000000000000000000000000000000000000000000000000000000000000000000000000000000000000000000000000000000000000000000000000000000000000000F50000000000F4F300000000E800E8E9E800000000000000E8E1E8E9000000000000
310
0000000000000000000000000000000000000000000000000000000000000000000000000000000000000000000000000000E100000000000000000000000000000000000000000000000000000000000000000000000000000000000000000000000000000000000000000000000000000000000000000000000000000000
310
00000000000000000000000000000000000000000000000000000000000000000000000000000000000000000000000000000000
  0
ENDSEC
  0
EOF
