  0
SECTION
  2
HEADER
  9
$ACADVER
  1
AC1032
  9
$ACADMAINTVER
 90
       55
  9
$DWGCODEPAGE
  3
ANSI_1252
  9
$LASTSAVEDBY
  1
eac573
  9
$REQUIREDVERSIONS
160
                 0
  9
$INSBASE
 10
0.0
 20
0.0
 30
0.0
  9
$EXTMIN
 10
33.93441656589708
 20
10.50145629288183
 30
-0.0015258207003583
  9
$EXTMAX
 10
42.33517577570134
 20
19.62040140060013
 30
0.0000000349246037
  9
$LIMMIN
 10
0.0
 20
0.0
  9
$LIMMAX
 10
12.0
 20
9.0
  9
$ORTHOMODE
 70
     0
  9
$REGENMODE
 70
     1
  9
$FILLMODE
 70
     1
  9
$QTEXTMODE
 70
     0
  9
$MIRRTEXT
 70
     0
  9
$LTSCALE
 40
1.0
  9
$ATTMODE
 70
     1
  9
$TEXTSIZE
 40
0.2
  9
$TRACEWID
 40
0.05
  9
$TEXTSTYLE
  7
Standard
  9
$CLAYER
  8
CONTEXT
  9
$CELTYPE
  6
ByLayer
  9
$CECOLOR
 62
   256
  9
$CELTSCALE
 40
1.0
  9
$DISPSILH
 70
     0
  9
$DIMSCALE
 40
1.0
  9
$DIMASZ
 40
0.18
  9
$DIMEXO
 40
0.0625
  9
$DIMDLI
 40
0.38
  9
$DIMRND
 40
0.0
  9
$DIMDLE
 40
0.0
  9
$DIMEXE
 40
0.18
  9
$DIMTP
 40
0.0
  9
$DIMTM
 40
0.0
  9
$DIMTXT
 40
0.18
  9
$DIMCEN
 40
0.09
  9
$DIMTSZ
 40
0.0
  9
$DIMTOL
 70
     0
  9
$DIMLIM
 70
     0
  9
$DIMTIH
 70
     1
  9
$DIMTOH
 70
     1
  9
$DIMSE1
 70
     0
  9
$DIMSE2
 70
     0
  9
$DIMTAD
 70
     0
  9
$DIMZIN
 70
     0
  9
$DIMBLK
  1

  9
$DIMASO
 70
     1
  9
$DIMSHO
 70
     1
  9
$DIMPOST
  1

  9
$DIMAPOST
  1

  9
$DIMALT
 70
     0
  9
$DIMALTD
 70
     2
  9
$DIMALTF
 40
25.4
  9
$DIMLFAC
 40
1.0
  9
$DIMTOFL
 70
     0
  9
$DIMTVP
 40
0.0
  9
$DIMTIX
 70
     0
  9
$DIMSOXD
 70
     0
  9
$DIMSAH
 70
     0
  9
$DIMBLK1
  1

  9
$DIMBLK2
  1

  9
$DIMSTYLE
  2
Standard
  9
$DIMCLRD
 70
     0
  9
$DIMCLRE
 70
     0
  9
$DIMCLRT
 70
     0
  9
$DIMTFAC
 40
1.0
  9
$DIMGAP
 40
0.09
  9
$DIMJUST
 70
     0
  9
$DIMSD1
 70
     0
  9
$DIMSD2
 70
     0
  9
$DIMTOLJ
 70
     1
  9
$DIMTZIN
 70
     0
  9
$DIMALTZ
 70
     0
  9
$DIMALTTZ
 70
     0
  9
$DIMUPT
 70
     0
  9
$DIMDEC
 70
     4
  9
$DIMTDEC
 70
     4
  9
$DIMALTU
 70
     2
  9
$DIMALTTD
 70
     2
  9
$DIMTXSTY
  7
Standard
  9
$DIMAUNIT
 70
     0
  9
$DIMADEC
 70
     0
  9
$DIMALTRND
 40
0.0
  9
$DIMAZIN
 70
     0
  9
$DIMDSEP
 70
    46
  9
$DIMATFIT
 70
     3
  9
$DIMFRAC
 70
     0
  9
$DIMLDRBLK
  1

  9
$DIMLUNIT
 70
     2
  9
$DIMLWD
 70
    -2
  9
$DIMLWE
 70
    -2
  9
$DIMTMOVE
 70
     0
  9
$DIMFXL
 40
1.0
  9
$DIMFXLON
 70
     0
  9
$DIMJOGANG
 40
0.7853981633974483
  9
$DIMTFILL
 70
     0
  9
$DIMTFILLCLR
 70
     0
  9
$DIMARCSYM
 70
     0
  9
$DIMLTYPE
  6

  9
$DIMLTEX1
  6

  9
$DIMLTEX2
  6

  9
$DIMTXTDIRECTION
 70
     0
  9
$LUNITS
 70
     2
  9
$LUPREC
 70
     4
  9
$SKETCHINC
 40
0.1
  9
$FILLETRAD
 40
0.0
  9
$AUNITS
 70
     0
  9
$AUPREC
 70
     0
  9
$MENU
  1
.
  9
$ELEVATION
 40
0.0
  9
$PELEVATION
 40
0.0
  9
$THICKNESS
 40
0.0
  9
$LIMCHECK
 70
     0
  9
$CHAMFERA
 40
0.0
  9
$CHAMFERB
 40
0.0
  9
$CHAMFERC
 40
0.0
  9
$CHAMFERD
 40
0.0
  9
$SKPOLY
 70
     0
  9
$TDCREATE
 40
2452643.063384271
  9
$TDUCREATE
 40
2452643.063384271
  9
$TDUPDATE
 40
2459647.477805533
  9
$TDUUPDATE
 40
2459647.477805533
  9
$TDINDWG
 40
1.4154984838
  9
$TDUSRTIMER
 40
2459052.85957213
  9
$USRTIMER
 70
     1
  9
$ANGBASE
 50
0.0
  9
$ANGDIR
 70
     0
  9
$PDMODE
 70
     0
  9
$PDSIZE
 40
0.0
  9
$PLINEWID
 40
0.0
  9
$SPLFRAME
 70
     0
  9
$SPLINETYPE
 70
     6
  9
$SPLINESEGS
 70
     8
  9
$HANDSEED
  5
2295
  9
$SURFTAB1
 70
     6
  9
$SURFTAB2
 70
     6
  9
$SURFTYPE
 70
     6
  9
$SURFU
 70
     6
  9
$SURFV
 70
     6
  9
$UCSBASE
  2

  9
$UCSNAME
  2

  9
$UCSORG
 10
0.0
 20
0.0
 30
0.0
  9
$UCSXDIR
 10
1.0
 20
0.0
 30
0.0
  9
$UCSYDIR
 10
0.0
 20
1.0
 30
0.0
  9
$UCSORTHOREF
  2

  9
$UCSORTHOVIEW
 70
     0
  9
$UCSORGTOP
 10
0.0
 20
0.0
 30
0.0
  9
$UCSORGBOTTOM
 10
0.0
 20
0.0
 30
0.0
  9
$UCSORGLEFT
 10
0.0
 20
0.0
 30
0.0
  9
$UCSORGRIGHT
 10
0.0
 20
0.0
 30
0.0
  9
$UCSORGFRONT
 10
0.0
 20
0.0
 30
0.0
  9
$UCSORGBACK
 10
0.0
 20
0.0
 30
0.0
  9
$PUCSBASE
  2

  9
$PUCSNAME
  2

  9
$PUCSORG
 10
0.0
 20
0.0
 30
0.0
  9
$PUCSXDIR
 10
1.0
 20
0.0
 30
0.0
  9
$PUCSYDIR
 10
0.0
 20
1.0
 30
0.0
  9
$PUCSORTHOREF
  2

  9
$PUCSORTHOVIEW
 70
     0
  9
$PUCSORGTOP
 10
0.0
 20
0.0
 30
0.0
  9
$PUCSORGBOTTOM
 10
0.0
 20
0.0
 30
0.0
  9
$PUCSORGLEFT
 10
0.0
 20
0.0
 30
0.0
  9
$PUCSORGRIGHT
 10
0.0
 20
0.0
 30
0.0
  9
$PUCSORGFRONT
 10
0.0
 20
0.0
 30
0.0
  9
$PUCSORGBACK
 10
0.0
 20
0.0
 30
0.0
  9
$USERI1
 70
     0
  9
$USERI2
 70
     0
  9
$USERI3
 70
     0
  9
$USERI4
 70
     0
  9
$USERI5
 70
     0
  9
$USERR1
 40
0.0
  9
$USERR2
 40
0.0
  9
$USERR3
 40
0.0
  9
$USERR4
 40
0.0
  9
$USERR5
 40
0.0
  9
$WORLDVIEW
 70
     1
  9
$SHADEDGE
 70
     3
  9
$SHADEDIF
 70
    70
  9
$TILEMODE
 70
     1
  9
$MAXACTVP
 70
    64
  9
$PINSBASE
 10
0.0
 20
0.0
 30
0.0
  9
$PLIMCHECK
 70
     0
  9
$PEXTMIN
 10
0.0
 20
0.0
 30
0.0
  9
$PEXTMAX
 10
0.0
 20
0.0
 30
0.0
  9
$PLIMMIN
 10
0.0
 20
0.0
  9
$PLIMMAX
 10
12.0
 20
9.0
  9
$UNITMODE
 70
     0
  9
$VISRETAIN
 70
     1
  9
$PLINEGEN
 70
     0
  9
$PSLTSCALE
 70
     1
  9
$TREEDEPTH
 70
  3020
  9
$CMLSTYLE
  2
Standard
  9
$CMLJUST
 70
     0
  9
$CMLSCALE
 40
1.0
  9
$PROXYGRAPHICS
 70
     1
  9
$MEASUREMENT
 70
     0
  9
$CELWEIGHT
370
    -1
  9
$ENDCAPS
280
     0
  9
$JOINSTYLE
280
     0
  9
$LWDISPLAY
290
     0
  9
$INSUNITS
 70
     6
  9
$HYPERLINKBASE
  1

  9
$STYLESHEET
  1

  9
$XEDIT
290
     1
  9
$CEPSNTYPE
380
     0
  9
$PSTYLEMODE
290
     1
  9
$FINGERPRINTGUID
  2
{FDEAD576-A652-11D2-9A35-0060089B3A3F}
  9
$VERSIONGUID
  2
{537B7028-67F3-F74E-A38E-CA5FE5521335}
  9
$EXTNAMES
290
     1
  9
$PSVPSCALE
 40
0.0
  9
$OLESTARTUP
290
     0
  9
$SORTENTS
280
   127
  9
$INDEXCTL
280
     0
  9
$HIDETEXT
280
     1
  9
$XCLIPFRAME
280
     0
  9
$HALOGAP
280
     0
  9
$OBSCOLOR
 70
   257
  9
$OBSLTYPE
280
     0
  9
$INTERSECTIONDISPLAY
280
     0
  9
$INTERSECTIONCOLOR
 70
   257
  9
$DIMASSOC
280
     2
  9
$PROJECTNAME
  1

  9
$CAMERADISPLAY
290
     0
  9
$LENSLENGTH
 40
50.0
  9
$CAMERAHEIGHT
 40
0.0
  9
$STEPSPERSEC
 40
2.0
  9
$STEPSIZE
 40
6.0
  9
$3DDWFPREC
 40
2.0
  9
$PSOLWIDTH
 40
0.25
  9
$PSOLHEIGHT
 40
4.0
  9
$LOFTANG1
 40
1.570796326794897
  9
$LOFTANG2
 40
1.570796326794897
  9
$LOFTMAG1
 40
0.0
  9
$LOFTMAG2
 40
0.0
  9
$LOFTPARAM
 70
     7
  9
$LOFTNORMALS
280
     1
  9
$LATITUDE
 40
37.795
  9
$LONGITUDE
 40
-122.394
  9
$NORTHDIRECTION
 40
0.0
  9
$TIMEZONE
 70
 -8000
  9
$LIGHTGLYPHDISPLAY
280
     1
  9
$TILEMODELIGHTSYNCH
280
     1
  9
$CMATERIAL
347
96
  9
$SOLIDHIST
280
     1
  9
$SHOWHIST
280
     1
  9
$DWFFRAME
280
     2
  9
$DGNFRAME
280
     2
  9
$REALWORLDSCALE
290
     1
  9
$INTERFERECOLOR
 62
     1
  9
$INTERFEREOBJVS
345
A3
  9
$INTERFEREVPVS
346
E3
  9
$CSHADOW
280
     0
  9
$SHADOWPLANELOCATION
 40
0.0
  0
ENDSEC
  0
SECTION
  2
CLASSES
  0
CLASS
  1
ACDBDICTIONARYWDFLT
  2
AcDbDictionaryWithDefault
  3
ObjectDBX Classes
 90
        0
 91
        3
280
     0
281
     0
  0
CLASS
  1
ACDBPLACEHOLDER
  2
AcDbPlaceHolder
  3
ObjectDBX Classes
 90
        0
 91
        1
280
     0
281
     0
  0
CLASS
  1
LAYOUT
  2
AcDbLayout
  3
ObjectDBX Classes
 90
        0
 91
        1
280
     0
281
     0
  0
CLASS
  1
DICTIONARYVAR
  2
AcDbDictionaryVar
  3
ObjectDBX Classes
 90
        0
 91
        3
280
     0
281
     0
  0
CLASS
  1
TABLESTYLE
  2
AcDbTableStyle
  3
ObjectDBX Classes
 90
     4095
 91
        3
280
     0
281
     0
  0
CLASS
  1
MATERIAL
  2
AcDbMaterial
  3
ObjectDBX Classes
 90
     1153
 91
        3
280
     0
281
     0
  0
CLASS
  1
VISUALSTYLE
  2
AcDbVisualStyle
  3
ObjectDBX Classes
 90
     4095
 91
        3
280
     0
281
     0
  0
CLASS
  1
SCALE
  2
AcDbScale
  3
ObjectDBX Classes
 90
     1153
 91
        3
280
     0
281
     0
  0
CLASS
  1
CELLSTYLEMAP
  2
AcDbCellStyleMap
  3
ObjectDBX Classes
 90
     1152
 91
        3
280
     0
281
     0
  0
CLASS
  1
RASTERVARIABLES
  2
AcDbRasterVariables
  3
ISM
 90
        0
 91
        3
280
     0
281
     0
  0
CLASS
  1
SUN
  2
AcDbSun
  3
SCENEOE
 90
     1153
 91
        3
280
     0
281
     0
  0
CLASS
  1
MLEADERSTYLE
  2
AcDbMLeaderStyle
  3
ACDB_MLEADERSTYLE_CLASS
 90
     4095
 91
        3
280
     0
281
     0
  0
CLASS
  1
SORTENTSTABLE
  2
AcDbSortentsTable
  3
ObjectDBX Classes
 90
        0
 91
        3
280
     0
281
     0
  0
CLASS
  1
ACDBSECTIONVIEWSTYLE
  2
AcDbSectionViewStyle
  3
ObjectDBX Classes
 90
     1025
 91
        3
280
     0
281
     0
  0
CLASS
  1
ACDBDETAILVIEWSTYLE
  2
AcDbDetailViewStyle
  3
ObjectDBX Classes
 90
     1025
 91
        3
280
     0
281
     0
  0
CLASS
  1
DMMAPMANAGER
  2
AcMapDMMapManager
  3
AcMapDisplayManagement
 90
     1024
 91
        2
280
     1
281
     0
  0
CLASS
  1
DMSTYLELIBRARY
  2
AcMapDMStyleLibrary
  3
AcMapDisplayManagement
 90
     1024
 91
        2
280
     1
281
     0
  0
CLASS
  1
DMSTYLECATEGORY
  2
AcMapDMStyleCategory
  3
AcMapDisplayManagement
 90
     1024
 91
        2
280
     1
281
     0
  0
CLASS
  1
DATATABLE
  2
AcDbDataTable
  3
ObjectDBX Classes
 90
        0
 91
        3
280
     0
281
     0
  0
CLASS
  1
MAPGWSUNDOOBJECT
  2
AcMapGWSUndoRecorder
  3
AcMapFeatureSourceManager
 90
     1025
 91
        1
280
     1
281
     0
  0
CLASS
  1
DMMAP
  2
AcMapDMMap
  3
AcMapDisplayManagement
 90
     1024
 91
        2
280
     1
281
     0
  0
CLASS
  1
DMBASEELEMENT
  2
AcMapDMBaseElement
  3
AcMapDisplayManagement
 90
     1024
 91
        2
280
     1
281
     0
  0
CLASS
  1
DMDEFAULTSTYLE
  2
AcMapDMDefaultStyle
  3
AcMapDisplayManagement
 90
     1024
 91
        2
280
     1
281
     0
  0
CLASS
  1
DMSTYLEREFERENCE
  2
AcMapDMStyleReference
  3
AcMapDisplayManagement
 90
     1024
 91
        2
280
     1
281
     0
  0
CLASS
  1
DMSURROGATESTYLESETS
  2
AcMapDMSurrogateStyleSets
  3
AcMapDisplayManagement
 90
     1153
 91
        2
280
     1
281
     0
  0
CLASS
  1
DMSTYLIZEDENTITIESTABLE
  2
AcMapDMStylizedEntitiesTable
  3
AcMapDisplayManagement
 90
     1024
 91
        2
280
     1
281
     0
  0
CLASS
  1
IMAGEDEF
  2
AcDbRasterImageDef
  3
ISM
 90
        0
 91
        3
280
     0
281
     0
  0
CLASS
  1
IMAGEDEF_REACTOR
  2
AcDbRasterImageDefReactor
  3
ISM
 90
        1
 91
        3
280
     0
281
     0
  0
CLASS
  1
IMAGE
  2
AcDbRasterImage
  3
ISM
 90
      127
 91
        4
280
     0
281
     1
  0
CLASS
  1
MAPRESOURCEMANAGEROBJECT
  2
AcMapResourceManager
  3
AcMapSharedComponents
 90
     1024
 91
        1
280
     1
281
     0
  0
CLASS
  1
EXACXREFPANELOBJECT
  2
ExAcXREFPanelObject
  3
EXAC_ESW
 90
     1025
 91
        1
280
     1
281
     0
  0
CLASS
  1
NPOCOLLECTION
  2
AcDbImpNonPersistentObjectsCollection
  3
ObjectDBX Classes
 90
     1153
 91
        1
280
     1
281
     0
  0
ENDSEC
  0
SECTION
  2
TABLES
  0
TABLE
  2
VPORT
  5
8
330
0
100
AcDbSymbolTable
 70
     1
  0
VPORT
  5
94
330
8
100
AcDbSymbolTableRecord
100
AcDbViewportTableRecord
  2
*Active
 70
     0
 10
0.0
 20
0.0
 11
1.0
 21
1.0
 12
63.19957523635021
 22
32.11329652599177
 13
0.0
 23
0.0
 14
0.5
 24
0.5
 15
0.5
 25
0.5
 16
0.0
 26
0.0
 36
1.0
 17
-27.66959356597977
 27
-19.53870295786203
 37
0.0
 40
1.075925911912704
 41
2.679810725552051
 42
50.0
 43
0.0
 44
0.0
 50
0.0
 51
0.0
 71
    16
 72
  1000
 73
     1
 74
     3
 75
     0
 76
     0
 77
     0
 78
     0
281
     0
 65
     1
110
0.0
120
0.0
130
0.0
111
1.0
121
0.0
131
0.0
112
0.0
122
1.0
132
0.0
 79
     0
146
0.0
348
9F
 60
     2
 61
     5
292
     1
282
     1
141
0.0
142
0.0
 63
   250
421
  3355443
361
ED
1001
ACAD_NAV_VCDISPLAY
1070
     3
  0
ENDTAB
  0
TABLE
  2
LTYPE
  5
5
330
0
100
AcDbSymbolTable
 70
     3
  0
LTYPE
  5
14
330
5
100
AcDbSymbolTableRecord
100
AcDbLinetypeTableRecord
  2
ByBlock
 70
     0
  3

 72
    65
 73
     0
 40
0.0
  0
LTYPE
  5
15
330
5
100
AcDbSymbolTableRecord
100
AcDbLinetypeTableRecord
  2
ByLayer
 70
     0
  3

 72
    65
 73
     0
 40
0.0
  0
LTYPE
  5
16
330
5
100
AcDbSymbolTableRecord
100
AcDbLinetypeTableRecord
  2
Continuous
 70
     0
  3
Solid line
 72
    65
 73
     0
 40
0.0
  0
LTYPE
  5
134
330
5
100
AcDbSymbolTableRecord
100
AcDbLinetypeTableRecord
  2
DASHDOT
 70
     0
  3
DashDot __  . __  . __  . __  . __  . __  . __ 
 72
    65
 73
     4
 40
25.4
 49
12.7
 74
     0
 49
-6.35
 74
     0
 49
0.0
 74
     0
 49
-6.35
 74
     0
  0
LTYPE
  5
38A
330
5
100
AcDbSymbolTableRecord
100
AcDbLinetypeTableRecord
  2
ACAD_ISO02W100
 70
     0
  3
ISO dash __ __ __ __ __ __ __ __ __ __ __ __ __
 72
    65
 73
     2
 40
15.0
 49
12.0
 74
     0
 49
-3.0
 74
     0
  0
ENDTAB
  0
TABLE
  2
LAYER
  5
2
102
{ACAD_XDICTIONARY
360
191
102
}
330
0
100
AcDbSymbolTable
 70
     7
  0
LAYER
  5
10
330
2
100
AcDbSymbolTableRecord
100
AcDbLayerTableRecord
  2
0
 70
     0
 62
     7
  6
Continuous
370
    -3
390
F
347
98
348
0
  0
LAYER
  5
12D
330
2
100
AcDbSymbolTableRecord
100
AcDbLayerTableRecord
  2
CONTEXT
 70
     0
 62
     7
  6
Continuous
370
    -3
390
F
347
98
348
0
1001
AcAecLayerStandard
1000

1000

  0
LAYER
  5
130
330
2
100
AcDbSymbolTableRecord
100
AcDbLayerTableRecord
  2
Annotatons
 70
     0
 62
     7
  6
Continuous
370
    -3
390
F
347
98
348
0
1001
AcAecLayerStandard
1000

1000

  0
LAYER
  5
131
330
2
100
AcDbSymbolTableRecord
100
AcDbLayerTableRecord
  2
Section point
 70
     0
 62
     7
  6
Continuous
370
    -3
390
F
347
98
348
0
1001
AcAecLayerStandard
1000

1000

  0
LAYER
  5
132
330
2
100
AcDbSymbolTableRecord
100
AcDbLayerTableRecord
  2
aOD
 70
     0
 62
     7
  6
Continuous
370
    -3
390
F
347
98
348
0
1001
AcAecLayerStandard
1000

1000

  0
LAYER
  5
133
330
2
100
AcDbSymbolTableRecord
100
AcDbLayerTableRecord
  2
Point_ID
 70
     0
 62
     7
  6
Continuous
370
    -3
390
F
347
98
348
0
  0
LAYER
  5
46F
330
2
100
AcDbSymbolTableRecord
100
AcDbLayerTableRecord
  2
Scanned drawing
 70
     0
 62
     7
  6
Continuous
370
    -3
390
F
347
98
348
0
1001
AcAecLayerStandard
1000

1000

1001
AcCmTransparency
1071
        0
  0
ENDTAB
  0
TABLE
  2
STYLE
  5
3
330
0
100
AcDbSymbolTable
 70
     5
  0
STYLE
  5
11
330
3
100
AcDbSymbolTableRecord
100
AcDbTextStyleTableRecord
  2
Standard
 70
     0
 40
0.0
 41
1.0
 50
0.0
 71
     0
 42
0.2
  3
arial.ttf
  4

1001
ACAD
1000
Arial
1071
        0
  0
STYLE
  5
125
330
3
100
AcDbSymbolTableRecord
100
AcDbTextStyleTableRecord
  2
Annotative
 70
     0
 40
0.0
 41
1.0
 50
0.0
 71
     0
 42
0.2
  3
arial.ttf
  4

1001
ACAD
1000
Arial
1071
        0
1001
AcadAnnotative
1000
AnnotativeData
1002
{
1070
     1
1070
     1
1002
}
  0
STYLE
  5
138
330
3
100
AcDbSymbolTableRecord
100
AcDbTextStyleTableRecord
  2
Text
 70
     0
 40
0.0
 41
1.0
 50
0.0
 71
     0
 42
0.2
  3
ARIALUNI.TTF
  4

1001
ACAD
1000
Arial Unicode MS
1071
        0
  0
STYLE
  5
233
330
3
100
AcDbSymbolTableRecord
100
AcDbTextStyleTableRecord
  2
Legend
 70
     0
 40
0.0
 41
1.0
 50
0.0
 71
     0
 42
0.2
  3
calibri.ttf
  4

1001
ACAD
1000
Calibri
1071
      256
  0
STYLE
  5
389
330
3
100
AcDbSymbolTableRecord
100
AcDbTextStyleTableRecord
  2

 70
     1
 40
0.0
 41
1.0
 50
0.0
 71
     0
 42
0.2
  3
ltypeshp.shx
  4

  0
ENDTAB
  0
TABLE
  2
VIEW
  5
6
330
0
100
AcDbSymbolTable
 70
     0
  0
ENDTAB
  0
TABLE
  2
UCS
  5
7
330
0
100
AcDbSymbolTable
 70
     0
  0
ENDTAB
  0
TABLE
  2
APPID
  5
9
330
0
100
AcDbSymbolTable
 70
    10
  0
APPID
  5
12
330
9
100
AcDbSymbolTableRecord
100
AcDbRegAppTableRecord
  2
ACAD
 70
     0
  0
APPID
  5
126
330
9
100
AcDbSymbolTableRecord
100
AcDbRegAppTableRecord
  2
AcadAnnotative
 70
     0
  0
APPID
  5
12F
330
9
100
AcDbSymbolTableRecord
100
AcDbRegAppTableRecord
  2
AcAecLayerStandard
 70
     0
  0
APPID
  5
237
330
9
100
AcDbSymbolTableRecord
100
AcDbRegAppTableRecord
  2
AcMapDMDisplayStyleRegapp
 70
     0
  0
APPID
  5
246
330
9
100
AcDbSymbolTableRecord
100
AcDbRegAppTableRecord
  2
ACAD_NAV_VCDISPLAY
 70
     0
  0
APPID
  5
247
330
9
100
AcDbSymbolTableRecord
100
AcDbRegAppTableRecord
  2
DCO15
 70
     0
  0
APPID
  5
256
330
9
100
AcDbSymbolTableRecord
100
AcDbRegAppTableRecord
  2
ACAD_EXEMPT_FROM_CAD_STANDARDS
 70
     0
  0
APPID
  5
27B
330
9
100
AcDbSymbolTableRecord
100
AcDbRegAppTableRecord
  2
ADE
 70
     0
  0
APPID
  5
303
330
9
100
AcDbSymbolTableRecord
100
AcDbRegAppTableRecord
  2
MapGWS
 70
     0
  0
APPID
  5
470
330
9
100
AcDbSymbolTableRecord
100
AcDbRegAppTableRecord
  2
AcCmTransparency
 70
     0
  0
ENDTAB
  0
TABLE
  2
DIMSTYLE
  5
A
330
0
100
AcDbSymbolTable
 70
     3
100
AcDbDimStyleTable
  0
DIMSTYLE
105
27
330
A
100
AcDbSymbolTableRecord
100
AcDbDimStyleTableRecord
  2
Standard
 70
     0
178
     0
340
11
  0
DIMSTYLE
105
127
330
A
100
AcDbSymbolTableRecord
100
AcDbDimStyleTableRecord
  2
Annotative
 70
     0
 40
0.0
178
     0
340
11
1001
AcadAnnotative
1000
AnnotativeData
1002
{
1070
     1
1070
     1
1002
}
  0
DIMSTYLE
105
137
330
A
100
AcDbSymbolTableRecord
100
AcDbDimStyleTableRecord
  2
ISO-25
 70
     0
 41
2.5
 42
0.625
 43
3.75
 44
1.25
 73
     0
 74
     0
 77
     1
 78
     8
140
2.5
141
2.5
143
0.03937007874016
147
0.625
171
     3
172
     1
178
     0
271
     2
272
     2
274
     3
278
    44
283
     0
284
     8
340
11
  0
ENDTAB
  0
TABLE
  2
BLOCK_RECORD
  5
1
330
0
100
AcDbSymbolTable
 70
    44
  0
BLOCK_RECORD
  5
1F
102
{ACAD_XDICTIONARY
360
23B
102
}
330
1
100
AcDbSymbolTableRecord
100
AcDbBlockTableRecord
  2
*Model_Space
340
22
 70
     0
280
     1
281
     0
  0
BLOCK_RECORD
  5
58
330
1
100
AcDbSymbolTableRecord
100
AcDbBlockTableRecord
  2
*Paper_Space
340
59
 70
     0
280
     1
281
     0
  0
BLOCK_RECORD
  5
5D
330
1
100
AcDbSymbolTableRecord
100
AcDbBlockTableRecord
  2
*Paper_Space0
340
5E
 70
     0
280
     1
281
     0
  0
BLOCK_RECORD
  5
29E
102
{ACAD_XDICTIONARY
360
2A3
102
}
330
1
100
AcDbSymbolTableRecord
100
AcDbBlockTableRecord
  2
A$C11336558
340
0
 70
     6
280
     1
281
     0
  0
BLOCK_RECORD
  5
2C3
102
{ACAD_XDICTIONARY
360
2C5
102
}
330
1
100
AcDbSymbolTableRecord
100
AcDbBlockTableRecord
  2
A$C6D9D1ACC
340
0
 70
     6
280
     1
281
     0
  0
BLOCK_RECORD
  5
320
102
{ACAD_XDICTIONARY
360
324
102
}
330
1
100
AcDbSymbolTableRecord
100
AcDbBlockTableRecord
  2
A$C04FD1CE1
340
0
 70
     6
280
     1
281
     0
  0
BLOCK_RECORD
  5
430
102
{ACAD_XDICTIONARY
360
432
102
}
330
1
100
AcDbSymbolTableRecord
100
AcDbBlockTableRecord
  2
A$C19F96357
340
0
 70
     6
280
     1
281
     0
  0
BLOCK_RECORD
  5
485
102
{ACAD_XDICTIONARY
360
488
102
}
330
1
100
AcDbSymbolTableRecord
100
AcDbBlockTableRecord
  2
A$C27A72A64
340
0
 70
     6
280
     1
281
     0
  0
BLOCK_RECORD
  5
48C
102
{ACAD_XDICTIONARY
360
48F
102
}
330
1
100
AcDbSymbolTableRecord
100
AcDbBlockTableRecord
  2
A$C4F0C64B1
340
0
 70
     6
280
     1
281
     0
  0
BLOCK_RECORD
  5
4AF
102
{ACAD_XDICTIONARY
360
4B2
102
}
330
1
100
AcDbSymbolTableRecord
100
AcDbBlockTableRecord
  2
A$C56044FEE
340
0
 70
     6
280
     1
281
     0
  0
BLOCK_RECORD
  5
71F
102
{ACAD_XDICTIONARY
360
723
102
}
330
1
100
AcDbSymbolTableRecord
100
AcDbBlockTableRecord
  2
A$C6A5D518D
340
0
 70
     6
280
     1
281
     0
  0
BLOCK_RECORD
  5
808
102
{ACAD_XDICTIONARY
360
80B
102
}
330
1
100
AcDbSymbolTableRecord
100
AcDbBlockTableRecord
  2
A$C42D858AF
340
0
 70
     6
280
     1
281
     0
  0
BLOCK_RECORD
  5
87C
102
{ACAD_XDICTIONARY
360
884
102
}
330
1
100
AcDbSymbolTableRecord
100
AcDbBlockTableRecord
  2
A$C26DD5F65
340
0
 70
     6
280
     1
281
     0
  0
BLOCK_RECORD
  5
954
102
{ACAD_XDICTIONARY
360
957
102
}
330
1
100
AcDbSymbolTableRecord
100
AcDbBlockTableRecord
  2
A$C0CA467E1
340
0
 70
     6
280
     1
281
     0
  0
BLOCK_RECORD
  5
A4F
102
{ACAD_XDICTIONARY
360
A52
102
}
330
1
100
AcDbSymbolTableRecord
100
AcDbBlockTableRecord
  2
A$C35CC0266
340
0
 70
     6
280
     1
281
     0
  0
BLOCK_RECORD
  5
A84
102
{ACAD_XDICTIONARY
360
A87
102
}
330
1
100
AcDbSymbolTableRecord
100
AcDbBlockTableRecord
  2
A$C00E978D5
340
0
 70
     6
280
     1
281
     0
  0
BLOCK_RECORD
  5
BDD
102
{ACAD_XDICTIONARY
360
BE0
102
}
330
1
100
AcDbSymbolTableRecord
100
AcDbBlockTableRecord
  2
A$C4F632BC0
340
0
 70
     6
280
     1
281
     0
  0
BLOCK_RECORD
  5
D12
102
{ACAD_XDICTIONARY
360
D15
102
}
330
1
100
AcDbSymbolTableRecord
100
AcDbBlockTableRecord
  2
A$C24402BE7
340
0
 70
     6
280
     1
281
     0
  0
BLOCK_RECORD
  5
D6D
102
{ACAD_XDICTIONARY
360
D6F
102
}
330
1
100
AcDbSymbolTableRecord
100
AcDbBlockTableRecord
  2
A$C1B232DAC
340
0
 70
     6
280
     1
281
     0
  0
BLOCK_RECORD
  5
ECF
102
{ACAD_XDICTIONARY
360
ED2
102
}
330
1
100
AcDbSymbolTableRecord
100
AcDbBlockTableRecord
  2
A$C0DB84EC2
340
0
 70
     6
280
     1
281
     0
  0
BLOCK_RECORD
  5
EF6
102
{ACAD_XDICTIONARY
360
EF8
102
}
330
1
100
AcDbSymbolTableRecord
100
AcDbBlockTableRecord
  2
A$C31475676
340
0
 70
     6
280
     1
281
     0
  0
BLOCK_RECORD
  5
F5B
102
{ACAD_XDICTIONARY
360
F60
102
}
330
1
100
AcDbSymbolTableRecord
100
AcDbBlockTableRecord
  2
A$C7C0C41CD
340
0
 70
     6
280
     1
281
     0
  0
BLOCK_RECORD
  5
106C
102
{ACAD_XDICTIONARY
360
106F
102
}
330
1
100
AcDbSymbolTableRecord
100
AcDbBlockTableRecord
  2
A$C5C2F151C
340
0
 70
     6
280
     1
281
     0
  0
BLOCK_RECORD
  5
1094
102
{ACAD_XDICTIONARY
360
1098
102
}
330
1
100
AcDbSymbolTableRecord
100
AcDbBlockTableRecord
  2
A$C6DCE0CB8
340
0
 70
     6
280
     1
281
     0
  0
BLOCK_RECORD
  5
120B
102
{ACAD_XDICTIONARY
360
120D
102
}
330
1
100
AcDbSymbolTableRecord
100
AcDbBlockTableRecord
  2
A$C61BD4E3A
340
0
 70
     6
280
     1
281
     0
  0
BLOCK_RECORD
  5
1397
102
{ACAD_XDICTIONARY
360
139B
102
}
330
1
100
AcDbSymbolTableRecord
100
AcDbBlockTableRecord
  2
A$C2C157546
340
0
 70
     6
280
     1
281
     0
  0
BLOCK_RECORD
  5
139F
102
{ACAD_XDICTIONARY
360
13A5
102
}
330
1
100
AcDbSymbolTableRecord
100
AcDbBlockTableRecord
  2
A$C72307F84
340
0
 70
     6
280
     1
281
     0
  0
BLOCK_RECORD
  5
149E
102
{ACAD_XDICTIONARY
360
14A0
102
}
330
1
100
AcDbSymbolTableRecord
100
AcDbBlockTableRecord
  2
A$C24D274F3
340
0
 70
     6
280
     1
281
     0
  0
BLOCK_RECORD
  5
15DD
102
{ACAD_XDICTIONARY
360
15DF
102
}
330
1
100
AcDbSymbolTableRecord
100
AcDbBlockTableRecord
  2
A$C7C3605DB
340
0
 70
     6
280
     1
281
     0
  0
BLOCK_RECORD
  5
1629
102
{ACAD_XDICTIONARY
360
162B
102
}
330
1
100
AcDbSymbolTableRecord
100
AcDbBlockTableRecord
  2
A$C7EB9609F
340
0
 70
     6
280
     1
281
     0
  0
BLOCK_RECORD
  5
1637
102
{ACAD_XDICTIONARY
360
1639
102
}
330
1
100
AcDbSymbolTableRecord
100
AcDbBlockTableRecord
  2
A$C11403F6C
340
0
 70
     6
280
     1
281
     0
  0
BLOCK_RECORD
  5
1654
102
{ACAD_XDICTIONARY
360
165C
102
}
330
1
100
AcDbSymbolTableRecord
100
AcDbBlockTableRecord
  2
A$C058704BE
340
0
 70
     6
280
     1
281
     0
  0
BLOCK_RECORD
  5
1660
102
{ACAD_XDICTIONARY
360
1666
102
}
330
1
100
AcDbSymbolTableRecord
100
AcDbBlockTableRecord
  2
A$C2DD707F3
340
0
 70
     6
280
     1
281
     0
  0
BLOCK_RECORD
  5
16B1
102
{ACAD_XDICTIONARY
360
16B7
102
}
330
1
100
AcDbSymbolTableRecord
100
AcDbBlockTableRecord
  2
A$C2CFB5E8F
340
0
 70
     6
280
     1
281
     0
  0
BLOCK_RECORD
  5
1774
102
{ACAD_XDICTIONARY
360
1776
102
}
330
1
100
AcDbSymbolTableRecord
100
AcDbBlockTableRecord
  2
A$C5DD95233
340
0
 70
     6
280
     1
281
     0
  0
BLOCK_RECORD
  5
1783
102
{ACAD_XDICTIONARY
360
1787
102
}
330
1
100
AcDbSymbolTableRecord
100
AcDbBlockTableRecord
  2
A$C33A50D34
340
0
 70
     6
280
     1
281
     0
  0
BLOCK_RECORD
  5
185F
102
{ACAD_XDICTIONARY
360
1863
102
}
330
1
100
AcDbSymbolTableRecord
100
AcDbBlockTableRecord
  2
A$C4ADB1A45
340
0
 70
     6
280
     1
281
     0
  0
BLOCK_RECORD
  5
19C6
102
{ACAD_XDICTIONARY
360
19C9
102
}
330
1
100
AcDbSymbolTableRecord
100
AcDbBlockTableRecord
  2
A$C3A5E4A09
340
0
 70
     6
280
     1
281
     0
  0
BLOCK_RECORD
  5
1CED
102
{ACAD_XDICTIONARY
360
1CEF
102
}
330
1
100
AcDbSymbolTableRecord
100
AcDbBlockTableRecord
  2
A$C03BC79CE
340
0
 70
     6
280
     1
281
     0
  0
BLOCK_RECORD
  5
1D5A
102
{ACAD_XDICTIONARY
360
1D5E
102
}
330
1
100
AcDbSymbolTableRecord
100
AcDbBlockTableRecord
  2
A$C3D817E1C
340
0
 70
     6
280
     1
281
     0
  0
BLOCK_RECORD
  5
1D9C
102
{ACAD_XDICTIONARY
360
1D9E
102
}
330
1
100
AcDbSymbolTableRecord
100
AcDbBlockTableRecord
  2
A$C326633BF
340
0
 70
     6
280
     1
281
     0
  0
BLOCK_RECORD
  5
1DDE
102
{ACAD_XDICTIONARY
360
1DE1
102
}
330
1
100
AcDbSymbolTableRecord
100
AcDbBlockTableRecord
  2
A$C688D25D6
340
0
 70
     6
280
     1
281
     0
  0
BLOCK_RECORD
  5
1E31
102
{ACAD_XDICTIONARY
360
1E33
102
}
330
1
100
AcDbSymbolTableRecord
100
AcDbBlockTableRecord
  2
A$C7A1871A4
340
0
 70
     6
280
     1
281
     0
  0
BLOCK_RECORD
  5
1F1F
102
{ACAD_XDICTIONARY
360
1F25
102
}
330
1
100
AcDbSymbolTableRecord
100
AcDbBlockTableRecord
  2
A$C14D1743E
340
0
 70
     6
280
     1
281
     0
  0
BLOCK_RECORD
  5
2156
102
{ACAD_XDICTIONARY
360
2159
102
}
330
1
100
AcDbSymbolTableRecord
100
AcDbBlockTableRecord
  2
A$C73995ACF
340
0
 70
     6
280
     1
281
     0
  0
BLOCK_RECORD
  5
2237
102
{ACAD_XDICTIONARY
360
223A
102
}
330
1
100
AcDbSymbolTableRecord
100
AcDbBlockTableRecord
  2
A$C4A8904C7
340
0
 70
     6
280
     1
281
     0
  0
ENDTAB
  0
ENDSEC
  0
SECTION
  2
BLOCKS
  0
BLOCK
  5
20
330
1F
100
AcDbEntity
  8
0
100
AcDbBlockBegin
  2
*Model_Space
 70
     0
 10
0.0
 20
0.0
 30
0.0
  3
*Model_Space
  1

  0
ENDBLK
  5
21
330
1F
100
AcDbEntity
  8
0
100
AcDbBlockEnd
  0
BLOCK
  5
5A
330
58
100
AcDbEntity
 67
     1
  8
0
100
AcDbBlockBegin
  2
*Paper_Space
 70
     0
 10
0.0
 20
0.0
 30
0.0
  3
*Paper_Space
  1

  0
ENDBLK
  5
5B
330
58
100
AcDbEntity
 67
     1
  8
0
100
AcDbBlockEnd
  0
BLOCK
  5
5F
330
5D
100
AcDbEntity
  8
0
100
AcDbBlockBegin
  2
*Paper_Space0
 70
     0
 10
0.0
 20
0.0
 30
0.0
  3
*Paper_Space0
  1

  0
ENDBLK
  5
60
330
5D
100
AcDbEntity
  8
0
100
AcDbBlockEnd
  0
BLOCK
  5
2A5
330
29E
100
AcDbEntity
  8
0
100
AcDbBlockBegin
  2
A$C11336558
 70
     0
 10
0.0
 20
0.0
 30
0.0
  3
A$C11336558
  1

  0
CIRCLE
  5
29F
330
29E
100
AcDbEntity
  8
Section point
 62
     5
100
AcDbCircle
 10
0.0199999833688569
 20
0.0383319153611996
 30
0.0
 40
0.0200000000000102
  0
LWPOLYLINE
  5
2A0
330
29E
100
AcDbEntity
  8
aOD
 62
     1
100
AcDbPolyline
 90
        6
 70
     0
 43
0.0
 10
0.1147833400149327
 20
0.0400000088835117
 10
0.1947833400312309
 20
0.0400000088835117
 10
0.1547833400521856
 20
0.0400000088835117
 10
0.1147833400149327
 20
0.0000000088753627
 10
0.1547833400521856
 20
0.0400000088835117
 10
0.1947833400312309
 20
0.0000000088753627
  0
TEXT
  5
2A1
330
29E
100
AcDbEntity
  8
aOD
 62
     1
100
AcDbText
 10
0.146221201596509
 20
0.045190092047043
 30
0.0
 40
0.025
  1
?
  7
Text
 72
     1
 11
0.1559330024150629
 21
0.0357255627155286
 31
0.0
100
AcDbText
 73
     1
  0
TEXT
  5
2A2
330
29E
100
AcDbEntity
  8
Annotatons
100
AcDbText
 10
0.0599999833479021
 20
0.0972609740032735
 30
0.0
 40
0.05
  1
NW
  7
Text
 11
0.0599999833479021
 21
0.0783319153402449
 31
0.0
100
AcDbText
 73
     1
  0
ENDBLK
  5
2A6
330
29E
100
AcDbEntity
  8
0
100
AcDbBlockEnd
  0
BLOCK
  5
2C7
330
2C3
100
AcDbEntity
  8
0
100
AcDbBlockBegin
  2
A$C6D9D1ACC
 70
     0
 10
0.0
 20
0.0
 30
0.0
  3
A$C6D9D1ACC
  1

  0
TEXT
  5
2C4
330
2C3
100
AcDbEntity
  8
Annotatons
100
AcDbText
 10
0.0040382074247174
 20
0.0208401790144568
 30
0.0
 40
0.05
  1
(1608)
  7
Text
 72
     1
 11
0.1049931869608702
 21
0.0019111203514282
 31
0.0
100
AcDbText
 73
     1
  0
ENDBLK
  5
2C8
330
2C3
100
AcDbEntity
  8
0
100
AcDbBlockEnd
  0
BLOCK
  5
326
330
320
100
AcDbEntity
  8
0
100
AcDbBlockBegin
  2
A$C04FD1CE1
 70
     0
 10
0.0
 20
0.0
 30
0.0
  3
A$C04FD1CE1
  1

  0
LWPOLYLINE
  5
321
330
320
100
AcDbEntity
  8
Section point
 62
     5
100
AcDbPolyline
 90
        9
 70
     0
 43
0.0
 10
0.1147673824232474
 20
0.0400000034731232
 10
0.1947673823813378
 20
0.0400000034731232
 10
0.1547673824022926
 20
0.0400000034731232
 10
0.1547673824022926
 20
0.0000000034649741
 10
0.1547673824022926
 20
0.0800000034812722
 10
0.1547673824022926
 20
0.0400000034731232
 10
0.1947673823813378
 20
0.0400000034731232
 10
0.174767382420919
 20
0.0400000034731232
 10
0.174767382420919
 20
0.0400000034731232
  0
CIRCLE
  5
322
330
320
100
AcDbEntity
  8
Section point
 62
     5
100
AcDbCircle
 10
0.1547673824022926
 20
0.0400000034731232
 30
0.0
 40
0.0200000000000102
  0
TEXT
  5
323
330
320
100
AcDbEntity
  8
Annotatons
100
AcDbText
 10
0.0022503292172446
 20
0.0989290621443009
 30
0.0
 40
0.05
  1
SW
  7
Text
 72
     2
 11
0.1147673824232474
 21
0.0800000034812722
 31
0.0
100
AcDbText
 73
     1
  0
ENDBLK
  5
327
330
320
100
AcDbEntity
  8
0
100
AcDbBlockEnd
  0
BLOCK
  5
434
330
430
100
AcDbEntity
  8
0
100
AcDbBlockBegin
  2
A$C19F96357
 70
     0
 10
0.0
 20
0.0
 30
0.0
  3
A$C19F96357
  1

  0
LWPOLYLINE
  5
431
330
430
100
AcDbEntity
  8
CONTEXT
100
AcDbPolyline
 90
        2
 70
     0
 43
0.0
 10
0.0000000014199451
 20
0.0719120082121911
 10
0.0000366076411993
 20
0.0
  0
ENDBLK
  5
435
330
430
100
AcDbEntity
  8
0
100
AcDbBlockEnd
  0
BLOCK
  5
48A
330
485
100
AcDbEntity
  8
0
100
AcDbBlockBegin
  2
A$C27A72A64
 70
     0
 10
0.0
 20
0.0
 30
0.0
  3
A$C27A72A64
  1

  0
CIRCLE
  5
486
330
485
100
AcDbEntity
  8
Section point
 62
     5
100
AcDbCircle
 10
0.1350422947931644
 20
0.0200000007853323
 30
0.0
 40
0.0200000000000102
  0
TEXT
  5
487
330
485
100
AcDbEntity
  8
Annotatons
100
AcDbText
 10
0.0018635772152106
 20
0.07892905945651
 30
0.0
 40
0.05
  1
SE
  7
Text
 72
     2
 11
0.0950422948141192
 21
0.0600000007934813
 31
0.0
100
AcDbText
 73
     1
  0
ENDBLK
  5
48B
330
485
100
AcDbEntity
  8
0
100
AcDbBlockEnd
  0
BLOCK
  5
491
330
48C
100
AcDbEntity
  8
0
100
AcDbBlockBegin
  2
A$C4F0C64B1
 70
     0
 10
0.0
 20
0.0
 30
0.0
  3
A$C4F0C64B1
  1

  0
CIRCLE
  5
48D
330
48C
100
AcDbEntity
  8
Section point
 62
     5
100
AcDbCircle
 10
0.1350422947931644
 20
0.0200000007853323
 30
0.0
 40
0.0200000000000102
  0
TEXT
  5
48E
330
48C
100
AcDbEntity
  8
Annotatons
100
AcDbText
 10
0.0018635772152106
 20
0.07892905945651
 30
0.0
 40
0.05
  1
SE
  7
Text
 72
     2
 11
0.0950422948141192
 21
0.0600000007934813
 31
0.0
100
AcDbText
 73
     1
  0
ENDBLK
  5
492
330
48C
100
AcDbEntity
  8
0
100
AcDbBlockEnd
  0
BLOCK
  5
4B4
330
4AF
100
AcDbEntity
  8
0
100
AcDbBlockBegin
  2
A$C56044FEE
 70
     0
 10
0.0
 20
0.0
 30
0.0
  3
A$C56044FEE
  1

  0
LWPOLYLINE
  5
4B0
330
4AF
100
AcDbEntity
  8
aOD
 62
     1
100
AcDbPolyline
 90
        6
 70
     0
 43
0.0
 10
-0.0000000056047131
 20
0.0400000011302932
 10
0.079999994411585
 20
0.0400000011302932
 10
0.0399999944325398
 20
0.0400000011302932
 10
-0.0000000056047131
 20
0.0000000011221442
 10
0.0399999944325398
 20
0.0400000011302932
 10
0.079999994411585
 20
0.0000000011221442
  0
TEXT
  5
4B1
330
4AF
100
AcDbEntity
  8
aOD
 62
     1
100
AcDbText
 10
0.0314378559768632
 20
0.0451900842938244
 30
0.0
 40
0.025
  1
?
  7
Text
 72
     1
 11
0.041149656795417
 21
0.0357255549623101
 31
0.0
100
AcDbText
 73
     1
  0
ENDBLK
  5
4B5
330
4AF
100
AcDbEntity
  8
0
100
AcDbBlockEnd
  0
BLOCK
  5
725
330
71F
100
AcDbEntity
  8
0
100
AcDbBlockBegin
  2
A$C6A5D518D
 70
     0
 10
0.0
 20
0.0
 30
0.0
  3
A$C6A5D518D
  1

  0
LWPOLYLINE
  5
720
330
71F
100
AcDbEntity
  8
Section point
 62
     5
100
AcDbPolyline
 90
        9
 70
     0
 43
0.0
 10
0.0475211417707424
 20
0.0399999941176237
 10
0.1275211417288329
 20
0.0399999941176237
 10
0.0875211417497876
 20
0.0399999941176237
 10
0.0875211417497876
 20
-0.0000000058905254
 10
0.0875211417497876
 20
0.0799999941257727
 10
0.0875211417497876
 20
0.0399999941176237
 10
0.1275211417288329
 20
0.0399999941176237
 10
0.1075211417684141
 20
0.0399999941176237
 10
0.1075211417684141
 20
0.0399999941176237
  0
CIRCLE
  5
721
330
71F
100
AcDbEntity
  8
Section point
 62
     5
100
AcDbCircle
 10
0.0875211417497876
 20
0.0399999941176237
 30
0.0
 40
0.0200000000000102
  0
TEXT
  5
722
330
71F
100
AcDbEntity
  8
Annotatons
100
AcDbText
 10
0.0009317829712881
 20
0.0989290527888014
 30
0.0
 40
0.05
  1
S
  7
Text
 72
     2
 11
0.0475211417707424
 21
0.0799999941257727
 31
0.0
100
AcDbText
 73
     1
  0
ENDBLK
  5
726
330
71F
100
AcDbEntity
  8
0
100
AcDbBlockEnd
  0
BLOCK
  5
80D
330
808
100
AcDbEntity
  8
0
100
AcDbBlockBegin
  2
A$C42D858AF
 70
     0
 10
0.0
 20
0.0
 30
0.0
  3
A$C42D858AF
  1

  0
CIRCLE
  5
809
330
808
100
AcDbEntity
  8
Section point
 62
     5
100
AcDbCircle
 10
0.0200000149646034
 20
0.0199999944229763
 30
0.0
 40
0.0200000000000102
  0
TEXT
  5
80A
330
808
100
AcDbEntity
  8
Annotatons
100
AcDbText
 10
0.0600000149436486
 20
0.0789290530650502
 30
0.0
 40
0.05
  1
?
  7
Text
 11
0.0600000149436486
 21
0.0599999944020215
 31
0.0
100
AcDbText
 73
     1
  0
ENDBLK
  5
80E
330
808
100
AcDbEntity
  8
0
100
AcDbBlockEnd
  0
BLOCK
  5
886
330
87C
100
AcDbEntity
  8
0
100
AcDbBlockBegin
  2
A$C26DD5F65
 70
     0
 10
0.0
 20
0.0
 30
0.0
  3
A$C26DD5F65
  1

  0
CIRCLE
  5
87D
330
87C
100
AcDbEntity
  8
Section point
 62
     5
100
AcDbCircle
 10
0.0796241266830275
 20
0.0475738848851197
 30
0.0
 40
0.0200000000000102
  0
TEXT
  5
87E
330
87C
100
AcDbEntity
  8
Annotatons
100
AcDbText
 10
0.0007769234297667
 20
0.1065029435562974
 30
0.0
 40
0.05
  1
?
  7
Text
 72
     2
 11
0.0396241267039823
 21
0.0875738848932688
 31
0.0
100
AcDbText
 73
     1
  0
LWPOLYLINE
  5
87F
330
87C
100
AcDbEntity
  8
Section point
 62
     5
100
AcDbPolyline
 90
        9
 70
     0
 43
0.0
 10
1.740068463329083
 20
0.041148520843203
 10
1.820068463287173
 20
0.041148520843203
 10
1.780068463308128
 20
0.041148520843203
 10
1.780068463308128
 20
0.0011485208350539
 10
1.780068463308128
 20
0.0811485208222482
 10
1.780068463308128
 20
0.041148520843203
 10
1.820068463287173
 20
0.041148520843203
 10
1.800068463326754
 20
0.041148520843203
 10
1.800068463326754
 20
0.041148520843203
  0
CIRCLE
  5
880
330
87C
100
AcDbEntity
  8
Section point
 62
     5
100
AcDbCircle
 10
1.780068463308128
 20
0.041148520843203
 30
0.0
 40
0.0200000000000102
  0
TEXT
  5
881
330
87C
100
AcDbEntity
  8
Annotatons
100
AcDbText
 10
1.820068463287173
 20
0.1000775794852769
 30
0.0
 40
0.05
  1
?
  7
Text
 11
1.820068463287173
 21
0.0811485208222482
 31
0.0
100
AcDbText
 73
     1
  0
LWPOLYLINE
  5
882
330
87C
100
AcDbEntity
  8
aOD
 62
     1
100
AcDbPolyline
 90
        6
 70
     0
 43
0.0
 10
1.911813160137415
 20
0.0400000010911992
 10
1.991813160153713
 20
0.0400000010911992
 10
1.951813160174668
 20
0.0400000010911992
 10
1.911813160137415
 20
0.0000000010830501
 10
1.951813160174668
 20
0.0400000010911992
 10
1.991813160153713
 20
0.0000000010830501
  0
TEXT
  5
883
330
87C
100
AcDbEntity
  8
aOD
 62
     1
100
AcDbText
 10
1.899552181336999
 20
0.0451900842547304
 30
0.0
 40
0.025
  1
174.02
  7
Text
 72
     1
 11
1.952962822537545
 21
0.0357255549232161
 31
0.0
100
AcDbText
 73
     1
  0
ENDBLK
  5
887
330
87C
100
AcDbEntity
  8
0
100
AcDbBlockEnd
  0
BLOCK
  5
959
330
954
100
AcDbEntity
  8
0
100
AcDbBlockBegin
  2
A$C0CA467E1
 70
     0
 10
0.0
 20
0.0
 30
0.0
  3
A$C0CA467E1
  1

  0
CIRCLE
  5
955
330
954
100
AcDbEntity
  8
Section point
 62
     5
100
AcDbCircle
 10
0.1586985003881818
 20
0.0200000009661725
 30
0.0
 40
0.0200000000000102
  0
TEXT
  5
956
330
954
100
AcDbEntity
  8
Annotatons
100
AcDbText
 10
0.0023274226465172
 20
0.0789290596373502
 30
0.0
 40
0.05
  1
NW
  7
Text
 72
     2
 11
0.1186985004091365
 21
0.0600000009743216
 31
0.0
100
AcDbText
 73
     1
  0
ENDBLK
  5
95A
330
954
100
AcDbEntity
  8
0
100
AcDbBlockEnd
  0
BLOCK
  5
A54
330
A4F
100
AcDbEntity
  8
0
100
AcDbBlockBegin
  2
A$C35CC0266
 70
     0
 10
0.0
 20
0.0
 30
0.0
  3
A$C35CC0266
  1

  0
CIRCLE
  5
A50
330
A4F
100
AcDbEntity
  8
Section point
 62
     5
100
AcDbCircle
 10
0.01999998575271
 20
0.0200000009661725
 30
0.0
 40
0.0200000000000102
  0
TEXT
  5
A51
330
A4F
100
AcDbEntity
  8
Annotatons
100
AcDbText
 10
0.0852800635271771
 20
0.0771815066111939
 30
0.0
 40
0.05
  1
NE
  7
Text
 72
     2
 11
0.1823128056827024
 21
0.0582524479481652
 31
0.0
100
AcDbText
 73
     1
  0
ENDBLK
  5
A55
330
A4F
100
AcDbEntity
  8
0
100
AcDbBlockEnd
  0
BLOCK
  5
A89
330
A84
100
AcDbEntity
  8
0
100
AcDbBlockBegin
  2
A$C00E978D5
 70
     0
 10
0.0
 20
0.0
 30
0.0
  3
A$C00E978D5
  1

  0
CIRCLE
  5
A85
330
A84
100
AcDbEntity
  8
Section point
 62
     5
100
AcDbCircle
 10
0.01999998575271
 20
0.0200000009661725
 30
0.0
 40
0.0200000000000102
  0
TEXT
  5
A86
330
A84
100
AcDbEntity
  8
Annotatons
100
AcDbText
 10
0.0844459450441926
 20
0.0794148566215047
 30
0.0
 40
0.05
  1
NE
  7
Text
 72
     2
 11
0.1814786871997178
 21
0.0604857979584761
 31
0.0
100
AcDbText
 73
     1
  0
ENDBLK
  5
A8A
330
A84
100
AcDbEntity
  8
0
100
AcDbBlockEnd
  0
BLOCK
  5
BE2
330
BDD
100
AcDbEntity
  8
0
100
AcDbBlockBegin
  2
A$C4F632BC0
 70
     0
 10
0.0
 20
0.0
 30
0.0
  3
A$C4F632BC0
  1

  0
CIRCLE
  5
BDE
330
BDD
100
AcDbEntity
  8
Section point
 62
     5
100
AcDbCircle
 10
0.0199999715719752
 20
0.0199999780391895
 30
0.0
 40
0.0200000000000102
  0
TEXT
  5
BDF
330
BDD
100
AcDbEntity
  8
Annotatons
100
AcDbText
 10
0.0844459308634578
 20
0.0794148336945218
 30
0.0
 40
0.05
  1
NE
  7
Text
 72
     2
 11
0.181478673018983
 21
0.0604857750314931
 31
0.0
100
AcDbText
 73
     1
  0
ENDBLK
  5
BE3
330
BDD
100
AcDbEntity
  8
0
100
AcDbBlockEnd
  0
BLOCK
  5
D17
330
D12
100
AcDbEntity
  8
0
100
AcDbBlockBegin
  2
A$C24402BE7
 70
     0
 10
0.0
 20
0.0
 30
0.0
  3
A$C24402BE7
  1

  0
CIRCLE
  5
D13
330
D12
100
AcDbEntity
  8
Section point
 62
     5
100
AcDbCircle
 10
0.0199999814650198
 20
0.0200000215899951
 30
0.0
 40
0.0200000000000102
  0
TEXT
  5
D14
330
D12
100
AcDbEntity
  8
Annotatons
100
AcDbText
 10
0.0669025389200877
 20
0.0794393686173014
 30
0.0
 40
0.05
  1
NE
  7
Text
 72
     2
 11
0.1639352810756129
 21
0.0605103099542728
 31
0.0
100
AcDbText
 73
     1
  0
ENDBLK
  5
D18
330
D12
100
AcDbEntity
  8
0
100
AcDbBlockEnd
  0
BLOCK
  5
D71
330
D6D
100
AcDbEntity
  8
0
100
AcDbBlockBegin
  2
A$C1B232DAC
 70
     0
 10
0.0
 20
0.0
 30
0.0
  3
A$C1B232DAC
  1

  0
TEXT
  5
D6E
330
D6D
100
AcDbEntity
  8
Annotatons
100
AcDbText
 10
0.0040381628790827
 20
0.0209513874189402
 30
0.0
 40
0.05
  1
(5701)
  7
Text
 72
     1
 11
0.1049931424152355
 21
0.0020223287559116
 31
0.0
100
AcDbText
 73
     1
  0
ENDBLK
  5
D72
330
D6D
100
AcDbEntity
  8
0
100
AcDbBlockEnd
  0
BLOCK
  5
ED4
330
ECF
100
AcDbEntity
  8
0
100
AcDbBlockBegin
  2
A$C0DB84EC2
 70
     0
 10
0.0
 20
0.0
 30
0.0
  3
A$C0DB84EC2
  1

  0
CIRCLE
  5
ED0
330
ECF
100
AcDbEntity
  8
Section point
 62
     5
100
AcDbCircle
 10
0.1547673505020981
 20
0.0199999949137855
 30
0.0
 40
0.0200000000000102
  0
TEXT
  5
ED1
330
ECF
100
AcDbEntity
  8
Annotatons
100
AcDbText
 10
0.0022502973170501
 20
0.0789290535849632
 30
0.0
 40
0.05
  1
SW
  7
Text
 72
     2
 11
0.1147673505230529
 21
0.0599999949219345
 31
0.0
100
AcDbText
 73
     1
  0
ENDBLK
  5
ED5
330
ECF
100
AcDbEntity
  8
0
100
AcDbBlockEnd
  0
BLOCK
  5
EFA
330
EF6
100
AcDbEntity
  8
0
100
AcDbBlockBegin
  2
A$C31475676
 70
     0
 10
0.0
 20
0.0
 30
0.0
  3
A$C31475676
  1

  0
LWPOLYLINE
  5
EF7
330
EF6
100
AcDbEntity
  8
CONTEXT
  6
DASHDOT
 48
0.003
100
AcDbPolyline
 90
        2
 70
     0
 43
0.0
 10
0.0
 20
0.0
 10
0.0006569245793884
 20
0.0418226830322368
  0
ENDBLK
  5
EFB
330
EF6
100
AcDbEntity
  8
0
100
AcDbBlockEnd
  0
BLOCK
  5
F62
330
F5B
100
AcDbEntity
  8
0
100
AcDbBlockBegin
  2
A$C7C0C41CD
 70
     0
 10
0.0
 20
0.0
 30
0.0
  3
A$C7C0C41CD
  1

  0
CIRCLE
  5
F5C
330
F5B
100
AcDbEntity
  8
Section point
 62
     5
100
AcDbCircle
 10
0.0199999814650198
 20
0.0406340922638311
 30
0.0
 40
0.0200000000000102
  0
TEXT
  5
F5D
330
F5B
100
AcDbEntity
  8
Annotatons
100
AcDbText
 10
0.0116048634736386
 20
0.1010333400891495
 30
0.0
 40
0.05
  1
NW
  7
Text
 72
     2
 11
0.127975941236258
 21
0.0821042814261208
 31
0.0
100
AcDbText
 73
     1
  0
LWPOLYLINE
  5
F5E
330
F5B
100
AcDbEntity
  8
aOD
 62
     1
100
AcDbPolyline
 90
        6
 70
     0
 43
0.0
 10
0.0960444799297875
 20
0.0400000004768195
 10
0.1760444799460856
 20
0.0400000004768195
 10
0.1360444799088327
 20
0.0400000004768195
 10
0.0960444799297875
 20
0.0000000004686704
 10
0.1360444799088327
 20
0.0400000004768195
 10
0.1760444799460856
 20
0.0000000004686704
  0
TEXT
  5
F5F
330
F5B
100
AcDbEntity
  8
aOD
 62
     1
100
AcDbText
 10
0.1032071027664797
 20
0.0451900836403507
 30
0.0
 40
0.025
  1
30.2
  7
Text
 72
     1
 11
0.1371941423299177
 21
0.0357255543088364
 31
0.0
100
AcDbText
 73
     1
  0
ENDBLK
  5
F63
330
F5B
100
AcDbEntity
  8
0
100
AcDbBlockEnd
  0
BLOCK
  5
1071
330
106C
100
AcDbEntity
  8
0
100
AcDbBlockBegin
  2
A$C5C2F151C
 70
     0
 10
0.0
 20
0.0
 30
0.0
  3
A$C5C2F151C
  1

  0
TEXT
  5
106D
330
106C
100
AcDbEntity
  8
Annotatons
100
AcDbText
 10
0.003884044834836
 20
0.0208741816583786
 30
0.0
 40
0.05
  1
[3705]
  7
Text
 72
     1
 11
0.1009849998143721
 21
0.00194512299535
 31
0.0
100
AcDbText
 73
     1
  0
LWPOLYLINE
  5
106E
330
106C
100
AcDbEntity
  8
aOD
100
AcDbPolyline
 90
        2
 70
     0
 43
0.0
 10
0.047600450731025
 20
0.2153525399053109
 10
0.0973618230181899
 20
0.0814178585832153
  0
ENDBLK
  5
1072
330
106C
100
AcDbEntity
  8
0
100
AcDbBlockEnd
  0
BLOCK
  5
109A
330
1094
100
AcDbEntity
  8
0
100
AcDbBlockBegin
  2
A$C6DCE0CB8
 70
     0
 10
0.0
 20
0.0
 30
0.0
  3
A$C6DCE0CB8
  1

  0
LWPOLYLINE
  5
1095
330
1094
100
AcDbEntity
  8
Section point
 62
     5
100
AcDbPolyline
 90
        9
 70
     0
 43
0.0
 10
0.0437583143091445
 20
0.0399999809559795
 10
0.1237583142672349
 20
0.0399999809559795
 10
0.0837583142881897
 20
0.0399999809559795
 10
0.0837583142881897
 20
-0.0000000190521696
 10
0.0837583142881897
 20
0.0799999809641285
 10
0.0837583142881897
 20
0.0399999809559795
 10
0.1237583142672349
 20
0.0399999809559795
 10
0.1037583143068161
 20
0.0399999809559795
 10
0.1037583143068161
 20
0.0399999809559795
  0
CIRCLE
  5
1096
330
1094
100
AcDbEntity
  8
Section point
 62
     5
100
AcDbCircle
 10
0.0837583142881897
 20
0.0399999809559795
 30
0.0
 40
0.0200000000000102
  0
TEXT
  5
1097
330
1094
100
AcDbEntity
  8
Annotatons
100
AcDbText
 10
0.0018635369457855
 20
0.0980764977866486
 30
0.0
 40
0.05
  1
SE
  7
Text
 72
     2
 11
0.0950422545446941
 21
0.07914743912362
 31
0.0
100
AcDbText
 73
     1
  0
ENDBLK
  5
109B
330
1094
100
AcDbEntity
  8
0
100
AcDbBlockEnd
  0
BLOCK
  5
120F
330
120B
100
AcDbEntity
  8
0
100
AcDbBlockBegin
  2
A$C61BD4E3A
 70
     0
 10
0.0
 20
0.0
 30
0.0
  3
A$C61BD4E3A
  1

  0
LWPOLYLINE
  5
120C
330
120B
100
AcDbEntity
  8
CONTEXT
  6
DASHDOT
 48
0.003
100
AcDbPolyline
 90
        2
 70
     0
 43
0.0
 10
0.0021193383350138
 20
-0.0000000066881043
 10
-0.0000000146975196
 20
0.27178454182447
  0
ENDBLK
  5
1210
330
120B
100
AcDbEntity
  8
0
100
AcDbBlockEnd
  0
BLOCK
  5
139D
330
1397
100
AcDbEntity
  8
0
100
AcDbBlockBegin
  2
A$C2C157546
 70
     0
 10
0.0
 20
0.0
 30
0.0
  3
A$C2C157546
  1

  0
LWPOLYLINE
  5
1398
330
1397
100
AcDbEntity
  8
Section point
 62
     5
100
AcDbPolyline
 90
        9
 70
     0
 43
0.0
 10
0.0437583823758985
 20
0.0400000123016717
 10
0.1237583823339889
 20
0.0400000123016717
 10
0.0837583823549437
 20
0.0400000123016717
 10
0.0837583823549437
 20
0.0000000122935226
 10
0.0837583823549437
 20
0.0800000123098208
 10
0.0837583823549437
 20
0.0400000123016717
 10
0.1237583823339889
 20
0.0400000123016717
 10
0.1037583823735702
 20
0.0400000123016717
 10
0.1037583823735702
 20
0.0400000123016717
  0
CIRCLE
  5
1399
330
1397
100
AcDbEntity
  8
Section point
 62
     5
100
AcDbCircle
 10
0.0837583823549437
 20
0.0400000123016717
 30
0.0
 40
0.0200000000000102
  0
TEXT
  5
139A
330
1397
100
AcDbEntity
  8
Annotatons
100
AcDbText
 10
0.0018636050125395
 20
0.0980765291323409
 30
0.0
 40
0.05
  1
SE
  7
Text
 72
     2
 11
0.0950423226114481
 21
0.0791474704693123
 31
0.0
100
AcDbText
 73
     1
  0
ENDBLK
  5
139E
330
1397
100
AcDbEntity
  8
0
100
AcDbBlockEnd
  0
BLOCK
  5
13A7
330
139F
100
AcDbEntity
  8
0
100
AcDbBlockBegin
  2
A$C72307F84
 70
     0
 10
0.0
 20
0.0
 30
0.0
  3
A$C72307F84
  1

  0
LWPOLYLINE
  5
13A0
330
139F
100
AcDbEntity
  8
Section point
 62
     5
100
AcDbPolyline
 90
        9
 70
     0
 43
0.0
 10
0.0000000044436632
 20
0.0406341029127066
 10
0.0800000044017537
 20
0.0406341029127066
 10
0.0400000044227085
 20
0.0406341029127066
 10
0.0400000044227085
 20
0.0006341029045576
 10
0.0400000044227085
 20
0.0806341029208557
 10
0.0400000044227085
 20
0.0406341029127066
 10
0.0800000044017537
 20
0.0406341029127066
 10
0.0600000044413349
 20
0.0406341029127066
 10
0.0600000044413349
 20
0.0406341029127066
  0
CIRCLE
  5
13A1
330
139F
100
AcDbEntity
  8
Section point
 62
     5
100
AcDbCircle
 10
0.0400000044227085
 20
0.0406341029127066
 30
0.0
 40
0.0200000000000102
  0
TEXT
  5
13A2
330
139F
100
AcDbEntity
  8
Annotatons
100
AcDbText
 10
0.0509432220384214
 20
0.101033350738025
 30
0.0
 40
0.05
  1
NE
  7
Text
 72
     2
 11
0.1479759641939467
 21
0.0821042920749964
 31
0.0
100
AcDbText
 73
     1
  0
LWPOLYLINE
  5
13A3
330
139F
100
AcDbEntity
  8
aOD
 62
     1
100
AcDbPolyline
 90
        6
 70
     0
 43
0.0
 10
0.1160445028874761
 20
0.0400000111256951
 10
0.1960445029037743
 20
0.0400000111256951
 10
0.1560445028665214
 20
0.0400000111256951
 10
0.1160445028874761
 20
0.000000011117546
 10
0.1560445028665214
 20
0.0400000111256951
 10
0.1960445029037743
 20
0.000000011117546
  0
TEXT
  5
13A4
330
139F
100
AcDbEntity
  8
aOD
 62
     1
100
AcDbText
 10
0.1232071257241684
 20
0.0451900942892263
 30
0.0
 40
0.025
  1
32.3
  7
Text
 72
     1
 11
0.1571941652876063
 21
0.035725564957712
 31
0.0
100
AcDbText
 73
     1
  0
ENDBLK
  5
13A8
330
139F
100
AcDbEntity
  8
0
100
AcDbBlockEnd
  0
BLOCK
  5
14A2
330
149E
100
AcDbEntity
  8
0
100
AcDbBlockBegin
  2
A$C24D274F3
 70
     0
 10
0.0
 20
0.0
 30
0.0
  3
A$C24D274F3
  1

  0
LWPOLYLINE
  5
149F
330
149E
100
AcDbEntity
  8
CONTEXT
  6
DASHDOT
 48
0.003
100
AcDbPolyline
 90
        2
 70
     0
 43
0.0
 10
0.0021193514035929
 20
0.0000000034608689
 10
-0.0000000016289405
 20
0.2717845519734432
  0
ENDBLK
  5
14A3
330
149E
100
AcDbEntity
  8
0
100
AcDbBlockEnd
  0
BLOCK
  5
15E1
330
15DD
100
AcDbEntity
  8
0
100
AcDbBlockBegin
  2
A$C7C3605DB
 70
     0
 10
0.0
 20
0.0
 30
0.0
  3
A$C7C3605DB
  1

  0
TEXT
  5
15DE
330
15DD
100
AcDbEntity
  8
Annotatons
100
AcDbText
 10
0.0038840284868321
 20
0.0208963482316382
 30
0.0
 40
0.05
  1
[6903]
  7
Text
 72
     1
 11
0.1009849834663683
 21
0.0019672895686096
 31
0.0
100
AcDbText
 73
     1
  0
ENDBLK
  5
15E2
330
15DD
100
AcDbEntity
  8
0
100
AcDbBlockEnd
  0
BLOCK
  5
162D
330
1629
100
AcDbEntity
  8
0
100
AcDbBlockBegin
  2
A$C7EB9609F
 70
     0
 10
0.0
 20
0.0
 30
0.0
  3
A$C7EB9609F
  1

  0
TEXT
  5
162A
330
1629
100
AcDbEntity
  8
Annotatons
100
AcDbText
 10
0.0040382134305
 20
0.0209744326761485
 30
0.0
 40
0.05
  1
(4516)
  7
Text
 72
     1
 11
0.1049931929666528
 21
0.0020453740131199
 31
0.0
100
AcDbText
 73
     1
  0
ENDBLK
  5
162E
330
1629
100
AcDbEntity
  8
0
100
AcDbBlockEnd
  0
BLOCK
  5
163B
330
1637
100
AcDbEntity
  8
0
100
AcDbBlockBegin
  2
A$C11403F6C
 70
     0
 10
0.0
 20
0.0
 30
0.0
  3
A$C11403F6C
  1

  0
TEXT
  5
1638
330
1637
100
AcDbEntity
  8
Annotatons
100
AcDbText
 10
0.0040382134305
 20
0.0209744326761485
 30
0.0
 40
0.05
  1
(451?)
  7
Text
 72
     1
 11
0.1049931929666528
 21
0.0020453740131199
 31
0.0
100
AcDbText
 73
     1
  0
ENDBLK
  5
163C
330
1637
100
AcDbEntity
  8
0
100
AcDbBlockEnd
  0
BLOCK
  5
165E
330
1654
100
AcDbEntity
  8
0
100
AcDbBlockBegin
  2
A$C058704BE
 70
     0
 10
0.0
 20
0.0
 30
0.0
  3
A$C058704BE
  1

  0
IMAGE
  5
1655
330
1654
100
AcDbEntity
  8
Scanned drawing
160
               140
310
8C00000001000000840000000600000005000000E069373A8D5BF8BF00A0A77D063803C00000000000000000D118B45DBB6A054000A0A77D063803C00000000000000000D118B45DBB6A05404BC58B951324E23F0000000000000000E069373A8D5BF8BF4BC58B951324E23F0000000000000000E069373A8D5BF8BF00A0A7
310
7D063803C00000000000000000
100
AcDbRasterImage
 90
        0
 10
-1.522351481826824
 20
-2.402356130292901
 30
0.0
 11
0.0008466666666666666
 21
0.0
 31
0.0
 12
5.184166897848064E-20
 22
0.0008466666666666666
 32
0.0
 13
4960.0
 23
3507.0
340
15F4
 70
     7
280
     0
281
    50
282
    50
283
     0
360
1656
 71
     1
 91
        2
 14
-0.5
 24
-0.5
 14
4959.5
 24
3506.5
290
     0
  0
LWPOLYLINE
  5
1657
330
1654
100
AcDbEntity
  8
Section point
 62
     5
100
AcDbPolyline
 90
        9
 70
     0
 43
0.0
 10
0.6367996639337363
 20
0.4396980992471526
 10
0.7167996638918268
 20
0.4396980992471526
 10
0.6767996639127816
 20
0.4396980992471526
 10
0.6767996639127816
 20
0.3996980992390053
 10
0.6767996639127816
 20
0.4796980992553017
 10
0.6767996639127816
 20
0.4396980992471526
 10
0.7167996638918268
 20
0.4396980992471526
 10
0.696799663931408
 20
0.4396980992471526
 10
0.696799663931408
 20
0.4396980992471526
  0
CIRCLE
  5
1658
330
1654
100
AcDbEntity
  8
Section point
 62
     5
100
AcDbCircle
 10
0.6767996639127816
 20
0.4396980992471526
 30
0.0
 40
0.0200000000000102
  0
TEXT
  5
1659
330
1654
100
AcDbEntity
  8
Annotatons
100
AcDbText
 10
0.6877428815284945
 20
0.500097347072471
 30
0.0
 40
0.05
  1
NE
  7
Text
 72
     2
 11
0.7847756236840198
 21
0.4811682884094424
 31
0.0
100
AcDbText
 73
     1
  0
LWPOLYLINE
  5
165A
330
1654
100
AcDbEntity
  8
aOD
 62
     1
100
AcDbPolyline
 90
        6
 70
     0
 43
0.0
 10
0.7528441623775493
 20
0.4390640074601428
 10
0.8328441623938474
 20
0.4390640074601428
 10
0.7928441623565945
 20
0.4390640074601428
 10
0.7528441623775493
 20
0.3990640074519938
 10
0.7928441623565945
 20
0.4390640074601428
 10
0.8328441623938474
 20
0.3990640074519938
  0
TEXT
  5
165B
330
1654
100
AcDbEntity
  8
aOD
 62
     1
100
AcDbText
 10
0.7600067852142415
 20
0.444254090623674
 30
0.0
 40
0.025
  1
60.1
  7
Text
 72
     1
 11
0.7939938247776794
 21
0.4347895612921597
 31
0.0
100
AcDbText
 73
     1
  0
ENDBLK
  5
165F
330
1654
100
AcDbEntity
  8
0
100
AcDbBlockEnd
  0
BLOCK
  5
1668
330
1660
100
AcDbEntity
  8
0
100
AcDbBlockBegin
  2
A$C2DD707F3
 70
     0
 10
0.0
 20
0.0
 30
0.0
  3
A$C2DD707F3
  1

  0
LWPOLYLINE
  5
1661
330
1660
100
AcDbEntity
  8
Section point
 62
     5
100
AcDbPolyline
 90
        9
 70
     0
 43
0.0
 10
-0.000000005627605
 20
0.0406340838709767
 10
0.0799999943304854
 20
0.0406340838709767
 10
0.0399999943514402
 20
0.0406340838709767
 10
0.0399999943514402
 20
0.0006340838628294
 10
0.0399999943514402
 20
0.0806340838791257
 10
0.0399999943514402
 20
0.0406340838709767
 10
0.0799999943304854
 20
0.0406340838709767
 10
0.0599999943700666
 20
0.0406340838709767
 10
0.0599999943700666
 20
0.0406340838709767
  0
CIRCLE
  5
1662
330
1660
100
AcDbEntity
  8
Section point
 62
     5
100
AcDbCircle
 10
0.0399999943514402
 20
0.0406340838709767
 30
0.0
 40
0.0200000000000102
  0
TEXT
  5
1663
330
1660
100
AcDbEntity
  8
Annotatons
100
AcDbText
 10
0.0509432119671531
 20
0.1010333316962951
 30
0.0
 40
0.05
  1
NE
  7
Text
 72
     2
 11
0.1479759541226784
 21
0.0821042730332664
 31
0.0
100
AcDbText
 73
     1
  0
LWPOLYLINE
  5
1664
330
1660
100
AcDbEntity
  8
aOD
 62
     1
100
AcDbPolyline
 90
        6
 70
     0
 43
0.0
 10
0.1160444928162079
 20
0.0399999920839669
 10
0.196044492832506
 20
0.0399999920839669
 10
0.1560444927952531
 20
0.0399999920839669
 10
0.1160444928162079
 20
-0.0000000079241822
 10
0.1560444927952531
 20
0.0399999920839669
 10
0.196044492832506
 20
-0.0000000079241822
  0
TEXT
  5
1665
330
1660
100
AcDbEntity
  8
aOD
 62
     1
100
AcDbText
 10
0.1232071156529001
 20
0.0451900752474981
 30
0.0
 40
0.025
  1
60.1
  7
Text
 72
     1
 11
0.1571941552163381
 21
0.0357255459159838
 31
0.0
100
AcDbText
 73
     1
  0
ENDBLK
  5
1669
330
1660
100
AcDbEntity
  8
0
100
AcDbBlockEnd
  0
BLOCK
  5
16B9
330
16B1
100
AcDbEntity
  8
0
100
AcDbBlockBegin
  2
A$C2CFB5E8F
 70
     0
 10
0.0
 20
0.0
 30
0.0
  3
A$C2CFB5E8F
  1

  0
LWPOLYLINE
  5
16B2
330
16B1
100
AcDbEntity
  8
Section point
 62
     5
100
AcDbPolyline
 90
        9
 70
     0
 43
0.0
 10
-0.000000005627605
 20
0.0406340838709784
 10
0.0799999943304854
 20
0.0406340838709784
 10
0.0399999943514402
 20
0.0406340838709784
 10
0.0399999943514402
 20
0.0006340838628294
 10
0.0399999943514402
 20
0.0806340838791275
 10
0.0399999943514402
 20
0.0406340838709784
 10
0.0799999943304854
 20
0.0406340838709784
 10
0.0599999943700666
 20
0.0406340838709784
 10
0.0599999943700666
 20
0.0406340838709784
  0
CIRCLE
  5
16B3
330
16B1
100
AcDbEntity
  8
Section point
 62
     5
100
AcDbCircle
 10
0.0399999943514402
 20
0.0406340838709784
 30
0.0
 40
0.0200000000000102
  0
TEXT
  5
16B4
330
16B1
100
AcDbEntity
  8
Annotatons
100
AcDbText
 10
0.0509432119671531
 20
0.1010333316962968
 30
0.0
 40
0.05
  1
NE
  7
Text
 72
     2
 11
0.1479759541226784
 21
0.0821042730332682
 31
0.0
100
AcDbText
 73
     1
  0
LWPOLYLINE
  5
16B5
330
16B1
100
AcDbEntity
  8
aOD
 62
     1
100
AcDbPolyline
 90
        6
 70
     0
 43
0.0
 10
0.1160444928162079
 20
0.0399999920839669
 10
0.196044492832506
 20
0.0399999920839669
 10
0.1560444927952531
 20
0.0399999920839669
 10
0.1160444928162079
 20
-0.0000000079241822
 10
0.1560444927952531
 20
0.0399999920839669
 10
0.196044492832506
 20
-0.0000000079241822
  0
TEXT
  5
16B6
330
16B1
100
AcDbEntity
  8
aOD
 62
     1
100
AcDbText
 10
0.1232071156529001
 20
0.0451900752474981
 30
0.0
 40
0.025
  1
32.3
  7
Text
 72
     1
 11
0.1571941552163381
 21
0.0357255459159838
 31
0.0
100
AcDbText
 73
     1
  0
ENDBLK
  5
16BA
330
16B1
100
AcDbEntity
  8
0
100
AcDbBlockEnd
  0
BLOCK
  5
1778
330
1774
100
AcDbEntity
  8
0
100
AcDbBlockBegin
  2
A$C5DD95233
 70
     0
 10
0.0
 20
0.0
 30
0.0
  3
A$C5DD95233
  1

  0
LWPOLYLINE
  5
1775
330
1774
100
AcDbEntity
  8
CONTEXT
  6
DASHDOT
 48
0.003
100
AcDbPolyline
 90
        2
 70
     0
 43
0.0
 10
0.0006941684215676
 20
0.0
 10
0.0000000095641539
 20
0.3559735874672754
  0
ENDBLK
  5
1779
330
1774
100
AcDbEntity
  8
0
100
AcDbBlockEnd
  0
BLOCK
  5
1789
330
1783
100
AcDbEntity
  8
0
100
AcDbBlockBegin
  2
A$C33A50D34
 70
     0
 10
0.0
 20
0.0
 30
0.0
  3
A$C33A50D34
  1

  0
LWPOLYLINE
  5
1784
330
1783
100
AcDbEntity
  8
Section point
 62
     5
100
AcDbPolyline
 90
        9
 70
     0
 43
0.0
 10
0.0868771235500034
 20
0.039999995374874
 10
0.1668771235080939
 20
0.039999995374874
 10
0.1268771235290487
 20
0.039999995374874
 10
0.1268771235290487
 20
-0.0000000046332751
 10
0.1268771235290487
 20
0.079999995383023
 10
0.1268771235290487
 20
0.039999995374874
 10
0.1668771235080939
 20
0.039999995374874
 10
0.1468771235476751
 20
0.039999995374874
 10
0.1468771235476751
 20
0.039999995374874
  0
CIRCLE
  5
1785
330
1783
100
AcDbEntity
  8
Section point
 62
     5
100
AcDbCircle
 10
0.1268771235290487
 20
0.039999995374874
 30
0.0
 40
0.0200000000000102
  0
TEXT
  5
1786
330
1783
100
AcDbEntity
  8
Annotatons
100
AcDbText
 10
0.0022503225396617
 20
0.0924122030812389
 30
0.0
 40
0.05
  1
SW
  7
Text
 72
     2
 11
0.1147673757456644
 21
0.0734831444182102
 31
0.0
100
AcDbText
 73
     1
  0
ENDBLK
  5
178A
330
1783
100
AcDbEntity
  8
0
100
AcDbBlockEnd
  0
BLOCK
  5
1865
330
185F
100
AcDbEntity
  8
0
100
AcDbBlockBegin
  2
A$C4ADB1A45
 70
     0
 10
0.0
 20
0.0
 30
0.0
  3
A$C4ADB1A45
  1

  0
LWPOLYLINE
  5
1860
330
185F
100
AcDbEntity
  8
Section point
 62
     5
100
AcDbPolyline
 90
        9
 70
     0
 43
0.0
 10
0.0476894332663278
 20
0.0399999953748811
 10
0.1276894332244183
 20
0.0399999953748811
 10
0.087689433245373
 20
0.0399999953748811
 10
0.087689433245373
 20
-0.000000004633268
 10
0.087689433245373
 20
0.0799999953830302
 10
0.087689433245373
 20
0.0399999953748811
 10
0.1276894332244183
 20
0.0399999953748811
 10
0.1076894332639995
 20
0.0399999953748811
 10
0.1076894332639995
 20
0.0399999953748811
  0
CIRCLE
  5
1861
330
185F
100
AcDbEntity
  8
Section point
 62
     5
100
AcDbCircle
 10
0.087689433245373
 20
0.0399999953748811
 30
0.0
 40
0.0200000000000102
  0
TEXT
  5
1862
330
185F
100
AcDbEntity
  8
Annotatons
100
AcDbText
 10
0.0019406313463522
 20
0.0980765122055503
 30
0.0
 40
0.05
  1
NE
  7
Text
 72
     2
 11
0.0989733735018774
 21
0.0791474535425216
 31
0.0
100
AcDbText
 73
     1
  0
ENDBLK
  5
1866
330
185F
100
AcDbEntity
  8
0
100
AcDbBlockEnd
  0
BLOCK
  5
19CB
330
19C6
100
AcDbEntity
  8
0
100
AcDbBlockBegin
  2
A$C3A5E4A09
 70
     0
 10
0.0
 20
0.0
 30
0.0
  3
A$C3A5E4A09
  1

  0
LWPOLYLINE
  5
19C7
330
19C6
100
AcDbEntity
  8
aOD
 62
     1
100
AcDbPolyline
 90
        6
 70
     0
 43
0.0
 10
0.0042971289285632
 20
0.039999999265536
 10
0.0842971289448613
 20
0.039999999265536
 10
0.0442971289076084
 20
0.039999999265536
 10
0.0042971289285632
 20
-0.0000000007426131
 10
0.0442971289076084
 20
0.039999999265536
 10
0.0842971289448613
 20
-0.0000000007426131
  0
TEXT
  5
19C8
330
19C6
100
AcDbEntity
  8
aOD
 62
     1
100
AcDbText
 10
0.0017479509467015
 20
0.0451900824290672
 30
0.0
 40
0.025
  1
66.01
  7
Text
 72
     1
 11
0.0454467913286933
 21
0.0357255530975529
 31
0.0
100
AcDbText
 73
     1
  0
ENDBLK
  5
19CC
330
19C6
100
AcDbEntity
  8
0
100
AcDbBlockEnd
  0
BLOCK
  5
1CF1
330
1CED
100
AcDbEntity
  8
0
100
AcDbBlockBegin
  2
A$C03BC79CE
 70
     0
 10
0.0
 20
0.0
 30
0.0
  3
A$C03BC79CE
  1

  0
TEXT
  5
1CEE
330
1CED
100
AcDbEntity
  8
Annotatons
100
AcDbText
 10
0.0040381997021606
 20
0.0209744399703031
 30
0.0
 40
0.05
  1
(7804)
  7
Text
 72
     1
 11
0.1049931792383134
 21
0.0020453813072745
 31
0.0
100
AcDbText
 73
     1
  0
ENDBLK
  5
1CF2
330
1CED
100
AcDbEntity
  8
0
100
AcDbBlockEnd
  0
BLOCK
  5
1D60
330
1D5A
100
AcDbEntity
  8
0
100
AcDbBlockBegin
  2
A$C3D817E1C
 70
     0
 10
0.0
 20
0.0
 30
0.0
  3
A$C3D817E1C
  1

  0
LWPOLYLINE
  5
1D5B
330
1D5A
100
AcDbEntity
  8
Section point
 62
     5
100
AcDbPolyline
 90
        9
 70
     0
 43
0.0
 10
0.0437583522809959
 20
0.0400000011114265
 10
0.1237583522390864
 20
0.0400000011114265
 10
0.0837583522600411
 20
0.0400000011114265
 10
0.0837583522600411
 20
0.0000000011032775
 10
0.0837583522600411
 20
0.0800000011195756
 10
0.0837583522600411
 20
0.0400000011114265
 10
0.1237583522390864
 20
0.0400000011114265
 10
0.1037583522786676
 20
0.0400000011114265
 10
0.1037583522786676
 20
0.0400000011114265
  0
CIRCLE
  5
1D5C
330
1D5A
100
AcDbEntity
  8
Section point
 62
     5
100
AcDbCircle
 10
0.0837583522600411
 20
0.0400000011114265
 30
0.0
 40
0.0200000000000102
  0
TEXT
  5
1D5D
330
1D5A
100
AcDbEntity
  8
Annotatons
100
AcDbText
 10
0.0018635749176369
 20
0.0980765179420957
 30
0.0
 40
0.05
  1
SE
  7
Text
 72
     2
 11
0.0950422925165455
 21
0.0791474592790671
 31
0.0
100
AcDbText
 73
     1
  0
ENDBLK
  5
1D61
330
1D5A
100
AcDbEntity
  8
0
100
AcDbBlockEnd
  0
BLOCK
  5
1DA0
330
1D9C
100
AcDbEntity
  8
0
100
AcDbBlockBegin
  2
A$C326633BF
 70
     0
 10
0.0
 20
0.0
 30
0.0
  3
A$C326633BF
  1

  0
TEXT
  5
1D9D
330
1D9C
100
AcDbEntity
  8
Annotatons
100
AcDbText
 10
0.0040381997021606
 20
0.0209744399703031
 30
0.0
 40
0.05
  1
(7904)
  7
Text
 72
     1
 11
0.1049931792383134
 21
0.0020453813072745
 31
0.0
100
AcDbText
 73
     1
  0
ENDBLK
  5
1DA1
330
1D9C
100
AcDbEntity
  8
0
100
AcDbBlockEnd
  0
BLOCK
  5
1DE3
330
1DDE
100
AcDbEntity
  8
0
100
AcDbBlockBegin
  2
A$C688D25D6
 70
     0
 10
0.0
 20
0.0
 30
0.0
  3
A$C688D25D6
  1

  0
TEXT
  5
1DDF
330
1DDE
100
AcDbEntity
  8
Annotatons
100
AcDbText
 10
0.0038840445552374
 20
0.0208963437716183
 30
0.0
 40
0.05
  1
[9111]
  7
Text
 72
     1
 11
0.1009849995347736
 21
0.0019672851085897
 31
0.0
100
AcDbText
 73
     1
  0
LWPOLYLINE
  5
1DE0
330
1DDE
100
AcDbEntity
  8
aOD
100
AcDbPolyline
 90
        2
 70
     0
 43
0.0
 10
0.0444842377198853
 20
0.1775092577338029
 10
0.0976507228956507
 20
0.0857485519311325
  0
ENDBLK
  5
1DE4
330
1DDE
100
AcDbEntity
  8
0
100
AcDbBlockEnd
  0
BLOCK
  5
1E35
330
1E31
100
AcDbEntity
  8
0
100
AcDbBlockBegin
  2
A$C7A1871A4
 70
     0
 10
0.0
 20
0.0
 30
0.0
  3
A$C7A1871A4
  1

  0
TEXT
  5
1E32
330
1E31
100
AcDbEntity
  8
Annotatons
100
AcDbText
 10
0.0040381997021606
 20
0.0209744399703049
 30
0.0
 40
0.05
  1
(9001)
  7
Text
 72
     1
 11
0.1049931792383134
 21
0.0020453813072763
 31
0.0
100
AcDbText
 73
     1
  0
ENDBLK
  5
1E36
330
1E31
100
AcDbEntity
  8
0
100
AcDbBlockEnd
  0
BLOCK
  5
1F27
330
1F1F
100
AcDbEntity
  8
0
100
AcDbBlockBegin
  2
A$C14D1743E
 70
     0
 10
0.0
 20
0.0
 30
0.0
  3
A$C14D1743E
  1

  0
LWPOLYLINE
  5
1F20
330
1F1F
100
AcDbEntity
  8
Section point
 62
     5
100
AcDbPolyline
 90
        9
 70
     0
 43
0.0
 10
-0.0000000032934864
 20
0.0406340979573816
 10
0.0799999966646041
 20
0.0406340979573816
 10
0.0399999966855589
 20
0.0406340979573816
 10
0.0399999966855589
 20
0.0006340979492325
 10
0.0399999966855589
 20
0.0806340979655307
 10
0.0399999966855589
 20
0.0406340979573816
 10
0.0799999966646041
 20
0.0406340979573816
 10
0.0599999967041853
 20
0.0406340979573816
 10
0.0599999967041853
 20
0.0406340979573816
  0
CIRCLE
  5
1F21
330
1F1F
100
AcDbEntity
  8
Section point
 62
     5
100
AcDbCircle
 10
0.0399999966855589
 20
0.0406340979573816
 30
0.0
 40
0.0200000000000102
  0
TEXT
  5
1F22
330
1F1F
100
AcDbEntity
  8
Annotatons
100
AcDbText
 10
0.0509432143012718
 20
0.1010333457827
 30
0.0
 40
0.05
  1
NE
  7
Text
 72
     2
 11
0.1479759564567971
 21
0.0821042871196713
 31
0.0
100
AcDbText
 73
     1
  0
LWPOLYLINE
  5
1F23
330
1F1F
100
AcDbEntity
  8
aOD
 62
     1
100
AcDbPolyline
 90
        6
 70
     0
 43
0.0
 10
0.1160444951503266
 20
0.04000000617037
 10
0.1960444951666247
 20
0.04000000617037
 10
0.1560444951293718
 20
0.04000000617037
 10
0.1160444951503266
 20
0.000000006162221
 10
0.1560444951293718
 20
0.04000000617037
 10
0.1960444951666247
 20
0.000000006162221
  0
TEXT
  5
1F24
330
1F1F
100
AcDbEntity
  8
aOD
 62
     1
100
AcDbText
 10
0.1232071179870188
 20
0.0451900893339012
 30
0.0
 40
0.025
  1
32.3
  7
Text
 72
     1
 11
0.1571941575504567
 21
0.0357255600023869
 31
0.0
100
AcDbText
 73
     1
  0
ENDBLK
  5
1F28
330
1F1F
100
AcDbEntity
  8
0
100
AcDbBlockEnd
  0
BLOCK
  5
215B
330
2156
100
AcDbEntity
  8
0
100
AcDbBlockBegin
  2
A$C73995ACF
 70
     0
 10
0.0
 20
0.0
 30
0.0
  3
A$C73995ACF
  1

  0
TEXT
  5
2157
330
2156
100
AcDbEntity
  8
Annotatons
100
AcDbText
 10
0.0038840152331353
 20
0.0208963403928526
 30
0.0
 40
0.05
  1
[3705]
  7
Text
 72
     1
 11
0.1009849702126715
 21
0.001967281729824
 31
0.0
100
AcDbText
 73
     1
  0
LWPOLYLINE
  5
2158
330
2156
100
AcDbEntity
  8
aOD
100
AcDbPolyline
 90
        2
 70
     0
 43
0.0
 10
0.0476004211293244
 20
0.2153746986397849
 10
0.0973617934164892
 20
0.0814400173176892
  0
ENDBLK
  5
215C
330
2156
100
AcDbEntity
  8
0
100
AcDbBlockEnd
  0
BLOCK
  5
223C
330
2237
100
AcDbEntity
  8
0
100
AcDbBlockBegin
  2
A$C4A8904C7
 70
     0
 10
0.0
 20
0.0
 30
0.0
  3
A$C4A8904C7
  1

  0
TEXT
  5
2238
330
2237
100
AcDbEntity
  8
Annotatons
100
AcDbText
 10
0.0040381823354374
 20
0.0209744448744993
 30
0.0
 40
0.05
  1
(8904)
  7
Text
 72
     1
 11
0.1049931618715902
 21
0.0020453862114707
 31
0.0
100
AcDbText
 73
     1
  0
LWPOLYLINE
  5
2239
330
2237
100
AcDbEntity
  8
CONTEXT
100
AcDbPolyline
 90
        2
 70
     0
 43
0.0
 10
0.1162379753096445
 20
0.088228804329237
 10
0.1963806845769511
 20
0.2547633578790887
  0
ENDBLK
  5
223D
330
2237
100
AcDbEntity
  8
0
100
AcDbBlockEnd
  0
ENDSEC
  0
SECTION
  2
ENTITIES
  0
IMAGE
  5
21BA
330
1F
100
AcDbEntity
  8
Scanned drawing
160
               140
310
8C0000000100000084000000060000000500000082F8B89D5E004140D8595B7ED500254000000000000000005EF565BDE6194340D8595B7ED500254000000000000000005EF565BDE61943402DFE1D5718F12A40000000000000000082F8B89D5E0041402DFE1D5718F12A40000000000000000082F8B89D5E004140D8595B
310
7ED50025400000000000000000
100
AcDbRasterImage
 90
        0
 10
34.00288745433592
 20
10.50162882676243
 30
0.0
 11
0.0008466666666666666
 21
0.0
 31
0.0
 12
5.184166897848064E-20
 22
0.0008466666666666666
 32
0.0
 13
4960.0
 23
3507.0
340
21B8
 70
     7
280
     0
281
    50
282
    50
283
     0
360
21B9
 71
     1
 91
        2
 14
-0.5
 24
-0.5
 14
4959.5
 24
3506.5
290
     0
  0
LWPOLYLINE
  5
21C5
330
1F
100
AcDbEntity
  8
Section point
 62
     5
100
AcDbPolyline
 90
        9
 70
     0
 43
0.0
 10
34.52762494589557
 20
12.84544357912385
 10
34.60762494585367
 20
12.84544357912385
 10
34.56762494587462
 20
12.84544357912385
 10
34.56762494587462
 20
12.8054435791157
 10
34.56762494587462
 20
12.88544357913199
 10
34.56762494587462
 20
12.84544357912385
 10
34.60762494585367
 20
12.84544357912385
 10
34.58762494589325
 20
12.84544357912385
 10
34.58762494589325
 20
12.84544357912385
  0
CIRCLE
  5
21C6
330
1F
100
AcDbEntity
  8
Section point
 62
     5
100
AcDbCircle
 10
34.56762494587462
 20
12.84544357912385
 30
0.0
 40
0.0200000000000102
  0
TEXT
  5
21C7
330
1F
100
AcDbEntity
  8
Annotatons
100
AcDbText
 10
34.42423315741203
 20
12.9047072649344
 30
0.0
 40
0.05
  1
SW
  7
Text
 72
     2
 11
34.53675021061803
 21
12.88577820627137
 31
0.0
100
AcDbText
 73
     1
  0
LWPOLYLINE
  5
21D1
330
1F
100
AcDbEntity
  8
Section point
 62
     5
100
AcDbPolyline
 90
        9
 70
     0
 43
0.0
 10
34.82922376234827
 20
12.84051472602185
 10
34.90922376230636
 20
12.84051472602185
 10
34.86922376232732
 20
12.84051472602185
 10
34.86922376232732
 20
12.80051472601371
 10
34.86922376232732
 20
12.88051472603
 10
34.86922376232732
 20
12.84051472602185
 10
34.90922376230636
 20
12.84051472602185
 10
34.88922376234594
 20
12.84051472602185
 10
34.88922376234594
 20
12.84051472602185
  0
CIRCLE
  5
21D2
330
1F
100
AcDbEntity
  8
Section point
 62
     5
100
AcDbCircle
 10
34.86922376232732
 20
12.84051472602185
 30
0.0
 40
0.0200000000000102
  0
TEXT
  5
21D3
330
1F
100
AcDbEntity
  8
Annotatons
100
AcDbText
 10
34.88016697994303
 20
12.90091397384717
 30
0.0
 40
0.05
  1
NE
  7
Text
 72
     2
 11
34.97719972209855
 21
12.88198491518414
 31
0.0
100
AcDbText
 73
     1
  0
LWPOLYLINE
  5
21D4
330
1F
100
AcDbEntity
  8
CONTEXT
100
AcDbPolyline
 90
       15
 70
     0
 43
0.0
 10
34.57082766161128
 20
12.81000031502528
 10
34.58576154954643
 20
12.78942186853842
 10
34.61408449056157
 20
12.75032280794743
 10
34.64086254828801
 20
12.71379606236675
 10
34.65940119618578
 20
12.69784778780482
 10
34.6841193772383
 20
12.68704409419976
 10
34.7186218514082
 20
12.68344286299807
 10
34.74179514917203
 20
12.6855007199127
 10
34.77887244496758
 20
12.6983622459005
 10
34.81028515256008
 20
12.71122377188831
 10
34.82367420564006
 20
12.72305638168475
 10
34.84684750340389
 20
12.74569266055436
 10
34.86487115791644
 20
12.77193019515755
 10
34.87208062940815
 20
12.78582063733673
 10
34.87362551269685
 20
12.79610984831422
  0
LWPOLYLINE
  5
21D5
330
1F
100
AcDbEntity
  8
CONTEXT
100
AcDbPolyline
 90
        9
 70
     0
 43
0.0
 10
34.57082766161128
 20
12.81000031502528
 10
34.59709072595248
 20
12.80382676881329
 10
34.63468296669976
 20
12.8002255376116
 10
34.6717602624953
 20
12.8033123107176
 10
34.70214308018434
 20
12.8063990838236
 10
34.76084879045503
 20
12.80845691620635
 10
34.79947096953926
 20
12.80537016763223
 10
34.84684750340389
 20
12.79971107951591
 10
34.87362551269685
 20
12.79610984831422
  0
TEXT
  5
21E8
330
1F
100
AcDbEntity
  8
Annotatons
100
AcDbText
 10
34.7801374084501
 20
12.5392254979438
 30
0.0
 40
0.05
  1
[5103]
  7
Text
 72
     1
 11
34.87723836342964
 21
12.52029643928077
 31
0.0
100
AcDbText
 73
     1
  0
LWPOLYLINE
  5
21E9
330
1F
100
AcDbEntity
  8
CONTEXT
100
AcDbPolyline
 90
        2
 70
     0
 43
0.0
 10
34.84363770746288
 20
12.74069917732003
 10
34.84363770746288
 20
12.74069917732003
  0
LWPOLYLINE
  5
21F1
330
1F
100
AcDbEntity
  8
CONTEXT
100
AcDbPolyline
 90
        2
 70
     0
 43
0.0
 10
34.87800317442202
 20
12.60894208893112
 10
34.84363770746288
 20
12.74069917732003
  0
IMAGE
  5
21F3
330
1F
100
AcDbEntity
  8
Scanned drawing
160
               140
310
8C000000010000008400000006000000050000008A788A74ACF7404058B8E012D15C2B4000000000000000004272E4B3BC2A454058B8E012D15C2B4000000000000000004272E4B3BC2A454081003362AB9E334000000000000000008A788A74ACF7404081003362AB9E334000000000000000008A788A74ACF7404058B8E0
310
12D15C2B400000000000000000
100
AcDbRasterImage
 90
        0
 10
33.9349504161956
 20
13.6812826060597
 30
0.0
 11
0.001693333333333333
 21
0.0
 31
0.0
 12
1.036833379569613E-19
 22
0.001693333333333333
 32
0.0
 13
4960.0
 23
3507.0
340
21B8
 70
     7
280
     0
281
    50
282
    50
283
     0
360
21F2
 71
     1
 91
        2
 14
-0.5
 24
-0.5
 14
4959.5
 24
3506.5
290
     0
  0
LWPOLYLINE
  5
21FB
330
1F
100
AcDbEntity
  8
CONTEXT
  6
ACAD_ISO02W100
 48
0.003
100
AcDbPolyline
 90
        2
 70
     0
 43
0.0
 10
34.87174464015341
 20
15.75093609616783
 10
34.86642098142192
 20
16.50062687194942
  0
LWPOLYLINE
  5
2205
330
1F
100
AcDbEntity
  8
Section point
 62
     5
100
AcDbPolyline
 90
        9
 70
     0
 43
0.0
 10
34.82638218396918
 20
16.55128797382581
 10
34.90638218392727
 20
16.55128797382581
 10
34.86638218394823
 20
16.55128797382581
 10
34.86638218394823
 20
16.51128797381767
 10
34.86638218394823
 20
16.59128797383396
 10
34.86638218394823
 20
16.55128797382581
 10
34.90638218392727
 20
16.55128797382581
 10
34.88638218396685
 20
16.55128797382581
 10
34.88638218396685
 20
16.55128797382581
  0
CIRCLE
  5
2206
330
1F
100
AcDbEntity
  8
Section point
 62
     5
100
AcDbCircle
 10
34.86638218394823
 20
16.55128797382581
 30
0.0
 40
0.0200000000000102
  0
TEXT
  5
2207
330
1F
100
AcDbEntity
  8
Annotatons
100
AcDbText
 10
34.71913637092901
 20
16.61055165963637
 30
0.0
 40
0.05
  1
NW
  7
Text
 72
     2
 11
34.83550744869164
 21
16.59162260097334
 31
0.0
100
AcDbText
 73
     1
  0
LWPOLYLINE
  5
220F
330
1F
100
AcDbEntity
  8
CONTEXT
  6
ACAD_ISO02W100
 48
0.003
100
AcDbPolyline
 90
        2
 70
     0
 43
0.0
 10
36.87160315286914
 20
15.76117857391027
 10
36.88348084471957
 20
16.50647735780846
  0
LWPOLYLINE
  5
2219
330
1F
100
AcDbEntity
  8
Section point
 62
     5
100
AcDbPolyline
 90
        9
 70
     0
 43
0.0
 10
36.83815231938498
 20
16.56596011890759
 10
36.91815231934307
 20
16.56596011890759
 10
36.87815231936403
 20
16.56596011890759
 10
36.87815231936403
 20
16.52596011889944
 10
36.87815231936403
 20
16.60596011891574
 10
36.87815231936403
 20
16.56596011890759
 10
36.91815231934307
 20
16.56596011890759
 10
36.89815231938265
 20
16.56596011890759
 10
36.89815231938265
 20
16.56596011890759
  0
CIRCLE
  5
221A
330
1F
100
AcDbEntity
  8
Section point
 62
     5
100
AcDbCircle
 10
36.87815231936403
 20
16.56596011890759
 30
0.0
 40
0.0200000000000102
  0
TEXT
  5
221B
330
1F
100
AcDbEntity
  8
Annotatons
100
AcDbText
 10
36.89294956153635
 20
16.62635936673291
 30
0.0
 40
0.05
  1
SE
  7
Text
 72
     2
 11
36.98612827913527
 21
16.60743030806988
 31
0.0
100
AcDbText
 73
     1
  0
LWPOLYLINE
  5
2223
330
1F
100
AcDbEntity
  8
CONTEXT
  6
DASHDOT
 48
0.003
100
AcDbPolyline
 90
        2
 70
     0
 43
0.0
 10
34.87174464015341
 20
15.75093609616783
 10
36.87160315286914
 20
15.76117857391027
  0
LWPOLYLINE
  5
2224
330
1F
100
AcDbEntity
  8
CONTEXT
100
AcDbPolyline
 90
       16
 70
     0
 43
0.0
 10
34.87206614779222
 20
16.18883808463824
 10
34.99833024311513
 20
16.18716179661496
 10
35.11517726810322
 20
16.1859759009112
 10
35.1780647265993
 20
16.18381726702565
 10
35.2684905034414
 20
16.18743078870018
 10
35.32274595017326
 20
16.18863527957043
 10
35.47268186925588
 20
16.18652269202725
 10
35.63045878421187
 20
16.18059063766084
 10
35.82550464631534
 20
16.17057314180746
 10
35.91004691554303
 20
16.17057314180746
 10
36.12465419572351
 20
16.15757929084859
 10
36.23520946714176
 20
16.15324801537293
 10
36.42380379356518
 20
16.14025416441406
 10
36.6665918140104
 20
16.12076338797576
 10
36.85978858202367
 20
16.10650128778553
 10
36.87700029737417
 20
16.1055119169878
  0
LWPOLYLINE
  5
2225
330
1F
100
AcDbEntity
  8
CONTEXT
100
AcDbPolyline
 90
       12
 70
     0
 43
0.0
 10
35.67610658122905
 20
16.59562359178435
 10
35.60594537998928
 20
16.59622268487265
 10
35.57896031749198
 20
16.59562359178435
 10
35.58255834519835
 20
16.55428678198863
 10
35.64492383588548
 20
16.55488585054505
 10
35.71208666455877
 20
16.55308859581203
 10
35.76845545854644
 20
16.54769683161297
 10
35.77265314139271
 20
16.58903366594057
 10
35.74685479646571
 20
16.59020935638145
 10
35.7216687478216
 20
16.59140751802617
 10
35.69588299560409
 20
16.59440293440391
 10
35.67610658122905
 20
16.59562359178435
  0
TEXT
  5
222D
330
1F
100
AcDbEntity
  8
Annotatons
100
AcDbText
 10
35.79176918662123
 20
16.3327120166178
 30
0.0
 40
0.05
  1
(5106)
  7
Text
 72
     1
 11
35.89272416615739
 21
16.31378295795477
 31
0.0
100
AcDbText
 73
     1
  0
TEXT
  5
2235
330
1F
100
AcDbEntity
  8
Annotatons
100
AcDbText
 10
35.78624801000607
 20
15.96591205414764
 30
0.0
 40
0.05
  1
(5105)
  7
Text
 72
     1
 11
35.88720298954222
 21
15.94698299548461
 31
0.0
100
AcDbText
 73
     1
  0
LWPOLYLINE
  5
223F
330
1F
100
AcDbEntity
  8
CONTEXT
100
AcDbPolyline
 90
       13
 70
     0
 43
0.0
 10
35.99532992669056
 20
15.75677227692136
 10
36.02396545750238
 20
15.79180701797571
 10
36.03618406666743
 20
15.80325082197565
 10
36.05222102752168
 20
15.80859126547774
 10
36.06367598572228
 20
15.80859126547774
 10
36.07665829428527
 20
15.80401373897138
 10
36.10415016490661
 20
15.79867329546929
 10
36.1514972996379
 20
15.79104410097997
 10
36.16600695856326
 20
15.78265196496302
 10
36.18128022001956
 20
15.7696823269716
 10
36.19273517822016
 20
15.76281604947802
 10
36.20419013642076
 20
15.75747560597593
 10
35.99532992669056
 20
15.75677227692136
  0
LWPOLYLINE
  5
225C
330
1F
100
AcDbEntity
  8
aOD
 62
     1
100
AcDbPolyline
 90
        6
 70
     0
 43
0.0
 10
37.03355399193504
 20
16.5659601211648
 10
37.11355399195134
 20
16.5659601211648
 10
37.07355399191409
 20
16.5659601211648
 10
37.03355399193504
 20
16.52596012115665
 10
37.07355399191409
 20
16.5659601211648
 10
37.11355399195134
 20
16.52596012115665
  0
TEXT
  5
225D
330
1F
100
AcDbEntity
  8
aOD
 62
     1
100
AcDbText
 10
37.02129301313463
 20
16.57115020432833
 30
0.0
 40
0.025
  1
101.46
  7
Text
 72
     1
 11
37.07470365433517
 21
16.56168567499682
 31
0.0
100
AcDbText
 73
     1
  0
LWPOLYLINE
  5
2265
330
1F
100
AcDbEntity
  8
CONTEXT
  6
DASHDOT
 48
0.003
100
AcDbPolyline
 90
        2
 70
     0
 43
0.0
 10
34.87123135623061
 20
17.03547921727256
 10
36.87406860767362
 20
16.95889564597809
  0
LWPOLYLINE
  5
2273
330
1F
100
AcDbEntity
  8
CONTEXT
  6
ACAD_ISO02W100
 48
0.003
100
AcDbPolyline
 90
        2
 70
     0
 43
0.0
 10
34.86525374999914
 20
16.59639798789389
 10
34.87123135623061
 20
17.03547921727256
  0
LWPOLYLINE
  5
227B
330
1F
100
AcDbEntity
  8
CONTEXT
  6
ACAD_ISO02W100
 48
0.003
100
AcDbPolyline
 90
        2
 70
     0
 43
0.0
 10
36.87794565643965
 20
16.61402835613391
 10
36.87406860767362
 20
16.95889564597809
  0
LWPOLYLINE
  5
227E
330
1F
100
AcDbEntity
  8
aOD
 62
     1
100
AcDbPolyline
 90
        6
 70
     0
 43
0.0
 10
35.02462543489833
 20
12.84051472827907
 10
35.10462543491463
 20
12.84051472827907
 10
35.06462543487738
 20
12.84051472827907
 10
35.02462543489833
 20
12.80051472827092
 10
35.06462543487738
 20
12.84051472827907
 10
35.10462543491463
 20
12.80051472827092
  0
TEXT
  5
227F
330
1F
100
AcDbEntity
  8
aOD
 62
     1
100
AcDbText
 10
35.01236445609792
 20
12.8457048114426
 30
0.0
 40
0.025
  1
102.15
  7
Text
 72
     1
 11
35.06577509729846
 21
12.83624028211108
 31
0.0
100
AcDbText
 73
     1
  0
TEXT
  5
2280
330
1F
100
AcDbEntity
  8
Annotatons
100
AcDbText
 10
34.51384922954141
 20
12.5392254979438
 30
0.0
 40
0.05
  1
(5102)
  7
Text
 72
     1
 11
34.61480420907757
 21
12.52029643928077
 31
0.0
100
AcDbText
 73
     1
  0
LWPOLYLINE
  5
2281
330
1F
100
AcDbEntity
  8
CONTEXT
100
AcDbPolyline
 90
        2
 70
     0
 43
0.0
 10
34.61403939808518
 20
12.60894208893112
 10
34.64840486504432
 20
12.74069917732003
  0
ENDSEC
  0
SECTION
  2
OBJECTS
  0
DICTIONARY
  5
C
330
0
100
AcDbDictionary
281
     1
  3
ACAD_CIP_PREVIOUS_PRODUCT_INFO
350
22A
  3
ACAD_COLOR
350
73
  3
ACAD_DETAILVIEWSTYLE
350
122
  3
ACAD_GROUP
350
D
  3
ACAD_IMAGE_DICT
350
23F
  3
ACAD_IMAGE_VARS
350
DC
  3
ACAD_LAYOUT
350
1A
  3
ACAD_MATERIAL
350
72
  3
ACAD_MLEADERSTYLE
350
B5
  3
ACAD_MLINESTYLE
350
17
  3
ACAD_PLOTSETTINGS
350
19
  3
ACAD_PLOTSTYLENAME
350
E
  3
ACAD_SCALELIST
350
B6
  3
ACAD_SECTIONVIEWSTYLE
350
123
  3
ACAD_TABLESTYLE
350
86
  3
ACAD_VISUALSTYLE
350
99
  3
ACDB_RECOMPOSE_DATA
350
2294
  3
AcDbVariableDictionary
350
66
  3
ADE_QUERY_LIBRARY
350
27C
  3
APPDATA
350
E1
  3
ASE_INDEX_DICTIONARY
350
280
  3
Autodesk_MAP
350
22B
  3
DimOffsetDictionary
350
129
1001
ADE
1000
ADE02C004
1000
[Query]
1000
CaseSensitiveMatch=0
1000
SaveCurrQueryInSession=1
1000
MkSelSetWithQryObj=0
1000
ShowBlockAsInsPt=0
1000
CreateAssociativeHatchObjects=0
1000
ReferenceBoundaryForAreaLocation=1
1000
ShowImageAsBoundary=1
1000
DefaultJoinOperator=2
1000
ColorForAdd=red
1000
ColorForRemove=red
1000
BlockLocnForQuery=1
1000
TextLocnForQuery=1
1000
IncludeAllObjectsInGroups=0
1000
AlwaysUseLibraryDefinitions=0
1000
PreviewDefinitionsFrom=2
1000
[Save Back]
1000
RedefineBlockDefinitions=1
1000
RedefineLayerDefinitions=1
1000
RedefineTextStyleDefinitions=1
1000
RemoveUnusedGroups=1
1000
EraseSavedBackObjects=1
1000
RemoveLockAfterSave=1
1000
CreateHistoryFileOfChanges=0
1000
CreateBackupFileOfSourceDwg=1
1000
DontAddObjectsToSaveSet=0
1000
MarkObjectsForEditingWithoutPrompting=0
1000
FdoDontAddObjsToSvSet=0
1000
FdoEditWithoutPrompt=1
1000
FdoRemUnusedGrps=1
1000
FdoEraseSvdBkObjs=1
1000
FdoRemoveLockOnSave=1
1000
FdoTesselationMaxPointsDistance=0
1000
FdoTesselationMaxCurvesDistance=0
1000
[Coordinate Transformation]
1000
RestoreLastActiveDwgsOnStartup=1
1000
ActivateDwgsOnAttach=1
1000
AdjustSizesAndScalesForChangesInUnits=1
1000
AdjustRotationsForMapDistortions=1
1000
AdjustSizesAndScalesForMapDistortions=1
1000
AdjustElevations=1
1000
AdjustZeroRotationObjects=1
1000
ReconnectDbOnWSOpen=1
1000
NoOfSQLConditionsInHistory=10
  0
SUN
  5
ED
330
94
100
AcDbSun
 90
        1
290
     0
 63
     7
421
 16777215
 40
1.0
291
     1
 91
  2455826
 92
 54000000
292
     0
 70
     2
 71
   256
280
     1
1001
ACAD
1000
AcDbSavedByObjectVersion
1070
     0
  0
DICTIONARY
  5
191
330
2
100
AcDbDictionary
280
     1
281
     1
  3
ACAD_LAYERSTATES
360
192
  0
DICTIONARY
  5
23B
330
1F
100
AcDbDictionary
280
     1
281
     1
  3
ACAD_SORTENTS
360
23C
  0
DICTIONARY
  5
2A3
330
29E
100
AcDbDictionary
280
     1
281
     1
  3
ACAD_SORTENTS
360
2A4
  0
DICTIONARY
  5
2C5
330
2C3
100
AcDbDictionary
280
     1
281
     1
  3
ACAD_SORTENTS
360
2C6
  0
DICTIONARY
  5
324
330
320
100
AcDbDictionary
280
     1
281
     1
  3
ACAD_SORTENTS
360
325
  0
DICTIONARY
  5
432
330
430
100
AcDbDictionary
280
     1
281
     1
  3
ACAD_SORTENTS
360
433
  0
DICTIONARY
  5
488
330
485
100
AcDbDictionary
280
     1
281
     1
  3
ACAD_SORTENTS
360
489
  0
DICTIONARY
  5
48F
330
48C
100
AcDbDictionary
280
     1
281
     1
  3
ACAD_SORTENTS
360
490
  0
DICTIONARY
  5
4B2
330
4AF
100
AcDbDictionary
280
     1
281
     1
  3
ACAD_SORTENTS
360
4B3
  0
DICTIONARY
  5
723
330
71F
100
AcDbDictionary
280
     1
281
     1
  3
ACAD_SORTENTS
360
724
  0
DICTIONARY
  5
80B
330
808
100
AcDbDictionary
280
     1
281
     1
  3
ACAD_SORTENTS
360
80C
  0
DICTIONARY
  5
884
330
87C
100
AcDbDictionary
280
     1
281
     1
  3
ACAD_SORTENTS
360
885
  0
DICTIONARY
  5
957
330
954
100
AcDbDictionary
280
     1
281
     1
  3
ACAD_SORTENTS
360
958
  0
DICTIONARY
  5
A52
330
A4F
100
AcDbDictionary
280
     1
281
     1
  3
ACAD_SORTENTS
360
A53
  0
DICTIONARY
  5
A87
330
A84
100
AcDbDictionary
280
     1
281
     1
  3
ACAD_SORTENTS
360
A88
  0
DICTIONARY
  5
BE0
330
BDD
100
AcDbDictionary
280
     1
281
     1
  3
ACAD_SORTENTS
360
BE1
  0
DICTIONARY
  5
D15
330
D12
100
AcDbDictionary
280
     1
281
     1
  3
ACAD_SORTENTS
360
D16
  0
DICTIONARY
  5
D6F
330
D6D
100
AcDbDictionary
280
     1
281
     1
  3
ACAD_SORTENTS
360
D70
  0
DICTIONARY
  5
ED2
330
ECF
100
AcDbDictionary
280
     1
281
     1
  3
ACAD_SORTENTS
360
ED3
  0
DICTIONARY
  5
EF8
330
EF6
100
AcDbDictionary
280
     1
281
     1
  3
ACAD_SORTENTS
360
EF9
  0
DICTIONARY
  5
F60
330
F5B
100
AcDbDictionary
280
     1
281
     1
  3
ACAD_SORTENTS
360
F61
  0
DICTIONARY
  5
106F
330
106C
100
AcDbDictionary
280
     1
281
     1
  3
ACAD_SORTENTS
360
1070
  0
DICTIONARY
  5
1098
330
1094
100
AcDbDictionary
280
     1
281
     1
  3
ACAD_SORTENTS
360
1099
  0
DICTIONARY
  5
120D
330
120B
100
AcDbDictionary
280
     1
281
     1
  3
ACAD_SORTENTS
360
120E
  0
DICTIONARY
  5
139B
330
1397
100
AcDbDictionary
280
     1
281
     1
  3
ACAD_SORTENTS
360
139C
  0
DICTIONARY
  5
13A5
330
139F
100
AcDbDictionary
280
     1
281
     1
  3
ACAD_SORTENTS
360
13A6
  0
DICTIONARY
  5
14A0
330
149E
100
AcDbDictionary
280
     1
281
     1
  3
ACAD_SORTENTS
360
14A1
  0
DICTIONARY
  5
15DF
330
15DD
100
AcDbDictionary
280
     1
281
     1
  3
ACAD_SORTENTS
360
15E0
  0
DICTIONARY
  5
162B
330
1629
100
AcDbDictionary
280
     1
281
     1
  3
ACAD_SORTENTS
360
162C
  0
DICTIONARY
  5
1639
330
1637
100
AcDbDictionary
280
     1
281
     1
  3
ACAD_SORTENTS
360
163A
  0
DICTIONARY
  5
165C
330
1654
100
AcDbDictionary
280
     1
281
     1
  3
ACAD_SORTENTS
360
165D
  0
DICTIONARY
  5
1666
330
1660
100
AcDbDictionary
280
     1
281
     1
  3
ACAD_SORTENTS
360
1667
  0
DICTIONARY
  5
16B7
330
16B1
100
AcDbDictionary
280
     1
281
     1
  3
ACAD_SORTENTS
360
16B8
  0
DICTIONARY
  5
1776
330
1774
100
AcDbDictionary
280
     1
281
     1
  3
ACAD_SORTENTS
360
1777
  0
DICTIONARY
  5
1787
330
1783
100
AcDbDictionary
280
     1
281
     1
  3
ACAD_SORTENTS
360
1788
  0
DICTIONARY
  5
1863
330
185F
100
AcDbDictionary
280
     1
281
     1
  3
ACAD_SORTENTS
360
1864
  0
DICTIONARY
  5
19C9
330
19C6
100
AcDbDictionary
280
     1
281
     1
  3
ACAD_SORTENTS
360
19CA
  0
DICTIONARY
  5
1CEF
330
1CED
100
AcDbDictionary
280
     1
281
     1
  3
ACAD_SORTENTS
360
1CF0
  0
DICTIONARY
  5
1D5E
330
1D5A
100
AcDbDictionary
280
     1
281
     1
  3
ACAD_SORTENTS
360
1D5F
  0
DICTIONARY
  5
1D9E
330
1D9C
100
AcDbDictionary
280
     1
281
     1
  3
ACAD_SORTENTS
360
1D9F
  0
DICTIONARY
  5
1DE1
330
1DDE
100
AcDbDictionary
280
     1
281
     1
  3
ACAD_SORTENTS
360
1DE2
  0
DICTIONARY
  5
1E33
330
1E31
100
AcDbDictionary
280
     1
281
     1
  3
ACAD_SORTENTS
360
1E34
  0
DICTIONARY
  5
1F25
330
1F1F
100
AcDbDictionary
280
     1
281
     1
  3
ACAD_SORTENTS
360
1F26
  0
DICTIONARY
  5
2159
330
2156
100
AcDbDictionary
280
     1
281
     1
  3
ACAD_SORTENTS
360
215A
  0
DICTIONARY
  5
223A
330
2237
100
AcDbDictionary
280
     1
281
     1
  3
ACAD_SORTENTS
360
223B
  0
IMAGEDEF_REACTOR
  5
1656
330
1655
100
AcDbRasterImageDefReactor
 90
        2
330
1655
  0
IMAGEDEF_REACTOR
  5
21B9
330
21BA
100
AcDbRasterImageDefReactor
 90
        2
330
21BA
  0
IMAGEDEF_REACTOR
  5
21F2
330
21F3
100
AcDbRasterImageDefReactor
 90
        2
330
21F3
  0
XRECORD
  5
22A
102
{ACAD_REACTORS
330
C
102
}
330
C
100
AcDbXrecord
280
     1
300
ACD
300
2018
300
ACD_F_S_EL
  0
DICTIONARY
  5
73
102
{ACAD_REACTORS
330
C
102
}
330
C
100
AcDbDictionary
281
     1
  0
DICTIONARY
  5
122
102
{ACAD_REACTORS
330
C
102
}
330
C
100
AcDbDictionary
281
     1
  3
Imperial24
350
1E9
  0
DICTIONARY
  5
D
102
{ACAD_REACTORS
330
C
102
}
330
C
100
AcDbDictionary
281
     1
  0
DICTIONARY
  5
23F
102
{ACAD_REACTORS
330
C
102
}
330
C
100
AcDbDictionary
281
     1
  3
Sheet_16
350
15F4
  3
Sheet_31
350
21B8
  0
RASTERVARIABLES
  5
DC
102
{ACAD_REACTORS
330
C
102
}
330
C
100
AcDbRasterVariables
 90
        0
 70
     1
 71
     1
 72
     3
  0
DICTIONARY
  5
1A
102
{ACAD_REACTORS
330
C
102
}
330
C
100
AcDbDictionary
281
     1
  3
Model
350
22
  3
Sheet1
350
59
  3
Sheet2
350
5E
  0
DICTIONARY
  5
72
102
{ACAD_REACTORS
330
C
102
}
330
C
100
AcDbDictionary
281
     1
  3
ByBlock
350
E2
  3
ByLayer
350
96
  3
Global
350
98
  0
DICTIONARY
  5
B5
102
{ACAD_REACTORS
330
C
102
}
330
C
100
AcDbDictionary
281
     1
  3
Standard
350
124
  0
DICTIONARY
  5
17
102
{ACAD_REACTORS
330
C
102
}
330
C
100
AcDbDictionary
281
     1
  3
Standard
350
18
  0
DICTIONARY
  5
19
102
{ACAD_REACTORS
330
C
102
}
330
C
100
AcDbDictionary
281
     1
  0
ACDBDICTIONARYWDFLT
  5
E
102
{ACAD_REACTORS
330
C
102
}
330
C
100
AcDbDictionary
281
     1
  3
Normal
350
F
100
AcDbDictionaryWithDefault
340
F
  0
DICTIONARY
  5
B6
102
{ACAD_REACTORS
330
C
102
}
330
C
100
AcDbDictionary
281
     1
  3
A0
350
B7
  3
A1
350
B8
  3
A2
350
B9
  3
A3
350
BA
  3
A4
350
BB
  3
A5
350
BC
  3
A6
350
BD
  3
A7
350
BE
  3
A8
350
BF
  3
A9
350
C0
  3
B0
350
C1
  3
B1
350
C2
  3
B2
350
C3
  3
B3
350
C4
  3
B4
350
C5
  3
B5
350
C6
  3
B6
350
C7
  3
B7
350
C8
  3
B8
350
C9
  3
B9
350
CA
  3
C0
350
CB
  3
C1
350
CC
  3
C2
350
CD
  3
C3
350
CE
  3
C4
350
CF
  3
C5
350
D0
  3
C6
350
D1
  3
C7
350
D2
  3
C8
350
D3
  3
C9
350
D4
  3
D0
350
D5
  3
D1
350
D6
  3
D2
350
D7
  0
DICTIONARY
  5
123
102
{ACAD_REACTORS
330
C
102
}
330
C
100
AcDbDictionary
281
     1
  3
Imperial24
350
1E8
  0
DICTIONARY
  5
86
102
{ACAD_REACTORS
330
C
102
}
330
C
100
AcDbDictionary
281
     1
  3
Legend
350
234
  3
Standard
350
87
  0
DICTIONARY
  5
99
102
{ACAD_REACTORS
330
C
102
}
330
C
100
AcDbDictionary
281
     1
  3
2dWireframe
350
9F
  3
3D Hidden
350
A1
  3
3dWireframe
350
A0
  3
Basic
350
9E
  3
Brighten
350
A5
  3
ColorChange
350
A9
  3
Conceptual
350
A2
  3
Dim
350
A4
  3
EdgeColorOff
350
E7
  3
Facepattern
350
A8
  3
Flat
350
9A
  3
FlatWithEdges
350
9B
  3
Gouraud
350
9C
  3
GouraudWithEdges
350
9D
  3
Hidden
350
E4
  3
JitterOff
350
E5
  3
Linepattern
350
A7
  3
OverhangOff
350
E6
  3
Realistic
350
A3
  3
Shaded
350
EC
  3
Shaded with edges
350
EB
  3
Shades of Gray
350
E8
  3
Sketchy
350
E9
  3
Thicken
350
A6
  3
Wireframe
350
E3
  3
X-Ray
350
EA
  0
XRECORD
  5
2294
102
{ACAD_REACTORS
330
C
102
}
330
C
100
AcDbXrecord
280
     1
 90
        1
330
87
330
234
  0
DICTIONARY
  5
66
102
{ACAD_REACTORS
330
C
102
}
330
C
100
AcDbDictionary
281
     1
  3
CANNOSCALE
350
D8
  3
CMLEADERSTYLE
350
128
  3
CTABLESTYLE
350
89
  3
CVIEWDETAILSTYLE
350
223
  3
CVIEWSECTIONSTYLE
350
224
  3
DIMASSOC
350
67
  3
HIDETEXT
350
6B
  3
LIGHTSINBLOCKS
350
DF
  3
XCLIPFRAME
350
E0
  0
DICTIONARY
  5
27C
102
{ACAD_REACTORS
330
C
102
}
330
C
100
AcDbDictionary
281
     1
  3
_CurrQry
350
224A
  0
DICTIONARY
  5
E1
102
{ACAD_REACTORS
330
C
102
}
330
C
100
AcDbDictionary
281
     1
  0
DICTIONARY
  5
280
102
{ACAD_REACTORS
330
C
102
}
330
C
100
AcDbDictionary
281
     1
  3
ASEBlockHierarchyIndexRecord
350
281
1001
DCO15
1040
2009338318.371
  0
DICTIONARY
  5
22B
102
{ACAD_REACTORS
330
C
102
}
330
C
100
AcDbDictionary
281
     1
  3
AcMapDMStylizedEntities
350
23D
  3
FSD_Dictionary
350
230
  3
MAP_DISPLAY_CUSTOMOBJ_REG_TABLE
350
22F
  3
MAP_DISPLAY_MANAGEMENT_DICTIONARY
350
22C
  3
MAP_DISPLAY_STYLELIBRARY_DICTIONARY
350
22D
  3
MAP_RESOURCE_VERSION_MANAGEMENT_DICTIONARY
350
23E
1001
MapGWS
1000
C:\ProgramData\Autodesk\AutoCAD Map 3D 2012\R18.2\MapCache\1C20LOWTT_SHEET_31GWS.xml
  0
DICTIONARY
  5
129
102
{ACAD_REACTORS
330
C
102
}
330
C
100
AcDbDictionary
281
     1
  3
DIMRAILSENABLED
350
12B
  0
DICTIONARY
  5
192
102
{ACAD_REACTORS
330
191
102
}
330
191
100
AcDbDictionary
281
     1
  0
SORTENTSTABLE
  5
23C
102
{ACAD_REACTORS
330
23B
102
}
330
23B
100
AcDbSortentsTable
330
1F
  0
SORTENTSTABLE
  5
2A4
102
{ACAD_REACTORS
330
2A3
102
}
330
2A3
100
AcDbSortentsTable
330
29E
  0
SORTENTSTABLE
  5
2C6
102
{ACAD_REACTORS
330
2C5
102
}
330
2C5
100
AcDbSortentsTable
330
2C3
  0
SORTENTSTABLE
  5
325
102
{ACAD_REACTORS
330
324
102
}
330
324
100
AcDbSortentsTable
330
320
  0
SORTENTSTABLE
  5
433
102
{ACAD_REACTORS
330
432
102
}
330
432
100
AcDbSortentsTable
330
430
  0
SORTENTSTABLE
  5
489
102
{ACAD_REACTORS
330
488
102
}
330
488
100
AcDbSortentsTable
330
485
  0
SORTENTSTABLE
  5
490
102
{ACAD_REACTORS
330
48F
102
}
330
48F
100
AcDbSortentsTable
330
48C
  0
SORTENTSTABLE
  5
4B3
102
{ACAD_REACTORS
330
4B2
102
}
330
4B2
100
AcDbSortentsTable
330
4AF
  0
SORTENTSTABLE
  5
724
102
{ACAD_REACTORS
330
723
102
}
330
723
100
AcDbSortentsTable
330
71F
  0
SORTENTSTABLE
  5
80C
102
{ACAD_REACTORS
330
80B
102
}
330
80B
100
AcDbSortentsTable
330
808
  0
SORTENTSTABLE
  5
885
102
{ACAD_REACTORS
330
884
102
}
330
884
100
AcDbSortentsTable
330
87C
  0
SORTENTSTABLE
  5
958
102
{ACAD_REACTORS
330
957
102
}
330
957
100
AcDbSortentsTable
330
954
  0
SORTENTSTABLE
  5
A53
102
{ACAD_REACTORS
330
A52
102
}
330
A52
100
AcDbSortentsTable
330
A4F
  0
SORTENTSTABLE
  5
A88
102
{ACAD_REACTORS
330
A87
102
}
330
A87
100
AcDbSortentsTable
330
A84
  0
SORTENTSTABLE
  5
BE1
102
{ACAD_REACTORS
330
BE0
102
}
330
BE0
100
AcDbSortentsTable
330
BDD
  0
SORTENTSTABLE
  5
D16
102
{ACAD_REACTORS
330
D15
102
}
330
D15
100
AcDbSortentsTable
330
D12
  0
SORTENTSTABLE
  5
D70
102
{ACAD_REACTORS
330
D6F
102
}
330
D6F
100
AcDbSortentsTable
330
D6D
  0
SORTENTSTABLE
  5
ED3
102
{ACAD_REACTORS
330
ED2
102
}
330
ED2
100
AcDbSortentsTable
330
ECF
  0
SORTENTSTABLE
  5
EF9
102
{ACAD_REACTORS
330
EF8
102
}
330
EF8
100
AcDbSortentsTable
330
EF6
  0
SORTENTSTABLE
  5
F61
102
{ACAD_REACTORS
330
F60
102
}
330
F60
100
AcDbSortentsTable
330
F5B
  0
SORTENTSTABLE
  5
1070
102
{ACAD_REACTORS
330
106F
102
}
330
106F
100
AcDbSortentsTable
330
106C
  0
SORTENTSTABLE
  5
1099
102
{ACAD_REACTORS
330
1098
102
}
330
1098
100
AcDbSortentsTable
330
1094
  0
SORTENTSTABLE
  5
120E
102
{ACAD_REACTORS
330
120D
102
}
330
120D
100
AcDbSortentsTable
330
120B
  0
SORTENTSTABLE
  5
139C
102
{ACAD_REACTORS
330
139B
102
}
330
139B
100
AcDbSortentsTable
330
1397
  0
SORTENTSTABLE
  5
13A6
102
{ACAD_REACTORS
330
13A5
102
}
330
13A5
100
AcDbSortentsTable
330
139F
  0
SORTENTSTABLE
  5
14A1
102
{ACAD_REACTORS
330
14A0
102
}
330
14A0
100
AcDbSortentsTable
330
149E
  0
SORTENTSTABLE
  5
15E0
102
{ACAD_REACTORS
330
15DF
102
}
330
15DF
100
AcDbSortentsTable
330
15DD
  0
SORTENTSTABLE
  5
162C
102
{ACAD_REACTORS
330
162B
102
}
330
162B
100
AcDbSortentsTable
330
1629
  0
SORTENTSTABLE
  5
163A
102
{ACAD_REACTORS
330
1639
102
}
330
1639
100
AcDbSortentsTable
330
1637
  0
SORTENTSTABLE
  5
165D
102
{ACAD_REACTORS
330
165C
102
}
330
165C
100
AcDbSortentsTable
330
1654
  0
SORTENTSTABLE
  5
1667
102
{ACAD_REACTORS
330
1666
102
}
330
1666
100
AcDbSortentsTable
330
1660
  0
SORTENTSTABLE
  5
16B8
102
{ACAD_REACTORS
330
16B7
102
}
330
16B7
100
AcDbSortentsTable
330
16B1
  0
SORTENTSTABLE
  5
1777
102
{ACAD_REACTORS
330
1776
102
}
330
1776
100
AcDbSortentsTable
330
1774
  0
SORTENTSTABLE
  5
1788
102
{ACAD_REACTORS
330
1787
102
}
330
1787
100
AcDbSortentsTable
330
1783
  0
SORTENTSTABLE
  5
1864
102
{ACAD_REACTORS
330
1863
102
}
330
1863
100
AcDbSortentsTable
330
185F
  0
SORTENTSTABLE
  5
19CA
102
{ACAD_REACTORS
330
19C9
102
}
330
19C9
100
AcDbSortentsTable
330
19C6
  0
SORTENTSTABLE
  5
1CF0
102
{ACAD_REACTORS
330
1CEF
102
}
330
1CEF
100
AcDbSortentsTable
330
1CED
  0
SORTENTSTABLE
  5
1D5F
102
{ACAD_REACTORS
330
1D5E
102
}
330
1D5E
100
AcDbSortentsTable
330
1D5A
  0
SORTENTSTABLE
  5
1D9F
102
{ACAD_REACTORS
330
1D9E
102
}
330
1D9E
100
AcDbSortentsTable
330
1D9C
  0
SORTENTSTABLE
  5
1DE2
102
{ACAD_REACTORS
330
1DE1
102
}
330
1DE1
100
AcDbSortentsTable
330
1DDE
  0
SORTENTSTABLE
  5
1E34
102
{ACAD_REACTORS
330
1E33
102
}
330
1E33
100
AcDbSortentsTable
330
1E31
  0
SORTENTSTABLE
  5
1F26
102
{ACAD_REACTORS
330
1F25
102
}
330
1F25
100
AcDbSortentsTable
330
1F1F
  0
SORTENTSTABLE
  5
215A
102
{ACAD_REACTORS
330
2159
102
}
330
2159
100
AcDbSortentsTable
330
2156
  0
SORTENTSTABLE
  5
223B
102
{ACAD_REACTORS
330
223A
102
}
330
223A
100
AcDbSortentsTable
330
2237
  0
ACDBDETAILVIEWSTYLE
  5
1E9
102
{ACAD_REACTORS
330
122
102
}
330
122
100
AcDbModelDocViewStyle
 70
     0
  3
Imperial24
290
     0
300
Imperial24
 90
        0
100
AcDbDetailViewStyle
 70
     0
 71
     0
 90
        3
 71
     1
340
11
 62
   256
 40
0.24
340
0
 62
   256
 40
0.24
300

 40
0.36
280
     3
 71
     2
340
16
 90
       25
 62
   256
 71
     3
340
11
 62
   256
 40
0.24
 90
        1
 40
0.75
 90
        1
300
%<\AcVar ViewType \f "%tc1">% %<\AcVar ViewDetailId>%\PSCALE %<\AcVar ViewScale \f "%sn">%
 71
     4
340
16
 90
       25
 62
   256
340
16
 90
       25
 62
   256
280
     0
  0
IMAGEDEF
  5
15F4
102
{ACAD_REACTORS
330
23F
330
1656
102
}
330
23F
100
AcDbRasterImageDef
 90
        0
  1
.\Scanned drawings\Sheet_16.tif
 10
4960.0
 20
3507.0
 11
0.08466666666666667
 21
0.08466666666666667
280
     1
281
     5
  0
IMAGEDEF
  5
21B8
102
{ACAD_REACTORS
330
23F
330
21B9
330
21F2
102
}
330
23F
100
AcDbRasterImageDef
 90
        0
  1
.\Scanned drawings\Sheet_31.tif
 10
4960.0
 20
3507.0
 11
0.08466666666666667
 21
0.08466666666666667
280
     1
281
     5
  0
LAYOUT
  5
22
102
{ACAD_REACTORS
330
1A
102
}
330
1A
100
AcDbPlotSettings
  1

  2
none_device
  4
ANSI_A_(8.50_x_11.00_Inches)
  6

 40
6.35
 41
19.05
 42
6.35
 43
19.05
 44
215.9
 45
279.4
 46
11.11250000000003
 47
0.0000000000000142
 48
0.0
 49
0.0
140
0.0
141
0.0
142
1.0
143
1.263157894736842
 70
 11444
 72
     0
 73
     1
 74
     1
  7
monochrome.ctb
 75
     0
 76
     0
 77
     2
 78
   300
147
0.7916666666666665
148
-702.8076765758875
149
-496.2830551296954
100
AcDbLayout
  1
Model
 70
     1
 71
     0
 10
0.0
 20
0.0
 11
12.0
 21
9.0
 12
0.0
 22
0.0
 32
0.0
 14
-1.73237793040362
 24
4.477053320163619
 34
0.0
 15
9.745915846886714
 25
5.433169448467941
 35
0.0
146
0.0
 13
0.0
 23
0.0
 33
0.0
 16
1.0
 26
0.0
 36
0.0
 17
0.0
 27
1.0
 37
0.0
 76
     0
330
1F
331
94
  0
LAYOUT
  5
59
102
{ACAD_REACTORS
330
1A
102
}
330
1A
100
AcDbPlotSettings
  1

  2
None
  4

  6

 40
0.0
 41
0.0
 42
0.0
 43
0.0
 44
0.0
 45
0.0
 46
0.0
 47
0.0
 48
0.0
 49
0.0
140
0.0
141
0.0
142
1.0
143
1.0
 70
   688
 72
     0
 73
     0
 74
     5
  7

 75
    16
 76
     0
 77
     2
 78
   300
147
1.0
148
0.0
149
0.0
100
AcDbLayout
  1
Sheet1
 70
     1
 71
     1
 10
0.0
 20
0.0
 11
12.0
 21
9.0
 12
0.0
 22
0.0
 32
0.0
 14
0.0
 24
0.0
 34
0.0
 15
0.0
 25
0.0
 35
0.0
146
0.0
 13
0.0
 23
0.0
 33
0.0
 16
1.0
 26
0.0
 36
0.0
 17
0.0
 27
1.0
 37
0.0
 76
     0
330
58
  0
LAYOUT
  5
5E
102
{ACAD_REACTORS
330
1A
102
}
330
1A
100
AcDbPlotSettings
  1

  2
None
  4

  6

 40
0.0
 41
0.0
 42
0.0
 43
0.0
 44
0.0
 45
0.0
 46
0.0
 47
0.0
 48
0.0
 49
0.0
140
0.0
141
0.0
142
1.0
143
1.0
 70
   688
 72
     0
 73
     0
 74
     5
  7

 75
    16
 76
     0
 77
     2
 78
   300
147
1.0
148
0.0
149
0.0
100
AcDbLayout
  1
Sheet2
 70
     1
 71
     2
 10
0.0
 20
0.0
 11
12.0
 21
9.0
 12
0.0
 22
0.0
 32
0.0
 14
0.0
 24
0.0
 34
0.0
 15
0.0
 25
0.0
 35
0.0
146
0.0
 13
0.0
 23
0.0
 33
0.0
 16
1.0
 26
0.0
 36
0.0
 17
0.0
 27
1.0
 37
0.0
 76
     0
330
5D
  0
MATERIAL
  5
E2
102
{ACAD_REACTORS
330
72
102
}
330
72
100
AcDbMaterial
  1
ByBlock
 72
     1
 94
      127
  0
MATERIAL
  5
96
102
{ACAD_REACTORS
330
72
102
}
330
72
100
AcDbMaterial
  1
ByLayer
 72
     1
 94
       63
  0
MATERIAL
  5
98
102
{ACAD_REACTORS
330
72
102
}
330
72
100
AcDbMaterial
  1
Global
 72
     1
 94
       63
  0
MLEADERSTYLE
  5
124
102
{ACAD_REACTORS
330
B5
102
}
330
B5
100
AcDbMLeaderStyle
179
     2
170
     2
171
     1
172
     0
 90
        2
 40
0.0
 41
0.0
173
     1
 91
-1056964608
340
14
 92
       -2
290
     1
 42
0.09
291
     1
 43
0.36
  3
Standard
341
0
 44
0.18
300

342
11
174
     1
178
     6
175
     1
176
     0
 93
-1056964608
 45
0.18
292
     0
297
     0
 46
0.18
343
0
 94
-1056964608
 47
1.0
 49
1.0
140
1.0
293
     1
141
0.0
294
     1
177
     0
142
1.0
295
     0
296
     0
143
0.125
271
     0
272
     9
273
     9
298
     0
  0
MLINESTYLE
  5
18
102
{ACAD_REACTORS
330
17
102
}
330
17
100
AcDbMlineStyle
  2
STANDARD
 70
     0
  3

 62
   256
 51
90.0
 52
90.0
 71
     2
 49
0.5
 62
   256
  6
BYLAYER
 49
-0.5
 62
   256
  6
BYLAYER
  0
ACDBPLACEHOLDER
  5
F
102
{ACAD_REACTORS
330
E
102
}
330
E
  0
SCALE
  5
B7
102
{ACAD_REACTORS
330
B6
102
}
330
B6
100
AcDbScale
 70
     0
300
1:1
140
1.0
141
1.0
290
     1
  0
SCALE
  5
B8
102
{ACAD_REACTORS
330
B6
102
}
330
B6
100
AcDbScale
 70
     0
300
1:2
140
1.0
141
2.0
290
     0
  0
SCALE
  5
B9
102
{ACAD_REACTORS
330
B6
102
}
330
B6
100
AcDbScale
 70
     0
300
1:4
140
1.0
141
4.0
290
     0
  0
SCALE
  5
BA
102
{ACAD_REACTORS
330
B6
102
}
330
B6
100
AcDbScale
 70
     0
300
1:5
140
1.0
141
5.0
290
     0
  0
SCALE
  5
BB
102
{ACAD_REACTORS
330
B6
102
}
330
B6
100
AcDbScale
 70
     0
300
1:8
140
1.0
141
8.0
290
     0
  0
SCALE
  5
BC
102
{ACAD_REACTORS
330
B6
102
}
330
B6
100
AcDbScale
 70
     0
300
1:10
140
1.0
141
10.0
290
     0
  0
SCALE
  5
BD
102
{ACAD_REACTORS
330
B6
102
}
330
B6
100
AcDbScale
 70
     0
300
1:16
140
1.0
141
16.0
290
     0
  0
SCALE
  5
BE
102
{ACAD_REACTORS
330
B6
102
}
330
B6
100
AcDbScale
 70
     0
300
1:20
140
1.0
141
20.0
290
     0
  0
SCALE
  5
BF
102
{ACAD_REACTORS
330
B6
102
}
330
B6
100
AcDbScale
 70
     0
300
1:30
140
1.0
141
30.0
290
     0
  0
SCALE
  5
C0
102
{ACAD_REACTORS
330
B6
102
}
330
B6
100
AcDbScale
 70
     0
300
1:40
140
1.0
141
40.0
290
     0
  0
SCALE
  5
C1
102
{ACAD_REACTORS
330
B6
102
}
330
B6
100
AcDbScale
 70
     0
300
1:50
140
1.0
141
50.0
290
     0
  0
SCALE
  5
C2
102
{ACAD_REACTORS
330
B6
102
}
330
B6
100
AcDbScale
 70
     0
300
1:100
140
1.0
141
100.0
290
     0
  0
SCALE
  5
C3
102
{ACAD_REACTORS
330
B6
102
}
330
B6
100
AcDbScale
 70
     0
300
2:1
140
2.0
141
1.0
290
     0
  0
SCALE
  5
C4
102
{ACAD_REACTORS
330
B6
102
}
330
B6
100
AcDbScale
 70
     0
300
4:1
140
4.0
141
1.0
290
     0
  0
SCALE
  5
C5
102
{ACAD_REACTORS
330
B6
102
}
330
B6
100
AcDbScale
 70
     0
300
8:1
140
8.0
141
1.0
290
     0
  0
SCALE
  5
C6
102
{ACAD_REACTORS
330
B6
102
}
330
B6
100
AcDbScale
 70
     0
300
10:1
140
10.0
141
1.0
290
     0
  0
SCALE
  5
C7
102
{ACAD_REACTORS
330
B6
102
}
330
B6
100
AcDbScale
 70
     0
300
100:1
140
100.0
141
1.0
290
     0
  0
SCALE
  5
C8
102
{ACAD_REACTORS
330
B6
102
}
330
B6
100
AcDbScale
 70
     0
300
1/128" = 1'-0"
140
0.0078125
141
12.0
290
     0
  0
SCALE
  5
C9
102
{ACAD_REACTORS
330
B6
102
}
330
B6
100
AcDbScale
 70
     0
300
1/64" = 1'-0"
140
0.015625
141
12.0
290
     0
  0
SCALE
  5
CA
102
{ACAD_REACTORS
330
B6
102
}
330
B6
100
AcDbScale
 70
     0
300
1/32" = 1'-0"
140
0.03125
141
12.0
290
     0
  0
SCALE
  5
CB
102
{ACAD_REACTORS
330
B6
102
}
330
B6
100
AcDbScale
 70
     0
300
1/16" = 1'-0"
140
0.0625
141
12.0
290
     0
  0
SCALE
  5
CC
102
{ACAD_REACTORS
330
B6
102
}
330
B6
100
AcDbScale
 70
     0
300
3/32" = 1'-0"
140
0.09375
141
12.0
290
     0
  0
SCALE
  5
CD
102
{ACAD_REACTORS
330
B6
102
}
330
B6
100
AcDbScale
 70
     0
300
1/8" = 1'-0"
140
0.125
141
12.0
290
     0
  0
SCALE
  5
CE
102
{ACAD_REACTORS
330
B6
102
}
330
B6
100
AcDbScale
 70
     0
300
3/16" = 1'-0"
140
0.1875
141
12.0
290
     0
  0
SCALE
  5
CF
102
{ACAD_REACTORS
330
B6
102
}
330
B6
100
AcDbScale
 70
     0
300
1/4" = 1'-0"
140
0.25
141
12.0
290
     0
  0
SCALE
  5
D0
102
{ACAD_REACTORS
330
B6
102
}
330
B6
100
AcDbScale
 70
     0
300
3/8" = 1'-0"
140
0.375
141
12.0
290
     0
  0
SCALE
  5
D1
102
{ACAD_REACTORS
330
B6
102
}
330
B6
100
AcDbScale
 70
     0
300
1/2" = 1'-0"
140
0.5
141
12.0
290
     0
  0
SCALE
  5
D2
102
{ACAD_REACTORS
330
B6
102
}
330
B6
100
AcDbScale
 70
     0
300
3/4" = 1'-0"
140
0.75
141
12.0
290
     0
  0
SCALE
  5
D3
102
{ACAD_REACTORS
330
B6
102
}
330
B6
100
AcDbScale
 70
     0
300
1" = 1'-0"
140
1.0
141
12.0
290
     0
  0
SCALE
  5
D4
102
{ACAD_REACTORS
330
B6
102
}
330
B6
100
AcDbScale
 70
     0
300
1-1/2" = 1'-0"
140
1.5
141
12.0
290
     0
  0
SCALE
  5
D5
102
{ACAD_REACTORS
330
B6
102
}
330
B6
100
AcDbScale
 70
     0
300
3" = 1'-0"
140
3.0
141
12.0
290
     0
  0
SCALE
  5
D6
102
{ACAD_REACTORS
330
B6
102
}
330
B6
100
AcDbScale
 70
     0
300
6" = 1'-0"
140
6.0
141
12.0
290
     0
  0
SCALE
  5
D7
102
{ACAD_REACTORS
330
B6
102
}
330
B6
100
AcDbScale
 70
     0
300
1'-0" = 1'-0"
140
12.0
141
12.0
290
     0
  0
ACDBSECTIONVIEWSTYLE
  5
1E8
102
{ACAD_REACTORS
330
123
102
}
330
123
100
AcDbModelDocViewStyle
 70
     0
  3
Imperial24
290
     0
300
Imperial24
 90
        0
100
AcDbSectionViewStyle
 70
     0
 71
     0
 90
       78
 71
     1
340
11
 62
   256
 40
0.24
340
0
340
0
 62
   256
 40
0.24
300
I, O, Q, S, X, Z
 40
0.48
 90
        3
 40
0.18
 90
        1
 71
     2
340
16
 90
       25
 62
   256
340
16
 90
       50
 62
   256
 40
0.24
 40
0.0
 40
0.24
 71
     3
340
11
 62
   256
 40
0.24
 90
        1
 40
0.75
 90
        1
300
%<\AcVar ViewType \f "%tc1">% %<\AcVar ViewSectionStartId>%-%<\AcVar ViewSectionEndId>%\PSCALE %<\AcVar ViewScale \f "%sn">%
 71
     4
 62
   256
 62
   257
300
ANSI31
 40
1.0
 90
        0
290
     0
290
     0
 90
        6
 40
0.0
 40
1.570796326794897
 40
0.2617993877991494
 40
1.308996938995747
 40
-0.2617993877991494
 40
1.832595714594046
  0
TABLESTYLE
  5
234
102
{ACAD_REACTORS
330
86
102
}
102
{ACAD_XDICTIONARY
360
2290
102
}
330
86
100
AcDbTableStyle
  3

 70
     0
 71
     0
 40
0.06
 41
0.06
280
     0
281
     0
  7
Legend
140
0.4
170
     4
 62
     0
 63
   257
283
     0
 90
      512
 91
        0
  1

274
    -2
284
     0
 64
     0
275
    -2
285
     0
 65
     0
276
    -2
286
     0
 66
     0
277
    -2
287
     0
 67
     0
278
    -2
288
     0
 68
     0
279
    -2
289
     0
 69
     0
  7
Legend
140
0.5
170
     5
 62
     0
 63
   257
283
     0
 90
      512
 91
        0
  1

274
    -2
284
     0
 64
     0
275
    -2
285
     0
 65
     0
276
    -2
286
     0
 66
     0
277
    -2
287
     0
 67
     0
278
    -2
288
     0
 68
     0
279
    -2
289
     0
 69
     0
  7
Legend
140
0.4
170
     4
 62
     0
 63
   257
283
     0
 90
      512
 91
        0
  1

274
    -2
284
     0
 64
     0
275
    -2
285
     0
 65
     0
276
    -2
286
     0
 66
     0
277
    -2
287
     0
 67
     0
278
    -2
288
     0
 68
     0
279
    -2
289
     0
 69
     0
  0
TABLESTYLE
  5
87
102
{ACAD_REACTORS
330
86
102
}
102
{ACAD_XDICTIONARY
360
2292
102
}
330
86
100
AcDbTableStyle
  3
Standard
 70
     0
 71
     0
 40
0.06
 41
0.06
280
     0
281
     0
  7
Standard
140
0.18
170
     2
 62
     0
 63
   257
283
     0
 90
      512
 91
        0
  1

274
    -2
284
     1
 64
     0
275
    -2
285
     1
 65
     0
276
    -2
286
     1
 66
     0
277
    -2
287
     1
 67
     0
278
    -2
288
     1
 68
     0
279
    -2
289
     1
 69
     0
  7
Standard
140
0.25
170
     5
 62
     0
 63
   257
283
     0
 90
      512
 91
        0
  1

274
    -2
284
     1
 64
     0
275
    -2
285
     1
 65
     0
276
    -2
286
     1
 66
     0
277
    -2
287
     1
 67
     0
278
    -2
288
     1
 68
     0
279
    -2
289
     1
 69
     0
  7
Standard
140
0.18
170
     5
 62
     0
 63
   257
283
     0
 90
      512
 91
        0
  1

274
    -2
284
     1
 64
     0
275
    -2
285
     1
 65
     0
276
    -2
286
     1
 66
     0
277
    -2
287
     1
 67
     0
278
    -2
288
     1
 68
     0
279
    -2
289
     1
 69
     0
  0
VISUALSTYLE
  5
9F
102
{ACAD_REACTORS
330
99
102
}
330
99
100
AcDbVisualStyle
  2
2dWireframe
 70
     4
177
     3
291
     0
 70
    58
 90
        0
176
     1
 90
        2
176
     1
 90
        1
176
     1
 90
        0
176
     1
 40
0.6
176
     1
 40
30.0
176
     1
 62
     7
420
 16777215
176
     1
 90
        1
176
     1
 90
        4
176
     1
 62
     7
176
     1
 62
   257
176
     1
 90
        1
176
     1
 90
        1
176
     1
 40
1.0
176
     1
 90
        0
176
     1
 62
   257
176
     1
 40
1.0
176
     1
 90
        1
176
     1
 90
        6
176
     1
 90
        2
176
     1
 62
     7
176
     1
 90
        5
176
     1
 90
        0
176
     1
 90
        0
176
     1
290
     0
176
     1
 90
        1
176
     1
 40
0.0
176
     1
 90
        0
176
     1
290
     1
176
     1
290
     1
176
     1
290
     0
176
     1
290
     0
176
     1
290
     0
176
     1
290
     0
176
     1
290
     0
176
     1
290
     0
176
     1
290
     0
176
     1
 90
       50
176
     1
 40
0.0
176
     1
 40
1.0
176
     1
 90
        0
176
     1
 62
    18
420
        0
176
     1
 90
       50
176
     1
 90
        3
176
     1
 62
     5
420
      255
176
     1
290
     0
176
     1
 90
       50
176
     1
 90
       50
176
     1
 90
       50
176
     1
290
     0
176
     1
 90
       50
176
     1
 62
   256
176
     0
 40
1.0
176
     0
 90
        2
176
     1
  1
strokes_ogs.tif
176
     1
290
     0
176
     1
 40
1.0
176
     1
 40
1.0
176
     1
  0
VISUALSTYLE
  5
A1
102
{ACAD_REACTORS
330
99
102
}
330
99
100
AcDbVisualStyle
  2
3D Hidden
 70
     6
177
     3
291
     0
 70
    58
 90
        1
176
     1
 90
        2
176
     1
 90
        2
176
     1
 90
        0
176
     1
 40
0.6
176
     1
 40
30.0
176
     1
 62
     7
420
 16777215
176
     1
 90
        2
176
     1
 90
        2
176
     1
 62
     7
176
     1
 62
   257
176
     1
 90
        2
176
     1
 90
        1
176
     1
 40
40.0
176
     1
 90
        0
176
     1
 62
   257
176
     1
 40
1.0
176
     1
 90
        1
176
     1
 90
        6
176
     1
 90
        2
176
     1
 62
     7
176
     1
 90
        3
176
     1
 90
        0
176
     1
 90
        0
176
     1
290
     0
176
     1
 90
        1
176
     1
 40
0.0
176
     1
 90
        0
176
     1
290
     0
176
     1
290
     1
176
     1
290
     1
176
     1
290
     0
176
     1
290
     0
176
     1
290
     0
176
     1
290
     0
176
     1
290
     0
176
     1
290
     0
176
     1
 90
       50
176
     1
 40
0.0
176
     1
 40
1.0
176
     1
 90
        0
176
     1
 62
    18
420
        0
176
     1
 90
       50
176
     1
 90
        3
176
     1
 62
     5
420
      255
176
     1
290
     0
176
     1
 90
       50
176
     1
 90
       50
176
     1
 90
       50
176
     1
290
     0
176
     1
 90
       50
176
     1
 62
   256
176
     0
 40
1.0
176
     0
 90
        2
176
     1
  1
strokes_ogs.tif
176
     1
290
     0
176
     1
 40
1.0
176
     1
 40
1.0
176
     1
  0
VISUALSTYLE
  5
A0
102
{ACAD_REACTORS
330
99
102
}
330
99
100
AcDbVisualStyle
  2
3dWireframe
 70
     5
177
     3
291
     0
 70
    58
 90
        0
176
     1
 90
        2
176
     1
 90
        1
176
     1
 90
        0
176
     1
 40
0.6
176
     1
 40
30.0
176
     1
 62
     7
420
 16777215
176
     1
 90
        1
176
     1
 90
        4
176
     1
 62
     7
176
     1
 62
   257
176
     1
 90
        1
176
     1
 90
        1
176
     1
 40
1.0
176
     1
 90
        0
176
     1
 62
   257
176
     1
 40
1.0
176
     1
 90
        1
176
     1
 90
        6
176
     1
 90
        2
176
     1
 62
     7
176
     1
 90
        5
176
     1
 90
        0
176
     1
 90
        0
176
     1
290
     0
176
     1
 90
        1
176
     1
 40
0.0
176
     1
 90
        0
176
     1
290
     0
176
     1
290
     1
176
     1
290
     1
176
     1
290
     0
176
     1
290
     0
176
     1
290
     0
176
     1
290
     0
176
     1
290
     0
176
     1
290
     0
176
     1
 90
       50
176
     1
 40
0.0
176
     1
 40
1.0
176
     1
 90
        0
176
     1
 62
    18
420
        0
176
     1
 90
       50
176
     1
 90
        3
176
     1
 62
     5
420
      255
176
     1
290
     0
176
     1
 90
       50
176
     1
 90
       50
176
     1
 90
       50
176
     1
290
     0
176
     1
 90
       50
176
     1
 62
   256
176
     0
 40
1.0
176
     0
 90
        2
176
     1
  1
strokes_ogs.tif
176
     1
290
     0
176
     1
 40
1.0
176
     1
 40
1.0
176
     1
  0
VISUALSTYLE
  5
9E
102
{ACAD_REACTORS
330
99
102
}
330
99
100
AcDbVisualStyle
  2
Basic
 70
     7
177
     3
291
     1
 70
    58
 90
        1
176
     1
 90
        0
176
     1
 90
        1
176
     1
 90
        0
176
     1
 40
0.6
176
     1
 40
30.0
176
     1
 62
     7
420
 16777215
176
     1
 90
        0
176
     1
 90
        4
176
     1
 62
     7
176
     1
 62
   257
176
     1
 90
        1
176
     1
 90
        1
176
     1
 40
1.0
176
     1
 90
        8
176
     1
 62
     7
176
     1
 40
1.0
176
     1
 90
        1
176
     1
 90
        6
176
     1
 90
        2
176
     1
 62
     7
176
     1
 90
        5
176
     1
 90
        0
176
     1
 90
        0
176
     1
290
     0
176
     1
 90
        1
176
     1
 40
0.0
176
     1
 90
        0
176
     1
290
     0
176
     1
290
     1
176
     1
290
     1
176
     1
290
     0
176
     1
290
     0
176
     1
290
     0
176
     1
290
     0
176
     1
290
     0
176
     1
290
     0
176
     1
 90
       50
176
     1
 40
0.0
176
     1
 40
1.0
176
     1
 90
        0
176
     1
 62
    18
420
        0
176
     1
 90
       50
176
     1
 90
        3
176
     1
 62
     5
420
      255
176
     1
290
     0
176
     1
 90
       50
176
     1
 90
       50
176
     1
 90
       50
176
     1
290
     0
176
     1
 90
       50
176
     1
 62
   256
176
     0
 40
1.0
176
     0
 90
        2
176
     1
  1
strokes_ogs.tif
176
     1
290
     0
176
     1
 40
1.0
176
     1
 40
1.0
176
     1
  0
VISUALSTYLE
  5
A5
102
{ACAD_REACTORS
330
99
102
}
330
99
100
AcDbVisualStyle
  2
Brighten
 70
    12
177
     3
291
     1
 70
    58
 90
        2
176
     1
 90
        2
176
     1
 90
        1
176
     1
 90
        0
176
     1
 40
0.6
176
     1
 40
30.0
176
     1
 62
     7
420
 16777215
176
     1
 90
        1
176
     1
 90
        4
176
     1
 62
     7
176
     1
 62
   257
176
     1
 90
        1
176
     1
 90
        1
176
     1
 40
1.0
176
     1
 90
        8
176
     1
 62
     7
176
     1
 40
1.0
176
     1
 90
        1
176
     1
 90
        6
176
     1
 90
        2
176
     1
 62
     7
176
     1
 90
        5
176
     1
 90
        0
176
     1
 90
        0
176
     1
290
     0
176
     1
 90
        1
176
     1
 40
50.0
176
     1
 90
        0
176
     1
290
     0
176
     1
290
     1
176
     1
290
     1
176
     1
290
     0
176
     1
290
     0
176
     1
290
     0
176
     1
290
     0
176
     1
290
     0
176
     1
290
     0
176
     1
 90
       50
176
     1
 40
0.0
176
     1
 40
1.0
176
     1
 90
        0
176
     1
 62
    18
420
        0
176
     1
 90
       50
176
     1
 90
        3
176
     1
 62
     5
420
      255
176
     1
290
     0
176
     1
 90
       50
176
     1
 90
       50
176
     1
 90
       50
176
     1
290
     0
176
     1
 90
       50
176
     1
 62
   256
176
     0
 40
1.0
176
     0
 90
        2
176
     1
  1
strokes_ogs.tif
176
     1
290
     0
176
     1
 40
1.0
176
     1
 40
1.0
176
     1
  0
VISUALSTYLE
  5
A9
102
{ACAD_REACTORS
330
99
102
}
330
99
100
AcDbVisualStyle
  2
ColorChange
 70
    16
177
     3
291
     1
 70
    58
 90
        2
176
     1
 90
        2
176
     1
 90
        3
176
     1
 90
        0
176
     1
 40
0.6
176
     1
 40
30.0
176
     1
 62
     8
420
  8421504
176
     1
 90
        1
176
     1
 90
        4
176
     1
 62
     7
176
     1
 62
   257
176
     1
 90
        1
176
     1
 90
        1
176
     1
 40
1.0
176
     1
 90
        8
176
     1
 62
     8
420
  8421504
176
     1
 40
1.0
176
     1
 90
        1
176
     1
 90
        6
176
     1
 90
        2
176
     1
 62
     7
176
     1
 90
        5
176
     1
 90
        0
176
     1
 90
        0
176
     1
290
     0
176
     1
 90
        1
176
     1
 40
0.0
176
     1
 90
        0
176
     1
290
     0
176
     1
290
     1
176
     1
290
     1
176
     1
290
     0
176
     1
290
     0
176
     1
290
     0
176
     1
290
     0
176
     1
290
     0
176
     1
290
     0
176
     1
 90
       50
176
     1
 40
0.0
176
     1
 40
1.0
176
     1
 90
        0
176
     1
 62
    18
420
        0
176
     1
 90
       50
176
     1
 90
        3
176
     1
 62
     5
420
      255
176
     1
290
     0
176
     1
 90
       50
176
     1
 90
       50
176
     1
 90
       50
176
     1
290
     0
176
     1
 90
       50
176
     1
 62
   256
176
     0
 40
1.0
176
     0
 90
        2
176
     1
  1
strokes_ogs.tif
176
     1
290
     0
176
     1
 40
1.0
176
     1
 40
1.0
176
     1
  0
VISUALSTYLE
  5
A2
102
{ACAD_REACTORS
330
99
102
}
330
99
100
AcDbVisualStyle
  2
Conceptual
 70
     9
177
     3
291
     0
 70
    58
 90
        3
176
     1
 90
        2
176
     1
 90
        1
176
     1
 90
        0
176
     1
 40
0.6
176
     1
 40
30.0
176
     1
 62
     7
420
 16777215
176
     1
 90
        2
176
     1
 90
        2
176
     1
 62
     7
176
     1
 62
   257
176
     1
 90
        1
176
     1
 90
        1
176
     1
 40
40.0
176
     1
 90
        8
176
     1
 62
     7
176
     1
 40
1.0
176
     1
 90
        1
176
     1
 90
        6
176
     1
 90
        2
176
     1
 62
     7
176
     1
 90
        3
176
     1
 90
        0
176
     1
 90
        0
176
     1
290
     0
176
     1
 90
        1
176
     1
 40
0.0
176
     1
 90
        0
176
     1
290
     0
176
     1
290
     1
176
     1
290
     1
176
     1
290
     0
176
     1
290
     0
176
     1
290
     0
176
     1
290
     0
176
     1
290
     0
176
     1
290
     0
176
     1
 90
       50
176
     1
 40
0.0
176
     1
 40
1.0
176
     1
 90
        0
176
     1
 62
    18
420
        0
176
     1
 90
       50
176
     1
 90
        3
176
     1
 62
     5
420
      255
176
     1
290
     0
176
     1
 90
       50
176
     1
 90
       50
176
     1
 90
       50
176
     1
290
     0
176
     1
 90
       50
176
     1
 62
   256
176
     0
 40
1.0
176
     0
 90
        2
176
     1
  1
strokes_ogs.tif
176
     1
290
     0
176
     1
 40
1.0
176
     1
 40
1.0
176
     1
  0
VISUALSTYLE
  5
A4
102
{ACAD_REACTORS
330
99
102
}
330
99
100
AcDbVisualStyle
  2
Dim
 70
    11
177
     3
291
     1
 70
    58
 90
        2
176
     1
 90
        2
176
     1
 90
        1
176
     1
 90
        0
176
     1
 40
0.6
176
     1
 40
30.0
176
     1
 62
     7
420
 16777215
176
     1
 90
        1
176
     1
 90
        4
176
     1
 62
     7
176
     1
 62
   257
176
     1
 90
        1
176
     1
 90
        1
176
     1
 40
1.0
176
     1
 90
        8
176
     1
 62
     7
176
     1
 40
1.0
176
     1
 90
        1
176
     1
 90
        6
176
     1
 90
        2
176
     1
 62
     7
176
     1
 90
        5
176
     1
 90
        0
176
     1
 90
        0
176
     1
290
     0
176
     1
 90
        1
176
     1
 40
-50.0
176
     1
 90
        0
176
     1
290
     0
176
     1
290
     1
176
     1
290
     1
176
     1
290
     0
176
     1
290
     0
176
     1
290
     0
176
     1
290
     0
176
     1
290
     0
176
     1
290
     0
176
     1
 90
       50
176
     1
 40
0.0
176
     1
 40
1.0
176
     1
 90
        0
176
     1
 62
    18
420
        0
176
     1
 90
       50
176
     1
 90
        3
176
     1
 62
     5
420
      255
176
     1
290
     0
176
     1
 90
       50
176
     1
 90
       50
176
     1
 90
       50
176
     1
290
     0
176
     1
 90
       50
176
     1
 62
   256
176
     0
 40
1.0
176
     0
 90
        2
176
     1
  1
strokes_ogs.tif
176
     1
290
     0
176
     1
 40
1.0
176
     1
 40
1.0
176
     1
  0
VISUALSTYLE
  5
E7
102
{ACAD_REACTORS
330
99
102
}
330
99
100
AcDbVisualStyle
  2
EdgeColorOff
 70
    22
177
     3
291
     1
 70
    58
 90
        2
176
     0
 90
        2
176
     0
 90
        0
176
     0
 90
        0
176
     0
 40
0.6
176
     0
 40
30.0
176
     0
 62
     7
420
 16777215
176
     0
 90
        1
176
     0
 90
        4
176
     0
 62
     7
176
     0
 62
   257
176
     0
 90
        1
176
     0
 90
        1
176
     0
 40
1.0
176
     0
 90
        8
176
     2
 62
     7
176
     0
 40
1.0
176
     0
 90
        1
176
     0
 90
        6
176
     0
 90
        2
176
     0
 62
     7
176
     0
 90
        5
176
     0
 90
        0
176
     0
 90
        0
176
     0
290
     0
176
     0
 90
        1
176
     0
 40
0.0
176
     0
 90
        0
176
     0
290
     0
176
     0
290
     1
176
     0
290
     1
176
     0
290
     0
176
     0
290
     0
176
     0
290
     0
176
     0
290
     0
176
     0
290
     0
176
     0
290
     0
176
     0
 90
       50
176
     0
 40
0.0
176
     0
 40
1.0
176
     0
 90
        0
176
     0
 62
    18
420
        0
176
     0
 90
       50
176
     0
 90
        3
176
     0
 62
     5
420
      255
176
     0
290
     0
176
     0
 90
       50
176
     0
 90
       50
176
     0
 90
       50
176
     0
290
     0
176
     0
 90
       50
176
     0
 62
   256
176
     0
 40
1.0
176
     0
 90
        2
176
     0
  1
strokes_ogs.tif
176
     0
290
     0
176
     0
 40
1.0
176
     0
 40
1.0
176
     0
  0
VISUALSTYLE
  5
A8
102
{ACAD_REACTORS
330
99
102
}
330
99
100
AcDbVisualStyle
  2
Facepattern
 70
    15
177
     3
291
     1
 70
    58
 90
        2
176
     1
 90
        2
176
     1
 90
        1
176
     1
 90
        0
176
     1
 40
0.6
176
     1
 40
30.0
176
     1
 62
     7
420
 16777215
176
     1
 90
        1
176
     1
 90
        4
176
     1
 62
     7
176
     1
 62
   257
176
     1
 90
        1
176
     1
 90
        1
176
     1
 40
1.0
176
     1
 90
        8
176
     1
 62
     7
176
     1
 40
1.0
176
     1
 90
        1
176
     1
 90
        6
176
     1
 90
        2
176
     1
 62
     7
176
     1
 90
        5
176
     1
 90
        0
176
     1
 90
        0
176
     1
290
     0
176
     1
 90
        1
176
     1
 40
0.0
176
     1
 90
        0
176
     1
290
     0
176
     1
290
     1
176
     1
290
     1
176
     1
290
     0
176
     1
290
     0
176
     1
290
     0
176
     1
290
     0
176
     1
290
     0
176
     1
290
     0
176
     1
 90
       50
176
     1
 40
0.0
176
     1
 40
1.0
176
     1
 90
        0
176
     1
 62
    18
420
        0
176
     1
 90
       50
176
     1
 90
        3
176
     1
 62
     5
420
      255
176
     1
290
     0
176
     1
 90
       50
176
     1
 90
       50
176
     1
 90
       50
176
     1
290
     0
176
     1
 90
       50
176
     1
 62
   256
176
     0
 40
1.0
176
     0
 90
        2
176
     1
  1
strokes_ogs.tif
176
     1
290
     0
176
     1
 40
1.0
176
     1
 40
1.0
176
     1
  0
VISUALSTYLE
  5
9A
102
{ACAD_REACTORS
330
99
102
}
330
99
100
AcDbVisualStyle
  2
Flat
 70
     0
177
     3
291
     1
 70
    58
 90
        2
176
     1
 90
        1
176
     1
 90
        1
176
     1
 90
        2
176
     1
 40
0.6
176
     1
 40
30.0
176
     1
 62
     7
420
 16777215
176
     1
 90
        0
176
     1
 90
        4
176
     1
 62
     7
176
     1
 62
   257
176
     1
 90
        1
176
     1
 90
        1
176
     1
 40
1.0
176
     1
 90
        8
176
     1
 62
     7
176
     1
 40
1.0
176
     1
 90
        1
176
     1
 90
        6
176
     1
 90
        2
176
     1
 62
     7
176
     1
 90
        5
176
     1
 90
        0
176
     1
 90
        0
176
     1
290
     0
176
     1
 90
        1
176
     1
 40
0.0
176
     1
 90
        0
176
     1
290
     0
176
     1
290
     1
176
     1
290
     1
176
     1
290
     0
176
     1
290
     0
176
     1
290
     0
176
     1
290
     0
176
     1
290
     0
176
     1
290
     0
176
     1
 90
       50
176
     1
 40
0.0
176
     1
 40
1.0
176
     1
 90
        0
176
     1
 62
    18
420
        0
176
     1
 90
       50
176
     1
 90
        3
176
     1
 62
     5
420
      255
176
     1
290
     0
176
     1
 90
       50
176
     1
 90
       50
176
     1
 90
       50
176
     1
290
     0
176
     1
 90
       50
176
     1
 62
   256
176
     0
 40
1.0
176
     0
 90
        2
176
     1
  1
strokes_ogs.tif
176
     1
290
     0
176
     1
 40
1.0
176
     1
 40
1.0
176
     1
  0
VISUALSTYLE
  5
9B
102
{ACAD_REACTORS
330
99
102
}
330
99
100
AcDbVisualStyle
  2
FlatWithEdges
 70
     1
177
     3
291
     1
 70
    58
 90
        2
176
     1
 90
        1
176
     1
 90
        1
176
     1
 90
        2
176
     1
 40
0.6
176
     1
 40
30.0
176
     1
 62
     7
420
 16777215
176
     1
 90
        1
176
     1
 90
        4
176
     1
 62
     7
176
     1
 62
   257
176
     1
 90
        1
176
     1
 90
        1
176
     1
 40
1.0
176
     1
 90
        0
176
     1
 62
   257
176
     1
 40
1.0
176
     1
 90
        1
176
     1
 90
        6
176
     1
 90
        2
176
     1
 62
     7
176
     1
 90
        5
176
     1
 90
        0
176
     1
 90
        0
176
     1
290
     0
176
     1
 90
        1
176
     1
 40
0.0
176
     1
 90
        0
176
     1
290
     0
176
     1
290
     1
176
     1
290
     1
176
     1
290
     0
176
     1
290
     0
176
     1
290
     0
176
     1
290
     0
176
     1
290
     0
176
     1
290
     0
176
     1
 90
       50
176
     1
 40
0.0
176
     1
 40
1.0
176
     1
 90
        0
176
     1
 62
    18
420
        0
176
     1
 90
       50
176
     1
 90
        3
176
     1
 62
     5
420
      255
176
     1
290
     0
176
     1
 90
       50
176
     1
 90
       50
176
     1
 90
       50
176
     1
290
     0
176
     1
 90
       50
176
     1
 62
   256
176
     0
 40
1.0
176
     0
 90
        2
176
     1
  1
strokes_ogs.tif
176
     1
290
     0
176
     1
 40
1.0
176
     1
 40
1.0
176
     1
  0
VISUALSTYLE
  5
9C
102
{ACAD_REACTORS
330
99
102
}
330
99
100
AcDbVisualStyle
  2
Gouraud
 70
     2
177
     3
291
     1
 70
    58
 90
        2
176
     1
 90
        2
176
     1
 90
        1
176
     1
 90
        2
176
     1
 40
0.6
176
     1
 40
30.0
176
     1
 62
     7
420
 16777215
176
     1
 90
        0
176
     1
 90
        4
176
     1
 62
     7
176
     1
 62
   257
176
     1
 90
        1
176
     1
 90
        1
176
     1
 40
1.0
176
     1
 90
        0
176
     1
 62
     7
176
     1
 40
1.0
176
     1
 90
        1
176
     1
 90
        6
176
     1
 90
        2
176
     1
 62
     7
176
     1
 90
        5
176
     1
 90
        0
176
     1
 90
        0
176
     1
290
     0
176
     1
 90
        1
176
     1
 40
0.0
176
     1
 90
        0
176
     1
290
     0
176
     1
290
     1
176
     1
290
     1
176
     1
290
     0
176
     1
290
     0
176
     1
290
     0
176
     1
290
     0
176
     1
290
     0
176
     1
290
     0
176
     1
 90
       50
176
     1
 40
0.0
176
     1
 40
1.0
176
     1
 90
        0
176
     1
 62
    18
420
        0
176
     1
 90
       50
176
     1
 90
        3
176
     1
 62
     5
420
      255
176
     1
290
     0
176
     1
 90
       50
176
     1
 90
       50
176
     1
 90
       50
176
     1
290
     0
176
     1
 90
       50
176
     1
 62
   256
176
     0
 40
1.0
176
     0
 90
        2
176
     1
  1
strokes_ogs.tif
176
     1
290
     0
176
     1
 40
1.0
176
     1
 40
1.0
176
     1
  0
VISUALSTYLE
  5
9D
102
{ACAD_REACTORS
330
99
102
}
330
99
100
AcDbVisualStyle
  2
GouraudWithEdges
 70
     3
177
     3
291
     1
 70
    58
 90
        2
176
     1
 90
        2
176
     1
 90
        1
176
     1
 90
        2
176
     1
 40
0.6
176
     1
 40
30.0
176
     1
 62
     7
420
 16777215
176
     1
 90
        1
176
     1
 90
        4
176
     1
 62
     7
176
     1
 62
   257
176
     1
 90
        1
176
     1
 90
        1
176
     1
 40
1.0
176
     1
 90
        0
176
     1
 62
   257
176
     1
 40
1.0
176
     1
 90
        1
176
     1
 90
        6
176
     1
 90
        2
176
     1
 62
     7
176
     1
 90
        5
176
     1
 90
        0
176
     1
 90
        0
176
     1
290
     0
176
     1
 90
        1
176
     1
 40
0.0
176
     1
 90
        0
176
     1
290
     0
176
     1
290
     1
176
     1
290
     1
176
     1
290
     0
176
     1
290
     0
176
     1
290
     0
176
     1
290
     0
176
     1
290
     0
176
     1
290
     0
176
     1
 90
       50
176
     1
 40
0.0
176
     1
 40
1.0
176
     1
 90
        0
176
     1
 62
    18
420
        0
176
     1
 90
       50
176
     1
 90
        3
176
     1
 62
     5
420
      255
176
     1
290
     0
176
     1
 90
       50
176
     1
 90
       50
176
     1
 90
       50
176
     1
290
     0
176
     1
 90
       50
176
     1
 62
   256
176
     0
 40
1.0
176
     0
 90
        2
176
     1
  1
strokes_ogs.tif
176
     1
290
     0
176
     1
 40
1.0
176
     1
 40
1.0
176
     1
  0
VISUALSTYLE
  5
E4
102
{ACAD_REACTORS
330
99
102
}
330
99
100
AcDbVisualStyle
  2
Hidden
 70
     6
177
     3
291
     0
 70
    58
 90
        1
176
     1
 90
        2
176
     1
 90
        2
176
     1
 90
        0
176
     1
 40
0.6
176
     1
 40
30.0
176
     1
 62
     7
420
 16777215
176
     1
 90
        2
176
     1
 90
        2
176
     1
 62
     7
176
     1
 62
   257
176
     1
 90
        2
176
     1
 90
        1
176
     1
 40
40.0
176
     1
 90
        0
176
     1
 62
   257
176
     1
 40
1.0
176
     1
 90
        1
176
     1
 90
        6
176
     1
 90
        2
176
     1
 62
     7
176
     1
 90
        3
176
     1
 90
        0
176
     1
 90
        0
176
     1
290
     0
176
     1
 90
        1
176
     1
 40
0.0
176
     1
 90
        0
176
     1
290
     0
176
     1
290
     1
176
     1
290
     1
176
     1
290
     0
176
     1
290
     0
176
     1
290
     0
176
     1
290
     0
176
     1
290
     0
176
     1
290
     0
176
     1
 90
       50
176
     1
 40
0.0
176
     1
 40
1.0
176
     1
 90
        0
176
     1
 62
    18
420
        0
176
     1
 90
       50
176
     1
 90
        3
176
     1
 62
     5
420
      255
176
     1
290
     0
176
     1
 90
       50
176
     1
 90
       50
176
     1
 90
       50
176
     1
290
     0
176
     1
 90
       50
176
     1
 62
   256
176
     0
 40
1.0
176
     0
 90
        2
176
     1
  1
strokes_ogs.tif
176
     1
290
     0
176
     1
 40
1.0
176
     1
 40
1.0
176
     1
  0
VISUALSTYLE
  5
E5
102
{ACAD_REACTORS
330
99
102
}
330
99
100
AcDbVisualStyle
  2
JitterOff
 70
    20
177
     3
291
     1
 70
    58
 90
        2
176
     0
 90
        2
176
     0
 90
        0
176
     0
 90
        0
176
     0
 40
0.6
176
     0
 40
30.0
176
     0
 62
     7
420
 16777215
176
     0
 90
        1
176
     0
 90
        4
176
     0
 62
     7
176
     0
 62
   257
176
     0
 90
        1
176
     0
 90
        1
176
     0
 40
1.0
176
     0
 90
       10
176
     2
 62
     7
176
     0
 40
1.0
176
     0
 90
        1
176
     0
 90
        6
176
     0
 90
        2
176
     0
 62
     7
176
     0
 90
        5
176
     0
 90
        0
176
     0
 90
        0
176
     0
290
     0
176
     0
 90
        1
176
     0
 40
0.0
176
     0
 90
        0
176
     0
290
     0
176
     0
290
     1
176
     0
290
     1
176
     0
290
     0
176
     0
290
     0
176
     0
290
     0
176
     0
290
     0
176
     0
290
     0
176
     0
290
     0
176
     0
 90
       50
176
     0
 40
0.0
176
     0
 40
1.0
176
     0
 90
        0
176
     0
 62
    18
420
        0
176
     0
 90
       50
176
     0
 90
        3
176
     0
 62
     5
420
      255
176
     0
290
     0
176
     0
 90
       50
176
     0
 90
       50
176
     0
 90
       50
176
     0
290
     0
176
     0
 90
       50
176
     0
 62
   256
176
     0
 40
1.0
176
     0
 90
        2
176
     0
  1
strokes_ogs.tif
176
     0
290
     0
176
     0
 40
1.0
176
     0
 40
1.0
176
     0
  0
VISUALSTYLE
  5
A7
102
{ACAD_REACTORS
330
99
102
}
330
99
100
AcDbVisualStyle
  2
Linepattern
 70
    14
177
     3
291
     1
 70
    58
 90
        2
176
     1
 90
        2
176
     1
 90
        1
176
     1
 90
        0
176
     1
 40
0.6
176
     1
 40
30.0
176
     1
 62
     7
420
 16777215
176
     1
 90
        1
176
     1
 90
        4
176
     1
 62
     7
176
     1
 62
   257
176
     1
 90
        7
176
     1
 90
        7
176
     1
 40
1.0
176
     1
 90
        8
176
     1
 62
     7
176
     1
 40
1.0
176
     1
 90
        1
176
     1
 90
        6
176
     1
 90
        2
176
     1
 62
     7
176
     1
 90
        5
176
     1
 90
        0
176
     1
 90
        0
176
     1
290
     0
176
     1
 90
        1
176
     1
 40
0.0
176
     1
 90
        0
176
     1
290
     0
176
     1
290
     1
176
     1
290
     1
176
     1
290
     0
176
     1
290
     0
176
     1
290
     0
176
     1
290
     0
176
     1
290
     0
176
     1
290
     0
176
     1
 90
       50
176
     1
 40
0.0
176
     1
 40
1.0
176
     1
 90
        0
176
     1
 62
    18
420
        0
176
     1
 90
       50
176
     1
 90
        3
176
     1
 62
     5
420
      255
176
     1
290
     0
176
     1
 90
       50
176
     1
 90
       50
176
     1
 90
       50
176
     1
290
     0
176
     1
 90
       50
176
     1
 62
   256
176
     0
 40
1.0
176
     0
 90
        2
176
     1
  1
strokes_ogs.tif
176
     1
290
     0
176
     1
 40
1.0
176
     1
 40
1.0
176
     1
  0
VISUALSTYLE
  5
E6
102
{ACAD_REACTORS
330
99
102
}
330
99
100
AcDbVisualStyle
  2
OverhangOff
 70
    21
177
     3
291
     1
 70
    58
 90
        2
176
     0
 90
        2
176
     0
 90
        0
176
     0
 90
        0
176
     0
 40
0.6
176
     0
 40
30.0
176
     0
 62
     7
420
 16777215
176
     0
 90
        1
176
     0
 90
        4
176
     0
 62
     7
176
     0
 62
   257
176
     0
 90
        1
176
     0
 90
        1
176
     0
 40
1.0
176
     0
 90
        9
176
     2
 62
     7
176
     0
 40
1.0
176
     0
 90
        1
176
     0
 90
        6
176
     0
 90
        2
176
     0
 62
     7
176
     0
 90
        5
176
     0
 90
        0
176
     0
 90
        0
176
     0
290
     0
176
     0
 90
        1
176
     0
 40
0.0
176
     0
 90
        0
176
     0
290
     0
176
     0
290
     1
176
     0
290
     1
176
     0
290
     0
176
     0
290
     0
176
     0
290
     0
176
     0
290
     0
176
     0
290
     0
176
     0
290
     0
176
     0
 90
       50
176
     0
 40
0.0
176
     0
 40
1.0
176
     0
 90
        0
176
     0
 62
    18
420
        0
176
     0
 90
       50
176
     0
 90
        3
176
     0
 62
     5
420
      255
176
     0
290
     0
176
     0
 90
       50
176
     0
 90
       50
176
     0
 90
       50
176
     0
290
     0
176
     0
 90
       50
176
     0
 62
   256
176
     0
 40
1.0
176
     0
 90
        2
176
     0
  1
strokes_ogs.tif
176
     0
290
     0
176
     0
 40
1.0
176
     0
 40
1.0
176
     0
  0
VISUALSTYLE
  5
A3
102
{ACAD_REACTORS
330
99
102
}
330
99
100
AcDbVisualStyle
  2
Realistic
 70
     8
177
     3
291
     0
 70
    58
 90
        2
176
     1
 90
        2
176
     1
 90
        1
176
     1
 90
        0
176
     1
 40
0.6
176
     1
 40
30.0
176
     1
 62
     7
420
 16777215
176
     1
 90
        1
176
     1
 90
        0
176
     1
 62
     7
176
     1
 62
   257
176
     1
 90
        1
176
     1
 90
        1
176
     1
 40
1.0
176
     1
 90
        8
176
     1
 62
     8
420
  7895160
176
     1
 40
1.0
176
     1
 90
        1
176
     1
 90
        6
176
     1
 90
        2
176
     1
 62
     7
176
     1
 90
        5
176
     1
 90
        0
176
     1
 90
        0
176
     1
290
     0
176
     1
 90
       13
176
     1
 40
0.0
176
     1
 90
        0
176
     1
290
     0
176
     1
290
     1
176
     1
290
     1
176
     1
290
     0
176
     1
290
     0
176
     1
290
     0
176
     1
290
     0
176
     1
290
     0
176
     1
290
     0
176
     1
 90
       50
176
     1
 40
0.0
176
     1
 40
1.0
176
     1
 90
        0
176
     1
 62
    18
420
        0
176
     1
 90
       50
176
     1
 90
        3
176
     1
 62
     5
420
      255
176
     1
290
     0
176
     1
 90
       50
176
     1
 90
       50
176
     1
 90
       50
176
     1
290
     0
176
     1
 90
       50
176
     1
 62
   256
176
     0
 40
1.0
176
     0
 90
        2
176
     1
  1
strokes_ogs.tif
176
     1
290
     0
176
     1
 40
1.0
176
     1
 40
1.0
176
     1
  0
VISUALSTYLE
  5
EC
102
{ACAD_REACTORS
330
99
102
}
330
99
100
AcDbVisualStyle
  2
Shaded
 70
    27
177
     3
291
     0
 70
    58
 90
        2
176
     1
 90
        2
176
     1
 90
        1
176
     1
 90
        2
176
     1
 40
0.6
176
     1
 40
30.0
176
     1
 62
     7
420
 16777215
176
     1
 90
        0
176
     1
 90
        4
176
     1
 62
     7
176
     1
 62
   257
176
     1
 90
        1
176
     1
 90
        1
176
     1
 40
1.0
176
     1
 90
        8
176
     1
 62
   257
176
     1
 40
1.0
176
     1
 90
        1
176
     1
 90
        6
176
     1
 90
        2
176
     1
 62
     8
420
  7895160
176
     1
 90
        3
176
     1
 90
        0
176
     1
 90
        0
176
     1
290
     0
176
     1
 90
        5
176
     1
 40
0.0
176
     1
 90
        0
176
     1
290
     0
176
     1
290
     1
176
     1
290
     1
176
     1
290
     0
176
     1
290
     0
176
     1
290
     0
176
     1
290
     0
176
     1
290
     0
176
     1
290
     0
176
     1
 90
       50
176
     1
 40
0.0
176
     1
 40
1.0
176
     1
 90
        0
176
     1
 62
    18
420
        0
176
     1
 90
       50
176
     1
 90
        3
176
     1
 62
     5
420
      255
176
     1
290
     0
176
     1
 90
       50
176
     1
 90
       50
176
     1
 90
       50
176
     1
290
     0
176
     1
 90
       50
176
     1
 62
   256
176
     0
 40
1.0
176
     0
 90
        2
176
     1
  1
strokes_ogs.tif
176
     1
290
     0
176
     1
 40
1.0
176
     1
 40
1.0
176
     1
  0
VISUALSTYLE
  5
EB
102
{ACAD_REACTORS
330
99
102
}
330
99
100
AcDbVisualStyle
  2
Shaded with edges
 70
    26
177
     3
291
     0
 70
    58
 90
        2
176
     1
 90
        2
176
     1
 90
        1
176
     1
 90
        2
176
     1
 40
0.6
176
     1
 40
30.0
176
     1
 62
     7
420
 16777215
176
     1
 90
        1
176
     1
 90
        2
176
     1
 62
     7
176
     1
 62
   257
176
     1
 90
        2
176
     1
 90
        1
176
     1
 40
1.0
176
     1
 90
        8
176
     1
 62
   257
176
     1
 40
1.0
176
     1
 90
        1
176
     1
 90
        6
176
     1
 90
        2
176
     1
 62
     7
176
     1
 90
        3
176
     1
 90
        0
176
     1
 90
        0
176
     1
290
     0
176
     1
 90
        5
176
     1
 40
0.0
176
     1
 90
        0
176
     1
290
     0
176
     1
290
     1
176
     1
290
     1
176
     1
290
     0
176
     1
290
     0
176
     1
290
     0
176
     1
290
     0
176
     1
290
     0
176
     1
290
     0
176
     1
 90
       50
176
     1
 40
0.0
176
     1
 40
1.0
176
     1
 90
        0
176
     1
 62
    18
420
        0
176
     1
 90
       50
176
     1
 90
        3
176
     1
 62
     5
420
      255
176
     1
290
     0
176
     1
 90
       50
176
     1
 90
       50
176
     1
 90
       50
176
     1
290
     0
176
     1
 90
       50
176
     1
 62
   256
176
     0
 40
1.0
176
     0
 90
        2
176
     1
  1
strokes_ogs.tif
176
     1
290
     0
176
     1
 40
1.0
176
     1
 40
1.0
176
     1
  0
VISUALSTYLE
  5
E8
102
{ACAD_REACTORS
330
99
102
}
330
99
100
AcDbVisualStyle
  2
Shades of Gray
 70
    23
177
     3
291
     0
 70
    58
 90
        2
176
     1
 90
        2
176
     1
 90
        3
176
     1
 90
        0
176
     1
 40
0.6
176
     1
 40
30.0
176
     1
 62
     7
420
 16777215
176
     1
 90
        2
176
     1
 90
        2
176
     1
 62
     7
176
     1
 62
     7
176
     1
 90
        1
176
     1
 90
        1
176
     1
 40
40.0
176
     1
 90
        8
176
     1
 62
     7
176
     1
 40
1.0
176
     1
 90
        1
176
     1
 90
        6
176
     1
 90
        2
176
     1
 62
     7
176
     1
 90
        3
176
     1
 90
        0
176
     1
 90
        0
176
     1
290
     0
176
     1
 90
        1
176
     1
 40
0.0
176
     1
 90
        0
176
     1
290
     0
176
     1
290
     1
176
     1
290
     1
176
     1
290
     0
176
     1
290
     0
176
     1
290
     0
176
     1
290
     0
176
     1
290
     0
176
     1
290
     0
176
     1
 90
       50
176
     1
 40
0.0
176
     1
 40
1.0
176
     1
 90
        0
176
     1
 62
    18
420
        0
176
     1
 90
       50
176
     1
 90
        3
176
     1
 62
     5
420
      255
176
     1
290
     0
176
     1
 90
       50
176
     1
 90
       50
176
     1
 90
       50
176
     1
290
     0
176
     1
 90
       50
176
     1
 62
   256
176
     0
 40
1.0
176
     0
 90
        2
176
     1
  1
strokes_ogs.tif
176
     1
290
     0
176
     1
 40
1.0
176
     1
 40
1.0
176
     1
  0
VISUALSTYLE
  5
E9
102
{ACAD_REACTORS
330
99
102
}
330
99
100
AcDbVisualStyle
  2
Sketchy
 70
    24
177
     3
291
     0
 70
    58
 90
        1
176
     1
 90
        2
176
     1
 90
        2
176
     1
 90
        0
176
     1
 40
0.6
176
     1
 40
30.0
176
     1
 62
     7
420
 16777215
176
     1
 90
        2
176
     1
 90
        2
176
     1
 62
     7
176
     1
 62
     7
176
     1
 90
        1
176
     1
 90
        1
176
     1
 40
40.0
176
     1
 90
       11
176
     1
 62
     7
176
     1
 40
1.0
176
     1
 90
        1
176
     1
 90
        6
176
     1
 90
        2
176
     1
 62
     7
176
     1
 90
        6
176
     1
 90
        0
176
     1
 90
        0
176
     1
290
     0
176
     1
 90
        1
176
     1
 40
0.0
176
     1
 90
        0
176
     1
290
     0
176
     1
290
     1
176
     1
290
     1
176
     1
290
     0
176
     1
290
     0
176
     1
290
     0
176
     1
290
     0
176
     1
290
     0
176
     1
290
     0
176
     1
 90
       50
176
     1
 40
0.0
176
     1
 40
1.0
176
     1
 90
        0
176
     1
 62
    18
420
        0
176
     1
 90
       50
176
     1
 90
        3
176
     1
 62
     5
420
      255
176
     1
290
     0
176
     1
 90
       50
176
     1
 90
       50
176
     1
 90
       50
176
     1
290
     0
176
     1
 90
       50
176
     1
 62
   256
176
     0
 40
1.0
176
     0
 90
        2
176
     1
  1
strokes_ogs.tif
176
     1
290
     0
176
     1
 40
1.0
176
     1
 40
1.0
176
     1
  0
VISUALSTYLE
  5
A6
102
{ACAD_REACTORS
330
99
102
}
330
99
100
AcDbVisualStyle
  2
Thicken
 70
    13
177
     3
291
     1
 70
    58
 90
        2
176
     1
 90
        2
176
     1
 90
        1
176
     1
 90
        0
176
     1
 40
0.6
176
     1
 40
30.0
176
     1
 62
     7
420
 16777215
176
     1
 90
        1
176
     1
 90
        4
176
     1
 62
     7
176
     1
 62
   257
176
     1
 90
        1
176
     1
 90
        1
176
     1
 40
1.0
176
     1
 90
       12
176
     1
 62
     7
176
     1
 40
1.0
176
     1
 90
        1
176
     1
 90
        6
176
     1
 90
        2
176
     1
 62
     7
176
     1
 90
        5
176
     1
 90
        0
176
     1
 90
        0
176
     1
290
     0
176
     1
 90
        1
176
     1
 40
0.0
176
     1
 90
        0
176
     1
290
     0
176
     1
290
     1
176
     1
290
     1
176
     1
290
     0
176
     1
290
     0
176
     1
290
     0
176
     1
290
     0
176
     1
290
     0
176
     1
290
     0
176
     1
 90
       50
176
     1
 40
0.0
176
     1
 40
1.0
176
     1
 90
        0
176
     1
 62
    18
420
        0
176
     1
 90
       50
176
     1
 90
        3
176
     1
 62
     5
420
      255
176
     1
290
     0
176
     1
 90
       50
176
     1
 90
       50
176
     1
 90
       50
176
     1
290
     0
176
     1
 90
       50
176
     1
 62
   256
176
     0
 40
1.0
176
     0
 90
        2
176
     1
  1
strokes_ogs.tif
176
     1
290
     0
176
     1
 40
1.0
176
     1
 40
1.0
176
     1
  0
VISUALSTYLE
  5
E3
102
{ACAD_REACTORS
330
99
102
}
330
99
100
AcDbVisualStyle
  2
Wireframe
 70
     5
177
     3
291
     0
 70
    58
 90
        0
176
     1
 90
        2
176
     1
 90
        0
176
     1
 90
        0
176
     1
 40
0.6
176
     1
 40
30.0
176
     1
 62
     7
420
 16777215
176
     1
 90
        1
176
     1
 90
        4
176
     1
 62
     7
176
     1
 62
   257
176
     1
 90
        1
176
     1
 90
        1
176
     1
 40
1.0
176
     1
 90
        0
176
     1
 62
   257
176
     1
 40
1.0
176
     1
 90
        1
176
     1
 90
        6
176
     1
 90
        2
176
     1
 62
     7
176
     1
 90
        3
176
     1
 90
        0
176
     1
 90
        0
176
     1
290
     0
176
     1
 90
        1
176
     1
 40
0.0
176
     1
 90
        0
176
     1
290
     0
176
     1
290
     1
176
     1
290
     1
176
     1
290
     0
176
     1
290
     0
176
     1
290
     0
176
     1
290
     0
176
     1
290
     0
176
     1
290
     0
176
     1
 90
       50
176
     1
 40
0.0
176
     1
 40
1.0
176
     1
 90
        0
176
     1
 62
    18
420
        0
176
     1
 90
       50
176
     1
 90
        3
176
     1
 62
     5
420
      255
176
     1
290
     0
176
     1
 90
       50
176
     1
 90
       50
176
     1
 90
       50
176
     1
290
     0
176
     1
 90
       50
176
     1
 62
   256
176
     0
 40
1.0
176
     0
 90
        2
176
     1
  1
strokes_ogs.tif
176
     1
290
     0
176
     1
 40
1.0
176
     1
 40
1.0
176
     1
  0
VISUALSTYLE
  5
EA
102
{ACAD_REACTORS
330
99
102
}
330
99
100
AcDbVisualStyle
  2
X-Ray
 70
    25
177
     3
291
     0
 70
    58
 90
        2
176
     1
 90
        2
176
     1
 90
        1
176
     1
 90
        1
176
     1
 40
0.5
176
     1
 40
30.0
176
     1
 62
     7
420
 16777215
176
     1
 90
        1
176
     1
 90
        0
176
     1
 62
     7
176
     1
 62
   257
176
     1
 90
        1
176
     1
 90
        1
176
     1
 40
1.0
176
     1
 90
        8
176
     1
 62
     7
176
     1
 40
1.0
176
     1
 90
        1
176
     1
 90
        6
176
     1
 90
        2
176
     1
 62
     7
176
     1
 90
        3
176
     1
 90
        0
176
     1
 90
        0
176
     1
290
     0
176
     1
 90
       13
176
     1
 40
0.0
176
     1
 90
        0
176
     1
290
     0
176
     1
290
     1
176
     1
290
     1
176
     1
290
     0
176
     1
290
     0
176
     1
290
     0
176
     1
290
     0
176
     1
290
     0
176
     1
290
     0
176
     1
 90
       50
176
     1
 40
0.0
176
     1
 40
1.0
176
     1
 90
        0
176
     1
 62
    18
420
        0
176
     1
 90
       50
176
     1
 90
        3
176
     1
 62
     5
420
      255
176
     1
290
     0
176
     1
 90
       50
176
     1
 90
       50
176
     1
 90
       50
176
     1
290
     0
176
     1
 90
       50
176
     1
 62
   256
176
     0
 40
1.0
176
     0
 90
        2
176
     1
  1
strokes_ogs.tif
176
     1
290
     0
176
     1
 40
1.0
176
     1
 40
1.0
176
     1
  0
DICTIONARYVAR
  5
D8
102
{ACAD_REACTORS
330
66
102
}
330
66
100
DictionaryVariables
280
     0
  1
1:1
  0
DICTIONARYVAR
  5
128
102
{ACAD_REACTORS
330
66
102
}
330
66
100
DictionaryVariables
280
     0
  1
Standard
  0
DICTIONARYVAR
  5
89
102
{ACAD_REACTORS
330
66
102
}
330
66
100
DictionaryVariables
280
     0
  1
Standard
  0
DICTIONARYVAR
  5
223
102
{ACAD_REACTORS
330
66
102
}
330
66
100
DictionaryVariables
280
     0
  1
Imperial24
  0
DICTIONARYVAR
  5
224
102
{ACAD_REACTORS
330
66
102
}
330
66
100
DictionaryVariables
280
     0
  1
Imperial24
  0
DICTIONARYVAR
  5
67
102
{ACAD_REACTORS
330
66
102
}
330
66
100
DictionaryVariables
280
     0
  1
2
  0
DICTIONARYVAR
  5
6B
102
{ACAD_REACTORS
330
66
102
}
330
66
100
DictionaryVariables
280
     0
  1
1
  0
DICTIONARYVAR
  5
DF
102
{ACAD_REACTORS
330
66
102
}
330
66
100
DictionaryVariables
280
     0
  1
0
  0
DICTIONARYVAR
  5
E0
102
{ACAD_REACTORS
330
66
102
}
330
66
100
DictionaryVariables
280
     0
  1
0
  0
XRECORD
  5
224A
102
{ACAD_REACTORS
330
27C
102
}
330
27C
100
AcDbXrecord
280
     1
1000
ADE02C001
1070
     1
1070
     0
1002
{
1002
}
1002
{
1002
}
1002
{
1002
}
1000

  0
XRECORD
  5
281
102
{ACAD_REACTORS
330
280
102
}
330
280
100
AcDbXrecord
280
     1
  0
ACAD_PROXY_OBJECT
  5
23D
102
{ACAD_REACTORS
330
22B
102
}
330
22B
100
AcDbProxyObject
 90
      499
 91
      525
 71
    29
 97
       63
 70
     0
161
                10
310
4040
  0
DICTIONARY
  5
230
102
{ACAD_REACTORS
330
22B
102
}
330
22B
100
AcDbDictionary
280
     1
281
     1
  0
DATATABLE
  5
22F
102
{ACAD_REACTORS
330
22B
102
}
330
22B
100
AcDbDataTable
 70
     2
 90
        4
 91
       15
  1

 92
        3
  2
OriginalClassName
  3
AcMapDMDefaultStyle
  3
AcMapDMEntityStyle
  3
AcMapDMRasterStyle
  3
AcMapDMSEAnnotationStyle
  3
AcMapDMSEHatchStyle
  3
AcMapDMSETextStyle
  3
AcMapDMThematicStyle
  3
AcMapDMBaseElement
  3
AcMapDMAttachedDwgsQueryElement
  3
AcMapDMFeatureElement
  3
AcMapDMLayerElement
  3
AcMapDMCurrentDwgQueryElement
  3
AcMapDMRasterElement
  3
AcMapDMTopoElement
  3
AcMapDMTopoQueryElement
 92
        3
  2
ProxyDisplayName
  3
Default
  3
Entity
  3
Raster
  3
Annotation
  3
Hatch
  3
Text
  3
Thematic
  3
Map Base
  3
Ade Query
  3
Feature Class
  3
Layer
  3
Ade Project Query
  3
Raster
  3
Topology
  3
Topology Query
 92
        1
  2
CustomObjectType
 93
        2
 93
        2
 93
        2
 93
        2
 93
        2
 93
        2
 93
        2
 93
        1
 93
        1
 93
        1
 93
        1
 93
        1
 93
        1
 93
        1
 93
        1
 92
        1
  2
StyleCoExistanceType
 93
        1
 93
        1
 93
        1
 93
        1
 93
        1
 93
        1
 93
        2
 93
        0
 93
        0
 93
        0
 93
        0
 93
        0
 93
        0
 93
        0
 93
        0
  0
ACAD_PROXY_OBJECT
  5
22C
102
{ACAD_REACTORS
330
22B
102
}
330
22B
100
AcDbProxyObject
 90
      499
 91
      515
 71
    29
 97
       63
 70
     0
162
               186
311
42D1001A401CC01C001B0018401E40134018401C000C4000
161
                38
310
4050100404
350
232
340
232
340
232
 94
        0
  0
ACAD_PROXY_OBJECT
  5
22D
102
{ACAD_REACTORS
330
22B
102
}
330
22B
100
AcDbProxyObject
 90
      499
 91
      516
 71
    29
 97
       63
 70
     0
161
                20
310
405010
360
22E
 94
        0
  0
DICTIONARY
  5
23E
102
{ACAD_REACTORS
330
22B
102
}
330
22B
100
AcDbDictionary
281
     1
  0
DICTIONARYVAR
  5
12B
102
{ACAD_REACTORS
330
129
102
}
330
129
100
DictionaryVariables
280
     0
  1
1
  0
DICTIONARY
  5
2290
330
234
100
AcDbDictionary
280
     1
281
     1
  3
ACAD_ROUNDTRIP_2008_TABLESTYLE_CELLSTYLEMAP
360
2291
  0
DICTIONARY
  5
2292
330
87
100
AcDbDictionary
280
     1
281
     1
  3
ACAD_ROUNDTRIP_2008_TABLESTYLE_CELLSTYLEMAP
360
2293
  0
ACAD_PROXY_OBJECT
  5
232
102
{ACAD_REACTORS
330
22C
330
235
102
}
330
22C
100
AcDbProxyObject
 90
      499
 91
      520
 71
    29
 97
       63
 70
     0
162
               230
311
41D1001940198018401D401B001D001064C006500670065006E0064008
161
               572
310
4050140501404FFFFFFFFFFFFEF7FA0B1FFFFFFFFFFFFDEFFA00000000000004202027FFFFFFFFFFFF7BF9C11FC7350DBE328A02D0000000000201190000000000008046404A1010
330
0
360
235
360
236
 94
        0
  0
ACAD_PROXY_OBJECT
  5
22E
102
{ACAD_REACTORS
330
22D
102
}
330
22D
100
AcDbProxyObject
 90
      499
 91
      517
 71
    29
 97
       63
 70
     0
162
               234
311
4391001A401CC01C001B0018401E40080014C01D001E401B0019401CC000
161
                12
310
4060
  0
CELLSTYLEMAP
  5
2291
102
{ACAD_REACTORS
330
2290
102
}
330
2290
100
AcDbCellStyleMap
 90
        3
300
CELLSTYLE
  1
TABLEFORMAT_BEGIN
 90
        5
170
     1
 91
        0
 92
    32768
 62
   257
 93
        1
300
CONTENTFORMAT
  1
CONTENTFORMAT_BEGIN
 90
        0
 91
        0
 92
      512
 93
        0
300

 40
0.0
140
1.0
 94
        5
 62
     0
340
233
144
0.5
309
CONTENTFORMAT_END
171
     0
 94
        6
 95
        1
302
GRIDFORMAT
  1
GRIDFORMAT_BEGIN
 90
        0
 91
        1
 62
     0
 92
       -2
340
0
 93
        1
 40
0.045
309
GRIDFORMAT_END
 95
        2
302
GRIDFORMAT
  1
GRIDFORMAT_BEGIN
 90
        0
 91
        1
 62
     0
 92
       -2
340
0
 93
        1
 40
0.045
309
GRIDFORMAT_END
 95
        4
302
GRIDFORMAT
  1
GRIDFORMAT_BEGIN
 90
        0
 91
        1
 62
     0
 92
       -2
340
0
 93
        1
 40
0.045
309
GRIDFORMAT_END
 95
        8
302
GRIDFORMAT
  1
GRIDFORMAT_BEGIN
 90
        0
 91
        1
 62
     0
 92
       -2
340
0
 93
        1
 40
0.045
309
GRIDFORMAT_END
 95
       16
302
GRIDFORMAT
  1
GRIDFORMAT_BEGIN
 90
        0
 91
        1
 62
     0
 92
       -2
340
0
 93
        1
 40
0.045
309
GRIDFORMAT_END
 95
       32
302
GRIDFORMAT
  1
GRIDFORMAT_BEGIN
 90
        0
 91
        1
 62
     0
 92
       -2
340
0
 93
        1
 40
0.045
309
GRIDFORMAT_END
309
TABLEFORMAT_END
  1
CELLSTYLE_BEGIN
 90
        1
 91
        1
300
_TITLE
309
CELLSTYLE_END
300
CELLSTYLE
  1
TABLEFORMAT_BEGIN
 90
        5
170
     1
 91
        0
 92
        0
 62
   257
 93
        1
300
CONTENTFORMAT
  1
CONTENTFORMAT_BEGIN
 90
        0
 91
        0
 92
      512
 93
        0
300

 40
0.0
140
1.0
 94
        4
 62
     0
340
233
144
0.4
309
CONTENTFORMAT_END
171
     0
 94
        6
 95
        1
302
GRIDFORMAT
  1
GRIDFORMAT_BEGIN
 90
        0
 91
        1
 62
     0
 92
       -2
340
0
 93
        1
 40
0.045
309
GRIDFORMAT_END
 95
        2
302
GRIDFORMAT
  1
GRIDFORMAT_BEGIN
 90
        0
 91
        1
 62
     0
 92
       -2
340
0
 93
        1
 40
0.045
309
GRIDFORMAT_END
 95
        4
302
GRIDFORMAT
  1
GRIDFORMAT_BEGIN
 90
        0
 91
        1
 62
     0
 92
       -2
340
0
 93
        1
 40
0.045
309
GRIDFORMAT_END
 95
        8
302
GRIDFORMAT
  1
GRIDFORMAT_BEGIN
 90
        0
 91
        1
 62
     0
 92
       -2
340
0
 93
        1
 40
0.045
309
GRIDFORMAT_END
 95
       16
302
GRIDFORMAT
  1
GRIDFORMAT_BEGIN
 90
        0
 91
        1
 62
     0
 92
       -2
340
0
 93
        1
 40
0.045
309
GRIDFORMAT_END
 95
       32
302
GRIDFORMAT
  1
GRIDFORMAT_BEGIN
 90
        0
 91
        1
 62
     0
 92
       -2
340
0
 93
        1
 40
0.045
309
GRIDFORMAT_END
309
TABLEFORMAT_END
  1
CELLSTYLE_BEGIN
 90
        2
 91
        1
300
_HEADER
309
CELLSTYLE_END
300
CELLSTYLE
  1
TABLEFORMAT_BEGIN
 90
        5
170
     1
 91
        0
 92
        0
 62
   257
 93
        1
300
CONTENTFORMAT
  1
CONTENTFORMAT_BEGIN
 90
        0
 91
        0
 92
      512
 93
        0
300

 40
0.0
140
1.0
 94
        4
 62
     0
340
233
144
0.4
309
CONTENTFORMAT_END
171
     0
 94
        6
 95
        1
302
GRIDFORMAT
  1
GRIDFORMAT_BEGIN
 90
        0
 91
        1
 62
     0
 92
       -2
340
0
 93
        1
 40
0.045
309
GRIDFORMAT_END
 95
        2
302
GRIDFORMAT
  1
GRIDFORMAT_BEGIN
 90
        0
 91
        1
 62
     0
 92
       -2
340
0
 93
        1
 40
0.045
309
GRIDFORMAT_END
 95
        4
302
GRIDFORMAT
  1
GRIDFORMAT_BEGIN
 90
        0
 91
        1
 62
     0
 92
       -2
340
0
 93
        1
 40
0.045
309
GRIDFORMAT_END
 95
        8
302
GRIDFORMAT
  1
GRIDFORMAT_BEGIN
 90
        0
 91
        1
 62
     0
 92
       -2
340
0
 93
        1
 40
0.045
309
GRIDFORMAT_END
 95
       16
302
GRIDFORMAT
  1
GRIDFORMAT_BEGIN
 90
        0
 91
        1
 62
     0
 92
       -2
340
0
 93
        1
 40
0.045
309
GRIDFORMAT_END
 95
       32
302
GRIDFORMAT
  1
GRIDFORMAT_BEGIN
 90
        0
 91
        1
 62
     0
 92
       -2
340
0
 93
        1
 40
0.045
309
GRIDFORMAT_END
309
TABLEFORMAT_END
  1
CELLSTYLE_BEGIN
 90
        3
 91
        2
300
_DATA
309
CELLSTYLE_END
  0
CELLSTYLEMAP
  5
2293
102
{ACAD_REACTORS
330
2292
102
}
330
2292
100
AcDbCellStyleMap
 90
        3
300
CELLSTYLE
  1
TABLEFORMAT_BEGIN
 90
        5
170
     1
 91
        0
 92
    32768
 62
   257
 93
        1
300
CONTENTFORMAT
  1
CONTENTFORMAT_BEGIN
 90
        0
 91
        0
 92
      512
 93
        0
300

 40
0.0
140
1.0
 94
        5
 62
     0
340
11
144
0.25
309
CONTENTFORMAT_END
171
     0
 94
        6
 95
        1
302
GRIDFORMAT
  1
GRIDFORMAT_BEGIN
 90
        0
 91
        1
 62
     0
 92
       -2
340
0
 93
        0
 40
0.045
309
GRIDFORMAT_END
 95
        2
302
GRIDFORMAT
  1
GRIDFORMAT_BEGIN
 90
        0
 91
        1
 62
     0
 92
       -2
340
0
 93
        0
 40
0.045
309
GRIDFORMAT_END
 95
        4
302
GRIDFORMAT
  1
GRIDFORMAT_BEGIN
 90
        0
 91
        1
 62
     0
 92
       -2
340
0
 93
        0
 40
0.045
309
GRIDFORMAT_END
 95
        8
302
GRIDFORMAT
  1
GRIDFORMAT_BEGIN
 90
        0
 91
        1
 62
     0
 92
       -2
340
0
 93
        0
 40
0.045
309
GRIDFORMAT_END
 95
       16
302
GRIDFORMAT
  1
GRIDFORMAT_BEGIN
 90
        0
 91
        1
 62
     0
 92
       -2
340
0
 93
        0
 40
0.045
309
GRIDFORMAT_END
 95
       32
302
GRIDFORMAT
  1
GRIDFORMAT_BEGIN
 90
        0
 91
        1
 62
     0
 92
       -2
340
0
 93
        0
 40
0.045
309
GRIDFORMAT_END
309
TABLEFORMAT_END
  1
CELLSTYLE_BEGIN
 90
        1
 91
        1
300
_TITLE
309
CELLSTYLE_END
300
CELLSTYLE
  1
TABLEFORMAT_BEGIN
 90
        5
170
     1
 91
        0
 92
        0
 62
   257
 93
        1
300
CONTENTFORMAT
  1
CONTENTFORMAT_BEGIN
 90
        0
 91
        0
 92
      512
 93
        0
300

 40
0.0
140
1.0
 94
        5
 62
     0
340
11
144
0.18
309
CONTENTFORMAT_END
171
     0
 94
        6
 95
        1
302
GRIDFORMAT
  1
GRIDFORMAT_BEGIN
 90
        0
 91
        1
 62
     0
 92
       -2
340
0
 93
        0
 40
0.045
309
GRIDFORMAT_END
 95
        2
302
GRIDFORMAT
  1
GRIDFORMAT_BEGIN
 90
        0
 91
        1
 62
     0
 92
       -2
340
0
 93
        0
 40
0.045
309
GRIDFORMAT_END
 95
        4
302
GRIDFORMAT
  1
GRIDFORMAT_BEGIN
 90
        0
 91
        1
 62
     0
 92
       -2
340
0
 93
        0
 40
0.045
309
GRIDFORMAT_END
 95
        8
302
GRIDFORMAT
  1
GRIDFORMAT_BEGIN
 90
        0
 91
        1
 62
     0
 92
       -2
340
0
 93
        0
 40
0.045
309
GRIDFORMAT_END
 95
       16
302
GRIDFORMAT
  1
GRIDFORMAT_BEGIN
 90
        0
 91
        1
 62
     0
 92
       -2
340
0
 93
        0
 40
0.045
309
GRIDFORMAT_END
 95
       32
302
GRIDFORMAT
  1
GRIDFORMAT_BEGIN
 90
        0
 91
        1
 62
     0
 92
       -2
340
0
 93
        0
 40
0.045
309
GRIDFORMAT_END
309
TABLEFORMAT_END
  1
CELLSTYLE_BEGIN
 90
        2
 91
        1
300
_HEADER
309
CELLSTYLE_END
300
CELLSTYLE
  1
TABLEFORMAT_BEGIN
 90
        5
170
     1
 91
        0
 92
        0
 62
   257
 93
        1
300
CONTENTFORMAT
  1
CONTENTFORMAT_BEGIN
 90
        0
 91
        0
 92
      512
 93
        0
300

 40
0.0
140
1.0
 94
        2
 62
     0
340
11
144
0.18
309
CONTENTFORMAT_END
171
     0
 94
        6
 95
        1
302
GRIDFORMAT
  1
GRIDFORMAT_BEGIN
 90
        0
 91
        1
 62
     0
 92
       -2
340
0
 93
        0
 40
0.045
309
GRIDFORMAT_END
 95
        2
302
GRIDFORMAT
  1
GRIDFORMAT_BEGIN
 90
        0
 91
        1
 62
     0
 92
       -2
340
0
 93
        0
 40
0.045
309
GRIDFORMAT_END
 95
        4
302
GRIDFORMAT
  1
GRIDFORMAT_BEGIN
 90
        0
 91
        1
 62
     0
 92
       -2
340
0
 93
        0
 40
0.045
309
GRIDFORMAT_END
 95
        8
302
GRIDFORMAT
  1
GRIDFORMAT_BEGIN
 90
        0
 91
        1
 62
     0
 92
       -2
340
0
 93
        0
 40
0.045
309
GRIDFORMAT_END
 95
       16
302
GRIDFORMAT
  1
GRIDFORMAT_BEGIN
 90
        0
 91
        1
 62
     0
 92
       -2
340
0
 93
        0
 40
0.045
309
GRIDFORMAT_END
 95
       32
302
GRIDFORMAT
  1
GRIDFORMAT_BEGIN
 90
        0
 91
        1
 62
     0
 92
       -2
340
0
 93
        0
 40
0.045
309
GRIDFORMAT_END
309
TABLEFORMAT_END
  1
CELLSTYLE_BEGIN
 90
        3
 91
        2
300
_DATA
309
CELLSTYLE_END
  0
ACAD_PROXY_OBJECT
  5
235
102
{ACAD_REACTORS
330
232
102
}
102
{ACAD_XDICTIONARY
360
239
102
}
330
232
100
AcDbProxyObject
 90
      499
 91
      521
 71
    29
 97
       63
 70
     0
162
               142
311
42134018401C000800108018401CC0194028
161
               148
310
4050140902404FFFFFFFFFFFFEF7FA03405010
330
232
360
238
 94
        0
  0
ACAD_PROXY_OBJECT
  5
236
102
{ACAD_REACTORS
330
232
102
}
330
232
100
AcDbProxyObject
 90
      499
 91
      522
 71
    29
 97
       63
 70
     0
162
               122
311
41D1001940198018401D401B001D0000
161
                40
310
4050140592
1001
AcMapDMDisplayStyleRegapp
1070
     2
1071
        1
1000
Default
1000

  0
DICTIONARY
  5
239
330
235
100
AcDbDictionary
280
     1
281
     1
  3
AcMapDMSurrogateStyleSets
360
23A
  0
ACAD_PROXY_OBJECT
  5
238
330
235
100
AcDbProxyObject
 90
      499
 91
      523
 71
    29
 97
       63
 70
     0
161
                11
310
4040
340
236
330
232
 94
        0
  0
ACAD_PROXY_OBJECT
  5
23A
102
{ACAD_REACTORS
330
239
102
}
330
239
100
AcDbProxyObject
 90
      499
 91
      524
 71
    29
 97
       63
 70
     0
162
               138
311
42134018401C000800108018401CC0194000
161
               110
310
405013FFFFFFFFFFFFBDFE80D018
330
238
 94
        0
  0
ENDSEC
  0
SECTION
  2
ACDSDATA
 70
     2
 71
     2
  0
ACDSSCHEMA
 90
        0
  1
AcDb_Thumbnail_Schema
  2
AcDbDs::ID
280
    10
 91
        8
  2
Thumbnail_Data
280
    15
 91
        0
101
ACDSRECORD
 95
        0
 90
        2
  2
AcDbDs::TreatedAsObjectData
280
     1
291
     1
101
ACDSRECORD
 95
        0
 90
        3
  2
AcDbDs::Legacy
280
     1
291
     1
101
ACDSRECORD
  1
AcDbDs::ID
 90
        4
  2
AcDs:Indexable
280
     1
291
     1
101
ACDSRECORD
  1
AcDbDs::ID
 90
        5
  2
AcDbDs::HandleAttribute
280
     7
282
     1
  0
ACDSSCHEMA
 90
        1
  1
AcDb3DSolid_ASM_Data
  2
AcDbDs::ID
280
    10
 91
        8
  2
ASM_Data
280
    15
 91
        0
101
ACDSRECORD
 95
        1
 90
        2
  2
AcDbDs::TreatedAsObjectData
280
     1
291
     1
101
ACDSRECORD
 95
        1
 90
        3
  2
AcDbDs::Legacy
280
     1
291
     1
101
ACDSRECORD
  1
AcDbDs::ID
 90
        4
  2
AcDs:Indexable
280
     1
291
     1
101
ACDSRECORD
  1
AcDbDs::ID
 90
        5
  2
AcDbDs::HandleAttribute
280
     7
282
     1
  0
ACDSSCHEMA
 90
        2
  1
AcDbDs::TreatedAsObjectDataSchema
  2
AcDbDs::TreatedAsObjectData
280
     1
 91
        0
  0
ACDSSCHEMA
 90
        3
  1
AcDbDs::LegacySchema
  2
AcDbDs::Legacy
280
     1
 91
        0
  0
ACDSSCHEMA
 90
        4
  1
AcDbDs::IndexedPropertySchema
  2
AcDs:Indexable
280
     1
 91
        0
  0
ACDSSCHEMA
 90
        5
  1
AcDbDs::HandleAttributeSchema
  2
AcDbDs::HandleAttribute
280
     7
 91
        1
284
     1
  0
ACDSRECORD
 90
        0
  2
AcDbDs::ID
280
    10
320
22
  2
Thumbnail_Data
280
    15
 94
     2593
310
89504E470D0A1A0A0000000D49484452000001000000005F08030000003003E9C200000300504C5445212830FFFFFF2128300000000000000000000000000000000000000000000000000000330000660000990000CC0000FF0033000033330033660033990033CC0033FF0066000066330066660066990066CC0066FF0099
310
000099330099660099990099CC0099FF00CC0000CC3300CC6600CC9900CCCC00CCFF00FF0000FF3300FF6600FF9900FFCC00FFFF3300003300333300663300993300CC3300FF3333003333333333663333993333CC3333FF3366003366333366663366993366CC3366FF3399003399333399663399993399CC3399FF33CC00
310
33CC3333CC6633CC9933CCCC33CCFF33FF0033FF3333FF6633FF9933FFCC33FFFF6600006600336600666600996600CC6600FF6633006633336633666633996633CC6633FF6666006666336666666666996666CC6666FF6699006699336699666699996699CC6699FF66CC0066CC3366CC6666CC9966CCCC66CCFF66FF0066
310
FF3366FF6666FF9966FFCC66FFFF9900009900339900669900999900CC9900FF9933009933339933669933999933CC9933FF9966009966339966669966999966CC9966FF9999009999339999669999999999CC9999FF99CC0099CC3399CC6699CC9999CCCC99CCFF99FF0099FF3399FF6699FF9999FFCC99FFFFCC0000CC00
310
33CC0066CC0099CC00CCCC00FFCC3300CC3333CC3366CC3399CC33CCCC33FFCC6600CC6633CC6666CC6699CC66CCCC66FFCC9900CC9933CC9966CC9999CC99CCCC99FFCCCC00CCCC33CCCC66CCCC99CCCCCCCCCCFFCCFF00CCFF33CCFF66CCFF99CCFFCCCCFFFFFF0000FF0033FF0066FF0099FF00CCFF00FFFF3300FF3333
310
FF3366FF3399FF33CCFF33FFFF6600FF6633FF6666FF6699FF66CCFF66FFFF9900FF9933FF9966FF9999FF99CCFF99FFFFCC00FFCC33FFCC66FFCC99FFCCCCFFCCFFFFFF00FFFF33FFFF66FFFF99FFFFCCFFFFFF0000000D0D0D1A1A1A2828283535354343435050505D5D5D6B6B6B787878868686939393A1A1A1AEAEAEBB
310
BBBBC9C9C9D6D6D6E4E4E4F1F1F1FFFFFF0000000000000000000000000000000000000000000000000000000000002E4550F1000006DC4944415478DAED5C6B7A9B3A10D5ACC0ABD17EB41FEF29BBD17324A4CAE2FF1D01B1C1013F5AFB0612E6EBE7A604303A3A73E62151C676DB6DB7DD7E8EF11D82DD76DB6DB7DD76DB
310
6DB7DD5E626D35D6B2FAE7F679C3A93F1001D68D8D3D04C083373512D516062FFBB17508743FEAC5C7BE0B9242072E380619218185B011007A0FB0B1B50EA3C8791980DB2EA00022C0F0E19059BD212F40283465F503CBF259D6F29824439DADA57F8A29592412803E1A6DD4F66440434E4C6975A0895C38E5506122A01803
310
0D01E9482C371D620BE3BE3C24F65D86C372B3810010209CAE57F18F4F9BC85E072531241CA561E02FB7E74ACB6D30E120967FA53F25936C060009F918BD01602401AA3088FA7C3327B4F471F5A278186C5E2D0F03E1A5D6B300B0269A06490919279A20536A2CB59C1D137C9B57DCA59F1BA49F1F161EF2820D871ADEE600
310
A85FC4091E1782B0D658BE7A559076F88102972D8003CF97F8113E4FEE2FFB601FD730728B165D4CC96AADCC867A97AE242954F5D8C372983F4CF9F4D129C10DBE45C936680768976C2A0D1F93BF068A5324B5CC105338322CDBAC0B74CB9713C13B16409D124BBED8786460D5699308887681BAEDDD28664FA424B61810B1
310
F8CC1518071B4C0ADB389F2CB78F8C450AD374E1A441C683D1596F0F00D59A59D7307F99636E900265C6E1DBD7A6714AAF1C81F64B33246E794E9F4D90AE9301D946DD96BB898D89C25CE79D72934BB97C8A40DBA6DE07ECEDDCC6531584702AC46FC97AC6B862B7290370868052202A6C2B09C8734B62862949E39B958488
310
602116AEF184B56250B52E5C69FD7F7BFC4C8638248065707E8A82C8055A088018787327B9368AB8CF1D7FDA0356914077B36F31E693E3A3835661F0C5919F47FF7050984540BA957BC0FC415EDB3A950FA2C47906742D65FAE0E7501785321AE9BA6099B516D06825F5F1889B1B7F0500CF2D9E66362D9200A928D2C21C4A
310
E12418B57F48E531D075502C4008B16F1ADBC03708C058EFE75D350A7B0C2CC229D060BB16983FB78F355181300A9A29137C526FD4B0A76FCB1FAAFBDAA79E93DFD433B9AA4C30E34303FD818B829F00F8570120F36465CD896D00505E56E8F0328A7BD1FAB84906FC8BA1C9853E983155F755DA0600C19EB3DEF6BC043ACE
310
85E70E2F65807561C43200C32059784BFAF7AE1CA25FFE6EFBC5F2FEE3CBE17B0020435094F7285F1520C21B1E53BD10004E8AE5C258E42E23651700C690DC06409749A4B6E6F5E3E7EADF11BCCC97B7091C537835D567D6CF1CBEE302C8B6648DB741F0853877D1001FEB6E17E3C1FCB46C6008DA56DD96274AE2213490B2
310
603FD3FEE092A320244280941D0AD530F7DA82CA4BD93BA90C88653B4B63F6BA6DA5F00854ADD810A010389862962418E55617C46634DDE620E82C875747007C5F0FC14C01B047A799C40269A8E975E84A17116F299C8D41C060D15BCD5F2D876FAC9F71B2310C07A65371FF743B8B2BAD2F2DFFCD34D2C5286355CD45E952
310
348F57AD5C8ECB6BCE1B718433B39C642BE9F67D99B34A5495473D9DF1AA36003E4123819C73E4E4025A2675820867F832C16362A66FF2EB197BBF9B2F91B4E80B03C284F701F2C3B7F39048013DB852770979524E71D64C0E7D48A95B51D65200D2E0C251F1709C96C26EF284EE090068D2699A75D44C7FA5BBFB9431B192
310
7512459341310E0AE004002D6319B15EC3739D2BBD997530028028900C29B61DCF97627C5CC2C6E6D9CC926F653F004C647B62F1DCC671E9131B7946426E73ADEFAB66DF90F732387E18696372D06853D39DF47860506BAE1DBC5A6EC8A46EE43E5F0E0721144B39470F7E69F797CE9DD4857A63824A20EB43AA73AA732EE7
310
EAA26A8DBBAB7B93E24B119FA383389E3EE398D3D1F8A0212C353A298064CD32607475E3A942953A0423241D220837BC4B4027AE4D2BF335003C5CBFECE087DDE40CCB624D0222C7069547ABC757DB24791363A100431015CA15F2FF3EC23B49E8532B95E1C6B768B71804BA9DE3B216569C99EF9EF16B17542F792285920F
310
EC90C6BCE31BBE25243C6ED1BB52786C7C93849CB03C74354546B9D62421BF040015B445991AD4B1683F3805A66C2B02B51E40F16D6F4CD8176AC0B20480B6FD08A1E82E71525A63DF6B20D7B0C5E9753BC23F776CCE3D433D2EB12C0E2F0EACB345689BD715E89207ECDB4192F3922920E692758DFE6B7D59C8D25C019155
310
BD2ABFA7EAF2B39CAEE34E5D83908EADF5D5812E45F50F52F391D382707E88843678ABD079E394B06B6D90EFFF21D14262B4DB6EBD1BCB5F4E8E8CF8377B9D6DDD0487616BB35D77F5C869A646E1ABC0F34962B17593386C923BC47979095975F1FC2F5E6D315E84A3FAF3639C87DFCD0D9443677E7588B5BA7698FD78FB80
310
8EBD80CA687E0D0CB373AE33B2DD76DB6D2B31701FFE2F1EBFD85D60B79F6BFF0144D6E9C41419E8730000000049454E44AE426082
  0
ENDSEC
  0
EOF
