  0
SECTION
  2
HEADER
  9
$ACADVER
  1
AC1032
  9
$ACADMAINTVER
 90
       55
  9
$DWGCODEPAGE
  3
ANSI_1252
  9
$LASTSAVEDBY
  1
eac573
  9
$REQUIREDVERSIONS
160
                 0
  9
$INSBASE
 10
0.0
 20
0.0
 30
0.0
  9
$EXTMIN
 10
31.43400944702743
 20
10.51030573734507
 30
0.0
  9
$EXTMAX
 10
51.88090451559665
 20
16.47373369274466
 30
0.0
  9
$LIMMIN
 10
0.0
 20
0.0
  9
$LIMMAX
 10
12.0
 20
9.0
  9
$ORTHOMODE
 70
     0
  9
$REGENMODE
 70
     1
  9
$FILLMODE
 70
     1
  9
$QTEXTMODE
 70
     0
  9
$MIRRTEXT
 70
     0
  9
$LTSCALE
 40
1.0
  9
$ATTMODE
 70
     1
  9
$TEXTSIZE
 40
0.2
  9
$TRACEWID
 40
0.05
  9
$TEXTSTYLE
  7
Standard
  9
$CLAYER
  8
Annotatons
  9
$CELTYPE
  6
ByLayer
  9
$CECOLOR
 62
   256
  9
$CELTSCALE
 40
1.0
  9
$DISPSILH
 70
     0
  9
$DIMSCALE
 40
1.0
  9
$DIMASZ
 40
0.18
  9
$DIMEXO
 40
0.0625
  9
$DIMDLI
 40
0.38
  9
$DIMRND
 40
0.0
  9
$DIMDLE
 40
0.0
  9
$DIMEXE
 40
0.18
  9
$DIMTP
 40
0.0
  9
$DIMTM
 40
0.0
  9
$DIMTXT
 40
0.18
  9
$DIMCEN
 40
0.09
  9
$DIMTSZ
 40
0.0
  9
$DIMTOL
 70
     0
  9
$DIMLIM
 70
     0
  9
$DIMTIH
 70
     1
  9
$DIMTOH
 70
     1
  9
$DIMSE1
 70
     0
  9
$DIMSE2
 70
     0
  9
$DIMTAD
 70
     0
  9
$DIMZIN
 70
     0
  9
$DIMBLK
  1

  9
$DIMASO
 70
     1
  9
$DIMSHO
 70
     1
  9
$DIMPOST
  1

  9
$DIMAPOST
  1

  9
$DIMALT
 70
     0
  9
$DIMALTD
 70
     2
  9
$DIMALTF
 40
25.4
  9
$DIMLFAC
 40
1.0
  9
$DIMTOFL
 70
     0
  9
$DIMTVP
 40
0.0
  9
$DIMTIX
 70
     0
  9
$DIMSOXD
 70
     0
  9
$DIMSAH
 70
     0
  9
$DIMBLK1
  1

  9
$DIMBLK2
  1

  9
$DIMSTYLE
  2
Standard
  9
$DIMCLRD
 70
     0
  9
$DIMCLRE
 70
     0
  9
$DIMCLRT
 70
     0
  9
$DIMTFAC
 40
1.0
  9
$DIMGAP
 40
0.09
  9
$DIMJUST
 70
     0
  9
$DIMSD1
 70
     0
  9
$DIMSD2
 70
     0
  9
$DIMTOLJ
 70
     1
  9
$DIMTZIN
 70
     0
  9
$DIMALTZ
 70
     0
  9
$DIMALTTZ
 70
     0
  9
$DIMUPT
 70
     0
  9
$DIMDEC
 70
     4
  9
$DIMTDEC
 70
     4
  9
$DIMALTU
 70
     2
  9
$DIMALTTD
 70
     2
  9
$DIMTXSTY
  7
Standard
  9
$DIMAUNIT
 70
     0
  9
$DIMADEC
 70
     0
  9
$DIMALTRND
 40
0.0
  9
$DIMAZIN
 70
     0
  9
$DIMDSEP
 70
    46
  9
$DIMATFIT
 70
     3
  9
$DIMFRAC
 70
     0
  9
$DIMLDRBLK
  1

  9
$DIMLUNIT
 70
     2
  9
$DIMLWD
 70
    -2
  9
$DIMLWE
 70
    -2
  9
$DIMTMOVE
 70
     0
  9
$DIMFXL
 40
1.0
  9
$DIMFXLON
 70
     0
  9
$DIMJOGANG
 40
0.7853981633974483
  9
$DIMTFILL
 70
     0
  9
$DIMTFILLCLR
 70
     0
  9
$DIMARCSYM
 70
     0
  9
$DIMLTYPE
  6

  9
$DIMLTEX1
  6

  9
$DIMLTEX2
  6

  9
$DIMTXTDIRECTION
 70
     0
  9
$LUNITS
 70
     2
  9
$LUPREC
 70
     4
  9
$SKETCHINC
 40
0.1
  9
$FILLETRAD
 40
0.0
  9
$AUNITS
 70
     0
  9
$AUPREC
 70
     0
  9
$MENU
  1
.
  9
$ELEVATION
 40
0.0
  9
$PELEVATION
 40
0.0
  9
$THICKNESS
 40
0.0
  9
$LIMCHECK
 70
     0
  9
$CHAMFERA
 40
0.0
  9
$CHAMFERB
 40
0.0
  9
$CHAMFERC
 40
0.0
  9
$CHAMFERD
 40
0.0
  9
$SKPOLY
 70
     0
  9
$TDCREATE
 40
2452643.063384271
  9
$TDUCREATE
 40
2452643.063384271
  9
$TDUPDATE
 40
2459647.477958901
  9
$TDUUPDATE
 40
2459647.477958901
  9
$TDINDWG
 40
0.7181591204
  9
$TDUSRTIMER
 40
2459069.426435093
  9
$USRTIMER
 70
     1
  9
$ANGBASE
 50
0.0
  9
$ANGDIR
 70
     0
  9
$PDMODE
 70
     0
  9
$PDSIZE
 40
0.0
  9
$PLINEWID
 40
0.0
  9
$SPLFRAME
 70
     0
  9
$SPLINETYPE
 70
     6
  9
$SPLINESEGS
 70
     8
  9
$HANDSEED
  5
1179
  9
$SURFTAB1
 70
     6
  9
$SURFTAB2
 70
     6
  9
$SURFTYPE
 70
     6
  9
$SURFU
 70
     6
  9
$SURFV
 70
     6
  9
$UCSBASE
  2

  9
$UCSNAME
  2

  9
$UCSORG
 10
0.0
 20
0.0
 30
0.0
  9
$UCSXDIR
 10
1.0
 20
0.0
 30
0.0
  9
$UCSYDIR
 10
0.0
 20
1.0
 30
0.0
  9
$UCSORTHOREF
  2

  9
$UCSORTHOVIEW
 70
     0
  9
$UCSORGTOP
 10
0.0
 20
0.0
 30
0.0
  9
$UCSORGBOTTOM
 10
0.0
 20
0.0
 30
0.0
  9
$UCSORGLEFT
 10
0.0
 20
0.0
 30
0.0
  9
$UCSORGRIGHT
 10
0.0
 20
0.0
 30
0.0
  9
$UCSORGFRONT
 10
0.0
 20
0.0
 30
0.0
  9
$UCSORGBACK
 10
0.0
 20
0.0
 30
0.0
  9
$PUCSBASE
  2

  9
$PUCSNAME
  2

  9
$PUCSORG
 10
0.0
 20
0.0
 30
0.0
  9
$PUCSXDIR
 10
1.0
 20
0.0
 30
0.0
  9
$PUCSYDIR
 10
0.0
 20
1.0
 30
0.0
  9
$PUCSORTHOREF
  2

  9
$PUCSORTHOVIEW
 70
     0
  9
$PUCSORGTOP
 10
0.0
 20
0.0
 30
0.0
  9
$PUCSORGBOTTOM
 10
0.0
 20
0.0
 30
0.0
  9
$PUCSORGLEFT
 10
0.0
 20
0.0
 30
0.0
  9
$PUCSORGRIGHT
 10
0.0
 20
0.0
 30
0.0
  9
$PUCSORGFRONT
 10
0.0
 20
0.0
 30
0.0
  9
$PUCSORGBACK
 10
0.0
 20
0.0
 30
0.0
  9
$USERI1
 70
     0
  9
$USERI2
 70
     0
  9
$USERI3
 70
     0
  9
$USERI4
 70
     0
  9
$USERI5
 70
     0
  9
$USERR1
 40
0.0
  9
$USERR2
 40
0.0
  9
$USERR3
 40
0.0
  9
$USERR4
 40
0.0
  9
$USERR5
 40
0.0
  9
$WORLDVIEW
 70
     1
  9
$SHADEDGE
 70
     3
  9
$SHADEDIF
 70
    70
  9
$TILEMODE
 70
     1
  9
$MAXACTVP
 70
    64
  9
$PINSBASE
 10
0.0
 20
0.0
 30
0.0
  9
$PLIMCHECK
 70
     0
  9
$PEXTMIN
 10
0.0
 20
0.0
 30
0.0
  9
$PEXTMAX
 10
0.0
 20
0.0
 30
0.0
  9
$PLIMMIN
 10
0.0
 20
0.0
  9
$PLIMMAX
 10
12.0
 20
9.0
  9
$UNITMODE
 70
     0
  9
$VISRETAIN
 70
     1
  9
$PLINEGEN
 70
     0
  9
$PSLTSCALE
 70
     1
  9
$TREEDEPTH
 70
  3020
  9
$CMLSTYLE
  2
Standard
  9
$CMLJUST
 70
     0
  9
$CMLSCALE
 40
1.0
  9
$PROXYGRAPHICS
 70
     1
  9
$MEASUREMENT
 70
     0
  9
$CELWEIGHT
370
    -1
  9
$ENDCAPS
280
     0
  9
$JOINSTYLE
280
     0
  9
$LWDISPLAY
290
     0
  9
$INSUNITS
 70
     6
  9
$HYPERLINKBASE
  1

  9
$STYLESHEET
  1

  9
$XEDIT
290
     1
  9
$CEPSNTYPE
380
     0
  9
$PSTYLEMODE
290
     1
  9
$FINGERPRINTGUID
  2
{FDEAD576-A652-11D2-9A35-0060089B3A3F}
  9
$VERSIONGUID
  2
{347076A7-B663-4104-9F6C-4A8895D6224E}
  9
$EXTNAMES
290
     1
  9
$PSVPSCALE
 40
0.0
  9
$OLESTARTUP
290
     0
  9
$SORTENTS
280
   127
  9
$INDEXCTL
280
     0
  9
$HIDETEXT
280
     1
  9
$XCLIPFRAME
280
     0
  9
$HALOGAP
280
     0
  9
$OBSCOLOR
 70
   257
  9
$OBSLTYPE
280
     0
  9
$INTERSECTIONDISPLAY
280
     0
  9
$INTERSECTIONCOLOR
 70
   257
  9
$DIMASSOC
280
     2
  9
$PROJECTNAME
  1

  9
$CAMERADISPLAY
290
     0
  9
$LENSLENGTH
 40
50.0
  9
$CAMERAHEIGHT
 40
0.0
  9
$STEPSPERSEC
 40
2.0
  9
$STEPSIZE
 40
6.0
  9
$3DDWFPREC
 40
2.0
  9
$PSOLWIDTH
 40
0.25
  9
$PSOLHEIGHT
 40
4.0
  9
$LOFTANG1
 40
1.570796326794897
  9
$LOFTANG2
 40
1.570796326794897
  9
$LOFTMAG1
 40
0.0
  9
$LOFTMAG2
 40
0.0
  9
$LOFTPARAM
 70
     7
  9
$LOFTNORMALS
280
     1
  9
$LATITUDE
 40
37.795
  9
$LONGITUDE
 40
-122.394
  9
$NORTHDIRECTION
 40
0.0
  9
$TIMEZONE
 70
 -8000
  9
$LIGHTGLYPHDISPLAY
280
     1
  9
$TILEMODELIGHTSYNCH
280
     1
  9
$CMATERIAL
347
96
  9
$SOLIDHIST
280
     1
  9
$SHOWHIST
280
     1
  9
$DWFFRAME
280
     2
  9
$DGNFRAME
280
     2
  9
$REALWORLDSCALE
290
     1
  9
$INTERFERECOLOR
 62
     1
  9
$INTERFEREOBJVS
345
A3
  9
$INTERFEREVPVS
346
E3
  9
$CSHADOW
280
     0
  9
$SHADOWPLANELOCATION
 40
0.0
  0
ENDSEC
  0
SECTION
  2
CLASSES
  0
CLASS
  1
ACDBDICTIONARYWDFLT
  2
AcDbDictionaryWithDefault
  3
ObjectDBX Classes
 90
        0
 91
        3
280
     0
281
     0
  0
CLASS
  1
ACDBPLACEHOLDER
  2
AcDbPlaceHolder
  3
ObjectDBX Classes
 90
        0
 91
        1
280
     0
281
     0
  0
CLASS
  1
LAYOUT
  2
AcDbLayout
  3
ObjectDBX Classes
 90
        0
 91
        1
280
     0
281
     0
  0
CLASS
  1
DICTIONARYVAR
  2
AcDbDictionaryVar
  3
ObjectDBX Classes
 90
        0
 91
        3
280
     0
281
     0
  0
CLASS
  1
TABLESTYLE
  2
AcDbTableStyle
  3
ObjectDBX Classes
 90
     4095
 91
        3
280
     0
281
     0
  0
CLASS
  1
MATERIAL
  2
AcDbMaterial
  3
ObjectDBX Classes
 90
     1153
 91
        3
280
     0
281
     0
  0
CLASS
  1
VISUALSTYLE
  2
AcDbVisualStyle
  3
ObjectDBX Classes
 90
     4095
 91
        3
280
     0
281
     0
  0
CLASS
  1
SCALE
  2
AcDbScale
  3
ObjectDBX Classes
 90
     1153
 91
        3
280
     0
281
     0
  0
CLASS
  1
CELLSTYLEMAP
  2
AcDbCellStyleMap
  3
ObjectDBX Classes
 90
     1152
 91
        3
280
     0
281
     0
  0
CLASS
  1
RASTERVARIABLES
  2
AcDbRasterVariables
  3
ISM
 90
        0
 91
        3
280
     0
281
     0
  0
CLASS
  1
SUN
  2
AcDbSun
  3
SCENEOE
 90
     1153
 91
        3
280
     0
281
     0
  0
CLASS
  1
MLEADERSTYLE
  2
AcDbMLeaderStyle
  3
ACDB_MLEADERSTYLE_CLASS
 90
     4095
 91
        3
280
     0
281
     0
  0
CLASS
  1
SORTENTSTABLE
  2
AcDbSortentsTable
  3
ObjectDBX Classes
 90
        0
 91
        3
280
     0
281
     0
  0
CLASS
  1
ACDBSECTIONVIEWSTYLE
  2
AcDbSectionViewStyle
  3
ObjectDBX Classes
 90
     1025
 91
        3
280
     0
281
     0
  0
CLASS
  1
ACDBDETAILVIEWSTYLE
  2
AcDbDetailViewStyle
  3
ObjectDBX Classes
 90
     1025
 91
        3
280
     0
281
     0
  0
CLASS
  1
DMMAPMANAGER
  2
AcMapDMMapManager
  3
AcMapDisplayManagement
 90
     1024
 91
        2
280
     1
281
     0
  0
CLASS
  1
DMSTYLELIBRARY
  2
AcMapDMStyleLibrary
  3
AcMapDisplayManagement
 90
     1024
 91
        2
280
     1
281
     0
  0
CLASS
  1
DMSTYLECATEGORY
  2
AcMapDMStyleCategory
  3
AcMapDisplayManagement
 90
     1024
 91
        2
280
     1
281
     0
  0
CLASS
  1
DATATABLE
  2
AcDbDataTable
  3
ObjectDBX Classes
 90
        0
 91
        3
280
     0
281
     0
  0
CLASS
  1
MAPGWSUNDOOBJECT
  2
AcMapGWSUndoRecorder
  3
AcMapFeatureSourceManager
 90
     1025
 91
        1
280
     1
281
     0
  0
CLASS
  1
DMMAP
  2
AcMapDMMap
  3
AcMapDisplayManagement
 90
     1024
 91
        2
280
     1
281
     0
  0
CLASS
  1
DMBASEELEMENT
  2
AcMapDMBaseElement
  3
AcMapDisplayManagement
 90
     1024
 91
        2
280
     1
281
     0
  0
CLASS
  1
DMDEFAULTSTYLE
  2
AcMapDMDefaultStyle
  3
AcMapDisplayManagement
 90
     1024
 91
        2
280
     1
281
     0
  0
CLASS
  1
DMSTYLEREFERENCE
  2
AcMapDMStyleReference
  3
AcMapDisplayManagement
 90
     1024
 91
        2
280
     1
281
     0
  0
CLASS
  1
DMSURROGATESTYLESETS
  2
AcMapDMSurrogateStyleSets
  3
AcMapDisplayManagement
 90
     1153
 91
        2
280
     1
281
     0
  0
CLASS
  1
DMSTYLIZEDENTITIESTABLE
  2
AcMapDMStylizedEntitiesTable
  3
AcMapDisplayManagement
 90
     1024
 91
        2
280
     1
281
     0
  0
CLASS
  1
IMAGEDEF
  2
AcDbRasterImageDef
  3
ISM
 90
        0
 91
        3
280
     0
281
     0
  0
CLASS
  1
IMAGEDEF_REACTOR
  2
AcDbRasterImageDefReactor
  3
ISM
 90
        1
 91
        3
280
     0
281
     0
  0
CLASS
  1
IMAGE
  2
AcDbRasterImage
  3
ISM
 90
      127
 91
        4
280
     0
281
     1
  0
CLASS
  1
MAPRESOURCEMANAGEROBJECT
  2
AcMapResourceManager
  3
AcMapSharedComponents
 90
     1024
 91
        1
280
     1
281
     0
  0
ENDSEC
  0
SECTION
  2
TABLES
  0
TABLE
  2
VPORT
  5
8
330
0
100
AcDbSymbolTable
 70
     1
  0
VPORT
  5
94
330
8
100
AcDbSymbolTableRecord
100
AcDbViewportTableRecord
  2
*Active
 70
     0
 10
0.0
 20
0.0
 11
1.0
 21
1.0
 12
74.60431351149535
 22
31.91386232089381
 13
0.0
 23
0.0
 14
0.5
 24
0.5
 15
0.5
 25
0.5
 16
0.0
 26
0.0
 36
1.0
 17
-27.66959356597955
 27
-19.53870295786218
 37
0.0
 40
3.589226778509859
 41
2.120054570259209
 42
50.0
 43
0.0
 44
0.0
 50
0.0
 51
0.0
 71
    16
 72
  1000
 73
     1
 74
     3
 75
     0
 76
     0
 77
     0
 78
     0
281
     0
 65
     1
110
0.0
120
0.0
130
0.0
111
1.0
121
0.0
131
0.0
112
0.0
122
1.0
132
0.0
 79
     0
146
0.0
348
9F
 60
     2
 61
     5
292
     1
282
     1
141
0.0
142
0.0
 63
   250
421
  3355443
361
ED
1001
ACAD_NAV_VCDISPLAY
1070
     3
  0
ENDTAB
  0
TABLE
  2
LTYPE
  5
5
330
0
100
AcDbSymbolTable
 70
     3
  0
LTYPE
  5
14
330
5
100
AcDbSymbolTableRecord
100
AcDbLinetypeTableRecord
  2
ByBlock
 70
     0
  3

 72
    65
 73
     0
 40
0.0
  0
LTYPE
  5
15
330
5
100
AcDbSymbolTableRecord
100
AcDbLinetypeTableRecord
  2
ByLayer
 70
     0
  3

 72
    65
 73
     0
 40
0.0
  0
LTYPE
  5
16
330
5
100
AcDbSymbolTableRecord
100
AcDbLinetypeTableRecord
  2
Continuous
 70
     0
  3
Solid line
 72
    65
 73
     0
 40
0.0
  0
LTYPE
  5
134
330
5
100
AcDbSymbolTableRecord
100
AcDbLinetypeTableRecord
  2
DASHDOT
 70
     0
  3
DashDot __  . __  . __  . __  . __  . __  . __ 
 72
    65
 73
     4
 40
25.4
 49
12.7
 74
     0
 49
-6.35
 74
     0
 49
0.0
 74
     0
 49
-6.35
 74
     0
  0
LTYPE
  5
38A
330
5
100
AcDbSymbolTableRecord
100
AcDbLinetypeTableRecord
  2
ACAD_ISO02W100
 70
     0
  3
ISO dash __ __ __ __ __ __ __ __ __ __ __ __ __
 72
    65
 73
     2
 40
15.0
 49
12.0
 74
     0
 49
-3.0
 74
     0
  0
ENDTAB
  0
TABLE
  2
LAYER
  5
2
102
{ACAD_XDICTIONARY
360
191
102
}
330
0
100
AcDbSymbolTable
 70
     7
  0
LAYER
  5
10
330
2
100
AcDbSymbolTableRecord
100
AcDbLayerTableRecord
  2
0
 70
     0
 62
     7
  6
Continuous
370
    -3
390
F
347
98
348
0
  0
LAYER
  5
12D
330
2
100
AcDbSymbolTableRecord
100
AcDbLayerTableRecord
  2
CONTEXT
 70
     0
 62
     7
  6
Continuous
370
    -3
390
F
347
98
348
0
1001
AcAecLayerStandard
1000

1000

  0
LAYER
  5
130
330
2
100
AcDbSymbolTableRecord
100
AcDbLayerTableRecord
  2
Annotatons
 70
     0
 62
     7
  6
Continuous
370
    -3
390
F
347
98
348
0
1001
AcAecLayerStandard
1000

1000

  0
LAYER
  5
131
330
2
100
AcDbSymbolTableRecord
100
AcDbLayerTableRecord
  2
Section point
 70
     0
 62
     7
  6
Continuous
370
    -3
390
F
347
98
348
0
1001
AcAecLayerStandard
1000

1000

  0
LAYER
  5
132
330
2
100
AcDbSymbolTableRecord
100
AcDbLayerTableRecord
  2
aOD
 70
     0
 62
     7
  6
Continuous
370
    -3
390
F
347
98
348
0
1001
AcAecLayerStandard
1000

1000

  0
LAYER
  5
133
330
2
100
AcDbSymbolTableRecord
100
AcDbLayerTableRecord
  2
Point_ID
 70
     0
 62
     7
  6
Continuous
370
    -3
390
F
347
98
348
0
  0
LAYER
  5
46F
330
2
100
AcDbSymbolTableRecord
100
AcDbLayerTableRecord
  2
Scanned drawing
 70
     0
 62
     7
  6
Continuous
370
    -3
390
F
347
98
348
0
1001
AcAecLayerStandard
1000

1000

1001
AcCmTransparency
1071
        0
  0
ENDTAB
  0
TABLE
  2
STYLE
  5
3
330
0
100
AcDbSymbolTable
 70
     5
  0
STYLE
  5
11
330
3
100
AcDbSymbolTableRecord
100
AcDbTextStyleTableRecord
  2
Standard
 70
     0
 40
0.0
 41
1.0
 50
0.0
 71
     0
 42
0.2
  3
arial.ttf
  4

1001
ACAD
1000
Arial
1071
        0
  0
STYLE
  5
125
330
3
100
AcDbSymbolTableRecord
100
AcDbTextStyleTableRecord
  2
Annotative
 70
     0
 40
0.0
 41
1.0
 50
0.0
 71
     0
 42
0.2
  3
arial.ttf
  4

1001
ACAD
1000
Arial
1071
        0
1001
AcadAnnotative
1000
AnnotativeData
1002
{
1070
     1
1070
     1
1002
}
  0
STYLE
  5
138
330
3
100
AcDbSymbolTableRecord
100
AcDbTextStyleTableRecord
  2
Text
 70
     0
 40
0.0
 41
1.0
 50
0.0
 71
     0
 42
0.2
  3
ARIALUNI.TTF
  4

1001
ACAD
1000
Arial Unicode MS
1071
        0
  0
STYLE
  5
233
330
3
100
AcDbSymbolTableRecord
100
AcDbTextStyleTableRecord
  2
Legend
 70
     0
 40
0.0
 41
1.0
 50
0.0
 71
     0
 42
0.2
  3
CALIBRI.TTF
  4

1001
ACAD
1000
Calibri
1071
      256
  0
STYLE
  5
389
330
3
100
AcDbSymbolTableRecord
100
AcDbTextStyleTableRecord
  2

 70
     1
 40
0.0
 41
1.0
 50
0.0
 71
     0
 42
0.2
  3
ltypeshp.shx
  4

  0
ENDTAB
  0
TABLE
  2
VIEW
  5
6
330
0
100
AcDbSymbolTable
 70
     0
  0
ENDTAB
  0
TABLE
  2
UCS
  5
7
330
0
100
AcDbSymbolTable
 70
     0
  0
ENDTAB
  0
TABLE
  2
APPID
  5
9
330
0
100
AcDbSymbolTable
 70
    10
  0
APPID
  5
12
330
9
100
AcDbSymbolTableRecord
100
AcDbRegAppTableRecord
  2
ACAD
 70
     0
  0
APPID
  5
126
330
9
100
AcDbSymbolTableRecord
100
AcDbRegAppTableRecord
  2
AcadAnnotative
 70
     0
  0
APPID
  5
12F
330
9
100
AcDbSymbolTableRecord
100
AcDbRegAppTableRecord
  2
AcAecLayerStandard
 70
     0
  0
APPID
  5
237
330
9
100
AcDbSymbolTableRecord
100
AcDbRegAppTableRecord
  2
AcMapDMDisplayStyleRegapp
 70
     0
  0
APPID
  5
246
330
9
100
AcDbSymbolTableRecord
100
AcDbRegAppTableRecord
  2
ACAD_NAV_VCDISPLAY
 70
     0
  0
APPID
  5
247
330
9
100
AcDbSymbolTableRecord
100
AcDbRegAppTableRecord
  2
DCO15
 70
     0
  0
APPID
  5
256
330
9
100
AcDbSymbolTableRecord
100
AcDbRegAppTableRecord
  2
ACAD_EXEMPT_FROM_CAD_STANDARDS
 70
     0
  0
APPID
  5
27B
330
9
100
AcDbSymbolTableRecord
100
AcDbRegAppTableRecord
  2
ADE
 70
     0
  0
APPID
  5
303
330
9
100
AcDbSymbolTableRecord
100
AcDbRegAppTableRecord
  2
MapGWS
 70
     0
  0
APPID
  5
470
330
9
100
AcDbSymbolTableRecord
100
AcDbRegAppTableRecord
  2
AcCmTransparency
 70
     0
  0
ENDTAB
  0
TABLE
  2
DIMSTYLE
  5
A
330
0
100
AcDbSymbolTable
 70
     3
100
AcDbDimStyleTable
  0
DIMSTYLE
105
27
330
A
100
AcDbSymbolTableRecord
100
AcDbDimStyleTableRecord
  2
Standard
 70
     0
178
     0
340
11
  0
DIMSTYLE
105
127
330
A
100
AcDbSymbolTableRecord
100
AcDbDimStyleTableRecord
  2
Annotative
 70
     0
 40
0.0
178
     0
340
11
1001
AcadAnnotative
1000
AnnotativeData
1002
{
1070
     1
1070
     1
1002
}
  0
DIMSTYLE
105
137
330
A
100
AcDbSymbolTableRecord
100
AcDbDimStyleTableRecord
  2
ISO-25
 70
     0
 41
2.5
 42
0.625
 43
3.75
 44
1.25
 73
     0
 74
     0
 77
     1
 78
     8
140
2.5
141
2.5
143
0.03937007874016
147
0.625
171
     3
172
     1
178
     0
271
     2
272
     2
274
     3
278
    44
283
     0
284
     8
340
11
  0
ENDTAB
  0
TABLE
  2
BLOCK_RECORD
  5
1
330
0
100
AcDbSymbolTable
 70
    20
  0
BLOCK_RECORD
  5
1F
102
{ACAD_XDICTIONARY
360
23B
102
}
330
1
100
AcDbSymbolTableRecord
100
AcDbBlockTableRecord
  2
*Model_Space
340
22
 70
     0
280
     1
281
     0
  0
BLOCK_RECORD
  5
58
330
1
100
AcDbSymbolTableRecord
100
AcDbBlockTableRecord
  2
*Paper_Space
340
59
 70
     0
280
     1
281
     0
  0
BLOCK_RECORD
  5
5D
330
1
100
AcDbSymbolTableRecord
100
AcDbBlockTableRecord
  2
*Paper_Space0
340
5E
 70
     0
280
     1
281
     0
  0
BLOCK_RECORD
  5
29E
102
{ACAD_XDICTIONARY
360
2A3
102
}
330
1
100
AcDbSymbolTableRecord
100
AcDbBlockTableRecord
  2
A$C11336558
340
0
 70
     6
280
     1
281
     0
  0
BLOCK_RECORD
  5
2C3
102
{ACAD_XDICTIONARY
360
2C5
102
}
330
1
100
AcDbSymbolTableRecord
100
AcDbBlockTableRecord
  2
A$C6D9D1ACC
340
0
 70
     6
280
     1
281
     0
  0
BLOCK_RECORD
  5
320
102
{ACAD_XDICTIONARY
360
324
102
}
330
1
100
AcDbSymbolTableRecord
100
AcDbBlockTableRecord
  2
A$C04FD1CE1
340
0
 70
     6
280
     1
281
     0
  0
BLOCK_RECORD
  5
430
102
{ACAD_XDICTIONARY
360
432
102
}
330
1
100
AcDbSymbolTableRecord
100
AcDbBlockTableRecord
  2
A$C19F96357
340
0
 70
     6
280
     1
281
     0
  0
BLOCK_RECORD
  5
485
102
{ACAD_XDICTIONARY
360
488
102
}
330
1
100
AcDbSymbolTableRecord
100
AcDbBlockTableRecord
  2
A$C27A72A64
340
0
 70
     6
280
     1
281
     0
  0
BLOCK_RECORD
  5
48C
102
{ACAD_XDICTIONARY
360
48F
102
}
330
1
100
AcDbSymbolTableRecord
100
AcDbBlockTableRecord
  2
A$C4F0C64B1
340
0
 70
     6
280
     1
281
     0
  0
BLOCK_RECORD
  5
4AF
102
{ACAD_XDICTIONARY
360
4B2
102
}
330
1
100
AcDbSymbolTableRecord
100
AcDbBlockTableRecord
  2
A$C56044FEE
340
0
 70
     6
280
     1
281
     0
  0
BLOCK_RECORD
  5
71F
102
{ACAD_XDICTIONARY
360
723
102
}
330
1
100
AcDbSymbolTableRecord
100
AcDbBlockTableRecord
  2
A$C6A5D518D
340
0
 70
     6
280
     1
281
     0
  0
BLOCK_RECORD
  5
808
102
{ACAD_XDICTIONARY
360
80B
102
}
330
1
100
AcDbSymbolTableRecord
100
AcDbBlockTableRecord
  2
A$C42D858AF
340
0
 70
     6
280
     1
281
     0
  0
BLOCK_RECORD
  5
87C
102
{ACAD_XDICTIONARY
360
884
102
}
330
1
100
AcDbSymbolTableRecord
100
AcDbBlockTableRecord
  2
A$C26DD5F65
340
0
 70
     6
280
     1
281
     0
  0
BLOCK_RECORD
  5
954
102
{ACAD_XDICTIONARY
360
957
102
}
330
1
100
AcDbSymbolTableRecord
100
AcDbBlockTableRecord
  2
A$C0CA467E1
340
0
 70
     6
280
     1
281
     0
  0
BLOCK_RECORD
  5
A4F
102
{ACAD_XDICTIONARY
360
A52
102
}
330
1
100
AcDbSymbolTableRecord
100
AcDbBlockTableRecord
  2
A$C35CC0266
340
0
 70
     6
280
     1
281
     0
  0
BLOCK_RECORD
  5
A84
102
{ACAD_XDICTIONARY
360
A87
102
}
330
1
100
AcDbSymbolTableRecord
100
AcDbBlockTableRecord
  2
A$C00E978D5
340
0
 70
     6
280
     1
281
     0
  0
BLOCK_RECORD
  5
BDD
102
{ACAD_XDICTIONARY
360
BE0
102
}
330
1
100
AcDbSymbolTableRecord
100
AcDbBlockTableRecord
  2
A$C4F632BC0
340
0
 70
     6
280
     1
281
     0
  0
BLOCK_RECORD
  5
D12
102
{ACAD_XDICTIONARY
360
D15
102
}
330
1
100
AcDbSymbolTableRecord
100
AcDbBlockTableRecord
  2
A$C24402BE7
340
0
 70
     6
280
     1
281
     0
  0
BLOCK_RECORD
  5
D6D
102
{ACAD_XDICTIONARY
360
D6F
102
}
330
1
100
AcDbSymbolTableRecord
100
AcDbBlockTableRecord
  2
A$C1B232DAC
340
0
 70
     6
280
     1
281
     0
  0
BLOCK_RECORD
  5
ECF
102
{ACAD_XDICTIONARY
360
ED2
102
}
330
1
100
AcDbSymbolTableRecord
100
AcDbBlockTableRecord
  2
A$C0DB84EC2
340
0
 70
     6
280
     1
281
     0
  0
BLOCK_RECORD
  5
EF6
102
{ACAD_XDICTIONARY
360
EF8
102
}
330
1
100
AcDbSymbolTableRecord
100
AcDbBlockTableRecord
  2
A$C31475676
340
0
 70
     6
280
     1
281
     0
  0
BLOCK_RECORD
  5
F5B
102
{ACAD_XDICTIONARY
360
F60
102
}
330
1
100
AcDbSymbolTableRecord
100
AcDbBlockTableRecord
  2
A$C7C0C41CD
340
0
 70
     6
280
     1
281
     0
  0
ENDTAB
  0
ENDSEC
  0
SECTION
  2
BLOCKS
  0
BLOCK
  5
20
330
1F
100
AcDbEntity
  8
0
100
AcDbBlockBegin
  2
*Model_Space
 70
     0
 10
0.0
 20
0.0
 30
0.0
  3
*Model_Space
  1

  0
ENDBLK
  5
21
330
1F
100
AcDbEntity
  8
0
100
AcDbBlockEnd
  0
BLOCK
  5
5A
330
58
100
AcDbEntity
 67
     1
  8
0
100
AcDbBlockBegin
  2
*Paper_Space
 70
     0
 10
0.0
 20
0.0
 30
0.0
  3
*Paper_Space
  1

  0
ENDBLK
  5
5B
330
58
100
AcDbEntity
 67
     1
  8
0
100
AcDbBlockEnd
  0
BLOCK
  5
5F
330
5D
100
AcDbEntity
  8
0
100
AcDbBlockBegin
  2
*Paper_Space0
 70
     0
 10
0.0
 20
0.0
 30
0.0
  3
*Paper_Space0
  1

  0
ENDBLK
  5
60
330
5D
100
AcDbEntity
  8
0
100
AcDbBlockEnd
  0
BLOCK
  5
2A5
330
29E
100
AcDbEntity
  8
0
100
AcDbBlockBegin
  2
A$C11336558
 70
     0
 10
0.0
 20
0.0
 30
0.0
  3
A$C11336558
  1

  0
CIRCLE
  5
29F
330
29E
100
AcDbEntity
  8
Section point
 62
     5
100
AcDbCircle
 10
0.0199999833688569
 20
0.0383319153611996
 30
0.0
 40
0.0200000000000102
  0
LWPOLYLINE
  5
2A0
330
29E
100
AcDbEntity
  8
aOD
 62
     1
100
AcDbPolyline
 90
        6
 70
     0
 43
0.0
 10
0.1147833400149327
 20
0.0400000088835117
 10
0.1947833400312309
 20
0.0400000088835117
 10
0.1547833400521856
 20
0.0400000088835117
 10
0.1147833400149327
 20
0.0000000088753627
 10
0.1547833400521856
 20
0.0400000088835117
 10
0.1947833400312309
 20
0.0000000088753627
  0
TEXT
  5
2A1
330
29E
100
AcDbEntity
  8
aOD
 62
     1
100
AcDbText
 10
0.146221201596509
 20
0.045190092047043
 30
0.0
 40
0.025
  1
?
  7
Text
 72
     1
 11
0.1559330024150629
 21
0.0357255627155286
 31
0.0
100
AcDbText
 73
     1
  0
TEXT
  5
2A2
330
29E
100
AcDbEntity
  8
Annotatons
100
AcDbText
 10
0.0599999833479021
 20
0.0972609740032735
 30
0.0
 40
0.05
  1
NW
  7
Text
 11
0.0599999833479021
 21
0.0783319153402449
 31
0.0
100
AcDbText
 73
     1
  0
ENDBLK
  5
2A6
330
29E
100
AcDbEntity
  8
0
100
AcDbBlockEnd
  0
BLOCK
  5
2C7
330
2C3
100
AcDbEntity
  8
0
100
AcDbBlockBegin
  2
A$C6D9D1ACC
 70
     0
 10
0.0
 20
0.0
 30
0.0
  3
A$C6D9D1ACC
  1

  0
TEXT
  5
2C4
330
2C3
100
AcDbEntity
  8
Annotatons
100
AcDbText
 10
0.0040382074247174
 20
0.0208401790144568
 30
0.0
 40
0.05
  1
(1608)
  7
Text
 72
     1
 11
0.1049931869608702
 21
0.0019111203514282
 31
0.0
100
AcDbText
 73
     1
  0
ENDBLK
  5
2C8
330
2C3
100
AcDbEntity
  8
0
100
AcDbBlockEnd
  0
BLOCK
  5
326
330
320
100
AcDbEntity
  8
0
100
AcDbBlockBegin
  2
A$C04FD1CE1
 70
     0
 10
0.0
 20
0.0
 30
0.0
  3
A$C04FD1CE1
  1

  0
LWPOLYLINE
  5
321
330
320
100
AcDbEntity
  8
Section point
 62
     5
100
AcDbPolyline
 90
        9
 70
     0
 43
0.0
 10
0.1147673824232474
 20
0.0400000034731232
 10
0.1947673823813378
 20
0.0400000034731232
 10
0.1547673824022926
 20
0.0400000034731232
 10
0.1547673824022926
 20
0.0000000034649741
 10
0.1547673824022926
 20
0.0800000034812722
 10
0.1547673824022926
 20
0.0400000034731232
 10
0.1947673823813378
 20
0.0400000034731232
 10
0.174767382420919
 20
0.0400000034731232
 10
0.174767382420919
 20
0.0400000034731232
  0
CIRCLE
  5
322
330
320
100
AcDbEntity
  8
Section point
 62
     5
100
AcDbCircle
 10
0.1547673824022926
 20
0.0400000034731232
 30
0.0
 40
0.0200000000000102
  0
TEXT
  5
323
330
320
100
AcDbEntity
  8
Annotatons
100
AcDbText
 10
0.0022503292172446
 20
0.0989290621443009
 30
0.0
 40
0.05
  1
SW
  7
Text
 72
     2
 11
0.1147673824232474
 21
0.0800000034812722
 31
0.0
100
AcDbText
 73
     1
  0
ENDBLK
  5
327
330
320
100
AcDbEntity
  8
0
100
AcDbBlockEnd
  0
BLOCK
  5
434
330
430
100
AcDbEntity
  8
0
100
AcDbBlockBegin
  2
A$C19F96357
 70
     0
 10
0.0
 20
0.0
 30
0.0
  3
A$C19F96357
  1

  0
LWPOLYLINE
  5
431
330
430
100
AcDbEntity
  8
CONTEXT
100
AcDbPolyline
 90
        2
 70
     0
 43
0.0
 10
0.0000000014199451
 20
0.0719120082121911
 10
0.0000366076411993
 20
0.0
  0
ENDBLK
  5
435
330
430
100
AcDbEntity
  8
0
100
AcDbBlockEnd
  0
BLOCK
  5
48A
330
485
100
AcDbEntity
  8
0
100
AcDbBlockBegin
  2
A$C27A72A64
 70
     0
 10
0.0
 20
0.0
 30
0.0
  3
A$C27A72A64
  1

  0
CIRCLE
  5
486
330
485
100
AcDbEntity
  8
Section point
 62
     5
100
AcDbCircle
 10
0.1350422947931644
 20
0.0200000007853323
 30
0.0
 40
0.0200000000000102
  0
TEXT
  5
487
330
485
100
AcDbEntity
  8
Annotatons
100
AcDbText
 10
0.0018635772152106
 20
0.07892905945651
 30
0.0
 40
0.05
  1
SE
  7
Text
 72
     2
 11
0.0950422948141192
 21
0.0600000007934813
 31
0.0
100
AcDbText
 73
     1
  0
ENDBLK
  5
48B
330
485
100
AcDbEntity
  8
0
100
AcDbBlockEnd
  0
BLOCK
  5
491
330
48C
100
AcDbEntity
  8
0
100
AcDbBlockBegin
  2
A$C4F0C64B1
 70
     0
 10
0.0
 20
0.0
 30
0.0
  3
A$C4F0C64B1
  1

  0
CIRCLE
  5
48D
330
48C
100
AcDbEntity
  8
Section point
 62
     5
100
AcDbCircle
 10
0.1350422947931644
 20
0.0200000007853323
 30
0.0
 40
0.0200000000000102
  0
TEXT
  5
48E
330
48C
100
AcDbEntity
  8
Annotatons
100
AcDbText
 10
0.0018635772152106
 20
0.07892905945651
 30
0.0
 40
0.05
  1
SE
  7
Text
 72
     2
 11
0.0950422948141192
 21
0.0600000007934813
 31
0.0
100
AcDbText
 73
     1
  0
ENDBLK
  5
492
330
48C
100
AcDbEntity
  8
0
100
AcDbBlockEnd
  0
BLOCK
  5
4B4
330
4AF
100
AcDbEntity
  8
0
100
AcDbBlockBegin
  2
A$C56044FEE
 70
     0
 10
0.0
 20
0.0
 30
0.0
  3
A$C56044FEE
  1

  0
LWPOLYLINE
  5
4B0
330
4AF
100
AcDbEntity
  8
aOD
 62
     1
100
AcDbPolyline
 90
        6
 70
     0
 43
0.0
 10
-0.0000000056047131
 20
0.0400000011302932
 10
0.079999994411585
 20
0.0400000011302932
 10
0.0399999944325398
 20
0.0400000011302932
 10
-0.0000000056047131
 20
0.0000000011221442
 10
0.0399999944325398
 20
0.0400000011302932
 10
0.079999994411585
 20
0.0000000011221442
  0
TEXT
  5
4B1
330
4AF
100
AcDbEntity
  8
aOD
 62
     1
100
AcDbText
 10
0.0314378559768632
 20
0.0451900842938244
 30
0.0
 40
0.025
  1
?
  7
Text
 72
     1
 11
0.041149656795417
 21
0.0357255549623101
 31
0.0
100
AcDbText
 73
     1
  0
ENDBLK
  5
4B5
330
4AF
100
AcDbEntity
  8
0
100
AcDbBlockEnd
  0
BLOCK
  5
725
330
71F
100
AcDbEntity
  8
0
100
AcDbBlockBegin
  2
A$C6A5D518D
 70
     0
 10
0.0
 20
0.0
 30
0.0
  3
A$C6A5D518D
  1

  0
LWPOLYLINE
  5
720
330
71F
100
AcDbEntity
  8
Section point
 62
     5
100
AcDbPolyline
 90
        9
 70
     0
 43
0.0
 10
0.0475211417707424
 20
0.0399999941176237
 10
0.1275211417288329
 20
0.0399999941176237
 10
0.0875211417497876
 20
0.0399999941176237
 10
0.0875211417497876
 20
-0.0000000058905254
 10
0.0875211417497876
 20
0.0799999941257727
 10
0.0875211417497876
 20
0.0399999941176237
 10
0.1275211417288329
 20
0.0399999941176237
 10
0.1075211417684141
 20
0.0399999941176237
 10
0.1075211417684141
 20
0.0399999941176237
  0
CIRCLE
  5
721
330
71F
100
AcDbEntity
  8
Section point
 62
     5
100
AcDbCircle
 10
0.0875211417497876
 20
0.0399999941176237
 30
0.0
 40
0.0200000000000102
  0
TEXT
  5
722
330
71F
100
AcDbEntity
  8
Annotatons
100
AcDbText
 10
0.0009317829712881
 20
0.0989290527888014
 30
0.0
 40
0.05
  1
S
  7
Text
 72
     2
 11
0.0475211417707424
 21
0.0799999941257727
 31
0.0
100
AcDbText
 73
     1
  0
ENDBLK
  5
726
330
71F
100
AcDbEntity
  8
0
100
AcDbBlockEnd
  0
BLOCK
  5
80D
330
808
100
AcDbEntity
  8
0
100
AcDbBlockBegin
  2
A$C42D858AF
 70
     0
 10
0.0
 20
0.0
 30
0.0
  3
A$C42D858AF
  1

  0
CIRCLE
  5
809
330
808
100
AcDbEntity
  8
Section point
 62
     5
100
AcDbCircle
 10
0.0200000149646034
 20
0.0199999944229763
 30
0.0
 40
0.0200000000000102
  0
TEXT
  5
80A
330
808
100
AcDbEntity
  8
Annotatons
100
AcDbText
 10
0.0600000149436486
 20
0.0789290530650502
 30
0.0
 40
0.05
  1
?
  7
Text
 11
0.0600000149436486
 21
0.0599999944020215
 31
0.0
100
AcDbText
 73
     1
  0
ENDBLK
  5
80E
330
808
100
AcDbEntity
  8
0
100
AcDbBlockEnd
  0
BLOCK
  5
886
330
87C
100
AcDbEntity
  8
0
100
AcDbBlockBegin
  2
A$C26DD5F65
 70
     0
 10
0.0
 20
0.0
 30
0.0
  3
A$C26DD5F65
  1

  0
CIRCLE
  5
87D
330
87C
100
AcDbEntity
  8
Section point
 62
     5
100
AcDbCircle
 10
0.0796241266830275
 20
0.0475738848851197
 30
0.0
 40
0.0200000000000102
  0
TEXT
  5
87E
330
87C
100
AcDbEntity
  8
Annotatons
100
AcDbText
 10
0.0007769234297667
 20
0.1065029435562974
 30
0.0
 40
0.05
  1
?
  7
Text
 72
     2
 11
0.0396241267039823
 21
0.0875738848932688
 31
0.0
100
AcDbText
 73
     1
  0
LWPOLYLINE
  5
87F
330
87C
100
AcDbEntity
  8
Section point
 62
     5
100
AcDbPolyline
 90
        9
 70
     0
 43
0.0
 10
1.740068463329083
 20
0.041148520843203
 10
1.820068463287173
 20
0.041148520843203
 10
1.780068463308128
 20
0.041148520843203
 10
1.780068463308128
 20
0.0011485208350539
 10
1.780068463308128
 20
0.0811485208222482
 10
1.780068463308128
 20
0.041148520843203
 10
1.820068463287173
 20
0.041148520843203
 10
1.800068463326754
 20
0.041148520843203
 10
1.800068463326754
 20
0.041148520843203
  0
CIRCLE
  5
880
330
87C
100
AcDbEntity
  8
Section point
 62
     5
100
AcDbCircle
 10
1.780068463308128
 20
0.041148520843203
 30
0.0
 40
0.0200000000000102
  0
TEXT
  5
881
330
87C
100
AcDbEntity
  8
Annotatons
100
AcDbText
 10
1.820068463287173
 20
0.1000775794852769
 30
0.0
 40
0.05
  1
?
  7
Text
 11
1.820068463287173
 21
0.0811485208222482
 31
0.0
100
AcDbText
 73
     1
  0
LWPOLYLINE
  5
882
330
87C
100
AcDbEntity
  8
aOD
 62
     1
100
AcDbPolyline
 90
        6
 70
     0
 43
0.0
 10
1.911813160137415
 20
0.0400000010911992
 10
1.991813160153713
 20
0.0400000010911992
 10
1.951813160174668
 20
0.0400000010911992
 10
1.911813160137415
 20
0.0000000010830501
 10
1.951813160174668
 20
0.0400000010911992
 10
1.991813160153713
 20
0.0000000010830501
  0
TEXT
  5
883
330
87C
100
AcDbEntity
  8
aOD
 62
     1
100
AcDbText
 10
1.899552181336999
 20
0.0451900842547304
 30
0.0
 40
0.025
  1
174.02
  7
Text
 72
     1
 11
1.952962822537545
 21
0.0357255549232161
 31
0.0
100
AcDbText
 73
     1
  0
ENDBLK
  5
887
330
87C
100
AcDbEntity
  8
0
100
AcDbBlockEnd
  0
BLOCK
  5
959
330
954
100
AcDbEntity
  8
0
100
AcDbBlockBegin
  2
A$C0CA467E1
 70
     0
 10
0.0
 20
0.0
 30
0.0
  3
A$C0CA467E1
  1

  0
CIRCLE
  5
955
330
954
100
AcDbEntity
  8
Section point
 62
     5
100
AcDbCircle
 10
0.1586985003881818
 20
0.0200000009661725
 30
0.0
 40
0.0200000000000102
  0
TEXT
  5
956
330
954
100
AcDbEntity
  8
Annotatons
100
AcDbText
 10
0.0023274226465172
 20
0.0789290596373502
 30
0.0
 40
0.05
  1
NW
  7
Text
 72
     2
 11
0.1186985004091365
 21
0.0600000009743216
 31
0.0
100
AcDbText
 73
     1
  0
ENDBLK
  5
95A
330
954
100
AcDbEntity
  8
0
100
AcDbBlockEnd
  0
BLOCK
  5
A54
330
A4F
100
AcDbEntity
  8
0
100
AcDbBlockBegin
  2
A$C35CC0266
 70
     0
 10
0.0
 20
0.0
 30
0.0
  3
A$C35CC0266
  1

  0
CIRCLE
  5
A50
330
A4F
100
AcDbEntity
  8
Section point
 62
     5
100
AcDbCircle
 10
0.01999998575271
 20
0.0200000009661725
 30
0.0
 40
0.0200000000000102
  0
TEXT
  5
A51
330
A4F
100
AcDbEntity
  8
Annotatons
100
AcDbText
 10
0.0852800635271771
 20
0.0771815066111939
 30
0.0
 40
0.05
  1
NE
  7
Text
 72
     2
 11
0.1823128056827024
 21
0.0582524479481652
 31
0.0
100
AcDbText
 73
     1
  0
ENDBLK
  5
A55
330
A4F
100
AcDbEntity
  8
0
100
AcDbBlockEnd
  0
BLOCK
  5
A89
330
A84
100
AcDbEntity
  8
0
100
AcDbBlockBegin
  2
A$C00E978D5
 70
     0
 10
0.0
 20
0.0
 30
0.0
  3
A$C00E978D5
  1

  0
CIRCLE
  5
A85
330
A84
100
AcDbEntity
  8
Section point
 62
     5
100
AcDbCircle
 10
0.01999998575271
 20
0.0200000009661725
 30
0.0
 40
0.0200000000000102
  0
TEXT
  5
A86
330
A84
100
AcDbEntity
  8
Annotatons
100
AcDbText
 10
0.0844459450441926
 20
0.0794148566215047
 30
0.0
 40
0.05
  1
NE
  7
Text
 72
     2
 11
0.1814786871997178
 21
0.0604857979584761
 31
0.0
100
AcDbText
 73
     1
  0
ENDBLK
  5
A8A
330
A84
100
AcDbEntity
  8
0
100
AcDbBlockEnd
  0
BLOCK
  5
BE2
330
BDD
100
AcDbEntity
  8
0
100
AcDbBlockBegin
  2
A$C4F632BC0
 70
     0
 10
0.0
 20
0.0
 30
0.0
  3
A$C4F632BC0
  1

  0
CIRCLE
  5
BDE
330
BDD
100
AcDbEntity
  8
Section point
 62
     5
100
AcDbCircle
 10
0.0199999715719752
 20
0.0199999780391895
 30
0.0
 40
0.0200000000000102
  0
TEXT
  5
BDF
330
BDD
100
AcDbEntity
  8
Annotatons
100
AcDbText
 10
0.0844459308634578
 20
0.0794148336945218
 30
0.0
 40
0.05
  1
NE
  7
Text
 72
     2
 11
0.181478673018983
 21
0.0604857750314931
 31
0.0
100
AcDbText
 73
     1
  0
ENDBLK
  5
BE3
330
BDD
100
AcDbEntity
  8
0
100
AcDbBlockEnd
  0
BLOCK
  5
D17
330
D12
100
AcDbEntity
  8
0
100
AcDbBlockBegin
  2
A$C24402BE7
 70
     0
 10
0.0
 20
0.0
 30
0.0
  3
A$C24402BE7
  1

  0
CIRCLE
  5
D13
330
D12
100
AcDbEntity
  8
Section point
 62
     5
100
AcDbCircle
 10
0.0199999814650198
 20
0.0200000215899951
 30
0.0
 40
0.0200000000000102
  0
TEXT
  5
D14
330
D12
100
AcDbEntity
  8
Annotatons
100
AcDbText
 10
0.0669025389200877
 20
0.0794393686173014
 30
0.0
 40
0.05
  1
NE
  7
Text
 72
     2
 11
0.1639352810756129
 21
0.0605103099542728
 31
0.0
100
AcDbText
 73
     1
  0
ENDBLK
  5
D18
330
D12
100
AcDbEntity
  8
0
100
AcDbBlockEnd
  0
BLOCK
  5
D71
330
D6D
100
AcDbEntity
  8
0
100
AcDbBlockBegin
  2
A$C1B232DAC
 70
     0
 10
0.0
 20
0.0
 30
0.0
  3
A$C1B232DAC
  1

  0
TEXT
  5
D6E
330
D6D
100
AcDbEntity
  8
Annotatons
100
AcDbText
 10
0.0040381628790827
 20
0.0209513874189402
 30
0.0
 40
0.05
  1
(5701)
  7
Text
 72
     1
 11
0.1049931424152355
 21
0.0020223287559116
 31
0.0
100
AcDbText
 73
     1
  0
ENDBLK
  5
D72
330
D6D
100
AcDbEntity
  8
0
100
AcDbBlockEnd
  0
BLOCK
  5
ED4
330
ECF
100
AcDbEntity
  8
0
100
AcDbBlockBegin
  2
A$C0DB84EC2
 70
     0
 10
0.0
 20
0.0
 30
0.0
  3
A$C0DB84EC2
  1

  0
CIRCLE
  5
ED0
330
ECF
100
AcDbEntity
  8
Section point
 62
     5
100
AcDbCircle
 10
0.1547673505020981
 20
0.0199999949137855
 30
0.0
 40
0.0200000000000102
  0
TEXT
  5
ED1
330
ECF
100
AcDbEntity
  8
Annotatons
100
AcDbText
 10
0.0022502973170501
 20
0.0789290535849632
 30
0.0
 40
0.05
  1
SW
  7
Text
 72
     2
 11
0.1147673505230529
 21
0.0599999949219345
 31
0.0
100
AcDbText
 73
     1
  0
ENDBLK
  5
ED5
330
ECF
100
AcDbEntity
  8
0
100
AcDbBlockEnd
  0
BLOCK
  5
EFA
330
EF6
100
AcDbEntity
  8
0
100
AcDbBlockBegin
  2
A$C31475676
 70
     0
 10
0.0
 20
0.0
 30
0.0
  3
A$C31475676
  1

  0
LWPOLYLINE
  5
EF7
330
EF6
100
AcDbEntity
  8
CONTEXT
  6
DASHDOT
 48
0.003
100
AcDbPolyline
 90
        2
 70
     0
 43
0.0
 10
0.0
 20
0.0
 10
0.0006569245793884
 20
0.0418226830322368
  0
ENDBLK
  5
EFB
330
EF6
100
AcDbEntity
  8
0
100
AcDbBlockEnd
  0
BLOCK
  5
F62
330
F5B
100
AcDbEntity
  8
0
100
AcDbBlockBegin
  2
A$C7C0C41CD
 70
     0
 10
0.0
 20
0.0
 30
0.0
  3
A$C7C0C41CD
  1

  0
CIRCLE
  5
F5C
330
F5B
100
AcDbEntity
  8
Section point
 62
     5
100
AcDbCircle
 10
0.0199999814650198
 20
0.0406340922638311
 30
0.0
 40
0.0200000000000102
  0
TEXT
  5
F5D
330
F5B
100
AcDbEntity
  8
Annotatons
100
AcDbText
 10
0.0116048634736386
 20
0.1010333400891495
 30
0.0
 40
0.05
  1
NW
  7
Text
 72
     2
 11
0.127975941236258
 21
0.0821042814261208
 31
0.0
100
AcDbText
 73
     1
  0
LWPOLYLINE
  5
F5E
330
F5B
100
AcDbEntity
  8
aOD
 62
     1
100
AcDbPolyline
 90
        6
 70
     0
 43
0.0
 10
0.0960444799297875
 20
0.0400000004768195
 10
0.1760444799460856
 20
0.0400000004768195
 10
0.1360444799088327
 20
0.0400000004768195
 10
0.0960444799297875
 20
0.0000000004686704
 10
0.1360444799088327
 20
0.0400000004768195
 10
0.1760444799460856
 20
0.0000000004686704
  0
TEXT
  5
F5F
330
F5B
100
AcDbEntity
  8
aOD
 62
     1
100
AcDbText
 10
0.1032071027664797
 20
0.0451900836403507
 30
0.0
 40
0.025
  1
30.2
  7
Text
 72
     1
 11
0.1371941423299177
 21
0.0357255543088364
 31
0.0
100
AcDbText
 73
     1
  0
ENDBLK
  5
F63
330
F5B
100
AcDbEntity
  8
0
100
AcDbBlockEnd
  0
ENDSEC
  0
SECTION
  2
ENTITIES
  0
LWPOLYLINE
  5
F28
330
1F
100
AcDbEntity
  8
Section point
 62
     5
100
AcDbPolyline
 90
        9
 70
     0
 43
0.0
 10
31.49707958815721
 20
14.60382891503006
 10
31.5770795881153
 20
14.60382891503006
 10
31.53707958813625
 20
14.60382891503006
 10
31.53707958813625
 20
14.56382891502191
 10
31.53707958813625
 20
14.64382891503821
 10
31.53707958813625
 20
14.60382891503006
 10
31.5770795881153
 20
14.60382891503006
 10
31.55707958815488
 20
14.60382891503006
 10
31.55707958815488
 20
14.60382891503006
  0
CIRCLE
  5
F29
330
1F
100
AcDbEntity
  8
Section point
 62
     5
100
AcDbCircle
 10
31.53707958813625
 20
14.60382891503006
 30
0.0
 40
0.0200000000000102
  0
LWPOLYLINE
  5
F36
330
1F
100
AcDbEntity
  8
Section point
 62
     5
100
AcDbPolyline
 90
        4
 70
     0
 43
0.0
 10
31.75521364779074
 20
14.60384736580823
 10
31.83521364774883
 20
14.60384736580823
 10
31.79521364776978
 20
14.60384736580823
 10
31.79521364776978
 20
14.56384736580008
  0
CIRCLE
  5
F37
330
1F
100
AcDbEntity
  8
Section point
 62
     5
100
AcDbCircle
 10
31.79521364776978
 20
14.60384736580823
 30
0.0
 40
0.0200000000000102
  0
LWPOLYLINE
  5
F39
330
1F
100
AcDbEntity
  8
aOD
 62
     1
100
AcDbPolyline
 90
        6
 70
     0
 43
0.0
 10
31.87125814623455
 20
14.60321327402122
 10
31.95125814625085
 20
14.60321327402122
 10
31.9112581462136
 20
14.60321327402122
 10
31.87125814623455
 20
14.56321327401307
 10
31.9112581462136
 20
14.60321327402122
 10
31.95125814625085
 20
14.56321327401307
  0
TEXT
  5
F3A
330
1F
100
AcDbEntity
  8
aOD
 62
     1
100
AcDbText
 10
31.85895689078748
 20
14.60840631956626
 30
0.0
 40
0.025
  1
104.43
  7
Text
 72
     1
 11
31.91240780863468
 21
14.59893882785324
 31
0.0
100
AcDbText
 73
     1
  0
LWPOLYLINE
  5
F42
330
1F
100
AcDbEntity
  8
CONTEXT
  6
ACAD_ISO02W100
 48
0.003
100
AcDbPolyline
 90
        2
 70
     0
 43
0.0
 10
31.56270945107661
 20
14.60140214255407
 10
31.77199239945627
 20
14.60140214255407
  0
LWPOLYLINE
  5
F43
330
1F
100
AcDbEntity
  8
aOD
100
AcDbPolyline
 90
        7
 70
     0
 43
0.0
 10
31.53891793906458
 20
14.57514498055325
 10
31.60200944141617
 20
14.57338873420315
 10
31.68234563845543
 20
14.57353224826047
 10
31.72150206592337
 20
14.57257530317555
 10
31.73906173220351
 20
14.57468040689473
 10
31.76259175140633
 20
14.57503124981864
 10
31.79490151154442
 20
14.57432956397081
  0
LWPOLYLINE
  5
F44
330
1F
100
AcDbEntity
  8
aOD
100
AcDbPolyline
 90
       21
 70
     0
 43
0.0
 10
31.58901997046323
 20
14.57336552957376
 10
31.5949905355223
 20
14.55530176099258
 10
31.60552640905421
 20
14.52267253790617
 10
31.61465735806784
 20
14.4970604041765
 10
31.62063683926561
 20
14.48790288669459
 10
31.62780235078948
 20
14.47728857223894
 10
31.63472075345275
 20
14.47062375725264
 10
31.64608656237804
 20
14.46519321857013
 10
31.65646412027054
 20
14.4617373834466
 10
31.66931258235945
 20
14.46198423870736
 10
31.67672511053912
 20
14.46346527792051
 10
31.68636143405462
 20
14.47037694816758
 10
31.69575064870949
 20
14.48000384158019
 10
31.70563398888079
 20
14.4945676555052
 10
31.71650576449449
 20
14.51678365928385
 10
31.72194160619894
 20
14.52986638781999
 10
31.73009536875561
 20
14.54788603686853
 10
31.73164219645913
 20
14.55738165278277
 10
31.73460722617196
 20
14.56577436224299
 10
31.73757225588479
 20
14.57120494710119
 10
31.73906173220351
 20
14.57468040689473
  0
TEXT
  5
F4D
330
1F
100
AcDbEntity
  8
Annotatons
100
AcDbText
 10
31.68289472792494
 20
14.31353598261546
 30
0.0
 40
0.05
  1
[3012]
  7
Text
 72
     1
 11
31.77999568290447
 21
14.29460692395243
 31
0.0
100
AcDbText
 73
     1
  0
LWPOLYLINE
  5
F4E
330
1F
100
AcDbEntity
  8
aOD
100
AcDbPolyline
 90
        2
 70
     0
 43
0.0
 10
31.71008244559774
 20
14.50365788462182
 10
31.77637250610829
 20
14.3740796595403
  0
LWPOLYLINE
  5
F58
330
1F
100
AcDbEntity
  8
Section point
 62
     5
100
AcDbPolyline
 90
        9
 70
     0
 43
0.0
 10
32.00094395981394
 20
14.60430683346419
 10
32.08094395977203
 20
14.60430683346419
 10
32.04094395979298
 20
14.60430683346419
 10
32.04094395979298
 20
14.56430683345604
 10
32.04094395979298
 20
14.64430683347234
 10
32.04094395979298
 20
14.60430683346419
 10
32.08094395977203
 20
14.60430683346419
 10
32.06094395981161
 20
14.60430683346419
 10
32.06094395981161
 20
14.60430683346419
  0
CIRCLE
  5
F59
330
1F
100
AcDbEntity
  8
Section point
 62
     5
100
AcDbCircle
 10
32.04094395979298
 20
14.60430683346419
 30
0.0
 40
0.0200000000000102
  0
TEXT
  5
F5A
330
1F
100
AcDbEntity
  8
Annotatons
100
AcDbText
 10
31.95904918245058
 20
14.66238335029486
 30
0.0
 40
0.05
  1
SE
  7
Text
 72
     2
 11
32.05222790004949
 21
14.64345429163183
 31
0.0
100
AcDbText
 73
     1
  0
LWPOLYLINE
  5
F6F
330
1F
100
AcDbEntity
  8
Section point
 62
     5
100
AcDbPolyline
 90
        9
 70
     0
 43
0.0
 10
33.89994871657592
 20
14.60747225014792
 10
33.97994871653401
 20
14.60747225014792
 10
33.93994871655497
 20
14.60747225014792
 10
33.93994871655497
 20
14.56747225013977
 10
33.93994871655497
 20
14.64747225015607
 10
33.93994871655497
 20
14.60747225014792
 10
33.97994871653401
 20
14.60747225014792
 10
33.95994871657359
 20
14.60747225014792
 10
33.95994871657359
 20
14.60747225014792
  0
CIRCLE
  5
F70
330
1F
100
AcDbEntity
  8
Section point
 62
     5
100
AcDbCircle
 10
33.93994871655497
 20
14.60747225014792
 30
0.0
 40
0.0200000000000102
  0
TEXT
  5
F71
330
1F
100
AcDbEntity
  8
Annotatons
100
AcDbText
 10
33.95090494339316
 20
14.66787742273626
 30
0.0
 40
0.05
  1
NE
  7
Text
 72
     2
 11
34.0479246763262
 21
14.64894243931021
 31
0.0
100
AcDbText
 73
     1
  0
LWPOLYLINE
  5
F72
330
1F
100
AcDbEntity
  8
aOD
 62
     1
100
AcDbPolyline
 90
        6
 70
     0
 43
0.0
 10
34.01599321501973
 20
14.60683815836091
 10
34.09599321503603
 20
14.60683815836091
 10
34.05599321499878
 20
14.60683815836091
 10
34.01599321501973
 20
14.56683815835276
 10
34.05599321499878
 20
14.60683815836091
 10
34.09599321503603
 20
14.56683815835276
  0
TEXT
  5
F73
330
1F
100
AcDbEntity
  8
aOD
 62
     1
100
AcDbText
 10
34.00369195957266
 20
14.61203120390595
 30
0.0
 40
0.025
  1
103.37
  7
Text
 72
     1
 11
34.05714287741986
 21
14.60256371219293
 31
0.0
100
AcDbText
 73
     1
  0
LWPOLYLINE
  5
F7D
330
1F
100
AcDbEntity
  8
Section point
 62
     5
100
AcDbPolyline
 90
        9
 70
     0
 43
0.0
 10
33.63102300193164
 20
14.60732919784754
 10
33.71102300188973
 20
14.60732919784754
 10
33.67102300191068
 20
14.60732919784754
 10
33.67102300191068
 20
14.56732919783939
 10
33.67102300191068
 20
14.64732919785569
 10
33.67102300191068
 20
14.60732919784754
 10
33.71102300188973
 20
14.60732919784754
 10
33.69102300192931
 20
14.60732919784754
 10
33.69102300192931
 20
14.60732919784754
  0
CIRCLE
  5
F7E
330
1F
100
AcDbEntity
  8
Section point
 62
     5
100
AcDbCircle
 10
33.67102300191068
 20
14.60732919784754
 30
0.0
 40
0.0200000000000102
  0
TEXT
  5
F7F
330
1F
100
AcDbEntity
  8
Annotatons
100
AcDbText
 10
33.54684541022861
 20
14.66908176507231
 30
0.0
 40
0.05
  1
NW SW
  7
Text
 72
     2
 11
33.79514008962833
 21
14.65015270640929
 31
0.0
100
AcDbText
 73
     1
  0
LWPOLYLINE
  5
F80
330
1F
100
AcDbEntity
  8
aOD
100
AcDbPolyline
 90
       48
 70
     0
 43
0.0
 10
32.03937764852813
 20
14.55607331066562
 10
32.07487013390886
 20
14.55527650288791
 10
32.0860363194449
 20
14.5544796951102
 10
32.09800016869478
 20
14.55408129122134
 10
32.09999409746736
 20
14.5544796951102
 10
32.14904557511603
 20
14.55527650288791
 10
32.20624316232309
 20
14.55287818351108
 10
32.24971154720373
 20
14.55208137573337
 10
32.2688536322397
 20
14.55327663357563
 10
32.29956059636143
 20
14.55447184524219
 10
32.39487195917236
 20
14.55048776017794
 10
32.44926578285957
 20
14.54930589328698
 10
32.48077031849034
 20
14.55249312439783
 10
32.51546532456683
 20
14.55408673995324
 10
32.57368896677417
 20
14.55209472050897
 10
32.61092384623653
 20
14.54850908550927
 10
32.62009610300001
 20
14.54850908550927
 10
32.67752217369831
 20
14.54492345050957
 10
32.72418093681989
 20
14.54532185439843
 10
32.76081657729529
 20
14.54729180186091
 10
32.77558216155944
 20
14.54956119869976
 10
32.80170608616021
 20
14.55126328096067
 10
32.85395384315692
 20
14.55239800246794
 10
32.88973216341371
 20
14.54842647719249
 10
32.91061378418256
 20
14.54737362519089
 10
32.92619648737308
 20
14.54777276789086
 10
32.94177928276839
 20
14.54936947721778
 10
32.9641544368671
 20
14.54936947721778
 10
32.9853310207871
 20
14.54657529361528
 10
33.02049202991638
 20
14.54497863046404
 10
33.03680038487292
 20
14.54257416971991
 10
33.0531048672279
 20
14.54313585086316
 10
33.08374599712334
 20
14.54032744514687
 10
33.1142333294145
 20
14.53539352605461
 10
33.13939878513244
 20
14.53584249232852
 10
33.19242622590724
 20
14.53853615144492
 10
33.26612524491937
 20
14.5403319241892
 10
33.37193956414906
 20
14.53851403328744
 10
33.48790424864718
 20
14.53397080674311
 10
33.58965759192633
 20
14.52999549506075
 10
33.62870567875576
 20
14.52779799377765
 10
33.65670154518037
 20
14.52380250331695
 10
33.70669406500491
 20
14.52260382847333
 10
33.75708656924634
 20
14.52260382847333
 10
33.80627921244186
 20
14.51980696668056
 10
33.85667171668329
 20
14.51661059278229
 10
33.90654667538944
 20
14.51349775071467
 10
33.94297208892374
 20
14.51501397580675
  0
LWPOLYLINE
  5
F88
330
1F
100
AcDbEntity
  8
CONTEXT
  6
DASHDOT
 48
0.003
100
AcDbPolyline
 90
        2
 70
     0
 43
0.0
 10
33.94346510798256
 20
14.2897670005171
 10
33.94134575495003
 20
14.56155154902967
  0
LWPOLYLINE
  5
F90
330
1F
100
AcDbEntity
  8
CONTEXT
  6
ACAD_ISO02W100
 48
0.003
100
AcDbPolyline
 90
        2
 70
     0
 43
0.0
 10
33.67282567494904
 20
14.26871974973228
 10
33.67299099815317
 20
14.55713650602269
  0
LWPOLYLINE
  5
F91
330
1F
100
AcDbEntity
  8
aOD
100
AcDbPolyline
 90
       62
 70
     0
 43
0.0
 10
32.09999409746736
 20
14.5544796951102
 10
32.11504311928282
 20
14.53542303232314
 10
32.13062978727967
 20
14.51770384851624
 10
32.13869162165201
 20
14.5109922575518
 10
32.14921670722248
 20
14.50249085050762
 10
32.16399667543523
 20
14.48727780632331
 10
32.17944844781155
 20
14.46870898974462
 10
32.19024609076706
 20
14.4554078039996
 10
32.20099514179365
 20
14.44355057838536
 10
32.20928084941731
 20
14.43527289257919
 10
32.22271720930294
 20
14.426100321821
 10
32.25630806291461
 20
14.40865011143233
 10
32.29110255796894
 20
14.39199527737486
 10
32.33812977146626
 20
14.37745339690456
 10
32.38627662783456
 20
14.36313528384796
 10
32.40834086735195
 20
14.35702771713829
 10
32.43165899992729
 20
14.35105452169849
 10
32.44859941877914
 20
14.34766975096821
 10
32.459560909662
 20
14.34747064137517
 10
32.47271475404432
 20
14.35085541210545
 10
32.49297952470964
 20
14.35397088618763
 10
32.50983723585702
 20
14.35325423941492
 10
32.54965016149194
 20
14.35002932893767
 10
32.59520191379994
 20
14.33999618176819
 10
32.63501483943485
 20
14.32602147734875
 10
32.71408773852669
 20
14.29335928481675
 10
32.7454066658976
 20
14.28434283408037
 10
32.78038271220063
 20
14.27746898172679
 10
32.81019833253302
 20
14.26658541679873
 10
32.84746788099972
 20
14.25054647414942
 10
32.93060756494442
 20
14.22133268245418
 10
32.97647779262724
 20
14.20987630804058
 10
33.01604084325758
 20
14.2087306890695
 10
33.05331039172428
 20
14.21388606679076
 10
33.15279494372582
 20
14.22704844839927
 10
33.19981192249047
 20
14.2333494450916
 10
33.24682890125511
 20
14.24136891641626
 10
33.27435101942385
 20
14.24251458156304
 10
33.30015296486744
 20
14.24595148465198
 10
33.34200951766145
 20
14.2562622400945
 10
33.41390657829196
 20
14.28100211496228
 10
33.44486894970618
 20
14.29016725143372
 10
33.4609235570566
 20
14.29074006091925
 10
33.48787225358203
 20
14.28787596731586
 10
33.53650770317881
 20
14.28205316611181
 10
33.57937214662776
 20
14.27848461611893
 10
33.62478798906243
 20
14.27491606612606
 10
33.65795691351511
 20
14.27236707545932
 10
33.67282567494904
 20
14.26871974973228
 10
33.69061557661161
 20
14.26624953479972
 10
33.72378450106429
 20
14.26726914030155
 10
33.77226218825045
 20
14.26981808479259
 10
33.79981786896592
 20
14.27491606612606
 10
33.8135338860061
 20
14.27612300641893
 10
33.81963719824857
 20
14.27504697421889
 10
33.82825364448529
 20
14.27468832760267
 10
33.84656358121269
 20
14.2754056670108
 10
33.85805220692991
 20
14.27755768523519
 10
33.87959336862409
 20
14.28544841872465
 10
33.89574921684353
 20
14.28724174415714
 10
33.91872646827795
 20
14.28939376238154
 10
33.94346510798256
 20
14.2897670005171
  0
LWPOLYLINE
  5
F93
330
1F
100
AcDbEntity
  8
aOD
100
AcDbPolyline
 90
       23
 70
     0
 43
0.0
 10
32.62009610300001
 20
14.54850908550927
 10
32.63062902597837
 20
14.53654745665062
 10
32.64644095029853
 20
14.52146887608759
 10
32.65758122628613
 20
14.50998045574227
 10
32.68381478239257
 20
14.4783872767048
 10
32.70082527689146
 20
14.45922547186224
 10
32.72274641456121
 20
14.43732567923692
 10
32.745814211108
 20
14.41209329441568
 10
32.77061029440222
 20
14.39450160170023
 10
32.80762471219082
 20
14.37188377703136
 10
32.85613872806768
 20
14.34244469412452
 10
32.89719199265514
 20
14.32549087244764
 10
32.94354989151844
 20
14.312925404037
 10
32.99756973254199
 20
14.29702521934851
 10
33.05291160596977
 20
14.27943357280876
 10
33.08237942980134
 20
14.27225329854902
 10
33.12837791435919
 20
14.26866318450699
 10
33.19521938587522
 20
14.2647140082675
 10
33.26444112427052
 20
14.26431952931264
 10
33.32803274545044
 20
14.26967623306026
 10
33.36110983392359
 20
14.27508996379011
 10
33.38985892134905
 20
14.27868007783213
 10
33.41390657829196
 20
14.28100211496228
  0
TEXT
  5
F9C
330
1F
100
AcDbEntity
  8
Annotatons
100
AcDbText
 10
32.46457049847496
 20
14.16188036543496
 30
0.0
 40
0.05
  1
[3703]
  7
Text
 72
     1
 11
32.56167145345449
 21
14.14295130677193
 31
0.0
100
AcDbText
 73
     1
  0
LWPOLYLINE
  5
F9D
330
1F
100
AcDbEntity
  8
aOD
100
AcDbPolyline
 90
        2
 70
     0
 43
0.0
 10
32.49297952470964
 20
14.35397088618763
 10
32.55804827665831
 20
14.2224240423598
  0
TEXT
  5
FA5
330
1F
100
AcDbEntity
  8
Annotatons
100
AcDbText
 10
32.19428425364615
 20
14.47635919141854
 30
0.0
 40
0.05
  1
(3704)
  7
Text
 72
     1
 11
32.2952392331823
 21
14.45743013275551
 31
0.0
100
AcDbText
 73
     1
  0
TEXT
  5
FAD
330
1F
100
AcDbEntity
  8
Annotatons
100
AcDbText
 10
33.28266139944739
 20
14.39820373535131
 30
0.0
 40
0.05
  1
(3706)
  7
Text
 72
     1
 11
33.38361637898355
 21
14.37927467668828
 31
0.0
100
AcDbText
 73
     1
  0
TEXT
  5
FB6
330
1F
100
AcDbEntity
  8
Annotatons
100
AcDbText
 10
33.58107158316623
 20
14.08043770787913
 30
0.0
 40
0.05
  1
[3705]
  7
Text
 72
     1
 11
33.67817253814577
 21
14.0615086492161
 31
0.0
100
AcDbText
 73
     1
  0
LWPOLYLINE
  5
FB7
330
1F
100
AcDbEntity
  8
aOD
100
AcDbPolyline
 90
        2
 70
     0
 43
0.0
 10
33.62478798906243
 20
14.27491606612606
 10
33.67454936134959
 20
14.14098138480396
  0
LWPOLYLINE
  5
FB8
330
1F
100
AcDbEntity
  8
aOD
100
AcDbPolyline
 90
       34
 70
     0
 43
0.0
 10
32.5826311725648
 20
14.48012713068349
 10
32.56915193744776
 20
14.48951257139156
 10
32.56220817846484
 20
14.49318515522329
 10
32.55689819631067
 20
14.49522542826792
 10
32.54872894334781
 20
14.49522542826792
 10
32.54341896119362
 20
14.49644963827039
 10
32.5344328659188
 20
14.49726574748824
 10
32.52095363080176
 20
14.50053027671104
 10
32.51319293730208
 20
14.50053027671104
 10
32.51033366649339
 20
14.50216249514674
 10
32.5054321515976
 20
14.50461086897599
 10
32.49236147594374
 20
14.50461086897599
 10
32.48868527061829
 20
14.50257059593137
 10
32.4862345592728
 20
14.49930606670857
 10
32.4862345592728
 20
14.49522542826792
 10
32.48664302653118
 20
14.48747225217124
 10
32.48909373787667
 20
14.48379971451521
 10
32.49848839261469
 20
14.47074168997542
 10
32.52013678848979
 20
14.45115469934142
 10
32.52748901473109
 20
14.44503374168044
 10
32.53279899688526
 20
14.44380957785366
 10
32.53810897903945
 20
14.44054504863087
 10
32.54627823200231
 20
14.43401603636097
 10
32.55281352372684
 20
14.43156766253172
 10
32.56915193744776
 20
14.43156766253172
 10
32.57405345234356
 20
14.43360798175205
 10
32.58467341665192
 20
14.44258536785119
 10
32.59529338096029
 20
14.44748211550969
 10
32.60060336311446
 20
14.45033854394787
 10
32.60223723214798
 20
14.45401112777959
 10
32.60223723214798
 20
14.45890787543809
 10
32.59937805354411
 20
14.46462073231444
 10
32.58915466207509
 20
14.47484726329089
 10
32.5826311725648
 20
14.48012713068349
  0
LWPOLYLINE
  5
FB9
330
1F
100
AcDbEntity
  8
aOD
100
AcDbPolyline
 90
       34
 70
     0
 43
0.0
 10
32.65833647215501
 20
14.41091739163271
 10
32.64870328231581
 20
14.41762487401435
 10
32.64374079387346
 20
14.42024955538122
 10
32.63994591488442
 20
14.42170767502911
 10
32.63410760403426
 20
14.42170767502911
 10
32.63031272504521
 20
14.42258257981818
 10
32.62389064241634
 20
14.42316582767734
 10
32.61425745257714
 20
14.42549888511463
 10
32.60871112646018
 20
14.42549888511463
 10
32.60666769459905
 20
14.42666538083294
 10
32.60316473444732
 20
14.42841515741075
 10
32.59382352934131
 20
14.42841515741075
 10
32.59119625980559
 20
14.42695703776286
 10
32.58944481267767
 20
14.42462398032556
 10
32.58944481267767
 20
14.42170767502911
 10
32.58973673151498
 20
14.41616672136612
 10
32.59148817864289
 20
14.41354207299958
 10
32.59820224600497
 20
14.40420990925108
 10
32.61367368079843
 20
14.39021169662865
 10
32.61892808807809
 20
14.38583723868397
 10
32.62272296706713
 20
14.38496236689523
 10
32.62651784605617
 20
14.38262930945794
 10
32.63235615690634
 20
14.37796322758369
 10
32.63702672651139
 20
14.37621345100588
 10
32.64870328231581
 20
14.37621345100588
 10
32.65220624246756
 20
14.37767160365411
 10
32.65979600044564
 20
14.38408746210617
 10
32.66738575842372
 20
14.38758701526177
 10
32.67118063741276
 20
14.38962841576916
 10
32.67234831276197
 20
14.39225309713603
 10
32.67234831276197
 20
14.39575265029164
 10
32.67030494679675
 20
14.3998354513064
 10
32.66299860708486
 20
14.40714403472654
 10
32.65833647215501
 20
14.41091739163271
  0
LWPOLYLINE
  5
FBA
330
1F
100
AcDbEntity
  8
aOD
100
AcDbPolyline
 90
       15
 70
     0
 43
0.0
 10
32.50331844879146
 20
14.42761825541375
 10
32.49604109284674
 20
14.43561551622955
 10
32.4898553495142
 20
14.43852361526944
 10
32.48585283140605
 20
14.43925065157334
 10
32.47784770298493
 20
14.43888715650923
 10
32.47202579978818
 20
14.43706958883734
 10
32.46802328168003
 20
14.43379794855765
 10
32.46802328168003
 20
14.43016281321385
 10
32.47129811951659
 20
14.42398312006996
 10
32.48330576604587
 20
14.41707634444648
 10
32.49494948023455
 20
14.41416824540659
 10
32.50259067631508
 20
14.41489528171049
 10
32.50550158181105
 20
14.41925745335817
 10
32.50441006140366
 20
14.42434661513406
 10
32.50331844879146
 20
14.42761825541375
  0
LWPOLYLINE
  5
FBB
330
1F
100
AcDbEntity
  8
aOD
100
AcDbPolyline
 90
       15
 70
     0
 43
0.0
 10
32.46691138401211
 20
14.45527758854218
 10
32.45963402806738
 20
14.46327484935797
 10
32.45344828473485
 20
14.46618294839787
 10
32.4494457666267
 20
14.46690998470176
 10
32.44144063820558
 20
14.46654648963766
 10
32.43561873500883
 20
14.46472892196577
 10
32.43161621690068
 20
14.46145728168607
 10
32.43161621690068
 20
14.45782214634228
 10
32.43489105473724
 20
14.45164245319839
 10
32.44689870126652
 20
14.4447356775749
 10
32.4585424154552
 20
14.44182757853501
 10
32.46618361153573
 20
14.44255461483891
 10
32.46909451703169
 20
14.4469167864866
 10
32.46800299662431
 20
14.45200594826249
 10
32.46691138401211
 20
14.45527758854218
  0
LWPOLYLINE
  5
FBC
330
1F
100
AcDbEntity
  8
aOD
100
AcDbPolyline
 90
       15
 70
     0
 43
0.0
 10
32.43491143199776
 20
14.43343445349355
 10
32.42763407605304
 20
14.44143171430934
 10
32.4214483327205
 20
14.44433981334923
 10
32.41744581461235
 20
14.44506684965313
 10
32.40944068619123
 20
14.44470335458902
 10
32.40361878299449
 20
14.44288578691713
 10
32.39961626488633
 20
14.43961414663744
 10
32.39961626488633
 20
14.43597901129365
 10
32.40289110272289
 20
14.42979931814975
 10
32.41489874925217
 20
14.42289254252627
 10
32.42654246344085
 20
14.41998444348638
 10
32.43418365952138
 20
14.42071147979028
 10
32.43709456501735
 20
14.42507365143796
 10
32.43600304460996
 20
14.43016281321385
 10
32.43491143199776
 20
14.43343445349355
  0
LWPOLYLINE
  5
FBD
330
1F
100
AcDbEntity
  8
aOD
100
AcDbPolyline
 90
       15
 70
     0
 43
0.0
 10
32.48112254082149
 20
14.4021723541829
 10
32.47384518487677
 20
14.41016961499869
 10
32.46765944154423
 20
14.41307771403859
 10
32.46365692343608
 20
14.41380475034249
 10
32.45565179501496
 20
14.41344125527838
 10
32.44982989181821
 20
14.41162368760649
 10
32.44582737371006
 20
14.40835204732679
 10
32.44582737371006
 20
14.404716911983
 10
32.44910221154662
 20
14.39853721883911
 10
32.4611098580759
 20
14.39163044321563
 10
32.47275357226458
 20
14.38872234417573
 10
32.48039476834511
 20
14.38944938047963
 10
32.48330567384107
 20
14.39381155212732
 10
32.48221415343369
 20
14.39890071390321
 10
32.48112254082149
 20
14.4021723541829
  0
LWPOLYLINE
  5
FBE
330
1F
100
AcDbEntity
  8
aOD
100
AcDbPolyline
 90
       15
 70
     0
 43
0.0
 10
32.52696980950942
 20
14.39853721883911
 10
32.5196924535647
 20
14.4065344796549
 10
32.51350671023216
 20
14.40944257869479
 10
32.50950419212401
 20
14.41016961499869
 10
32.50149906370289
 20
14.40980611993459
 10
32.49567716050615
 20
14.40798855226269
 10
32.491674642398
 20
14.404716911983
 10
32.491674642398
 20
14.40108177663921
 10
32.49494948023455
 20
14.39490208349532
 10
32.50695712676384
 20
14.38799530787183
 10
32.51860084095252
 20
14.38508720883194
 10
32.52624203703304
 20
14.38581424513584
 10
32.52915294252901
 20
14.39017641678353
 10
32.52806142212162
 20
14.39526557855942
 10
32.52696980950942
 20
14.39853721883911
  0
LWPOLYLINE
  5
FBF
330
1F
100
AcDbEntity
  8
aOD
100
AcDbPolyline
 90
       22
 70
     0
 43
0.0
 10
32.68755589989634
 20
14.42414478117507
 10
32.67232117761624
 20
14.44357440504352
 10
32.6544933797814
 20
14.46008960380198
 10
32.65027952827454
 20
14.46235636862626
 10
32.64736226064745
 20
14.46235636862626
 10
32.64444490081557
 20
14.4613848781977
 10
32.64412080094803
 20
14.45555602797772
 10
32.64282421706827
 20
14.43871699907641
 10
32.64185182526083
 20
14.42641159217505
 10
32.63994591488442
 20
14.42170767502911
 10
32.64374079387346
 20
14.42024955538122
 10
32.64870328231581
 20
14.41762487401435
 10
32.65315622579018
 20
14.41733788357797
 10
32.6603835145292
 20
14.41543364412821
 10
32.66602239120046
 20
14.41265663788392
 10
32.66946992862505
 20
14.41039379799364
 10
32.67616759300014
 20
14.40938001062926
 10
32.68469192664291
 20
14.40978552557502
 10
32.68814232241627
 20
14.41161038900658
 10
32.69098370549399
 20
14.41444908597821
 10
32.69138968322281
 20
14.41789605536847
 10
32.68755589989634
 20
14.42414478117507
  0
LWPOLYLINE
  5
FC0
330
1F
100
AcDbEntity
  8
aOD
100
AcDbPolyline
 90
       22
 70
     0
 43
0.0
 10
32.72599442080136
 20
14.34469409688782
 10
32.71075969852126
 20
14.36412372075627
 10
32.69293190068642
 20
14.38063891951472
 10
32.68871804917956
 20
14.38290568433901
 10
32.68580078155247
 20
14.38290568433901
 10
32.68288342172059
 20
14.38193419391045
 10
32.68255932185305
 20
14.37610534369047
 10
32.68126273797328
 20
14.35926631478915
 10
32.68029034616585
 20
14.3469609078878
 10
32.67838443578944
 20
14.34225699074186
 10
32.68217931477847
 20
14.34079887109396
 10
32.68714180322083
 20
14.33817418972709
 10
32.6915947466952
 20
14.33788719929072
 10
32.69882203543422
 20
14.33598295984096
 10
32.70446091210547
 20
14.33320595359667
 10
32.70790844953007
 20
14.33094311370639
 10
32.71460611390516
 20
14.32992932634201
 10
32.72313044754793
 20
14.33033484128777
 10
32.72658084332129
 20
14.33215970471933
 10
32.72942222639901
 20
14.33499840169096
 10
32.72982820412783
 20
14.33844537108122
 10
32.72599442080136
 20
14.34469409688782
  0
LWPOLYLINE
  5
FC1
330
1F
100
AcDbEntity
  8
aOD
100
AcDbPolyline
 90
       22
 70
     0
 43
0.0
 10
32.74398209904616
 20
14.32562207742092
 10
32.76725857377316
 20
14.33385692841556
 10
32.78860093508221
 20
14.34547956922673
 10
32.79209431673366
 20
14.34874928663467
 10
32.79302562341868
 20
14.35151390564396
 10
32.79303630320946
 20
14.35458875002759
 10
32.78761591818878
 20
14.3567566895652
 10
32.77207192704362
 20
14.36336110955303
 10
32.7607208372299
 20
14.36821099046661
 10
32.7568714983551
 20
14.37151884794626
 10
32.75427820132693
 20
14.36838802856906
 10
32.75020663704856
 20
14.36452310836999
 10
32.7485131087635
 20
14.36039478776176
 10
32.74440127521526
 20
14.35415358152653
 10
32.73996942684051
 20
14.34969629381115
 10
32.73672440237374
 20
14.34715153942751
 10
32.73362550416449
 20
14.34112797712682
 10
32.73128849726256
 20
14.33292023047107
 10
32.73191637091582
 20
14.3290678114632
 10
32.73369944919979
 20
14.32546888243857
 10
32.73683644878219
 20
14.32398373951153
 10
32.74398209904616
 20
14.32562207742092
  0
LWPOLYLINE
  5
FCB
330
1F
100
AcDbEntity
  8
Section point
 62
     5
100
AcDbPolyline
 90
        5
 70
     0
 43
0.0
 10
31.79521364776978
 20
14.64384736581638
 10
31.79521364776978
 20
14.60384736580823
 10
31.83521364774883
 20
14.60384736580823
 10
31.81521364778841
 20
14.60384736580823
 10
31.81521364778841
 20
14.60384736580823
  0
IMAGE
  5
FD9
330
1F
100
AcDbEntity
  8
aOD
160
               140
310
8C0000000100000084000000060000000500000026441E92ED584140606B7587071225400000000000000000DE3D78D1FD8B4540606B7587071225400000000000000000DE3D78D1FD8B4540055A7D9C46793040000000000000000026441E92ED584140055A7D9C46793040000000000000000026441E92ED584140606B75
310
87071225400000000000000000
100
AcDbRasterImage
 90
        0
 10
34.6947500846657
 20
10.53521369274466
 30
0.0
 11
0.001693333333333333
 21
0.0
 31
0.0
 12
1.036833379569613E-19
 22
0.001693333333333333
 32
0.0
 13
4960.0
 23
3507.0
340
FD7
 70
     7
280
     0
281
    50
282
    50
283
     0
360
FD8
 71
     1
 91
        2
 14
-0.5
 24
-0.5
 14
4959.5
 24
3506.5
290
     0
  0
LWPOLYLINE
  5
FE3
330
1F
100
AcDbEntity
  8
Section point
 62
     5
100
AcDbPolyline
 90
        9
 70
     0
 43
0.0
 10
34.84189136986677
 20
15.20123397639488
 10
34.92189136982486
 20
15.20123397639488
 10
34.88189136984582
 20
15.20123397639488
 10
34.88189136984582
 20
15.16123397638673
 10
34.88189136984582
 20
15.24123397640303
 10
34.88189136984582
 20
15.20123397639488
 10
34.92189136982486
 20
15.20123397639488
 10
34.90189136986444
 20
15.20123397639488
 10
34.90189136986444
 20
15.20123397639488
  0
CIRCLE
  5
FE4
330
1F
100
AcDbEntity
  8
Section point
 62
     5
100
AcDbCircle
 10
34.88189136984582
 20
15.20123397639488
 30
0.0
 40
0.0200000000000102
  0
TEXT
  5
FE5
330
1F
100
AcDbEntity
  8
Annotatons
100
AcDbText
 10
34.7768042323397
 20
15.25931049322555
 30
0.0
 40
0.05
  1
NW
  7
Text
 72
     2
 11
34.89317531010232
 21
15.24038143456252
 31
0.0
100
AcDbText
 73
     1
  0
LWPOLYLINE
  5
FE6
330
1F
100
AcDbEntity
  8
Section point
 62
     5
100
AcDbPolyline
 90
        9
 70
     0
 43
0.0
 10
39.5294761670793
 20
15.21255777151908
 10
39.60947616703739
 20
15.21255777151908
 10
39.56947616705834
 20
15.21255777151908
 10
39.56947616705834
 20
15.17255777151093
 10
39.56947616705834
 20
15.25255777152723
 10
39.56947616705834
 20
15.21255777151908
 10
39.60947616703739
 20
15.21255777151908
 10
39.58947616707697
 20
15.21255777151908
 10
39.58947616707697
 20
15.21255777151908
  0
CIRCLE
  5
FE7
330
1F
100
AcDbEntity
  8
Section point
 62
     5
100
AcDbCircle
 10
39.56947616705834
 20
15.21255777151908
 30
0.0
 40
0.0200000000000102
  0
TEXT
  5
FE8
330
1F
100
AcDbEntity
  8
Annotatons
100
AcDbText
 10
39.58427340923067
 20
15.2729570193444
 30
0.0
 40
0.05
  1
SE
  7
Text
 72
     2
 11
39.67745212682958
 21
15.25402796068137
 31
0.0
100
AcDbText
 73
     1
  0
LWPOLYLINE
  5
FEA
330
1F
100
AcDbEntity
  8
aOD
 62
     1
100
AcDbPolyline
 90
        6
 70
     0
 43
0.0
 10
39.64558025280473
 20
15.21150268530089
 10
39.72558025282103
 20
15.21150268530089
 10
39.68558025278378
 20
15.21150268530089
 10
39.64558025280473
 20
15.17150268529274
 10
39.68558025278378
 20
15.21150268530089
 10
39.72558025282103
 20
15.17150268529274
  0
TEXT
  5
FEB
330
1F
100
AcDbEntity
  8
aOD
 62
     1
100
AcDbText
 10
39.63327899735766
 20
15.21669573084593
 30
0.0
 40
0.025
  1
104.15
  7
Text
 72
     1
 11
39.68672991520486
 21
15.20722823913291
 31
0.0
100
AcDbText
 73
     1
  0
LWPOLYLINE
  5
FF3
330
1F
100
AcDbEntity
  8
CONTEXT
  6
DASHDOT
 48
0.003
100
AcDbPolyline
 90
        5
 70
     0
 43
0.0
 10
38.20888104206929
 20
14.40170196238692
 10
38.85362346602236
 20
14.40549940529554
 10
38.85499021775395
 20
15.0261120472945
 10
39.56973185096523
 20
15.0394534982448
 10
39.56971642703015
 20
15.16692159440008
  0
LWPOLYLINE
  5
FF4
330
1F
100
AcDbEntity
  8
aOD
100
AcDbPolyline
 90
       30
 70
     0
 43
0.0
 10
34.88340018082349
 20
15.36207319145288
 10
35.06327311778037
 20
15.38480608595148
 10
35.22563110778451
 20
15.40172818492651
 10
35.52786866431951
 20
15.42973097286779
 10
35.78745163552746
 20
15.44190611813605
 10
35.83376223332903
 20
15.44312363266287
 10
35.85569886140497
 20
15.44677617624335
 10
35.89276970853039
 20
15.45074322247646
 10
35.92103757911127
 20
15.4540042885222
 10
35.98071870257216
 20
15.45411076967284
 10
36.00132638288397
 20
15.45627788734921
 10
36.06978438893138
 20
15.46615837767393
 10
36.13147963401578
 20
15.47253122374632
 10
36.26380218744735
 20
15.48228320711431
 10
36.46654504945295
 20
15.49200706948458
 10
36.60554470558949
 20
15.49586444844417
 10
36.68855834557434
 20
15.49779311483611
 10
36.83924892475653
 20
15.49154143378509
 10
36.96757089638071
 20
15.4961750723385
 10
37.54932269003199
 20
15.51006375143979
 10
38.0069528094605
 20
15.52859825947775
 10
38.78291105264594
 20
15.53553551105935
 10
38.8885184643073
 20
15.5374892970289
 10
39.01954987394222
 20
15.54725827305232
 10
39.1056003711781
 20
15.5589809888696
 10
39.19165086841399
 20
15.56679617892348
 10
39.29725828007533
 20
15.56679617892348
 10
39.42046694238103
 20
15.56288856080869
 10
39.56909960266032
 20
15.55702720290005
 10
39.64928301634808
 20
15.5589809888696
  0
LWPOLYLINE
  5
FF5
330
1F
100
AcDbEntity
  8
aOD
100
AcDbPolyline
 90
       38
 70
     0
 43
0.0
 10
34.86783933017027
 20
15.08309100680908
 10
34.90321139608385
 20
15.08309100680908
 10
34.99010372313217
 20
15.1007598129337
 10
35.05045554429903
 20
15.11139084299063
 10
35.13905642626784
 20
15.12209044395332
 10
35.27049722520914
 20
15.13278999874031
 10
35.42530530188351
 20
15.14446224452392
 10
35.63561061707151
 20
15.17364288207078
 10
35.73881600152107
 20
15.19309665582725
 10
35.81147992946265
 20
15.20785228358562
 10
35.85431984643513
 20
15.21466107438619
 10
35.91468531391222
 20
15.22049722036584
 10
35.99939164959218
 20
15.23314215714605
 10
36.05002065914236
 20
15.23703292113247
 10
36.16903907436968
 20
15.23891869030459
 10
36.26250809309715
 20
15.23794599930798
 10
36.35013529239134
 20
15.23794599930798
 10
36.4942334128738
 20
15.24572748110515
 10
36.68188981791565
 20
15.25681929841368
 10
36.86555126564284
 20
15.26614891270757
 10
37.12236587997366
 20
15.26770383303132
 10
37.30135789228346
 20
15.27547852700145
 10
37.51614832549618
 20
15.2770334473252
 10
37.69936875767102
 20
15.27388057093079
 10
37.90015116124599
 20
15.2676607972844
 10
37.94419462745631
 20
15.26959403507006
 10
37.96653723326108
 20
15.27344245594499
 10
38.00891105497597
 20
15.28036959504958
 10
38.22694359332171
 20
15.29653293501885
 10
38.38332680457282
 20
15.29930195286806
 10
38.60761211913976
 20
15.29054935004788
 10
38.71975482252564
 20
15.27829565992393
 10
38.88972109149715
 20
15.28354722161604
 10
39.17007780385944
 20
15.29580091173999
 10
39.35939841331361
 20
15.29324771908509
 10
39.47528103554086
 20
15.28462657846607
 10
39.55294698160884
 20
15.27354219544429
 10
39.57513731118849
 20
15.27292641947537
  0
LWPOLYLINE
  5
FF6
330
1F
100
AcDbEntity
  8
aOD
100
AcDbPolyline
 90
       53
 70
     0
 43
0.0
 10
34.90321139608385
 20
15.08309100680908
 10
34.91735376811337
 20
15.06881024988903
 10
34.94333016503616
 20
15.04945321421174
 10
34.96029234422051
 20
15.03900494755213
 10
34.98749866095358
 20
15.02541502519178
 10
35.00294379458438
 20
15.01637368575628
 10
35.01317861944844
 20
15.01099218566092
 10
35.02449085738569
 20
15.00130544854873
 10
35.05408610824911
 20
14.98534680543148
 10
35.07542331292849
 20
14.97228185453756
 10
35.10020206172055
 20
14.96127984895409
 10
35.15113608474493
 20
14.95715405068459
 10
35.2254722389163
 20
14.95784169912141
 10
35.26814664827506
 20
14.9537159470276
 10
35.30187331955527
 20
14.94752729579906
 10
35.39892329605109
 20
14.90626959015826
 10
35.48664777140796
 20
14.87236656437389
 10
35.60159340847049
 20
14.82629550437817
 10
35.70002000261138
 20
14.80497904929665
 10
35.77366784796021
 20
14.80085329720285
 10
35.878748678016
 20
14.80081326287605
 10
35.9563117235286
 20
14.79932515878168
 10
36.01127518846236
 20
14.79313812370243
 10
36.04146635894
 20
14.7823108469455
 10
36.07397989168329
 20
14.7552425627018
 10
36.13458140344513
 20
14.66679001919751
 10
36.16786917988337
 20
14.60105282342807
 10
36.19186723064456
 20
14.57398458536005
 10
36.21818773587621
 20
14.55774362404897
 10
36.27082874633953
 20
14.55078319226892
 10
36.40397948327332
 20
14.5531033361956
 10
36.52087349993785
 20
14.56470400965332
 10
36.63517840585399
 20
14.56850828656467
 10
36.72342955502121
 20
14.57546867216902
 10
36.81787363949526
 20
14.58706934562674
 10
36.88444910016696
 20
14.59789666855936
 10
36.93089699091384
 20
14.59867006526016
 10
37.03965043030792
 20
14.59944341578526
 10
37.08377605099392
 20
14.60021681248605
 10
37.26182646789907
 20
14.61104408924298
 10
37.39342899405734
 20
14.61104408924298
 10
37.44487798088265
 20
14.60420182106418
 10
37.53893001055249
 20
14.59183860219378
 10
37.66268268117072
 20
14.57947538332339
 10
37.79262303142225
 20
14.56711216445299
 10
37.85449936673136
 20
14.55845791586129
 10
37.93741370214796
 20
14.5337314781205
 10
38.00300266367802
 20
14.50282340785667
 10
38.03820949859228
 20
14.47827774795835
 10
38.0904496947955
 20
14.4574019937015
 10
38.1357246482977
 20
14.43217708934269
 10
38.18244214587607
 20
14.40838012214882
 10
38.20888104206929
 20
14.40170196238692
  0
LWPOLYLINE
  5
FF7
330
1F
100
AcDbEntity
  8
aOD
100
AcDbPolyline
 90
       25
 70
     0
 43
0.0
 10
35.63561061707151
 20
15.17364288207078
 10
35.66378609844405
 20
15.1499989873029
 10
35.79936680064361
 20
15.0623442674416
 10
35.97105757596582
 20
14.98006864653956
 10
36.11622711620953
 20
14.92568309870946
 10
36.25860487955723
 20
14.8991875315999
 10
36.42750406239301
 20
14.89221504796369
 10
36.58802800674557
 20
14.88245355240271
 10
36.81366688775792
 20
14.8655155689889
 10
37.04956733302595
 20
14.8501760495784
 10
37.11517279921497
 20
14.85157055554078
 10
37.18636163478642
 20
14.85575407342792
 10
37.25238063949776
 20
14.85292922916453
 10
37.32636125196522
 20
14.83898421571641
 10
37.50223969263143
 20
14.83340619186688
 10
37.64740914067035
 20
14.84316768742786
 10
37.79676625405327
 20
14.86408523068788
 10
37.86655929338151
 20
14.88918629183506
 10
37.93635233270976
 20
14.92962682621705
 10
38.014929815418
 20
15.00119559657242
 10
38.09868146261191
 20
15.08068220554969
 10
38.16289104035293
 20
15.15459079067745
 10
38.19918340236265
 20
15.21315990257039
 10
38.22291304495474
 20
15.28149046384861
 10
38.22694359332171
 20
15.29653293501885
  0
LWPOLYLINE
  5
FF8
330
1F
100
AcDbEntity
  8
aOD
100
AcDbPolyline
 90
       18
 70
     0
 43
0.0
 10
36.25860487955723
 20
14.8991875315999
 10
36.29207356181058
 20
14.87561280802181
 10
36.32629896884713
 20
14.86395644667699
 10
36.38385984296119
 20
14.84375199466123
 10
36.44253722498308
 20
14.82579745334141
 10
36.50632100096357
 20
14.81414104582088
 10
36.57943894533409
 20
14.8001533660314
 10
36.63622197976605
 20
14.79005114002352
 10
36.74667678210633
 20
14.77373218796507
 10
36.90181624282734
 20
14.75339484230164
 10
37.06098044301299
 20
14.73476096416994
 10
37.17164934489594
 20
14.71240024576593
 10
37.31962237204509
 20
14.67140569540591
 10
37.44880249373108
 20
14.64357020200442
 10
37.51616612102234
 20
14.63308217807219
 10
37.58352984051838
 20
14.63046018363305
 10
37.62989695986157
 20
14.63745219958787
 10
37.66077929751049
 20
14.64351728465896
  0
LWPOLYLINE
  5
FF9
330
1F
100
AcDbEntity
  8
aOD
100
AcDbPolyline
 90
        9
 70
     0
 43
0.0
 10
37.25238063949776
 20
14.85292922916453
 10
37.30814010845899
 20
14.82010588346004
 10
37.40183917815929
 20
14.7719897481475
 10
37.51480342630187
 20
14.71337547642571
 10
37.66077929751049
 20
14.64351728465896
 10
37.71748690841707
 20
14.61252692930821
 10
37.77615829712707
 20
14.5880314162137
 10
37.83304054392245
 20
14.56565790714242
 10
37.85449936673136
 20
14.55845791586129
  0
LWPOLYLINE
  5
FFA
330
1F
100
AcDbEntity
  8
aOD
100
AcDbPolyline
 90
        6
 70
     0
 43
0.0
 10
36.05539485534619
 20
14.77071504458262
 10
36.02612329602138
 20
14.80777969749633
 10
35.9772766974355
 20
14.86535159909909
 10
35.93069280461049
 20
14.92444060313211
 10
35.86957780432451
 20
14.99233429616828
 10
35.78120204288361
 20
15.07408802394212
  0
LWPOLYLINE
  5
FFB
330
1F
100
AcDbEntity
  8
aOD
100
AcDbPolyline
 90
       12
 70
     0
 43
0.0
 10
38.71975482252564
 20
15.27829565992393
 10
38.73816931949482
 20
15.2364077945855
 10
38.76119258112381
 20
15.18502278953492
 10
38.78715505512199
 20
15.13021214826475
 10
38.80136095625784
 20
15.08763598802979
 10
38.81126052447371
 20
15.05166946282665
 10
38.81860841708946
 20
15.01692340739476
 10
38.82497654151389
 20
14.99783756156903
 10
38.83232443412965
 20
14.98364550815737
 10
38.84016211863626
 20
14.97581544952999
 10
38.84946945542987
 20
14.97092161094022
 10
38.85485790386778
 20
14.96896408473945
  0
TEXT
  5
1003
330
1F
100
AcDbEntity
  8
Annotatons
100
AcDbText
 10
36.9381287592018
 20
15.04170252897767
 30
0.0
 40
0.05
  1
(3020)
  7
Text
 72
     1
 11
37.03908373873796
 21
15.02277347031464
 31
0.0
100
AcDbText
 73
     1
  0
TEXT
  5
100C
330
1F
100
AcDbEntity
  8
Annotatons
100
AcDbText
 10
37.08264106364014
 20
14.76579232091219
 30
0.0
 40
0.05
  1
(3023)
  7
Text
 72
     1
 11
37.18359604317629
 21
14.74686326224916
 31
0.0
100
AcDbText
 73
     1
  0
TEXT
  5
1014
330
1F
100
AcDbEntity
  8
Annotatons
100
AcDbText
 10
36.39540485952904
 20
14.67596106353292
 30
0.0
 40
0.05
  1
(3022)
  7
Text
 72
     1
 11
36.49635983906519
 21
14.65703200486989
 31
0.0
100
AcDbText
 73
     1
  0
TEXT
  5
101C
330
1F
100
AcDbEntity
  8
Annotatons
100
AcDbText
 10
38.27878266016427
 20
14.73502508651542
 30
0.0
 40
0.05
  1
(3022)
  7
Text
 72
     1
 11
38.37973763970042
 21
14.71609602785239
 31
0.0
100
AcDbText
 73
     1
  0
TEXT
  5
1024
330
1F
100
AcDbEntity
  8
Annotatons
100
AcDbText
 10
39.07996887392119
 20
15.14252212393495
 30
0.0
 40
0.05
  1
(3015)
  7
Text
 72
     1
 11
39.18092385345734
 21
15.12359306527192
 31
0.0
100
AcDbText
 73
     1
  0
TEXT
  5
102D
330
1F
100
AcDbEntity
  8
Annotatons
100
AcDbText
 10
35.70887462373626
 20
14.59669175737216
 30
0.0
 40
0.05
  1
[3017]
  7
Text
 72
     1
 11
35.8059755787158
 21
14.57776269870913
 31
0.0
100
AcDbText
 73
     1
  0
LWPOLYLINE
  5
102E
330
1F
100
AcDbEntity
  8
aOD
100
AcDbPolyline
 90
        2
 70
     0
 43
0.0
 10
35.70002000261138
 20
14.80497904929665
 10
35.80235240191962
 20
14.657235434297
  0
TEXT
  5
1037
330
1F
100
AcDbEntity
  8
Annotatons
100
AcDbText
 10
36.90499104835033
 20
14.38656122671473
 30
0.0
 40
0.05
  1
[3021]
  7
Text
 72
     1
 11
37.00209200332986
 21
14.3676321680517
 31
0.0
100
AcDbText
 73
     1
  0
LWPOLYLINE
  5
1038
330
1F
100
AcDbEntity
  8
aOD
100
AcDbPolyline
 90
        2
 70
     0
 43
0.0
 10
36.93089699091384
 20
14.59867006526016
 10
36.99846882653368
 20
14.44710490363956
  0
TEXT
  5
1041
330
1F
100
AcDbEntity
  8
Annotatons
100
AcDbText
 10
37.8072976194431
 20
14.28722978202749
 30
0.0
 40
0.05
  1
[3024]
  7
Text
 72
     1
 11
37.90439857442264
 21
14.26830072336446
 31
0.0
100
AcDbText
 73
     1
  0
LWPOLYLINE
  5
1042
330
1F
100
AcDbEntity
  8
aOD
100
AcDbPolyline
 90
        2
 70
     0
 43
0.0
 10
38.00300266367802
 20
14.50282340785667
 10
37.92858987742585
 20
14.34777345895233
  0
TEXT
  5
104B
330
1F
100
AcDbEntity
  8
Annotatons
100
AcDbText
 10
38.58623693597636
 20
14.92258064354814
 30
0.0
 40
0.05
  1
[3014]
  7
Text
 72
     1
 11
38.6833378909559
 21
14.90365158488512
 31
0.0
100
AcDbText
 73
     1
  0
LWPOLYLINE
  5
104C
330
1F
100
AcDbEntity
  8
aOD
100
AcDbPolyline
 90
        2
 70
     0
 43
0.0
 10
38.78715505512199
 20
15.13021214826475
 10
38.7075291939591
 20
14.98312432047298
  0
IMAGE
  5
1055
330
1F
100
AcDbEntity
  8
aOD
160
               140
310
8C000000010000008400000006000000050000006A833679EFC245406EB729CB46052540000000000000000074B1AA7AC1F049406EB729CB46052540000000000000000074B1AA7AC1F04940BDD37E297C6B304000000000000000006A833679EFC24540BDD37E297C6B304000000000000000006A833679EFC245406EB729
310
CB460525400000000000000000
100
AcDbRasterImage
 90
        0
 10
43.52293315088066
 20
10.51030573734507
 30
0.0
 11
0.001685074871918548
 21
0.0
 31
0.0
 12
0.0
 22
0.001685074871918548
 32
0.0
 13
4960.0
 23
3507.0
340
1054
 70
     7
280
     0
281
    50
282
    50
283
     0
360
1056
 71
     1
 91
        2
 14
-0.5
 24
-0.5
 14
4959.5
 24
3506.5
290
     0
  0
LWPOLYLINE
  5
1058
330
1F
100
AcDbEntity
  8
CONTEXT
100
AcDbPolyline
 90
       35
 70
     0
 43
0.0
 10
43.74795916981517
 20
13.15823044399214
 10
43.78995356723131
 20
13.14875478508798
 10
43.85477568837111
 20
13.1485394292038
 10
43.88341802096776
 20
13.14897014097217
 10
43.95857722454845
 20
13.15155441158239
 10
44.00724765437434
 20
13.14897014097217
 10
44.12224769652932
 20
13.15176976746658
 10
44.21334323553972
 20
13.15866115576051
 10
44.26338277285581
 20
13.16171774598532
 10
44.33391182492651
 20
13.15929499228824
 10
44.4833149695801
 20
13.14610444438189
 10
44.58250407273696
 20
13.14699562656864
 10
44.66629097142782
 20
13.14228471660208
 10
44.72820578813111
 20
13.13791030020457
 10
44.75411579294715
 20
13.13555484522129
 10
44.8352107430857
 20
13.12041263461451
 10
44.9065473797221
 20
13.11536523107892
 10
44.9778840163585
 20
13.11031782754332
 10
45.11719235394089
 20
13.1093083468362
 10
45.20198873333888
 20
13.10594341114581
 10
45.31067615613868
 20
13.09584860407462
 10
45.44863851944492
 20
13.08508080986535
 10
45.53276191170482
 20
13.07801444491552
 10
45.60611750975546
 20
13.07027509282761
 10
45.68788544703209
 20
13.05816132434218
 10
45.77907520424182
 20
13.05816132434218
 10
45.87430288428003
 20
13.05244093366851
 10
46.00923680546492
 20
13.05075846582331
 10
46.12600007392166
 20
13.04840301084004
 10
46.22190074109795
 20
13.0463840494258
 10
46.33597206100237
 20
13.03830820376885
 10
46.39317596773911
 20
13.02888638383574
 10
46.48604819279404
 20
13.01542664107415
 10
46.60987782620062
 20
13.00701430184816
 10
46.66607225223024
 20
13.00095741760545
  0
LWPOLYLINE
  5
1059
330
1F
100
AcDbEntity
  8
CONTEXT
100
AcDbPolyline
 90
       24
 70
     0
 43
0.0
 10
43.78800695498395
 20
13.149194020672
 10
43.80155094844704
 20
13.13821765992104
 10
43.86236745014099
 20
13.11478693972167
 10
43.90423263402662
 20
13.09342363601048
 10
43.98434502294358
 20
13.04415020970887
 10
44.02879447743943
 20
13.03812024495168
 10
44.06859224483689
 20
13.03295170373124
 10
44.10304918630654
 20
13.01968578126542
 10
44.18677955407781
 20
12.99987303992037
 10
44.25259231228485
 20
12.98867453394273
 10
44.35075168958586
 20
12.98226706924175
 10
44.46855135823525
 20
12.98205171335757
 10
44.58005186727221
 20
12.98544356853349
 10
44.76332209068436
 20
12.99180256090865
 10
44.85533205096863
 20
12.98933800840103
 10
44.9580217387859
 20
12.96140641331474
 10
45.00983517627798
 20
12.94358276957967
 10
45.12357000261337
 20
12.92372964900634
 10
45.20735690130424
 20
12.92675809112769
 10
45.35003017457703
 20
12.95771549947934
 10
45.43920097037253
 20
12.98026056860499
 10
45.4822721472096
 20
12.99876771490217
 10
45.56875099445278
 20
13.03847395604885
 10
45.63027310669176
 20
13.06669648587408
  0
LWPOLYLINE
  5
105A
330
1F
100
AcDbEntity
  8
CONTEXT
100
AcDbPolyline
 90
       26
 70
     0
 43
0.0
 10
44.23464973995246
 20
12.99430162011975
 10
44.26619601204992
 20
12.97158830420957
 10
44.30363092160558
 20
12.9509780731059
 10
44.34653385165813
 20
12.90260712255645
 10
44.36293791314881
 20
12.87400516918809
 10
44.41930058596294
 20
12.81680126245135
 10
44.43570464745363
 20
12.79703226527027
 10
44.4575767294412
 20
12.76043858963722
 10
44.49585287291946
 20
12.70365529986178
 10
44.52319297540393
 20
12.65738743411883
 10
44.56525467153388
 20
12.61448450406628
 10
44.60184834716694
 20
12.6006041443434
 10
44.64264819241299
 20
12.58924748638831
 10
44.69816963130452
 20
12.58377946589142
 10
44.73686639174408
 20
12.56232800086514
 10
44.74948490058307
 20
12.54213838672277
 10
44.77850747091274
 20
12.48956126656033
 10
44.8071094242811
 20
12.44876142131427
 10
44.84664741864326
 20
12.39786676899703
 10
44.86936073455343
 20
12.37725653789335
 10
44.90679564410909
 20
12.34360718098939
 10
44.9820860801817
 20
12.31164029193063
 10
45.06452700459641
 20
12.28808574209786
 10
45.14822977989501
 20
12.26747551099418
 10
45.26516129513628
 20
12.26663427707158
 10
45.26832096974957
 20
12.26765721752146
  0
LWPOLYLINE
  5
105B
330
1F
100
AcDbEntity
  8
CONTEXT
  6
DASHDOT
 48
0.003
100
AcDbPolyline
 90
        2
 70
     0
 43
0.0
 10
45.24096621476566
 20
12.26680834239799
 10
45.53523566043404
 20
12.27804246060443
  0
LWPOLYLINE
  5
105C
330
1F
100
AcDbEntity
  8
CONTEXT
100
AcDbPolyline
 90
       14
 70
     0
 43
0.0
 10
45.53523566043404
 20
12.27804246060443
 10
45.58058342657415
 20
12.30367380668362
 10
45.65484860880359
 20
12.39568376696789
 10
45.71991279500461
 20
12.5014952212948
 10
45.77314712916908
 20
12.61519324364607
 10
45.83361081735588
 20
12.72889126599735
 10
45.89473171954472
 20
12.8163007282674
 10
45.92299192163204
 20
12.84998294587147
 10
45.95338806922594
 20
12.86887784842984
 10
45.99857153186554
 20
12.87709302345522
 10
46.10947639470819
 20
12.91816889858213
 10
46.20707661729372
 20
12.94326658689167
 10
46.32754131500991
 20
12.99575958366185
 10
46.38608660338748
 20
13.0300540438466
  0
LWPOLYLINE
  5
1075
330
1F
100
AcDbEntity
  8
Section point
 62
     5
100
AcDbPolyline
 90
        9
 70
     0
 43
0.0
 10
43.66229213380016
 20
13.17295322691388
 10
43.74229213375826
 20
13.17295322691388
 10
43.70229213377921
 20
13.17295322691388
 10
43.70229213377921
 20
13.13295322690573
 10
43.70229213377921
 20
13.21295322692203
 10
43.70229213377921
 20
13.17295322691388
 10
43.74229213375826
 20
13.17295322691388
 10
43.72229213379784
 20
13.17295322691388
 10
43.72229213379784
 20
13.17295322691388
  0
CIRCLE
  5
1076
330
1F
100
AcDbEntity
  8
Section point
 62
     5
100
AcDbCircle
 10
43.70229213377921
 20
13.17295322691388
 30
0.0
 40
0.0200000000000102
  0
LWPOLYLINE
  5
108F
330
1F
100
AcDbEntity
  8
Section point
 62
     5
100
AcDbPolyline
 90
        9
 70
     0
 43
0.0
 10
46.59383665906066
 20
13.16897477989428
 10
46.67383665901875
 20
13.16897477989428
 10
46.6338366590397
 20
13.16897477989428
 10
46.6338366590397
 20
13.12897477988614
 10
46.6338366590397
 20
13.20897477990243
 10
46.6338366590397
 20
13.16897477989428
 10
46.67383665901875
 20
13.16897477989428
 10
46.65383665905833
 20
13.16897477989428
 10
46.65383665905833
 20
13.16897477989428
  0
CIRCLE
  5
1090
330
1F
100
AcDbEntity
  8
Section point
 62
     5
100
AcDbCircle
 10
46.6338366590397
 20
13.16897477989428
 30
0.0
 40
0.0200000000000102
  0
TEXT
  5
10A9
330
1F
100
AcDbEntity
  8
Annotatons
100
AcDbText
 10
44.68720228623117
 20
12.21506570560825
 30
0.0
 40
0.05
  1
[3014]
  7
Text
 72
     1
 11
44.78437212705426
 21
12.19613072218221
 31
0.0
100
AcDbText
 73
     1
  0
TEXT
  5
10C2
330
1F
100
AcDbEntity
  8
Annotatons
100
AcDbText
 10
45.0768435645581
 20
12.66356291715016
 30
0.0
 40
0.05
  1
(3015)
  7
Text
 72
     1
 11
45.17786617455904
 21
12.64462793372411
 31
0.0
100
AcDbText
 73
     1
  0
TEXT
  5
10DB
330
1F
100
AcDbEntity
  8
Annotatons
100
AcDbText
 10
44.14889324979557
 20
13.04939386115212
 30
0.0
 40
0.05
  1
(3016)
  7
Text
 72
     1
 11
44.24991585979651
 21
13.03045887772607
 31
0.0
100
AcDbText
 73
     1
  0
CIRCLE
  5
10DC
330
1F
100
AcDbEntity
  8
CONTEXT
100
AcDbCircle
 10
45.29799039185082
 20
12.56664493559977
 30
0.0
 40
0.0421540155350443
  0
CIRCLE
  5
10DD
330
1F
100
AcDbEntity
  8
CONTEXT
100
AcDbCircle
 10
45.29799039185082
 20
12.56664493559977
 30
0.0
 40
0.0258995689086518
  0
TEXT
  5
10F6
330
1F
100
AcDbEntity
  8
Annotatons
100
AcDbText
 10
43.56915266759625
 20
13.23315200201118
 30
0.0
 40
0.05
  1
NW
  7
Text
 72
     2
 11
43.68553631834523
 21
13.21421701858514
 31
0.0
100
AcDbText
 73
     1
  0
TEXT
  5
1126
330
1F
100
AcDbEntity
  8
Annotatons
100
AcDbText
 10
46.64500953703364
 20
13.24515306281526
 30
0.0
 40
0.05
  1
SE
  7
Text
 72
     2
 11
46.73817650078885
 21
13.22621807938922
 31
0.0
100
AcDbText
 73
     1
  0
LWPOLYLINE
  5
1140
330
1F
100
AcDbEntity
  8
aOD
 62
     1
100
AcDbPolyline
 90
        6
 70
     0
 43
0.0
 10
46.72512991467028
 20
13.16878569405284
 10
46.80512991468657
 20
13.16878569405284
 10
46.76512991464932
 20
13.16878569405284
 10
46.72512991467028
 20
13.12878569404469
 10
46.76512991464932
 20
13.16878569405284
 10
46.80512991468657
 20
13.12878569404469
  0
TEXT
  5
1141
330
1F
100
AcDbEntity
  8
aOD
 62
     1
100
AcDbText
 10
46.71282865922321
 20
13.17397873959788
 30
0.0
 40
0.025
  1
104.26
  7
Text
 72
     1
 11
46.76627957707041
 21
13.16451124788486
 31
0.0
100
AcDbText
 73
     1
  0
LWPOLYLINE
  5
1143
330
1F
100
AcDbEntity
  8
Annotatons
100
AcDbPolyline
 90
        2
 70
     0
 43
0.0
 10
44.87578426277913
 20
12.25924766072638
 10
44.95595974340601
 20
12.32273303827115
  0
TEXT
  5
115B
330
1F
100
AcDbEntity
  8
Annotatons
100
AcDbText
 10
31.43085718133647
 20
14.66385972473371
 30
0.0
 40
0.05
  1
SW
  7
Text
 72
     2
 11
31.5433880629076
 21
14.64492474130766
 31
0.0
100
AcDbText
 73
     1
  0
TEXT
  5
1173
330
1F
100
AcDbEntity
  8
Annotatons
100
AcDbText
 10
31.7769109149438
 20
14.66613702916436
 30
0.0
 40
0.05
  1
NE
  7
Text
 72
     2
 11
31.87393064787685
 21
14.64720204573832
 31
0.0
100
AcDbText
 73
     1
  0
ENDSEC
  0
SECTION
  2
OBJECTS
  0
DICTIONARY
  5
C
330
0
100
AcDbDictionary
281
     1
  3
ACAD_CIP_PREVIOUS_PRODUCT_INFO
350
22A
  3
ACAD_COLOR
350
73
  3
ACAD_DETAILVIEWSTYLE
350
122
  3
ACAD_GROUP
350
D
  3
ACAD_IMAGE_DICT
350
23F
  3
ACAD_IMAGE_VARS
350
DC
  3
ACAD_LAYOUT
350
1A
  3
ACAD_MATERIAL
350
72
  3
ACAD_MLEADERSTYLE
350
B5
  3
ACAD_MLINESTYLE
350
17
  3
ACAD_PLOTSETTINGS
350
19
  3
ACAD_PLOTSTYLENAME
350
E
  3
ACAD_SCALELIST
350
B6
  3
ACAD_SECTIONVIEWSTYLE
350
123
  3
ACAD_TABLESTYLE
350
86
  3
ACAD_VISUALSTYLE
350
99
  3
ACDB_RECOMPOSE_DATA
350
1178
  3
AcDbVariableDictionary
350
66
  3
ADE_QUERY_LIBRARY
350
27C
  3
APPDATA
350
E1
  3
ASE_INDEX_DICTIONARY
350
280
  3
Autodesk_MAP
350
22B
  3
DimOffsetDictionary
350
129
1001
ADE
1000
ADE02C004
1000
[Query]
1000
CaseSensitiveMatch=0
1000
SaveCurrQueryInSession=1
1000
MkSelSetWithQryObj=0
1000
ShowBlockAsInsPt=0
1000
CreateAssociativeHatchObjects=0
1000
ReferenceBoundaryForAreaLocation=1
1000
ShowImageAsBoundary=1
1000
DefaultJoinOperator=2
1000
ColorForAdd=red
1000
ColorForRemove=red
1000
BlockLocnForQuery=1
1000
TextLocnForQuery=1
1000
IncludeAllObjectsInGroups=0
1000
AlwaysUseLibraryDefinitions=0
1000
PreviewDefinitionsFrom=2
1000
[Save Back]
1000
RedefineBlockDefinitions=1
1000
RedefineLayerDefinitions=1
1000
RedefineTextStyleDefinitions=1
1000
RemoveUnusedGroups=1
1000
EraseSavedBackObjects=1
1000
RemoveLockAfterSave=1
1000
CreateHistoryFileOfChanges=0
1000
CreateBackupFileOfSourceDwg=1
1000
DontAddObjectsToSaveSet=0
1000
MarkObjectsForEditingWithoutPrompting=0
1000
FdoDontAddObjsToSvSet=0
1000
FdoEditWithoutPrompt=1
1000
FdoRemUnusedGrps=1
1000
FdoEraseSvdBkObjs=1
1000
FdoRemoveLockOnSave=1
1000
FdoTesselationMaxPointsDistance=0
1000
FdoTesselationMaxCurvesDistance=0
1000
[Coordinate Transformation]
1000
RestoreLastActiveDwgsOnStartup=1
1000
ActivateDwgsOnAttach=1
1000
AdjustSizesAndScalesForChangesInUnits=1
1000
AdjustRotationsForMapDistortions=1
1000
AdjustSizesAndScalesForMapDistortions=1
1000
AdjustElevations=1
1000
AdjustZeroRotationObjects=1
1000
ReconnectDbOnWSOpen=1
1000
NoOfSQLConditionsInHistory=10
  0
SUN
  5
ED
330
94
100
AcDbSun
 90
        1
290
     0
 63
     7
421
 16777215
 40
1.0
291
     1
 91
  2455826
 92
 54000000
292
     0
 70
     2
 71
   256
280
     1
1001
ACAD
1000
AcDbSavedByObjectVersion
1070
     0
  0
DICTIONARY
  5
191
330
2
100
AcDbDictionary
280
     1
281
     1
  3
ACAD_LAYERSTATES
360
192
  0
DICTIONARY
  5
23B
330
1F
100
AcDbDictionary
280
     1
281
     1
  3
ACAD_SORTENTS
360
23C
  0
DICTIONARY
  5
2A3
330
29E
100
AcDbDictionary
280
     1
281
     1
  3
ACAD_SORTENTS
360
2A4
  0
DICTIONARY
  5
2C5
330
2C3
100
AcDbDictionary
280
     1
281
     1
  3
ACAD_SORTENTS
360
2C6
  0
DICTIONARY
  5
324
330
320
100
AcDbDictionary
280
     1
281
     1
  3
ACAD_SORTENTS
360
325
  0
DICTIONARY
  5
432
330
430
100
AcDbDictionary
280
     1
281
     1
  3
ACAD_SORTENTS
360
433
  0
DICTIONARY
  5
488
330
485
100
AcDbDictionary
280
     1
281
     1
  3
ACAD_SORTENTS
360
489
  0
DICTIONARY
  5
48F
330
48C
100
AcDbDictionary
280
     1
281
     1
  3
ACAD_SORTENTS
360
490
  0
DICTIONARY
  5
4B2
330
4AF
100
AcDbDictionary
280
     1
281
     1
  3
ACAD_SORTENTS
360
4B3
  0
DICTIONARY
  5
723
330
71F
100
AcDbDictionary
280
     1
281
     1
  3
ACAD_SORTENTS
360
724
  0
DICTIONARY
  5
80B
330
808
100
AcDbDictionary
280
     1
281
     1
  3
ACAD_SORTENTS
360
80C
  0
DICTIONARY
  5
884
330
87C
100
AcDbDictionary
280
     1
281
     1
  3
ACAD_SORTENTS
360
885
  0
DICTIONARY
  5
957
330
954
100
AcDbDictionary
280
     1
281
     1
  3
ACAD_SORTENTS
360
958
  0
DICTIONARY
  5
A52
330
A4F
100
AcDbDictionary
280
     1
281
     1
  3
ACAD_SORTENTS
360
A53
  0
DICTIONARY
  5
A87
330
A84
100
AcDbDictionary
280
     1
281
     1
  3
ACAD_SORTENTS
360
A88
  0
DICTIONARY
  5
BE0
330
BDD
100
AcDbDictionary
280
     1
281
     1
  3
ACAD_SORTENTS
360
BE1
  0
DICTIONARY
  5
D15
330
D12
100
AcDbDictionary
280
     1
281
     1
  3
ACAD_SORTENTS
360
D16
  0
DICTIONARY
  5
D6F
330
D6D
100
AcDbDictionary
280
     1
281
     1
  3
ACAD_SORTENTS
360
D70
  0
DICTIONARY
  5
ED2
330
ECF
100
AcDbDictionary
280
     1
281
     1
  3
ACAD_SORTENTS
360
ED3
  0
DICTIONARY
  5
EF8
330
EF6
100
AcDbDictionary
280
     1
281
     1
  3
ACAD_SORTENTS
360
EF9
  0
DICTIONARY
  5
F60
330
F5B
100
AcDbDictionary
280
     1
281
     1
  3
ACAD_SORTENTS
360
F61
  0
IMAGEDEF_REACTOR
  5
FD8
330
FD9
100
AcDbRasterImageDefReactor
 90
        2
330
FD9
  0
IMAGEDEF_REACTOR
  5
1056
330
1055
100
AcDbRasterImageDefReactor
 90
        2
330
1055
  0
XRECORD
  5
22A
102
{ACAD_REACTORS
330
C
102
}
330
C
100
AcDbXrecord
280
     1
300
MAP
300
2012
300
MAP_F_S
  0
DICTIONARY
  5
73
102
{ACAD_REACTORS
330
C
102
}
330
C
100
AcDbDictionary
281
     1
  0
DICTIONARY
  5
122
102
{ACAD_REACTORS
330
C
102
}
330
C
100
AcDbDictionary
281
     1
  3
Imperial24
350
1E9
  0
DICTIONARY
  5
D
102
{ACAD_REACTORS
330
C
102
}
330
C
100
AcDbDictionary
281
     1
  0
DICTIONARY
  5
23F
102
{ACAD_REACTORS
330
C
102
}
330
C
100
AcDbDictionary
281
     1
  3
admin@archaeologicalresearchservices.com_20200807_105116
350
1054
  3
Sheet_8
350
FD7
  0
RASTERVARIABLES
  5
DC
102
{ACAD_REACTORS
330
C
102
}
330
C
100
AcDbRasterVariables
 90
        0
 70
     1
 71
     1
 72
     3
  0
DICTIONARY
  5
1A
102
{ACAD_REACTORS
330
C
102
}
330
C
100
AcDbDictionary
281
     1
  3
Model
350
22
  3
Sheet1
350
59
  3
Sheet2
350
5E
  0
DICTIONARY
  5
72
102
{ACAD_REACTORS
330
C
102
}
330
C
100
AcDbDictionary
281
     1
  3
ByBlock
350
E2
  3
ByLayer
350
96
  3
Global
350
98
  0
DICTIONARY
  5
B5
102
{ACAD_REACTORS
330
C
102
}
330
C
100
AcDbDictionary
281
     1
  3
Standard
350
124
  0
DICTIONARY
  5
17
102
{ACAD_REACTORS
330
C
102
}
330
C
100
AcDbDictionary
281
     1
  3
Standard
350
18
  0
DICTIONARY
  5
19
102
{ACAD_REACTORS
330
C
102
}
330
C
100
AcDbDictionary
281
     1
  0
ACDBDICTIONARYWDFLT
  5
E
102
{ACAD_REACTORS
330
C
102
}
330
C
100
AcDbDictionary
281
     1
  3
Normal
350
F
100
AcDbDictionaryWithDefault
340
F
  0
DICTIONARY
  5
B6
102
{ACAD_REACTORS
330
C
102
}
330
C
100
AcDbDictionary
281
     1
  3
A0
350
B7
  3
A1
350
B8
  3
A2
350
B9
  3
A3
350
BA
  3
A4
350
BB
  3
A5
350
BC
  3
A6
350
BD
  3
A7
350
BE
  3
A8
350
BF
  3
A9
350
C0
  3
B0
350
C1
  3
B1
350
C2
  3
B2
350
C3
  3
B3
350
C4
  3
B4
350
C5
  3
B5
350
C6
  3
B6
350
C7
  3
B7
350
C8
  3
B8
350
C9
  3
B9
350
CA
  3
C0
350
CB
  3
C1
350
CC
  3
C2
350
CD
  3
C3
350
CE
  3
C4
350
CF
  3
C5
350
D0
  3
C6
350
D1
  3
C7
350
D2
  3
C8
350
D3
  3
C9
350
D4
  3
D0
350
D5
  3
D1
350
D6
  3
D2
350
D7
  0
DICTIONARY
  5
123
102
{ACAD_REACTORS
330
C
102
}
330
C
100
AcDbDictionary
281
     1
  3
Imperial24
350
1E8
  0
DICTIONARY
  5
86
102
{ACAD_REACTORS
330
C
102
}
330
C
100
AcDbDictionary
281
     1
  3
Legend
350
234
  3
Standard
350
87
  0
DICTIONARY
  5
99
102
{ACAD_REACTORS
330
C
102
}
330
C
100
AcDbDictionary
281
     1
  3
2dWireframe
350
9F
  3
3D Hidden
350
A1
  3
3dWireframe
350
A0
  3
Basic
350
9E
  3
Brighten
350
A5
  3
ColorChange
350
A9
  3
Conceptual
350
A2
  3
Dim
350
A4
  3
EdgeColorOff
350
E7
  3
Facepattern
350
A8
  3
Flat
350
9A
  3
FlatWithEdges
350
9B
  3
Gouraud
350
9C
  3
GouraudWithEdges
350
9D
  3
Hidden
350
E4
  3
JitterOff
350
E5
  3
Linepattern
350
A7
  3
OverhangOff
350
E6
  3
Realistic
350
A3
  3
Shaded
350
EC
  3
Shaded with edges
350
EB
  3
Shades of Gray
350
E8
  3
Sketchy
350
E9
  3
Thicken
350
A6
  3
Wireframe
350
E3
  3
X-Ray
350
EA
  0
XRECORD
  5
1178
102
{ACAD_REACTORS
330
C
102
}
330
C
100
AcDbXrecord
280
     1
 90
        1
330
87
330
234
  0
DICTIONARY
  5
66
102
{ACAD_REACTORS
330
C
102
}
330
C
100
AcDbDictionary
281
     1
  3
CANNOSCALE
350
D8
  3
CMLEADERSTYLE
350
128
  3
CTABLESTYLE
350
89
  3
CVIEWDETAILSTYLE
350
223
  3
CVIEWSECTIONSTYLE
350
224
  3
DIMASSOC
350
67
  3
HIDETEXT
350
6B
  3
LIGHTSINBLOCKS
350
DF
  3
XCLIPFRAME
350
E0
  0
DICTIONARY
  5
27C
102
{ACAD_REACTORS
330
C
102
}
330
C
100
AcDbDictionary
281
     1
  3
_CurrQry
350
104D
  0
DICTIONARY
  5
E1
102
{ACAD_REACTORS
330
C
102
}
330
C
100
AcDbDictionary
281
     1
  0
DICTIONARY
  5
280
102
{ACAD_REACTORS
330
C
102
}
330
C
100
AcDbDictionary
281
     1
  3
ASEBlockHierarchyIndexRecord
350
281
1001
DCO15
1040
2008925886.232
  0
DICTIONARY
  5
22B
102
{ACAD_REACTORS
330
C
102
}
330
C
100
AcDbDictionary
281
     1
  3
AcMapDMStylizedEntities
350
23D
  3
FSD_Dictionary
350
230
  3
MAP_DISPLAY_CUSTOMOBJ_REG_TABLE
350
22F
  3
MAP_DISPLAY_MANAGEMENT_DICTIONARY
350
22C
  3
MAP_DISPLAY_STYLELIBRARY_DICTIONARY
350
22D
  3
MAP_RESOURCE_VERSION_MANAGEMENT_DICTIONARY
350
23E
1001
MapGWS
1000
C:\ProgramData\Autodesk\AutoCAD Map 3D 2012\R18.2\MapCache\1C20LOWTT_SHEET_8GWS.xml
  0
DICTIONARY
  5
129
102
{ACAD_REACTORS
330
C
102
}
330
C
100
AcDbDictionary
281
     1
  3
DIMRAILSENABLED
350
12B
  0
DICTIONARY
  5
192
102
{ACAD_REACTORS
330
191
102
}
330
191
100
AcDbDictionary
281
     1
  0
SORTENTSTABLE
  5
23C
102
{ACAD_REACTORS
330
23B
102
}
330
23B
100
AcDbSortentsTable
330
1F
331
0
  5
CD7
  0
SORTENTSTABLE
  5
2A4
102
{ACAD_REACTORS
330
2A3
102
}
330
2A3
100
AcDbSortentsTable
330
29E
  0
SORTENTSTABLE
  5
2C6
102
{ACAD_REACTORS
330
2C5
102
}
330
2C5
100
AcDbSortentsTable
330
2C3
  0
SORTENTSTABLE
  5
325
102
{ACAD_REACTORS
330
324
102
}
330
324
100
AcDbSortentsTable
330
320
  0
SORTENTSTABLE
  5
433
102
{ACAD_REACTORS
330
432
102
}
330
432
100
AcDbSortentsTable
330
430
  0
SORTENTSTABLE
  5
489
102
{ACAD_REACTORS
330
488
102
}
330
488
100
AcDbSortentsTable
330
485
  0
SORTENTSTABLE
  5
490
102
{ACAD_REACTORS
330
48F
102
}
330
48F
100
AcDbSortentsTable
330
48C
  0
SORTENTSTABLE
  5
4B3
102
{ACAD_REACTORS
330
4B2
102
}
330
4B2
100
AcDbSortentsTable
330
4AF
  0
SORTENTSTABLE
  5
724
102
{ACAD_REACTORS
330
723
102
}
330
723
100
AcDbSortentsTable
330
71F
  0
SORTENTSTABLE
  5
80C
102
{ACAD_REACTORS
330
80B
102
}
330
80B
100
AcDbSortentsTable
330
808
  0
SORTENTSTABLE
  5
885
102
{ACAD_REACTORS
330
884
102
}
330
884
100
AcDbSortentsTable
330
87C
  0
SORTENTSTABLE
  5
958
102
{ACAD_REACTORS
330
957
102
}
330
957
100
AcDbSortentsTable
330
954
  0
SORTENTSTABLE
  5
A53
102
{ACAD_REACTORS
330
A52
102
}
330
A52
100
AcDbSortentsTable
330
A4F
  0
SORTENTSTABLE
  5
A88
102
{ACAD_REACTORS
330
A87
102
}
330
A87
100
AcDbSortentsTable
330
A84
  0
SORTENTSTABLE
  5
BE1
102
{ACAD_REACTORS
330
BE0
102
}
330
BE0
100
AcDbSortentsTable
330
BDD
  0
SORTENTSTABLE
  5
D16
102
{ACAD_REACTORS
330
D15
102
}
330
D15
100
AcDbSortentsTable
330
D12
  0
SORTENTSTABLE
  5
D70
102
{ACAD_REACTORS
330
D6F
102
}
330
D6F
100
AcDbSortentsTable
330
D6D
  0
SORTENTSTABLE
  5
ED3
102
{ACAD_REACTORS
330
ED2
102
}
330
ED2
100
AcDbSortentsTable
330
ECF
  0
SORTENTSTABLE
  5
EF9
102
{ACAD_REACTORS
330
EF8
102
}
330
EF8
100
AcDbSortentsTable
330
EF6
  0
SORTENTSTABLE
  5
F61
102
{ACAD_REACTORS
330
F60
102
}
330
F60
100
AcDbSortentsTable
330
F5B
  0
ACDBDETAILVIEWSTYLE
  5
1E9
102
{ACAD_REACTORS
330
122
102
}
102
{ACAD_XDICTIONARY
360
221
102
}
330
122
100
AcDbModelDocViewStyle
 70
     0
  3
Imperial24
290
     0
300
Imperial24
 90
        0
100
AcDbDetailViewStyle
 70
     0
 71
     0
 90
        3
 71
     1
340
11
 62
   256
 40
0.24
340
0
 62
   256
 40
0.24
300

 40
0.36
280
     3
 71
     2
340
16
 90
       25
 62
   256
 71
     3
340
11
 62
   256
 40
0.24
 90
        1
 40
0.75
 90
        1
300
%<\AcVar ViewType \f "%tc1">% %<\AcVar ViewDetailId>%\PSCALE %<\AcVar ViewScale \f "%sn">%
 71
     4
340
16
 90
       25
 62
   256
340
16
 90
       25
 62
   256
280
     0
  0
IMAGEDEF
  5
1054
102
{ACAD_REACTORS
330
23F
330
1056
102
}
330
23F
100
AcDbRasterImageDef
 90
        0
  1
C:/Users/caitlin.tilt/Desktop/admin@archaeologicalresearchservices.com_20200807_105116.tif
 10
4960.0
 20
3507.0
 11
0.08466683600033867
 21
0.08466683600033867
280
     1
281
     3
  0
IMAGEDEF
  5
FD7
102
{ACAD_REACTORS
330
23F
330
FD8
102
}
330
23F
100
AcDbRasterImageDef
 90
        0
  1
C:\Users\user1\Documents\ARS HS2\Scanned drawings\Sheet_8.tif
 10
4960.0
 20
3507.0
 11
0.08466666666666667
 21
0.08466666666666667
280
     1
281
     5
  0
LAYOUT
  5
22
102
{ACAD_REACTORS
330
1A
102
}
330
1A
100
AcDbPlotSettings
  1

  2
none_device
  4
ANSI_A_(8.50_x_11.00_Inches)
  6

 40
6.35
 41
19.05
 42
6.35
 43
19.05
 44
215.9
 45
279.4
 46
11.11250000000003
 47
0.0000000000000142
 48
0.0
 49
0.0
140
0.0
141
0.0
142
1.0
143
1.263157894736842
 70
 11444
 72
     0
 73
     1
 74
     1
  7
monochrome.ctb
 75
     0
 76
     0
 77
     2
 78
   300
147
0.7916666666666665
148
-702.8076765758875
149
-496.2830551296954
100
AcDbLayout
  1
Model
 70
     1
 71
     0
 10
0.0
 20
0.0
 11
12.0
 21
9.0
 12
0.0
 22
0.0
 32
0.0
 14
31.43400944702743
 24
10.51030573734507
 34
0.0
 15
51.88090451559665
 25
16.47373369274466
 35
0.0
146
0.0
 13
0.0
 23
0.0
 33
0.0
 16
1.0
 26
0.0
 36
0.0
 17
0.0
 27
1.0
 37
0.0
 76
     0
330
1F
331
94
  0
LAYOUT
  5
59
102
{ACAD_REACTORS
330
1A
102
}
330
1A
100
AcDbPlotSettings
  1

  2
None
  4

  6

 40
0.0
 41
0.0
 42
0.0
 43
0.0
 44
0.0
 45
0.0
 46
0.0
 47
0.0
 48
0.0
 49
0.0
140
0.0
141
0.0
142
1.0
143
1.0
 70
   688
 72
     0
 73
     0
 74
     5
  7

 75
    16
 76
     0
 77
     2
 78
   300
147
1.0
148
0.0
149
0.0
100
AcDbLayout
  1
Sheet1
 70
     1
 71
     1
 10
0.0
 20
0.0
 11
12.0
 21
9.0
 12
0.0
 22
0.0
 32
0.0
 14
0.0
 24
0.0
 34
0.0
 15
0.0
 25
0.0
 35
0.0
146
0.0
 13
0.0
 23
0.0
 33
0.0
 16
1.0
 26
0.0
 36
0.0
 17
0.0
 27
1.0
 37
0.0
 76
     0
330
58
  0
LAYOUT
  5
5E
102
{ACAD_REACTORS
330
1A
102
}
330
1A
100
AcDbPlotSettings
  1

  2
None
  4

  6

 40
0.0
 41
0.0
 42
0.0
 43
0.0
 44
0.0
 45
0.0
 46
0.0
 47
0.0
 48
0.0
 49
0.0
140
0.0
141
0.0
142
1.0
143
1.0
 70
   688
 72
     0
 73
     0
 74
     5
  7

 75
    16
 76
     0
 77
     2
 78
   300
147
1.0
148
0.0
149
0.0
100
AcDbLayout
  1
Sheet2
 70
     1
 71
     2
 10
0.0
 20
0.0
 11
12.0
 21
9.0
 12
0.0
 22
0.0
 32
0.0
 14
0.0
 24
0.0
 34
0.0
 15
0.0
 25
0.0
 35
0.0
146
0.0
 13
0.0
 23
0.0
 33
0.0
 16
1.0
 26
0.0
 36
0.0
 17
0.0
 27
1.0
 37
0.0
 76
     0
330
5D
  0
MATERIAL
  5
E2
102
{ACAD_REACTORS
330
72
102
}
330
72
100
AcDbMaterial
  1
ByBlock
 72
     1
 94
      127
  0
MATERIAL
  5
96
102
{ACAD_REACTORS
330
72
102
}
330
72
100
AcDbMaterial
  1
ByLayer
 72
     1
 94
       63
  0
MATERIAL
  5
98
102
{ACAD_REACTORS
330
72
102
}
330
72
100
AcDbMaterial
  1
Global
 72
     1
 94
       63
  0
MLEADERSTYLE
  5
124
102
{ACAD_REACTORS
330
B5
102
}
330
B5
100
AcDbMLeaderStyle
179
     2
170
     2
171
     1
172
     0
 90
        2
 40
0.0
 41
0.0
173
     1
 91
-1056964608
340
14
 92
       -2
290
     1
 42
0.09
291
     1
 43
0.36
  3
Standard
341
0
 44
0.18
300

342
11
174
     1
178
     6
175
     1
176
     0
 93
-1056964608
 45
0.18
292
     0
297
     0
 46
0.18
343
0
 94
-1056964608
 47
1.0
 49
1.0
140
1.0
293
     1
141
0.0
294
     1
177
     0
142
1.0
295
     0
296
     0
143
0.125
271
     0
272
     9
273
     9
298
     0
  0
MLINESTYLE
  5
18
102
{ACAD_REACTORS
330
17
102
}
330
17
100
AcDbMlineStyle
  2
STANDARD
 70
     0
  3

 62
   256
 51
90.0
 52
90.0
 71
     2
 49
0.5
 62
   256
  6
BYLAYER
 49
-0.5
 62
   256
  6
BYLAYER
  0
ACDBPLACEHOLDER
  5
F
102
{ACAD_REACTORS
330
E
102
}
330
E
  0
SCALE
  5
B7
102
{ACAD_REACTORS
330
B6
102
}
330
B6
100
AcDbScale
 70
     0
300
1:1
140
1.0
141
1.0
290
     1
  0
SCALE
  5
B8
102
{ACAD_REACTORS
330
B6
102
}
330
B6
100
AcDbScale
 70
     0
300
1:2
140
1.0
141
2.0
290
     0
  0
SCALE
  5
B9
102
{ACAD_REACTORS
330
B6
102
}
330
B6
100
AcDbScale
 70
     0
300
1:4
140
1.0
141
4.0
290
     0
  0
SCALE
  5
BA
102
{ACAD_REACTORS
330
B6
102
}
330
B6
100
AcDbScale
 70
     0
300
1:5
140
1.0
141
5.0
290
     0
  0
SCALE
  5
BB
102
{ACAD_REACTORS
330
B6
102
}
330
B6
100
AcDbScale
 70
     0
300
1:8
140
1.0
141
8.0
290
     0
  0
SCALE
  5
BC
102
{ACAD_REACTORS
330
B6
102
}
330
B6
100
AcDbScale
 70
     0
300
1:10
140
1.0
141
10.0
290
     0
  0
SCALE
  5
BD
102
{ACAD_REACTORS
330
B6
102
}
330
B6
100
AcDbScale
 70
     0
300
1:16
140
1.0
141
16.0
290
     0
  0
SCALE
  5
BE
102
{ACAD_REACTORS
330
B6
102
}
330
B6
100
AcDbScale
 70
     0
300
1:20
140
1.0
141
20.0
290
     0
  0
SCALE
  5
BF
102
{ACAD_REACTORS
330
B6
102
}
330
B6
100
AcDbScale
 70
     0
300
1:30
140
1.0
141
30.0
290
     0
  0
SCALE
  5
C0
102
{ACAD_REACTORS
330
B6
102
}
330
B6
100
AcDbScale
 70
     0
300
1:40
140
1.0
141
40.0
290
     0
  0
SCALE
  5
C1
102
{ACAD_REACTORS
330
B6
102
}
330
B6
100
AcDbScale
 70
     0
300
1:50
140
1.0
141
50.0
290
     0
  0
SCALE
  5
C2
102
{ACAD_REACTORS
330
B6
102
}
330
B6
100
AcDbScale
 70
     0
300
1:100
140
1.0
141
100.0
290
     0
  0
SCALE
  5
C3
102
{ACAD_REACTORS
330
B6
102
}
330
B6
100
AcDbScale
 70
     0
300
2:1
140
2.0
141
1.0
290
     0
  0
SCALE
  5
C4
102
{ACAD_REACTORS
330
B6
102
}
330
B6
100
AcDbScale
 70
     0
300
4:1
140
4.0
141
1.0
290
     0
  0
SCALE
  5
C5
102
{ACAD_REACTORS
330
B6
102
}
330
B6
100
AcDbScale
 70
     0
300
8:1
140
8.0
141
1.0
290
     0
  0
SCALE
  5
C6
102
{ACAD_REACTORS
330
B6
102
}
330
B6
100
AcDbScale
 70
     0
300
10:1
140
10.0
141
1.0
290
     0
  0
SCALE
  5
C7
102
{ACAD_REACTORS
330
B6
102
}
330
B6
100
AcDbScale
 70
     0
300
100:1
140
100.0
141
1.0
290
     0
  0
SCALE
  5
C8
102
{ACAD_REACTORS
330
B6
102
}
330
B6
100
AcDbScale
 70
     0
300
1/128" = 1'-0"
140
0.0078125
141
12.0
290
     0
  0
SCALE
  5
C9
102
{ACAD_REACTORS
330
B6
102
}
330
B6
100
AcDbScale
 70
     0
300
1/64" = 1'-0"
140
0.015625
141
12.0
290
     0
  0
SCALE
  5
CA
102
{ACAD_REACTORS
330
B6
102
}
330
B6
100
AcDbScale
 70
     0
300
1/32" = 1'-0"
140
0.03125
141
12.0
290
     0
  0
SCALE
  5
CB
102
{ACAD_REACTORS
330
B6
102
}
330
B6
100
AcDbScale
 70
     0
300
1/16" = 1'-0"
140
0.0625
141
12.0
290
     0
  0
SCALE
  5
CC
102
{ACAD_REACTORS
330
B6
102
}
330
B6
100
AcDbScale
 70
     0
300
3/32" = 1'-0"
140
0.09375
141
12.0
290
     0
  0
SCALE
  5
CD
102
{ACAD_REACTORS
330
B6
102
}
330
B6
100
AcDbScale
 70
     0
300
1/8" = 1'-0"
140
0.125
141
12.0
290
     0
  0
SCALE
  5
CE
102
{ACAD_REACTORS
330
B6
102
}
330
B6
100
AcDbScale
 70
     0
300
3/16" = 1'-0"
140
0.1875
141
12.0
290
     0
  0
SCALE
  5
CF
102
{ACAD_REACTORS
330
B6
102
}
330
B6
100
AcDbScale
 70
     0
300
1/4" = 1'-0"
140
0.25
141
12.0
290
     0
  0
SCALE
  5
D0
102
{ACAD_REACTORS
330
B6
102
}
330
B6
100
AcDbScale
 70
     0
300
3/8" = 1'-0"
140
0.375
141
12.0
290
     0
  0
SCALE
  5
D1
102
{ACAD_REACTORS
330
B6
102
}
330
B6
100
AcDbScale
 70
     0
300
1/2" = 1'-0"
140
0.5
141
12.0
290
     0
  0
SCALE
  5
D2
102
{ACAD_REACTORS
330
B6
102
}
330
B6
100
AcDbScale
 70
     0
300
3/4" = 1'-0"
140
0.75
141
12.0
290
     0
  0
SCALE
  5
D3
102
{ACAD_REACTORS
330
B6
102
}
330
B6
100
AcDbScale
 70
     0
300
1" = 1'-0"
140
1.0
141
12.0
290
     0
  0
SCALE
  5
D4
102
{ACAD_REACTORS
330
B6
102
}
330
B6
100
AcDbScale
 70
     0
300
1-1/2" = 1'-0"
140
1.5
141
12.0
290
     0
  0
SCALE
  5
D5
102
{ACAD_REACTORS
330
B6
102
}
330
B6
100
AcDbScale
 70
     0
300
3" = 1'-0"
140
3.0
141
12.0
290
     0
  0
SCALE
  5
D6
102
{ACAD_REACTORS
330
B6
102
}
330
B6
100
AcDbScale
 70
     0
300
6" = 1'-0"
140
6.0
141
12.0
290
     0
  0
SCALE
  5
D7
102
{ACAD_REACTORS
330
B6
102
}
330
B6
100
AcDbScale
 70
     0
300
1'-0" = 1'-0"
140
12.0
141
12.0
290
     0
  0
ACDBSECTIONVIEWSTYLE
  5
1E8
102
{ACAD_REACTORS
330
123
102
}
102
{ACAD_XDICTIONARY
360
21F
102
}
330
123
100
AcDbModelDocViewStyle
 70
     0
  3
Imperial24
290
     0
300
Imperial24
 90
        0
100
AcDbSectionViewStyle
 70
     0
 71
     0
 90
       78
 71
     1
340
11
 62
   256
 40
0.24
340
0
340
0
 62
   256
 40
0.24
300
I, O, Q, S, X, Z
 40
0.48
 90
        3
 40
0.18
 90
        1
 71
     2
340
16
 90
       25
 62
   256
340
16
 90
       50
 62
   256
 40
0.24
 40
0.0
 40
0.24
 71
     3
340
11
 62
   256
 40
0.24
 90
        1
 40
0.75
 90
        1
300
%<\AcVar ViewType \f "%tc1">% %<\AcVar ViewSectionStartId>%-%<\AcVar ViewSectionEndId>%\PSCALE %<\AcVar ViewScale \f "%sn">%
 71
     4
 62
   256
 62
   257
300
ANSI31
 40
1.0
 90
        0
290
     0
290
     0
 90
        6
 40
0.0
 40
1.570796326794897
 40
0.2617993877991494
 40
1.308996938995747
 40
-0.2617993877991494
 40
1.832595714594046
  0
TABLESTYLE
  5
234
102
{ACAD_REACTORS
330
86
102
}
102
{ACAD_XDICTIONARY
360
1174
102
}
330
86
100
AcDbTableStyle
  3

 70
     0
 71
     0
 40
0.06
 41
0.06
280
     0
281
     0
  7
Legend
140
0.4
170
     4
 62
     0
 63
   257
283
     0
 90
      512
 91
        0
  1

274
    -2
284
     0
 64
     0
275
    -2
285
     0
 65
     0
276
    -2
286
     0
 66
     0
277
    -2
287
     0
 67
     0
278
    -2
288
     0
 68
     0
279
    -2
289
     0
 69
     0
  7
Legend
140
0.5
170
     5
 62
     0
 63
   257
283
     0
 90
      512
 91
        0
  1

274
    -2
284
     0
 64
     0
275
    -2
285
     0
 65
     0
276
    -2
286
     0
 66
     0
277
    -2
287
     0
 67
     0
278
    -2
288
     0
 68
     0
279
    -2
289
     0
 69
     0
  7
Legend
140
0.4
170
     4
 62
     0
 63
   257
283
     0
 90
      512
 91
        0
  1

274
    -2
284
     0
 64
     0
275
    -2
285
     0
 65
     0
276
    -2
286
     0
 66
     0
277
    -2
287
     0
 67
     0
278
    -2
288
     0
 68
     0
279
    -2
289
     0
 69
     0
  0
TABLESTYLE
  5
87
102
{ACAD_REACTORS
330
86
102
}
102
{ACAD_XDICTIONARY
360
1176
102
}
330
86
100
AcDbTableStyle
  3
Standard
 70
     0
 71
     0
 40
0.06
 41
0.06
280
     0
281
     0
  7
Standard
140
0.18
170
     2
 62
     0
 63
   257
283
     0
 90
      512
 91
        0
  1

274
    -2
284
     1
 64
     0
275
    -2
285
     1
 65
     0
276
    -2
286
     1
 66
     0
277
    -2
287
     1
 67
     0
278
    -2
288
     1
 68
     0
279
    -2
289
     1
 69
     0
  7
Standard
140
0.25
170
     5
 62
     0
 63
   257
283
     0
 90
      512
 91
        0
  1

274
    -2
284
     1
 64
     0
275
    -2
285
     1
 65
     0
276
    -2
286
     1
 66
     0
277
    -2
287
     1
 67
     0
278
    -2
288
     1
 68
     0
279
    -2
289
     1
 69
     0
  7
Standard
140
0.18
170
     5
 62
     0
 63
   257
283
     0
 90
      512
 91
        0
  1

274
    -2
284
     1
 64
     0
275
    -2
285
     1
 65
     0
276
    -2
286
     1
 66
     0
277
    -2
287
     1
 67
     0
278
    -2
288
     1
 68
     0
279
    -2
289
     1
 69
     0
  0
VISUALSTYLE
  5
9F
102
{ACAD_REACTORS
330
99
102
}
330
99
100
AcDbVisualStyle
  2
2dWireframe
 70
     4
177
     3
291
     0
 70
    58
 90
        0
176
     1
 90
        2
176
     1
 90
        1
176
     1
 90
        0
176
     1
 40
0.6
176
     1
 40
30.0
176
     1
 62
     7
420
 16777215
176
     1
 90
        1
176
     1
 90
        4
176
     1
 62
     7
176
     1
 62
   257
176
     1
 90
        1
176
     1
 90
        1
176
     1
 40
1.0
176
     1
 90
        0
176
     1
 62
   257
176
     1
 40
1.0
176
     1
 90
        1
176
     1
 90
        6
176
     1
 90
        2
176
     1
 62
     7
176
     1
 90
        5
176
     1
 90
        0
176
     1
 90
        0
176
     1
290
     0
176
     1
 90
        1
176
     1
 40
0.0
176
     1
 90
        0
176
     1
290
     1
176
     1
290
     1
176
     1
290
     0
176
     1
290
     0
176
     1
290
     0
176
     1
290
     0
176
     1
290
     0
176
     1
290
     0
176
     1
290
     0
176
     1
 90
       50
176
     1
 40
0.0
176
     1
 40
1.0
176
     1
 90
        0
176
     1
 62
    18
420
        0
176
     1
 90
       50
176
     1
 90
        3
176
     1
 62
     5
420
      255
176
     1
290
     0
176
     1
 90
       50
176
     1
 90
       50
176
     1
 90
       50
176
     1
290
     0
176
     1
 90
       50
176
     1
 62
   256
176
     0
 40
1.0
176
     0
 90
        2
176
     1
  1
strokes_ogs.tif
176
     1
290
     0
176
     1
 40
1.0
176
     1
 40
1.0
176
     1
  0
VISUALSTYLE
  5
A1
102
{ACAD_REACTORS
330
99
102
}
330
99
100
AcDbVisualStyle
  2
3D Hidden
 70
     6
177
     3
291
     0
 70
    58
 90
        1
176
     1
 90
        2
176
     1
 90
        2
176
     1
 90
        0
176
     1
 40
0.6
176
     1
 40
30.0
176
     1
 62
     7
420
 16777215
176
     1
 90
        2
176
     1
 90
        2
176
     1
 62
     7
176
     1
 62
   257
176
     1
 90
        2
176
     1
 90
        1
176
     1
 40
40.0
176
     1
 90
        0
176
     1
 62
   257
176
     1
 40
1.0
176
     1
 90
        1
176
     1
 90
        6
176
     1
 90
        2
176
     1
 62
     7
176
     1
 90
        3
176
     1
 90
        0
176
     1
 90
        0
176
     1
290
     0
176
     1
 90
        1
176
     1
 40
0.0
176
     1
 90
        0
176
     1
290
     0
176
     1
290
     1
176
     1
290
     1
176
     1
290
     0
176
     1
290
     0
176
     1
290
     0
176
     1
290
     0
176
     1
290
     0
176
     1
290
     0
176
     1
 90
       50
176
     1
 40
0.0
176
     1
 40
1.0
176
     1
 90
        0
176
     1
 62
    18
420
        0
176
     1
 90
       50
176
     1
 90
        3
176
     1
 62
     5
420
      255
176
     1
290
     0
176
     1
 90
       50
176
     1
 90
       50
176
     1
 90
       50
176
     1
290
     0
176
     1
 90
       50
176
     1
 62
   256
176
     0
 40
1.0
176
     0
 90
        2
176
     1
  1
strokes_ogs.tif
176
     1
290
     0
176
     1
 40
1.0
176
     1
 40
1.0
176
     1
  0
VISUALSTYLE
  5
A0
102
{ACAD_REACTORS
330
99
102
}
330
99
100
AcDbVisualStyle
  2
3dWireframe
 70
     5
177
     3
291
     0
 70
    58
 90
        0
176
     1
 90
        2
176
     1
 90
        1
176
     1
 90
        0
176
     1
 40
0.6
176
     1
 40
30.0
176
     1
 62
     7
420
 16777215
176
     1
 90
        1
176
     1
 90
        4
176
     1
 62
     7
176
     1
 62
   257
176
     1
 90
        1
176
     1
 90
        1
176
     1
 40
1.0
176
     1
 90
        0
176
     1
 62
   257
176
     1
 40
1.0
176
     1
 90
        1
176
     1
 90
        6
176
     1
 90
        2
176
     1
 62
     7
176
     1
 90
        5
176
     1
 90
        0
176
     1
 90
        0
176
     1
290
     0
176
     1
 90
        1
176
     1
 40
0.0
176
     1
 90
        0
176
     1
290
     0
176
     1
290
     1
176
     1
290
     1
176
     1
290
     0
176
     1
290
     0
176
     1
290
     0
176
     1
290
     0
176
     1
290
     0
176
     1
290
     0
176
     1
 90
       50
176
     1
 40
0.0
176
     1
 40
1.0
176
     1
 90
        0
176
     1
 62
    18
420
        0
176
     1
 90
       50
176
     1
 90
        3
176
     1
 62
     5
420
      255
176
     1
290
     0
176
     1
 90
       50
176
     1
 90
       50
176
     1
 90
       50
176
     1
290
     0
176
     1
 90
       50
176
     1
 62
   256
176
     0
 40
1.0
176
     0
 90
        2
176
     1
  1
strokes_ogs.tif
176
     1
290
     0
176
     1
 40
1.0
176
     1
 40
1.0
176
     1
  0
VISUALSTYLE
  5
9E
102
{ACAD_REACTORS
330
99
102
}
330
99
100
AcDbVisualStyle
  2
Basic
 70
     7
177
     3
291
     1
 70
    58
 90
        1
176
     1
 90
        0
176
     1
 90
        1
176
     1
 90
        0
176
     1
 40
0.6
176
     1
 40
30.0
176
     1
 62
     7
420
 16777215
176
     1
 90
        0
176
     1
 90
        4
176
     1
 62
     7
176
     1
 62
   257
176
     1
 90
        1
176
     1
 90
        1
176
     1
 40
1.0
176
     1
 90
        8
176
     1
 62
     7
176
     1
 40
1.0
176
     1
 90
        1
176
     1
 90
        6
176
     1
 90
        2
176
     1
 62
     7
176
     1
 90
        5
176
     1
 90
        0
176
     1
 90
        0
176
     1
290
     0
176
     1
 90
        1
176
     1
 40
0.0
176
     1
 90
        0
176
     1
290
     0
176
     1
290
     1
176
     1
290
     1
176
     1
290
     0
176
     1
290
     0
176
     1
290
     0
176
     1
290
     0
176
     1
290
     0
176
     1
290
     0
176
     1
 90
       50
176
     1
 40
0.0
176
     1
 40
1.0
176
     1
 90
        0
176
     1
 62
    18
420
        0
176
     1
 90
       50
176
     1
 90
        3
176
     1
 62
     5
420
      255
176
     1
290
     0
176
     1
 90
       50
176
     1
 90
       50
176
     1
 90
       50
176
     1
290
     0
176
     1
 90
       50
176
     1
 62
   256
176
     0
 40
1.0
176
     0
 90
        2
176
     1
  1
strokes_ogs.tif
176
     1
290
     0
176
     1
 40
1.0
176
     1
 40
1.0
176
     1
  0
VISUALSTYLE
  5
A5
102
{ACAD_REACTORS
330
99
102
}
330
99
100
AcDbVisualStyle
  2
Brighten
 70
    12
177
     3
291
     1
 70
    58
 90
        2
176
     1
 90
        2
176
     1
 90
        1
176
     1
 90
        0
176
     1
 40
0.6
176
     1
 40
30.0
176
     1
 62
     7
420
 16777215
176
     1
 90
        1
176
     1
 90
        4
176
     1
 62
     7
176
     1
 62
   257
176
     1
 90
        1
176
     1
 90
        1
176
     1
 40
1.0
176
     1
 90
        8
176
     1
 62
     7
176
     1
 40
1.0
176
     1
 90
        1
176
     1
 90
        6
176
     1
 90
        2
176
     1
 62
     7
176
     1
 90
        5
176
     1
 90
        0
176
     1
 90
        0
176
     1
290
     0
176
     1
 90
        1
176
     1
 40
50.0
176
     1
 90
        0
176
     1
290
     0
176
     1
290
     1
176
     1
290
     1
176
     1
290
     0
176
     1
290
     0
176
     1
290
     0
176
     1
290
     0
176
     1
290
     0
176
     1
290
     0
176
     1
 90
       50
176
     1
 40
0.0
176
     1
 40
1.0
176
     1
 90
        0
176
     1
 62
    18
420
        0
176
     1
 90
       50
176
     1
 90
        3
176
     1
 62
     5
420
      255
176
     1
290
     0
176
     1
 90
       50
176
     1
 90
       50
176
     1
 90
       50
176
     1
290
     0
176
     1
 90
       50
176
     1
 62
   256
176
     0
 40
1.0
176
     0
 90
        2
176
     1
  1
strokes_ogs.tif
176
     1
290
     0
176
     1
 40
1.0
176
     1
 40
1.0
176
     1
  0
VISUALSTYLE
  5
A9
102
{ACAD_REACTORS
330
99
102
}
330
99
100
AcDbVisualStyle
  2
ColorChange
 70
    16
177
     3
291
     1
 70
    58
 90
        2
176
     1
 90
        2
176
     1
 90
        3
176
     1
 90
        0
176
     1
 40
0.6
176
     1
 40
30.0
176
     1
 62
     8
420
  8421504
176
     1
 90
        1
176
     1
 90
        4
176
     1
 62
     7
176
     1
 62
   257
176
     1
 90
        1
176
     1
 90
        1
176
     1
 40
1.0
176
     1
 90
        8
176
     1
 62
     8
420
  8421504
176
     1
 40
1.0
176
     1
 90
        1
176
     1
 90
        6
176
     1
 90
        2
176
     1
 62
     7
176
     1
 90
        5
176
     1
 90
        0
176
     1
 90
        0
176
     1
290
     0
176
     1
 90
        1
176
     1
 40
0.0
176
     1
 90
        0
176
     1
290
     0
176
     1
290
     1
176
     1
290
     1
176
     1
290
     0
176
     1
290
     0
176
     1
290
     0
176
     1
290
     0
176
     1
290
     0
176
     1
290
     0
176
     1
 90
       50
176
     1
 40
0.0
176
     1
 40
1.0
176
     1
 90
        0
176
     1
 62
    18
420
        0
176
     1
 90
       50
176
     1
 90
        3
176
     1
 62
     5
420
      255
176
     1
290
     0
176
     1
 90
       50
176
     1
 90
       50
176
     1
 90
       50
176
     1
290
     0
176
     1
 90
       50
176
     1
 62
   256
176
     0
 40
1.0
176
     0
 90
        2
176
     1
  1
strokes_ogs.tif
176
     1
290
     0
176
     1
 40
1.0
176
     1
 40
1.0
176
     1
  0
VISUALSTYLE
  5
A2
102
{ACAD_REACTORS
330
99
102
}
330
99
100
AcDbVisualStyle
  2
Conceptual
 70
     9
177
     3
291
     0
 70
    58
 90
        3
176
     1
 90
        2
176
     1
 90
        1
176
     1
 90
        0
176
     1
 40
0.6
176
     1
 40
30.0
176
     1
 62
     7
420
 16777215
176
     1
 90
        2
176
     1
 90
        2
176
     1
 62
     7
176
     1
 62
   257
176
     1
 90
        1
176
     1
 90
        1
176
     1
 40
40.0
176
     1
 90
        8
176
     1
 62
     7
176
     1
 40
1.0
176
     1
 90
        1
176
     1
 90
        6
176
     1
 90
        2
176
     1
 62
     7
176
     1
 90
        3
176
     1
 90
        0
176
     1
 90
        0
176
     1
290
     0
176
     1
 90
        1
176
     1
 40
0.0
176
     1
 90
        0
176
     1
290
     0
176
     1
290
     1
176
     1
290
     1
176
     1
290
     0
176
     1
290
     0
176
     1
290
     0
176
     1
290
     0
176
     1
290
     0
176
     1
290
     0
176
     1
 90
       50
176
     1
 40
0.0
176
     1
 40
1.0
176
     1
 90
        0
176
     1
 62
    18
420
        0
176
     1
 90
       50
176
     1
 90
        3
176
     1
 62
     5
420
      255
176
     1
290
     0
176
     1
 90
       50
176
     1
 90
       50
176
     1
 90
       50
176
     1
290
     0
176
     1
 90
       50
176
     1
 62
   256
176
     0
 40
1.0
176
     0
 90
        2
176
     1
  1
strokes_ogs.tif
176
     1
290
     0
176
     1
 40
1.0
176
     1
 40
1.0
176
     1
  0
VISUALSTYLE
  5
A4
102
{ACAD_REACTORS
330
99
102
}
330
99
100
AcDbVisualStyle
  2
Dim
 70
    11
177
     3
291
     1
 70
    58
 90
        2
176
     1
 90
        2
176
     1
 90
        1
176
     1
 90
        0
176
     1
 40
0.6
176
     1
 40
30.0
176
     1
 62
     7
420
 16777215
176
     1
 90
        1
176
     1
 90
        4
176
     1
 62
     7
176
     1
 62
   257
176
     1
 90
        1
176
     1
 90
        1
176
     1
 40
1.0
176
     1
 90
        8
176
     1
 62
     7
176
     1
 40
1.0
176
     1
 90
        1
176
     1
 90
        6
176
     1
 90
        2
176
     1
 62
     7
176
     1
 90
        5
176
     1
 90
        0
176
     1
 90
        0
176
     1
290
     0
176
     1
 90
        1
176
     1
 40
-50.0
176
     1
 90
        0
176
     1
290
     0
176
     1
290
     1
176
     1
290
     1
176
     1
290
     0
176
     1
290
     0
176
     1
290
     0
176
     1
290
     0
176
     1
290
     0
176
     1
290
     0
176
     1
 90
       50
176
     1
 40
0.0
176
     1
 40
1.0
176
     1
 90
        0
176
     1
 62
    18
420
        0
176
     1
 90
       50
176
     1
 90
        3
176
     1
 62
     5
420
      255
176
     1
290
     0
176
     1
 90
       50
176
     1
 90
       50
176
     1
 90
       50
176
     1
290
     0
176
     1
 90
       50
176
     1
 62
   256
176
     0
 40
1.0
176
     0
 90
        2
176
     1
  1
strokes_ogs.tif
176
     1
290
     0
176
     1
 40
1.0
176
     1
 40
1.0
176
     1
  0
VISUALSTYLE
  5
E7
102
{ACAD_REACTORS
330
99
102
}
330
99
100
AcDbVisualStyle
  2
EdgeColorOff
 70
    22
177
     3
291
     1
 70
    58
 90
        2
176
     0
 90
        2
176
     0
 90
        0
176
     0
 90
        0
176
     0
 40
0.6
176
     0
 40
30.0
176
     0
 62
     7
420
 16777215
176
     0
 90
        1
176
     0
 90
        4
176
     0
 62
     7
176
     0
 62
   257
176
     0
 90
        1
176
     0
 90
        1
176
     0
 40
1.0
176
     0
 90
        8
176
     2
 62
     7
176
     0
 40
1.0
176
     0
 90
        1
176
     0
 90
        6
176
     0
 90
        2
176
     0
 62
     7
176
     0
 90
        5
176
     0
 90
        0
176
     0
 90
        0
176
     0
290
     0
176
     0
 90
        1
176
     0
 40
0.0
176
     0
 90
        0
176
     0
290
     0
176
     0
290
     1
176
     0
290
     1
176
     0
290
     0
176
     0
290
     0
176
     0
290
     0
176
     0
290
     0
176
     0
290
     0
176
     0
290
     0
176
     0
 90
       50
176
     0
 40
0.0
176
     0
 40
1.0
176
     0
 90
        0
176
     0
 62
    18
420
        0
176
     0
 90
       50
176
     0
 90
        3
176
     0
 62
     5
420
      255
176
     0
290
     0
176
     0
 90
       50
176
     0
 90
       50
176
     0
 90
       50
176
     0
290
     0
176
     0
 90
       50
176
     0
 62
   256
176
     0
 40
1.0
176
     0
 90
        2
176
     0
  1
strokes_ogs.tif
176
     0
290
     0
176
     0
 40
1.0
176
     0
 40
1.0
176
     0
  0
VISUALSTYLE
  5
A8
102
{ACAD_REACTORS
330
99
102
}
330
99
100
AcDbVisualStyle
  2
Facepattern
 70
    15
177
     3
291
     1
 70
    58
 90
        2
176
     1
 90
        2
176
     1
 90
        1
176
     1
 90
        0
176
     1
 40
0.6
176
     1
 40
30.0
176
     1
 62
     7
420
 16777215
176
     1
 90
        1
176
     1
 90
        4
176
     1
 62
     7
176
     1
 62
   257
176
     1
 90
        1
176
     1
 90
        1
176
     1
 40
1.0
176
     1
 90
        8
176
     1
 62
     7
176
     1
 40
1.0
176
     1
 90
        1
176
     1
 90
        6
176
     1
 90
        2
176
     1
 62
     7
176
     1
 90
        5
176
     1
 90
        0
176
     1
 90
        0
176
     1
290
     0
176
     1
 90
        1
176
     1
 40
0.0
176
     1
 90
        0
176
     1
290
     0
176
     1
290
     1
176
     1
290
     1
176
     1
290
     0
176
     1
290
     0
176
     1
290
     0
176
     1
290
     0
176
     1
290
     0
176
     1
290
     0
176
     1
 90
       50
176
     1
 40
0.0
176
     1
 40
1.0
176
     1
 90
        0
176
     1
 62
    18
420
        0
176
     1
 90
       50
176
     1
 90
        3
176
     1
 62
     5
420
      255
176
     1
290
     0
176
     1
 90
       50
176
     1
 90
       50
176
     1
 90
       50
176
     1
290
     0
176
     1
 90
       50
176
     1
 62
   256
176
     0
 40
1.0
176
     0
 90
        2
176
     1
  1
strokes_ogs.tif
176
     1
290
     0
176
     1
 40
1.0
176
     1
 40
1.0
176
     1
  0
VISUALSTYLE
  5
9A
102
{ACAD_REACTORS
330
99
102
}
330
99
100
AcDbVisualStyle
  2
Flat
 70
     0
177
     3
291
     1
 70
    58
 90
        2
176
     1
 90
        1
176
     1
 90
        1
176
     1
 90
        2
176
     1
 40
0.6
176
     1
 40
30.0
176
     1
 62
     7
420
 16777215
176
     1
 90
        0
176
     1
 90
        4
176
     1
 62
     7
176
     1
 62
   257
176
     1
 90
        1
176
     1
 90
        1
176
     1
 40
1.0
176
     1
 90
        8
176
     1
 62
     7
176
     1
 40
1.0
176
     1
 90
        1
176
     1
 90
        6
176
     1
 90
        2
176
     1
 62
     7
176
     1
 90
        5
176
     1
 90
        0
176
     1
 90
        0
176
     1
290
     0
176
     1
 90
        1
176
     1
 40
0.0
176
     1
 90
        0
176
     1
290
     0
176
     1
290
     1
176
     1
290
     1
176
     1
290
     0
176
     1
290
     0
176
     1
290
     0
176
     1
290
     0
176
     1
290
     0
176
     1
290
     0
176
     1
 90
       50
176
     1
 40
0.0
176
     1
 40
1.0
176
     1
 90
        0
176
     1
 62
    18
420
        0
176
     1
 90
       50
176
     1
 90
        3
176
     1
 62
     5
420
      255
176
     1
290
     0
176
     1
 90
       50
176
     1
 90
       50
176
     1
 90
       50
176
     1
290
     0
176
     1
 90
       50
176
     1
 62
   256
176
     0
 40
1.0
176
     0
 90
        2
176
     1
  1
strokes_ogs.tif
176
     1
290
     0
176
     1
 40
1.0
176
     1
 40
1.0
176
     1
  0
VISUALSTYLE
  5
9B
102
{ACAD_REACTORS
330
99
102
}
330
99
100
AcDbVisualStyle
  2
FlatWithEdges
 70
     1
177
     3
291
     1
 70
    58
 90
        2
176
     1
 90
        1
176
     1
 90
        1
176
     1
 90
        2
176
     1
 40
0.6
176
     1
 40
30.0
176
     1
 62
     7
420
 16777215
176
     1
 90
        1
176
     1
 90
        4
176
     1
 62
     7
176
     1
 62
   257
176
     1
 90
        1
176
     1
 90
        1
176
     1
 40
1.0
176
     1
 90
        0
176
     1
 62
   257
176
     1
 40
1.0
176
     1
 90
        1
176
     1
 90
        6
176
     1
 90
        2
176
     1
 62
     7
176
     1
 90
        5
176
     1
 90
        0
176
     1
 90
        0
176
     1
290
     0
176
     1
 90
        1
176
     1
 40
0.0
176
     1
 90
        0
176
     1
290
     0
176
     1
290
     1
176
     1
290
     1
176
     1
290
     0
176
     1
290
     0
176
     1
290
     0
176
     1
290
     0
176
     1
290
     0
176
     1
290
     0
176
     1
 90
       50
176
     1
 40
0.0
176
     1
 40
1.0
176
     1
 90
        0
176
     1
 62
    18
420
        0
176
     1
 90
       50
176
     1
 90
        3
176
     1
 62
     5
420
      255
176
     1
290
     0
176
     1
 90
       50
176
     1
 90
       50
176
     1
 90
       50
176
     1
290
     0
176
     1
 90
       50
176
     1
 62
   256
176
     0
 40
1.0
176
     0
 90
        2
176
     1
  1
strokes_ogs.tif
176
     1
290
     0
176
     1
 40
1.0
176
     1
 40
1.0
176
     1
  0
VISUALSTYLE
  5
9C
102
{ACAD_REACTORS
330
99
102
}
330
99
100
AcDbVisualStyle
  2
Gouraud
 70
     2
177
     3
291
     1
 70
    58
 90
        2
176
     1
 90
        2
176
     1
 90
        1
176
     1
 90
        2
176
     1
 40
0.6
176
     1
 40
30.0
176
     1
 62
     7
420
 16777215
176
     1
 90
        0
176
     1
 90
        4
176
     1
 62
     7
176
     1
 62
   257
176
     1
 90
        1
176
     1
 90
        1
176
     1
 40
1.0
176
     1
 90
        0
176
     1
 62
     7
176
     1
 40
1.0
176
     1
 90
        1
176
     1
 90
        6
176
     1
 90
        2
176
     1
 62
     7
176
     1
 90
        5
176
     1
 90
        0
176
     1
 90
        0
176
     1
290
     0
176
     1
 90
        1
176
     1
 40
0.0
176
     1
 90
        0
176
     1
290
     0
176
     1
290
     1
176
     1
290
     1
176
     1
290
     0
176
     1
290
     0
176
     1
290
     0
176
     1
290
     0
176
     1
290
     0
176
     1
290
     0
176
     1
 90
       50
176
     1
 40
0.0
176
     1
 40
1.0
176
     1
 90
        0
176
     1
 62
    18
420
        0
176
     1
 90
       50
176
     1
 90
        3
176
     1
 62
     5
420
      255
176
     1
290
     0
176
     1
 90
       50
176
     1
 90
       50
176
     1
 90
       50
176
     1
290
     0
176
     1
 90
       50
176
     1
 62
   256
176
     0
 40
1.0
176
     0
 90
        2
176
     1
  1
strokes_ogs.tif
176
     1
290
     0
176
     1
 40
1.0
176
     1
 40
1.0
176
     1
  0
VISUALSTYLE
  5
9D
102
{ACAD_REACTORS
330
99
102
}
330
99
100
AcDbVisualStyle
  2
GouraudWithEdges
 70
     3
177
     3
291
     1
 70
    58
 90
        2
176
     1
 90
        2
176
     1
 90
        1
176
     1
 90
        2
176
     1
 40
0.6
176
     1
 40
30.0
176
     1
 62
     7
420
 16777215
176
     1
 90
        1
176
     1
 90
        4
176
     1
 62
     7
176
     1
 62
   257
176
     1
 90
        1
176
     1
 90
        1
176
     1
 40
1.0
176
     1
 90
        0
176
     1
 62
   257
176
     1
 40
1.0
176
     1
 90
        1
176
     1
 90
        6
176
     1
 90
        2
176
     1
 62
     7
176
     1
 90
        5
176
     1
 90
        0
176
     1
 90
        0
176
     1
290
     0
176
     1
 90
        1
176
     1
 40
0.0
176
     1
 90
        0
176
     1
290
     0
176
     1
290
     1
176
     1
290
     1
176
     1
290
     0
176
     1
290
     0
176
     1
290
     0
176
     1
290
     0
176
     1
290
     0
176
     1
290
     0
176
     1
 90
       50
176
     1
 40
0.0
176
     1
 40
1.0
176
     1
 90
        0
176
     1
 62
    18
420
        0
176
     1
 90
       50
176
     1
 90
        3
176
     1
 62
     5
420
      255
176
     1
290
     0
176
     1
 90
       50
176
     1
 90
       50
176
     1
 90
       50
176
     1
290
     0
176
     1
 90
       50
176
     1
 62
   256
176
     0
 40
1.0
176
     0
 90
        2
176
     1
  1
strokes_ogs.tif
176
     1
290
     0
176
     1
 40
1.0
176
     1
 40
1.0
176
     1
  0
VISUALSTYLE
  5
E4
102
{ACAD_REACTORS
330
99
102
}
330
99
100
AcDbVisualStyle
  2
Hidden
 70
     6
177
     3
291
     0
 70
    58
 90
        1
176
     1
 90
        2
176
     1
 90
        2
176
     1
 90
        0
176
     1
 40
0.6
176
     1
 40
30.0
176
     1
 62
     7
420
 16777215
176
     1
 90
        2
176
     1
 90
        2
176
     1
 62
     7
176
     1
 62
   257
176
     1
 90
        2
176
     1
 90
        1
176
     1
 40
40.0
176
     1
 90
        0
176
     1
 62
   257
176
     1
 40
1.0
176
     1
 90
        1
176
     1
 90
        6
176
     1
 90
        2
176
     1
 62
     7
176
     1
 90
        3
176
     1
 90
        0
176
     1
 90
        0
176
     1
290
     0
176
     1
 90
        1
176
     1
 40
0.0
176
     1
 90
        0
176
     1
290
     0
176
     1
290
     1
176
     1
290
     1
176
     1
290
     0
176
     1
290
     0
176
     1
290
     0
176
     1
290
     0
176
     1
290
     0
176
     1
290
     0
176
     1
 90
       50
176
     1
 40
0.0
176
     1
 40
1.0
176
     1
 90
        0
176
     1
 62
    18
420
        0
176
     1
 90
       50
176
     1
 90
        3
176
     1
 62
     5
420
      255
176
     1
290
     0
176
     1
 90
       50
176
     1
 90
       50
176
     1
 90
       50
176
     1
290
     0
176
     1
 90
       50
176
     1
 62
   256
176
     0
 40
1.0
176
     0
 90
        2
176
     1
  1
strokes_ogs.tif
176
     1
290
     0
176
     1
 40
1.0
176
     1
 40
1.0
176
     1
  0
VISUALSTYLE
  5
E5
102
{ACAD_REACTORS
330
99
102
}
330
99
100
AcDbVisualStyle
  2
JitterOff
 70
    20
177
     3
291
     1
 70
    58
 90
        2
176
     0
 90
        2
176
     0
 90
        0
176
     0
 90
        0
176
     0
 40
0.6
176
     0
 40
30.0
176
     0
 62
     7
420
 16777215
176
     0
 90
        1
176
     0
 90
        4
176
     0
 62
     7
176
     0
 62
   257
176
     0
 90
        1
176
     0
 90
        1
176
     0
 40
1.0
176
     0
 90
       10
176
     2
 62
     7
176
     0
 40
1.0
176
     0
 90
        1
176
     0
 90
        6
176
     0
 90
        2
176
     0
 62
     7
176
     0
 90
        5
176
     0
 90
        0
176
     0
 90
        0
176
     0
290
     0
176
     0
 90
        1
176
     0
 40
0.0
176
     0
 90
        0
176
     0
290
     0
176
     0
290
     1
176
     0
290
     1
176
     0
290
     0
176
     0
290
     0
176
     0
290
     0
176
     0
290
     0
176
     0
290
     0
176
     0
290
     0
176
     0
 90
       50
176
     0
 40
0.0
176
     0
 40
1.0
176
     0
 90
        0
176
     0
 62
    18
420
        0
176
     0
 90
       50
176
     0
 90
        3
176
     0
 62
     5
420
      255
176
     0
290
     0
176
     0
 90
       50
176
     0
 90
       50
176
     0
 90
       50
176
     0
290
     0
176
     0
 90
       50
176
     0
 62
   256
176
     0
 40
1.0
176
     0
 90
        2
176
     0
  1
strokes_ogs.tif
176
     0
290
     0
176
     0
 40
1.0
176
     0
 40
1.0
176
     0
  0
VISUALSTYLE
  5
A7
102
{ACAD_REACTORS
330
99
102
}
330
99
100
AcDbVisualStyle
  2
Linepattern
 70
    14
177
     3
291
     1
 70
    58
 90
        2
176
     1
 90
        2
176
     1
 90
        1
176
     1
 90
        0
176
     1
 40
0.6
176
     1
 40
30.0
176
     1
 62
     7
420
 16777215
176
     1
 90
        1
176
     1
 90
        4
176
     1
 62
     7
176
     1
 62
   257
176
     1
 90
        7
176
     1
 90
        7
176
     1
 40
1.0
176
     1
 90
        8
176
     1
 62
     7
176
     1
 40
1.0
176
     1
 90
        1
176
     1
 90
        6
176
     1
 90
        2
176
     1
 62
     7
176
     1
 90
        5
176
     1
 90
        0
176
     1
 90
        0
176
     1
290
     0
176
     1
 90
        1
176
     1
 40
0.0
176
     1
 90
        0
176
     1
290
     0
176
     1
290
     1
176
     1
290
     1
176
     1
290
     0
176
     1
290
     0
176
     1
290
     0
176
     1
290
     0
176
     1
290
     0
176
     1
290
     0
176
     1
 90
       50
176
     1
 40
0.0
176
     1
 40
1.0
176
     1
 90
        0
176
     1
 62
    18
420
        0
176
     1
 90
       50
176
     1
 90
        3
176
     1
 62
     5
420
      255
176
     1
290
     0
176
     1
 90
       50
176
     1
 90
       50
176
     1
 90
       50
176
     1
290
     0
176
     1
 90
       50
176
     1
 62
   256
176
     0
 40
1.0
176
     0
 90
        2
176
     1
  1
strokes_ogs.tif
176
     1
290
     0
176
     1
 40
1.0
176
     1
 40
1.0
176
     1
  0
VISUALSTYLE
  5
E6
102
{ACAD_REACTORS
330
99
102
}
330
99
100
AcDbVisualStyle
  2
OverhangOff
 70
    21
177
     3
291
     1
 70
    58
 90
        2
176
     0
 90
        2
176
     0
 90
        0
176
     0
 90
        0
176
     0
 40
0.6
176
     0
 40
30.0
176
     0
 62
     7
420
 16777215
176
     0
 90
        1
176
     0
 90
        4
176
     0
 62
     7
176
     0
 62
   257
176
     0
 90
        1
176
     0
 90
        1
176
     0
 40
1.0
176
     0
 90
        9
176
     2
 62
     7
176
     0
 40
1.0
176
     0
 90
        1
176
     0
 90
        6
176
     0
 90
        2
176
     0
 62
     7
176
     0
 90
        5
176
     0
 90
        0
176
     0
 90
        0
176
     0
290
     0
176
     0
 90
        1
176
     0
 40
0.0
176
     0
 90
        0
176
     0
290
     0
176
     0
290
     1
176
     0
290
     1
176
     0
290
     0
176
     0
290
     0
176
     0
290
     0
176
     0
290
     0
176
     0
290
     0
176
     0
290
     0
176
     0
 90
       50
176
     0
 40
0.0
176
     0
 40
1.0
176
     0
 90
        0
176
     0
 62
    18
420
        0
176
     0
 90
       50
176
     0
 90
        3
176
     0
 62
     5
420
      255
176
     0
290
     0
176
     0
 90
       50
176
     0
 90
       50
176
     0
 90
       50
176
     0
290
     0
176
     0
 90
       50
176
     0
 62
   256
176
     0
 40
1.0
176
     0
 90
        2
176
     0
  1
strokes_ogs.tif
176
     0
290
     0
176
     0
 40
1.0
176
     0
 40
1.0
176
     0
  0
VISUALSTYLE
  5
A3
102
{ACAD_REACTORS
330
99
102
}
330
99
100
AcDbVisualStyle
  2
Realistic
 70
     8
177
     3
291
     0
 70
    58
 90
        2
176
     1
 90
        2
176
     1
 90
        1
176
     1
 90
        0
176
     1
 40
0.6
176
     1
 40
30.0
176
     1
 62
     7
420
 16777215
176
     1
 90
        1
176
     1
 90
        0
176
     1
 62
     7
176
     1
 62
   257
176
     1
 90
        1
176
     1
 90
        1
176
     1
 40
1.0
176
     1
 90
        8
176
     1
 62
     8
420
  7895160
176
     1
 40
1.0
176
     1
 90
        1
176
     1
 90
        6
176
     1
 90
        2
176
     1
 62
     7
176
     1
 90
        5
176
     1
 90
        0
176
     1
 90
        0
176
     1
290
     0
176
     1
 90
       13
176
     1
 40
0.0
176
     1
 90
        0
176
     1
290
     0
176
     1
290
     1
176
     1
290
     1
176
     1
290
     0
176
     1
290
     0
176
     1
290
     0
176
     1
290
     0
176
     1
290
     0
176
     1
290
     0
176
     1
 90
       50
176
     1
 40
0.0
176
     1
 40
1.0
176
     1
 90
        0
176
     1
 62
    18
420
        0
176
     1
 90
       50
176
     1
 90
        3
176
     1
 62
     5
420
      255
176
     1
290
     0
176
     1
 90
       50
176
     1
 90
       50
176
     1
 90
       50
176
     1
290
     0
176
     1
 90
       50
176
     1
 62
   256
176
     0
 40
1.0
176
     0
 90
        2
176
     1
  1
strokes_ogs.tif
176
     1
290
     0
176
     1
 40
1.0
176
     1
 40
1.0
176
     1
  0
VISUALSTYLE
  5
EC
102
{ACAD_REACTORS
330
99
102
}
330
99
100
AcDbVisualStyle
  2
Shaded
 70
    27
177
     3
291
     0
 70
    58
 90
        2
176
     1
 90
        2
176
     1
 90
        1
176
     1
 90
        2
176
     1
 40
0.6
176
     1
 40
30.0
176
     1
 62
     7
420
 16777215
176
     1
 90
        0
176
     1
 90
        4
176
     1
 62
     7
176
     1
 62
   257
176
     1
 90
        1
176
     1
 90
        1
176
     1
 40
1.0
176
     1
 90
        8
176
     1
 62
   257
176
     1
 40
1.0
176
     1
 90
        1
176
     1
 90
        6
176
     1
 90
        2
176
     1
 62
     8
420
  7895160
176
     1
 90
        3
176
     1
 90
        0
176
     1
 90
        0
176
     1
290
     0
176
     1
 90
        5
176
     1
 40
0.0
176
     1
 90
        0
176
     1
290
     0
176
     1
290
     1
176
     1
290
     1
176
     1
290
     0
176
     1
290
     0
176
     1
290
     0
176
     1
290
     0
176
     1
290
     0
176
     1
290
     0
176
     1
 90
       50
176
     1
 40
0.0
176
     1
 40
1.0
176
     1
 90
        0
176
     1
 62
    18
420
        0
176
     1
 90
       50
176
     1
 90
        3
176
     1
 62
     5
420
      255
176
     1
290
     0
176
     1
 90
       50
176
     1
 90
       50
176
     1
 90
       50
176
     1
290
     0
176
     1
 90
       50
176
     1
 62
   256
176
     0
 40
1.0
176
     0
 90
        2
176
     1
  1
strokes_ogs.tif
176
     1
290
     0
176
     1
 40
1.0
176
     1
 40
1.0
176
     1
  0
VISUALSTYLE
  5
EB
102
{ACAD_REACTORS
330
99
102
}
330
99
100
AcDbVisualStyle
  2
Shaded with edges
 70
    26
177
     3
291
     0
 70
    58
 90
        2
176
     1
 90
        2
176
     1
 90
        1
176
     1
 90
        2
176
     1
 40
0.6
176
     1
 40
30.0
176
     1
 62
     7
420
 16777215
176
     1
 90
        1
176
     1
 90
        2
176
     1
 62
     7
176
     1
 62
   257
176
     1
 90
        2
176
     1
 90
        1
176
     1
 40
1.0
176
     1
 90
        8
176
     1
 62
   257
176
     1
 40
1.0
176
     1
 90
        1
176
     1
 90
        6
176
     1
 90
        2
176
     1
 62
     7
176
     1
 90
        3
176
     1
 90
        0
176
     1
 90
        0
176
     1
290
     0
176
     1
 90
        5
176
     1
 40
0.0
176
     1
 90
        0
176
     1
290
     0
176
     1
290
     1
176
     1
290
     1
176
     1
290
     0
176
     1
290
     0
176
     1
290
     0
176
     1
290
     0
176
     1
290
     0
176
     1
290
     0
176
     1
 90
       50
176
     1
 40
0.0
176
     1
 40
1.0
176
     1
 90
        0
176
     1
 62
    18
420
        0
176
     1
 90
       50
176
     1
 90
        3
176
     1
 62
     5
420
      255
176
     1
290
     0
176
     1
 90
       50
176
     1
 90
       50
176
     1
 90
       50
176
     1
290
     0
176
     1
 90
       50
176
     1
 62
   256
176
     0
 40
1.0
176
     0
 90
        2
176
     1
  1
strokes_ogs.tif
176
     1
290
     0
176
     1
 40
1.0
176
     1
 40
1.0
176
     1
  0
VISUALSTYLE
  5
E8
102
{ACAD_REACTORS
330
99
102
}
330
99
100
AcDbVisualStyle
  2
Shades of Gray
 70
    23
177
     3
291
     0
 70
    58
 90
        2
176
     1
 90
        2
176
     1
 90
        3
176
     1
 90
        0
176
     1
 40
0.6
176
     1
 40
30.0
176
     1
 62
     7
420
 16777215
176
     1
 90
        2
176
     1
 90
        2
176
     1
 62
     7
176
     1
 62
     7
176
     1
 90
        1
176
     1
 90
        1
176
     1
 40
40.0
176
     1
 90
        8
176
     1
 62
     7
176
     1
 40
1.0
176
     1
 90
        1
176
     1
 90
        6
176
     1
 90
        2
176
     1
 62
     7
176
     1
 90
        3
176
     1
 90
        0
176
     1
 90
        0
176
     1
290
     0
176
     1
 90
        1
176
     1
 40
0.0
176
     1
 90
        0
176
     1
290
     0
176
     1
290
     1
176
     1
290
     1
176
     1
290
     0
176
     1
290
     0
176
     1
290
     0
176
     1
290
     0
176
     1
290
     0
176
     1
290
     0
176
     1
 90
       50
176
     1
 40
0.0
176
     1
 40
1.0
176
     1
 90
        0
176
     1
 62
    18
420
        0
176
     1
 90
       50
176
     1
 90
        3
176
     1
 62
     5
420
      255
176
     1
290
     0
176
     1
 90
       50
176
     1
 90
       50
176
     1
 90
       50
176
     1
290
     0
176
     1
 90
       50
176
     1
 62
   256
176
     0
 40
1.0
176
     0
 90
        2
176
     1
  1
strokes_ogs.tif
176
     1
290
     0
176
     1
 40
1.0
176
     1
 40
1.0
176
     1
  0
VISUALSTYLE
  5
E9
102
{ACAD_REACTORS
330
99
102
}
330
99
100
AcDbVisualStyle
  2
Sketchy
 70
    24
177
     3
291
     0
 70
    58
 90
        1
176
     1
 90
        2
176
     1
 90
        2
176
     1
 90
        0
176
     1
 40
0.6
176
     1
 40
30.0
176
     1
 62
     7
420
 16777215
176
     1
 90
        2
176
     1
 90
        2
176
     1
 62
     7
176
     1
 62
     7
176
     1
 90
        1
176
     1
 90
        1
176
     1
 40
40.0
176
     1
 90
       11
176
     1
 62
     7
176
     1
 40
1.0
176
     1
 90
        1
176
     1
 90
        6
176
     1
 90
        2
176
     1
 62
     7
176
     1
 90
        6
176
     1
 90
        0
176
     1
 90
        0
176
     1
290
     0
176
     1
 90
        1
176
     1
 40
0.0
176
     1
 90
        0
176
     1
290
     0
176
     1
290
     1
176
     1
290
     1
176
     1
290
     0
176
     1
290
     0
176
     1
290
     0
176
     1
290
     0
176
     1
290
     0
176
     1
290
     0
176
     1
 90
       50
176
     1
 40
0.0
176
     1
 40
1.0
176
     1
 90
        0
176
     1
 62
    18
420
        0
176
     1
 90
       50
176
     1
 90
        3
176
     1
 62
     5
420
      255
176
     1
290
     0
176
     1
 90
       50
176
     1
 90
       50
176
     1
 90
       50
176
     1
290
     0
176
     1
 90
       50
176
     1
 62
   256
176
     0
 40
1.0
176
     0
 90
        2
176
     1
  1
strokes_ogs.tif
176
     1
290
     0
176
     1
 40
1.0
176
     1
 40
1.0
176
     1
  0
VISUALSTYLE
  5
A6
102
{ACAD_REACTORS
330
99
102
}
330
99
100
AcDbVisualStyle
  2
Thicken
 70
    13
177
     3
291
     1
 70
    58
 90
        2
176
     1
 90
        2
176
     1
 90
        1
176
     1
 90
        0
176
     1
 40
0.6
176
     1
 40
30.0
176
     1
 62
     7
420
 16777215
176
     1
 90
        1
176
     1
 90
        4
176
     1
 62
     7
176
     1
 62
   257
176
     1
 90
        1
176
     1
 90
        1
176
     1
 40
1.0
176
     1
 90
       12
176
     1
 62
     7
176
     1
 40
1.0
176
     1
 90
        1
176
     1
 90
        6
176
     1
 90
        2
176
     1
 62
     7
176
     1
 90
        5
176
     1
 90
        0
176
     1
 90
        0
176
     1
290
     0
176
     1
 90
        1
176
     1
 40
0.0
176
     1
 90
        0
176
     1
290
     0
176
     1
290
     1
176
     1
290
     1
176
     1
290
     0
176
     1
290
     0
176
     1
290
     0
176
     1
290
     0
176
     1
290
     0
176
     1
290
     0
176
     1
 90
       50
176
     1
 40
0.0
176
     1
 40
1.0
176
     1
 90
        0
176
     1
 62
    18
420
        0
176
     1
 90
       50
176
     1
 90
        3
176
     1
 62
     5
420
      255
176
     1
290
     0
176
     1
 90
       50
176
     1
 90
       50
176
     1
 90
       50
176
     1
290
     0
176
     1
 90
       50
176
     1
 62
   256
176
     0
 40
1.0
176
     0
 90
        2
176
     1
  1
strokes_ogs.tif
176
     1
290
     0
176
     1
 40
1.0
176
     1
 40
1.0
176
     1
  0
VISUALSTYLE
  5
E3
102
{ACAD_REACTORS
330
99
102
}
330
99
100
AcDbVisualStyle
  2
Wireframe
 70
     5
177
     3
291
     0
 70
    58
 90
        0
176
     1
 90
        2
176
     1
 90
        0
176
     1
 90
        0
176
     1
 40
0.6
176
     1
 40
30.0
176
     1
 62
     7
420
 16777215
176
     1
 90
        1
176
     1
 90
        4
176
     1
 62
     7
176
     1
 62
   257
176
     1
 90
        1
176
     1
 90
        1
176
     1
 40
1.0
176
     1
 90
        0
176
     1
 62
   257
176
     1
 40
1.0
176
     1
 90
        1
176
     1
 90
        6
176
     1
 90
        2
176
     1
 62
     7
176
     1
 90
        3
176
     1
 90
        0
176
     1
 90
        0
176
     1
290
     0
176
     1
 90
        1
176
     1
 40
0.0
176
     1
 90
        0
176
     1
290
     0
176
     1
290
     1
176
     1
290
     1
176
     1
290
     0
176
     1
290
     0
176
     1
290
     0
176
     1
290
     0
176
     1
290
     0
176
     1
290
     0
176
     1
 90
       50
176
     1
 40
0.0
176
     1
 40
1.0
176
     1
 90
        0
176
     1
 62
    18
420
        0
176
     1
 90
       50
176
     1
 90
        3
176
     1
 62
     5
420
      255
176
     1
290
     0
176
     1
 90
       50
176
     1
 90
       50
176
     1
 90
       50
176
     1
290
     0
176
     1
 90
       50
176
     1
 62
   256
176
     0
 40
1.0
176
     0
 90
        2
176
     1
  1
strokes_ogs.tif
176
     1
290
     0
176
     1
 40
1.0
176
     1
 40
1.0
176
     1
  0
VISUALSTYLE
  5
EA
102
{ACAD_REACTORS
330
99
102
}
330
99
100
AcDbVisualStyle
  2
X-Ray
 70
    25
177
     3
291
     0
 70
    58
 90
        2
176
     1
 90
        2
176
     1
 90
        1
176
     1
 90
        1
176
     1
 40
0.5
176
     1
 40
30.0
176
     1
 62
     7
420
 16777215
176
     1
 90
        1
176
     1
 90
        0
176
     1
 62
     7
176
     1
 62
   257
176
     1
 90
        1
176
     1
 90
        1
176
     1
 40
1.0
176
     1
 90
        8
176
     1
 62
     7
176
     1
 40
1.0
176
     1
 90
        1
176
     1
 90
        6
176
     1
 90
        2
176
     1
 62
     7
176
     1
 90
        3
176
     1
 90
        0
176
     1
 90
        0
176
     1
290
     0
176
     1
 90
       13
176
     1
 40
0.0
176
     1
 90
        0
176
     1
290
     0
176
     1
290
     1
176
     1
290
     1
176
     1
290
     0
176
     1
290
     0
176
     1
290
     0
176
     1
290
     0
176
     1
290
     0
176
     1
290
     0
176
     1
 90
       50
176
     1
 40
0.0
176
     1
 40
1.0
176
     1
 90
        0
176
     1
 62
    18
420
        0
176
     1
 90
       50
176
     1
 90
        3
176
     1
 62
     5
420
      255
176
     1
290
     0
176
     1
 90
       50
176
     1
 90
       50
176
     1
 90
       50
176
     1
290
     0
176
     1
 90
       50
176
     1
 62
   256
176
     0
 40
1.0
176
     0
 90
        2
176
     1
  1
strokes_ogs.tif
176
     1
290
     0
176
     1
 40
1.0
176
     1
 40
1.0
176
     1
  0
DICTIONARYVAR
  5
D8
102
{ACAD_REACTORS
330
66
102
}
330
66
100
DictionaryVariables
280
     0
  1
1:1
  0
DICTIONARYVAR
  5
128
102
{ACAD_REACTORS
330
66
102
}
330
66
100
DictionaryVariables
280
     0
  1
Standard
  0
DICTIONARYVAR
  5
89
102
{ACAD_REACTORS
330
66
102
}
330
66
100
DictionaryVariables
280
     0
  1
Standard
  0
DICTIONARYVAR
  5
223
102
{ACAD_REACTORS
330
66
102
}
330
66
100
DictionaryVariables
280
     0
  1
Imperial24
  0
DICTIONARYVAR
  5
224
102
{ACAD_REACTORS
330
66
102
}
330
66
100
DictionaryVariables
280
     0
  1
Imperial24
  0
DICTIONARYVAR
  5
67
102
{ACAD_REACTORS
330
66
102
}
330
66
100
DictionaryVariables
280
     0
  1
2
  0
DICTIONARYVAR
  5
6B
102
{ACAD_REACTORS
330
66
102
}
330
66
100
DictionaryVariables
280
     0
  1
1
  0
DICTIONARYVAR
  5
DF
102
{ACAD_REACTORS
330
66
102
}
330
66
100
DictionaryVariables
280
     0
  1
0
  0
DICTIONARYVAR
  5
E0
102
{ACAD_REACTORS
330
66
102
}
330
66
100
DictionaryVariables
280
     0
  1
0
  0
XRECORD
  5
104D
102
{ACAD_REACTORS
330
27C
102
}
330
27C
100
AcDbXrecord
280
     1
1000
ADE02C001
1070
     1
1070
     0
1002
{
1002
}
1002
{
1002
}
1002
{
1002
}
1000

  0
XRECORD
  5
281
102
{ACAD_REACTORS
330
280
102
}
330
280
100
AcDbXrecord
280
     1
  0
ACAD_PROXY_OBJECT
  5
23D
102
{ACAD_REACTORS
330
22B
102
}
330
22B
100
AcDbProxyObject
 90
      499
 91
      525
 71
    29
 97
       63
 70
     0
161
                10
310
4040
  0
DICTIONARY
  5
230
102
{ACAD_REACTORS
330
22B
102
}
330
22B
100
AcDbDictionary
280
     1
281
     1
  0
DATATABLE
  5
22F
102
{ACAD_REACTORS
330
22B
102
}
330
22B
100
AcDbDataTable
 70
     2
 90
        4
 91
       15
  1

 92
        3
  2
OriginalClassName
  3
AcMapDMDefaultStyle
  3
AcMapDMEntityStyle
  3
AcMapDMRasterStyle
  3
AcMapDMSEAnnotationStyle
  3
AcMapDMSEHatchStyle
  3
AcMapDMSETextStyle
  3
AcMapDMThematicStyle
  3
AcMapDMBaseElement
  3
AcMapDMAttachedDwgsQueryElement
  3
AcMapDMFeatureElement
  3
AcMapDMLayerElement
  3
AcMapDMCurrentDwgQueryElement
  3
AcMapDMRasterElement
  3
AcMapDMTopoElement
  3
AcMapDMTopoQueryElement
 92
        3
  2
ProxyDisplayName
  3
Default
  3
Entity
  3
Raster
  3
Annotation
  3
Hatch
  3
Text
  3
Thematic
  3
Map Base
  3
Ade Query
  3
Feature Class
  3
Layer
  3
Ade Project Query
  3
Raster
  3
Topology
  3
Topology Query
 92
        1
  2
CustomObjectType
 93
        2
 93
        2
 93
        2
 93
        2
 93
        2
 93
        2
 93
        2
 93
        1
 93
        1
 93
        1
 93
        1
 93
        1
 93
        1
 93
        1
 93
        1
 92
        1
  2
StyleCoExistanceType
 93
        1
 93
        1
 93
        1
 93
        1
 93
        1
 93
        1
 93
        2
 93
        0
 93
        0
 93
        0
 93
        0
 93
        0
 93
        0
 93
        0
 93
        0
  0
ACAD_PROXY_OBJECT
  5
22C
102
{ACAD_REACTORS
330
22B
102
}
330
22B
100
AcDbProxyObject
 90
      499
 91
      515
 71
    29
 97
       63
 70
     0
162
               186
311
42D1001A401CC01C001B0018401E40134018401C000C4000
161
                38
310
4050100404
350
232
340
232
340
232
 94
        0
  0
ACAD_PROXY_OBJECT
  5
22D
102
{ACAD_REACTORS
330
22B
102
}
330
22B
100
AcDbProxyObject
 90
      499
 91
      516
 71
    29
 97
       63
 70
     0
161
                20
310
405010
360
22E
 94
        0
  0
DICTIONARY
  5
23E
102
{ACAD_REACTORS
330
22B
102
}
330
22B
100
AcDbDictionary
281
     1
  0
DICTIONARYVAR
  5
12B
102
{ACAD_REACTORS
330
129
102
}
330
129
100
DictionaryVariables
280
     0
  1
1
  0
DICTIONARY
  5
221
330
1E9
100
AcDbDictionary
280
     1
281
     1
  0
DICTIONARY
  5
21F
330
1E8
100
AcDbDictionary
280
     1
281
     1
  0
DICTIONARY
  5
1174
330
234
100
AcDbDictionary
280
     1
281
     1
  3
ACAD_ROUNDTRIP_2008_TABLESTYLE_CELLSTYLEMAP
360
1175
  0
DICTIONARY
  5
1176
330
87
100
AcDbDictionary
280
     1
281
     1
  3
ACAD_ROUNDTRIP_2008_TABLESTYLE_CELLSTYLEMAP
360
1177
  0
ACAD_PROXY_OBJECT
  5
232
102
{ACAD_REACTORS
330
22C
330
235
102
}
330
22C
100
AcDbProxyObject
 90
      499
 91
      520
 71
    29
 97
       63
 70
     0
162
               230
311
41D1001940198018401D401B001D001064C006500670065006E0064008
161
               572
310
4050140501404FFFFFFFFFFFFEF7FA0B1FFFFFFFFFFFFDEFFA00000000000004202027FFFFFFFFFFFF7BF9C11FC7350DBE328A02D0000000000201190000000000008046404A1010
330
0
360
235
360
236
 94
        0
  0
ACAD_PROXY_OBJECT
  5
22E
102
{ACAD_REACTORS
330
22D
102
}
330
22D
100
AcDbProxyObject
 90
      499
 91
      517
 71
    29
 97
       63
 70
     0
162
               234
311
4391001A401CC01C001B0018401E40080014C01D001E401B0019401CC000
161
                12
310
4060
  0
CELLSTYLEMAP
  5
1175
102
{ACAD_REACTORS
330
1174
102
}
330
1174
100
AcDbCellStyleMap
 90
        3
300
CELLSTYLE
  1
TABLEFORMAT_BEGIN
 90
        5
170
     1
 91
        0
 92
    32768
 62
   257
 93
        1
300
CONTENTFORMAT
  1
CONTENTFORMAT_BEGIN
 90
        0
 91
        0
 92
      512
 93
        0
300

 40
0.0
140
1.0
 94
        5
 62
     0
340
233
144
0.5
309
CONTENTFORMAT_END
171
     0
 94
        6
 95
        1
302
GRIDFORMAT
  1
GRIDFORMAT_BEGIN
 90
        0
 91
        1
 62
     0
 92
       -2
340
0
 93
        1
 40
0.045
309
GRIDFORMAT_END
 95
        2
302
GRIDFORMAT
  1
GRIDFORMAT_BEGIN
 90
        0
 91
        1
 62
     0
 92
       -2
340
0
 93
        1
 40
0.045
309
GRIDFORMAT_END
 95
        4
302
GRIDFORMAT
  1
GRIDFORMAT_BEGIN
 90
        0
 91
        1
 62
     0
 92
       -2
340
0
 93
        1
 40
0.045
309
GRIDFORMAT_END
 95
        8
302
GRIDFORMAT
  1
GRIDFORMAT_BEGIN
 90
        0
 91
        1
 62
     0
 92
       -2
340
0
 93
        1
 40
0.045
309
GRIDFORMAT_END
 95
       16
302
GRIDFORMAT
  1
GRIDFORMAT_BEGIN
 90
        0
 91
        1
 62
     0
 92
       -2
340
0
 93
        1
 40
0.045
309
GRIDFORMAT_END
 95
       32
302
GRIDFORMAT
  1
GRIDFORMAT_BEGIN
 90
        0
 91
        1
 62
     0
 92
       -2
340
0
 93
        1
 40
0.045
309
GRIDFORMAT_END
309
TABLEFORMAT_END
  1
CELLSTYLE_BEGIN
 90
        1
 91
        1
300
_TITLE
309
CELLSTYLE_END
300
CELLSTYLE
  1
TABLEFORMAT_BEGIN
 90
        5
170
     1
 91
        0
 92
        0
 62
   257
 93
        1
300
CONTENTFORMAT
  1
CONTENTFORMAT_BEGIN
 90
        0
 91
        0
 92
      512
 93
        0
300

 40
0.0
140
1.0
 94
        4
 62
     0
340
233
144
0.4
309
CONTENTFORMAT_END
171
     0
 94
        6
 95
        1
302
GRIDFORMAT
  1
GRIDFORMAT_BEGIN
 90
        0
 91
        1
 62
     0
 92
       -2
340
0
 93
        1
 40
0.045
309
GRIDFORMAT_END
 95
        2
302
GRIDFORMAT
  1
GRIDFORMAT_BEGIN
 90
        0
 91
        1
 62
     0
 92
       -2
340
0
 93
        1
 40
0.045
309
GRIDFORMAT_END
 95
        4
302
GRIDFORMAT
  1
GRIDFORMAT_BEGIN
 90
        0
 91
        1
 62
     0
 92
       -2
340
0
 93
        1
 40
0.045
309
GRIDFORMAT_END
 95
        8
302
GRIDFORMAT
  1
GRIDFORMAT_BEGIN
 90
        0
 91
        1
 62
     0
 92
       -2
340
0
 93
        1
 40
0.045
309
GRIDFORMAT_END
 95
       16
302
GRIDFORMAT
  1
GRIDFORMAT_BEGIN
 90
        0
 91
        1
 62
     0
 92
       -2
340
0
 93
        1
 40
0.045
309
GRIDFORMAT_END
 95
       32
302
GRIDFORMAT
  1
GRIDFORMAT_BEGIN
 90
        0
 91
        1
 62
     0
 92
       -2
340
0
 93
        1
 40
0.045
309
GRIDFORMAT_END
309
TABLEFORMAT_END
  1
CELLSTYLE_BEGIN
 90
        2
 91
        1
300
_HEADER
309
CELLSTYLE_END
300
CELLSTYLE
  1
TABLEFORMAT_BEGIN
 90
        5
170
     1
 91
        0
 92
        0
 62
   257
 93
        1
300
CONTENTFORMAT
  1
CONTENTFORMAT_BEGIN
 90
        0
 91
        0
 92
      512
 93
        0
300

 40
0.0
140
1.0
 94
        4
 62
     0
340
233
144
0.4
309
CONTENTFORMAT_END
171
     0
 94
        6
 95
        1
302
GRIDFORMAT
  1
GRIDFORMAT_BEGIN
 90
        0
 91
        1
 62
     0
 92
       -2
340
0
 93
        1
 40
0.045
309
GRIDFORMAT_END
 95
        2
302
GRIDFORMAT
  1
GRIDFORMAT_BEGIN
 90
        0
 91
        1
 62
     0
 92
       -2
340
0
 93
        1
 40
0.045
309
GRIDFORMAT_END
 95
        4
302
GRIDFORMAT
  1
GRIDFORMAT_BEGIN
 90
        0
 91
        1
 62
     0
 92
       -2
340
0
 93
        1
 40
0.045
309
GRIDFORMAT_END
 95
        8
302
GRIDFORMAT
  1
GRIDFORMAT_BEGIN
 90
        0
 91
        1
 62
     0
 92
       -2
340
0
 93
        1
 40
0.045
309
GRIDFORMAT_END
 95
       16
302
GRIDFORMAT
  1
GRIDFORMAT_BEGIN
 90
        0
 91
        1
 62
     0
 92
       -2
340
0
 93
        1
 40
0.045
309
GRIDFORMAT_END
 95
       32
302
GRIDFORMAT
  1
GRIDFORMAT_BEGIN
 90
        0
 91
        1
 62
     0
 92
       -2
340
0
 93
        1
 40
0.045
309
GRIDFORMAT_END
309
TABLEFORMAT_END
  1
CELLSTYLE_BEGIN
 90
        3
 91
        2
300
_DATA
309
CELLSTYLE_END
  0
CELLSTYLEMAP
  5
1177
102
{ACAD_REACTORS
330
1176
102
}
330
1176
100
AcDbCellStyleMap
 90
        3
300
CELLSTYLE
  1
TABLEFORMAT_BEGIN
 90
        5
170
     1
 91
        0
 92
    32768
 62
   257
 93
        1
300
CONTENTFORMAT
  1
CONTENTFORMAT_BEGIN
 90
        0
 91
        0
 92
      512
 93
        0
300

 40
0.0
140
1.0
 94
        5
 62
     0
340
11
144
0.25
309
CONTENTFORMAT_END
171
     0
 94
        6
 95
        1
302
GRIDFORMAT
  1
GRIDFORMAT_BEGIN
 90
        0
 91
        1
 62
     0
 92
       -2
340
0
 93
        0
 40
0.045
309
GRIDFORMAT_END
 95
        2
302
GRIDFORMAT
  1
GRIDFORMAT_BEGIN
 90
        0
 91
        1
 62
     0
 92
       -2
340
0
 93
        0
 40
0.045
309
GRIDFORMAT_END
 95
        4
302
GRIDFORMAT
  1
GRIDFORMAT_BEGIN
 90
        0
 91
        1
 62
     0
 92
       -2
340
0
 93
        0
 40
0.045
309
GRIDFORMAT_END
 95
        8
302
GRIDFORMAT
  1
GRIDFORMAT_BEGIN
 90
        0
 91
        1
 62
     0
 92
       -2
340
0
 93
        0
 40
0.045
309
GRIDFORMAT_END
 95
       16
302
GRIDFORMAT
  1
GRIDFORMAT_BEGIN
 90
        0
 91
        1
 62
     0
 92
       -2
340
0
 93
        0
 40
0.045
309
GRIDFORMAT_END
 95
       32
302
GRIDFORMAT
  1
GRIDFORMAT_BEGIN
 90
        0
 91
        1
 62
     0
 92
       -2
340
0
 93
        0
 40
0.045
309
GRIDFORMAT_END
309
TABLEFORMAT_END
  1
CELLSTYLE_BEGIN
 90
        1
 91
        1
300
_TITLE
309
CELLSTYLE_END
300
CELLSTYLE
  1
TABLEFORMAT_BEGIN
 90
        5
170
     1
 91
        0
 92
        0
 62
   257
 93
        1
300
CONTENTFORMAT
  1
CONTENTFORMAT_BEGIN
 90
        0
 91
        0
 92
      512
 93
        0
300

 40
0.0
140
1.0
 94
        5
 62
     0
340
11
144
0.18
309
CONTENTFORMAT_END
171
     0
 94
        6
 95
        1
302
GRIDFORMAT
  1
GRIDFORMAT_BEGIN
 90
        0
 91
        1
 62
     0
 92
       -2
340
0
 93
        0
 40
0.045
309
GRIDFORMAT_END
 95
        2
302
GRIDFORMAT
  1
GRIDFORMAT_BEGIN
 90
        0
 91
        1
 62
     0
 92
       -2
340
0
 93
        0
 40
0.045
309
GRIDFORMAT_END
 95
        4
302
GRIDFORMAT
  1
GRIDFORMAT_BEGIN
 90
        0
 91
        1
 62
     0
 92
       -2
340
0
 93
        0
 40
0.045
309
GRIDFORMAT_END
 95
        8
302
GRIDFORMAT
  1
GRIDFORMAT_BEGIN
 90
        0
 91
        1
 62
     0
 92
       -2
340
0
 93
        0
 40
0.045
309
GRIDFORMAT_END
 95
       16
302
GRIDFORMAT
  1
GRIDFORMAT_BEGIN
 90
        0
 91
        1
 62
     0
 92
       -2
340
0
 93
        0
 40
0.045
309
GRIDFORMAT_END
 95
       32
302
GRIDFORMAT
  1
GRIDFORMAT_BEGIN
 90
        0
 91
        1
 62
     0
 92
       -2
340
0
 93
        0
 40
0.045
309
GRIDFORMAT_END
309
TABLEFORMAT_END
  1
CELLSTYLE_BEGIN
 90
        2
 91
        1
300
_HEADER
309
CELLSTYLE_END
300
CELLSTYLE
  1
TABLEFORMAT_BEGIN
 90
        5
170
     1
 91
        0
 92
        0
 62
   257
 93
        1
300
CONTENTFORMAT
  1
CONTENTFORMAT_BEGIN
 90
        0
 91
        0
 92
      512
 93
        0
300

 40
0.0
140
1.0
 94
        2
 62
     0
340
11
144
0.18
309
CONTENTFORMAT_END
171
     0
 94
        6
 95
        1
302
GRIDFORMAT
  1
GRIDFORMAT_BEGIN
 90
        0
 91
        1
 62
     0
 92
       -2
340
0
 93
        0
 40
0.045
309
GRIDFORMAT_END
 95
        2
302
GRIDFORMAT
  1
GRIDFORMAT_BEGIN
 90
        0
 91
        1
 62
     0
 92
       -2
340
0
 93
        0
 40
0.045
309
GRIDFORMAT_END
 95
        4
302
GRIDFORMAT
  1
GRIDFORMAT_BEGIN
 90
        0
 91
        1
 62
     0
 92
       -2
340
0
 93
        0
 40
0.045
309
GRIDFORMAT_END
 95
        8
302
GRIDFORMAT
  1
GRIDFORMAT_BEGIN
 90
        0
 91
        1
 62
     0
 92
       -2
340
0
 93
        0
 40
0.045
309
GRIDFORMAT_END
 95
       16
302
GRIDFORMAT
  1
GRIDFORMAT_BEGIN
 90
        0
 91
        1
 62
     0
 92
       -2
340
0
 93
        0
 40
0.045
309
GRIDFORMAT_END
 95
       32
302
GRIDFORMAT
  1
GRIDFORMAT_BEGIN
 90
        0
 91
        1
 62
     0
 92
       -2
340
0
 93
        0
 40
0.045
309
GRIDFORMAT_END
309
TABLEFORMAT_END
  1
CELLSTYLE_BEGIN
 90
        3
 91
        2
300
_DATA
309
CELLSTYLE_END
  0
ACAD_PROXY_OBJECT
  5
235
102
{ACAD_REACTORS
330
232
102
}
102
{ACAD_XDICTIONARY
360
239
102
}
330
232
100
AcDbProxyObject
 90
      499
 91
      521
 71
    29
 97
       63
 70
     0
162
               142
311
42134018401C000800108018401CC0194028
161
               148
310
4050140902404FFFFFFFFFFFFEF7FA03405010
330
232
360
238
 94
        0
  0
ACAD_PROXY_OBJECT
  5
236
102
{ACAD_REACTORS
330
232
102
}
330
232
100
AcDbProxyObject
 90
      499
 91
      522
 71
    29
 97
       63
 70
     0
162
               122
311
41D1001940198018401D401B001D0000
161
                40
310
4050140592
1001
AcMapDMDisplayStyleRegapp
1070
     2
1071
        1
1000
Default
1000

  0
DICTIONARY
  5
239
330
235
100
AcDbDictionary
280
     1
281
     1
  3
AcMapDMSurrogateStyleSets
360
23A
  0
ACAD_PROXY_OBJECT
  5
238
330
235
100
AcDbProxyObject
 90
      499
 91
      523
 71
    29
 97
       63
 70
     0
161
                11
310
4040
340
236
330
232
 94
        0
  0
ACAD_PROXY_OBJECT
  5
23A
102
{ACAD_REACTORS
330
239
102
}
330
239
100
AcDbProxyObject
 90
      499
 91
      524
 71
    29
 97
       63
 70
     0
162
               138
311
42134018401C000800108018401CC0194000
161
               110
310
405013FFFFFFFFFFFFBDFE80D018
330
238
 94
        0
  0
ENDSEC
  0
SECTION
  2
ACDSDATA
 70
     2
 71
     2
  0
ACDSSCHEMA
 90
        0
  1
AcDb_Thumbnail_Schema
  2
AcDbDs::ID
280
    10
 91
        8
  2
Thumbnail_Data
280
    15
 91
        0
101
ACDSRECORD
 95
        0
 90
        2
  2
AcDbDs::TreatedAsObjectData
280
     1
291
     1
101
ACDSRECORD
 95
        0
 90
        3
  2
AcDbDs::Legacy
280
     1
291
     1
101
ACDSRECORD
  1
AcDbDs::ID
 90
        4
  2
AcDs:Indexable
280
     1
291
     1
101
ACDSRECORD
  1
AcDbDs::ID
 90
        5
  2
AcDbDs::HandleAttribute
280
     7
282
     1
  0
ACDSSCHEMA
 90
        1
  1
AcDb3DSolid_ASM_Data
  2
AcDbDs::ID
280
    10
 91
        8
  2
ASM_Data
280
    15
 91
        0
101
ACDSRECORD
 95
        1
 90
        2
  2
AcDbDs::TreatedAsObjectData
280
     1
291
     1
101
ACDSRECORD
 95
        1
 90
        3
  2
AcDbDs::Legacy
280
     1
291
     1
101
ACDSRECORD
  1
AcDbDs::ID
 90
        4
  2
AcDs:Indexable
280
     1
291
     1
101
ACDSRECORD
  1
AcDbDs::ID
 90
        5
  2
AcDbDs::HandleAttribute
280
     7
282
     1
  0
ACDSSCHEMA
 90
        2
  1
AcDbDs::TreatedAsObjectDataSchema
  2
AcDbDs::TreatedAsObjectData
280
     1
 91
        0
  0
ACDSSCHEMA
 90
        3
  1
AcDbDs::LegacySchema
  2
AcDbDs::Legacy
280
     1
 91
        0
  0
ACDSSCHEMA
 90
        4
  1
AcDbDs::IndexedPropertySchema
  2
AcDs:Indexable
280
     1
 91
        0
  0
ACDSSCHEMA
 90
        5
  1
AcDbDs::HandleAttributeSchema
  2
AcDbDs::HandleAttribute
280
     7
 91
        1
284
     1
  0
ACDSRECORD
 90
        0
  2
AcDbDs::ID
280
    10
320
22
  2
Thumbnail_Data
280
    15
 94
     3116
310
89504E470D0A1A0A0000000D49484452000001000000008108030000001837949D00000300504C5445000000000000C8C8C80000000000000000000000000000000000000000000000000000330000660000990000CC0000FF0033000033330033660033990033CC0033FF0066000066330066660066990066CC0066FF0099
310
000099330099660099990099CC0099FF00CC0000CC3300CC6600CC9900CCCC00CCFF00FF0000FF3300FF6600FF9900FFCC00FFFF3300003300333300663300993300CC3300FF3333003333333333663333993333CC3333FF3366003366333366663366993366CC3366FF3399003399333399663399993399CC3399FF33CC00
310
33CC3333CC6633CC9933CCCC33CCFF33FF0033FF3333FF6633FF9933FFCC33FFFF6600006600336600666600996600CC6600FF6633006633336633666633996633CC6633FF6666006666336666666666996666CC6666FF6699006699336699666699996699CC6699FF66CC0066CC3366CC6666CC9966CCCC66CCFF66FF0066
310
FF3366FF6666FF9966FFCC66FFFF9900009900339900669900999900CC9900FF9933009933339933669933999933CC9933FF9966009966339966669966999966CC9966FF9999009999339999669999999999CC9999FF99CC0099CC3399CC6699CC9999CCCC99CCFF99FF0099FF3399FF6699FF9999FFCC99FFFFCC0000CC00
310
33CC0066CC0099CC00CCCC00FFCC3300CC3333CC3366CC3399CC33CCCC33FFCC6600CC6633CC6666CC6699CC66CCCC66FFCC9900CC9933CC9966CC9999CC99CCCC99FFCCCC00CCCC33CCCC66CCCC99CCCCCCCCCCFFCCFF00CCFF33CCFF66CCFF99CCFFCCCCFFFFFF0000FF0033FF0066FF0099FF00CCFF00FFFF3300FF3333
310
FF3366FF3399FF33CCFF33FFFF6600FF6633FF6666FF6699FF66CCFF66FFFF9900FF9933FF9966FF9999FF99CCFF99FFFFCC00FFCC33FFCC66FFCC99FFCCCCFFCCFFFFFF00FFFF33FFFF66FFFF99FFFFCCFFFFFF0000000D0D0D1A1A1A2828283535354343435050505D5D5D6B6B6B787878868686939393A1A1A1AEAEAEBB
310
BBBBC9C9C9D6D6D6E4E4E4F1F1F1FFFFFF00000000000000000000000000000000000000000000000000000000000008F1915C000000097048597300000EC400000EC401952B0E1B000008D249444154789CED5C59BAACAC0E750635FFC9ECB9F0163F7823BE5F121A511AB14AC1FF5CD7DEE7EC6A10C2A20B49609A5EBC78
310
F1E2C58B6FB03C195D0880690698263D4FF4270608A5E7CD87E1F53E69F42DA65FCDB07BFC084A4E2884EE4380FB0B532A60A62E1328409BBE509DE65A4E3097BE9182D097801CB44A6A33FBD6773CDC034B80E845804A3FB51F09155EE69A8B3AC88EA10C2922CD5CA71FC9EDDBBE04A452BBD61562EDE8B34C526546489A
310
284300A48CCFFBE90740E3F821601AA1870825C07002C01090191FD762D38F9446CF39D465BB0CD542682A6E9FD57F8714A8112C2528E7F104D06CDC930040333F9AD16F5F8F1F022C470F210AA5F5D2042DB430FD4FEC570494386E22ECAB09DAA5D7AC3FB3544485E543741E0411507627C0541850182D044DE5691F20B3
310
DA702768EC4A801234FFCAC36D8BB86D5DDC730D9D2641572CB53FF5F8A3F422A3EC5D83B4ECBE43000A9BDC6E8064B83D6219EC0A1CB90C3E10FF2C01ADD6AE0E04B0280D46B98A8DAE4A6039FB26E9CE55E61B9028A8CBB69D9DB8DF583533B5781A019FC6517091A9F65326206E09987BAD021F83B6A4971040C5FD1954
310
4D8A33905AD06B196CAC7F1B01EA5051A2E2FEE06F6F18C4480B611335F423207E7B33262EEE8F7FB780BD5DB09F22045B013706E05DABD38E41A3908AFE37FB2565368FDE45403538D4258B5D08CC462423DBFD58D8D7A14B3D7B470008394B2D14FDD32891E8E09708C40DCA83AD52A114A22DED007D55E142CBAC04C076
310
784C3C4A4DABA7CE930410F249D2C2A452EFC25EB65BB1366ECBF865C8A52575F26C6690673D2919D9EE445448DA3C85D6EDB5811ABD1B242351BE853A31309A003208A66EBC8387AEC4680200B7BE3E3F1E7653C27D184D40F191978088803BADE68F278003048E95FFAFF1540202D47669979BDD2CB9551A94A41A7A1070
310
E558266D3E8C0DE7685ABF244DC8EC1DDADD0AD0C53B4CF2AA935A5D8BD6673D6DDEB916E340A0D830DC8900F1C944B1A429D38F32893E44006AB345749E4645CE464D1E27331CC0ECF98F7A00469A479F394060DD20A24E78873F9F8FF8FBFB1308D6D3B4FBFA94A371EE6610F126B182DA5B31FB42140149AF382732774D
310
AC46EE53E3A925932694F6D4DF63358991C47501E796F1EFAD3DA97D03F4C950835E04B44F6FA6C9E957392FB28AB60A0BD5F7C02074663439D9EEC7BA53DFBBE3D9D8C1356ECDE76AF45684B676312584744B19AD655AD557B0A518F87B896CF721B65229EDD7F1EDB0702B789B17ED4AD96EC8332D249EAC68059748D551
310
E0C63B9988C30C608DC62E3178550DA659FEA8F41664BB21CF4C21EB2100D3D1719A4F8449DC2C61779B6050579B3778D540DB1FA43ACEFD326C0800B3AECD52B76F58EAA70DBE97EA38F7CBE08771FECC48FDD1FAECF7BBA1A00F01D44EDF9DFE3820E0C4CEB754C0AF193415B259BF4F097DDFFAE70BB82FEBA890B4D7B7
310
6AACFF0801998FBEAFD54E2DFA919FFF6B026830761A0289126FB5BEEF724B09A00DA375A49F9C147B1944B4F88435E0C3762CABFE4B2BC4C9DC3C54782B94513038FA3E9399A22268C385642FD2621BB1D6CD2214C476F14B477153D57D213DABB9037903915531614261B60FC27606FA40312F0E5AEEB450D5314668DDD2
310
5981A783B8B1BA69EB13C2EE3E1F352113A0D98782642D46C97B6C327EE2C43B8F593A978212B0FA16B023011A17B2F32C18E2978A7BDE960DF0FA855963FF262200B7FB8BD6C0C46F2B75065C88E290CE482C00E2C46F831537204785C427C84B2CADFCB82C810CE4DFCA7637EC169FA5D51BEB975C624D87FF361DE18079
310
B116437AC4357B6A206D97ED6ED842B49DF937B35B701829AACB2C0D036DCEAA25F3AA115BFB63470294303D7DD945C4F83EAEE319209BC77652F88180AD00BD35C1653F39B948F2D81D90ED035902282F9A03C8B22627A55525283D408CEA019902496C37ED81AD1DFF8F49270051EE018876A9879DAFF8BC6CB72114B2A9
310
84F5E9A2FFDC0DCED2FA9710109E7D7E7C80758CF08B6DE5A457CA502A19BEF3534126A3558B6502B8B98F9D055553CCC01EC06BF72ADB6C0F31320521F12E23193C7F4B082E6BE801B514A309D03C1226F600C8B5E2CBFA40944DA4002DEBFB2302EAEE84B13142E4CCD6B61B100F91E730D43CD6058D1265F7BB9E47E0B3
310
C775946351EBB25D896221925D823C94B5D9C06C5DA79E83D0EAAC2ACFF51C53A8FADA309680C9EF62A348F9CD83FB0FE8C8F9D9B80EB1EB025B9BC96802E254F9F52F0684F5FE84DC7BF500C72A4295540D04A00D9541B54956B783E91D0163CE0E5FE9D84D74A583CC39207D35408E20E0E0D4C6D9EC1202EA5D8055CE6C
310
0C8A54DDDCE3ED041CF79592B65C822E3AA3FB9D1C3D81EBA320AAD1A3CF23E06AA0ED01A52EF8EF136017CFA2BEF83802EEB842111EA109B68502CA13B13397A0931E402B9154C7ADDBFF56A95E3DA0B552285BCC7A31E46FD72E3D6E0E388FDFAEA41C4EC0E01B76D470026EBF4EF300C309188D97800715023FCC665F4F
310
256308C8D774C80DC34FEA0143309880F1D7CCBD3DA05321A9829FD9A26566C1CC85BB993B39D3E8384815E47CEEE308285F381F436652A5B1406D57C7ACA9BCB70CFA1D9CF4E79BF95A248ADD0350EE8E24F743F747F11D5252D12552CADE9F641F907CB8882C3BF694D10CE9AFA2B386FA682F698DC31185DD7A80AB7F08
310
5AB4525365FD0FD89A486A20BA3F09C052A37D6F6E38175EBC95C77F3DEC52551BA9E98339E888A0E44363E68FEB025E325C87B4BB8436C475361556232043615F022898970F41C3AE2BFBB3A333D02562D43FE81DB89BC45C366D6B6625D57A626B9D223B0F017B191ADDA69EC2096944F3C785ED2C1086750B01F543B86B
310
C1B16CF723108020218C76FFCFFD59DB392C618A6F520BC35AA392FB1FDF87FCC3C7F7AEF17D0B1BD9EE8723200C77E4693D9AC1798E67E9664D97E6B9A8574973C63A04E2EE122F204A46199D3D5EDA9100E4CB2E78C047D50F34B86A52C487F762F819D3D549ACA1EF5465C95D4732A1FED7ACA6E59BF34AB2DD0FA707F0
310
3A5E58C55D0F98587ABF0AA0E50A0301599881107E8D6EF148029E8C1E04BC78F1E2C58B172F5EBC78F1E2C57F16FF03DB057829C2FD7D730000000049454E44AE426082
  0
ENDSEC
  0
EOF
