  0
SECTION
  2
HEADER
  9
$ACADVER
  1
AC1032
  9
$ACADMAINTVER
 90
       55
  9
$DWGCODEPAGE
  3
ANSI_1252
  9
$LASTSAVEDBY
  1
tfj513
  9
$REQUIREDVERSIONS
160
                 0
  9
$INSBASE
 10
0.0
 20
0.0
 30
0.0
  9
$EXTMIN
 10
1.000000000000000E+20
 20
1.000000000000000E+20
 30
1.000000000000000E+20
  9
$EXTMAX
 10
-1.000000000000000E+20
 20
-1.000000000000000E+20
 30
-1.000000000000000E+20
  9
$LIMMIN
 10
0.0
 20
0.0
  9
$LIMMAX
 10
12.0
 20
9.0
  9
$ORTHOMODE
 70
     0
  9
$REGENMODE
 70
     1
  9
$FILLMODE
 70
     1
  9
$QTEXTMODE
 70
     0
  9
$MIRRTEXT
 70
     1
  9
$LTSCALE
 40
1.0
  9
$ATTMODE
 70
     1
  9
$TEXTSIZE
 40
0.2
  9
$TRACEWID
 40
0.05
  9
$TEXTSTYLE
  7
Standard
  9
$CLAYER
  8
0
  9
$CELTYPE
  6
ByBlock
  9
$CECOLOR
 62
   256
  9
$CELTSCALE
 40
1.0
  9
$DISPSILH
 70
     0
  9
$DIMSCALE
 40
1.0
  9
$DIMASZ
 40
0.18
  9
$DIMEXO
 40
0.0625
  9
$DIMDLI
 40
0.38
  9
$DIMRND
 40
0.0
  9
$DIMDLE
 40
0.0
  9
$DIMEXE
 40
0.18
  9
$DIMTP
 40
0.0
  9
$DIMTM
 40
0.0
  9
$DIMTXT
 40
0.18
  9
$DIMCEN
 40
0.09
  9
$DIMTSZ
 40
0.0
  9
$DIMTOL
 70
     0
  9
$DIMLIM
 70
     0
  9
$DIMTIH
 70
     1
  9
$DIMTOH
 70
     1
  9
$DIMSE1
 70
     0
  9
$DIMSE2
 70
     0
  9
$DIMTAD
 70
     0
  9
$DIMZIN
 70
     0
  9
$DIMBLK
  1

  9
$DIMASO
 70
     1
  9
$DIMSHO
 70
     1
  9
$DIMPOST
  1

  9
$DIMAPOST
  1

  9
$DIMALT
 70
     0
  9
$DIMALTD
 70
     2
  9
$DIMALTF
 40
25.4
  9
$DIMLFAC
 40
1.0
  9
$DIMTOFL
 70
     0
  9
$DIMTVP
 40
0.0
  9
$DIMTIX
 70
     0
  9
$DIMSOXD
 70
     0
  9
$DIMSAH
 70
     0
  9
$DIMBLK1
  1

  9
$DIMBLK2
  1

  9
$DIMSTYLE
  2
Standard
  9
$DIMCLRD
 70
     0
  9
$DIMCLRE
 70
     0
  9
$DIMCLRT
 70
     0
  9
$DIMTFAC
 40
1.0
  9
$DIMGAP
 40
0.09
  9
$DIMJUST
 70
     0
  9
$DIMSD1
 70
     0
  9
$DIMSD2
 70
     0
  9
$DIMTOLJ
 70
     1
  9
$DIMTZIN
 70
     0
  9
$DIMALTZ
 70
     0
  9
$DIMALTTZ
 70
     0
  9
$DIMUPT
 70
     0
  9
$DIMDEC
 70
     4
  9
$DIMTDEC
 70
     4
  9
$DIMALTU
 70
     2
  9
$DIMALTTD
 70
     2
  9
$DIMTXSTY
  7
Standard
  9
$DIMAUNIT
 70
     0
  9
$DIMADEC
 70
     0
  9
$DIMALTRND
 40
0.0
  9
$DIMAZIN
 70
     0
  9
$DIMDSEP
 70
    46
  9
$DIMATFIT
 70
     3
  9
$DIMFRAC
 70
     0
  9
$DIMLDRBLK
  1

  9
$DIMLUNIT
 70
     2
  9
$DIMLWD
 70
    -2
  9
$DIMLWE
 70
    -2
  9
$DIMTMOVE
 70
     2
  9
$DIMFXL
 40
1.0
  9
$DIMFXLON
 70
     0
  9
$DIMJOGANG
 40
0.7853981633974483
  9
$DIMTFILL
 70
     0
  9
$DIMTFILLCLR
 70
     0
  9
$DIMARCSYM
 70
     0
  9
$DIMLTYPE
  6

  9
$DIMLTEX1
  6

  9
$DIMLTEX2
  6

  9
$DIMTXTDIRECTION
 70
     0
  9
$LUNITS
 70
     2
  9
$LUPREC
 70
     4
  9
$SKETCHINC
 40
0.1
  9
$FILLETRAD
 40
0.0
  9
$AUNITS
 70
     0
  9
$AUPREC
 70
     0
  9
$MENU
  1
.
  9
$ELEVATION
 40
0.0
  9
$PELEVATION
 40
0.0
  9
$THICKNESS
 40
0.0
  9
$LIMCHECK
 70
     0
  9
$CHAMFERA
 40
0.0
  9
$CHAMFERB
 40
0.0
  9
$CHAMFERC
 40
0.0
  9
$CHAMFERD
 40
0.0
  9
$SKPOLY
 70
     0
  9
$TDCREATE
 40
2460556.577047905
  9
$TDUCREATE
 40
2460556.535381239
  9
$TDUPDATE
 40
2460556.577047998
  9
$TDUUPDATE
 40
2460556.535381331
  9
$TDINDWG
 40
0.0000000116
  9
$TDUSRTIMER
 40
0.0000000116
  9
$USRTIMER
 70
     1
  9
$ANGBASE
 50
0.0
  9
$ANGDIR
 70
     0
  9
$PDMODE
 70
     0
  9
$PDSIZE
 40
0.0
  9
$PLINEWID
 40
0.0
  9
$SPLFRAME
 70
     0
  9
$SPLINETYPE
 70
     6
  9
$SPLINESEGS
 70
     8
  9
$HANDSEED
  5
200
  9
$SURFTAB1
 70
     6
  9
$SURFTAB2
 70
     6
  9
$SURFTYPE
 70
     6
  9
$SURFU
 70
     6
  9
$SURFV
 70
     6
  9
$UCSBASE
  2

  9
$UCSNAME
  2

  9
$UCSORG
 10
0.0
 20
0.0
 30
0.0
  9
$UCSXDIR
 10
1.0
 20
0.0
 30
0.0
  9
$UCSYDIR
 10
0.0
 20
1.0
 30
0.0
  9
$UCSORTHOREF
  2

  9
$UCSORTHOVIEW
 70
     0
  9
$UCSORGTOP
 10
0.0
 20
0.0
 30
0.0
  9
$UCSORGBOTTOM
 10
0.0
 20
0.0
 30
0.0
  9
$UCSORGLEFT
 10
0.0
 20
0.0
 30
0.0
  9
$UCSORGRIGHT
 10
0.0
 20
0.0
 30
0.0
  9
$UCSORGFRONT
 10
0.0
 20
0.0
 30
0.0
  9
$UCSORGBACK
 10
0.0
 20
0.0
 30
0.0
  9
$PUCSBASE
  2

  9
$PUCSNAME
  2

  9
$PUCSORG
 10
0.0
 20
0.0
 30
0.0
  9
$PUCSXDIR
 10
1.0
 20
0.0
 30
0.0
  9
$PUCSYDIR
 10
0.0
 20
1.0
 30
0.0
  9
$PUCSORTHOREF
  2

  9
$PUCSORTHOVIEW
 70
     0
  9
$PUCSORGTOP
 10
0.0
 20
0.0
 30
0.0
  9
$PUCSORGBOTTOM
 10
0.0
 20
0.0
 30
0.0
  9
$PUCSORGLEFT
 10
0.0
 20
0.0
 30
0.0
  9
$PUCSORGRIGHT
 10
0.0
 20
0.0
 30
0.0
  9
$PUCSORGFRONT
 10
0.0
 20
0.0
 30
0.0
  9
$PUCSORGBACK
 10
0.0
 20
0.0
 30
0.0
  9
$USERI1
 70
     0
  9
$USERI2
 70
     0
  9
$USERI3
 70
     0
  9
$USERI4
 70
     0
  9
$USERI5
 70
     0
  9
$USERR1
 40
0.0
  9
$USERR2
 40
0.0
  9
$USERR3
 40
0.0
  9
$USERR4
 40
0.0
  9
$USERR5
 40
0.0
  9
$WORLDVIEW
 70
     1
  9
$SHADEDGE
 70
     3
  9
$SHADEDIF
 70
    70
  9
$TILEMODE
 70
     1
  9
$MAXACTVP
 70
    64
  9
$PINSBASE
 10
0.0
 20
0.0
 30
0.0
  9
$PLIMCHECK
 70
     0
  9
$PEXTMIN
 10
1.000000000000000E+20
 20
1.000000000000000E+20
 30
1.000000000000000E+20
  9
$PEXTMAX
 10
-1.000000000000000E+20
 20
-1.000000000000000E+20
 30
-1.000000000000000E+20
  9
$PLIMMIN
 10
0.0
 20
0.0
  9
$PLIMMAX
 10
12.0
 20
9.0
  9
$UNITMODE
 70
     0
  9
$VISRETAIN
 70
     1
  9
$PLINEGEN
 70
     0
  9
$PSLTSCALE
 70
     1
  9
$TREEDEPTH
 70
  3020
  9
$CMLSTYLE
  2
Standard
  9
$CMLJUST
 70
     0
  9
$CMLSCALE
 40
1.0
  9
$PROXYGRAPHICS
 70
     1
  9
$MEASUREMENT
 70
     0
  9
$CELWEIGHT
370
    -1
  9
$ENDCAPS
280
     0
  9
$JOINSTYLE
280
     0
  9
$LWDISPLAY
290
     0
  9
$INSUNITS
 70
     0
  9
$HYPERLINKBASE
  1

  9
$STYLESHEET
  1

  9
$XEDIT
290
     1
  9
$CEPSNTYPE
380
     0
  9
$PSTYLEMODE
290
     1
  9
$FINGERPRINTGUID
  2
{accc5d16-4ff5-46db-b918-352639e46fac}
  9
$VERSIONGUID
  2
{FAEB1C32-E019-11D5-929B-00C0DF256EC4}
  9
$EXTNAMES
290
     1
  9
$PSVPSCALE
 40
0.0
  9
$OLESTARTUP
290
     0
  9
$SORTENTS
280
   127
  9
$INDEXCTL
280
     0
  9
$HIDETEXT
280
     1
  9
$XCLIPFRAME
280
     2
  9
$HALOGAP
280
     0
  9
$OBSCOLOR
 70
   257
  9
$OBSLTYPE
280
     0
  9
$INTERSECTIONDISPLAY
280
     0
  9
$INTERSECTIONCOLOR
 70
   257
  9
$DIMASSOC
280
     2
  9
$PROJECTNAME
  1

  9
$CAMERADISPLAY
290
     0
  9
$LENSLENGTH
 40
50.0
  9
$CAMERAHEIGHT
 40
0.0
  9
$STEPSPERSEC
 40
2.0
  9
$STEPSIZE
 40
6.0
  9
$3DDWFPREC
 40
2.0
  9
$PSOLWIDTH
 40
0.25
  9
$PSOLHEIGHT
 40
4.0
  9
$LOFTANG1
 40
1.570796326794897
  9
$LOFTANG2
 40
1.570796326794897
  9
$LOFTMAG1
 40
0.0
  9
$LOFTMAG2
 40
0.0
  9
$LOFTPARAM
 70
     7
  9
$LOFTNORMALS
280
     1
  9
$LATITUDE
 40
37.795
  9
$LONGITUDE
 40
-122.394
  9
$NORTHDIRECTION
 40
0.0
  9
$TIMEZONE
 70
 -8000
  9
$LIGHTGLYPHDISPLAY
280
     1
  9
$TILEMODELIGHTSYNCH
280
     1
  9
$CMATERIAL
347
1EF
  9
$SOLIDHIST
280
     0
  9
$SHOWHIST
280
     1
  9
$DWFFRAME
280
     2
  9
$DGNFRAME
280
     2
  9
$REALWORLDSCALE
290
     1
  9
$INTERFERECOLOR
 62
   256
  9
$CSHADOW
280
     0
  9
$SHADOWPLANELOCATION
 40
0.0
  0
ENDSEC
  0
SECTION
  2
CLASSES
  0
CLASS
  1
ACDBDICTIONARYWDFLT
  2
AcDbDictionaryWithDefault
  3
ObjectDBX Classes
 90
        0
 91
        3
280
     0
281
     0
  0
CLASS
  1
SCALE
  2
AcDbScale
  3
ObjectDBX Classes
 90
     1153
 91
        3
280
     0
281
     0
  0
CLASS
  1
VISUALSTYLE
  2
AcDbVisualStyle
  3
ObjectDBX Classes
 90
     4095
 91
        3
280
     0
281
     0
  0
CLASS
  1
MATERIAL
  2
AcDbMaterial
  3
ObjectDBX Classes
 90
     1153
 91
        3
280
     0
281
     0
  0
CLASS
  1
TABLESTYLE
  2
AcDbTableStyle
  3
ObjectDBX Classes
 90
     4095
 91
        3
280
     0
281
     0
  0
CLASS
  1
MLEADERSTYLE
  2
AcDbMLeaderStyle
  3
ACDB_MLEADERSTYLE_CLASS
 90
     4095
 91
        3
280
     0
281
     0
  0
CLASS
  1
DICTIONARYVAR
  2
AcDbDictionaryVar
  3
ObjectDBX Classes
 90
        0
 91
        3
280
     0
281
     0
  0
CLASS
  1
CELLSTYLEMAP
  2
AcDbCellStyleMap
  3
ObjectDBX Classes
 90
     1152
 91
        3
280
     0
281
     0
  0
ENDSEC
  0
SECTION
  2
TABLES
  0
TABLE
  2
VPORT
  5
8
330
0
100
AcDbSymbolTable
 70
     1
  0
VPORT
  5
21
330
8
100
AcDbSymbolTableRecord
100
AcDbViewportTableRecord
  2
*Active
 70
     0
 10
0.0
 20
0.0
 11
1.0
 21
1.0
 12
10.42990654205607
 22
4.5
 13
0.0
 23
0.0
 14
0.5
 24
0.5
 15
0.5
 25
0.5
 16
0.0
 26
0.0
 36
1.0
 17
0.0
 27
0.0
 37
0.0
 40
9.0
 41
1.972972972850329
 42
50.0
 43
0.0
 44
0.0
 50
0.0
 51
0.0
 71
     0
 72
   100
 73
     1
 74
     3
 75
     0
 76
     0
 77
     0
 78
     0
281
     0
 65
     1
110
0.0
120
0.0
130
0.0
111
1.0
121
0.0
131
0.0
112
0.0
122
1.0
132
0.0
 79
     0
146
0.0
348
1DA
 60
     3
 61
     5
292
     1
282
     1
141
0.0
142
0.0
 63
   250
  0
ENDTAB
  0
TABLE
  2
LTYPE
  5
5
330
0
100
AcDbSymbolTable
 70
     1
  0
LTYPE
  5
14
330
5
100
AcDbSymbolTableRecord
100
AcDbLinetypeTableRecord
  2
ByBlock
 70
     0
  3

 72
    65
 73
     0
 40
0.0
  0
LTYPE
  5
15
330
5
100
AcDbSymbolTableRecord
100
AcDbLinetypeTableRecord
  2
ByLayer
 70
     0
  3

 72
    65
 73
     0
 40
0.0
  0
LTYPE
  5
16
330
5
100
AcDbSymbolTableRecord
100
AcDbLinetypeTableRecord
  2
Continuous
 70
     0
  3
Solid line
 72
    65
 73
     0
 40
0.0
  0
ENDTAB
  0
TABLE
  2
LAYER
  5
2
330
0
100
AcDbSymbolTable
 70
     4
  0
LAYER
  5
10
330
2
100
AcDbSymbolTableRecord
100
AcDbLayerTableRecord
  2
0
 70
     0
 62
     7
  6
Continuous
370
    -3
390
F
347
1F1
348
0
  0
LAYER
  5
1BC
330
2
100
AcDbSymbolTableRecord
100
AcDbLayerTableRecord
  2
RelationBox
 70
     0
 62
     7
  6
Continuous
370
    -3
390
F
347
1F1
348
0
  0
LAYER
  5
1BD
330
2
100
AcDbSymbolTableRecord
100
AcDbLayerTableRecord
  2
Relation
 70
     0
 62
     7
  6
Continuous
370
    -3
390
F
347
1F1
348
0
  0
LAYER
  5
1BE
330
2
100
AcDbSymbolTableRecord
100
AcDbLayerTableRecord
  2
Stratum
 70
     0
 62
     7
  6
Continuous
370
    -3
390
F
347
1F1
348
0
  0
ENDTAB
  0
TABLE
  2
STYLE
  5
3
330
0
100
AcDbSymbolTable
 70
     1
  0
STYLE
  5
11
330
3
100
AcDbSymbolTableRecord
100
AcDbTextStyleTableRecord
  2
Standard
 70
     0
 40
0.0
 41
1.0
 50
0.0
 71
     0
 42
0.2
  3
txt
  4

  0
ENDTAB
  0
TABLE
  2
VIEW
  5
6
330
0
100
AcDbSymbolTable
 70
     0
  0
ENDTAB
  0
TABLE
  2
UCS
  5
7
330
0
100
AcDbSymbolTable
 70
     0
  0
ENDTAB
  0
TABLE
  2
APPID
  5
9
330
0
100
AcDbSymbolTable
 70
     1
  0
APPID
  5
12
330
9
100
AcDbSymbolTableRecord
100
AcDbRegAppTableRecord
  2
ACAD
 70
     0
  0
ENDTAB
  0
TABLE
  2
DIMSTYLE
  5
A
330
0
100
AcDbSymbolTable
 70
     1
100
AcDbDimStyleTable
  0
DIMSTYLE
105
20
330
A
100
AcDbSymbolTableRecord
100
AcDbDimStyleTableRecord
  2
Standard
 70
     0
178
     0
340
11
  0
ENDTAB
  0
TABLE
  2
BLOCK_RECORD
  5
1
330
0
100
AcDbSymbolTable
 70
     0
  0
BLOCK_RECORD
  5
1D
330
1
100
AcDbSymbolTableRecord
100
AcDbBlockTableRecord
  2
*Model_Space
340
1E
 70
     0
280
     1
281
     0
  0
BLOCK_RECORD
  5
1B
330
1
100
AcDbSymbolTableRecord
100
AcDbBlockTableRecord
  2
*Paper_Space
340
1C
 70
     0
280
     1
281
     0
  0
ENDTAB
  0
ENDSEC
  0
SECTION
  2
BLOCKS
  0
BLOCK
  5
1D1
330
1D
100
AcDbEntity
  8
0
100
AcDbBlockBegin
  2
*Model_Space
 70
     0
 10
0.0
 20
0.0
 30
0.0
  3
*Model_Space
  1

  0
ENDBLK
  5
1D2
330
1D
100
AcDbEntity
  8
0
100
AcDbBlockEnd
  0
BLOCK
  5
1D3
330
1B
100
AcDbEntity
 67
     1
  8
0
100
AcDbBlockBegin
  2
*Paper_Space
 70
     0
 10
0.0
 20
0.0
 30
0.0
  3
*Paper_Space
  1

  0
ENDBLK
  5
1D4
330
1B
100
AcDbEntity
 67
     1
  8
0
100
AcDbBlockEnd
  0
ENDSEC
  0
SECTION
  2
ENTITIES
  0
LINE
  5
22
330
1D
100
AcDbEntity
  8
Stratum
100
AcDbLine
 10
4392.0
 20
-545.0
 30
0.0
 11
4697.0
 21
-545.0
 31
0.0
  0
LINE
  5
23
330
1D
100
AcDbEntity
  8
Stratum
100
AcDbLine
 10
4392.0
 20
-545.0
 30
0.0
 11
4392.0
 21
-327.0
 31
0.0
  0
LINE
  5
24
330
1D
100
AcDbEntity
  8
Stratum
100
AcDbLine
 10
4697.0
 20
-545.0
 30
0.0
 11
4697.0
 21
-327.0
 31
0.0
  0
LINE
  5
25
330
1D
100
AcDbEntity
  8
Stratum
100
AcDbLine
 10
4392.0
 20
-327.0
 30
0.0
 11
4697.0
 21
-327.0
 31
0.0
  0
TEXT
  5
26
330
1D
100
AcDbEntity
  8
Stratum
100
AcDbText
 10
4430.0
 20
-518.0
 30
0.0
 40
163.0
  1
+
 41
0.4
100
AcDbText
  0
LINE
  5
27
330
1D
100
AcDbEntity
  8
Stratum
100
AcDbLine
 10
61.0
 20
-1417.0
 30
0.0
 11
610.0
 21
-1417.0
 31
0.0
  0
LINE
  5
28
330
1D
100
AcDbEntity
  8
Stratum
100
AcDbLine
 10
61.0
 20
-1417.0
 30
0.0
 11
61.0
 21
-1199.0
 31
0.0
  0
LINE
  5
29
330
1D
100
AcDbEntity
  8
Stratum
100
AcDbLine
 10
610.0
 20
-1417.0
 30
0.0
 11
610.0
 21
-1199.0
 31
0.0
  0
LINE
  5
2A
330
1D
100
AcDbEntity
  8
Stratum
100
AcDbLine
 10
61.0
 20
-1199.0
 30
0.0
 11
610.0
 21
-1199.0
 31
0.0
  0
TEXT
  5
2B
330
1D
100
AcDbEntity
  8
Stratum
100
AcDbText
 10
129.0
 20
-1390.0
 30
0.0
 40
163.0
  1
10003
 41
0.4
100
AcDbText
  0
LINE
  5
2C
330
1D
100
AcDbEntity
  8
Stratum
100
AcDbLine
 10
671.0
 20
-1417.0
 30
0.0
 11
1220.0
 21
-1417.0
 31
0.0
  0
LINE
  5
2D
330
1D
100
AcDbEntity
  8
Stratum
100
AcDbLine
 10
671.0
 20
-1417.0
 30
0.0
 11
671.0
 21
-1199.0
 31
0.0
  0
LINE
  5
2E
330
1D
100
AcDbEntity
  8
Stratum
100
AcDbLine
 10
1220.0
 20
-1417.0
 30
0.0
 11
1220.0
 21
-1199.0
 31
0.0
  0
LINE
  5
2F
330
1D
100
AcDbEntity
  8
Stratum
100
AcDbLine
 10
671.0
 20
-1199.0
 30
0.0
 11
1220.0
 21
-1199.0
 31
0.0
  0
TEXT
  5
30
330
1D
100
AcDbEntity
  8
Stratum
100
AcDbText
 10
739.0
 20
-1390.0
 30
0.0
 40
163.0
  1
10005
 41
0.4
100
AcDbText
  0
LINE
  5
31
330
1D
100
AcDbEntity
  8
Stratum
100
AcDbLine
 10
1281.0
 20
-1417.0
 30
0.0
 11
1769.0
 21
-1417.0
 31
0.0
  0
LINE
  5
32
330
1D
100
AcDbEntity
  8
Stratum
100
AcDbLine
 10
1281.0
 20
-1417.0
 30
0.0
 11
1281.0
 21
-1199.0
 31
0.0
  0
LINE
  5
33
330
1D
100
AcDbEntity
  8
Stratum
100
AcDbLine
 10
1769.0
 20
-1417.0
 30
0.0
 11
1769.0
 21
-1199.0
 31
0.0
  0
LINE
  5
34
330
1D
100
AcDbEntity
  8
Stratum
100
AcDbLine
 10
1281.0
 20
-1199.0
 30
0.0
 11
1769.0
 21
-1199.0
 31
0.0
  0
TEXT
  5
35
330
1D
100
AcDbEntity
  8
Stratum
100
AcDbText
 10
1342.0
 20
-1390.0
 30
0.0
 40
163.0
  1
4503
 41
0.4
100
AcDbText
  0
LINE
  5
36
330
1D
100
AcDbEntity
  8
Stratum
100
AcDbLine
 10
1830.0
 20
-1417.0
 30
0.0
 11
2318.0
 21
-1417.0
 31
0.0
  0
LINE
  5
37
330
1D
100
AcDbEntity
  8
Stratum
100
AcDbLine
 10
1830.0
 20
-1417.0
 30
0.0
 11
1830.0
 21
-1199.0
 31
0.0
  0
LINE
  5
38
330
1D
100
AcDbEntity
  8
Stratum
100
AcDbLine
 10
2318.0
 20
-1417.0
 30
0.0
 11
2318.0
 21
-1199.0
 31
0.0
  0
LINE
  5
39
330
1D
100
AcDbEntity
  8
Stratum
100
AcDbLine
 10
1830.0
 20
-1199.0
 30
0.0
 11
2318.0
 21
-1199.0
 31
0.0
  0
TEXT
  5
3A
330
1D
100
AcDbEntity
  8
Stratum
100
AcDbText
 10
1891.0
 20
-1390.0
 30
0.0
 40
163.0
  1
4604
 41
0.4
100
AcDbText
  0
LINE
  5
3B
330
1D
100
AcDbEntity
  8
Stratum
100
AcDbLine
 10
2379.0
 20
-1417.0
 30
0.0
 11
2867.0
 21
-1417.0
 31
0.0
  0
LINE
  5
3C
330
1D
100
AcDbEntity
  8
Stratum
100
AcDbLine
 10
2379.0
 20
-1417.0
 30
0.0
 11
2379.0
 21
-1199.0
 31
0.0
  0
LINE
  5
3D
330
1D
100
AcDbEntity
  8
Stratum
100
AcDbLine
 10
2867.0
 20
-1417.0
 30
0.0
 11
2867.0
 21
-1199.0
 31
0.0
  0
LINE
  5
3E
330
1D
100
AcDbEntity
  8
Stratum
100
AcDbLine
 10
2379.0
 20
-1199.0
 30
0.0
 11
2867.0
 21
-1199.0
 31
0.0
  0
TEXT
  5
3F
330
1D
100
AcDbEntity
  8
Stratum
100
AcDbText
 10
2440.0
 20
-1390.0
 30
0.0
 40
163.0
  1
4606
 41
0.4
100
AcDbText
  0
LINE
  5
40
330
1D
100
AcDbEntity
  8
Stratum
100
AcDbLine
 10
2928.0
 20
-1417.0
 30
0.0
 11
3416.0
 21
-1417.0
 31
0.0
  0
LINE
  5
41
330
1D
100
AcDbEntity
  8
Stratum
100
AcDbLine
 10
2928.0
 20
-1417.0
 30
0.0
 11
2928.0
 21
-1199.0
 31
0.0
  0
LINE
  5
42
330
1D
100
AcDbEntity
  8
Stratum
100
AcDbLine
 10
3416.0
 20
-1417.0
 30
0.0
 11
3416.0
 21
-1199.0
 31
0.0
  0
LINE
  5
43
330
1D
100
AcDbEntity
  8
Stratum
100
AcDbLine
 10
2928.0
 20
-1199.0
 30
0.0
 11
3416.0
 21
-1199.0
 31
0.0
  0
TEXT
  5
44
330
1D
100
AcDbEntity
  8
Stratum
100
AcDbText
 10
2989.0
 20
-1390.0
 30
0.0
 40
163.0
  1
5403
 41
0.4
100
AcDbText
  0
LINE
  5
45
330
1D
100
AcDbEntity
  8
Stratum
100
AcDbLine
 10
3477.0
 20
-1417.0
 30
0.0
 11
3965.0
 21
-1417.0
 31
0.0
  0
LINE
  5
46
330
1D
100
AcDbEntity
  8
Stratum
100
AcDbLine
 10
3477.0
 20
-1417.0
 30
0.0
 11
3477.0
 21
-1199.0
 31
0.0
  0
LINE
  5
47
330
1D
100
AcDbEntity
  8
Stratum
100
AcDbLine
 10
3965.0
 20
-1417.0
 30
0.0
 11
3965.0
 21
-1199.0
 31
0.0
  0
LINE
  5
48
330
1D
100
AcDbEntity
  8
Stratum
100
AcDbLine
 10
3477.0
 20
-1199.0
 30
0.0
 11
3965.0
 21
-1199.0
 31
0.0
  0
TEXT
  5
49
330
1D
100
AcDbEntity
  8
Stratum
100
AcDbText
 10
3538.0
 20
-1390.0
 30
0.0
 40
163.0
  1
5406
 41
0.4
100
AcDbText
  0
LINE
  5
4A
330
1D
100
AcDbEntity
  8
Stratum
100
AcDbLine
 10
4026.0
 20
-1417.0
 30
0.0
 11
4514.0
 21
-1417.0
 31
0.0
  0
LINE
  5
4B
330
1D
100
AcDbEntity
  8
Stratum
100
AcDbLine
 10
4026.0
 20
-1417.0
 30
0.0
 11
4026.0
 21
-1199.0
 31
0.0
  0
LINE
  5
4C
330
1D
100
AcDbEntity
  8
Stratum
100
AcDbLine
 10
4514.0
 20
-1417.0
 30
0.0
 11
4514.0
 21
-1199.0
 31
0.0
  0
LINE
  5
4D
330
1D
100
AcDbEntity
  8
Stratum
100
AcDbLine
 10
4026.0
 20
-1199.0
 30
0.0
 11
4514.0
 21
-1199.0
 31
0.0
  0
TEXT
  5
4E
330
1D
100
AcDbEntity
  8
Stratum
100
AcDbText
 10
4087.0
 20
-1390.0
 30
0.0
 40
163.0
  1
5504
 41
0.4
100
AcDbText
  0
LINE
  5
4F
330
1D
100
AcDbEntity
  8
Stratum
100
AcDbLine
 10
4575.0
 20
-1417.0
 30
0.0
 11
5063.0
 21
-1417.0
 31
0.0
  0
LINE
  5
50
330
1D
100
AcDbEntity
  8
Stratum
100
AcDbLine
 10
4575.0
 20
-1417.0
 30
0.0
 11
4575.0
 21
-1199.0
 31
0.0
  0
LINE
  5
51
330
1D
100
AcDbEntity
  8
Stratum
100
AcDbLine
 10
5063.0
 20
-1417.0
 30
0.0
 11
5063.0
 21
-1199.0
 31
0.0
  0
LINE
  5
52
330
1D
100
AcDbEntity
  8
Stratum
100
AcDbLine
 10
4575.0
 20
-1199.0
 30
0.0
 11
5063.0
 21
-1199.0
 31
0.0
  0
TEXT
  5
53
330
1D
100
AcDbEntity
  8
Stratum
100
AcDbText
 10
4636.0
 20
-1390.0
 30
0.0
 40
163.0
  1
5506
 41
0.4
100
AcDbText
  0
LINE
  5
54
330
1D
100
AcDbEntity
  8
Stratum
100
AcDbLine
 10
5124.0
 20
-1417.0
 30
0.0
 11
5612.0
 21
-1417.0
 31
0.0
  0
LINE
  5
55
330
1D
100
AcDbEntity
  8
Stratum
100
AcDbLine
 10
5124.0
 20
-1417.0
 30
0.0
 11
5124.0
 21
-1199.0
 31
0.0
  0
LINE
  5
56
330
1D
100
AcDbEntity
  8
Stratum
100
AcDbLine
 10
5612.0
 20
-1417.0
 30
0.0
 11
5612.0
 21
-1199.0
 31
0.0
  0
LINE
  5
57
330
1D
100
AcDbEntity
  8
Stratum
100
AcDbLine
 10
5124.0
 20
-1199.0
 30
0.0
 11
5612.0
 21
-1199.0
 31
0.0
  0
TEXT
  5
58
330
1D
100
AcDbEntity
  8
Stratum
100
AcDbText
 10
5185.0
 20
-1390.0
 30
0.0
 40
163.0
  1
5508
 41
0.4
100
AcDbText
  0
LINE
  5
59
330
1D
100
AcDbEntity
  8
Stratum
100
AcDbLine
 10
5673.0
 20
-1417.0
 30
0.0
 11
6161.0
 21
-1417.0
 31
0.0
  0
LINE
  5
5A
330
1D
100
AcDbEntity
  8
Stratum
100
AcDbLine
 10
5673.0
 20
-1417.0
 30
0.0
 11
5673.0
 21
-1199.0
 31
0.0
  0
LINE
  5
5B
330
1D
100
AcDbEntity
  8
Stratum
100
AcDbLine
 10
6161.0
 20
-1417.0
 30
0.0
 11
6161.0
 21
-1199.0
 31
0.0
  0
LINE
  5
5C
330
1D
100
AcDbEntity
  8
Stratum
100
AcDbLine
 10
5673.0
 20
-1199.0
 30
0.0
 11
6161.0
 21
-1199.0
 31
0.0
  0
TEXT
  5
5D
330
1D
100
AcDbEntity
  8
Stratum
100
AcDbText
 10
5734.0
 20
-1390.0
 30
0.0
 40
163.0
  1
5603
 41
0.4
100
AcDbText
  0
LINE
  5
5E
330
1D
100
AcDbEntity
  8
Stratum
100
AcDbLine
 10
6222.0
 20
-1417.0
 30
0.0
 11
6710.0
 21
-1417.0
 31
0.0
  0
LINE
  5
5F
330
1D
100
AcDbEntity
  8
Stratum
100
AcDbLine
 10
6222.0
 20
-1417.0
 30
0.0
 11
6222.0
 21
-1199.0
 31
0.0
  0
LINE
  5
60
330
1D
100
AcDbEntity
  8
Stratum
100
AcDbLine
 10
6710.0
 20
-1417.0
 30
0.0
 11
6710.0
 21
-1199.0
 31
0.0
  0
LINE
  5
61
330
1D
100
AcDbEntity
  8
Stratum
100
AcDbLine
 10
6222.0
 20
-1199.0
 30
0.0
 11
6710.0
 21
-1199.0
 31
0.0
  0
TEXT
  5
62
330
1D
100
AcDbEntity
  8
Stratum
100
AcDbText
 10
6283.0
 20
-1390.0
 30
0.0
 40
163.0
  1
5605
 41
0.4
100
AcDbText
  0
LINE
  5
63
330
1D
100
AcDbEntity
  8
Stratum
100
AcDbLine
 10
6771.0
 20
-1417.0
 30
0.0
 11
7259.0
 21
-1417.0
 31
0.0
  0
LINE
  5
64
330
1D
100
AcDbEntity
  8
Stratum
100
AcDbLine
 10
6771.0
 20
-1417.0
 30
0.0
 11
6771.0
 21
-1199.0
 31
0.0
  0
LINE
  5
65
330
1D
100
AcDbEntity
  8
Stratum
100
AcDbLine
 10
7259.0
 20
-1417.0
 30
0.0
 11
7259.0
 21
-1199.0
 31
0.0
  0
LINE
  5
66
330
1D
100
AcDbEntity
  8
Stratum
100
AcDbLine
 10
6771.0
 20
-1199.0
 30
0.0
 11
7259.0
 21
-1199.0
 31
0.0
  0
TEXT
  5
67
330
1D
100
AcDbEntity
  8
Stratum
100
AcDbText
 10
6832.0
 20
-1390.0
 30
0.0
 40
163.0
  1
5607
 41
0.4
100
AcDbText
  0
LINE
  5
68
330
1D
100
AcDbEntity
  8
Stratum
100
AcDbLine
 10
7320.0
 20
-1417.0
 30
0.0
 11
7808.0
 21
-1417.0
 31
0.0
  0
LINE
  5
69
330
1D
100
AcDbEntity
  8
Stratum
100
AcDbLine
 10
7320.0
 20
-1417.0
 30
0.0
 11
7320.0
 21
-1199.0
 31
0.0
  0
LINE
  5
6A
330
1D
100
AcDbEntity
  8
Stratum
100
AcDbLine
 10
7808.0
 20
-1417.0
 30
0.0
 11
7808.0
 21
-1199.0
 31
0.0
  0
LINE
  5
6B
330
1D
100
AcDbEntity
  8
Stratum
100
AcDbLine
 10
7320.0
 20
-1199.0
 30
0.0
 11
7808.0
 21
-1199.0
 31
0.0
  0
TEXT
  5
6C
330
1D
100
AcDbEntity
  8
Stratum
100
AcDbText
 10
7381.0
 20
-1390.0
 30
0.0
 40
163.0
  1
5703
 41
0.4
100
AcDbText
  0
LINE
  5
6D
330
1D
100
AcDbEntity
  8
Stratum
100
AcDbLine
 10
7869.0
 20
-1417.0
 30
0.0
 11
8357.0
 21
-1417.0
 31
0.0
  0
LINE
  5
6E
330
1D
100
AcDbEntity
  8
Stratum
100
AcDbLine
 10
7869.0
 20
-1417.0
 30
0.0
 11
7869.0
 21
-1199.0
 31
0.0
  0
LINE
  5
6F
330
1D
100
AcDbEntity
  8
Stratum
100
AcDbLine
 10
8357.0
 20
-1417.0
 30
0.0
 11
8357.0
 21
-1199.0
 31
0.0
  0
LINE
  5
70
330
1D
100
AcDbEntity
  8
Stratum
100
AcDbLine
 10
7869.0
 20
-1199.0
 30
0.0
 11
8357.0
 21
-1199.0
 31
0.0
  0
TEXT
  5
71
330
1D
100
AcDbEntity
  8
Stratum
100
AcDbText
 10
7930.0
 20
-1390.0
 30
0.0
 40
163.0
  1
5903
 41
0.4
100
AcDbText
  0
LINE
  5
72
330
1D
100
AcDbEntity
  8
Stratum
100
AcDbLine
 10
8418.0
 20
-1417.0
 30
0.0
 11
8906.0
 21
-1417.0
 31
0.0
  0
LINE
  5
73
330
1D
100
AcDbEntity
  8
Stratum
100
AcDbLine
 10
8418.0
 20
-1417.0
 30
0.0
 11
8418.0
 21
-1199.0
 31
0.0
  0
LINE
  5
74
330
1D
100
AcDbEntity
  8
Stratum
100
AcDbLine
 10
8906.0
 20
-1417.0
 30
0.0
 11
8906.0
 21
-1199.0
 31
0.0
  0
LINE
  5
75
330
1D
100
AcDbEntity
  8
Stratum
100
AcDbLine
 10
8418.0
 20
-1199.0
 30
0.0
 11
8906.0
 21
-1199.0
 31
0.0
  0
TEXT
  5
76
330
1D
100
AcDbEntity
  8
Stratum
100
AcDbText
 10
8479.0
 20
-1390.0
 30
0.0
 40
163.0
  1
5905
 41
0.4
100
AcDbText
  0
LINE
  5
77
330
1D
100
AcDbEntity
  8
Stratum
100
AcDbLine
 10
61.0
 20
-2289.0
 30
0.0
 11
610.0
 21
-2289.0
 31
0.0
  0
LINE
  5
78
330
1D
100
AcDbEntity
  8
Stratum
100
AcDbLine
 10
61.0
 20
-2289.0
 30
0.0
 11
61.0
 21
-2071.0
 31
0.0
  0
LINE
  5
79
330
1D
100
AcDbEntity
  8
Stratum
100
AcDbLine
 10
610.0
 20
-2289.0
 30
0.0
 11
610.0
 21
-2071.0
 31
0.0
  0
LINE
  5
7A
330
1D
100
AcDbEntity
  8
Stratum
100
AcDbLine
 10
61.0
 20
-2071.0
 30
0.0
 11
610.0
 21
-2071.0
 31
0.0
  0
TEXT
  5
7B
330
1D
100
AcDbEntity
  8
Stratum
100
AcDbText
 10
129.0
 20
-2262.0
 30
0.0
 40
163.0
  1
10004
 41
0.4
100
AcDbText
  0
LINE
  5
7C
330
1D
100
AcDbEntity
  8
Stratum
100
AcDbLine
 10
671.0
 20
-2289.0
 30
0.0
 11
1220.0
 21
-2289.0
 31
0.0
  0
LINE
  5
7D
330
1D
100
AcDbEntity
  8
Stratum
100
AcDbLine
 10
671.0
 20
-2289.0
 30
0.0
 11
671.0
 21
-2071.0
 31
0.0
  0
LINE
  5
7E
330
1D
100
AcDbEntity
  8
Stratum
100
AcDbLine
 10
1220.0
 20
-2289.0
 30
0.0
 11
1220.0
 21
-2071.0
 31
0.0
  0
LINE
  5
7F
330
1D
100
AcDbEntity
  8
Stratum
100
AcDbLine
 10
671.0
 20
-2071.0
 30
0.0
 11
1220.0
 21
-2071.0
 31
0.0
  0
TEXT
  5
80
330
1D
100
AcDbEntity
  8
Stratum
100
AcDbText
 10
739.0
 20
-2262.0
 30
0.0
 40
163.0
  1
10006
 41
0.4
100
AcDbText
  0
LINE
  5
81
330
1D
100
AcDbEntity
  8
Stratum
100
AcDbLine
 10
1281.0
 20
-2289.0
 30
0.0
 11
1769.0
 21
-2289.0
 31
0.0
  0
LINE
  5
82
330
1D
100
AcDbEntity
  8
Stratum
100
AcDbLine
 10
1281.0
 20
-2289.0
 30
0.0
 11
1281.0
 21
-2071.0
 31
0.0
  0
LINE
  5
83
330
1D
100
AcDbEntity
  8
Stratum
100
AcDbLine
 10
1769.0
 20
-2289.0
 30
0.0
 11
1769.0
 21
-2071.0
 31
0.0
  0
LINE
  5
84
330
1D
100
AcDbEntity
  8
Stratum
100
AcDbLine
 10
1281.0
 20
-2071.0
 30
0.0
 11
1769.0
 21
-2071.0
 31
0.0
  0
TEXT
  5
85
330
1D
100
AcDbEntity
  8
Stratum
100
AcDbText
 10
1342.0
 20
-2262.0
 30
0.0
 40
163.0
  1
4504
 41
0.4
100
AcDbText
  0
LINE
  5
86
330
1D
100
AcDbEntity
  8
Stratum
100
AcDbLine
 10
1830.0
 20
-2289.0
 30
0.0
 11
2318.0
 21
-2289.0
 31
0.0
  0
LINE
  5
87
330
1D
100
AcDbEntity
  8
Stratum
100
AcDbLine
 10
1830.0
 20
-2289.0
 30
0.0
 11
1830.0
 21
-2071.0
 31
0.0
  0
LINE
  5
88
330
1D
100
AcDbEntity
  8
Stratum
100
AcDbLine
 10
2318.0
 20
-2289.0
 30
0.0
 11
2318.0
 21
-2071.0
 31
0.0
  0
LINE
  5
89
330
1D
100
AcDbEntity
  8
Stratum
100
AcDbLine
 10
1830.0
 20
-2071.0
 30
0.0
 11
2318.0
 21
-2071.0
 31
0.0
  0
TEXT
  5
8A
330
1D
100
AcDbEntity
  8
Stratum
100
AcDbText
 10
1891.0
 20
-2262.0
 30
0.0
 40
163.0
  1
4605
 41
0.4
100
AcDbText
  0
LINE
  5
8B
330
1D
100
AcDbEntity
  8
Stratum
100
AcDbLine
 10
2379.0
 20
-2289.0
 30
0.0
 11
2867.0
 21
-2289.0
 31
0.0
  0
LINE
  5
8C
330
1D
100
AcDbEntity
  8
Stratum
100
AcDbLine
 10
2379.0
 20
-2289.0
 30
0.0
 11
2379.0
 21
-2071.0
 31
0.0
  0
LINE
  5
8D
330
1D
100
AcDbEntity
  8
Stratum
100
AcDbLine
 10
2867.0
 20
-2289.0
 30
0.0
 11
2867.0
 21
-2071.0
 31
0.0
  0
LINE
  5
8E
330
1D
100
AcDbEntity
  8
Stratum
100
AcDbLine
 10
2379.0
 20
-2071.0
 30
0.0
 11
2867.0
 21
-2071.0
 31
0.0
  0
TEXT
  5
8F
330
1D
100
AcDbEntity
  8
Stratum
100
AcDbText
 10
2440.0
 20
-2262.0
 30
0.0
 40
163.0
  1
4607
 41
0.4
100
AcDbText
  0
LINE
  5
90
330
1D
100
AcDbEntity
  8
Stratum
100
AcDbLine
 10
2928.0
 20
-2289.0
 30
0.0
 11
3416.0
 21
-2289.0
 31
0.0
  0
LINE
  5
91
330
1D
100
AcDbEntity
  8
Stratum
100
AcDbLine
 10
2928.0
 20
-2289.0
 30
0.0
 11
2928.0
 21
-2071.0
 31
0.0
  0
LINE
  5
92
330
1D
100
AcDbEntity
  8
Stratum
100
AcDbLine
 10
3416.0
 20
-2289.0
 30
0.0
 11
3416.0
 21
-2071.0
 31
0.0
  0
LINE
  5
93
330
1D
100
AcDbEntity
  8
Stratum
100
AcDbLine
 10
2928.0
 20
-2071.0
 30
0.0
 11
3416.0
 21
-2071.0
 31
0.0
  0
TEXT
  5
94
330
1D
100
AcDbEntity
  8
Stratum
100
AcDbText
 10
2989.0
 20
-2262.0
 30
0.0
 40
163.0
  1
5404
 41
0.4
100
AcDbText
  0
LINE
  5
95
330
1D
100
AcDbEntity
  8
Stratum
100
AcDbLine
 10
3477.0
 20
-2289.0
 30
0.0
 11
3965.0
 21
-2289.0
 31
0.0
  0
LINE
  5
96
330
1D
100
AcDbEntity
  8
Stratum
100
AcDbLine
 10
3477.0
 20
-2289.0
 30
0.0
 11
3477.0
 21
-2071.0
 31
0.0
  0
LINE
  5
97
330
1D
100
AcDbEntity
  8
Stratum
100
AcDbLine
 10
3965.0
 20
-2289.0
 30
0.0
 11
3965.0
 21
-2071.0
 31
0.0
  0
LINE
  5
98
330
1D
100
AcDbEntity
  8
Stratum
100
AcDbLine
 10
3477.0
 20
-2071.0
 30
0.0
 11
3965.0
 21
-2071.0
 31
0.0
  0
TEXT
  5
99
330
1D
100
AcDbEntity
  8
Stratum
100
AcDbText
 10
3538.0
 20
-2262.0
 30
0.0
 40
163.0
  1
5407
 41
0.4
100
AcDbText
  0
LINE
  5
9A
330
1D
100
AcDbEntity
  8
Stratum
100
AcDbLine
 10
4026.0
 20
-2289.0
 30
0.0
 11
4514.0
 21
-2289.0
 31
0.0
  0
LINE
  5
9B
330
1D
100
AcDbEntity
  8
Stratum
100
AcDbLine
 10
4026.0
 20
-2289.0
 30
0.0
 11
4026.0
 21
-2071.0
 31
0.0
  0
LINE
  5
9C
330
1D
100
AcDbEntity
  8
Stratum
100
AcDbLine
 10
4514.0
 20
-2289.0
 30
0.0
 11
4514.0
 21
-2071.0
 31
0.0
  0
LINE
  5
9D
330
1D
100
AcDbEntity
  8
Stratum
100
AcDbLine
 10
4026.0
 20
-2071.0
 30
0.0
 11
4514.0
 21
-2071.0
 31
0.0
  0
TEXT
  5
9E
330
1D
100
AcDbEntity
  8
Stratum
100
AcDbText
 10
4087.0
 20
-2262.0
 30
0.0
 40
163.0
  1
5505
 41
0.4
100
AcDbText
  0
LINE
  5
9F
330
1D
100
AcDbEntity
  8
Stratum
100
AcDbLine
 10
4575.0
 20
-2289.0
 30
0.0
 11
5063.0
 21
-2289.0
 31
0.0
  0
LINE
  5
A0
330
1D
100
AcDbEntity
  8
Stratum
100
AcDbLine
 10
4575.0
 20
-2289.0
 30
0.0
 11
4575.0
 21
-2071.0
 31
0.0
  0
LINE
  5
A1
330
1D
100
AcDbEntity
  8
Stratum
100
AcDbLine
 10
5063.0
 20
-2289.0
 30
0.0
 11
5063.0
 21
-2071.0
 31
0.0
  0
LINE
  5
A2
330
1D
100
AcDbEntity
  8
Stratum
100
AcDbLine
 10
4575.0
 20
-2071.0
 30
0.0
 11
5063.0
 21
-2071.0
 31
0.0
  0
TEXT
  5
A3
330
1D
100
AcDbEntity
  8
Stratum
100
AcDbText
 10
4636.0
 20
-2262.0
 30
0.0
 40
163.0
  1
5507
 41
0.4
100
AcDbText
  0
LINE
  5
A4
330
1D
100
AcDbEntity
  8
Stratum
100
AcDbLine
 10
5124.0
 20
-2289.0
 30
0.0
 11
5612.0
 21
-2289.0
 31
0.0
  0
LINE
  5
A5
330
1D
100
AcDbEntity
  8
Stratum
100
AcDbLine
 10
5124.0
 20
-2289.0
 30
0.0
 11
5124.0
 21
-2071.0
 31
0.0
  0
LINE
  5
A6
330
1D
100
AcDbEntity
  8
Stratum
100
AcDbLine
 10
5612.0
 20
-2289.0
 30
0.0
 11
5612.0
 21
-2071.0
 31
0.0
  0
LINE
  5
A7
330
1D
100
AcDbEntity
  8
Stratum
100
AcDbLine
 10
5124.0
 20
-2071.0
 30
0.0
 11
5612.0
 21
-2071.0
 31
0.0
  0
TEXT
  5
A8
330
1D
100
AcDbEntity
  8
Stratum
100
AcDbText
 10
5185.0
 20
-2262.0
 30
0.0
 40
163.0
  1
5509
 41
0.4
100
AcDbText
  0
LINE
  5
A9
330
1D
100
AcDbEntity
  8
Stratum
100
AcDbLine
 10
5673.0
 20
-2289.0
 30
0.0
 11
6161.0
 21
-2289.0
 31
0.0
  0
LINE
  5
AA
330
1D
100
AcDbEntity
  8
Stratum
100
AcDbLine
 10
5673.0
 20
-2289.0
 30
0.0
 11
5673.0
 21
-2071.0
 31
0.0
  0
LINE
  5
AB
330
1D
100
AcDbEntity
  8
Stratum
100
AcDbLine
 10
6161.0
 20
-2289.0
 30
0.0
 11
6161.0
 21
-2071.0
 31
0.0
  0
LINE
  5
AC
330
1D
100
AcDbEntity
  8
Stratum
100
AcDbLine
 10
5673.0
 20
-2071.0
 30
0.0
 11
6161.0
 21
-2071.0
 31
0.0
  0
TEXT
  5
AD
330
1D
100
AcDbEntity
  8
Stratum
100
AcDbText
 10
5734.0
 20
-2262.0
 30
0.0
 40
163.0
  1
5604
 41
0.4
100
AcDbText
  0
LINE
  5
AE
330
1D
100
AcDbEntity
  8
Stratum
100
AcDbLine
 10
6222.0
 20
-2289.0
 30
0.0
 11
6710.0
 21
-2289.0
 31
0.0
  0
LINE
  5
AF
330
1D
100
AcDbEntity
  8
Stratum
100
AcDbLine
 10
6222.0
 20
-2289.0
 30
0.0
 11
6222.0
 21
-2071.0
 31
0.0
  0
LINE
  5
B0
330
1D
100
AcDbEntity
  8
Stratum
100
AcDbLine
 10
6710.0
 20
-2289.0
 30
0.0
 11
6710.0
 21
-2071.0
 31
0.0
  0
LINE
  5
B1
330
1D
100
AcDbEntity
  8
Stratum
100
AcDbLine
 10
6222.0
 20
-2071.0
 30
0.0
 11
6710.0
 21
-2071.0
 31
0.0
  0
TEXT
  5
B2
330
1D
100
AcDbEntity
  8
Stratum
100
AcDbText
 10
6283.0
 20
-2262.0
 30
0.0
 40
163.0
  1
5606
 41
0.4
100
AcDbText
  0
LINE
  5
B3
330
1D
100
AcDbEntity
  8
Stratum
100
AcDbLine
 10
6771.0
 20
-2289.0
 30
0.0
 11
7259.0
 21
-2289.0
 31
0.0
  0
LINE
  5
B4
330
1D
100
AcDbEntity
  8
Stratum
100
AcDbLine
 10
6771.0
 20
-2289.0
 30
0.0
 11
6771.0
 21
-2071.0
 31
0.0
  0
LINE
  5
B5
330
1D
100
AcDbEntity
  8
Stratum
100
AcDbLine
 10
7259.0
 20
-2289.0
 30
0.0
 11
7259.0
 21
-2071.0
 31
0.0
  0
LINE
  5
B6
330
1D
100
AcDbEntity
  8
Stratum
100
AcDbLine
 10
6771.0
 20
-2071.0
 30
0.0
 11
7259.0
 21
-2071.0
 31
0.0
  0
TEXT
  5
B7
330
1D
100
AcDbEntity
  8
Stratum
100
AcDbText
 10
6832.0
 20
-2262.0
 30
0.0
 40
163.0
  1
5608
 41
0.4
100
AcDbText
  0
LINE
  5
B8
330
1D
100
AcDbEntity
  8
Stratum
100
AcDbLine
 10
7320.0
 20
-2289.0
 30
0.0
 11
7808.0
 21
-2289.0
 31
0.0
  0
LINE
  5
B9
330
1D
100
AcDbEntity
  8
Stratum
100
AcDbLine
 10
7320.0
 20
-2289.0
 30
0.0
 11
7320.0
 21
-2071.0
 31
0.0
  0
LINE
  5
BA
330
1D
100
AcDbEntity
  8
Stratum
100
AcDbLine
 10
7808.0
 20
-2289.0
 30
0.0
 11
7808.0
 21
-2071.0
 31
0.0
  0
LINE
  5
BB
330
1D
100
AcDbEntity
  8
Stratum
100
AcDbLine
 10
7320.0
 20
-2071.0
 30
0.0
 11
7808.0
 21
-2071.0
 31
0.0
  0
TEXT
  5
BC
330
1D
100
AcDbEntity
  8
Stratum
100
AcDbText
 10
7381.0
 20
-2262.0
 30
0.0
 40
163.0
  1
5704
 41
0.4
100
AcDbText
  0
LINE
  5
BD
330
1D
100
AcDbEntity
  8
Stratum
100
AcDbLine
 10
7869.0
 20
-2289.0
 30
0.0
 11
8357.0
 21
-2289.0
 31
0.0
  0
LINE
  5
BE
330
1D
100
AcDbEntity
  8
Stratum
100
AcDbLine
 10
7869.0
 20
-2289.0
 30
0.0
 11
7869.0
 21
-2071.0
 31
0.0
  0
LINE
  5
BF
330
1D
100
AcDbEntity
  8
Stratum
100
AcDbLine
 10
8357.0
 20
-2289.0
 30
0.0
 11
8357.0
 21
-2071.0
 31
0.0
  0
LINE
  5
C0
330
1D
100
AcDbEntity
  8
Stratum
100
AcDbLine
 10
7869.0
 20
-2071.0
 30
0.0
 11
8357.0
 21
-2071.0
 31
0.0
  0
TEXT
  5
C1
330
1D
100
AcDbEntity
  8
Stratum
100
AcDbText
 10
7930.0
 20
-2262.0
 30
0.0
 40
163.0
  1
5904
 41
0.4
100
AcDbText
  0
LINE
  5
C2
330
1D
100
AcDbEntity
  8
Stratum
100
AcDbLine
 10
8418.0
 20
-2289.0
 30
0.0
 11
8906.0
 21
-2289.0
 31
0.0
  0
LINE
  5
C3
330
1D
100
AcDbEntity
  8
Stratum
100
AcDbLine
 10
8418.0
 20
-2289.0
 30
0.0
 11
8418.0
 21
-2071.0
 31
0.0
  0
LINE
  5
C4
330
1D
100
AcDbEntity
  8
Stratum
100
AcDbLine
 10
8906.0
 20
-2289.0
 30
0.0
 11
8906.0
 21
-2071.0
 31
0.0
  0
LINE
  5
C5
330
1D
100
AcDbEntity
  8
Stratum
100
AcDbLine
 10
8418.0
 20
-2071.0
 30
0.0
 11
8906.0
 21
-2071.0
 31
0.0
  0
TEXT
  5
C6
330
1D
100
AcDbEntity
  8
Stratum
100
AcDbText
 10
8479.0
 20
-2262.0
 30
0.0
 40
163.0
  1
5906
 41
0.4
100
AcDbText
  0
LINE
  5
C7
330
1D
100
AcDbEntity
  8
Stratum
100
AcDbLine
 10
4331.0
 20
-3161.0
 30
0.0
 11
4758.0
 21
-3161.0
 31
0.0
  0
LINE
  5
C8
330
1D
100
AcDbEntity
  8
Stratum
100
AcDbLine
 10
4331.0
 20
-3161.0
 30
0.0
 11
4331.0
 21
-2943.0
 31
0.0
  0
LINE
  5
C9
330
1D
100
AcDbEntity
  8
Stratum
100
AcDbLine
 10
4758.0
 20
-3161.0
 30
0.0
 11
4758.0
 21
-2943.0
 31
0.0
  0
LINE
  5
CA
330
1D
100
AcDbEntity
  8
Stratum
100
AcDbLine
 10
4331.0
 20
-2943.0
 30
0.0
 11
4758.0
 21
-2943.0
 31
0.0
  0
TEXT
  5
CB
330
1D
100
AcDbEntity
  8
Stratum
100
AcDbText
 10
4384.0
 20
-3134.0
 30
0.0
 40
163.0
  1
NFE
 41
0.4
100
AcDbText
  0
LINE
  5
CC
330
1D
100
AcDbEntity
  8
Relation
100
AcDbLine
 10
4514.0
 20
-545.0
 30
0.0
 11
305.0
 21
-1199.0
 31
0.0
  0
LINE
  5
CD
330
1D
100
AcDbEntity
  8
Relation
100
AcDbLine
 10
4514.0
 20
-545.0
 30
0.0
 11
915.0
 21
-1199.0
 31
0.0
  0
LINE
  5
CE
330
1D
100
AcDbEntity
  8
Relation
100
AcDbLine
 10
4514.0
 20
-545.0
 30
0.0
 11
1525.0
 21
-1199.0
 31
0.0
  0
LINE
  5
CF
330
1D
100
AcDbEntity
  8
Relation
100
AcDbLine
 10
4514.0
 20
-545.0
 30
0.0
 11
2074.0
 21
-1199.0
 31
0.0
  0
LINE
  5
D0
330
1D
100
AcDbEntity
  8
Relation
100
AcDbLine
 10
4514.0
 20
-545.0
 30
0.0
 11
2623.0
 21
-1199.0
 31
0.0
  0
LINE
  5
D1
330
1D
100
AcDbEntity
  8
Relation
100
AcDbLine
 10
4514.0
 20
-545.0
 30
0.0
 11
3172.0
 21
-1199.0
 31
0.0
  0
LINE
  5
D2
330
1D
100
AcDbEntity
  8
Relation
100
AcDbLine
 10
4514.0
 20
-545.0
 30
0.0
 11
3721.0
 21
-1199.0
 31
0.0
  0
LINE
  5
D3
330
1D
100
AcDbEntity
  8
Relation
100
AcDbLine
 10
4514.0
 20
-545.0
 30
0.0
 11
4270.0
 21
-1199.0
 31
0.0
  0
LINE
  5
D4
330
1D
100
AcDbEntity
  8
Relation
100
AcDbLine
 10
4514.0
 20
-545.0
 30
0.0
 11
4819.0
 21
-1199.0
 31
0.0
  0
LINE
  5
D5
330
1D
100
AcDbEntity
  8
Relation
100
AcDbLine
 10
4514.0
 20
-545.0
 30
0.0
 11
5368.0
 21
-1199.0
 31
0.0
  0
LINE
  5
D6
330
1D
100
AcDbEntity
  8
Relation
100
AcDbLine
 10
4514.0
 20
-545.0
 30
0.0
 11
5917.0
 21
-1199.0
 31
0.0
  0
LINE
  5
D7
330
1D
100
AcDbEntity
  8
Relation
100
AcDbLine
 10
4514.0
 20
-545.0
 30
0.0
 11
6466.0
 21
-1199.0
 31
0.0
  0
LINE
  5
D8
330
1D
100
AcDbEntity
  8
Relation
100
AcDbLine
 10
4514.0
 20
-545.0
 30
0.0
 11
7015.0
 21
-1199.0
 31
0.0
  0
LINE
  5
D9
330
1D
100
AcDbEntity
  8
Relation
100
AcDbLine
 10
4514.0
 20
-545.0
 30
0.0
 11
7564.0
 21
-1199.0
 31
0.0
  0
LINE
  5
DA
330
1D
100
AcDbEntity
  8
Relation
100
AcDbLine
 10
4514.0
 20
-545.0
 30
0.0
 11
8113.0
 21
-1199.0
 31
0.0
  0
LINE
  5
DB
330
1D
100
AcDbEntity
  8
Relation
100
AcDbLine
 10
4514.0
 20
-545.0
 30
0.0
 11
8662.0
 21
-1199.0
 31
0.0
  0
LINE
  5
DC
330
1D
100
AcDbEntity
  8
Relation
100
AcDbLine
 10
305.0
 20
-1417.0
 30
0.0
 11
305.0
 21
-2071.0
 31
0.0
  0
LINE
  5
DD
330
1D
100
AcDbEntity
  8
Relation
100
AcDbLine
 10
915.0
 20
-1417.0
 30
0.0
 11
915.0
 21
-2071.0
 31
0.0
  0
LINE
  5
DE
330
1D
100
AcDbEntity
  8
Relation
100
AcDbLine
 10
1525.0
 20
-1417.0
 30
0.0
 11
1525.0
 21
-2071.0
 31
0.0
  0
LINE
  5
DF
330
1D
100
AcDbEntity
  8
Relation
100
AcDbLine
 10
2074.0
 20
-1417.0
 30
0.0
 11
2074.0
 21
-2071.0
 31
0.0
  0
LINE
  5
E0
330
1D
100
AcDbEntity
  8
Relation
100
AcDbLine
 10
2623.0
 20
-1417.0
 30
0.0
 11
2623.0
 21
-2071.0
 31
0.0
  0
LINE
  5
E1
330
1D
100
AcDbEntity
  8
Relation
100
AcDbLine
 10
3172.0
 20
-1417.0
 30
0.0
 11
3172.0
 21
-2071.0
 31
0.0
  0
LINE
  5
E2
330
1D
100
AcDbEntity
  8
Relation
100
AcDbLine
 10
3721.0
 20
-1417.0
 30
0.0
 11
3721.0
 21
-2071.0
 31
0.0
  0
LINE
  5
E3
330
1D
100
AcDbEntity
  8
Relation
100
AcDbLine
 10
4270.0
 20
-1417.0
 30
0.0
 11
4270.0
 21
-2071.0
 31
0.0
  0
LINE
  5
E4
330
1D
100
AcDbEntity
  8
Relation
100
AcDbLine
 10
4819.0
 20
-1417.0
 30
0.0
 11
4819.0
 21
-2071.0
 31
0.0
  0
LINE
  5
E5
330
1D
100
AcDbEntity
  8
Relation
100
AcDbLine
 10
5368.0
 20
-1417.0
 30
0.0
 11
5368.0
 21
-2071.0
 31
0.0
  0
LINE
  5
E6
330
1D
100
AcDbEntity
  8
Relation
100
AcDbLine
 10
5917.0
 20
-1417.0
 30
0.0
 11
5917.0
 21
-2071.0
 31
0.0
  0
LINE
  5
E7
330
1D
100
AcDbEntity
  8
Relation
100
AcDbLine
 10
6466.0
 20
-1417.0
 30
0.0
 11
6466.0
 21
-2071.0
 31
0.0
  0
LINE
  5
E8
330
1D
100
AcDbEntity
  8
Relation
100
AcDbLine
 10
7015.0
 20
-1417.0
 30
0.0
 11
7015.0
 21
-2071.0
 31
0.0
  0
LINE
  5
E9
330
1D
100
AcDbEntity
  8
Relation
100
AcDbLine
 10
7564.0
 20
-1417.0
 30
0.0
 11
7564.0
 21
-2071.0
 31
0.0
  0
LINE
  5
EA
330
1D
100
AcDbEntity
  8
Relation
100
AcDbLine
 10
8113.0
 20
-1417.0
 30
0.0
 11
8113.0
 21
-2071.0
 31
0.0
  0
LINE
  5
EB
330
1D
100
AcDbEntity
  8
Relation
100
AcDbLine
 10
8662.0
 20
-1417.0
 30
0.0
 11
8662.0
 21
-2071.0
 31
0.0
  0
LINE
  5
EC
330
1D
100
AcDbEntity
  8
Relation
100
AcDbLine
 10
305.0
 20
-2289.0
 30
0.0
 11
4514.0
 21
-2943.0
 31
0.0
  0
LINE
  5
ED
330
1D
100
AcDbEntity
  8
Relation
100
AcDbLine
 10
915.0
 20
-2289.0
 30
0.0
 11
4514.0
 21
-2943.0
 31
0.0
  0
LINE
  5
EE
330
1D
100
AcDbEntity
  8
Relation
100
AcDbLine
 10
1525.0
 20
-2289.0
 30
0.0
 11
4514.0
 21
-2943.0
 31
0.0
  0
LINE
  5
EF
330
1D
100
AcDbEntity
  8
Relation
100
AcDbLine
 10
2074.0
 20
-2289.0
 30
0.0
 11
4514.0
 21
-2943.0
 31
0.0
  0
LINE
  5
F0
330
1D
100
AcDbEntity
  8
Relation
100
AcDbLine
 10
2623.0
 20
-2289.0
 30
0.0
 11
4514.0
 21
-2943.0
 31
0.0
  0
LINE
  5
F1
330
1D
100
AcDbEntity
  8
Relation
100
AcDbLine
 10
3172.0
 20
-2289.0
 30
0.0
 11
4514.0
 21
-2943.0
 31
0.0
  0
LINE
  5
F2
330
1D
100
AcDbEntity
  8
Relation
100
AcDbLine
 10
3721.0
 20
-2289.0
 30
0.0
 11
4514.0
 21
-2943.0
 31
0.0
  0
LINE
  5
F3
330
1D
100
AcDbEntity
  8
Relation
100
AcDbLine
 10
4270.0
 20
-2289.0
 30
0.0
 11
4514.0
 21
-2943.0
 31
0.0
  0
LINE
  5
F4
330
1D
100
AcDbEntity
  8
Relation
100
AcDbLine
 10
4819.0
 20
-2289.0
 30
0.0
 11
4514.0
 21
-2943.0
 31
0.0
  0
LINE
  5
F5
330
1D
100
AcDbEntity
  8
Relation
100
AcDbLine
 10
5368.0
 20
-2289.0
 30
0.0
 11
4514.0
 21
-2943.0
 31
0.0
  0
LINE
  5
F6
330
1D
100
AcDbEntity
  8
Relation
100
AcDbLine
 10
5917.0
 20
-2289.0
 30
0.0
 11
4514.0
 21
-2943.0
 31
0.0
  0
LINE
  5
F7
330
1D
100
AcDbEntity
  8
Relation
100
AcDbLine
 10
6466.0
 20
-2289.0
 30
0.0
 11
4514.0
 21
-2943.0
 31
0.0
  0
LINE
  5
F8
330
1D
100
AcDbEntity
  8
Relation
100
AcDbLine
 10
7015.0
 20
-2289.0
 30
0.0
 11
4514.0
 21
-2943.0
 31
0.0
  0
LINE
  5
F9
330
1D
100
AcDbEntity
  8
Relation
100
AcDbLine
 10
7564.0
 20
-2289.0
 30
0.0
 11
4514.0
 21
-2943.0
 31
0.0
  0
LINE
  5
FA
330
1D
100
AcDbEntity
  8
Relation
100
AcDbLine
 10
8113.0
 20
-2289.0
 30
0.0
 11
4514.0
 21
-2943.0
 31
0.0
  0
LINE
  5
FB
330
1D
100
AcDbEntity
  8
Relation
100
AcDbLine
 10
8662.0
 20
-2289.0
 30
0.0
 11
4514.0
 21
-2943.0
 31
0.0
  0
LINE
  5
FC
330
1D
100
AcDbEntity
  8
RelationBox
100
AcDbLine
 10
285.0
 20
-1169.0
 30
0.0
 11
325.0
 21
-1169.0
 31
0.0
  0
LINE
  5
FD
330
1D
100
AcDbEntity
  8
RelationBox
100
AcDbLine
 10
285.0
 20
-1199.0
 30
0.0
 11
325.0
 21
-1199.0
 31
0.0
  0
LINE
  5
FE
330
1D
100
AcDbEntity
  8
RelationBox
100
AcDbLine
 10
285.0
 20
-1169.0
 30
0.0
 11
285.0
 21
-1199.0
 31
0.0
  0
LINE
  5
FF
330
1D
100
AcDbEntity
  8
RelationBox
100
AcDbLine
 10
325.0
 20
-1169.0
 30
0.0
 11
325.0
 21
-1199.0
 31
0.0
  0
LINE
  5
100
330
1D
100
AcDbEntity
  8
RelationBox
100
AcDbLine
 10
895.0
 20
-1169.0
 30
0.0
 11
935.0
 21
-1169.0
 31
0.0
  0
LINE
  5
101
330
1D
100
AcDbEntity
  8
RelationBox
100
AcDbLine
 10
895.0
 20
-1199.0
 30
0.0
 11
935.0
 21
-1199.0
 31
0.0
  0
LINE
  5
102
330
1D
100
AcDbEntity
  8
RelationBox
100
AcDbLine
 10
895.0
 20
-1169.0
 30
0.0
 11
895.0
 21
-1199.0
 31
0.0
  0
LINE
  5
103
330
1D
100
AcDbEntity
  8
RelationBox
100
AcDbLine
 10
935.0
 20
-1169.0
 30
0.0
 11
935.0
 21
-1199.0
 31
0.0
  0
LINE
  5
104
330
1D
100
AcDbEntity
  8
RelationBox
100
AcDbLine
 10
1505.0
 20
-1169.0
 30
0.0
 11
1545.0
 21
-1169.0
 31
0.0
  0
LINE
  5
105
330
1D
100
AcDbEntity
  8
RelationBox
100
AcDbLine
 10
1505.0
 20
-1199.0
 30
0.0
 11
1545.0
 21
-1199.0
 31
0.0
  0
LINE
  5
106
330
1D
100
AcDbEntity
  8
RelationBox
100
AcDbLine
 10
1505.0
 20
-1169.0
 30
0.0
 11
1505.0
 21
-1199.0
 31
0.0
  0
LINE
  5
107
330
1D
100
AcDbEntity
  8
RelationBox
100
AcDbLine
 10
1545.0
 20
-1169.0
 30
0.0
 11
1545.0
 21
-1199.0
 31
0.0
  0
LINE
  5
108
330
1D
100
AcDbEntity
  8
RelationBox
100
AcDbLine
 10
2054.0
 20
-1169.0
 30
0.0
 11
2094.0
 21
-1169.0
 31
0.0
  0
LINE
  5
109
330
1D
100
AcDbEntity
  8
RelationBox
100
AcDbLine
 10
2054.0
 20
-1199.0
 30
0.0
 11
2094.0
 21
-1199.0
 31
0.0
  0
LINE
  5
10A
330
1D
100
AcDbEntity
  8
RelationBox
100
AcDbLine
 10
2054.0
 20
-1169.0
 30
0.0
 11
2054.0
 21
-1199.0
 31
0.0
  0
LINE
  5
10B
330
1D
100
AcDbEntity
  8
RelationBox
100
AcDbLine
 10
2094.0
 20
-1169.0
 30
0.0
 11
2094.0
 21
-1199.0
 31
0.0
  0
LINE
  5
10C
330
1D
100
AcDbEntity
  8
RelationBox
100
AcDbLine
 10
2603.0
 20
-1169.0
 30
0.0
 11
2643.0
 21
-1169.0
 31
0.0
  0
LINE
  5
10D
330
1D
100
AcDbEntity
  8
RelationBox
100
AcDbLine
 10
2603.0
 20
-1199.0
 30
0.0
 11
2643.0
 21
-1199.0
 31
0.0
  0
LINE
  5
10E
330
1D
100
AcDbEntity
  8
RelationBox
100
AcDbLine
 10
2603.0
 20
-1169.0
 30
0.0
 11
2603.0
 21
-1199.0
 31
0.0
  0
LINE
  5
10F
330
1D
100
AcDbEntity
  8
RelationBox
100
AcDbLine
 10
2643.0
 20
-1169.0
 30
0.0
 11
2643.0
 21
-1199.0
 31
0.0
  0
LINE
  5
110
330
1D
100
AcDbEntity
  8
RelationBox
100
AcDbLine
 10
3152.0
 20
-1169.0
 30
0.0
 11
3192.0
 21
-1169.0
 31
0.0
  0
LINE
  5
111
330
1D
100
AcDbEntity
  8
RelationBox
100
AcDbLine
 10
3152.0
 20
-1199.0
 30
0.0
 11
3192.0
 21
-1199.0
 31
0.0
  0
LINE
  5
112
330
1D
100
AcDbEntity
  8
RelationBox
100
AcDbLine
 10
3152.0
 20
-1169.0
 30
0.0
 11
3152.0
 21
-1199.0
 31
0.0
  0
LINE
  5
113
330
1D
100
AcDbEntity
  8
RelationBox
100
AcDbLine
 10
3192.0
 20
-1169.0
 30
0.0
 11
3192.0
 21
-1199.0
 31
0.0
  0
LINE
  5
114
330
1D
100
AcDbEntity
  8
RelationBox
100
AcDbLine
 10
3701.0
 20
-1169.0
 30
0.0
 11
3741.0
 21
-1169.0
 31
0.0
  0
LINE
  5
115
330
1D
100
AcDbEntity
  8
RelationBox
100
AcDbLine
 10
3701.0
 20
-1199.0
 30
0.0
 11
3741.0
 21
-1199.0
 31
0.0
  0
LINE
  5
116
330
1D
100
AcDbEntity
  8
RelationBox
100
AcDbLine
 10
3701.0
 20
-1169.0
 30
0.0
 11
3701.0
 21
-1199.0
 31
0.0
  0
LINE
  5
117
330
1D
100
AcDbEntity
  8
RelationBox
100
AcDbLine
 10
3741.0
 20
-1169.0
 30
0.0
 11
3741.0
 21
-1199.0
 31
0.0
  0
LINE
  5
118
330
1D
100
AcDbEntity
  8
RelationBox
100
AcDbLine
 10
4250.0
 20
-1169.0
 30
0.0
 11
4290.0
 21
-1169.0
 31
0.0
  0
LINE
  5
119
330
1D
100
AcDbEntity
  8
RelationBox
100
AcDbLine
 10
4250.0
 20
-1199.0
 30
0.0
 11
4290.0
 21
-1199.0
 31
0.0
  0
LINE
  5
11A
330
1D
100
AcDbEntity
  8
RelationBox
100
AcDbLine
 10
4250.0
 20
-1169.0
 30
0.0
 11
4250.0
 21
-1199.0
 31
0.0
  0
LINE
  5
11B
330
1D
100
AcDbEntity
  8
RelationBox
100
AcDbLine
 10
4290.0
 20
-1169.0
 30
0.0
 11
4290.0
 21
-1199.0
 31
0.0
  0
LINE
  5
11C
330
1D
100
AcDbEntity
  8
RelationBox
100
AcDbLine
 10
4799.0
 20
-1169.0
 30
0.0
 11
4839.0
 21
-1169.0
 31
0.0
  0
LINE
  5
11D
330
1D
100
AcDbEntity
  8
RelationBox
100
AcDbLine
 10
4799.0
 20
-1199.0
 30
0.0
 11
4839.0
 21
-1199.0
 31
0.0
  0
LINE
  5
11E
330
1D
100
AcDbEntity
  8
RelationBox
100
AcDbLine
 10
4799.0
 20
-1169.0
 30
0.0
 11
4799.0
 21
-1199.0
 31
0.0
  0
LINE
  5
11F
330
1D
100
AcDbEntity
  8
RelationBox
100
AcDbLine
 10
4839.0
 20
-1169.0
 30
0.0
 11
4839.0
 21
-1199.0
 31
0.0
  0
LINE
  5
120
330
1D
100
AcDbEntity
  8
RelationBox
100
AcDbLine
 10
5348.0
 20
-1169.0
 30
0.0
 11
5388.0
 21
-1169.0
 31
0.0
  0
LINE
  5
121
330
1D
100
AcDbEntity
  8
RelationBox
100
AcDbLine
 10
5348.0
 20
-1199.0
 30
0.0
 11
5388.0
 21
-1199.0
 31
0.0
  0
LINE
  5
122
330
1D
100
AcDbEntity
  8
RelationBox
100
AcDbLine
 10
5348.0
 20
-1169.0
 30
0.0
 11
5348.0
 21
-1199.0
 31
0.0
  0
LINE
  5
123
330
1D
100
AcDbEntity
  8
RelationBox
100
AcDbLine
 10
5388.0
 20
-1169.0
 30
0.0
 11
5388.0
 21
-1199.0
 31
0.0
  0
LINE
  5
124
330
1D
100
AcDbEntity
  8
RelationBox
100
AcDbLine
 10
5897.0
 20
-1169.0
 30
0.0
 11
5937.0
 21
-1169.0
 31
0.0
  0
LINE
  5
125
330
1D
100
AcDbEntity
  8
RelationBox
100
AcDbLine
 10
5897.0
 20
-1199.0
 30
0.0
 11
5937.0
 21
-1199.0
 31
0.0
  0
LINE
  5
126
330
1D
100
AcDbEntity
  8
RelationBox
100
AcDbLine
 10
5897.0
 20
-1169.0
 30
0.0
 11
5897.0
 21
-1199.0
 31
0.0
  0
LINE
  5
127
330
1D
100
AcDbEntity
  8
RelationBox
100
AcDbLine
 10
5937.0
 20
-1169.0
 30
0.0
 11
5937.0
 21
-1199.0
 31
0.0
  0
LINE
  5
128
330
1D
100
AcDbEntity
  8
RelationBox
100
AcDbLine
 10
6446.0
 20
-1169.0
 30
0.0
 11
6486.0
 21
-1169.0
 31
0.0
  0
LINE
  5
129
330
1D
100
AcDbEntity
  8
RelationBox
100
AcDbLine
 10
6446.0
 20
-1199.0
 30
0.0
 11
6486.0
 21
-1199.0
 31
0.0
  0
LINE
  5
12A
330
1D
100
AcDbEntity
  8
RelationBox
100
AcDbLine
 10
6446.0
 20
-1169.0
 30
0.0
 11
6446.0
 21
-1199.0
 31
0.0
  0
LINE
  5
12B
330
1D
100
AcDbEntity
  8
RelationBox
100
AcDbLine
 10
6486.0
 20
-1169.0
 30
0.0
 11
6486.0
 21
-1199.0
 31
0.0
  0
LINE
  5
12C
330
1D
100
AcDbEntity
  8
RelationBox
100
AcDbLine
 10
6995.0
 20
-1169.0
 30
0.0
 11
7035.0
 21
-1169.0
 31
0.0
  0
LINE
  5
12D
330
1D
100
AcDbEntity
  8
RelationBox
100
AcDbLine
 10
6995.0
 20
-1199.0
 30
0.0
 11
7035.0
 21
-1199.0
 31
0.0
  0
LINE
  5
12E
330
1D
100
AcDbEntity
  8
RelationBox
100
AcDbLine
 10
6995.0
 20
-1169.0
 30
0.0
 11
6995.0
 21
-1199.0
 31
0.0
  0
LINE
  5
12F
330
1D
100
AcDbEntity
  8
RelationBox
100
AcDbLine
 10
7035.0
 20
-1169.0
 30
0.0
 11
7035.0
 21
-1199.0
 31
0.0
  0
LINE
  5
130
330
1D
100
AcDbEntity
  8
RelationBox
100
AcDbLine
 10
7544.0
 20
-1169.0
 30
0.0
 11
7584.0
 21
-1169.0
 31
0.0
  0
LINE
  5
131
330
1D
100
AcDbEntity
  8
RelationBox
100
AcDbLine
 10
7544.0
 20
-1199.0
 30
0.0
 11
7584.0
 21
-1199.0
 31
0.0
  0
LINE
  5
132
330
1D
100
AcDbEntity
  8
RelationBox
100
AcDbLine
 10
7544.0
 20
-1169.0
 30
0.0
 11
7544.0
 21
-1199.0
 31
0.0
  0
LINE
  5
133
330
1D
100
AcDbEntity
  8
RelationBox
100
AcDbLine
 10
7584.0
 20
-1169.0
 30
0.0
 11
7584.0
 21
-1199.0
 31
0.0
  0
LINE
  5
134
330
1D
100
AcDbEntity
  8
RelationBox
100
AcDbLine
 10
8093.0
 20
-1169.0
 30
0.0
 11
8133.0
 21
-1169.0
 31
0.0
  0
LINE
  5
135
330
1D
100
AcDbEntity
  8
RelationBox
100
AcDbLine
 10
8093.0
 20
-1199.0
 30
0.0
 11
8133.0
 21
-1199.0
 31
0.0
  0
LINE
  5
136
330
1D
100
AcDbEntity
  8
RelationBox
100
AcDbLine
 10
8093.0
 20
-1169.0
 30
0.0
 11
8093.0
 21
-1199.0
 31
0.0
  0
LINE
  5
137
330
1D
100
AcDbEntity
  8
RelationBox
100
AcDbLine
 10
8133.0
 20
-1169.0
 30
0.0
 11
8133.0
 21
-1199.0
 31
0.0
  0
LINE
  5
138
330
1D
100
AcDbEntity
  8
RelationBox
100
AcDbLine
 10
8642.0
 20
-1169.0
 30
0.0
 11
8682.0
 21
-1169.0
 31
0.0
  0
LINE
  5
139
330
1D
100
AcDbEntity
  8
RelationBox
100
AcDbLine
 10
8642.0
 20
-1199.0
 30
0.0
 11
8682.0
 21
-1199.0
 31
0.0
  0
LINE
  5
13A
330
1D
100
AcDbEntity
  8
RelationBox
100
AcDbLine
 10
8642.0
 20
-1169.0
 30
0.0
 11
8642.0
 21
-1199.0
 31
0.0
  0
LINE
  5
13B
330
1D
100
AcDbEntity
  8
RelationBox
100
AcDbLine
 10
8682.0
 20
-1169.0
 30
0.0
 11
8682.0
 21
-1199.0
 31
0.0
  0
LINE
  5
13C
330
1D
100
AcDbEntity
  8
RelationBox
100
AcDbLine
 10
285.0
 20
-2041.0
 30
0.0
 11
325.0
 21
-2041.0
 31
0.0
  0
LINE
  5
13D
330
1D
100
AcDbEntity
  8
RelationBox
100
AcDbLine
 10
285.0
 20
-2071.0
 30
0.0
 11
325.0
 21
-2071.0
 31
0.0
  0
LINE
  5
13E
330
1D
100
AcDbEntity
  8
RelationBox
100
AcDbLine
 10
285.0
 20
-2041.0
 30
0.0
 11
285.0
 21
-2071.0
 31
0.0
  0
LINE
  5
13F
330
1D
100
AcDbEntity
  8
RelationBox
100
AcDbLine
 10
325.0
 20
-2041.0
 30
0.0
 11
325.0
 21
-2071.0
 31
0.0
  0
LINE
  5
140
330
1D
100
AcDbEntity
  8
RelationBox
100
AcDbLine
 10
895.0
 20
-2041.0
 30
0.0
 11
935.0
 21
-2041.0
 31
0.0
  0
LINE
  5
141
330
1D
100
AcDbEntity
  8
RelationBox
100
AcDbLine
 10
895.0
 20
-2071.0
 30
0.0
 11
935.0
 21
-2071.0
 31
0.0
  0
LINE
  5
142
330
1D
100
AcDbEntity
  8
RelationBox
100
AcDbLine
 10
895.0
 20
-2041.0
 30
0.0
 11
895.0
 21
-2071.0
 31
0.0
  0
LINE
  5
143
330
1D
100
AcDbEntity
  8
RelationBox
100
AcDbLine
 10
935.0
 20
-2041.0
 30
0.0
 11
935.0
 21
-2071.0
 31
0.0
  0
LINE
  5
144
330
1D
100
AcDbEntity
  8
RelationBox
100
AcDbLine
 10
1505.0
 20
-2041.0
 30
0.0
 11
1545.0
 21
-2041.0
 31
0.0
  0
LINE
  5
145
330
1D
100
AcDbEntity
  8
RelationBox
100
AcDbLine
 10
1505.0
 20
-2071.0
 30
0.0
 11
1545.0
 21
-2071.0
 31
0.0
  0
LINE
  5
146
330
1D
100
AcDbEntity
  8
RelationBox
100
AcDbLine
 10
1505.0
 20
-2041.0
 30
0.0
 11
1505.0
 21
-2071.0
 31
0.0
  0
LINE
  5
147
330
1D
100
AcDbEntity
  8
RelationBox
100
AcDbLine
 10
1545.0
 20
-2041.0
 30
0.0
 11
1545.0
 21
-2071.0
 31
0.0
  0
LINE
  5
148
330
1D
100
AcDbEntity
  8
RelationBox
100
AcDbLine
 10
2054.0
 20
-2041.0
 30
0.0
 11
2094.0
 21
-2041.0
 31
0.0
  0
LINE
  5
149
330
1D
100
AcDbEntity
  8
RelationBox
100
AcDbLine
 10
2054.0
 20
-2071.0
 30
0.0
 11
2094.0
 21
-2071.0
 31
0.0
  0
LINE
  5
14A
330
1D
100
AcDbEntity
  8
RelationBox
100
AcDbLine
 10
2054.0
 20
-2041.0
 30
0.0
 11
2054.0
 21
-2071.0
 31
0.0
  0
LINE
  5
14B
330
1D
100
AcDbEntity
  8
RelationBox
100
AcDbLine
 10
2094.0
 20
-2041.0
 30
0.0
 11
2094.0
 21
-2071.0
 31
0.0
  0
LINE
  5
14C
330
1D
100
AcDbEntity
  8
RelationBox
100
AcDbLine
 10
2603.0
 20
-2041.0
 30
0.0
 11
2643.0
 21
-2041.0
 31
0.0
  0
LINE
  5
14D
330
1D
100
AcDbEntity
  8
RelationBox
100
AcDbLine
 10
2603.0
 20
-2071.0
 30
0.0
 11
2643.0
 21
-2071.0
 31
0.0
  0
LINE
  5
14E
330
1D
100
AcDbEntity
  8
RelationBox
100
AcDbLine
 10
2603.0
 20
-2041.0
 30
0.0
 11
2603.0
 21
-2071.0
 31
0.0
  0
LINE
  5
14F
330
1D
100
AcDbEntity
  8
RelationBox
100
AcDbLine
 10
2643.0
 20
-2041.0
 30
0.0
 11
2643.0
 21
-2071.0
 31
0.0
  0
LINE
  5
150
330
1D
100
AcDbEntity
  8
RelationBox
100
AcDbLine
 10
3152.0
 20
-2041.0
 30
0.0
 11
3192.0
 21
-2041.0
 31
0.0
  0
LINE
  5
151
330
1D
100
AcDbEntity
  8
RelationBox
100
AcDbLine
 10
3152.0
 20
-2071.0
 30
0.0
 11
3192.0
 21
-2071.0
 31
0.0
  0
LINE
  5
152
330
1D
100
AcDbEntity
  8
RelationBox
100
AcDbLine
 10
3152.0
 20
-2041.0
 30
0.0
 11
3152.0
 21
-2071.0
 31
0.0
  0
LINE
  5
153
330
1D
100
AcDbEntity
  8
RelationBox
100
AcDbLine
 10
3192.0
 20
-2041.0
 30
0.0
 11
3192.0
 21
-2071.0
 31
0.0
  0
LINE
  5
154
330
1D
100
AcDbEntity
  8
RelationBox
100
AcDbLine
 10
3701.0
 20
-2041.0
 30
0.0
 11
3741.0
 21
-2041.0
 31
0.0
  0
LINE
  5
155
330
1D
100
AcDbEntity
  8
RelationBox
100
AcDbLine
 10
3701.0
 20
-2071.0
 30
0.0
 11
3741.0
 21
-2071.0
 31
0.0
  0
LINE
  5
156
330
1D
100
AcDbEntity
  8
RelationBox
100
AcDbLine
 10
3701.0
 20
-2041.0
 30
0.0
 11
3701.0
 21
-2071.0
 31
0.0
  0
LINE
  5
157
330
1D
100
AcDbEntity
  8
RelationBox
100
AcDbLine
 10
3741.0
 20
-2041.0
 30
0.0
 11
3741.0
 21
-2071.0
 31
0.0
  0
LINE
  5
158
330
1D
100
AcDbEntity
  8
RelationBox
100
AcDbLine
 10
4250.0
 20
-2041.0
 30
0.0
 11
4290.0
 21
-2041.0
 31
0.0
  0
LINE
  5
159
330
1D
100
AcDbEntity
  8
RelationBox
100
AcDbLine
 10
4250.0
 20
-2071.0
 30
0.0
 11
4290.0
 21
-2071.0
 31
0.0
  0
LINE
  5
15A
330
1D
100
AcDbEntity
  8
RelationBox
100
AcDbLine
 10
4250.0
 20
-2041.0
 30
0.0
 11
4250.0
 21
-2071.0
 31
0.0
  0
LINE
  5
15B
330
1D
100
AcDbEntity
  8
RelationBox
100
AcDbLine
 10
4290.0
 20
-2041.0
 30
0.0
 11
4290.0
 21
-2071.0
 31
0.0
  0
LINE
  5
15C
330
1D
100
AcDbEntity
  8
RelationBox
100
AcDbLine
 10
4799.0
 20
-2041.0
 30
0.0
 11
4839.0
 21
-2041.0
 31
0.0
  0
LINE
  5
15D
330
1D
100
AcDbEntity
  8
RelationBox
100
AcDbLine
 10
4799.0
 20
-2071.0
 30
0.0
 11
4839.0
 21
-2071.0
 31
0.0
  0
LINE
  5
15E
330
1D
100
AcDbEntity
  8
RelationBox
100
AcDbLine
 10
4799.0
 20
-2041.0
 30
0.0
 11
4799.0
 21
-2071.0
 31
0.0
  0
LINE
  5
15F
330
1D
100
AcDbEntity
  8
RelationBox
100
AcDbLine
 10
4839.0
 20
-2041.0
 30
0.0
 11
4839.0
 21
-2071.0
 31
0.0
  0
LINE
  5
160
330
1D
100
AcDbEntity
  8
RelationBox
100
AcDbLine
 10
5348.0
 20
-2041.0
 30
0.0
 11
5388.0
 21
-2041.0
 31
0.0
  0
LINE
  5
161
330
1D
100
AcDbEntity
  8
RelationBox
100
AcDbLine
 10
5348.0
 20
-2071.0
 30
0.0
 11
5388.0
 21
-2071.0
 31
0.0
  0
LINE
  5
162
330
1D
100
AcDbEntity
  8
RelationBox
100
AcDbLine
 10
5348.0
 20
-2041.0
 30
0.0
 11
5348.0
 21
-2071.0
 31
0.0
  0
LINE
  5
163
330
1D
100
AcDbEntity
  8
RelationBox
100
AcDbLine
 10
5388.0
 20
-2041.0
 30
0.0
 11
5388.0
 21
-2071.0
 31
0.0
  0
LINE
  5
164
330
1D
100
AcDbEntity
  8
RelationBox
100
AcDbLine
 10
5897.0
 20
-2041.0
 30
0.0
 11
5937.0
 21
-2041.0
 31
0.0
  0
LINE
  5
165
330
1D
100
AcDbEntity
  8
RelationBox
100
AcDbLine
 10
5897.0
 20
-2071.0
 30
0.0
 11
5937.0
 21
-2071.0
 31
0.0
  0
LINE
  5
166
330
1D
100
AcDbEntity
  8
RelationBox
100
AcDbLine
 10
5897.0
 20
-2041.0
 30
0.0
 11
5897.0
 21
-2071.0
 31
0.0
  0
LINE
  5
167
330
1D
100
AcDbEntity
  8
RelationBox
100
AcDbLine
 10
5937.0
 20
-2041.0
 30
0.0
 11
5937.0
 21
-2071.0
 31
0.0
  0
LINE
  5
168
330
1D
100
AcDbEntity
  8
RelationBox
100
AcDbLine
 10
6446.0
 20
-2041.0
 30
0.0
 11
6486.0
 21
-2041.0
 31
0.0
  0
LINE
  5
169
330
1D
100
AcDbEntity
  8
RelationBox
100
AcDbLine
 10
6446.0
 20
-2071.0
 30
0.0
 11
6486.0
 21
-2071.0
 31
0.0
  0
LINE
  5
16A
330
1D
100
AcDbEntity
  8
RelationBox
100
AcDbLine
 10
6446.0
 20
-2041.0
 30
0.0
 11
6446.0
 21
-2071.0
 31
0.0
  0
LINE
  5
16B
330
1D
100
AcDbEntity
  8
RelationBox
100
AcDbLine
 10
6486.0
 20
-2041.0
 30
0.0
 11
6486.0
 21
-2071.0
 31
0.0
  0
LINE
  5
16C
330
1D
100
AcDbEntity
  8
RelationBox
100
AcDbLine
 10
6995.0
 20
-2041.0
 30
0.0
 11
7035.0
 21
-2041.0
 31
0.0
  0
LINE
  5
16D
330
1D
100
AcDbEntity
  8
RelationBox
100
AcDbLine
 10
6995.0
 20
-2071.0
 30
0.0
 11
7035.0
 21
-2071.0
 31
0.0
  0
LINE
  5
16E
330
1D
100
AcDbEntity
  8
RelationBox
100
AcDbLine
 10
6995.0
 20
-2041.0
 30
0.0
 11
6995.0
 21
-2071.0
 31
0.0
  0
LINE
  5
16F
330
1D
100
AcDbEntity
  8
RelationBox
100
AcDbLine
 10
7035.0
 20
-2041.0
 30
0.0
 11
7035.0
 21
-2071.0
 31
0.0
  0
LINE
  5
170
330
1D
100
AcDbEntity
  8
RelationBox
100
AcDbLine
 10
7544.0
 20
-2041.0
 30
0.0
 11
7584.0
 21
-2041.0
 31
0.0
  0
LINE
  5
171
330
1D
100
AcDbEntity
  8
RelationBox
100
AcDbLine
 10
7544.0
 20
-2071.0
 30
0.0
 11
7584.0
 21
-2071.0
 31
0.0
  0
LINE
  5
172
330
1D
100
AcDbEntity
  8
RelationBox
100
AcDbLine
 10
7544.0
 20
-2041.0
 30
0.0
 11
7544.0
 21
-2071.0
 31
0.0
  0
LINE
  5
173
330
1D
100
AcDbEntity
  8
RelationBox
100
AcDbLine
 10
7584.0
 20
-2041.0
 30
0.0
 11
7584.0
 21
-2071.0
 31
0.0
  0
LINE
  5
174
330
1D
100
AcDbEntity
  8
RelationBox
100
AcDbLine
 10
8093.0
 20
-2041.0
 30
0.0
 11
8133.0
 21
-2041.0
 31
0.0
  0
LINE
  5
175
330
1D
100
AcDbEntity
  8
RelationBox
100
AcDbLine
 10
8093.0
 20
-2071.0
 30
0.0
 11
8133.0
 21
-2071.0
 31
0.0
  0
LINE
  5
176
330
1D
100
AcDbEntity
  8
RelationBox
100
AcDbLine
 10
8093.0
 20
-2041.0
 30
0.0
 11
8093.0
 21
-2071.0
 31
0.0
  0
LINE
  5
177
330
1D
100
AcDbEntity
  8
RelationBox
100
AcDbLine
 10
8133.0
 20
-2041.0
 30
0.0
 11
8133.0
 21
-2071.0
 31
0.0
  0
LINE
  5
178
330
1D
100
AcDbEntity
  8
RelationBox
100
AcDbLine
 10
8642.0
 20
-2041.0
 30
0.0
 11
8682.0
 21
-2041.0
 31
0.0
  0
LINE
  5
179
330
1D
100
AcDbEntity
  8
RelationBox
100
AcDbLine
 10
8642.0
 20
-2071.0
 30
0.0
 11
8682.0
 21
-2071.0
 31
0.0
  0
LINE
  5
17A
330
1D
100
AcDbEntity
  8
RelationBox
100
AcDbLine
 10
8642.0
 20
-2041.0
 30
0.0
 11
8642.0
 21
-2071.0
 31
0.0
  0
LINE
  5
17B
330
1D
100
AcDbEntity
  8
RelationBox
100
AcDbLine
 10
8682.0
 20
-2041.0
 30
0.0
 11
8682.0
 21
-2071.0
 31
0.0
  0
LINE
  5
17C
330
1D
100
AcDbEntity
  8
RelationBox
100
AcDbLine
 10
4494.0
 20
-2913.0
 30
0.0
 11
4534.0
 21
-2913.0
 31
0.0
  0
LINE
  5
17D
330
1D
100
AcDbEntity
  8
RelationBox
100
AcDbLine
 10
4494.0
 20
-2943.0
 30
0.0
 11
4534.0
 21
-2943.0
 31
0.0
  0
LINE
  5
17E
330
1D
100
AcDbEntity
  8
RelationBox
100
AcDbLine
 10
4494.0
 20
-2913.0
 30
0.0
 11
4494.0
 21
-2943.0
 31
0.0
  0
LINE
  5
17F
330
1D
100
AcDbEntity
  8
RelationBox
100
AcDbLine
 10
4534.0
 20
-2913.0
 30
0.0
 11
4534.0
 21
-2943.0
 31
0.0
  0
LINE
  5
180
330
1D
100
AcDbEntity
  8
RelationBox
100
AcDbLine
 10
4494.0
 20
-2913.0
 30
0.0
 11
4534.0
 21
-2913.0
 31
0.0
  0
LINE
  5
181
330
1D
100
AcDbEntity
  8
RelationBox
100
AcDbLine
 10
4494.0
 20
-2943.0
 30
0.0
 11
4534.0
 21
-2943.0
 31
0.0
  0
LINE
  5
182
330
1D
100
AcDbEntity
  8
RelationBox
100
AcDbLine
 10
4494.0
 20
-2913.0
 30
0.0
 11
4494.0
 21
-2943.0
 31
0.0
  0
LINE
  5
183
330
1D
100
AcDbEntity
  8
RelationBox
100
AcDbLine
 10
4534.0
 20
-2913.0
 30
0.0
 11
4534.0
 21
-2943.0
 31
0.0
  0
LINE
  5
184
330
1D
100
AcDbEntity
  8
RelationBox
100
AcDbLine
 10
4494.0
 20
-2913.0
 30
0.0
 11
4534.0
 21
-2913.0
 31
0.0
  0
LINE
  5
185
330
1D
100
AcDbEntity
  8
RelationBox
100
AcDbLine
 10
4494.0
 20
-2943.0
 30
0.0
 11
4534.0
 21
-2943.0
 31
0.0
  0
LINE
  5
186
330
1D
100
AcDbEntity
  8
RelationBox
100
AcDbLine
 10
4494.0
 20
-2913.0
 30
0.0
 11
4494.0
 21
-2943.0
 31
0.0
  0
LINE
  5
187
330
1D
100
AcDbEntity
  8
RelationBox
100
AcDbLine
 10
4534.0
 20
-2913.0
 30
0.0
 11
4534.0
 21
-2943.0
 31
0.0
  0
LINE
  5
188
330
1D
100
AcDbEntity
  8
RelationBox
100
AcDbLine
 10
4494.0
 20
-2913.0
 30
0.0
 11
4534.0
 21
-2913.0
 31
0.0
  0
LINE
  5
189
330
1D
100
AcDbEntity
  8
RelationBox
100
AcDbLine
 10
4494.0
 20
-2943.0
 30
0.0
 11
4534.0
 21
-2943.0
 31
0.0
  0
LINE
  5
18A
330
1D
100
AcDbEntity
  8
RelationBox
100
AcDbLine
 10
4494.0
 20
-2913.0
 30
0.0
 11
4494.0
 21
-2943.0
 31
0.0
  0
LINE
  5
18B
330
1D
100
AcDbEntity
  8
RelationBox
100
AcDbLine
 10
4534.0
 20
-2913.0
 30
0.0
 11
4534.0
 21
-2943.0
 31
0.0
  0
LINE
  5
18C
330
1D
100
AcDbEntity
  8
RelationBox
100
AcDbLine
 10
4494.0
 20
-2913.0
 30
0.0
 11
4534.0
 21
-2913.0
 31
0.0
  0
LINE
  5
18D
330
1D
100
AcDbEntity
  8
RelationBox
100
AcDbLine
 10
4494.0
 20
-2943.0
 30
0.0
 11
4534.0
 21
-2943.0
 31
0.0
  0
LINE
  5
18E
330
1D
100
AcDbEntity
  8
RelationBox
100
AcDbLine
 10
4494.0
 20
-2913.0
 30
0.0
 11
4494.0
 21
-2943.0
 31
0.0
  0
LINE
  5
18F
330
1D
100
AcDbEntity
  8
RelationBox
100
AcDbLine
 10
4534.0
 20
-2913.0
 30
0.0
 11
4534.0
 21
-2943.0
 31
0.0
  0
LINE
  5
190
330
1D
100
AcDbEntity
  8
RelationBox
100
AcDbLine
 10
4494.0
 20
-2913.0
 30
0.0
 11
4534.0
 21
-2913.0
 31
0.0
  0
LINE
  5
191
330
1D
100
AcDbEntity
  8
RelationBox
100
AcDbLine
 10
4494.0
 20
-2943.0
 30
0.0
 11
4534.0
 21
-2943.0
 31
0.0
  0
LINE
  5
192
330
1D
100
AcDbEntity
  8
RelationBox
100
AcDbLine
 10
4494.0
 20
-2913.0
 30
0.0
 11
4494.0
 21
-2943.0
 31
0.0
  0
LINE
  5
193
330
1D
100
AcDbEntity
  8
RelationBox
100
AcDbLine
 10
4534.0
 20
-2913.0
 30
0.0
 11
4534.0
 21
-2943.0
 31
0.0
  0
LINE
  5
194
330
1D
100
AcDbEntity
  8
RelationBox
100
AcDbLine
 10
4494.0
 20
-2913.0
 30
0.0
 11
4534.0
 21
-2913.0
 31
0.0
  0
LINE
  5
195
330
1D
100
AcDbEntity
  8
RelationBox
100
AcDbLine
 10
4494.0
 20
-2943.0
 30
0.0
 11
4534.0
 21
-2943.0
 31
0.0
  0
LINE
  5
196
330
1D
100
AcDbEntity
  8
RelationBox
100
AcDbLine
 10
4494.0
 20
-2913.0
 30
0.0
 11
4494.0
 21
-2943.0
 31
0.0
  0
LINE
  5
197
330
1D
100
AcDbEntity
  8
RelationBox
100
AcDbLine
 10
4534.0
 20
-2913.0
 30
0.0
 11
4534.0
 21
-2943.0
 31
0.0
  0
LINE
  5
198
330
1D
100
AcDbEntity
  8
RelationBox
100
AcDbLine
 10
4494.0
 20
-2913.0
 30
0.0
 11
4534.0
 21
-2913.0
 31
0.0
  0
LINE
  5
199
330
1D
100
AcDbEntity
  8
RelationBox
100
AcDbLine
 10
4494.0
 20
-2943.0
 30
0.0
 11
4534.0
 21
-2943.0
 31
0.0
  0
LINE
  5
19A
330
1D
100
AcDbEntity
  8
RelationBox
100
AcDbLine
 10
4494.0
 20
-2913.0
 30
0.0
 11
4494.0
 21
-2943.0
 31
0.0
  0
LINE
  5
19B
330
1D
100
AcDbEntity
  8
RelationBox
100
AcDbLine
 10
4534.0
 20
-2913.0
 30
0.0
 11
4534.0
 21
-2943.0
 31
0.0
  0
LINE
  5
19C
330
1D
100
AcDbEntity
  8
RelationBox
100
AcDbLine
 10
4494.0
 20
-2913.0
 30
0.0
 11
4534.0
 21
-2913.0
 31
0.0
  0
LINE
  5
19D
330
1D
100
AcDbEntity
  8
RelationBox
100
AcDbLine
 10
4494.0
 20
-2943.0
 30
0.0
 11
4534.0
 21
-2943.0
 31
0.0
  0
LINE
  5
19E
330
1D
100
AcDbEntity
  8
RelationBox
100
AcDbLine
 10
4494.0
 20
-2913.0
 30
0.0
 11
4494.0
 21
-2943.0
 31
0.0
  0
LINE
  5
19F
330
1D
100
AcDbEntity
  8
RelationBox
100
AcDbLine
 10
4534.0
 20
-2913.0
 30
0.0
 11
4534.0
 21
-2943.0
 31
0.0
  0
LINE
  5
1A0
330
1D
100
AcDbEntity
  8
RelationBox
100
AcDbLine
 10
4494.0
 20
-2913.0
 30
0.0
 11
4534.0
 21
-2913.0
 31
0.0
  0
LINE
  5
1A1
330
1D
100
AcDbEntity
  8
RelationBox
100
AcDbLine
 10
4494.0
 20
-2943.0
 30
0.0
 11
4534.0
 21
-2943.0
 31
0.0
  0
LINE
  5
1A2
330
1D
100
AcDbEntity
  8
RelationBox
100
AcDbLine
 10
4494.0
 20
-2913.0
 30
0.0
 11
4494.0
 21
-2943.0
 31
0.0
  0
LINE
  5
1A3
330
1D
100
AcDbEntity
  8
RelationBox
100
AcDbLine
 10
4534.0
 20
-2913.0
 30
0.0
 11
4534.0
 21
-2943.0
 31
0.0
  0
LINE
  5
1A4
330
1D
100
AcDbEntity
  8
RelationBox
100
AcDbLine
 10
4494.0
 20
-2913.0
 30
0.0
 11
4534.0
 21
-2913.0
 31
0.0
  0
LINE
  5
1A5
330
1D
100
AcDbEntity
  8
RelationBox
100
AcDbLine
 10
4494.0
 20
-2943.0
 30
0.0
 11
4534.0
 21
-2943.0
 31
0.0
  0
LINE
  5
1A6
330
1D
100
AcDbEntity
  8
RelationBox
100
AcDbLine
 10
4494.0
 20
-2913.0
 30
0.0
 11
4494.0
 21
-2943.0
 31
0.0
  0
LINE
  5
1A7
330
1D
100
AcDbEntity
  8
RelationBox
100
AcDbLine
 10
4534.0
 20
-2913.0
 30
0.0
 11
4534.0
 21
-2943.0
 31
0.0
  0
LINE
  5
1A8
330
1D
100
AcDbEntity
  8
RelationBox
100
AcDbLine
 10
4494.0
 20
-2913.0
 30
0.0
 11
4534.0
 21
-2913.0
 31
0.0
  0
LINE
  5
1A9
330
1D
100
AcDbEntity
  8
RelationBox
100
AcDbLine
 10
4494.0
 20
-2943.0
 30
0.0
 11
4534.0
 21
-2943.0
 31
0.0
  0
LINE
  5
1AA
330
1D
100
AcDbEntity
  8
RelationBox
100
AcDbLine
 10
4494.0
 20
-2913.0
 30
0.0
 11
4494.0
 21
-2943.0
 31
0.0
  0
LINE
  5
1AB
330
1D
100
AcDbEntity
  8
RelationBox
100
AcDbLine
 10
4534.0
 20
-2913.0
 30
0.0
 11
4534.0
 21
-2943.0
 31
0.0
  0
LINE
  5
1AC
330
1D
100
AcDbEntity
  8
RelationBox
100
AcDbLine
 10
4494.0
 20
-2913.0
 30
0.0
 11
4534.0
 21
-2913.0
 31
0.0
  0
LINE
  5
1AD
330
1D
100
AcDbEntity
  8
RelationBox
100
AcDbLine
 10
4494.0
 20
-2943.0
 30
0.0
 11
4534.0
 21
-2943.0
 31
0.0
  0
LINE
  5
1AE
330
1D
100
AcDbEntity
  8
RelationBox
100
AcDbLine
 10
4494.0
 20
-2913.0
 30
0.0
 11
4494.0
 21
-2943.0
 31
0.0
  0
LINE
  5
1AF
330
1D
100
AcDbEntity
  8
RelationBox
100
AcDbLine
 10
4534.0
 20
-2913.0
 30
0.0
 11
4534.0
 21
-2943.0
 31
0.0
  0
LINE
  5
1B0
330
1D
100
AcDbEntity
  8
RelationBox
100
AcDbLine
 10
4494.0
 20
-2913.0
 30
0.0
 11
4534.0
 21
-2913.0
 31
0.0
  0
LINE
  5
1B1
330
1D
100
AcDbEntity
  8
RelationBox
100
AcDbLine
 10
4494.0
 20
-2943.0
 30
0.0
 11
4534.0
 21
-2943.0
 31
0.0
  0
LINE
  5
1B2
330
1D
100
AcDbEntity
  8
RelationBox
100
AcDbLine
 10
4494.0
 20
-2913.0
 30
0.0
 11
4494.0
 21
-2943.0
 31
0.0
  0
LINE
  5
1B3
330
1D
100
AcDbEntity
  8
RelationBox
100
AcDbLine
 10
4534.0
 20
-2913.0
 30
0.0
 11
4534.0
 21
-2943.0
 31
0.0
  0
LINE
  5
1B4
330
1D
100
AcDbEntity
  8
RelationBox
100
AcDbLine
 10
4494.0
 20
-2913.0
 30
0.0
 11
4534.0
 21
-2913.0
 31
0.0
  0
LINE
  5
1B5
330
1D
100
AcDbEntity
  8
RelationBox
100
AcDbLine
 10
4494.0
 20
-2943.0
 30
0.0
 11
4534.0
 21
-2943.0
 31
0.0
  0
LINE
  5
1B6
330
1D
100
AcDbEntity
  8
RelationBox
100
AcDbLine
 10
4494.0
 20
-2913.0
 30
0.0
 11
4494.0
 21
-2943.0
 31
0.0
  0
LINE
  5
1B7
330
1D
100
AcDbEntity
  8
RelationBox
100
AcDbLine
 10
4534.0
 20
-2913.0
 30
0.0
 11
4534.0
 21
-2943.0
 31
0.0
  0
LINE
  5
1B8
330
1D
100
AcDbEntity
  8
RelationBox
100
AcDbLine
 10
4494.0
 20
-2913.0
 30
0.0
 11
4534.0
 21
-2913.0
 31
0.0
  0
LINE
  5
1B9
330
1D
100
AcDbEntity
  8
RelationBox
100
AcDbLine
 10
4494.0
 20
-2943.0
 30
0.0
 11
4534.0
 21
-2943.0
 31
0.0
  0
LINE
  5
1BA
330
1D
100
AcDbEntity
  8
RelationBox
100
AcDbLine
 10
4494.0
 20
-2913.0
 30
0.0
 11
4494.0
 21
-2943.0
 31
0.0
  0
LINE
  5
1BB
330
1D
100
AcDbEntity
  8
RelationBox
100
AcDbLine
 10
4534.0
 20
-2913.0
 30
0.0
 11
4534.0
 21
-2943.0
 31
0.0
  0
ENDSEC
  0
SECTION
  2
OBJECTS
  0
DICTIONARY
  5
C
330
0
100
AcDbDictionary
281
     1
  3
ACAD_DETAILVIEWSTYLE
350
1FE
  3
ACAD_GROUP
350
D
  3
ACAD_LAYOUT
350
1A
  3
ACAD_MATERIAL
350
1EE
  3
ACAD_MLEADERSTYLE
350
1F4
  3
ACAD_MLINESTYLE
350
17
  3
ACAD_PLOTSETTINGS
350
19
  3
ACAD_PLOTSTYLENAME
350
E
  3
ACAD_SCALELIST
350
1BF
  3
ACAD_SECTIONVIEWSTYLE
350
1FF
  3
ACAD_TABLESTYLE
350
1F2
  3
ACAD_VISUALSTYLE
350
1D5
  3
ACDB_RECOMPOSE_DATA
350
1FA
  3
AcDbVariableDictionary
350
1F6
  0
DICTIONARY
  5
1FE
102
{ACAD_REACTORS
330
C
102
}
330
C
100
AcDbDictionary
281
     1
  0
DICTIONARY
  5
D
102
{ACAD_REACTORS
330
C
102
}
330
C
100
AcDbDictionary
281
     1
  0
DICTIONARY
  5
1A
102
{ACAD_REACTORS
330
C
102
}
330
C
100
AcDbDictionary
281
     1
  3
Layout1
350
1C
  3
Model
350
1E
  0
DICTIONARY
  5
1EE
102
{ACAD_REACTORS
330
C
102
}
330
C
100
AcDbDictionary
281
     1
  3
ByBlock
350
1F0
  3
ByLayer
350
1EF
  3
Global
350
1F1
  0
DICTIONARY
  5
1F4
102
{ACAD_REACTORS
330
C
102
}
330
C
100
AcDbDictionary
281
     1
  3
Standard
350
1F5
  0
DICTIONARY
  5
17
102
{ACAD_REACTORS
330
C
102
}
330
C
100
AcDbDictionary
281
     1
  3
Standard
350
18
  0
DICTIONARY
  5
19
102
{ACAD_REACTORS
330
C
102
}
330
C
100
AcDbDictionary
281
     1
  0
ACDBDICTIONARYWDFLT
  5
E
102
{ACAD_REACTORS
330
C
102
}
330
C
100
AcDbDictionary
281
     1
  3
Normal
350
F
100
AcDbDictionaryWithDefault
340
F
  0
DICTIONARY
  5
1BF
102
{ACAD_REACTORS
330
C
102
}
330
C
100
AcDbDictionary
281
     1
  3
A0
350
1C0
  3
A1
350
1C1
  3
A2
350
1C2
  3
A3
350
1C3
  3
A4
350
1C4
  3
A5
350
1C5
  3
A6
350
1C6
  3
A7
350
1C7
  3
A8
350
1C8
  3
A9
350
1C9
  3
B1
350
1CA
  3
B2
350
1CB
  3
B3
350
1CC
  3
B4
350
1CD
  3
B5
350
1CE
  3
B6
350
1CF
  3
B7
350
1D0
  0
DICTIONARY
  5
1FF
102
{ACAD_REACTORS
330
C
102
}
330
C
100
AcDbDictionary
281
     1
  0
DICTIONARY
  5
1F2
102
{ACAD_REACTORS
330
C
102
}
330
C
100
AcDbDictionary
281
     1
  3
Standard
350
1F3
  0
DICTIONARY
  5
1D5
102
{ACAD_REACTORS
330
C
102
}
330
C
100
AcDbDictionary
281
     1
  3
2dWireframe
350
1DA
  3
Basic
350
1DD
  3
Brighten
350
1E1
  3
ColorChange
350
1E5
  3
Conceptual
350
1DF
  3
Dim
350
1E0
  3
EdgeColorOff
350
1E8
  3
Facepattern
350
1E4
  3
Flat
350
1D6
  3
FlatWithEdges
350
1D7
  3
Gouraud
350
1D8
  3
GouraudWithEdges
350
1D9
  3
Hidden
350
1DC
  3
JitterOff
350
1E6
  3
Linepattern
350
1E3
  3
OverhangOff
350
1E7
  3
Realistic
350
1DE
  3
Shaded
350
1ED
  3
Shaded with edges
350
1EC
  3
Shades of Gray
350
1E9
  3
Sketchy
350
1EA
  3
Thicken
350
1E2
  3
Wireframe
350
1DB
  3
X-Ray
350
1EB
  0
XRECORD
  5
1FA
102
{ACAD_REACTORS
330
C
102
}
330
C
100
AcDbXrecord
280
     1
 90
        1
330
1F3
  0
DICTIONARY
  5
1F6
102
{ACAD_REACTORS
330
C
102
}
330
C
100
AcDbDictionary
281
     1
  3
CANNOSCALE
350
1F7
  3
CMLEADERSTYLE
350
1FC
  3
CTABLESTYLE
350
1FB
  3
MSLTSCALE
350
1FD
  0
LAYOUT
  5
1C
102
{ACAD_REACTORS
330
1A
102
}
330
1A
100
AcDbPlotSettings
  1

  2
none_device
  4

  6

 40
0.0
 41
0.0
 42
0.0
 43
0.0
 44
0.0
 45
0.0
 46
0.0
 47
0.0
 48
0.0
 49
0.0
140
0.0
141
0.0
142
1.0
143
1.0
 70
   688
 72
     0
 73
     0
 74
     5
  7

 75
    16
 76
     0
 77
     2
 78
   300
147
1.0
148
0.0
149
0.0
100
AcDbLayout
  1
Layout1
 70
     1
 71
     1
 10
0.0
 20
0.0
 11
12.0
 21
9.0
 12
0.0
 22
0.0
 32
0.0
 14
1.000000000000000E+20
 24
1.000000000000000E+20
 34
1.000000000000000E+20
 15
-1.000000000000000E+20
 25
-1.000000000000000E+20
 35
-1.000000000000000E+20
146
0.0
 13
0.0
 23
0.0
 33
0.0
 16
1.0
 26
0.0
 36
0.0
 17
0.0
 27
1.0
 37
0.0
 76
     0
330
1B
  0
LAYOUT
  5
1E
102
{ACAD_REACTORS
330
1A
102
}
330
1A
100
AcDbPlotSettings
  1

  2
none_device
  4
Letter_(8.50_x_11.00_Inches)
  6

 40
6.35
 41
6.35
 42
6.35000508
 43
6.35000508
 44
215.9
 45
279.4
 46
0.0
 47
0.0
 48
0.0
 49
0.0
140
0.0
141
0.0
142
1.0
143
1.0
 70
  1712
 72
     0
 73
     0
 74
     0
  7

 75
     0
 76
     0
 77
     2
 78
   300
147
1.0
148
0.0
149
0.0
100
AcDbLayout
  1
Model
 70
     1
 71
     0
 10
0.0
 20
0.0
 11
12.0
 21
9.0
 12
0.0
 22
0.0
 32
0.0
 14
1.000000000000000E+20
 24
1.000000000000000E+20
 34
1.000000000000000E+20
 15
-1.000000000000000E+20
 25
-1.000000000000000E+20
 35
-1.000000000000000E+20
146
0.0
 13
0.0
 23
0.0
 33
0.0
 16
1.0
 26
0.0
 36
0.0
 17
0.0
 27
1.0
 37
0.0
 76
     0
330
1D
331
21
  0
MATERIAL
  5
1F0
102
{ACAD_REACTORS
330
1EE
102
}
330
1EE
100
AcDbMaterial
  1
ByBlock
 72
     1
 94
      127
  0
MATERIAL
  5
1EF
102
{ACAD_REACTORS
330
1EE
102
}
330
1EE
100
AcDbMaterial
  1
ByLayer
 72
     1
 94
      127
  0
MATERIAL
  5
1F1
102
{ACAD_REACTORS
330
1EE
102
}
330
1EE
100
AcDbMaterial
  1
Global
 72
     1
 94
      127
  0
MLEADERSTYLE
  5
1F5
102
{ACAD_REACTORS
330
1F4
102
}
330
1F4
100
AcDbMLeaderStyle
179
     2
170
     2
171
     1
172
     0
 90
        2
 40
0.0
 41
0.0
173
     1
 91
-1056964608
340
14
 92
       -2
290
     1
 42
0.09
291
     1
 43
0.36
  3
Standard
341
0
 44
0.18
300

342
11
174
     1
178
     6
175
     1
176
     0
 93
-1056964608
 45
0.18
292
     0
297
     0
 46
0.18
343
0
 94
-1056964608
 47
1.0
 49
1.0
140
1.0
293
     1
141
0.0
294
     1
177
     0
142
1.0
295
     0
296
     0
143
0.125
271
     0
272
     9
273
     9
298
     0
  0
MLINESTYLE
  5
18
102
{ACAD_REACTORS
330
17
102
}
330
17
100
AcDbMlineStyle
  2
Standard
 70
     0
  3

 62
   256
 51
90.0
 52
90.0
 71
     2
 49
0.5
 62
   256
  6
BYLAYER
 49
-0.5
 62
   256
  6
BYLAYER
  0
ACDBPLACEHOLDER
  5
F
102
{ACAD_REACTORS
330
E
102
}
330
E
  0
SCALE
  5
1C0
102
{ACAD_REACTORS
330
1BF
102
}
330
1BF
100
AcDbScale
 70
     0
300
1:1
140
1.0
141
1.0
290
     1
  0
SCALE
  5
1C1
102
{ACAD_REACTORS
330
1BF
102
}
330
1BF
100
AcDbScale
 70
     0
300
1/128" = 1'-0"
140
0.0078125
141
12.0
290
     0
  0
SCALE
  5
1C2
102
{ACAD_REACTORS
330
1BF
102
}
330
1BF
100
AcDbScale
 70
     0
300
1/64" = 1'-0"
140
0.015625
141
12.0
290
     0
  0
SCALE
  5
1C3
102
{ACAD_REACTORS
330
1BF
102
}
330
1BF
100
AcDbScale
 70
     0
300
1/32" = 1'-0"
140
0.03125
141
12.0
290
     0
  0
SCALE
  5
1C4
102
{ACAD_REACTORS
330
1BF
102
}
330
1BF
100
AcDbScale
 70
     0
300
1/16" = 1'-0"
140
0.0625
141
12.0
290
     0
  0
SCALE
  5
1C5
102
{ACAD_REACTORS
330
1BF
102
}
330
1BF
100
AcDbScale
 70
     0
300
3/32" = 1'-0"
140
0.09375
141
12.0
290
     0
  0
SCALE
  5
1C6
102
{ACAD_REACTORS
330
1BF
102
}
330
1BF
100
AcDbScale
 70
     0
300
1/8" = 1'-0"
140
0.125
141
12.0
290
     0
  0
SCALE
  5
1C7
102
{ACAD_REACTORS
330
1BF
102
}
330
1BF
100
AcDbScale
 70
     0
300
3/16" = 1'-0"
140
0.1875
141
12.0
290
     0
  0
SCALE
  5
1C8
102
{ACAD_REACTORS
330
1BF
102
}
330
1BF
100
AcDbScale
 70
     0
300
1/4" = 1'-0"
140
0.25
141
12.0
290
     0
  0
SCALE
  5
1C9
102
{ACAD_REACTORS
330
1BF
102
}
330
1BF
100
AcDbScale
 70
     0
300
3/8" = 1'-0"
140
0.375
141
12.0
290
     0
  0
SCALE
  5
1CA
102
{ACAD_REACTORS
330
1BF
102
}
330
1BF
100
AcDbScale
 70
     0
300
1/2" = 1'-0"
140
0.5
141
12.0
290
     0
  0
SCALE
  5
1CB
102
{ACAD_REACTORS
330
1BF
102
}
330
1BF
100
AcDbScale
 70
     0
300
3/4" = 1'-0"
140
0.75
141
12.0
290
     0
  0
SCALE
  5
1CC
102
{ACAD_REACTORS
330
1BF
102
}
330
1BF
100
AcDbScale
 70
     0
300
1" = 1'-0"
140
1.0
141
12.0
290
     0
  0
SCALE
  5
1CD
102
{ACAD_REACTORS
330
1BF
102
}
330
1BF
100
AcDbScale
 70
     0
300
1-1/2" = 1'-0"
140
1.5
141
12.0
290
     0
  0
SCALE
  5
1CE
102
{ACAD_REACTORS
330
1BF
102
}
330
1BF
100
AcDbScale
 70
     0
300
3" = 1'-0"
140
3.0
141
12.0
290
     0
  0
SCALE
  5
1CF
102
{ACAD_REACTORS
330
1BF
102
}
330
1BF
100
AcDbScale
 70
     0
300
6" = 1'-0"
140
6.0
141
12.0
290
     0
  0
SCALE
  5
1D0
102
{ACAD_REACTORS
330
1BF
102
}
330
1BF
100
AcDbScale
 70
     0
300
1'-0" = 1'-0"
140
12.0
141
12.0
290
     0
  0
TABLESTYLE
  5
1F3
102
{ACAD_REACTORS
330
1F2
102
}
102
{ACAD_XDICTIONARY
360
1F8
102
}
330
1F2
100
AcDbTableStyle
  3
Standard
 70
     0
 71
     0
 40
0.06
 41
0.06
280
     0
281
     0
  7
Standard
140
0.18
170
     2
 62
     0
 63
   257
283
     0
 90
        4
 91
        0
  1

274
    -2
284
     1
 64
     0
275
    -2
285
     1
 65
     0
276
    -2
286
     1
 66
     0
277
    -2
287
     1
 67
     0
278
    -2
288
     1
 68
     0
279
    -2
289
     1
 69
     0
  7
Standard
140
0.25
170
     5
 62
     0
 63
   257
283
     0
 90
        4
 91
        0
  1

274
    -2
284
     1
 64
     0
275
    -2
285
     1
 65
     0
276
    -2
286
     1
 66
     0
277
    -2
287
     1
 67
     0
278
    -2
288
     1
 68
     0
279
    -2
289
     1
 69
     0
  7
Standard
140
0.18
170
     5
 62
     0
 63
   257
283
     0
 90
        4
 91
        0
  1

274
    -2
284
     1
 64
     0
275
    -2
285
     1
 65
     0
276
    -2
286
     1
 66
     0
277
    -2
287
     1
 67
     0
278
    -2
288
     1
 68
     0
279
    -2
289
     1
 69
     0
  0
VISUALSTYLE
  5
1DA
102
{ACAD_REACTORS
330
1D5
102
}
330
1D5
100
AcDbVisualStyle
  2
2dWireframe
 70
     4
177
     3
291
     0
 70
    58
 90
        0
176
     1
 90
        2
176
     1
 90
        0
176
     1
 90
        0
176
     1
 40
0.6
176
     1
 40
30.0
176
     1
 62
     7
420
 16777215
176
     1
 90
        1
176
     1
 90
        4
176
     1
 62
     7
176
     1
 62
   257
176
     1
 90
        1
176
     1
 90
        1
176
     1
 40
1.0
176
     1
 90
        0
176
     1
 62
   257
176
     1
 40
1.0
176
     1
 90
        1
176
     1
 90
        6
176
     1
 90
        2
176
     1
 62
     7
176
     1
 90
        5
176
     1
 90
        0
176
     1
 90
        0
176
     1
290
     0
176
     1
 90
        1
176
     1
 40
0.0
176
     1
 90
        0
176
     1
290
     1
176
     1
290
     1
176
     1
290
     0
176
     1
290
     0
176
     1
290
     0
176
     1
290
     0
176
     1
290
     0
176
     1
290
     0
176
     1
290
     0
176
     1
 90
       50
176
     1
 40
0.0
176
     1
 40
1.0
176
     1
 90
        0
176
     1
 62
    18
420
        0
176
     1
 90
       50
176
     1
 90
        3
176
     1
 62
     5
420
      255
176
     1
290
     0
176
     1
 90
       50
176
     1
 90
       50
176
     1
 90
       50
176
     1
290
     0
176
     1
 90
       50
176
     1
 62
   256
176
     0
 40
1.0
176
     0
 90
        2
176
     1
  1
strokes_ogs.tif
176
     1
290
     0
176
     1
 40
1.0
176
     1
 40
1.0
176
     1
  0
VISUALSTYLE
  5
1DD
102
{ACAD_REACTORS
330
1D5
102
}
330
1D5
100
AcDbVisualStyle
  2
Basic
 70
     7
177
     3
291
     1
 70
    58
 90
        1
176
     1
 90
        0
176
     1
 90
        1
176
     1
 90
        0
176
     1
 40
0.6
176
     1
 40
30.0
176
     1
 62
     7
420
 16777215
176
     1
 90
        0
176
     1
 90
        4
176
     1
 62
     7
176
     1
 62
   257
176
     1
 90
        1
176
     1
 90
        1
176
     1
 40
1.0
176
     1
 90
        8
176
     1
 62
     7
176
     1
 40
1.0
176
     1
 90
        1
176
     1
 90
        6
176
     1
 90
        2
176
     1
 62
     7
176
     1
 90
        5
176
     1
 90
        0
176
     1
 90
        0
176
     1
290
     0
176
     1
 90
        1
176
     1
 40
0.0
176
     1
 90
        0
176
     1
290
     0
176
     1
290
     1
176
     1
290
     1
176
     1
290
     0
176
     1
290
     0
176
     1
290
     0
176
     1
290
     0
176
     1
290
     0
176
     1
290
     0
176
     1
 90
       50
176
     1
 40
0.0
176
     1
 40
1.0
176
     1
 90
        0
176
     1
 62
    18
420
        0
176
     1
 90
       50
176
     1
 90
        3
176
     1
 62
     5
420
      255
176
     1
290
     0
176
     1
 90
       50
176
     1
 90
       50
176
     1
 90
       50
176
     1
290
     0
176
     1
 90
       50
176
     1
 62
   256
176
     0
 40
1.0
176
     0
 90
        2
176
     1
  1
strokes_ogs.tif
176
     1
290
     0
176
     1
 40
1.0
176
     1
 40
1.0
176
     1
  0
VISUALSTYLE
  5
1E1
102
{ACAD_REACTORS
330
1D5
102
}
330
1D5
100
AcDbVisualStyle
  2
Brighten
 70
    12
177
     3
291
     1
 70
    58
 90
        2
176
     1
 90
        2
176
     1
 90
        0
176
     1
 90
        0
176
     1
 40
0.6
176
     1
 40
30.0
176
     1
 62
     7
420
 16777215
176
     1
 90
        1
176
     1
 90
        4
176
     1
 62
     7
176
     1
 62
   257
176
     1
 90
        1
176
     1
 90
        1
176
     1
 40
1.0
176
     1
 90
        8
176
     1
 62
     7
176
     1
 40
1.0
176
     1
 90
        1
176
     1
 90
        6
176
     1
 90
        2
176
     1
 62
     7
176
     1
 90
        5
176
     1
 90
        0
176
     1
 90
        0
176
     1
290
     0
176
     1
 90
        1
176
     1
 40
50.0
176
     1
 90
        0
176
     1
290
     0
176
     1
290
     1
176
     1
290
     1
176
     1
290
     0
176
     1
290
     0
176
     1
290
     0
176
     1
290
     0
176
     1
290
     0
176
     1
290
     0
176
     1
 90
       50
176
     1
 40
0.0
176
     1
 40
1.0
176
     1
 90
        0
176
     1
 62
    18
420
        0
176
     1
 90
       50
176
     1
 90
        3
176
     1
 62
     5
420
      255
176
     1
290
     0
176
     1
 90
       50
176
     1
 90
       50
176
     1
 90
       50
176
     1
290
     0
176
     1
 90
       50
176
     1
 62
   256
176
     0
 40
1.0
176
     0
 90
        2
176
     1
  1
strokes_ogs.tif
176
     1
290
     0
176
     1
 40
1.0
176
     1
 40
1.0
176
     1
  0
VISUALSTYLE
  5
1E5
102
{ACAD_REACTORS
330
1D5
102
}
330
1D5
100
AcDbVisualStyle
  2
ColorChange
 70
    16
177
     3
291
     1
 70
    58
 90
        2
176
     1
 90
        2
176
     1
 90
        3
176
     1
 90
        0
176
     1
 40
0.6
176
     1
 40
30.0
176
     1
 62
     8
420
  8421504
176
     1
 90
        1
176
     1
 90
        4
176
     1
 62
     7
176
     1
 62
   257
176
     1
 90
        1
176
     1
 90
        1
176
     1
 40
1.0
176
     1
 90
        8
176
     1
 62
     8
420
  8421504
176
     1
 40
1.0
176
     1
 90
        1
176
     1
 90
        6
176
     1
 90
        2
176
     1
 62
     7
176
     1
 90
        5
176
     1
 90
        0
176
     1
 90
        0
176
     1
290
     0
176
     1
 90
        1
176
     1
 40
0.0
176
     1
 90
        0
176
     1
290
     0
176
     1
290
     1
176
     1
290
     1
176
     1
290
     0
176
     1
290
     0
176
     1
290
     0
176
     1
290
     0
176
     1
290
     0
176
     1
290
     0
176
     1
 90
       50
176
     1
 40
0.0
176
     1
 40
1.0
176
     1
 90
        0
176
     1
 62
    18
420
        0
176
     1
 90
       50
176
     1
 90
        3
176
     1
 62
     5
420
      255
176
     1
290
     0
176
     1
 90
       50
176
     1
 90
       50
176
     1
 90
       50
176
     1
290
     0
176
     1
 90
       50
176
     1
 62
   256
176
     0
 40
1.0
176
     0
 90
        2
176
     1
  1
strokes_ogs.tif
176
     1
290
     0
176
     1
 40
1.0
176
     1
 40
1.0
176
     1
  0
VISUALSTYLE
  5
1DF
102
{ACAD_REACTORS
330
1D5
102
}
330
1D5
100
AcDbVisualStyle
  2
Conceptual
 70
     9
177
     3
291
     0
 70
    58
 90
        3
176
     1
 90
        2
176
     1
 90
        0
176
     1
 90
        0
176
     1
 40
0.6
176
     1
 40
30.0
176
     1
 62
     7
420
 16777215
176
     1
 90
        2
176
     1
 90
        2
176
     1
 62
     7
176
     1
 62
   257
176
     1
 90
        1
176
     1
 90
        1
176
     1
 40
179.0
176
     1
 90
        8
176
     1
 62
     7
176
     1
 40
1.0
176
     1
 90
        1
176
     1
 90
        6
176
     1
 90
        2
176
     1
 62
     7
176
     1
 90
        3
176
     1
 90
        0
176
     1
 90
        0
176
     1
290
     0
176
     1
 90
        1
176
     1
 40
0.0
176
     1
 90
        0
176
     1
290
     0
176
     1
290
     1
176
     1
290
     1
176
     1
290
     0
176
     1
290
     0
176
     1
290
     0
176
     1
290
     0
176
     1
290
     0
176
     1
290
     0
176
     1
 90
       50
176
     1
 40
0.0
176
     1
 40
1.0
176
     1
 90
        0
176
     1
 62
    18
420
        0
176
     1
 90
       50
176
     1
 90
        3
176
     1
 62
     5
420
      255
176
     1
290
     0
176
     1
 90
       50
176
     1
 90
       50
176
     1
 90
       50
176
     1
290
     0
176
     1
 90
       50
176
     1
 62
   256
176
     0
 40
1.0
176
     0
 90
        2
176
     1
  1
strokes_ogs.tif
176
     1
290
     0
176
     1
 40
1.0
176
     1
 40
1.0
176
     1
  0
VISUALSTYLE
  5
1E0
102
{ACAD_REACTORS
330
1D5
102
}
330
1D5
100
AcDbVisualStyle
  2
Dim
 70
    11
177
     3
291
     1
 70
    58
 90
        2
176
     1
 90
        2
176
     1
 90
        0
176
     1
 90
        0
176
     1
 40
0.6
176
     1
 40
30.0
176
     1
 62
     7
420
 16777215
176
     1
 90
        1
176
     1
 90
        4
176
     1
 62
     7
176
     1
 62
   257
176
     1
 90
        1
176
     1
 90
        1
176
     1
 40
1.0
176
     1
 90
        8
176
     1
 62
     7
176
     1
 40
1.0
176
     1
 90
        1
176
     1
 90
        6
176
     1
 90
        2
176
     1
 62
     7
176
     1
 90
        5
176
     1
 90
        0
176
     1
 90
        0
176
     1
290
     0
176
     1
 90
        1
176
     1
 40
-50.0
176
     1
 90
        0
176
     1
290
     0
176
     1
290
     1
176
     1
290
     1
176
     1
290
     0
176
     1
290
     0
176
     1
290
     0
176
     1
290
     0
176
     1
290
     0
176
     1
290
     0
176
     1
 90
       50
176
     1
 40
0.0
176
     1
 40
1.0
176
     1
 90
        0
176
     1
 62
    18
420
        0
176
     1
 90
       50
176
     1
 90
        3
176
     1
 62
     5
420
      255
176
     1
290
     0
176
     1
 90
       50
176
     1
 90
       50
176
     1
 90
       50
176
     1
290
     0
176
     1
 90
       50
176
     1
 62
   256
176
     0
 40
1.0
176
     0
 90
        2
176
     1
  1
strokes_ogs.tif
176
     1
290
     0
176
     1
 40
1.0
176
     1
 40
1.0
176
     1
  0
VISUALSTYLE
  5
1E8
102
{ACAD_REACTORS
330
1D5
102
}
330
1D5
100
AcDbVisualStyle
  2
EdgeColorOff
 70
    22
177
     3
291
     1
 70
    58
 90
        2
176
     0
 90
        2
176
     0
 90
        0
176
     0
 90
        0
176
     0
 40
0.6
176
     0
 40
30.0
176
     0
 62
     7
420
 16777215
176
     0
 90
        1
176
     0
 90
        4
176
     0
 62
     7
176
     0
 62
   257
176
     0
 90
        1
176
     0
 90
        1
176
     0
 40
1.0
176
     0
 90
        8
176
     2
 62
     7
176
     0
 40
1.0
176
     0
 90
        1
176
     0
 90
        6
176
     0
 90
        2
176
     0
 62
     7
176
     0
 90
        5
176
     0
 90
        0
176
     0
 90
        0
176
     0
290
     0
176
     0
 90
        1
176
     0
 40
0.0
176
     0
 90
        0
176
     0
290
     0
176
     0
290
     1
176
     0
290
     1
176
     0
290
     0
176
     0
290
     0
176
     0
290
     0
176
     0
290
     0
176
     0
290
     0
176
     0
290
     0
176
     0
 90
       50
176
     0
 40
0.0
176
     0
 40
1.0
176
     0
 90
        0
176
     0
 62
    18
420
        0
176
     0
 90
       50
176
     0
 90
        3
176
     0
 62
     5
420
      255
176
     0
290
     0
176
     0
 90
       50
176
     0
 90
       50
176
     0
 90
       50
176
     0
290
     0
176
     0
 90
       50
176
     0
 62
   256
176
     0
 40
1.0
176
     0
 90
        2
176
     0
  1
strokes_ogs.tif
176
     0
290
     0
176
     0
 40
1.0
176
     0
 40
1.0
176
     0
  0
VISUALSTYLE
  5
1E4
102
{ACAD_REACTORS
330
1D5
102
}
330
1D5
100
AcDbVisualStyle
  2
Facepattern
 70
    15
177
     3
291
     1
 70
    58
 90
        2
176
     1
 90
        2
176
     1
 90
        0
176
     1
 90
        0
176
     1
 40
0.6
176
     1
 40
30.0
176
     1
 62
     7
420
 16777215
176
     1
 90
        1
176
     1
 90
        4
176
     1
 62
     7
176
     1
 62
   257
176
     1
 90
        1
176
     1
 90
        1
176
     1
 40
1.0
176
     1
 90
        8
176
     1
 62
     7
176
     1
 40
1.0
176
     1
 90
        1
176
     1
 90
        6
176
     1
 90
        2
176
     1
 62
     7
176
     1
 90
        5
176
     1
 90
        0
176
     1
 90
        0
176
     1
290
     0
176
     1
 90
        1
176
     1
 40
0.0
176
     1
 90
        0
176
     1
290
     0
176
     1
290
     1
176
     1
290
     1
176
     1
290
     0
176
     1
290
     0
176
     1
290
     0
176
     1
290
     0
176
     1
290
     0
176
     1
290
     0
176
     1
 90
       50
176
     1
 40
0.0
176
     1
 40
1.0
176
     1
 90
        0
176
     1
 62
    18
420
        0
176
     1
 90
       50
176
     1
 90
        3
176
     1
 62
     5
420
      255
176
     1
290
     0
176
     1
 90
       50
176
     1
 90
       50
176
     1
 90
       50
176
     1
290
     0
176
     1
 90
       50
176
     1
 62
   256
176
     0
 40
1.0
176
     0
 90
        2
176
     1
  1
strokes_ogs.tif
176
     1
290
     0
176
     1
 40
1.0
176
     1
 40
1.0
176
     1
  0
VISUALSTYLE
  5
1D6
102
{ACAD_REACTORS
330
1D5
102
}
330
1D5
100
AcDbVisualStyle
  2
Flat
 70
     0
177
     3
291
     1
 70
    58
 90
        2
176
     1
 90
        1
176
     1
 90
        1
176
     1
 90
        2
176
     1
 40
0.6
176
     1
 40
30.0
176
     1
 62
     7
420
 16777215
176
     1
 90
        0
176
     1
 90
        0
176
     1
 62
     7
176
     1
 62
   257
176
     1
 90
        1
176
     1
 90
        1
176
     1
 40
1.0
176
     1
 90
        8
176
     1
 62
     7
176
     1
 40
1.0
176
     1
 90
        1
176
     1
 90
        6
176
     1
 90
        2
176
     1
 62
     7
176
     1
 90
        5
176
     1
 90
        0
176
     1
 90
        0
176
     1
290
     0
176
     1
 90
       13
176
     1
 40
0.0
176
     1
 90
        0
176
     1
290
     0
176
     1
290
     1
176
     1
290
     1
176
     1
290
     0
176
     1
290
     0
176
     1
290
     0
176
     1
290
     0
176
     1
290
     0
176
     1
290
     0
176
     1
 90
       50
176
     1
 40
0.0
176
     1
 40
1.0
176
     1
 90
        0
176
     1
 62
    18
420
        0
176
     1
 90
       50
176
     1
 90
        3
176
     1
 62
     5
420
      255
176
     1
290
     0
176
     1
 90
       50
176
     1
 90
       50
176
     1
 90
       50
176
     1
290
     0
176
     1
 90
       50
176
     1
 62
   256
176
     0
 40
1.0
176
     0
 90
        2
176
     1
  1
strokes_ogs.tif
176
     1
290
     0
176
     1
 40
1.0
176
     1
 40
1.0
176
     1
  0
VISUALSTYLE
  5
1D7
102
{ACAD_REACTORS
330
1D5
102
}
330
1D5
100
AcDbVisualStyle
  2
FlatWithEdges
 70
     1
177
     3
291
     1
 70
    58
 90
        2
176
     1
 90
        1
176
     1
 90
        1
176
     1
 90
        2
176
     1
 40
0.6
176
     1
 40
30.0
176
     1
 62
     7
420
 16777215
176
     1
 90
        1
176
     1
 90
        0
176
     1
 62
     7
176
     1
 62
   257
176
     1
 90
        1
176
     1
 90
        1
176
     1
 40
1.0
176
     1
 90
        0
176
     1
 62
   257
176
     1
 40
1.0
176
     1
 90
        1
176
     1
 90
        6
176
     1
 90
        2
176
     1
 62
     7
176
     1
 90
        5
176
     1
 90
        0
176
     1
 90
        0
176
     1
290
     0
176
     1
 90
       13
176
     1
 40
0.0
176
     1
 90
        0
176
     1
290
     0
176
     1
290
     1
176
     1
290
     1
176
     1
290
     0
176
     1
290
     0
176
     1
290
     0
176
     1
290
     0
176
     1
290
     0
176
     1
290
     0
176
     1
 90
       50
176
     1
 40
0.0
176
     1
 40
1.0
176
     1
 90
        0
176
     1
 62
    18
420
        0
176
     1
 90
       50
176
     1
 90
        3
176
     1
 62
     5
420
      255
176
     1
290
     0
176
     1
 90
       50
176
     1
 90
       50
176
     1
 90
       50
176
     1
290
     0
176
     1
 90
       50
176
     1
 62
   256
176
     0
 40
1.0
176
     0
 90
        2
176
     1
  1
strokes_ogs.tif
176
     1
290
     0
176
     1
 40
1.0
176
     1
 40
1.0
176
     1
  0
VISUALSTYLE
  5
1D8
102
{ACAD_REACTORS
330
1D5
102
}
330
1D5
100
AcDbVisualStyle
  2
Gouraud
 70
     2
177
     3
291
     1
 70
    58
 90
        2
176
     1
 90
        2
176
     1
 90
        1
176
     1
 90
        2
176
     1
 40
0.6
176
     1
 40
30.0
176
     1
 62
     7
420
 16777215
176
     1
 90
        0
176
     1
 90
        0
176
     1
 62
     7
176
     1
 62
   257
176
     1
 90
        1
176
     1
 90
        1
176
     1
 40
1.0
176
     1
 90
        0
176
     1
 62
     7
176
     1
 40
1.0
176
     1
 90
        1
176
     1
 90
        6
176
     1
 90
        2
176
     1
 62
     7
176
     1
 90
        5
176
     1
 90
        0
176
     1
 90
        0
176
     1
290
     0
176
     1
 90
       13
176
     1
 40
0.0
176
     1
 90
        0
176
     1
290
     0
176
     1
290
     1
176
     1
290
     1
176
     1
290
     0
176
     1
290
     0
176
     1
290
     0
176
     1
290
     0
176
     1
290
     0
176
     1
290
     0
176
     1
 90
       50
176
     1
 40
0.0
176
     1
 40
1.0
176
     1
 90
        0
176
     1
 62
    18
420
        0
176
     1
 90
       50
176
     1
 90
        3
176
     1
 62
     5
420
      255
176
     1
290
     0
176
     1
 90
       50
176
     1
 90
       50
176
     1
 90
       50
176
     1
290
     0
176
     1
 90
       50
176
     1
 62
   256
176
     0
 40
1.0
176
     0
 90
        2
176
     1
  1
strokes_ogs.tif
176
     1
290
     0
176
     1
 40
1.0
176
     1
 40
1.0
176
     1
  0
VISUALSTYLE
  5
1D9
102
{ACAD_REACTORS
330
1D5
102
}
330
1D5
100
AcDbVisualStyle
  2
GouraudWithEdges
 70
     3
177
     3
291
     1
 70
    58
 90
        2
176
     1
 90
        2
176
     1
 90
        1
176
     1
 90
        2
176
     1
 40
0.6
176
     1
 40
30.0
176
     1
 62
     7
420
 16777215
176
     1
 90
        1
176
     1
 90
        0
176
     1
 62
     7
176
     1
 62
   257
176
     1
 90
        1
176
     1
 90
        1
176
     1
 40
1.0
176
     1
 90
        0
176
     1
 62
   257
176
     1
 40
1.0
176
     1
 90
        1
176
     1
 90
        6
176
     1
 90
        2
176
     1
 62
     7
176
     1
 90
        5
176
     1
 90
        0
176
     1
 90
        0
176
     1
290
     0
176
     1
 90
       13
176
     1
 40
0.0
176
     1
 90
        0
176
     1
290
     0
176
     1
290
     1
176
     1
290
     1
176
     1
290
     0
176
     1
290
     0
176
     1
290
     0
176
     1
290
     0
176
     1
290
     0
176
     1
290
     0
176
     1
 90
       50
176
     1
 40
0.0
176
     1
 40
1.0
176
     1
 90
        0
176
     1
 62
    18
420
        0
176
     1
 90
       50
176
     1
 90
        3
176
     1
 62
     5
420
      255
176
     1
290
     0
176
     1
 90
       50
176
     1
 90
       50
176
     1
 90
       50
176
     1
290
     0
176
     1
 90
       50
176
     1
 62
   256
176
     0
 40
1.0
176
     0
 90
        2
176
     1
  1
strokes_ogs.tif
176
     1
290
     0
176
     1
 40
1.0
176
     1
 40
1.0
176
     1
  0
VISUALSTYLE
  5
1DC
102
{ACAD_REACTORS
330
1D5
102
}
330
1D5
100
AcDbVisualStyle
  2
Hidden
 70
     6
177
     3
291
     0
 70
    58
 90
        1
176
     1
 90
        2
176
     1
 90
        2
176
     1
 90
        0
176
     1
 40
0.6
176
     1
 40
30.0
176
     1
 62
     7
420
 16777215
176
     1
 90
        2
176
     1
 90
        2
176
     1
 62
     7
176
     1
 62
   257
176
     1
 90
        2
176
     1
 90
        1
176
     1
 40
40.0
176
     1
 90
        0
176
     1
 62
   257
176
     1
 40
1.0
176
     1
 90
        1
176
     1
 90
        6
176
     1
 90
        2
176
     1
 62
     7
176
     1
 90
        3
176
     1
 90
        0
176
     1
 90
        0
176
     1
290
     0
176
     1
 90
        1
176
     1
 40
0.0
176
     1
 90
        0
176
     1
290
     0
176
     1
290
     1
176
     1
290
     1
176
     1
290
     0
176
     1
290
     0
176
     1
290
     0
176
     1
290
     0
176
     1
290
     0
176
     1
290
     0
176
     1
 90
       50
176
     1
 40
0.0
176
     1
 40
1.0
176
     1
 90
        0
176
     1
 62
    18
420
        0
176
     1
 90
       50
176
     1
 90
        3
176
     1
 62
     5
420
      255
176
     1
290
     0
176
     1
 90
       50
176
     1
 90
       50
176
     1
 90
       50
176
     1
290
     0
176
     1
 90
       50
176
     1
 62
   256
176
     0
 40
1.0
176
     0
 90
        2
176
     1
  1
strokes_ogs.tif
176
     1
290
     0
176
     1
 40
1.0
176
     1
 40
1.0
176
     1
  0
VISUALSTYLE
  5
1E6
102
{ACAD_REACTORS
330
1D5
102
}
330
1D5
100
AcDbVisualStyle
  2
JitterOff
 70
    20
177
     3
291
     1
 70
    58
 90
        2
176
     0
 90
        2
176
     0
 90
        0
176
     0
 90
        0
176
     0
 40
0.6
176
     0
 40
30.0
176
     0
 62
     7
420
 16777215
176
     0
 90
        1
176
     0
 90
        4
176
     0
 62
     7
176
     0
 62
   257
176
     0
 90
        1
176
     0
 90
        1
176
     0
 40
1.0
176
     0
 90
       10
176
     2
 62
     7
176
     0
 40
1.0
176
     0
 90
        1
176
     0
 90
        6
176
     0
 90
        2
176
     0
 62
     7
176
     0
 90
        5
176
     0
 90
        0
176
     0
 90
        0
176
     0
290
     0
176
     0
 90
        1
176
     0
 40
0.0
176
     0
 90
        0
176
     0
290
     0
176
     0
290
     1
176
     0
290
     1
176
     0
290
     0
176
     0
290
     0
176
     0
290
     0
176
     0
290
     0
176
     0
290
     0
176
     0
290
     0
176
     0
 90
       50
176
     0
 40
0.0
176
     0
 40
1.0
176
     0
 90
        0
176
     0
 62
    18
420
        0
176
     0
 90
       50
176
     0
 90
        3
176
     0
 62
     5
420
      255
176
     0
290
     0
176
     0
 90
       50
176
     0
 90
       50
176
     0
 90
       50
176
     0
290
     0
176
     0
 90
       50
176
     0
 62
   256
176
     0
 40
1.0
176
     0
 90
        2
176
     0
  1
strokes_ogs.tif
176
     0
290
     0
176
     0
 40
1.0
176
     0
 40
1.0
176
     0
  0
VISUALSTYLE
  5
1E3
102
{ACAD_REACTORS
330
1D5
102
}
330
1D5
100
AcDbVisualStyle
  2
Linepattern
 70
    14
177
     3
291
     1
 70
    58
 90
        2
176
     1
 90
        2
176
     1
 90
        0
176
     1
 90
        0
176
     1
 40
0.6
176
     1
 40
30.0
176
     1
 62
     7
420
 16777215
176
     1
 90
        1
176
     1
 90
        4
176
     1
 62
     7
176
     1
 62
   257
176
     1
 90
        7
176
     1
 90
        7
176
     1
 40
1.0
176
     1
 90
        8
176
     1
 62
     7
176
     1
 40
1.0
176
     1
 90
        1
176
     1
 90
        6
176
     1
 90
        2
176
     1
 62
     7
176
     1
 90
        5
176
     1
 90
        0
176
     1
 90
        0
176
     1
290
     0
176
     1
 90
        1
176
     1
 40
0.0
176
     1
 90
        0
176
     1
290
     0
176
     1
290
     1
176
     1
290
     1
176
     1
290
     0
176
     1
290
     0
176
     1
290
     0
176
     1
290
     0
176
     1
290
     0
176
     1
290
     0
176
     1
 90
       50
176
     1
 40
0.0
176
     1
 40
1.0
176
     1
 90
        0
176
     1
 62
    18
420
        0
176
     1
 90
       50
176
     1
 90
        3
176
     1
 62
     5
420
      255
176
     1
290
     0
176
     1
 90
       50
176
     1
 90
       50
176
     1
 90
       50
176
     1
290
     0
176
     1
 90
       50
176
     1
 62
   256
176
     0
 40
1.0
176
     0
 90
        2
176
     1
  1
strokes_ogs.tif
176
     1
290
     0
176
     1
 40
1.0
176
     1
 40
1.0
176
     1
  0
VISUALSTYLE
  5
1E7
102
{ACAD_REACTORS
330
1D5
102
}
330
1D5
100
AcDbVisualStyle
  2
OverhangOff
 70
    21
177
     3
291
     1
 70
    58
 90
        2
176
     0
 90
        2
176
     0
 90
        0
176
     0
 90
        0
176
     0
 40
0.6
176
     0
 40
30.0
176
     0
 62
     7
420
 16777215
176
     0
 90
        1
176
     0
 90
        4
176
     0
 62
     7
176
     0
 62
   257
176
     0
 90
        1
176
     0
 90
        1
176
     0
 40
1.0
176
     0
 90
        9
176
     2
 62
     7
176
     0
 40
1.0
176
     0
 90
        1
176
     0
 90
        6
176
     0
 90
        2
176
     0
 62
     7
176
     0
 90
        5
176
     0
 90
        0
176
     0
 90
        0
176
     0
290
     0
176
     0
 90
        1
176
     0
 40
0.0
176
     0
 90
        0
176
     0
290
     0
176
     0
290
     1
176
     0
290
     1
176
     0
290
     0
176
     0
290
     0
176
     0
290
     0
176
     0
290
     0
176
     0
290
     0
176
     0
290
     0
176
     0
 90
       50
176
     0
 40
0.0
176
     0
 40
1.0
176
     0
 90
        0
176
     0
 62
    18
420
        0
176
     0
 90
       50
176
     0
 90
        3
176
     0
 62
     5
420
      255
176
     0
290
     0
176
     0
 90
       50
176
     0
 90
       50
176
     0
 90
       50
176
     0
290
     0
176
     0
 90
       50
176
     0
 62
   256
176
     0
 40
1.0
176
     0
 90
        2
176
     0
  1
strokes_ogs.tif
176
     0
290
     0
176
     0
 40
1.0
176
     0
 40
1.0
176
     0
  0
VISUALSTYLE
  5
1DE
102
{ACAD_REACTORS
330
1D5
102
}
330
1D5
100
AcDbVisualStyle
  2
Realistic
 70
     8
177
     3
291
     0
 70
    58
 90
        2
176
     1
 90
        3
176
     1
 90
        0
176
     1
 90
        2
176
     1
 40
0.6
176
     1
 40
30.0
176
     1
 62
     7
420
 16777215
176
     1
 90
        0
176
     1
 90
        0
176
     1
 62
     7
176
     1
 62
   257
176
     1
 90
        1
176
     1
 90
        1
176
     1
 40
1.0
176
     1
 90
        8
176
     1
 62
   257
176
     1
 40
1.0
176
     1
 90
        1
176
     1
 90
        6
176
     1
 90
        2
176
     1
 62
     7
176
     1
 90
        3
176
     1
 90
        0
176
     1
 90
        0
176
     1
290
     0
176
     1
 90
       13
176
     1
 40
0.0
176
     1
 90
        0
176
     1
290
     0
176
     1
290
     1
176
     1
290
     1
176
     1
290
     0
176
     1
290
     0
176
     1
290
     0
176
     1
290
     0
176
     1
290
     0
176
     1
290
     0
176
     1
 90
       50
176
     1
 40
0.0
176
     1
 40
1.0
176
     1
 90
        0
176
     1
 62
    18
420
        0
176
     1
 90
       50
176
     1
 90
        3
176
     1
 62
     5
420
      255
176
     1
290
     0
176
     1
 90
       50
176
     1
 90
       50
176
     1
 90
       50
176
     1
290
     0
176
     1
 90
       50
176
     1
 62
   256
176
     0
 40
1.0
176
     0
 90
        2
176
     1
  1
strokes_ogs.tif
176
     1
290
     0
176
     1
 40
1.0
176
     1
 40
1.0
176
     1
  0
VISUALSTYLE
  5
1ED
102
{ACAD_REACTORS
330
1D5
102
}
330
1D5
100
AcDbVisualStyle
  2
Shaded
 70
    27
177
     3
291
     0
 70
    58
 90
        2
176
     1
 90
        2
176
     1
 90
        1
176
     1
 90
        2
176
     1
 40
0.6
176
     1
 40
30.0
176
     1
 62
     7
420
 16777215
176
     1
 90
        0
176
     1
 90
        4
176
     1
 62
     7
176
     1
 62
   257
176
     1
 90
        1
176
     1
 90
        1
176
     1
 40
1.0
176
     1
 90
        8
176
     1
 62
   257
176
     1
 40
1.0
176
     1
 90
        1
176
     1
 90
        6
176
     1
 90
        2
176
     1
 62
     8
420
  7895160
176
     1
 90
        3
176
     1
 90
        0
176
     1
 90
        0
176
     1
290
     0
176
     1
 90
        5
176
     1
 40
0.0
176
     1
 90
        0
176
     1
290
     0
176
     1
290
     1
176
     1
290
     1
176
     1
290
     0
176
     1
290
     0
176
     1
290
     0
176
     1
290
     0
176
     1
290
     0
176
     1
290
     0
176
     1
 90
       50
176
     1
 40
0.0
176
     1
 40
1.0
176
     1
 90
        0
176
     1
 62
    18
420
        0
176
     1
 90
       50
176
     1
 90
        3
176
     1
 62
     5
420
      255
176
     1
290
     0
176
     1
 90
       50
176
     1
 90
       50
176
     1
 90
       50
176
     1
290
     0
176
     1
 90
       50
176
     1
 62
   256
176
     0
 40
1.0
176
     0
 90
        2
176
     1
  1
strokes_ogs.tif
176
     1
290
     0
176
     1
 40
1.0
176
     1
 40
1.0
176
     1
  0
VISUALSTYLE
  5
1EC
102
{ACAD_REACTORS
330
1D5
102
}
330
1D5
100
AcDbVisualStyle
  2
Shaded with edges
 70
    26
177
     3
291
     0
 70
    58
 90
        2
176
     1
 90
        2
176
     1
 90
        1
176
     1
 90
        2
176
     1
 40
0.6
176
     1
 40
30.0
176
     1
 62
     7
420
 16777215
176
     1
 90
        1
176
     1
 90
       10
176
     1
 62
     7
176
     1
 62
   257
176
     1
 90
        2
176
     1
 90
        1
176
     1
 40
1.0
176
     1
 90
        8
176
     1
 62
   257
176
     1
 40
1.0
176
     1
 90
        1
176
     1
 90
        6
176
     1
 90
        2
176
     1
 62
     7
176
     1
 90
        3
176
     1
 90
        0
176
     1
 90
        0
176
     1
290
     0
176
     1
 90
        5
176
     1
 40
0.0
176
     1
 90
        0
176
     1
290
     0
176
     1
290
     1
176
     1
290
     1
176
     1
290
     0
176
     1
290
     0
176
     1
290
     0
176
     1
290
     0
176
     1
290
     0
176
     1
290
     0
176
     1
 90
       50
176
     1
 40
0.0
176
     1
 40
1.0
176
     1
 90
        0
176
     1
 62
    18
420
        0
176
     1
 90
       50
176
     1
 90
        3
176
     1
 62
     5
420
      255
176
     1
290
     0
176
     1
 90
       50
176
     1
 90
       50
176
     1
 90
       50
176
     1
290
     0
176
     1
 90
       50
176
     1
 62
   256
176
     0
 40
1.0
176
     0
 90
        2
176
     1
  1
strokes_ogs.tif
176
     1
290
     0
176
     1
 40
1.0
176
     1
 40
1.0
176
     1
  0
VISUALSTYLE
  5
1E9
102
{ACAD_REACTORS
330
1D5
102
}
330
1D5
100
AcDbVisualStyle
  2
Shades of Gray
 70
    23
177
     3
291
     0
 70
    58
 90
        2
176
     1
 90
        2
176
     1
 90
        3
176
     1
 90
        0
176
     1
 40
0.6
176
     1
 40
30.0
176
     1
 62
     7
420
 16777215
176
     1
 90
        2
176
     1
 90
        2
176
     1
 62
     7
176
     1
 62
     7
176
     1
 90
        1
176
     1
 90
        1
176
     1
 40
40.0
176
     1
 90
        8
176
     1
 62
     7
176
     1
 40
1.0
176
     1
 90
        1
176
     1
 90
        6
176
     1
 90
        2
176
     1
 62
     7
176
     1
 90
        3
176
     1
 90
        0
176
     1
 90
        0
176
     1
290
     0
176
     1
 90
        1
176
     1
 40
0.0
176
     1
 90
        0
176
     1
290
     0
176
     1
290
     1
176
     1
290
     1
176
     1
290
     0
176
     1
290
     0
176
     1
290
     0
176
     1
290
     0
176
     1
290
     0
176
     1
290
     0
176
     1
 90
       50
176
     1
 40
0.0
176
     1
 40
1.0
176
     1
 90
        0
176
     1
 62
    18
420
        0
176
     1
 90
       50
176
     1
 90
        3
176
     1
 62
     5
420
      255
176
     1
290
     0
176
     1
 90
       50
176
     1
 90
       50
176
     1
 90
       50
176
     1
290
     0
176
     1
 90
       50
176
     1
 62
   256
176
     0
 40
1.0
176
     0
 90
        2
176
     1
  1
strokes_ogs.tif
176
     1
290
     0
176
     1
 40
1.0
176
     1
 40
1.0
176
     1
  0
VISUALSTYLE
  5
1EA
102
{ACAD_REACTORS
330
1D5
102
}
330
1D5
100
AcDbVisualStyle
  2
Sketchy
 70
    24
177
     3
291
     0
 70
    58
 90
        1
176
     1
 90
        2
176
     1
 90
        2
176
     1
 90
        0
176
     1
 40
0.6
176
     1
 40
30.0
176
     1
 62
     7
420
 16777215
176
     1
 90
        2
176
     1
 90
        2
176
     1
 62
     7
176
     1
 62
     7
176
     1
 90
        1
176
     1
 90
        1
176
     1
 40
40.0
176
     1
 90
       11
176
     1
 62
     7
176
     1
 40
1.0
176
     1
 90
        1
176
     1
 90
        6
176
     1
 90
        2
176
     1
 62
     7
176
     1
 90
        6
176
     1
 90
        0
176
     1
 90
        0
176
     1
290
     0
176
     1
 90
        1
176
     1
 40
0.0
176
     1
 90
        0
176
     1
290
     0
176
     1
290
     1
176
     1
290
     1
176
     1
290
     0
176
     1
290
     0
176
     1
290
     0
176
     1
290
     0
176
     1
290
     0
176
     1
290
     0
176
     1
 90
       50
176
     1
 40
0.0
176
     1
 40
1.0
176
     1
 90
        0
176
     1
 62
    18
420
        0
176
     1
 90
       50
176
     1
 90
        3
176
     1
 62
     5
420
      255
176
     1
290
     0
176
     1
 90
       50
176
     1
 90
       50
176
     1
 90
       50
176
     1
290
     0
176
     1
 90
       50
176
     1
 62
   256
176
     0
 40
1.0
176
     0
 90
        2
176
     1
  1
strokes_ogs.tif
176
     1
290
     0
176
     1
 40
1.0
176
     1
 40
1.0
176
     1
  0
VISUALSTYLE
  5
1E2
102
{ACAD_REACTORS
330
1D5
102
}
330
1D5
100
AcDbVisualStyle
  2
Thicken
 70
    13
177
     3
291
     1
 70
    58
 90
        2
176
     1
 90
        2
176
     1
 90
        0
176
     1
 90
        0
176
     1
 40
0.6
176
     1
 40
30.0
176
     1
 62
     7
420
 16777215
176
     1
 90
        1
176
     1
 90
        4
176
     1
 62
     7
176
     1
 62
   257
176
     1
 90
        1
176
     1
 90
        1
176
     1
 40
1.0
176
     1
 90
       12
176
     1
 62
     7
176
     1
 40
1.0
176
     1
 90
        1
176
     1
 90
        6
176
     1
 90
        2
176
     1
 62
     7
176
     1
 90
        5
176
     1
 90
        0
176
     1
 90
        0
176
     1
290
     0
176
     1
 90
        1
176
     1
 40
0.0
176
     1
 90
        0
176
     1
290
     0
176
     1
290
     1
176
     1
290
     1
176
     1
290
     0
176
     1
290
     0
176
     1
290
     0
176
     1
290
     0
176
     1
290
     0
176
     1
290
     0
176
     1
 90
       50
176
     1
 40
0.0
176
     1
 40
1.0
176
     1
 90
        0
176
     1
 62
    18
420
        0
176
     1
 90
       50
176
     1
 90
        3
176
     1
 62
     5
420
      255
176
     1
290
     0
176
     1
 90
       50
176
     1
 90
       50
176
     1
 90
       50
176
     1
290
     0
176
     1
 90
       50
176
     1
 62
   256
176
     0
 40
1.0
176
     0
 90
        2
176
     1
  1
strokes_ogs.tif
176
     1
290
     0
176
     1
 40
1.0
176
     1
 40
1.0
176
     1
  0
VISUALSTYLE
  5
1DB
102
{ACAD_REACTORS
330
1D5
102
}
330
1D5
100
AcDbVisualStyle
  2
Wireframe
 70
     5
177
     3
291
     0
 70
    58
 90
        0
176
     1
 90
        2
176
     1
 90
        0
176
     1
 90
        0
176
     1
 40
0.6
176
     1
 40
30.0
176
     1
 62
     7
420
 16777215
176
     1
 90
        1
176
     1
 90
        4
176
     1
 62
     7
176
     1
 62
   257
176
     1
 90
        1
176
     1
 90
        1
176
     1
 40
1.0
176
     1
 90
        0
176
     1
 62
   257
176
     1
 40
1.0
176
     1
 90
        1
176
     1
 90
        6
176
     1
 90
        2
176
     1
 62
     7
176
     1
 90
        3
176
     1
 90
        0
176
     1
 90
        0
176
     1
290
     0
176
     1
 90
        1
176
     1
 40
0.0
176
     1
 90
        0
176
     1
290
     0
176
     1
290
     1
176
     1
290
     1
176
     1
290
     0
176
     1
290
     0
176
     1
290
     0
176
     1
290
     0
176
     1
290
     0
176
     1
290
     0
176
     1
 90
       50
176
     1
 40
0.0
176
     1
 40
1.0
176
     1
 90
        0
176
     1
 62
    18
420
        0
176
     1
 90
       50
176
     1
 90
        3
176
     1
 62
     5
420
      255
176
     1
290
     0
176
     1
 90
       50
176
     1
 90
       50
176
     1
 90
       50
176
     1
290
     0
176
     1
 90
       50
176
     1
 62
   256
176
     0
 40
1.0
176
     0
 90
        2
176
     1
  1
strokes_ogs.tif
176
     1
290
     0
176
     1
 40
1.0
176
     1
 40
1.0
176
     1
  0
VISUALSTYLE
  5
1EB
102
{ACAD_REACTORS
330
1D5
102
}
330
1D5
100
AcDbVisualStyle
  2
X-Ray
 70
    25
177
     3
291
     0
 70
    58
 90
        2
176
     1
 90
        2
176
     1
 90
        1
176
     1
 90
        1
176
     1
 40
0.5
176
     1
 40
30.0
176
     1
 62
     7
420
 16777215
176
     1
 90
        1
176
     1
 90
        0
176
     1
 62
     7
176
     1
 62
   257
176
     1
 90
        1
176
     1
 90
        1
176
     1
 40
1.0
176
     1
 90
        8
176
     1
 62
     7
176
     1
 40
1.0
176
     1
 90
        1
176
     1
 90
        6
176
     1
 90
        2
176
     1
 62
     7
176
     1
 90
        3
176
     1
 90
        0
176
     1
 90
        0
176
     1
290
     0
176
     1
 90
       13
176
     1
 40
0.0
176
     1
 90
        0
176
     1
290
     0
176
     1
290
     1
176
     1
290
     1
176
     1
290
     0
176
     1
290
     0
176
     1
290
     0
176
     1
290
     0
176
     1
290
     0
176
     1
290
     0
176
     1
 90
       50
176
     1
 40
0.0
176
     1
 40
1.0
176
     1
 90
        0
176
     1
 62
    18
420
        0
176
     1
 90
       50
176
     1
 90
        3
176
     1
 62
     5
420
      255
176
     1
290
     0
176
     1
 90
       50
176
     1
 90
       50
176
     1
 90
       50
176
     1
290
     0
176
     1
 90
       50
176
     1
 62
   256
176
     0
 40
1.0
176
     0
 90
        2
176
     1
  1
strokes_ogs.tif
176
     1
290
     0
176
     1
 40
1.0
176
     1
 40
1.0
176
     1
  0
DICTIONARYVAR
  5
1F7
102
{ACAD_REACTORS
330
1F6
102
}
330
1F6
100
DictionaryVariables
280
     0
  1
1:1
  0
DICTIONARYVAR
  5
1FC
102
{ACAD_REACTORS
330
1F6
102
}
330
1F6
100
DictionaryVariables
280
     0
  1
Standard
  0
DICTIONARYVAR
  5
1FB
102
{ACAD_REACTORS
330
1F6
102
}
330
1F6
100
DictionaryVariables
280
     0
  1
Standard
  0
DICTIONARYVAR
  5
1FD
102
{ACAD_REACTORS
330
1F6
102
}
330
1F6
100
DictionaryVariables
280
     0
  1
0
  0
DICTIONARY
  5
1F8
330
1F3
100
AcDbDictionary
280
     1
281
     1
  3
ACAD_ROUNDTRIP_2008_TABLESTYLE_CELLSTYLEMAP
360
1F9
  0
CELLSTYLEMAP
  5
1F9
102
{ACAD_REACTORS
330
1F8
102
}
330
1F8
100
AcDbCellStyleMap
 90
        3
300
CELLSTYLE
  1
TABLEFORMAT_BEGIN
 90
        5
170
     1
 91
        0
 92
    32768
 62
   257
 93
        1
300
CONTENTFORMAT
  1
CONTENTFORMAT_BEGIN
 90
        0
 91
        0
 92
        4
 93
        0
300

 40
0.0
140
1.0
 94
        5
 62
     0
340
11
144
0.25
309
CONTENTFORMAT_END
171
     1
301
MARGIN
  1
CELLMARGIN_BEGIN
 40
0.06
 40
0.06
 40
0.06
 40
0.06
 40
0.06
 40
0.06
309
CELLMARGIN_END
 94
        6
 95
        1
302
GRIDFORMAT
  1
GRIDFORMAT_BEGIN
 90
        0
 91
        1
 62
     0
 92
       -2
340
14
 93
        0
 40
0.045
309
GRIDFORMAT_END
 95
        2
302
GRIDFORMAT
  1
GRIDFORMAT_BEGIN
 90
        0
 91
        1
 62
     0
 92
       -2
340
14
 93
        0
 40
0.045
309
GRIDFORMAT_END
 95
        4
302
GRIDFORMAT
  1
GRIDFORMAT_BEGIN
 90
        0
 91
        1
 62
     0
 92
       -2
340
14
 93
        0
 40
0.045
309
GRIDFORMAT_END
 95
        8
302
GRIDFORMAT
  1
GRIDFORMAT_BEGIN
 90
        0
 91
        1
 62
     0
 92
       -2
340
14
 93
        0
 40
0.045
309
GRIDFORMAT_END
 95
       16
302
GRIDFORMAT
  1
GRIDFORMAT_BEGIN
 90
        0
 91
        1
 62
     0
 92
       -2
340
14
 93
        0
 40
0.045
309
GRIDFORMAT_END
 95
       32
302
GRIDFORMAT
  1
GRIDFORMAT_BEGIN
 90
        0
 91
        1
 62
     0
 92
       -2
340
14
 93
        0
 40
0.045
309
GRIDFORMAT_END
309
TABLEFORMAT_END
  1
CELLSTYLE_BEGIN
 90
        1
 91
        1
300
_TITLE
309
CELLSTYLE_END
300
CELLSTYLE
  1
TABLEFORMAT_BEGIN
 90
        5
170
     1
 91
        0
 92
        0
 62
   257
 93
        1
300
CONTENTFORMAT
  1
CONTENTFORMAT_BEGIN
 90
        0
 91
        0
 92
        4
 93
        0
300

 40
0.0
140
1.0
 94
        5
 62
     0
340
11
144
0.18
309
CONTENTFORMAT_END
171
     1
301
MARGIN
  1
CELLMARGIN_BEGIN
 40
0.06
 40
0.06
 40
0.06
 40
0.06
 40
0.06
 40
0.06
309
CELLMARGIN_END
 94
        6
 95
        1
302
GRIDFORMAT
  1
GRIDFORMAT_BEGIN
 90
        0
 91
        1
 62
     0
 92
       -2
340
14
 93
        0
 40
0.045
309
GRIDFORMAT_END
 95
        2
302
GRIDFORMAT
  1
GRIDFORMAT_BEGIN
 90
        0
 91
        1
 62
     0
 92
       -2
340
14
 93
        0
 40
0.045
309
GRIDFORMAT_END
 95
        4
302
GRIDFORMAT
  1
GRIDFORMAT_BEGIN
 90
        0
 91
        1
 62
     0
 92
       -2
340
14
 93
        0
 40
0.045
309
GRIDFORMAT_END
 95
        8
302
GRIDFORMAT
  1
GRIDFORMAT_BEGIN
 90
        0
 91
        1
 62
     0
 92
       -2
340
14
 93
        0
 40
0.045
309
GRIDFORMAT_END
 95
       16
302
GRIDFORMAT
  1
GRIDFORMAT_BEGIN
 90
        0
 91
        1
 62
     0
 92
       -2
340
14
 93
        0
 40
0.045
309
GRIDFORMAT_END
 95
       32
302
GRIDFORMAT
  1
GRIDFORMAT_BEGIN
 90
        0
 91
        1
 62
     0
 92
       -2
340
14
 93
        0
 40
0.045
309
GRIDFORMAT_END
309
TABLEFORMAT_END
  1
CELLSTYLE_BEGIN
 90
        2
 91
        1
300
_HEADER
309
CELLSTYLE_END
300
CELLSTYLE
  1
TABLEFORMAT_BEGIN
 90
        5
170
     1
 91
        0
 92
        0
 62
   257
 93
        1
300
CONTENTFORMAT
  1
CONTENTFORMAT_BEGIN
 90
        0
 91
        0
 92
        4
 93
        0
300

 40
0.0
140
1.0
 94
        2
 62
     0
340
11
144
0.18
309
CONTENTFORMAT_END
171
     1
301
MARGIN
  1
CELLMARGIN_BEGIN
 40
0.06
 40
0.06
 40
0.06
 40
0.06
 40
0.06
 40
0.06
309
CELLMARGIN_END
 94
        6
 95
        1
302
GRIDFORMAT
  1
GRIDFORMAT_BEGIN
 90
        0
 91
        1
 62
     0
 92
       -2
340
14
 93
        0
 40
0.045
309
GRIDFORMAT_END
 95
        2
302
GRIDFORMAT
  1
GRIDFORMAT_BEGIN
 90
        0
 91
        1
 62
     0
 92
       -2
340
14
 93
        0
 40
0.045
309
GRIDFORMAT_END
 95
        4
302
GRIDFORMAT
  1
GRIDFORMAT_BEGIN
 90
        0
 91
        1
 62
     0
 92
       -2
340
14
 93
        0
 40
0.045
309
GRIDFORMAT_END
 95
        8
302
GRIDFORMAT
  1
GRIDFORMAT_BEGIN
 90
        0
 91
        1
 62
     0
 92
       -2
340
14
 93
        0
 40
0.045
309
GRIDFORMAT_END
 95
       16
302
GRIDFORMAT
  1
GRIDFORMAT_BEGIN
 90
        0
 91
        1
 62
     0
 92
       -2
340
14
 93
        0
 40
0.045
309
GRIDFORMAT_END
 95
       32
302
GRIDFORMAT
  1
GRIDFORMAT_BEGIN
 90
        0
 91
        1
 62
     0
 92
       -2
340
14
 93
        0
 40
0.045
309
GRIDFORMAT_END
309
TABLEFORMAT_END
  1
CELLSTYLE_BEGIN
 90
        3
 91
        2
300
_DATA
309
CELLSTYLE_END
  0
ENDSEC
  0
EOF
