  0
SECTION
  2
HEADER
  9
$ACADVER
  1
AC1032
  9
$ACADMAINTVER
 90
       55
  9
$DWGCODEPAGE
  3
ANSI_1252
  9
$LASTSAVEDBY
  1
vcg504
  9
$REQUIREDVERSIONS
160
                 0
  9
$INSBASE
 10
0.0
 20
0.0
 30
0.0
  9
$EXTMIN
 10
529282.2551791368
 20
182675.5747114631
 30
0.0
  9
$EXTMAX
 10
529353.9704740816
 20
182693.3190186502
 30
0.0
  9
$LIMMIN
 10
529206.0
 20
182640.0
  9
$LIMMAX
 10
529337.0
 20
182743.0
  9
$ORTHOMODE
 70
     1
  9
$REGENMODE
 70
     1
  9
$FILLMODE
 70
     1
  9
$QTEXTMODE
 70
     0
  9
$MIRRTEXT
 70
     0
  9
$LTSCALE
 40
5.0
  9
$ATTMODE
 70
     1
  9
$TEXTSIZE
 40
1.0
  9
$TRACEWID
 40
0.05
  9
$TEXTSTYLE
  7
STANDARD
  9
$CLAYER
  8
Background
  9
$CELTYPE
  6
ByLayer
  9
$CECOLOR
 62
   256
  9
$CELTSCALE
 40
1.0
  9
$DISPSILH
 70
     0
  9
$DIMSCALE
 40
1.0
  9
$DIMASZ
 40
0.18
  9
$DIMEXO
 40
0.0625
  9
$DIMDLI
 40
0.38
  9
$DIMRND
 40
0.0
  9
$DIMDLE
 40
0.0
  9
$DIMEXE
 40
0.18
  9
$DIMTP
 40
0.0
  9
$DIMTM
 40
0.0
  9
$DIMTXT
 40
0.18
  9
$DIMCEN
 40
0.09
  9
$DIMTSZ
 40
0.0
  9
$DIMTOL
 70
     0
  9
$DIMLIM
 70
     0
  9
$DIMTIH
 70
     1
  9
$DIMTOH
 70
     1
  9
$DIMSE1
 70
     0
  9
$DIMSE2
 70
     0
  9
$DIMTAD
 70
     0
  9
$DIMZIN
 70
     0
  9
$DIMBLK
  1

  9
$DIMASO
 70
     1
  9
$DIMSHO
 70
     1
  9
$DIMPOST
  1

  9
$DIMAPOST
  1

  9
$DIMALT
 70
     0
  9
$DIMALTD
 70
     2
  9
$DIMALTF
 40
25.4
  9
$DIMLFAC
 40
1.0
  9
$DIMTOFL
 70
     0
  9
$DIMTVP
 40
0.0
  9
$DIMTIX
 70
     0
  9
$DIMSOXD
 70
     0
  9
$DIMSAH
 70
     0
  9
$DIMBLK1
  1

  9
$DIMBLK2
  1

  9
$DIMSTYLE
  2
Standard
  9
$DIMCLRD
 70
     0
  9
$DIMCLRE
 70
     0
  9
$DIMCLRT
 70
     0
  9
$DIMTFAC
 40
1.0
  9
$DIMGAP
 40
0.09
  9
$DIMJUST
 70
     0
  9
$DIMSD1
 70
     0
  9
$DIMSD2
 70
     0
  9
$DIMTOLJ
 70
     1
  9
$DIMTZIN
 70
     0
  9
$DIMALTZ
 70
     0
  9
$DIMALTTZ
 70
     0
  9
$DIMUPT
 70
     0
  9
$DIMDEC
 70
     4
  9
$DIMTDEC
 70
     4
  9
$DIMALTU
 70
     2
  9
$DIMALTTD
 70
     2
  9
$DIMTXSTY
  7
STANDARD
  9
$DIMAUNIT
 70
     0
  9
$DIMADEC
 70
     0
  9
$DIMALTRND
 40
0.0
  9
$DIMAZIN
 70
     0
  9
$DIMDSEP
 70
    46
  9
$DIMATFIT
 70
     3
  9
$DIMFRAC
 70
     0
  9
$DIMLDRBLK
  1

  9
$DIMLUNIT
 70
     2
  9
$DIMLWD
 70
    -2
  9
$DIMLWE
 70
    -2
  9
$DIMTMOVE
 70
     0
  9
$DIMFXL
 40
1.0
  9
$DIMFXLON
 70
     0
  9
$DIMJOGANG
 40
0.7853981633974483
  9
$DIMTFILL
 70
     0
  9
$DIMTFILLCLR
 70
     0
  9
$DIMARCSYM
 70
     0
  9
$DIMLTYPE
  6

  9
$DIMLTEX1
  6

  9
$DIMLTEX2
  6

  9
$DIMTXTDIRECTION
 70
     0
  9
$LUNITS
 70
     2
  9
$LUPREC
 70
     4
  9
$SKETCHINC
 40
0.1
  9
$FILLETRAD
 40
0.0
  9
$AUNITS
 70
     0
  9
$AUPREC
 70
     4
  9
$MENU
  1
.
  9
$ELEVATION
 40
0.0
  9
$PELEVATION
 40
0.0
  9
$THICKNESS
 40
0.0
  9
$LIMCHECK
 70
     0
  9
$CHAMFERA
 40
0.0
  9
$CHAMFERB
 40
0.0
  9
$CHAMFERC
 40
0.0
  9
$CHAMFERD
 40
0.0
  9
$SKPOLY
 70
     0
  9
$TDCREATE
 40
2457967.332608253
  9
$TDUCREATE
 40
2457967.332608253
  9
$TDUPDATE
 40
2460391.670403345
  9
$TDUUPDATE
 40
2460391.670403345
  9
$TDINDWG
 40
0.2146842014
  9
$TDUSRTIMER
 40
0.2146842014
  9
$USRTIMER
 70
     1
  9
$ANGBASE
 50
0.0
  9
$ANGDIR
 70
     0
  9
$PDMODE
 70
     2
  9
$PDSIZE
 40
0.0
  9
$PLINEWID
 40
0.0
  9
$SPLFRAME
 70
     0
  9
$SPLINETYPE
 70
     6
  9
$SPLINESEGS
 70
     8
  9
$HANDSEED
  5
1967
  9
$SURFTAB1
 70
     6
  9
$SURFTAB2
 70
     6
  9
$SURFTYPE
 70
     6
  9
$SURFU
 70
     6
  9
$SURFV
 70
     6
  9
$UCSBASE
  2

  9
$UCSNAME
  2

  9
$UCSORG
 10
0.0
 20
0.0
 30
0.0
  9
$UCSXDIR
 10
1.0
 20
0.0
 30
0.0
  9
$UCSYDIR
 10
0.0
 20
1.0
 30
0.0
  9
$UCSORTHOREF
  2

  9
$UCSORTHOVIEW
 70
     0
  9
$UCSORGTOP
 10
0.0
 20
0.0
 30
0.0
  9
$UCSORGBOTTOM
 10
0.0
 20
0.0
 30
0.0
  9
$UCSORGLEFT
 10
0.0
 20
0.0
 30
0.0
  9
$UCSORGRIGHT
 10
0.0
 20
0.0
 30
0.0
  9
$UCSORGFRONT
 10
0.0
 20
0.0
 30
0.0
  9
$UCSORGBACK
 10
0.0
 20
0.0
 30
0.0
  9
$PUCSBASE
  2

  9
$PUCSNAME
  2

  9
$PUCSORG
 10
0.0
 20
0.0
 30
0.0
  9
$PUCSXDIR
 10
1.0
 20
0.0
 30
0.0
  9
$PUCSYDIR
 10
0.0
 20
1.0
 30
0.0
  9
$PUCSORTHOREF
  2

  9
$PUCSORTHOVIEW
 70
     0
  9
$PUCSORGTOP
 10
0.0
 20
0.0
 30
0.0
  9
$PUCSORGBOTTOM
 10
0.0
 20
0.0
 30
0.0
  9
$PUCSORGLEFT
 10
0.0
 20
0.0
 30
0.0
  9
$PUCSORGRIGHT
 10
0.0
 20
0.0
 30
0.0
  9
$PUCSORGFRONT
 10
0.0
 20
0.0
 30
0.0
  9
$PUCSORGBACK
 10
0.0
 20
0.0
 30
0.0
  9
$USERI1
 70
     0
  9
$USERI2
 70
     0
  9
$USERI3
 70
     0
  9
$USERI4
 70
     0
  9
$USERI5
 70
     0
  9
$USERR1
 40
0.0
  9
$USERR2
 40
0.0
  9
$USERR3
 40
0.0
  9
$USERR4
 40
0.0
  9
$USERR5
 40
0.0
  9
$WORLDVIEW
 70
     1
  9
$SHADEDGE
 70
     3
  9
$SHADEDIF
 70
    70
  9
$TILEMODE
 70
     0
  9
$MAXACTVP
 70
    64
  9
$PINSBASE
 10
0.0
 20
0.0
 30
0.0
  9
$PLIMCHECK
 70
     0
  9
$PEXTMIN
 10
-67.40518569070376
 20
-194.9127114971192
 30
0.0
  9
$PEXTMAX
 10
147.0498143092962
 20
106.5422885028808
 30
0.0
  9
$PLIMMIN
 10
0.0
 20
0.0
  9
$PLIMMAX
 10
12.0
 20
9.0
  9
$UNITMODE
 70
     0
  9
$VISRETAIN
 70
     1
  9
$PLINEGEN
 70
     1
  9
$PSLTSCALE
 70
     1
  9
$TREEDEPTH
 70
  3020
  9
$CMLSTYLE
  2
Standard
  9
$CMLJUST
 70
     0
  9
$CMLSCALE
 40
1.0
  9
$PROXYGRAPHICS
 70
     1
  9
$MEASUREMENT
 70
     0
  9
$CELWEIGHT
370
    -1
  9
$ENDCAPS
280
     0
  9
$JOINSTYLE
280
     0
  9
$LWDISPLAY
290
     0
  9
$INSUNITS
 70
     0
  9
$HYPERLINKBASE
  1

  9
$STYLESHEET
  1

  9
$XEDIT
290
     1
  9
$CEPSNTYPE
380
     0
  9
$PSTYLEMODE
290
     1
  9
$FINGERPRINTGUID
  2
{1A55A918-D148-42CC-A04D-AFF2A58B5113}
  9
$VERSIONGUID
  2
{5BCC150E-DFA7-4A19-A623-D4E2F7A83E1D}
  9
$EXTNAMES
290
     1
  9
$PSVPSCALE
 40
0.0
  9
$OLESTARTUP
290
     0
  9
$SORTENTS
280
   127
  9
$INDEXCTL
280
     0
  9
$HIDETEXT
280
     0
  9
$XCLIPFRAME
280
     1
  9
$HALOGAP
280
     0
  9
$OBSCOLOR
 70
   257
  9
$OBSLTYPE
280
     0
  9
$INTERSECTIONDISPLAY
280
     0
  9
$INTERSECTIONCOLOR
 70
   257
  9
$DIMASSOC
280
     1
  9
$PROJECTNAME
  1

  9
$CAMERADISPLAY
290
     0
  9
$LENSLENGTH
 40
50.0
  9
$CAMERAHEIGHT
 40
0.0
  9
$STEPSPERSEC
 40
2.0
  9
$STEPSIZE
 40
6.0
  9
$3DDWFPREC
 40
2.0
  9
$PSOLWIDTH
 40
0.25
  9
$PSOLHEIGHT
 40
4.0
  9
$LOFTANG1
 40
1.570796326794897
  9
$LOFTANG2
 40
1.570796326794897
  9
$LOFTMAG1
 40
0.0
  9
$LOFTMAG2
 40
0.0
  9
$LOFTPARAM
 70
     7
  9
$LOFTNORMALS
280
     1
  9
$LATITUDE
 40
37.795
  9
$LONGITUDE
 40
-122.394
  9
$NORTHDIRECTION
 40
0.0
  9
$TIMEZONE
 70
 -8000
  9
$LIGHTGLYPHDISPLAY
280
     1
  9
$TILEMODELIGHTSYNCH
280
     1
  9
$CMATERIAL
347
11
  9
$SOLIDHIST
280
     1
  9
$SHOWHIST
280
     1
  9
$DWFFRAME
280
     1
  9
$DGNFRAME
280
     1
  9
$REALWORLDSCALE
290
     1
  9
$INTERFERECOLOR
 62
     1
  9
$INTERFEREOBJVS
345
33
  9
$INTERFEREVPVS
346
30
  9
$CSHADOW
280
     0
  9
$SHADOWPLANELOCATION
 40
0.0
  0
ENDSEC
  0
SECTION
  2
CLASSES
  0
CLASS
  1
ACDBDICTIONARYWDFLT
  2
AcDbDictionaryWithDefault
  3
ObjectDBX Classes
 90
        0
 91
        3
280
     0
281
     0
  0
CLASS
  1
MATERIAL
  2
AcDbMaterial
  3
ObjectDBX Classes
 90
     1153
 91
        3
280
     0
281
     0
  0
CLASS
  1
VISUALSTYLE
  2
AcDbVisualStyle
  3
ObjectDBX Classes
 90
     4095
 91
        3
280
     0
281
     0
  0
CLASS
  1
SCALE
  2
AcDbScale
  3
ObjectDBX Classes
 90
     1153
 91
        3
280
     0
281
     0
  0
CLASS
  1
TABLESTYLE
  2
AcDbTableStyle
  3
ObjectDBX Classes
 90
     4095
 91
        3
280
     0
281
     0
  0
CLASS
  1
MLEADERSTYLE
  2
AcDbMLeaderStyle
  3
ACDB_MLEADERSTYLE_CLASS
 90
     4095
 91
        3
280
     0
281
     0
  0
CLASS
  1
RASTERVARIABLES
  2
AcDbRasterVariables
  3
ISM
 90
        0
 91
        3
280
     0
281
     0
  0
CLASS
  1
DMMAPMANAGER
  2
AcMapDMMapManager
  3
AcMapDisplayManagement
 90
     1024
 91
        2
280
     1
281
     0
  0
CLASS
  1
DMSTYLELIBRARY
  2
AcMapDMStyleLibrary
  3
AcMapDisplayManagement
 90
     1024
 91
        2
280
     1
281
     0
  0
CLASS
  1
DMSTYLECATEGORY
  2
AcMapDMStyleCategory
  3
AcMapDisplayManagement
 90
     1024
 91
        2
280
     1
281
     0
  0
CLASS
  1
DATATABLE
  2
AcDbDataTable
  3
ObjectDBX Classes
 90
        0
 91
        3
280
     0
281
     0
  0
CLASS
  1
DMMAP
  2
AcMapDMMap
  3
AcMapDisplayManagement
 90
     1024
 91
        2
280
     1
281
     0
  0
CLASS
  1
DMBASEELEMENT
  2
AcMapDMBaseElement
  3
AcMapDisplayManagement
 90
     1024
 91
        2
280
     1
281
     0
  0
CLASS
  1
DMDEFAULTSTYLE
  2
AcMapDMDefaultStyle
  3
AcMapDisplayManagement
 90
     1024
 91
        2
280
     1
281
     0
  0
CLASS
  1
DMSTYLEREFERENCE
  2
AcMapDMStyleReference
  3
AcMapDisplayManagement
 90
     1024
 91
        2
280
     1
281
     0
  0
CLASS
  1
DMSURROGATESTYLESETS
  2
AcMapDMSurrogateStyleSets
  3
AcMapDisplayManagement
 90
     1153
 91
        2
280
     1
281
     0
  0
CLASS
  1
SORTENTSTABLE
  2
AcDbSortentsTable
  3
ObjectDBX Classes
 90
        0
 91
        3
280
     0
281
     0
  0
CLASS
  1
DMSTYLIZEDENTITIESTABLE
  2
AcMapDMStylizedEntitiesTable
  3
AcMapDisplayManagement
 90
     1024
 91
        2
280
     1
281
     0
  0
CLASS
  1
MAPGWSUNDOOBJECT
  2
AcMapGWSUndoRecorder
  3
AcMapFeatureSourceManager
 90
     1025
 91
        1
280
     1
281
     0
  0
CLASS
  1
MAPRESOURCEMANAGEROBJECT
  2
AcMapResourceManager
  3
AcMapSharedComponents
 90
     1024
 91
        1
280
     1
281
     0
  0
CLASS
  1
DICTIONARYVAR
  2
AcDbDictionaryVar
  3
ObjectDBX Classes
 90
        0
 91
        3
280
     0
281
     0
  0
CLASS
  1
IMAGEDEF
  2
AcDbRasterImageDef
  3
ISM
 90
        0
 91
        3
280
     0
281
     0
  0
CLASS
  1
IMAGE
  2
AcDbRasterImage
  3
ISM
 90
      127
 91
        4
280
     0
281
     1
  0
CLASS
  1
IMAGEDEF_REACTOR
  2
AcDbRasterImageDefReactor
  3
ISM
 90
        1
 91
        3
280
     0
281
     0
  0
CLASS
  1
EXACXREFPANELOBJECT
  2
ExAcXREFPanelObject
  3
EXAC_ESW
 90
     1025
 91
        1
280
     1
281
     0
  0
CLASS
  1
NPOCOLLECTION
  2
AcDbImpNonPersistentObjectsCollection
  3
ObjectDBX Classes
 90
     1153
 91
        1
280
     1
281
     0
  0
CLASS
  1
CELLSTYLEMAP
  2
AcDbCellStyleMap
  3
ObjectDBX Classes
 90
     1152
 91
        3
280
     0
281
     0
  0
ENDSEC
  0
SECTION
  2
TABLES
  0
TABLE
  2
VPORT
  5
8
330
0
100
AcDbSymbolTable
 70
     1
  0
VPORT
  5
BB
330
8
100
AcDbSymbolTableRecord
100
AcDbViewportTableRecord
  2
*Active
 70
     0
 10
0.0
 20
0.0
 11
1.0
 21
1.0
 12
529353.0453011522
 22
182685.0301895038
 13
0.0
 23
0.0
 14
1.0
 24
1.0
 15
0.0
 25
0.0
 16
0.0
 26
0.0
 36
1.0
 17
0.0
 27
0.0
 37
0.0
 40
4.250895800098078
 41
1.91120218579235
 42
50.0
 43
0.0
 44
0.0
 50
0.0
 51
0.0
 71
     0
 72
   100
 73
     1
 74
     1
 75
     0
 76
     0
 77
     0
 78
     0
281
     0
 65
     1
110
0.0
120
0.0
130
0.0
111
1.0
121
0.0
131
0.0
112
0.0
122
1.0
132
0.0
 79
     0
146
0.0
348
2F
 60
     3
 61
     5
292
     1
282
     1
141
0.0
142
0.0
 63
   250
421
  3355443
  0
ENDTAB
  0
TABLE
  2
LTYPE
  5
5
330
0
100
AcDbSymbolTable
 70
     6
  0
LTYPE
  5
5A
330
5
100
AcDbSymbolTableRecord
100
AcDbLinetypeTableRecord
  2
ByBlock
 70
     0
  3

 72
    65
 73
     0
 40
0.0
  0
LTYPE
  5
5B
330
5
100
AcDbSymbolTableRecord
100
AcDbLinetypeTableRecord
  2
ByLayer
 70
     0
  3

 72
    65
 73
     0
 40
0.0
  0
LTYPE
  5
5C
330
5
100
AcDbSymbolTableRecord
100
AcDbLinetypeTableRecord
  2
CONTINUOUS
 70
     0
  3
Solid Line
 72
    65
 73
     0
 40
0.0
  0
LTYPE
  5
6F
330
5
100
AcDbSymbolTableRecord
100
AcDbLinetypeTableRecord
  2
DASHEDX2
 70
     0
  3
__  __  __  __  __  __  __  __  __  __  __  __  __  __  __
 72
    65
 73
     2
 40
1.5
 49
1.0
 74
     0
 49
-0.5
 74
     0
  0
LTYPE
  5
70
330
5
100
AcDbSymbolTableRecord
100
AcDbLinetypeTableRecord
  2
DASHED
 70
     0
  3
__ __ __ __ __ __ __ __ __ __ __ __ __ __ __
 72
    65
 73
     2
 40
0.75
 49
0.5
 74
     0
 49
-0.25
 74
     0
  0
LTYPE
  5
71
330
5
100
AcDbSymbolTableRecord
100
AcDbLinetypeTableRecord
  2
DOT
 70
     0
  3
...............................................
 72
    65
 73
     2
 40
0.25
 49
0.0
 74
     0
 49
-0.25
 74
     0
  0
LTYPE
  5
12E5
330
5
100
AcDbSymbolTableRecord
100
AcDbLinetypeTableRecord
  2
HIDDEN2
 70
     0
  3
Hidden (.5x) _ _ _ _ _ _ _ _ _ _ _ _ _ _ _ _ _
 72
    65
 73
     2
 40
0.1875
 49
0.125
 74
     0
 49
-0.0625
 74
     0
  0
LTYPE
  5
12F4
330
5
100
AcDbSymbolTableRecord
100
AcDbLinetypeTableRecord
  2
ACAD_ISO02W100
 70
     0
  3
ISO dash __ __ __ __ __ __ __ __ __ __ __ __ __
 72
    65
 73
     2
 40
15.0
 49
12.0
 74
     0
 49
-3.0
 74
     0
  0
ENDTAB
  0
TABLE
  2
LAYER
  5
2
102
{ACAD_XDICTIONARY
360
B5D
102
}
330
0
100
AcDbSymbolTable
 70
    13
  0
LAYER
  5
54
102
{ACAD_XDICTIONARY
360
A09
102
}
330
2
100
AcDbSymbolTableRecord
100
AcDbLayerTableRecord
  2
0
 70
     0
 62
    -7
  6
CONTINUOUS
370
    -3
390
F
347
21
348
0
  0
LAYER
  5
FD1
330
2
100
AcDbSymbolTableRecord
100
AcDbLayerTableRecord
  2
M-COLOR
 70
     0
 62
     7
  6
CONTINUOUS
370
    -3
390
F
347
21
348
0
  0
LAYER
  5
FD3
330
2
100
AcDbSymbolTableRecord
100
AcDbLayerTableRecord
  2
wBorder
 70
     0
 62
     7
  6
CONTINUOUS
370
    -3
390
F
347
21
348
0
  0
LAYER
  5
FD5
330
2
100
AcDbSymbolTableRecord
100
AcDbLayerTableRecord
  2
wText
 70
     0
 62
     7
  6
CONTINUOUS
370
     0
390
F
347
21
348
0
  0
LAYER
  5
FD7
330
2
100
AcDbSymbolTableRecord
100
AcDbLayerTableRecord
  2
wLogo
 70
     0
 62
     5
  6
CONTINUOUS
370
    -3
390
F
347
21
348
0
  0
LAYER
  5
FD9
330
2
100
AcDbSymbolTableRecord
100
AcDbLayerTableRecord
  2
wBorderthin
 70
     0
 62
     7
  6
CONTINUOUS
370
    -3
390
F
347
21
348
0
1001
RAK
1000
{BASIC
1070
     0
1070
     7
1000
CONTINUOUS
1000
BASIC}
  0
LAYER
  5
FDB
330
2
100
AcDbSymbolTableRecord
100
AcDbLayerTableRecord
  2
wBlank
 70
     0
 62
     4
  6
CONTINUOUS
370
    -3
390
F
347
21
348
0
  0
LAYER
  5
17FC
330
2
100
AcDbSymbolTableRecord
100
AcDbLayerTableRecord
  2
Foreground
 70
     0
 62
   130
  6
CONTINUOUS
370
    20
390
F
347
21
348
0
1001
AcAecLayerStandard
1000

1000

1001
AcCmTransparency
1071
        0
  0
LAYER
  5
17FD
330
2
100
AcDbSymbolTableRecord
100
AcDbLayerTableRecord
  2
Middleground
 70
     0
 62
   172
  6
CONTINUOUS
370
    15
390
F
347
21
348
0
1001
AcAecLayerStandard
1000

1000

1001
AcCmTransparency
1071
        0
  0
LAYER
  5
17FE
330
2
100
AcDbSymbolTableRecord
100
AcDbLayerTableRecord
  2
Background
 70
     0
 62
     6
  6
CONTINUOUS
370
     9
390
F
347
21
348
0
1001
AcAecLayerStandard
1000

1000

1001
AcCmTransparency
1071
        0
  0
LAYER
  5
17FF
330
2
100
AcDbSymbolTableRecord
100
AcDbLayerTableRecord
  2
Detail
 70
     0
 62
   190
  6
CONTINUOUS
370
     0
390
F
347
21
348
0
1001
AcAecLayerStandard
1000

1000

1001
AcCmTransparency
1071
        0
  0
LAYER
  5
1808
330
2
100
AcDbSymbolTableRecord
100
AcDbLayerTableRecord
  2
wVports
 70
     1
 62
     2
  6
CONTINUOUS
370
    -3
390
F
347
21
348
0
  0
LAYER
  5
180A
330
2
100
AcDbSymbolTableRecord
100
AcDbLayerTableRecord
  2
wSite dot
 70
     0
 62
     6
  6
CONTINUOUS
370
    -3
390
F
347
21
348
0
  0
ENDTAB
  0
TABLE
  2
STYLE
  5
3
330
0
100
AcDbSymbolTable
 70
     8
  0
STYLE
  5
55
330
3
100
AcDbSymbolTableRecord
100
AcDbTextStyleTableRecord
  2
STANDARD
 70
     0
 40
0.0
 41
1.0
 50
0.0
 71
     0
 42
1.0
  3
SIMPLEX.SHX
  4

  0
STYLE
  5
59
330
3
100
AcDbSymbolTableRecord
100
AcDbTextStyleTableRecord
  2
Annotative
 70
     0
 40
0.0
 41
1.0
 50
0.0
 71
     0
 42
0.2
  3
txt
  4

1001
AcadAnnotative
1000
AnnotativeData
1002
{
1070
     1
1070
     1
1002
}
  0
STYLE
  5
B7
330
3
100
AcDbSymbolTableRecord
100
AcDbTextStyleTableRecord
  2
ANTIQUITY
 70
     0
 40
0.0
 41
1.0
 50
0.0
 71
     0
 42
1.0
  3
GOTHICE.SHX
  4

  0
STYLE
  5
9F6
330
3
100
AcDbSymbolTableRecord
100
AcDbTextStyleTableRecord
  2
Legend
 70
     0
 40
0.0
 41
1.0
 50
0.0
 71
     0
 42
1.0
  3
calibri.ttf
  4

1001
ACAD
1000
Calibri
1071
      256
  0
STYLE
  5
FDF
330
3
100
AcDbSymbolTableRecord
100
AcDbTextStyleTableRecord
  2
logo
 70
     0
 40
0.0
 41
1.0
 50
0.0
 71
     0
 42
2.0
  3
arial.ttf
  4

1001
ACAD
1000
Arial
1071
       34
  0
STYLE
  5
FE0
330
3
100
AcDbSymbolTableRecord
100
AcDbTextStyleTableRecord
  2
title
 70
     0
 40
0.0
 41
1.0
 50
0.0
 71
     0
 42
2.0
  3
arial.ttf
  4

1001
ACAD
1000
Arial
1071
       34
  0
STYLE
  5
FE1
330
3
100
AcDbSymbolTableRecord
100
AcDbTextStyleTableRecord
  2
Arial
 70
     0
 40
0.0
 41
1.0
 50
0.0
 71
     0
 42
2.0
  3
arial.ttf
  4

1001
ACAD
1000
Arial
1071
       34
  0
STYLE
  5
12E4
330
3
100
AcDbSymbolTableRecord
100
AcDbTextStyleTableRecord
  2

 70
     1
 40
0.0
 41
1.0
 50
0.0
 71
     0
 42
1.0
  3
ltypeshp.shx
  4

  0
ENDTAB
  0
TABLE
  2
VIEW
  5
6
330
0
100
AcDbSymbolTable
 70
     0
  0
ENDTAB
  0
TABLE
  2
UCS
  5
7
330
0
100
AcDbSymbolTable
 70
     0
  0
ENDTAB
  0
TABLE
  2
APPID
  5
9
330
0
100
AcDbSymbolTable
 70
    18
  0
APPID
  5
56
330
9
100
AcDbSymbolTableRecord
100
AcDbRegAppTableRecord
  2
ACAD
 70
     0
  0
APPID
  5
5D
330
9
100
AcDbSymbolTableRecord
100
AcDbRegAppTableRecord
  2
AcadAnnotative
 70
     0
  0
APPID
  5
9FA
330
9
100
AcDbSymbolTableRecord
100
AcDbRegAppTableRecord
  2
AcMapDMDisplayStyleRegapp
 70
     0
  0
APPID
  5
A04
330
9
100
AcDbSymbolTableRecord
100
AcDbRegAppTableRecord
  2
ADE
 70
     0
  0
APPID
  5
A08
330
9
100
AcDbSymbolTableRecord
100
AcDbRegAppTableRecord
  2
MapGWS
 70
     0
  0
APPID
  5
A97
330
9
100
AcDbSymbolTableRecord
100
AcDbRegAppTableRecord
  2
DCO15
 70
     0
  0
APPID
  5
AA2
330
9
100
AcDbSymbolTableRecord
100
AcDbRegAppTableRecord
  2
AcAecLayerStandard
 70
     0
  0
APPID
  5
AA3
330
9
100
AcDbSymbolTableRecord
100
AcDbRegAppTableRecord
  2
AcCmTransparency
 70
     0
  0
APPID
  5
AC5
330
9
100
AcDbSymbolTableRecord
100
AcDbRegAppTableRecord
  2
ACAD_EXEMPT_FROM_CAD_STANDARDS
 70
     0
  0
APPID
  5
FA6
330
9
100
AcDbSymbolTableRecord
100
AcDbRegAppTableRecord
  2
ACAD_PSEXT
 70
     0
  0
APPID
  5
FE3
330
9
100
AcDbSymbolTableRecord
100
AcDbRegAppTableRecord
  2
M-COLOR__358644234323
 70
     0
  0
APPID
  5
FE4
330
9
100
AcDbSymbolTableRecord
100
AcDbRegAppTableRecord
  2
RAK
 70
     0
  0
APPID
  5
FE5
330
9
100
AcDbSymbolTableRecord
100
AcDbRegAppTableRecord
  2
GradientColor1ACI
 70
     0
  0
APPID
  5
FE6
330
9
100
AcDbSymbolTableRecord
100
AcDbRegAppTableRecord
  2
GradientColor2ACI
 70
     0
  0
APPID
  5
FE7
330
9
100
AcDbSymbolTableRecord
100
AcDbRegAppTableRecord
  2
AcadAnnoPO
 70
     0
  0
APPID
  5
FE8
330
9
100
AcDbSymbolTableRecord
100
AcDbRegAppTableRecord
  2
ACAD_MLEADERVER
 70
     0
  0
APPID
  5
180C
330
9
100
AcDbSymbolTableRecord
100
AcDbRegAppTableRecord
  2
ACAD_DSTYLE_DIMJAG
 70
     0
  0
APPID
  5
180D
330
9
100
AcDbSymbolTableRecord
100
AcDbRegAppTableRecord
  2
ACAD_DSTYLE_DIMTALN
 70
     0
  0
ENDTAB
  0
TABLE
  2
DIMSTYLE
  5
A
330
0
100
AcDbSymbolTable
 70
     3
100
AcDbDimStyleTable
  0
DIMSTYLE
105
57
330
A
100
AcDbSymbolTableRecord
100
AcDbDimStyleTableRecord
  2
Standard
 70
     0
178
     0
340
55
  0
DIMSTYLE
105
58
330
A
100
AcDbSymbolTableRecord
100
AcDbDimStyleTableRecord
  2
Annotative
 70
     0
178
     0
340
55
1001
AcadAnnotative
1000
AnnotativeData
1002
{
1070
     1
1070
     1
1002
}
  0
DIMSTYLE
105
FE2
330
A
100
AcDbSymbolTableRecord
100
AcDbDimStyleTableRecord
  2
ISO-25
 70
     0
 41
2.5
 42
0.625
 43
3.75
 44
1.25
 73
     0
 74
     0
 77
     1
 78
     8
140
2.5
141
2.5
143
0.03937007874016
147
0.625
171
     3
172
     1
178
     0
271
     2
272
     2
274
     3
278
    44
283
     0
284
     8
340
55
  0
ENDTAB
  0
TABLE
  2
BLOCK_RECORD
  5
1
330
0
100
AcDbSymbolTable
 70
    42
  0
BLOCK_RECORD
  5
6B
102
{ACAD_XDICTIONARY
360
9FE
102
}
330
1
100
AcDbSymbolTableRecord
100
AcDbBlockTableRecord
  2
*Model_Space
340
6E
 70
     0
280
     1
281
     0
  0
BLOCK_RECORD
  5
67
102
{ACAD_XDICTIONARY
360
1060
102
}
330
1
100
AcDbSymbolTableRecord
100
AcDbBlockTableRecord
  2
*Paper_Space
340
6A
 70
     0
280
     1
281
     0
  0
BLOCK_RECORD
  5
BC
330
1
100
AcDbSymbolTableRecord
100
AcDbBlockTableRecord
  2
TREENC
340
0
 70
     0
280
     1
281
     0
  0
BLOCK_RECORD
  5
C7
330
1
100
AcDbSymbolTableRecord
100
AcDbBlockTableRecord
  2
TREESNC
340
0
 70
     0
280
     1
281
     0
  0
BLOCK_RECORD
  5
DE
330
1
100
AcDbSymbolTableRecord
100
AcDbBlockTableRecord
  2
TREENCSC
340
0
 70
     0
280
     1
281
     0
  0
BLOCK_RECORD
  5
EB
330
1
100
AcDbSymbolTableRecord
100
AcDbBlockTableRecord
  2
TREEC
340
0
 70
     0
280
     1
281
     0
  0
BLOCK_RECORD
  5
F9
330
1
100
AcDbSymbolTableRecord
100
AcDbBlockTableRecord
  2
TREESC
340
0
 70
     0
280
     1
281
     0
  0
BLOCK_RECORD
  5
114
330
1
100
AcDbSymbolTableRecord
100
AcDbBlockTableRecord
  2
TREECSC
340
0
 70
     0
280
     1
281
     0
  0
BLOCK_RECORD
  5
123
330
1
100
AcDbSymbolTableRecord
100
AcDbBlockTableRecord
  2
SLOPE
340
0
 70
     0
280
     1
281
     0
  0
BLOCK_RECORD
  5
129
330
1
100
AcDbSymbolTableRecord
100
AcDbBlockTableRecord
  2
SCREE
340
0
 70
     0
280
     1
281
     0
  0
BLOCK_RECORD
  5
1F7
330
1
100
AcDbSymbolTableRecord
100
AcDbBlockTableRecord
  2
ROCKS
340
0
 70
     0
280
     1
281
     0
  0
BLOCK_RECORD
  5
22E
330
1
100
AcDbSymbolTableRecord
100
AcDbBlockTableRecord
  2
ROCKSCAT
340
0
 70
     0
280
     1
281
     0
  0
BLOCK_RECORD
  5
24B
330
1
100
AcDbSymbolTableRecord
100
AcDbBlockTableRecord
  2
CLIFF
340
0
 70
     0
280
     1
281
     0
  0
BLOCK_RECORD
  5
25E
330
1
100
AcDbSymbolTableRecord
100
AcDbBlockTableRecord
  2
BOULDER
340
0
 70
     0
280
     1
281
     0
  0
BLOCK_RECORD
  5
26E
330
1
100
AcDbSymbolTableRecord
100
AcDbBlockTableRecord
  2
BOULDERS
340
0
 70
     0
280
     1
281
     0
  0
BLOCK_RECORD
  5
28B
330
1
100
AcDbSymbolTableRecord
100
AcDbBlockTableRecord
  2
BOULDSC
340
0
 70
     0
280
     1
281
     0
  0
BLOCK_RECORD
  5
29B
330
1
100
AcDbSymbolTableRecord
100
AcDbBlockTableRecord
  2
COPPICE
340
0
 70
     0
280
     1
281
     0
  0
BLOCK_RECORD
  5
2A4
330
1
100
AcDbSymbolTableRecord
100
AcDbBlockTableRecord
  2
SCRUB
340
0
 70
     0
280
     1
281
     0
  0
BLOCK_RECORD
  5
2C1
330
1
100
AcDbSymbolTableRecord
100
AcDbBlockTableRecord
  2
WATER
340
0
 70
     0
280
     1
281
     0
  0
BLOCK_RECORD
  5
324
330
1
100
AcDbSymbolTableRecord
100
AcDbBlockTableRecord
  2
ROUGHGR
340
0
 70
     0
280
     1
281
     0
  0
BLOCK_RECORD
  5
332
330
1
100
AcDbSymbolTableRecord
100
AcDbBlockTableRecord
  2
MARSH
340
0
 70
     0
280
     1
281
     0
  0
BLOCK_RECORD
  5
33F
330
1
100
AcDbSymbolTableRecord
100
AcDbBlockTableRecord
  2
ORCHARD
340
0
 70
     0
280
     1
281
     0
  0
BLOCK_RECORD
  5
34E
330
1
100
AcDbSymbolTableRecord
100
AcDbBlockTableRecord
  2
HEATH
340
0
 70
     0
280
     1
281
     0
  0
BLOCK_RECORD
  5
367
330
1
100
AcDbSymbolTableRecord
100
AcDbBlockTableRecord
  2
BDYPOST
340
0
 70
     0
280
     1
281
     0
  0
BLOCK_RECORD
  5
36B
330
1
100
AcDbSymbolTableRecord
100
AcDbBlockTableRecord
  2
BDYMEREI
340
0
 70
     0
280
     1
281
     0
  0
BLOCK_RECORD
  5
370
330
1
100
AcDbSymbolTableRecord
100
AcDbBlockTableRecord
  2
TRIGP
340
0
 70
     0
280
     1
281
     0
  0
BLOCK_RECORD
  5
380
330
1
100
AcDbSymbolTableRecord
100
AcDbBlockTableRecord
  2
BENCHM
340
0
 70
     0
280
     1
281
     0
  0
BLOCK_RECORD
  5
386
330
1
100
AcDbSymbolTableRecord
100
AcDbBlockTableRecord
  2
SPOTH
340
0
 70
     0
280
     1
281
     0
  0
BLOCK_RECORD
  5
38B
330
1
100
AcDbSymbolTableRecord
100
AcDbBlockTableRecord
  2
PYLON
340
0
 70
     0
280
     1
281
     0
  0
BLOCK_RECORD
  5
396
330
1
100
AcDbSymbolTableRecord
100
AcDbBlockTableRecord
  2
POINT
340
0
 70
     0
280
     1
281
     0
  0
BLOCK_RECORD
  5
39E
330
1
100
AcDbSymbolTableRecord
100
AcDbBlockTableRecord
  2
COPY
340
0
 70
     0
280
     1
281
     0
  0
BLOCK_RECORD
  5
3B4
330
1
100
AcDbSymbolTableRecord
100
AcDbBlockTableRecord
  2
FLARROW
340
0
 70
     0
280
     1
281
     0
  0
BLOCK_RECORD
  5
3BE
330
1
100
AcDbSymbolTableRecord
100
AcDbBlockTableRecord
  2
ULC
340
0
 70
     0
280
     1
281
     0
  0
BLOCK_RECORD
  5
3C3
330
1
100
AcDbSymbolTableRecord
100
AcDbBlockTableRecord
  2
GLASSEED
340
0
 70
     0
280
     1
281
     0
  0
BLOCK_RECORD
  5
3C8
330
1
100
AcDbSymbolTableRecord
100
AcDbBlockTableRecord
  2
BUILDSED
340
0
 70
     0
280
     1
281
     0
  0
BLOCK_RECORD
  5
3CD
330
1
100
AcDbSymbolTableRecord
100
AcDbBlockTableRecord
  2
REGTM
340
0
 70
     0
280
     1
281
     0
  0
BLOCK_RECORD
  5
AA7
102
{ACAD_XDICTIONARY
360
AA9
102
}
330
1
100
AcDbSymbolTableRecord
100
AcDbBlockTableRecord
  2
A$C689B0824
340
0
 70
     0
280
     1
281
     0
  0
BLOCK_RECORD
  5
B31
102
{ACAD_XDICTIONARY
360
B34
102
}
330
1
100
AcDbSymbolTableRecord
100
AcDbBlockTableRecord
  2
A$C2D01300C
340
0
 70
     0
280
     1
281
     0
  0
BLOCK_RECORD
  5
E4C
102
{ACAD_XDICTIONARY
360
E4E
102
}
330
1
100
AcDbSymbolTableRecord
100
AcDbBlockTableRecord
  2
A$C4BBC1FCB
340
0
 70
     0
280
     1
281
     0
  0
BLOCK_RECORD
  5
E60
102
{ACAD_XDICTIONARY
360
E62
102
}
330
1
100
AcDbSymbolTableRecord
100
AcDbBlockTableRecord
  2
A$C4F9B3CDD
340
0
 70
     0
280
     1
281
     0
  0
BLOCK_RECORD
  5
FC9
330
1
100
AcDbSymbolTableRecord
100
AcDbBlockTableRecord
  2
N_arrow
340
0
102
{BLKREFS
331
FF2
331
1817
102
}
 70
     0
280
     1
281
     0
  0
BLOCK_RECORD
  5
FE9
102
{ACAD_XDICTIONARY
360
1022
102
}
330
1
100
AcDbSymbolTableRecord
100
AcDbBlockTableRecord
  2
A3-L1
340
0
 70
     0
280
     1
281
     0
  0
BLOCK_RECORD
  5
125C
102
{ACAD_XDICTIONARY
360
125E
102
}
330
1
100
AcDbSymbolTableRecord
100
AcDbBlockTableRecord
  2
A$C22221F0C
340
0
 70
     0
280
     1
281
     0
  0
BLOCK_RECORD
  5
180E
102
{ACAD_XDICTIONARY
360
1846
102
}
330
1
100
AcDbSymbolTableRecord
100
AcDbBlockTableRecord
  2
A4-P
340
0
 70
     0
280
     1
281
     0
  0
ENDTAB
  0
ENDSEC
  0
SECTION
  2
BLOCKS
  0
BLOCK
  5
6C
330
6B
100
AcDbEntity
  8
0
100
AcDbBlockBegin
  2
*Model_Space
 70
     0
 10
0.0
 20
0.0
 30
0.0
  3
*Model_Space
  1

  0
ENDBLK
  5
6D
330
6B
100
AcDbEntity
  8
0
100
AcDbBlockEnd
  0
BLOCK
  5
68
330
67
100
AcDbEntity
 67
     1
  8
0
100
AcDbBlockBegin
  2
*Paper_Space
 70
     0
 10
0.0
 20
0.0
 30
0.0
  3
*Paper_Space
  1

  0
ENDBLK
  5
69
330
67
100
AcDbEntity
 67
     1
  8
0
100
AcDbBlockEnd
  0
BLOCK
  5
BD
330
BC
100
AcDbEntity
  8
0
100
AcDbBlockBegin
  2
TREENC
 70
     0
 10
0.0
 20
0.0
 30
0.0
  3
TREENC
  1

  0
LINE
  5
BE
330
BC
100
AcDbEntity
  8
0
100
AcDbLine
 10
0.231854
 20
0.00637
 30
0.0
 11
1.816483
 21
6.033653
 31
0.0
  0
LINE
  5
BF
330
BC
100
AcDbEntity
  8
0
100
AcDbLine
 10
-0.192324
 20
0.008718
 30
0.0
 11
-1.744066
 21
5.965676999999999
 31
0.0
  0
ARC
  5
C0
330
BC
100
AcDbEntity
  8
0
100
AcDbCircle
 10
-5.352941
 20
8.804875
 30
0.0
 40
4.597739
100
AcDbArc
 50
124.320684
 51
321.504411
  0
ARC
  5
C1
330
BC
100
AcDbEntity
  8
0
100
AcDbCircle
 10
5.485201999999999
 20
8.804875
 30
0.0
 40
4.597739
100
AcDbArc
 50
217.066148
 51
56.595122
  0
LINE
  5
C2
330
BC
100
AcDbEntity
  8
0
100
AcDbLine
 10
-0.193702
 20
0.00637
 30
0.0
 11
0.231854
 21
0.00637
 31
0.0
  0
ARC
  5
C3
330
BC
100
AcDbEntity
  8
0
100
AcDbCircle
 10
4.684725
 20
15.301103
 30
0.0
 40
4.262135
100
AcDbArc
 50
321.417723
 51
92.554078
  0
ARC
  5
C4
330
BC
100
AcDbEntity
  8
0
100
AcDbCircle
 10
-4.646574
 20
15.301103
 30
0.0
 40
4.262135
100
AcDbArc
 50
87.445922
 51
219.289963
  0
ARC
  5
C5
330
BC
100
AcDbEntity
  8
0
100
AcDbCircle
 10
0.01908
 20
18.506806
 30
0.0
 40
4.597739
100
AcDbArc
 50
13.229441
 51
166.770559
  0
ENDBLK
  5
C6
330
BC
100
AcDbEntity
  8
0
100
AcDbBlockEnd
  0
BLOCK
  5
C8
330
C7
100
AcDbEntity
  8
0
100
AcDbBlockBegin
  2
TREESNC
 70
     0
 10
0.0
 20
0.0
 30
0.0
  3
TREESNC
  1

  0
ARC
  5
C9
330
C7
100
AcDbEntity
  8
0
100
AcDbCircle
 10
-9.638904
 20
18.477109
 30
0.0
 40
4.597739
100
AcDbArc
 50
13.229441
 51
166.770559
  0
ARC
  5
CA
330
C7
100
AcDbEntity
  8
0
100
AcDbCircle
 10
-15.010924
 20
8.775178
 30
0.0
 40
4.597739
100
AcDbArc
 50
124.320684
 51
321.504411
  0
ARC
  5
CB
330
C7
100
AcDbEntity
  8
0
100
AcDbCircle
 10
-16.486914
 20
-1.461918
 30
0.0
 40
3.09299
100
AcDbArc
 50
28.842917
 51
151.157083
  0
ARC
  5
CC
330
C7
100
AcDbEntity
  8
0
100
AcDbCircle
 10
-14.304557
 20
15.271406
 30
0.0
 40
4.262135
100
AcDbArc
 50
87.445922
 51
219.289963
  0
ARC
  5
CD
330
C7
100
AcDbEntity
  8
0
100
AcDbCircle
 10
-4.172782
 20
8.775178
 30
0.0
 40
4.597739
100
AcDbArc
 50
217.066148
 51
56.595122
  0
LINE
  5
CE
330
C7
100
AcDbEntity
  8
0
100
AcDbLine
 10
-9.42613
 20
-0.023327
 30
0.0
 11
-7.841500999999999
 21
6.003956
 31
0.0
  0
LINE
  5
CF
330
C7
100
AcDbEntity
  8
0
100
AcDbLine
 10
-9.850307
 20
-0.020979
 30
0.0
 11
-11.40205
 21
5.935980000000001
 31
0.0
  0
LINE
  5
D0
330
C7
100
AcDbEntity
  8
0
100
AcDbLine
 10
-9.851686
 20
-0.023327
 30
0.0
 11
-9.42613
 21
-0.023327
 31
0.0
  0
ARC
  5
D1
330
C7
100
AcDbEntity
  8
0
100
AcDbCircle
 10
-2.818629
 20
-1.461918
 30
0.0
 40
3.09299
100
AcDbArc
 50
28.842917
 51
151.157083
  0
ARC
  5
D2
330
C7
100
AcDbEntity
  8
0
100
AcDbCircle
 10
-4.973258
 20
15.271406
 30
0.0
 40
4.262135
100
AcDbArc
 50
321.417723
 51
92.554078
  0
ARC
  5
D3
330
C7
100
AcDbEntity
  8
0
100
AcDbCircle
 10
9.315062
 20
-3.84091
 30
0.0
 40
2.131067
100
AcDbArc
 50
321.417723
 51
92.554078
  0
ARC
  5
D4
330
C7
100
AcDbEntity
  8
0
100
AcDbCircle
 10
4.649416
 20
-3.84091
 30
0.0
 40
2.131067
100
AcDbArc
 50
87.445922
 51
219.289963
  0
ARC
  5
D5
330
C7
100
AcDbEntity
  8
0
100
AcDbCircle
 10
6.982239
 20
-2.238063
 30
0.0
 40
2.298874
100
AcDbArc
 50
13.229441
 51
166.770559
  0
ARC
  5
D6
330
C7
100
AcDbEntity
  8
0
100
AcDbCircle
 10
10.392377
 20
-12.207576
 30
0.0
 40
1.546499
100
AcDbArc
 50
28.842917
 51
151.157083
  0
ARC
  5
D7
330
C7
100
AcDbEntity
  8
0
100
AcDbCircle
 10
9.7153
 20
-7.089024
 30
0.0
 40
2.298874
100
AcDbArc
 50
217.066148
 51
56.595122
  0
ARC
  5
D8
330
C7
100
AcDbEntity
  8
0
100
AcDbCircle
 10
4.296233
 20
-7.089024
 30
0.0
 40
2.298874
100
AcDbArc
 50
124.320684
 51
321.504411
  0
ARC
  5
D9
330
C7
100
AcDbEntity
  8
0
100
AcDbCircle
 10
3.558234
 20
-12.207576
 30
0.0
 40
1.546499
100
AcDbArc
 50
28.842917
 51
151.157083
  0
LINE
  5
DA
330
C7
100
AcDbEntity
  8
0
100
AcDbLine
 10
6.875848
 20
-11.488281
 30
0.0
 11
7.08863
 21
-11.488281
 31
0.0
  0
LINE
  5
DB
330
C7
100
AcDbEntity
  8
0
100
AcDbLine
 10
6.876541
 20
-11.487103
 30
0.0
 11
6.100666
 21
-8.508627
 31
0.0
  0
LINE
  5
DC
330
C7
100
AcDbEntity
  8
0
100
AcDbLine
 10
7.08863
 20
-11.488281
 30
0.0
 11
7.880945
 21
-8.474639
 31
0.0
  0
ENDBLK
  5
DD
330
C7
100
AcDbEntity
  8
0
100
AcDbBlockEnd
  0
BLOCK
  5
DF
330
DE
100
AcDbEntity
  8
0
100
AcDbBlockBegin
  2
TREENCSC
 70
     0
 10
0.0
 20
0.0
 30
0.0
  3
TREENCSC
  1

  0
ARC
  5
E0
330
DE
100
AcDbEntity
  8
0
100
AcDbCircle
 10
-2.019863
 20
4.392993
 30
0.0
 40
2.298874
100
AcDbArc
 50
217.066148
 51
56.595122
  0
ARC
  5
E1
330
DE
100
AcDbEntity
  8
0
100
AcDbCircle
 10
-7.43893
 20
4.392993
 30
0.0
 40
2.298874
100
AcDbArc
 50
124.320684
 51
321.504411
  0
ARC
  5
E2
330
DE
100
AcDbEntity
  8
0
100
AcDbCircle
 10
-8.176929
 20
-0.7255510000000001
 30
0.0
 40
1.546499
100
AcDbArc
 50
28.842917
 51
151.157083
  0
LINE
  5
E3
330
DE
100
AcDbEntity
  8
0
100
AcDbLine
 10
-4.859315
 20
-0.006256
 30
0.0
 11
-4.646533
 21
-0.006256
 31
0.0
  0
LINE
  5
E4
330
DE
100
AcDbEntity
  8
0
100
AcDbLine
 10
-4.858622
 20
-0.005085
 30
0.0
 11
-5.634497000000001
 21
2.973398
 31
0.0
  0
LINE
  5
E5
330
DE
100
AcDbEntity
  8
0
100
AcDbLine
 10
-4.646533
 20
-0.006256
 30
0.0
 11
-3.854218
 21
3.007386
 31
0.0
  0
ARC
  5
E6
330
DE
100
AcDbEntity
  8
0
100
AcDbCircle
 10
-1.342786
 20
-0.7255510000000001
 30
0.0
 40
1.546499
100
AcDbArc
 50
28.842917
 51
151.157083
  0
ARC
  5
E7
330
DE
100
AcDbEntity
  8
0
100
AcDbCircle
 10
-7.085747
 20
7.641107000000001
 30
0.0
 40
2.131067
100
AcDbArc
 50
87.445922
 51
219.289963
  0
ARC
  5
E8
330
DE
100
AcDbEntity
  8
0
100
AcDbCircle
 10
-2.420101
 20
7.641107000000001
 30
0.0
 40
2.131067
100
AcDbArc
 50
321.417723
 51
92.554078
  0
ARC
  5
E9
330
DE
100
AcDbEntity
  8
0
100
AcDbCircle
 10
-4.752924
 20
9.243962
 30
0.0
 40
2.298874
100
AcDbArc
 50
13.229441
 51
166.770559
  0
ENDBLK
  5
EA
330
DE
100
AcDbEntity
  8
0
100
AcDbBlockEnd
  0
BLOCK
  5
EC
330
EB
100
AcDbEntity
  8
0
100
AcDbBlockBegin
  2
TREEC
 70
     0
 10
0.0
 20
0.0
 30
0.0
  3
TREEC
  1

  0
LWPOLYLINE
  5
ED
330
EB
100
AcDbEntity
  8
0
100
AcDbPolyline
 90
        3
 70
     0
 43
0.0
 10
-10.048495
 20
4.401198
 42
0.193866
 10
-0.018568
 20
12.25479
 42
0.193866
 10
10.011352
 20
4.401198
  0
LINE
  5
F2
330
EB
100
AcDbEntity
  8
0
100
AcDbLine
 10
-0.018568
 20
23.03807
 30
0.0
 11
-0.018568
 21
-0.04623
 31
0.0
  0
LWPOLYLINE
  5
F3
330
EB
100
AcDbEntity
  8
0
100
AcDbPolyline
 90
        3
 70
     0
 43
0.0
 10
-6.869997
 20
14.149298
 42
0.14211
 10
-0.018568
 20
20.726099
 42
0.139719
 10
6.69159
 20
14.224157
  0
ENDBLK
  5
F8
330
EB
100
AcDbEntity
  8
0
100
AcDbBlockEnd
  0
BLOCK
  5
FA
330
F9
100
AcDbEntity
  8
0
100
AcDbBlockBegin
  2
TREESC
 70
     0
 10
0.0
 20
0.0
 30
0.0
  3
TREESC
  1

  0
LINE
  5
FB
330
F9
100
AcDbEntity
  8
0
100
AcDbLine
 10
7.490419
 20
0.07392
 30
0.0
 11
7.490419
 21
-11.468233
 31
0.0
  0
LWPOLYLINE
  5
FC
330
F9
100
AcDbEntity
  8
0
100
AcDbPolyline
 90
        3
 70
     0
 43
0.0
 10
4.064705
 20
-4.370466
 42
0.14211
 10
7.490419
 20
-1.082065
 42
0.139719
 10
10.845494
 20
-4.333036
  0
LWPOLYLINE
  5
101
330
F9
100
AcDbEntity
  8
0
100
AcDbPolyline
 90
        3
 70
     0
 43
0.0
 10
2.475455
 20
-9.244512
 42
0.193866
 10
7.490419
 20
-5.31772
 42
0.193866
 10
12.505375
 20
-9.244512
  0
ARC
  5
106
330
F9
100
AcDbEntity
  8
0
100
AcDbCircle
 10
10.903421
 20
-12.183525
 30
0.0
 40
1.546491
100
AcDbArc
 50
28.842917
 51
151.157083
  0
LWPOLYLINE
  5
107
330
F9
100
AcDbEntity
  8
0
100
AcDbPolyline
 90
        3
 70
     0
 43
0.0
 10
-19.565055
 20
4.424297
 42
0.193866
 10
-9.535128
 20
12.277889
 42
0.193866
 10
0.494792
 20
4.424297
  0
LINE
  5
10C
330
F9
100
AcDbEntity
  8
0
100
AcDbLine
 10
-9.535128
 20
23.061169
 30
0.0
 11
-9.535128
 21
-0.023131
 31
0.0
  0
ARC
  5
10D
330
F9
100
AcDbEntity
  8
0
100
AcDbCircle
 10
-2.709116
 20
-1.453729
 30
0.0
 40
3.09299
100
AcDbArc
 50
28.842917
 51
151.157083
  0
LWPOLYLINE
  5
10E
330
F9
100
AcDbEntity
  8
0
100
AcDbPolyline
 90
        3
 70
     0
 43
0.0
 10
-16.386557
 20
14.172397
 42
0.14211
 10
-9.535128
 20
20.749198
 42
0.139719
 10
-2.824971
 20
14.247256
  0
ENDBLK
  5
113
330
F9
100
AcDbEntity
  8
0
100
AcDbBlockEnd
  0
BLOCK
  5
115
330
114
100
AcDbEntity
  8
0
100
AcDbBlockBegin
  2
TREECSC
 70
     0
 10
0.0
 20
0.0
 30
0.0
  3
TREECSC
  1

  0
LWPOLYLINE
  5
116
330
114
100
AcDbEntity
  8
0
100
AcDbPolyline
 90
        3
 70
     0
 43
0.0
 10
-5.0211
 20
2.247052
 42
0.193866
 10
-0.006136
 20
6.173852
 42
0.193866
 10
5.00882
 20
2.247052
  0
LINE
  5
11B
330
114
100
AcDbEntity
  8
0
100
AcDbLine
 10
-0.006136
 20
11.565492
 30
0.0
 11
-0.006136
 21
0.023338
 31
0.0
  0
ARC
  5
11C
330
114
100
AcDbEntity
  8
0
100
AcDbCircle
 10
3.406866
 20
-0.6919609999999999
 30
0.0
 40
1.546499
100
AcDbArc
 50
28.842917
 51
151.157083
  0
LWPOLYLINE
  5
11D
330
114
100
AcDbEntity
  8
0
100
AcDbPolyline
 90
        3
 70
     0
 43
0.0
 10
-3.431851
 20
7.121106
 42
0.14211
 10
-0.006136
 20
10.409506
 42
0.139719
 10
3.348939
 20
7.158535000000001
  0
ENDBLK
  5
122
330
114
100
AcDbEntity
  8
0
100
AcDbBlockEnd
  0
BLOCK
  5
124
330
123
100
AcDbEntity
  8
0
100
AcDbBlockBegin
  2
SLOPE
 70
     0
 10
0.0
 20
0.0
 30
0.0
  3
SLOPE
  1

  0
LINE
  5
125
330
123
100
AcDbEntity
  8
0
100
AcDbLine
 10
-12.220191
 20
-4.535646
 30
0.0
 11
5.489808999999999
 21
-4.535646
 31
0.0
  0
LINE
  5
126
330
123
100
AcDbEntity
  8
0
100
AcDbLine
 10
7.029808999999999
 20
10.864354
 30
0.0
 11
-12.220191
 21
-4.535646
 31
0.0
  0
LINE
  5
127
330
123
100
AcDbEntity
  8
0
100
AcDbLine
 10
5.489808999999999
 20
-4.535646
 30
0.0
 11
7.029808999999999
 21
10.864354
 31
0.0
  0
ENDBLK
  5
128
330
123
100
AcDbEntity
  8
0
100
AcDbBlockEnd
  0
BLOCK
  5
12A
330
129
100
AcDbEntity
  8
0
100
AcDbBlockBegin
  2
SCREE
 70
     0
 10
0.0
 20
0.0
 30
0.0
  3
SCREE
  1

  0
LWPOLYLINE
  5
12B
330
129
100
AcDbEntity
  8
0
100
AcDbPolyline
 90
        3
 70
   129
 43
0.0
 10
1.416746
 20
9.597953
 10
1.761921
 20
10.460563
 10
2.970034
 20
9.554822
  0
LWPOLYLINE
  5
130
330
129
100
AcDbEntity
  8
0
100
AcDbPolyline
 90
        6
 70
     0
 43
0.0
 10
2.397614
 20
-1.131796
 10
3.739809
 20
-0.813663
 10
3.767483
 20
0.569519
 10
2.812729
 20
1.247273
 10
1.92716
 20
0.071576
 10
2.411451
 20
-1.145625
  0
LWPOLYLINE
  5
138
330
129
100
AcDbEntity
  8
0
100
AcDbPolyline
 90
        9
 70
     0
 43
0.0
 10
4.653052
 20
-5.184506
 10
6.922327
 20
-3.427866
 10
7.295931
 20
-1.034968
 10
6.839305
 20
0.154566
 10
4.556194000000001
 20
-0.426368
 10
3.988873
 20
-1.685064
 10
2.67436
 20
-2.030855
 10
2.771218
 20
-4.520581
 10
4.666889
 20
-5.170677
  0
LWPOLYLINE
  5
143
330
129
100
AcDbEntity
  8
0
100
AcDbPolyline
 90
        8
 70
     0
 43
0.0
 10
1.636577
 20
-11.450312
 10
5.953736
 20
-9.735167
 10
4.846776
 20
-6.733669
 10
3.07563
 20
-5.627125
 10
-0.300604
 20
-7.120956
 10
0.751008
 20
-8.186003999999999
 10
0.335901
 20
-9.956472999999999
 10
1.636577
 20
-11.450312
  0
LWPOLYLINE
  5
14D
330
129
100
AcDbEntity
  8
0
100
AcDbPolyline
 90
        7
 70
     0
 43
0.0
 10
2.190061
 20
3.29438
 10
3.919689
 20
3.985971
 10
2.812729
 20
5.645783
 10
1.40135
 20
5.03719
 10
1.885649
 20
4.580734
 10
1.650422
 20
3.875314
 10
2.190061
 20
3.308217
  0
LWPOLYLINE
  5
156
330
129
100
AcDbEntity
  8
0
100
AcDbPolyline
 90
        4
 70
   129
 43
0.0
 10
-4.451231
 20
6.621944999999999
 10
-3.890321
 20
7.484556
 10
-2.941089
 20
6.966989
 10
-3.329411
 20
6.061248
  0
LWPOLYLINE
  5
15C
330
129
100
AcDbEntity
  8
0
100
AcDbPolyline
 90
        6
 70
     0
 43
0.0
 10
2.107039
 20
5.908591
 10
2.549828
 20
6.337374
 10
2.425288
 20
8.425976
 10
0.543454
 20
9.698501
 10
0.29439
 20
8.495137
 10
2.120876
 20
5.894755
  0
LWPOLYLINE
  5
164
330
129
100
AcDbEntity
  8
0
100
AcDbPolyline
 90
        8
 70
     0
 43
0.0
 10
-8.422941999999999
 20
-9.818158
 10
-6.942378
 20
-6.498526
 10
-8.82422
 20
-4.631238
 10
-9.668277999999999
 20
-5.253667
 10
-11.9929
 20
-4.202448
 10
-13.874734
 20
-7.107127
 10
-12.366497
 20
-9.195729
 10
-8.395268
 20
-9.831987
  0
LWPOLYLINE
  5
16E
330
129
100
AcDbEntity
  8
0
100
AcDbPolyline
 90
        5
 70
   129
 43
0.0
 10
-6.996897
 20
-4.548865
 10
-5.875078
 20
-2.349207
 10
-3.329411
 20
-3.039295
 10
-3.933468
 20
-5.282083999999999
 10
-5.961371
 20
-6.144695
  0
LWPOLYLINE
  5
175
330
129
100
AcDbEntity
  8
0
100
AcDbPolyline
 90
        8
 70
     0
 43
0.0
 10
-0.535832
 20
-5.959087
 10
1.290654
 20
-4.769553
 10
1.954833
 20
-1.380768
 10
-0.854088
 20
-0.039081
 10
-2.514532
 20
-1.574407
 10
-2.002559
 20
-2.321323
 10
-2.957312
 20
-4.230114
 10
-0.521995
 20
-5.959087
  0
LWPOLYLINE
  5
17F
330
129
100
AcDbEntity
  8
0
100
AcDbPolyline
 90
        9
 70
     0
 43
0.0
 10
-2.071743
 20
-10.468254
 10
-0.7710670000000001
 20
-8.03386
 10
-2.279297
 20
-6.360211
 10
-5.364955999999999
 20
-6.844326
 10
-6.970052000000001
 20
-8.974414999999999
 10
-7.122265
 20
-10.426758
 10
-4.742296
 20
-11.021522
 10
-3.483122
 20
-10.108625
 10
-2.057906
 20
-10.468254
  0
LWPOLYLINE
  5
18A
330
129
100
AcDbEntity
  8
0
100
AcDbPolyline
 90
        6
 70
   129
 43
0.0
 10
-5.400461
 20
0.9287139999999999
 10
-4.710112000000001
 20
0.669931
 10
-4.753258
 20
-0.278941
 10
-3.545146
 20
-0.925899
 10
-1.646682
 20
0.540539
 10
-3.501999
 20
2.352022
  0
LWPOLYLINE
  5
192
330
129
100
AcDbEntity
  8
0
100
AcDbPolyline
 90
        4
 70
   129
 43
0.0
 10
-6.738014999999999
 20
2.006977
 10
-5.573049
 20
2.869589
 10
-5.012139
 20
2.265761
 10
-6.522281
 20
1.40315
  0
LWPOLYLINE
  5
198
330
129
100
AcDbEntity
  8
0
100
AcDbPolyline
 90
        8
 70
     0
 43
0.0
 10
-10.124896
 20
-2.874598
 10
-9.502235
 20
-0.5646909999999999
 10
-6.693314
 20
0.500358
 10
-5.351119000000001
 20
-0.371043
 10
-5.586354
 20
-1.629739
 10
-6.734825
 20
-1.560578
 10
-8.215388
 20
-4.064133
 10
-10.124896
 20
-2.874598
  0
LWPOLYLINE
  5
1A2
330
129
100
AcDbEntity
  8
0
100
AcDbPolyline
 90
        7
 70
   129
 43
0.0
 10
-1.430948
 20
2.912719
 10
-1.430948
 20
1.489411
 10
0.208633
 20
0.885584
 10
2.409124
 20
1.834455
 10
1.416746
 20
3.214633
 10
0.25178
 20
3.128372
 10
-0.395423
 20
3.77533
  0
LWPOLYLINE
  5
1AB
330
129
100
AcDbEntity
  8
0
100
AcDbPolyline
 90
        8
 70
     0
 43
0.0
 10
-2.182438
 20
4.926533
 10
-2.08558
 20
6.793822
 10
-0.106888
 20
7.181117
 10
1.00008
 20
6.420364
 10
0.584965
 20
4.719057
 10
-0.688038
 20
4.815877
 10
-0.950946
 20
4.359428
 10
-2.196275
 20
4.912704
  0
LWPOLYLINE
  5
1B5
330
129
100
AcDbEntity
  8
0
100
AcDbPolyline
 90
        6
 70
     0
 43
0.0
 10
-4.479387
 20
2.879427
 10
-2.929639
 20
3.252885
 10
-2.805106
 20
4.981858
 10
-4.036606
 20
5.687278
 10
-5.060544
 20
4.317933
 10
-4.479387
 20
2.879427
  0
LWPOLYLINE
  5
1BD
330
129
100
AcDbEntity
  8
0
100
AcDbPolyline
 90
        4
 70
   129
 43
0.0
 10
-0.136542
 20
12.832743
 10
0.467514
 20
13.824745
 10
1.50304
 20
13.43657
 10
0.855836
 20
12.272046
  0
LWPOLYLINE
  5
1C3
330
129
100
AcDbEntity
  8
0
100
AcDbPolyline
 90
        4
 70
   129
 43
0.0
 10
-2.897943
 20
8.260906
 10
-1.085774
 20
9.684214
 10
-0.611157
 20
8.131514
 10
-2.078152
 20
7.268903
  0
LWPOLYLINE
  5
1C9
330
129
100
AcDbEntity
  8
0
100
AcDbPolyline
 90
        4
 70
   129
 43
0.0
 10
-1.862418
 20
10.589955
 10
-1.430948
 20
12.61709
 10
-0.050248
 20
12.530829
 10
-0.8700389999999999
 20
10.158649
  0
LWPOLYLINE
  5
1CF
330
129
100
AcDbEntity
  8
0
100
AcDbPolyline
 90
        4
 70
   129
 43
0.0
 10
-0.30913
 20
11.236913
 10
0.467514
 20
11.79761
 10
1.071571
 20
10.546824
 10
0.381221
 20
10.288041
  0
LWPOLYLINE
  5
1D5
330
129
100
AcDbEntity
  8
0
100
AcDbPolyline
 90
        4
 70
   129
 43
0.0
 10
-0.43857
 20
14.514834
 10
-0.395423
 20
15.722489
 10
0.5106609999999999
 20
15.593097
 10
0.5106609999999999
 20
14.342312
  0
LWPOLYLINE
  5
1DB
330
129
100
AcDbEntity
  8
0
100
AcDbPolyline
 90
        9
 70
     0
 43
0.0
 10
10.686002
 20
-10.468254
 10
13.218178
 20
-7.328432
 10
11.70994
 20
-4.866373
 10
10.658328
 20
-5.281333
 10
8.541259
 20
-3.524694
 10
6.424198000000001
 20
-5.129181
 10
5.718509
 20
-6.097403
 10
6.645589
 20
-8.725442999999999
 10
10.686002
 20
-10.454417
  0
LWPOLYLINE
  5
1E6
330
129
100
AcDbEntity
  8
0
100
AcDbPolyline
 90
        8
 70
     0
 43
0.0
 10
4.583867
 20
0.707834
 10
6.866979
 20
1.247273
 10
6.285822
 20
2.533635
 10
5.372578
 20
2.782607
 10
5.026656
 20
3.543352
 10
3.42156
 20
3.225218
 10
3.227836
 20
1.925035
 10
4.597704
 20
0.721671
  0
LWPOLYLINE
  5
1F0
330
129
100
AcDbEntity
  8
0
100
AcDbPolyline
 90
        4
 70
   129
 43
0.0
 10
7.802485000000001
 20
-2.953034
 10
8.924304
 20
-2.651121
 10
8.70857
 20
-1.529726
 10
7.802485000000001
 20
-1.702249
  0
ENDBLK
  5
1F6
330
129
100
AcDbEntity
  8
0
100
AcDbBlockEnd
  0
BLOCK
  5
1F8
330
1F7
100
AcDbEntity
  8
0
100
AcDbBlockBegin
  2
ROCKS
 70
     0
 10
0.0
 20
0.0
 30
0.0
  3
ROCKS
  1

  0
ARC
  5
1F9
330
1F7
100
AcDbEntity
  8
0
100
AcDbCircle
 10
-3.413759
 20
6.074953
 30
0.0
 40
2.035534
100
AcDbArc
 50
290.545631
 51
0.993497
  0
ARC
  5
1FA
330
1F7
100
AcDbEntity
  8
0
100
AcDbCircle
 10
-19.745898
 20
7.633433
 30
0.0
 40
3.274179
100
AcDbArc
 50
222.89545
 51
243.395171
  0
ARC
  5
1FB
330
1F7
100
AcDbEntity
  8
0
100
AcDbCircle
 10
-8.184263
 20
-1.64713
 30
0.0
 40
3.262636
100
AcDbArc
 50
109.292186
 51
140.946372
  0
LINE
  5
1FC
330
1F7
100
AcDbEntity
  8
0
100
AcDbLine
 10
-28.33059
 20
0.031285
 30
0.0
 11
-20.345343
 21
0.031285
 31
0.0
  0
LINE
  5
1FD
330
1F7
100
AcDbEntity
  8
0
100
AcDbLine
 10
-18.620073
 20
0.570138
 30
0.0
 11
-17.169778
 21
2.548215
 31
0.0
  0
LINE
  5
1FE
330
1F7
100
AcDbEntity
  8
0
100
AcDbLine
 10
-20.345343
 20
0.031285
 30
0.0
 11
-18.620073
 21
0.570138
 31
0.0
  0
LINE
  5
1FF
330
1F7
100
AcDbEntity
  8
0
100
AcDbLine
 10
6.286778
 20
-1.101755
 30
0.0
 11
4.68353
 21
-1.842741
 31
0.0
  0
ARC
  5
200
330
1F7
100
AcDbEntity
  8
0
100
AcDbCircle
 10
1.461303
 20
36.149752
 30
0.0
 40
36.149768
100
AcDbArc
 50
260.826193
 51
267.615374
  0
ARC
  5
201
330
1F7
100
AcDbEntity
  8
0
100
AcDbCircle
 10
-2.605167
 20
10.969666
 30
0.0
 40
10.643433
100
AcDbArc
 50
244.986164
 51
260.826193
  0
LINE
  5
202
330
1F7
100
AcDbEntity
  8
0
100
AcDbLine
 10
-9.303636000000001
 20
1.373349
 30
0.0
 11
-5.418778
 21
3.08174
 31
0.0
  0
ARC
  5
203
330
1F7
100
AcDbEntity
  8
0
100
AcDbCircle
 10
-8.316249000000001
 20
-1.270069
 30
0.0
 40
2.863137
100
AcDbArc
 50
64.986164
 51
109.292186
  0
LINE
  5
204
330
1F7
100
AcDbEntity
  8
0
100
AcDbLine
 10
-5.418778
 20
3.08174
 30
0.0
 11
-2.699384
 21
4.168895
 31
0.0
  0
LINE
  5
205
330
1F7
100
AcDbEntity
  8
0
100
AcDbLine
 10
0.619301
 20
-6.626166
 30
0.0
 11
4.611928
 21
-6.626166
 31
0.0
  0
LINE
  5
206
330
1F7
100
AcDbEntity
  8
0
100
AcDbLine
 10
5.474558999999999
 20
-6.356743
 30
0.0
 11
6.199706
 21
-5.367701
 31
0.0
  0
ARC
  5
207
330
1F7
100
AcDbEntity
  8
0
100
AcDbCircle
 10
4.91165
 20
-2.825092
 30
0.0
 40
1.637089
100
AcDbArc
 50
222.89545
 51
243.395171
  0
ARC
  5
208
330
1F7
100
AcDbEntity
  8
0
100
AcDbCircle
 10
5.317856
 20
-2.447684
 30
0.0
 40
2.191574
100
AcDbArc
 50
204.513943
 51
222.89545
  0
ARC
  5
209
330
1F7
100
AcDbEntity
  8
0
100
AcDbCircle
 10
4.143544
 20
-2.983196
 30
0.0
 40
0.9009149999999999
100
AcDbArc
 50
118.597138
 51
204.513943
  0
LINE
  5
20A
330
1F7
100
AcDbEntity
  8
0
100
AcDbLine
 10
4.68353
 20
-1.842741
 30
0.0
 11
3.712321
 21
-2.192183
 31
0.0
  0
LINE
  5
20B
330
1F7
100
AcDbEntity
  8
0
100
AcDbLine
 10
4.611928
 20
-6.626166
 30
0.0
 11
5.474558999999999
 21
-6.356743
 31
0.0
  0
ARC
  5
20C
330
1F7
100
AcDbEntity
  8
0
100
AcDbCircle
 10
15.515251
 20
11.433067
 30
0.0
 40
18.074888
100
AcDbArc
 50
260.826193
 51
267.615374
  0
LINE
  5
20D
330
1F7
100
AcDbEntity
  8
0
100
AcDbLine
 10
8.501144
 20
-0.286386
 30
0.0
 11
6.286778
 21
-1.101755
 31
0.0
  0
ARC
  5
20E
330
1F7
100
AcDbEntity
  8
0
100
AcDbCircle
 10
9.655297000000001
 20
-1.153191
 30
0.0
 40
0.793431
100
AcDbArc
 50
293.950728
 51
37.093345
  0
ARC
  5
20F
330
1F7
100
AcDbEntity
  8
0
100
AcDbCircle
 10
10.626475
 20
-7.276847
 30
0.0
 40
1.431569
100
AcDbArc
 50
64.986164
 51
109.292186
  0
LINE
  5
210
330
1F7
100
AcDbEntity
  8
0
100
AcDbLine
 10
11.803266
 20
-1.295895
 30
0.0
 11
9.278112
 21
-2.266565
 31
0.0
  0
LINE
  5
211
330
1F7
100
AcDbEntity
  8
0
100
AcDbLine
 10
10.132781
 20
-5.955133999999999
 30
0.0
 11
12.075207
 21
-5.100942
 31
0.0
  0
ARC
  5
212
330
1F7
100
AcDbEntity
  8
0
100
AcDbCircle
 10
10.692464
 20
-7.465374000000001
 30
0.0
 40
1.631322
100
AcDbArc
 50
109.292186
 51
140.946372
  0
LINE
  5
213
330
1F7
100
AcDbEntity
  8
0
100
AcDbLine
 10
9.278112
 20
-2.266565
 30
0.0
 11
7.685321000000001
 21
-2.887801
 31
0.0
  0
LINE
  5
214
330
1F7
100
AcDbEntity
  8
0
100
AcDbLine
 10
8.578837
 20
-2.499528
 30
0.0
 11
9.977388000000001
 21
-1.8783
 31
0.0
  0
ARC
  5
215
330
1F7
100
AcDbEntity
  8
0
100
AcDbCircle
 10
12.240449
 20
-2.265209
 30
0.0
 40
1.063347
100
AcDbArc
 50
43.827456
 51
114.276238
  0
LINE
  5
216
330
1F7
100
AcDbEntity
  8
0
100
AcDbLine
 10
12.075207
 20
-5.100942
 30
0.0
 11
13.434903
 21
-4.557361
 31
0.0
  0
ARC
  5
217
330
1F7
100
AcDbEntity
  8
0
100
AcDbCircle
 10
13.077716
 20
-3.604332
 30
0.0
 40
1.017771
100
AcDbArc
 50
290.545631
 51
0.993497
  0
ARC
  5
218
330
1F7
100
AcDbEntity
  8
0
100
AcDbCircle
 10
11.919582
 20
-3.624421
 30
0.0
 40
2.176082
100
AcDbArc
 50
0.993497
 51
34.782423
  0
ARC
  5
219
330
1F7
100
AcDbEntity
  8
0
100
AcDbCircle
 10
7.957555
 20
-6.376293
 30
0.0
 40
7.000032000000001
100
AcDbArc
 50
34.782423
 51
43.827456
  0
ARC
  5
21A
330
1F7
100
AcDbEntity
  8
0
100
AcDbCircle
 10
13.482012
 20
-1.156979
 30
0.0
 40
5.321716
100
AcDbArc
 50
244.986164
 51
260.826193
  0
ARC
  5
21B
330
1F7
100
AcDbEntity
  8
0
100
AcDbCircle
 10
9.469819000000001
 20
-0.539817
 30
0.0
 40
0.538269
100
AcDbArc
 50
43.410624
 51
115.361552
  0
ARC
  5
21C
330
1F7
100
AcDbEntity
  8
0
100
AcDbCircle
 10
8.024822
 20
2.508629
 30
0.0
 40
2.835317
100
AcDbArc
 50
279.671393
 51
295.361552
  0
ARC
  5
21D
330
1F7
100
AcDbEntity
  8
0
100
AcDbCircle
 10
5.501208
 20
-4.294144
 30
0.0
 40
6.001311
100
AcDbArc
 50
37.093345
 51
43.410624
  0
ARC
  5
21E
330
1F7
100
AcDbEntity
  8
0
100
AcDbCircle
 10
-10.629552
 20
12.203984
 30
0.0
 40
1.076529
100
AcDbArc
 50
43.410624
 51
115.361552
  0
LINE
  5
21F
330
1F7
100
AcDbEntity
  8
0
100
AcDbLine
 10
-12.411517
 20
8.284561
 30
0.0
 11
-9.614423
 21
9.527025
 31
0.0
  0
LINE
  5
220
330
1F7
100
AcDbEntity
  8
0
100
AcDbLine
 10
-5.962658999999999
 20
10.691835
 30
0.0
 11
-11.012966
 21
8.750488
 31
0.0
  0
LINE
  5
221
330
1F7
100
AcDbEntity
  8
0
100
AcDbLine
 10
-16.995635
 20
11.080107
 30
0.0
 11
-20.202131
 21
9.598134
 31
0.0
  0
ARC
  5
222
330
1F7
100
AcDbEntity
  8
0
100
AcDbCircle
 10
-18.933479
 20
8.388256
 30
0.0
 40
4.38314
100
AcDbArc
 50
204.513943
 51
222.89545
  0
ARC
  5
223
330
1F7
100
AcDbEntity
  8
0
100
AcDbCircle
 10
-21.28211
 20
7.317233
 30
0.0
 40
1.801831
100
AcDbArc
 50
118.597138
 51
204.513943
  0
LINE
  5
224
330
1F7
100
AcDbEntity
  8
0
100
AcDbLine
 10
-20.202131
 20
9.598134
 30
0.0
 11
-22.144556
 21
8.899252
 31
0.0
  0
LINE
  5
225
330
1F7
100
AcDbEntity
  8
0
100
AcDbLine
 10
-11.012966
 20
8.750488
 30
0.0
 11
-14.198549
 21
7.508016
 31
0.0
  0
LINE
  5
226
330
1F7
100
AcDbEntity
  8
0
100
AcDbLine
 10
-12.566911
 20
12.710844
 30
0.0
 11
-16.995635
 21
11.080107
 31
0.0
  0
ARC
  5
227
330
1F7
100
AcDbEntity
  8
0
100
AcDbCircle
 10
-13.519555
 20
18.300875
 30
0.0
 40
5.670627
100
AcDbArc
 50
279.671393
 51
295.361552
  0
ARC
  5
228
330
1F7
100
AcDbEntity
  8
0
100
AcDbCircle
 10
-5.730035
 20
6.034782
 30
0.0
 40
4.352156
100
AcDbArc
 50
0.993497
 51
34.782423
  0
ARC
  5
229
330
1F7
100
AcDbEntity
  8
0
100
AcDbCircle
 10
-5.088301
 20
8.753206
 30
0.0
 40
2.126686
100
AcDbArc
 50
43.827456
 51
114.276238
  0
ARC
  5
22A
330
1F7
100
AcDbEntity
  8
0
100
AcDbCircle
 10
-10.258605
 20
10.977243
 30
0.0
 40
1.586855
100
AcDbArc
 50
293.950728
 51
37.093345
  0
ARC
  5
22B
330
1F7
100
AcDbEntity
  8
0
100
AcDbCircle
 10
-13.654089
 20
0.53103
 30
0.0
 40
14.000055
100
AcDbArc
 50
34.782423
 51
43.827456
  0
ARC
  5
22C
330
1F7
100
AcDbEntity
  8
0
100
AcDbCircle
 10
-18.566782
 20
4.695336
 30
0.0
 40
12.002621
100
AcDbArc
 50
37.093345
 51
43.410624
  0
ENDBLK
  5
22D
330
1F7
100
AcDbEntity
  8
0
100
AcDbBlockEnd
  0
BLOCK
  5
22F
330
22E
100
AcDbEntity
  8
0
100
AcDbBlockBegin
  2
ROCKSCAT
 70
     0
 10
0.0
 20
0.0
 30
0.0
  3
ROCKSCAT
  1

  0
ARC
  5
230
330
22E
100
AcDbEntity
  8
0
100
AcDbCircle
 10
-4.163484
 20
-0.6376149999999999
 30
0.0
 40
1.431569
100
AcDbArc
 50
64.986164
 51
109.292186
  0
LINE
  5
231
330
22E
100
AcDbEntity
  8
0
100
AcDbLine
 10
-4.65717
 20
0.684098
 30
0.0
 11
-2.714745
 21
1.538289
 31
0.0
  0
LINE
  5
232
330
22E
100
AcDbEntity
  8
0
100
AcDbLine
 10
-2.986686
 20
5.343344
 30
0.0
 11
-5.511839
 21
4.372667
 31
0.0
  0
ARC
  5
233
330
22E
100
AcDbEntity
  8
0
100
AcDbCircle
 10
-5.134662000000001
 20
5.486049
 30
0.0
 40
0.793431
100
AcDbArc
 50
293.950728
 51
37.093345
  0
ARC
  5
234
330
22E
100
AcDbEntity
  8
0
100
AcDbCircle
 10
-9.878309
 20
3.81414
 30
0.0
 40
1.637089
100
AcDbArc
 50
222.89545
 51
243.395171
  0
LINE
  5
235
330
22E
100
AcDbEntity
  8
0
100
AcDbLine
 10
-14.170651
 20
0.013066
 30
0.0
 11
-10.178031
 21
0.013066
 31
0.0
  0
LINE
  5
236
330
22E
100
AcDbEntity
  8
0
100
AcDbLine
 10
-9.315392999999998
 20
0.282489
 30
0.0
 11
-8.590245
 21
1.271531
 31
0.0
  0
LINE
  5
237
330
22E
100
AcDbEntity
  8
0
100
AcDbLine
 10
-10.178031
 20
0.013066
 30
0.0
 11
-9.315392999999998
 21
0.282489
 31
0.0
  0
ARC
  5
238
330
22E
100
AcDbEntity
  8
0
100
AcDbCircle
 10
-4.097487999999999
 20
-0.826142
 30
0.0
 40
1.631314
100
AcDbArc
 50
109.292186
 51
140.946372
  0
LINE
  5
239
330
22E
100
AcDbEntity
  8
0
100
AcDbLine
 10
-8.503174000000001
 20
5.537477
 30
0.0
 11
-10.106421
 21
4.79649
 31
0.0
  0
ARC
  5
23A
330
22E
100
AcDbEntity
  8
0
100
AcDbCircle
 10
-10.646415
 20
3.656043
 30
0.0
 40
0.9009149999999999
100
AcDbArc
 50
118.597138
 51
204.513943
  0
LINE
  5
23B
330
22E
100
AcDbEntity
  8
0
100
AcDbLine
 10
-10.106421
 20
4.79649
 30
0.0
 11
-11.07763
 21
4.447049
 31
0.0
  0
ARC
  5
23C
330
22E
100
AcDbEntity
  8
0
100
AcDbCircle
 10
-9.472095
 20
4.191555
 30
0.0
 40
2.191574
100
AcDbArc
 50
204.513943
 51
222.89545
  0
ARC
  5
23D
330
22E
100
AcDbEntity
  8
0
100
AcDbCircle
 10
-9.288751
 20
2.345095
 30
0.0
 40
6.001311
100
AcDbArc
 50
37.093345
 51
43.410624
  0
ARC
  5
23E
330
22E
100
AcDbEntity
  8
0
100
AcDbCircle
 10
-6.765136999999999
 20
9.147861
 30
0.0
 40
2.835309
100
AcDbArc
 50
279.671393
 51
295.361552
  0
ARC
  5
23F
330
22E
100
AcDbEntity
  8
0
100
AcDbCircle
 10
-5.320132
 20
6.099415
 30
0.0
 40
0.538269
100
AcDbArc
 50
43.410624
 51
115.361552
  0
LINE
  5
240
330
22E
100
AcDbEntity
  8
0
100
AcDbLine
 10
-6.288808
 20
6.352844999999999
 30
0.0
 11
-8.503174000000001
 21
5.537477
 31
0.0
  0
LINE
  5
241
330
22E
100
AcDbEntity
  8
0
100
AcDbLine
 10
-6.211115
 20
4.139704
 30
0.0
 11
-4.812571
 21
4.76094
 31
0.0
  0
LINE
  5
242
330
22E
100
AcDbEntity
  8
0
100
AcDbLine
 10
-5.511839
 20
4.372667
 30
0.0
 11
-7.10463
 21
3.751431
 31
0.0
  0
ARC
  5
243
330
22E
100
AcDbEntity
  8
0
100
AcDbCircle
 10
-1.712236
 20
3.0349
 30
0.0
 40
1.017763
100
AcDbArc
 50
290.545631
 51
0.993497
  0
ARC
  5
244
330
22E
100
AcDbEntity
  8
0
100
AcDbCircle
 10
0.725292
 20
18.072299
 30
0.0
 40
18.074888
100
AcDbArc
 50
260.826193
 51
267.615374
  0
LINE
  5
245
330
22E
100
AcDbEntity
  8
0
100
AcDbLine
 10
-2.714745
 20
1.538289
 30
0.0
 11
-1.355048
 21
2.081871
 31
0.0
  0
ARC
  5
246
330
22E
100
AcDbEntity
  8
0
100
AcDbCircle
 10
-1.307939
 20
5.482252
 30
0.0
 40
5.321716
100
AcDbArc
 50
244.986164
 51
260.826193
  0
ARC
  5
247
330
22E
100
AcDbEntity
  8
0
100
AcDbCircle
 10
-2.549511
 20
4.37403
 30
0.0
 40
1.063339
100
AcDbArc
 50
43.827456
 51
114.276238
  0
ARC
  5
248
330
22E
100
AcDbEntity
  8
0
100
AcDbCircle
 10
-2.870377
 20
3.014818
 30
0.0
 40
2.176074
100
AcDbArc
 50
0.993497
 51
34.782423
  0
ARC
  5
249
330
22E
100
AcDbEntity
  8
0
100
AcDbCircle
 10
-6.832405000000001
 20
0.262938
 30
0.0
 40
7.000032000000001
100
AcDbArc
 50
34.782423
 51
43.827456
  0
ENDBLK
  5
24A
330
22E
100
AcDbEntity
  8
0
100
AcDbBlockEnd
  0
BLOCK
  5
24C
330
24B
100
AcDbEntity
  8
0
100
AcDbBlockBegin
  2
CLIFF
 70
     0
 10
0.0
 20
0.0
 30
0.0
  3
CLIFF
  1

  0
LINE
  5
24D
330
24B
100
AcDbEntity
  8
0
100
AcDbLine
 10
-2.246367
 20
11.654497
 30
0.0
 11
-2.246367
 21
2.353523
 31
0.0
  0
LINE
  5
24E
330
24B
100
AcDbEntity
  8
0
100
AcDbLine
 10
-2.231868
 20
8.144166
 30
0.0
 11
-0.019527
 21
4.78501
 31
0.0
  0
LINE
  5
24F
330
24B
100
AcDbEntity
  8
0
100
AcDbLine
 10
-9.415182000000001
 20
14.49645
 30
0.0
 11
-9.415182000000001
 21
4.163735
 31
0.0
  0
LINE
  5
250
330
24B
100
AcDbEntity
  8
0
100
AcDbLine
 10
-13.398568
 20
-0.021193
 30
0.0
 11
6.266259
 21
-0.021193
 31
0.0
  0
LINE
  5
251
330
24B
100
AcDbEntity
  8
0
100
AcDbLine
 10
-0.019527
 20
4.78501
 30
0.0
 11
-0.019527
 21
0.019418
 31
0.0
  0
LINE
  5
252
330
24B
100
AcDbEntity
  8
0
100
AcDbLine
 10
-5.586712
 20
19.782338
 30
0.0
 11
-3.336994999999999
 21
19.782338
 31
0.0
  0
LINE
  5
253
330
24B
100
AcDbEntity
  8
0
100
AcDbLine
 10
-10.000117
 20
19.966006
 30
0.0
 11
-10.000117
 21
15.381483
 31
0.0
  0
LINE
  5
254
330
24B
100
AcDbEntity
  8
0
100
AcDbLine
 10
-7.047055
 20
19.663997
 30
0.0
 11
-7.047055
 21
12.958013
 31
0.0
  0
LINE
  5
255
330
24B
100
AcDbEntity
  8
0
100
AcDbLine
 10
-7.402278999999999
 20
12.405762
 30
0.0
 11
-7.402278999999999
 21
10.038943
 31
0.0
  0
LINE
  5
256
330
24B
100
AcDbEntity
  8
0
100
AcDbLine
 10
-10.007212
 20
15.403726
 30
0.0
 11
-9.415182000000001
 21
14.49645
 31
0.0
  0
LINE
  5
257
330
24B
100
AcDbEntity
  8
0
100
AcDbLine
 10
-7.047055
 20
12.958013
 30
0.0
 11
-7.402278999999999
 21
12.405762
 31
0.0
  0
LINE
  5
258
330
24B
100
AcDbEntity
  8
0
100
AcDbLine
 10
-13.604113
 20
19.979574
 30
0.0
 11
-10.007212
 21
19.979574
 31
0.0
  0
LINE
  5
259
330
24B
100
AcDbEntity
  8
0
100
AcDbLine
 10
-10.007212
 20
19.663997
 30
0.0
 11
-6.376085
 21
19.663997
 31
0.0
  0
LINE
  5
25A
330
24B
100
AcDbEntity
  8
0
100
AcDbLine
 10
-6.376085
 20
19.663997
 30
0.0
 11
-5.586712
 21
19.782338
 31
0.0
  0
LINE
  5
25B
330
24B
100
AcDbEntity
  8
0
100
AcDbLine
 10
-3.336994999999999
 20
19.782338
 30
0.0
 11
-3.336994999999999
 21
12.050738
 31
0.0
  0
LINE
  5
25C
330
24B
100
AcDbEntity
  8
0
100
AcDbLine
 10
-3.336994999999999
 20
12.050738
 30
0.0
 11
-2.231868
 21
11.695714
 31
0.0
  0
ENDBLK
  5
25D
330
24B
100
AcDbEntity
  8
0
100
AcDbBlockEnd
  0
BLOCK
  5
25F
330
25E
100
AcDbEntity
  8
0
100
AcDbBlockBegin
  2
BOULDER
 70
     0
 10
0.0
 20
0.0
 30
0.0
  3
BOULDER
  1

  0
ARC
  5
260
330
25E
100
AcDbEntity
  8
0
100
AcDbCircle
 10
-18.467012
 20
-48.558422
 30
0.0
 40
48.836172
100
AcDbArc
 50
81.95401
 51
97.730432
  0
ARC
  5
261
330
25E
100
AcDbEntity
  8
0
100
AcDbCircle
 10
-16.359484
 20
9.358152
 30
0.0
 40
2.909992
100
AcDbArc
 50
331.168125
 51
54.255422
  0
ARC
  5
262
330
25E
100
AcDbEntity
  8
0
100
AcDbCircle
 10
-14.828038
 20
7.352755999999999
 30
0.0
 40
9.798358
100
AcDbArc
 50
165.979074
 51
226.859866
  0
ARC
  5
263
330
25E
100
AcDbEntity
  8
0
100
AcDbCircle
 10
-18.984252
 20
7.114803
 30
0.0
 40
5.970911
100
AcDbArc
 50
64.302322
 51
154.453115
  0
LINE
  5
264
330
25E
100
AcDbEntity
  8
0
100
AcDbLine
 10
-16.400941
 20
12.502339
 30
0.0
 11
-14.653734
 21
11.712804
 31
0.0
  0
ARC
  5
265
330
25E
100
AcDbEntity
  8
0
100
AcDbCircle
 10
-8.268539
 20
7.103538
 30
0.0
 40
5.38702
100
AcDbArc
 50
248.66684
 51
318.898819
  0
ARC
  5
266
330
25E
100
AcDbEntity
  8
0
100
AcDbCircle
 10
-7.258914999999999
 20
-4.691222
 30
0.0
 40
9.498897
100
AcDbArc
 50
41.522711
 51
69.85540400000002
  0
ARC
  5
267
330
25E
100
AcDbEntity
  8
0
100
AcDbCircle
 10
-6.828147
 20
44.311478
 30
0.0
 40
44.772867
100
AcDbArc
 50
263.8412850000001
 51
277.722416
  0
ARC
  5
268
330
25E
100
AcDbEntity
  8
0
100
AcDbCircle
 10
-2.694509
 20
0.599171
 30
0.0
 40
2.773401
100
AcDbArc
 50
346.349854
 51
21.281179
  0
ARC
  5
269
330
25E
100
AcDbEntity
  8
0
100
AcDbCircle
 10
-0.104992
 20
-3.407316
 30
0.0
 40
3.389586
100
AcDbArc
 50
72.986207
 51
102.036573
  0
LINE
  5
26A
330
25E
100
AcDbEntity
  8
0
100
AcDbLine
 10
-7.717235000000001
 20
7.659532
 30
0.0
 11
-4.504564
 21
4.854121
 31
0.0
  0
ARC
  5
26B
330
25E
100
AcDbEntity
  8
0
100
AcDbCircle
 10
-16.537546
 20
-1.696076
 30
0.0
 40
12.857891
100
AcDbArc
 50
46.68690900000001
 51
78.59439499999999
  0
ARC
  5
26C
330
25E
100
AcDbEntity
  8
0
100
AcDbCircle
 10
-4.872901000000001
 20
4.11188
 30
0.0
 40
0.8618379999999999
100
AcDbArc
 50
320.368673
 51
64.698138
  0
ENDBLK
  5
26D
330
25E
100
AcDbEntity
  8
0
100
AcDbBlockEnd
  0
BLOCK
  5
26F
330
26E
100
AcDbEntity
  8
0
100
AcDbBlockBegin
  2
BOULDERS
 70
     0
 10
0.0
 20
0.0
 30
0.0
  3
BOULDERS
  1

  0
ARC
  5
270
330
26E
100
AcDbEntity
  8
0
100
AcDbCircle
 10
5.434953
 20
-3.513344
 30
0.0
 40
2.985459
100
AcDbArc
 50
64.302322
 51
154.453115
  0
ARC
  5
271
330
26E
100
AcDbEntity
  8
0
100
AcDbCircle
 10
5.693565
 20
-31.349953
 30
0.0
 40
24.418086
100
AcDbArc
 50
81.95401
 51
97.730432
  0
ARC
  5
272
330
26E
100
AcDbEntity
  8
0
100
AcDbCircle
 10
7.51306
 20
-3.394363
 30
0.0
 40
4.899179
100
AcDbArc
 50
165.979074
 51
226.859866
  0
ARC
  5
273
330
26E
100
AcDbEntity
  8
0
100
AcDbCircle
 10
-8.298105
 20
7.140161
 30
0.0
 40
5.38702
100
AcDbArc
 50
248.66684
 51
318.898819
  0
ARC
  5
274
330
26E
100
AcDbEntity
  8
0
100
AcDbCircle
 10
-7.288489
 20
-4.654599
 30
0.0
 40
9.498897
100
AcDbArc
 50
41.522711
 51
69.85540400000002
  0
ARC
  5
275
330
26E
100
AcDbEntity
  8
0
100
AcDbCircle
 10
-14.857604
 20
7.389378999999999
 30
0.0
 40
9.798358
100
AcDbArc
 50
165.979074
 51
226.859866
  0
ARC
  5
276
330
26E
100
AcDbEntity
  8
0
100
AcDbCircle
 10
-18.496586
 20
-48.5218
 30
0.0
 40
48.836172
100
AcDbArc
 50
81.95401
 51
97.730432
  0
ARC
  5
277
330
26E
100
AcDbEntity
  8
0
100
AcDbCircle
 10
-6.85772
 20
44.348093
 30
0.0
 40
44.772867
100
AcDbArc
 50
263.8412850000001
 51
277.722416
  0
ARC
  5
278
330
26E
100
AcDbEntity
  8
0
100
AcDbCircle
 10
-0.134565
 20
-3.370694
 30
0.0
 40
3.389586
100
AcDbArc
 50
72.986207
 51
102.036573
  0
ARC
  5
279
330
26E
100
AcDbEntity
  8
0
100
AcDbCircle
 10
-2.724083
 20
0.635786
 30
0.0
 40
2.773401
100
AcDbArc
 50
346.349854
 51
21.281179
  0
ARC
  5
27A
330
26E
100
AcDbEntity
  8
0
100
AcDbCircle
 10
-16.56712
 20
-1.659461
 30
0.0
 40
12.857891
100
AcDbArc
 50
46.68690900000001
 51
78.59439499999999
  0
ARC
  5
27B
330
26E
100
AcDbEntity
  8
0
100
AcDbCircle
 10
-19.013818
 20
7.151418
 30
0.0
 40
5.970911
100
AcDbArc
 50
64.302322
 51
154.453115
  0
ARC
  5
27C
330
26E
100
AcDbEntity
  8
0
100
AcDbCircle
 10
-16.389057
 20
9.394767
 30
0.0
 40
2.909992
100
AcDbArc
 50
331.168125
 51
54.255422
  0
LINE
  5
27D
330
26E
100
AcDbEntity
  8
0
100
AcDbLine
 10
-16.430506
 20
12.538954
 30
0.0
 11
-14.683307
 21
11.749427
 31
0.0
  0
LINE
  5
27E
330
26E
100
AcDbEntity
  8
0
100
AcDbLine
 10
-7.7468
 20
7.696147
 30
0.0
 11
-4.534137
 21
4.890744000000001
 31
0.0
  0
ARC
  5
27F
330
26E
100
AcDbEntity
  8
0
100
AcDbCircle
 10
-4.902474
 20
4.148503
 30
0.0
 40
0.8618379999999999
100
AcDbArc
 50
320.368673
 51
64.698138
  0
LINE
  5
280
330
26E
100
AcDbEntity
  8
0
100
AcDbLine
 10
11.068458
 20
-3.240979
 30
0.0
 11
12.674793
 21
-4.643681
 31
0.0
  0
ARC
  5
281
330
26E
100
AcDbEntity
  8
0
100
AcDbCircle
 10
11.513002
 20
15.08499
 30
0.0
 40
22.386433
100
AcDbArc
 50
263.8412850000001
 51
277.722416
  0
ARC
  5
282
330
26E
100
AcDbEntity
  8
0
100
AcDbCircle
 10
10.792805
 20
-3.518973
 30
0.0
 40
2.693514
100
AcDbArc
 50
248.66684
 51
318.898819
  0
LINE
  5
283
330
26E
100
AcDbEntity
  8
0
100
AcDbLine
 10
6.726605
 20
-0.819576
 30
0.0
 11
7.600208
 21
-1.214339
 31
0.0
  0
ARC
  5
284
330
26E
100
AcDbEntity
  8
0
100
AcDbCircle
 10
6.747333
 20
-2.391669
 30
0.0
 40
1.455
100
AcDbArc
 50
331.168125
 51
54.255422
  0
ARC
  5
285
330
26E
100
AcDbEntity
  8
0
100
AcDbCircle
 10
6.658297999999999
 20
-7.918783
 30
0.0
 40
6.428946
100
AcDbArc
 50
46.68690900000001
 51
78.59439499999999
  0
ARC
  5
286
330
26E
100
AcDbEntity
  8
0
100
AcDbCircle
 10
13.57982
 20
-6.771160000000001
 30
0.0
 40
1.386701
100
AcDbArc
 50
346.349854
 51
21.281179
  0
ARC
  5
287
330
26E
100
AcDbEntity
  8
0
100
AcDbCircle
 10
14.874575
 20
-8.7744
 30
0.0
 40
1.694793
100
AcDbArc
 50
72.986207
 51
102.036573
  0
ARC
  5
288
330
26E
100
AcDbEntity
  8
0
100
AcDbCircle
 10
12.490624
 20
-5.014805
 30
0.0
 40
0.4309229999999999
100
AcDbArc
 50
320.368673
 51
64.698138
  0
ARC
  5
289
330
26E
100
AcDbEntity
  8
0
100
AcDbCircle
 10
11.297617
 20
-9.416356
 30
0.0
 40
4.749452
100
AcDbArc
 50
41.522711
 51
69.85540400000002
  0
ENDBLK
  5
28A
330
26E
100
AcDbEntity
  8
0
100
AcDbBlockEnd
  0
BLOCK
  5
28C
330
28B
100
AcDbEntity
  8
0
100
AcDbBlockBegin
  2
BOULDSC
 70
     0
 10
0.0
 20
0.0
 30
0.0
  3
BOULDSC
  1

  0
LINE
  5
28D
330
28B
100
AcDbEntity
  8
0
100
AcDbLine
 10
-8.223222
 20
6.276919
 30
0.0
 11
-7.349618
 21
5.882155
 31
0.0
  0
ARC
  5
28E
330
28B
100
AcDbEntity
  8
0
100
AcDbCircle
 10
-9.256261
 20
-24.253458
 30
0.0
 40
24.418086
100
AcDbArc
 50
81.95401
 51
97.730432
  0
ARC
  5
28F
330
28B
100
AcDbEntity
  8
0
100
AcDbCircle
 10
-7.436767
 20
3.702131
 30
0.0
 40
4.899179
100
AcDbArc
 50
165.979074
 51
226.859866
  0
ARC
  5
290
330
28B
100
AcDbEntity
  8
0
100
AcDbCircle
 10
-9.514874
 20
3.583151
 30
0.0
 40
2.985459
100
AcDbArc
 50
64.302322
 51
154.453115
  0
ARC
  5
291
330
28B
100
AcDbEntity
  8
0
100
AcDbCircle
 10
-3.652209
 20
-2.319862
 30
0.0
 40
4.749452
100
AcDbArc
 50
41.522711
 51
69.85540400000002
  0
ARC
  5
292
330
28B
100
AcDbEntity
  8
0
100
AcDbCircle
 10
-4.157021
 20
3.577522
 30
0.0
 40
2.693514
100
AcDbArc
 50
248.66684
 51
318.898819
  0
ARC
  5
293
330
28B
100
AcDbEntity
  8
0
100
AcDbCircle
 10
-0.075251
 20
-1.677905
 30
0.0
 40
1.694793
100
AcDbArc
 50
72.986207
 51
102.036573
  0
ARC
  5
294
330
28B
100
AcDbEntity
  8
0
100
AcDbCircle
 10
-3.436825
 20
22.181484
 30
0.0
 40
22.386433
100
AcDbArc
 50
263.8412850000001
 51
277.722416
  0
ARC
  5
295
330
28B
100
AcDbEntity
  8
0
100
AcDbCircle
 10
-1.370006
 20
0.325335
 30
0.0
 40
1.386701
100
AcDbArc
 50
346.349854
 51
21.281179
  0
ARC
  5
296
330
28B
100
AcDbEntity
  8
0
100
AcDbCircle
 10
-8.291528
 20
-0.8222889999999999
 30
0.0
 40
6.428946
100
AcDbArc
 50
46.68690900000001
 51
78.59439499999999
  0
ARC
  5
297
330
28B
100
AcDbEntity
  8
0
100
AcDbCircle
 10
-8.202492999999999
 20
4.704825
 30
0.0
 40
1.455
100
AcDbArc
 50
331.168125
 51
54.255422
  0
ARC
  5
298
330
28B
100
AcDbEntity
  8
0
100
AcDbCircle
 10
-2.459202
 20
2.081689
 30
0.0
 40
0.4309229999999999
100
AcDbArc
 50
320.368673
 51
64.698138
  0
LINE
  5
299
330
28B
100
AcDbEntity
  8
0
100
AcDbLine
 10
-3.881369
 20
3.855515
 30
0.0
 11
-2.275033
 21
2.452814
 31
0.0
  0
ENDBLK
  5
29A
330
28B
100
AcDbEntity
  8
0
100
AcDbBlockEnd
  0
BLOCK
  5
29C
330
29B
100
AcDbEntity
  8
0
100
AcDbBlockBegin
  2
COPPICE
 70
     0
 10
0.0
 20
0.0
 30
0.0
  3
COPPICE
  1

  0
ARC
  5
29D
330
29B
100
AcDbEntity
  8
0
100
AcDbCircle
 10
27.69952
 20
-1.073266
 30
0.0
 40
25.304025
100
AcDbArc
 50
161.091176
 51
178.291487
  0
ARC
  5
29E
330
29B
100
AcDbEntity
  8
0
100
AcDbCircle
 10
-31.445504
 20
0.174919
 30
0.0
 40
27.234584
100
AcDbArc
 50
359.119432
 51
20.098122
  0
LINE
  5
29F
330
29B
100
AcDbEntity
  8
0
100
AcDbLine
 10
-0.000845
 20
-0.018004
 30
0.0
 11
-0.000845
 21
23.371924
 31
0.0
  0
ARC
  5
2A0
330
29B
100
AcDbEntity
  8
0
100
AcDbCircle
 10
11.589242
 20
-0.360524
 30
0.0
 40
6.851137
100
AcDbArc
 50
147.7911
 51
179.022342
  0
ARC
  5
2A1
330
29B
100
AcDbEntity
  8
0
100
AcDbCircle
 10
-2.561025
 20
20.767337
 30
0.0
 40
7.079688000000001
100
AcDbArc
 50
291.854479
 51
2.210848
  0
ARC
  5
2A2
330
29B
100
AcDbEntity
  8
0
100
AcDbCircle
 10
8.166738
 20
18.922209
 30
0.0
 40
12.550284
100
AcDbArc
 50
176.851677
 51
228.944989
  0
ENDBLK
  5
2A3
330
29B
100
AcDbEntity
  8
0
100
AcDbBlockEnd
  0
BLOCK
  5
2A5
330
2A4
100
AcDbEntity
  8
0
100
AcDbBlockBegin
  2
SCRUB
 70
     0
 10
0.0
 20
0.0
 30
0.0
  3
SCRUB
  1

  0
LINE
  5
2A6
330
2A4
100
AcDbEntity
  8
0
100
AcDbLine
 10
2.706505
 20
-6.717583
 30
0.0
 11
3.811324
 21
-5.864331
 31
0.0
  0
ARC
  5
2A7
330
2A4
100
AcDbEntity
  8
0
100
AcDbCircle
 10
-3.039705
 20
0.058316
 30
0.0
 40
8.884360000000001
100
AcDbArc
 50
310.2991689999999
 51
344.43356
  0
ARC
  5
2A8
330
2A4
100
AcDbEntity
  8
0
100
AcDbCircle
 10
2.674781
 20
-6.483349
 30
0.0
 40
4.225052
100
AcDbArc
 50
321.269797
 51
0.226721
  0
ARC
  5
2A9
330
2A4
100
AcDbEntity
  8
0
100
AcDbCircle
 10
11.038228
 20
-4.226102
 30
0.0
 40
10.987338
100
AcDbArc
 50
187.51753
 51
219.464845
  0
LINE
  5
2AA
330
2A4
100
AcDbEntity
  8
0
100
AcDbLine
 10
3.936873
 20
-11.435566
 30
0.0
 11
8.079941999999999
 21
-11.435566
 31
0.0
  0
ARC
  5
2AB
330
2A4
100
AcDbEntity
  8
0
100
AcDbCircle
 10
1.79029
 20
-11.839993
 30
0.0
 40
0.9916450000000001
100
AcDbArc
 50
22.490634
 51
39.464845
  0
ARC
  5
2AC
330
2A4
100
AcDbEntity
  8
0
100
AcDbCircle
 10
-20.012884
 20
11.712544
 30
0.0
 40
33.308036
100
AcDbArc
 50
315.975134
 51
321.269797
  0
ARC
  5
2AD
330
2A4
100
AcDbEntity
  8
0
100
AcDbCircle
 10
-3.347666
 20
13.226441
 30
0.0
 40
12.756883
100
AcDbArc
 50
138.700591
 51
187.51753
  0
ARC
  5
2AE
330
2A4
100
AcDbEntity
  8
0
100
AcDbCircle
 10
-22.364988
 20
23.001236
 30
0.0
 40
17.768713
100
AcDbArc
 50
310.2991689999999
 51
344.43356
  0
LINE
  5
2AF
330
2A4
100
AcDbEntity
  8
0
100
AcDbLine
 10
-8.411833
 20
0.013472
 30
0.0
 11
-0.125694
 21
0.013472
 31
0.0
  0
ARC
  5
2B0
330
2A4
100
AcDbEntity
  8
0
100
AcDbCircle
 10
-56.311339
 20
46.309683
 30
0.0
 40
66.616073
100
AcDbArc
 50
315.975134
 51
321.269797
  0
ARC
  5
2B1
330
2A4
100
AcDbEntity
  8
0
100
AcDbCircle
 10
-5.471981
 20
6.489664
 30
0.0
 40
5.652978
100
AcDbArc
 50
75.355339
 51
124.365576
  0
ARC
  5
2B2
330
2A4
100
AcDbEntity
  8
0
100
AcDbCircle
 10
5.790886
 20
14.432399
 30
0.0
 40
21.974668
100
AcDbArc
 50
187.51753
 51
219.464845
  0
ARC
  5
2B3
330
2A4
100
AcDbEntity
  8
0
100
AcDbCircle
 10
-12.704999
 20
-0.795383
 30
0.0
 40
1.983281
100
AcDbArc
 50
22.490634
 51
39.464845
  0
LINE
  5
2B4
330
2A4
100
AcDbEntity
  8
0
100
AcDbLine
 10
-10.872561
 20
9.449428999999999
 30
0.0
 11
-8.662930000000001
 21
11.155934
 31
0.0
  0
ARC
  5
2B5
330
2A4
100
AcDbEntity
  8
0
100
AcDbCircle
 10
-10.936016
 20
9.917905000000001
 30
0.0
 40
8.450096
100
AcDbArc
 50
321.269797
 51
0.226721
  0
ARC
  5
2B6
330
2A4
100
AcDbEntity
  8
0
100
AcDbCircle
 10
3.269868
 20
-2.018674
 30
0.0
 40
2.12021
100
AcDbArc
 50
87.97714999999998
 51
138.700591
  0
ARC
  5
2B7
330
2A4
100
AcDbEntity
  8
0
100
AcDbCircle
 10
6.468955999999999
 20
-4.829081
 30
0.0
 40
6.378441
100
AcDbArc
 50
138.700591
 51
187.51753
  0
ARC
  5
2B8
330
2A4
100
AcDbEntity
  8
0
100
AcDbCircle
 10
3.871977
 20
-1.867099
 30
0.0
 40
1.7095
100
AcDbArc
 50
344.43356
 51
44.469829
  0
ARC
  5
2B9
330
2A4
100
AcDbEntity
  8
0
100
AcDbCircle
 10
5.858007
 20
-6.470752
 30
0.0
 40
1.041795
100
AcDbArc
 50
0.226721
 51
75.355339
  0
ARC
  5
2BA
330
2A4
100
AcDbEntity
  8
0
100
AcDbCircle
 10
5.406795
 20
-8.19747
 30
0.0
 40
2.826493
100
AcDbArc
 50
75.355339
 51
124.365576
  0
ARC
  5
2BB
330
2A4
100
AcDbEntity
  8
0
100
AcDbCircle
 10
3.253782
 20
-2.473959
 30
0.0
 40
2.575781
100
AcDbArc
 50
44.469829
 51
87.97714999999998
  0
ARC
  5
2BC
330
2A4
100
AcDbEntity
  8
0
100
AcDbCircle
 10
-4.569556
 20
9.943099
 30
0.0
 40
2.083589
100
AcDbArc
 50
0.226721
 51
75.355339
  0
ARC
  5
2BD
330
2A4
100
AcDbEntity
  8
0
100
AcDbCircle
 10
-8.541617
 20
19.150405
 30
0.0
 40
3.418993
100
AcDbArc
 50
344.43356
 51
44.469829
  0
ARC
  5
2BE
330
2A4
100
AcDbEntity
  8
0
100
AcDbCircle
 10
-9.745842999999999
 20
18.847256
 30
0.0
 40
4.240412999999999
100
AcDbArc
 50
87.97714999999998
 51
138.700591
  0
ARC
  5
2BF
330
2A4
100
AcDbEntity
  8
0
100
AcDbCircle
 10
-9.778006
 20
17.936685
 30
0.0
 40
5.151554
100
AcDbArc
 50
44.469829
 51
87.97714999999998
  0
ENDBLK
  5
2C0
330
2A4
100
AcDbEntity
  8
0
100
AcDbBlockEnd
  0
BLOCK
  5
2C2
330
2C1
100
AcDbEntity
  8
0
100
AcDbBlockBegin
  2
WATER
 70
     0
 10
0.0
 20
0.0
 30
0.0
  3
WATER
  1

  0
LWPOLYLINE
  5
2C3
330
2C1
100
AcDbEntity
  8
0
100
AcDbPolyline
 90
        4
 70
     0
 43
0.0
 10
-3.995814
 20
0.059532
 42
0.216664
 10
-3.20045
 20
0.414325
 42
0.092913
 10
-2.19587
 20
2.093325
 42
0.016816
 10
-1.965878
 20
2.786741
 42
0.03716
  0
LWPOLYLINE
  5
2C9
330
2C1
100
AcDbEntity
  8
0
100
AcDbPolyline
 90
        4
 70
     0
 43
0.0
 10
-6.004367
 20
2.797567
 42
-0.016388
 10
-6.219412
 20
2.118835
 42
-0.092913
 10
-7.199884
 20
0.425659
 42
-0.216664
 10
-7.990104
 20
0.059532
 42
-0.216664
  0
LWPOLYLINE
  5
2CF
330
2C1
100
AcDbEntity
  8
0
100
AcDbPolyline
 90
        4
 70
     0
 43
0.0
 10
-5.981552
 20
2.797567
 42
0.016388
 10
-5.766514
 20
2.118835
 42
0.092913
 10
-4.786034
 20
0.425659
 42
0.216664
 10
-3.995814
 20
0.059532
 42
0.216664
  0
LWPOLYLINE
  5
2D5
330
2C1
100
AcDbEntity
  8
0
100
AcDbPolyline
 90
        4
 70
     0
 43
0.0
 10
6.128285
 20
2.797567
 42
-0.016388
 10
5.913247
 20
2.118835
 42
-0.092913
 10
4.932767
 20
0.425659
 42
-0.216664
 10
4.142547
 20
0.059532
 42
-0.216664
  0
LWPOLYLINE
  5
2DB
330
2C1
100
AcDbEntity
  8
0
100
AcDbPolyline
 90
        4
 70
     0
 43
0.0
 10
0.048403
 20
0.059532
 42
0.216664
 10
0.843775
 20
0.414325
 42
0.092913
 10
1.848347
 20
2.093325
 42
0.016816
 10
2.078339
 20
2.786741
 42
0.03716
  0
LWPOLYLINE
  5
2E1
330
2C1
100
AcDbEntity
  8
0
100
AcDbPolyline
 90
        4
 70
     0
 43
0.0
 10
0.09833
 20
0.059532
 42
-0.216664
 10
-0.697042
 20
0.414325
 42
-0.092913
 10
-1.701614
 20
2.093325
 42
-0.016816
 10
-1.931606
 20
2.786741
 42
-0.03716
  0
LWPOLYLINE
  5
2E7
330
2C1
100
AcDbEntity
  8
0
100
AcDbPolyline
 90
        4
 70
     0
 43
0.0
 10
4.142547
 20
0.059532
 42
-0.216664
 10
3.347183
 20
0.414325
 42
-0.092913
 10
2.342603
 20
2.093325
 42
-0.016816
 10
2.112611
 20
2.786741
 42
-0.03716
  0
LWPOLYLINE
  5
2ED
330
2C1
100
AcDbEntity
  8
0
100
AcDbPolyline
 90
        4
 70
     0
 43
0.0
 10
6.1511
 20
2.797567
 42
0.016388
 10
6.366144999999999
 20
2.118835
 42
0.092913
 10
7.346625
 20
0.425659
 42
0.216664
 10
8.136837
 20
0.059532
 42
0.216664
  0
LWPOLYLINE
  5
2F3
330
2C1
100
AcDbEntity
  8
0
100
AcDbPolyline
 90
        4
 70
     0
 43
0.0
 10
-1.458964
 20
7.425406
 42
-0.216664
 10
-2.254336
 20
7.780206
 42
-0.092913
 10
-3.258909
 20
9.459199
 42
-0.016816
 10
-3.4889
 20
10.152622
 42
-0.03716
  0
LWPOLYLINE
  5
2F9
330
2C1
100
AcDbEntity
  8
0
100
AcDbPolyline
 90
        4
 70
     0
 43
0.0
 10
-7.538846
 20
10.163441
 42
0.016388
 10
-7.323808000000001
 20
9.484717
 42
0.092913
 10
-6.343328
 20
7.791533
 42
0.216664
 10
-5.553108
 20
7.425406
 42
0.216664
  0
LWPOLYLINE
  5
2FF
330
2C1
100
AcDbEntity
  8
0
100
AcDbPolyline
 90
        4
 70
     0
 43
0.0
 10
-7.561669
 20
10.163441
 42
-0.016388
 10
-7.776707000000001
 20
9.484717
 42
-0.092913
 10
-8.757186
 20
7.791533
 42
-0.216664
 10
-9.547399
 20
7.425406
 42
-0.216664
  0
LWPOLYLINE
  5
305
330
2C1
100
AcDbEntity
  8
0
100
AcDbPolyline
 90
        4
 70
     0
 43
0.0
 10
-5.553108
 20
7.425406
 42
0.216664
 10
-4.757744000000001
 20
7.780206
 42
0.092913
 10
-3.753172
 20
9.459199
 42
0.016816
 10
-3.52318
 20
10.152622
 42
0.03716
  0
LWPOLYLINE
  5
30B
330
2C1
100
AcDbEntity
  8
0
100
AcDbPolyline
 90
        4
 70
     0
 43
0.0
 10
4.593805000000001
 20
10.163441
 42
0.016388
 10
4.808843
 20
9.484717
 42
0.092913
 10
5.789323
 20
7.791533
 42
0.216664
 10
6.579542999999999
 20
7.425406
 42
0.216664
  0
LWPOLYLINE
  5
311
330
2C1
100
AcDbEntity
  8
0
100
AcDbPolyline
 90
        4
 70
     0
 43
0.0
 10
2.585253
 20
7.425406
 42
-0.216664
 10
1.789881
 20
7.780206
 42
-0.092913
 10
0.785308
 20
9.459199
 42
-0.016816
 10
0.5553170000000001
 20
10.152622
 42
-0.03716
  0
LWPOLYLINE
  5
317
330
2C1
100
AcDbEntity
  8
0
100
AcDbPolyline
 90
        4
 70
     0
 43
0.0
 10
-1.508891
 20
7.425406
 42
0.216664
 10
-0.713527
 20
7.780206
 42
0.092913
 10
0.291045
 20
9.459199
 42
0.016816
 10
0.521037
 20
10.152622
 42
0.03716
  0
LWPOLYLINE
  5
31D
330
2C1
100
AcDbEntity
  8
0
100
AcDbPolyline
 90
        4
 70
     0
 43
0.0
 10
4.57099
 20
10.163441
 42
-0.016388
 10
4.355944999999999
 20
9.484717
 42
-0.092913
 10
3.375473
 20
7.791533
 42
-0.216664
 10
2.585253
 20
7.425406
 42
-0.216664
  0
ENDBLK
  5
323
330
2C1
100
AcDbEntity
  8
0
100
AcDbBlockEnd
  0
BLOCK
  5
325
330
324
100
AcDbEntity
  8
0
100
AcDbBlockBegin
  2
ROUGHGR
 70
     0
 10
0.0
 20
0.0
 30
0.0
  3
ROUGHGR
  1

  0
LINE
  5
326
330
324
100
AcDbEntity
  8
0
100
AcDbLine
 10
13.618495
 20
1.145331
 30
0.0
 11
14.18801
 21
4.558263
 31
0.0
  0
LINE
  5
327
330
324
100
AcDbEntity
  8
0
100
AcDbLine
 10
-10.339346
 20
1.398853
 30
0.0
 11
-10.872202
 21
5.673639
 31
0.0
  0
LINE
  5
328
330
324
100
AcDbEntity
  8
0
100
AcDbLine
 10
-13.62345
 20
1.145331
 30
0.0
 11
-14.192965
 21
4.558263
 31
0.0
  0
LINE
  5
329
330
324
100
AcDbEntity
  8
0
100
AcDbLine
 10
-16.838893
 20
0.064505
 30
0.0
 11
-17.320667
 21
2.362185
 31
0.0
  0
LINE
  5
32A
330
324
100
AcDbEntity
  8
0
100
AcDbLine
 10
-3.202401
 20
1.688527
 30
0.0
 11
-3.41978
 21
6.944178
 31
0.0
  0
LINE
  5
32B
330
324
100
AcDbEntity
  8
0
100
AcDbLine
 10
-6.798855000000001
 20
1.579911
 30
0.0
 11
-7.203906
 21
6.468141
 31
0.0
  0
LINE
  5
32C
330
324
100
AcDbEntity
  8
0
100
AcDbLine
 10
3.197446
 20
1.688527
 30
0.0
 11
3.414825
 21
6.944178
 31
0.0
  0
LINE
  5
32D
330
324
100
AcDbEntity
  8
0
100
AcDbLine
 10
-0.002474
 20
2.246285
 30
0.0
 11
-0.002474
 21
7.624311
 31
0.0
  0
LINE
  5
32E
330
324
100
AcDbEntity
  8
0
100
AcDbLine
 10
6.793908
 20
1.579911
 30
0.0
 11
7.198958999999999
 21
6.468141
 31
0.0
  0
LINE
  5
32F
330
324
100
AcDbEntity
  8
0
100
AcDbLine
 10
10.334391
 20
1.398853
 30
0.0
 11
10.867247
 21
5.673639
 31
0.0
  0
LINE
  5
330
330
324
100
AcDbEntity
  8
0
100
AcDbLine
 10
16.833938
 20
0.064505
 30
0.0
 11
17.315712
 21
2.362185
 31
0.0
  0
ENDBLK
  5
331
330
324
100
AcDbEntity
  8
0
100
AcDbBlockEnd
  0
BLOCK
  5
333
330
332
100
AcDbEntity
  8
0
100
AcDbBlockBegin
  2
MARSH
 70
     0
 10
0.0
 20
0.0
 30
0.0
  3
MARSH
  1

  0
LINE
  5
334
330
332
100
AcDbEntity
  8
0
100
AcDbLine
 10
-32.730686
 20
-0.005958
 30
0.0
 11
-3.422715
 21
-0.005958
 31
0.0
  0
LINE
  5
335
330
332
100
AcDbEntity
  8
0
100
AcDbLine
 10
-10.155187
 20
-3.988344
 30
0.0
 11
10.140481
 21
-3.988344
 31
0.0
  0
LINE
  5
336
330
332
100
AcDbEntity
  8
0
100
AcDbLine
 10
-6.721880000000001
 20
-0.005958
 30
0.0
 11
-8.5513
 21
5.188362000000001
 31
0.0
  0
LINE
  5
337
330
332
100
AcDbEntity
  8
0
100
AcDbLine
 10
-10.155187
 20
-0.005958
 30
0.0
 11
-11.090544
 21
2.06458
 31
0.0
  0
LINE
  5
338
330
332
100
AcDbEntity
  8
0
100
AcDbLine
 10
-3.422715
 20
-0.005958
 30
0.0
 11
-4.114421
 21
7.756482000000001
 31
0.0
  0
LINE
  5
339
330
332
100
AcDbEntity
  8
0
100
AcDbLine
 10
-0.007357
 20
0.093927
 30
0.0
 11
-0.007357
 21
9.05494
 31
0.0
  0
LINE
  5
33A
330
332
100
AcDbEntity
  8
0
100
AcDbLine
 10
32.781638
 20
-0.005958
 30
0.0
 11
3.473659
 21
-0.005958
 31
0.0
  0
LINE
  5
33B
330
332
100
AcDbEntity
  8
0
100
AcDbLine
 10
10.206139
 20
-0.005958
 30
0.0
 11
11.141489
 21
2.06458
 31
0.0
  0
LINE
  5
33C
330
332
100
AcDbEntity
  8
0
100
AcDbLine
 10
6.772824000000001
 20
-0.005958
 30
0.0
 11
8.602252
 21
5.188362000000001
 31
0.0
  0
LINE
  5
33D
330
332
100
AcDbEntity
  8
0
100
AcDbLine
 10
3.473659
 20
-0.005958
 30
0.0
 11
4.165366000000001
 21
7.756482000000001
 31
0.0
  0
ENDBLK
  5
33E
330
332
100
AcDbEntity
  8
0
100
AcDbBlockEnd
  0
BLOCK
  5
340
330
33F
100
AcDbEntity
  8
0
100
AcDbBlockBegin
  2
ORCHARD
 70
     0
 10
0.0
 20
0.0
 30
0.0
  3
ORCHARD
  1

  0
ARC
  5
341
330
33F
100
AcDbEntity
  8
0
100
AcDbCircle
 10
-29.053504
 20
9.647199
 30
0.0
 40
5.464844
100
AcDbArc
 50
92.884046
 51
327.033022
  0
ARC
  5
342
330
33F
100
AcDbEntity
  8
0
100
AcDbCircle
 10
-24.456628
 20
17.580932
 30
0.0
 40
5.464844
100
AcDbArc
 50
333.2316060000001
 51
206.939063
  0
ARC
  5
343
330
33F
100
AcDbEntity
  8
0
100
AcDbCircle
 10
-0.051863
 20
17.580932
 30
0.0
 40
5.464844
100
AcDbArc
 50
333.2316060000001
 51
206.939063
  0
ARC
  5
344
330
33F
100
AcDbEntity
  8
0
100
AcDbCircle
 10
4.510141
 20
9.664016
 30
0.0
 40
5.464844
100
AcDbArc
 50
213.177354
 51
86.672487
  0
ARC
  5
345
330
33F
100
AcDbEntity
  8
0
100
AcDbCircle
 10
-4.648739
 20
9.647199
 30
0.0
 40
5.464844
100
AcDbArc
 50
92.884046
 51
327.033022
  0
ARC
  5
346
330
33F
100
AcDbEntity
  8
0
100
AcDbCircle
 10
-19.894624
 20
9.664016
 30
0.0
 40
5.464844
100
AcDbArc
 50
213.177354
 51
86.672487
  0
LINE
  5
347
330
33F
100
AcDbEntity
  8
0
100
AcDbLine
 10
-24.456281
 20
6.654732000000001
 30
0.0
 11
-24.456281
 21
-0.033318
 31
0.0
  0
LINE
  5
348
330
33F
100
AcDbEntity
  8
0
100
AcDbLine
 10
-0.051516
 20
6.654732000000001
 30
0.0
 11
-0.051516
 21
-0.033318
 31
0.0
  0
ARC
  5
349
330
33F
100
AcDbEntity
  8
0
100
AcDbCircle
 10
29.110147
 20
9.664016
 30
0.0
 40
5.464844
100
AcDbArc
 50
213.177354
 51
86.672487
  0
ARC
  5
34A
330
33F
100
AcDbEntity
  8
0
100
AcDbCircle
 10
19.951259
 20
9.647199
 30
0.0
 40
5.464844
100
AcDbArc
 50
92.884046
 51
327.033022
  0
LINE
  5
34B
330
33F
100
AcDbEntity
  8
0
100
AcDbLine
 10
24.54849
 20
6.654732000000001
 30
0.0
 11
24.54849
 21
-0.033318
 31
0.0
  0
ARC
  5
34C
330
33F
100
AcDbEntity
  8
0
100
AcDbCircle
 10
24.548144
 20
17.580932
 30
0.0
 40
5.464844
100
AcDbArc
 50
333.2316060000001
 51
206.939063
  0
ENDBLK
  5
34D
330
33F
100
AcDbEntity
  8
0
100
AcDbBlockEnd
  0
BLOCK
  5
34F
330
34E
100
AcDbEntity
  8
0
100
AcDbBlockBegin
  2
HEATH
 70
     0
 10
0.0
 20
0.0
 30
0.0
  3
HEATH
  1

  0
LINE
  5
350
330
34E
100
AcDbEntity
  8
0
100
AcDbLine
 10
-16.309044
 20
25.719756
 30
0.0
 11
-17.184196
 21
29.893511
 31
0.0
  0
LINE
  5
351
330
34E
100
AcDbEntity
  8
0
100
AcDbLine
 10
-12.497945
 20
26.312025
 30
0.0
 11
-13.532478
 21
32.511657
 31
0.0
  0
LINE
  5
352
330
34E
100
AcDbEntity
  8
0
100
AcDbLine
 10
-8.674009
 20
26.772562
 30
0.0
 11
-9.641938
 21
34.53775
 31
0.0
  0
LINE
  5
353
330
34E
100
AcDbEntity
  8
0
100
AcDbLine
 10
-1.000613
 20
27.298757
 30
0.0
 11
-1.395476
 21
36.845702
 31
0.0
  0
LINE
  5
354
330
34E
100
AcDbEntity
  8
0
100
AcDbLine
 10
-4.840495
 20
27.101452
 30
0.0
 11
-5.576276
 21
35.980984
 31
0.0
  0
LINE
  5
355
330
34E
100
AcDbEntity
  8
0
100
AcDbLine
 10
6.685511999999999
 20
27.298757
 30
0.0
 11
7.080375999999999
 21
36.845702
 31
0.0
  0
LINE
  5
356
330
34E
100
AcDbEntity
  8
0
100
AcDbLine
 10
2.84245
 20
27.364523
 30
0.0
 11
2.84245
 21
37.133767
 31
0.0
  0
LINE
  5
357
330
34E
100
AcDbEntity
  8
0
100
AcDbLine
 10
14.358916
 20
26.772562
 30
0.0
 11
15.326845
 21
34.53775
 31
0.0
  0
LINE
  5
358
330
34E
100
AcDbEntity
  8
0
100
AcDbLine
 10
10.525402
 20
27.101452
 30
0.0
 11
11.261175
 21
35.980984
 31
0.0
  0
LINE
  5
359
330
34E
100
AcDbEntity
  8
0
100
AcDbLine
 10
21.993951
 20
25.719756
 30
0.0
 11
22.869095
 21
29.893511
 31
0.0
  0
LINE
  5
35A
330
34E
100
AcDbEntity
  8
0
100
AcDbLine
 10
18.182852
 20
26.312025
 30
0.0
 11
19.217385
 21
32.511657
 31
0.0
  0
LINE
  5
35B
330
34E
100
AcDbEntity
  8
0
100
AcDbLine
 10
-34.38978400000001
 20
0.660453
 30
0.0
 11
-35.42431699999999
 21
6.860085000000001
 31
0.0
  0
LINE
  5
35C
330
34E
100
AcDbEntity
  8
0
100
AcDbLine
 10
-38.200884
 20
0.068184
 30
0.0
 11
-39.076035
 21
4.241937999999999
 31
0.0
  0
LINE
  5
35D
330
34E
100
AcDbEntity
  8
0
100
AcDbLine
 10
-26.732334
 20
1.44988
 30
0.0
 11
-27.468115
 21
10.329412
 31
0.0
  0
LINE
  5
35E
330
34E
100
AcDbEntity
  8
0
100
AcDbLine
 10
-19.04939
 20
1.71295
 30
0.0
 11
-19.04939
 21
11.482195
 31
0.0
  0
LINE
  5
35F
330
34E
100
AcDbEntity
  8
0
100
AcDbLine
 10
-22.892452
 20
1.647185
 30
0.0
 11
-23.287316
 21
11.19413
 31
0.0
  0
LINE
  5
360
330
34E
100
AcDbEntity
  8
0
100
AcDbLine
 10
-30.565848
 20
1.12099
 30
0.0
 11
-31.533777
 21
8.886178
 31
0.0
  0
LINE
  5
361
330
34E
100
AcDbEntity
  8
0
100
AcDbLine
 10
-3.708988
 20
0.660453
 30
0.0
 11
-2.674454
 21
6.860085000000001
 31
0.0
  0
LINE
  5
362
330
34E
100
AcDbEntity
  8
0
100
AcDbLine
 10
-11.366437
 20
1.44988
 30
0.0
 11
-10.630664
 21
10.329412
 31
0.0
  0
LINE
  5
363
330
34E
100
AcDbEntity
  8
0
100
AcDbLine
 10
-15.206327
 20
1.647185
 30
0.0
 11
-14.811464
 21
11.19413
 31
0.0
  0
LINE
  5
364
330
34E
100
AcDbEntity
  8
0
100
AcDbLine
 10
-7.532922999999999
 20
1.12099
 30
0.0
 11
-6.564995
 21
8.886178
 31
0.0
  0
LINE
  5
365
330
34E
100
AcDbEntity
  8
0
100
AcDbLine
 10
0.102112
 20
0.068184
 30
0.0
 11
0.9772549999999999
 21
4.241937999999999
 31
0.0
  0
ENDBLK
  5
366
330
34E
100
AcDbEntity
  8
0
100
AcDbBlockEnd
  0
BLOCK
  5
368
330
367
100
AcDbEntity
  8
0
100
AcDbBlockBegin
  2
BDYPOST
 70
     0
 10
0.0
 20
0.0
 30
0.0
  3
BDYPOST
  1

  0
CIRCLE
  5
369
330
367
100
AcDbEntity
  8
0
100
AcDbCircle
 10
0.0
 20
0.0
 30
0.0
 40
2.23
  0
ENDBLK
  5
36A
330
367
100
AcDbEntity
  8
0
100
AcDbBlockEnd
  0
BLOCK
  5
36C
330
36B
100
AcDbEntity
  8
0
100
AcDbBlockBegin
  2
BDYMEREI
 70
     0
 10
0.0
 20
0.0
 30
0.0
  3
BDYMEREI
  1

  0
CIRCLE
  5
36D
330
36B
100
AcDbEntity
  8
0
100
AcDbCircle
 10
17.740743
 20
0.011348
 30
0.0
 40
3.84096
  0
LINE
  5
36E
330
36B
100
AcDbEntity
  8
0
100
AcDbLine
 10
0.013811
 20
-0.004999
 30
0.0
 11
13.86859
 21
-0.004999
 31
0.0
  0
ENDBLK
  5
36F
330
36B
100
AcDbEntity
  8
0
100
AcDbBlockEnd
  0
BLOCK
  5
371
330
370
100
AcDbEntity
  8
0
100
AcDbBlockBegin
  2
TRIGP
 70
     0
 10
0.0
 20
0.0
 30
0.0
  3
TRIGP
  1

  0
LWPOLYLINE
  5
372
330
370
100
AcDbEntity
  8
0
100
AcDbPolyline
 90
        7
 70
     0
 43
0.0
 10
-6.524303
 20
-4.501012
 10
-0.7493029999999999
 20
7.048988
 10
0.020697
 20
8.588988
 10
0.790697
 20
7.048988
 10
6.565697
 20
-4.501012
 10
5.025697
 20
-4.501012
 10
-6.524303
 20
-4.501012
  0
LWPOLYLINE
  5
37B
330
370
100
AcDbEntity
  8
0
100
AcDbPolyline
 90
        2
 70
   129
 43
0.386264
 10
-0.189234
 20
-0.004764
 42
1.0
 10
0.197031
 20
-0.004764
 42
1.0
  0
ENDBLK
  5
37F
330
370
100
AcDbEntity
  8
0
100
AcDbBlockEnd
  0
BLOCK
  5
381
330
380
100
AcDbEntity
  8
0
100
AcDbBlockBegin
  2
BENCHM
 70
     0
 10
0.0
 20
0.0
 30
0.0
  3
BENCHM
  1

  0
LINE
  5
382
330
380
100
AcDbEntity
  8
0
100
AcDbLine
 10
0.0
 20
0.0
 30
0.0
 11
12.2
 21
0.0
 31
0.0
  0
LINE
  5
383
330
380
100
AcDbEntity
  8
0
100
AcDbLine
 10
0.0
 20
0.0
 30
0.0
 11
6.15
 21
6.15
 31
0.0
  0
LINE
  5
384
330
380
100
AcDbEntity
  8
0
100
AcDbLine
 10
0.0
 20
0.0
 30
0.0
 11
6.15
 21
-6.15
 31
0.0
  0
ENDBLK
  5
385
330
380
100
AcDbEntity
  8
0
100
AcDbBlockEnd
  0
BLOCK
  5
387
330
386
100
AcDbEntity
  8
0
100
AcDbBlockBegin
  2
SPOTH
 70
     0
 10
0.0
 20
0.0
 30
0.0
  3
SPOTH
  1

  0
LINE
  5
388
330
386
100
AcDbEntity
  8
0
100
AcDbLine
 10
0.0
 20
-4.6
 30
0.0
 11
0.0
 21
4.6
 31
0.0
  0
LINE
  5
389
330
386
100
AcDbEntity
  8
0
100
AcDbLine
 10
-4.6
 20
0.0
 30
0.0
 11
4.6
 21
0.0
 31
0.0
  0
ENDBLK
  5
38A
330
386
100
AcDbEntity
  8
0
100
AcDbBlockEnd
  0
BLOCK
  5
38C
330
38B
100
AcDbEntity
  8
0
100
AcDbBlockBegin
  2
PYLON
 70
     0
 10
0.0
 20
0.0
 30
0.0
  3
PYLON
  1

  0
LINE
  5
38D
330
38B
100
AcDbEntity
  8
0
100
AcDbLine
 10
0.499566
 20
0.500037
 30
0.0
 11
-0.500434
 21
-0.499963
 31
0.0
  0
LINE
  5
38E
330
38B
100
AcDbEntity
  8
0
100
AcDbLine
 10
-0.500434
 20
0.500037
 30
0.0
 11
0.499566
 21
-0.499963
 31
0.0
  0
LWPOLYLINE
  5
38F
330
38B
100
AcDbEntity
  8
0
100
AcDbPolyline
 90
        4
 70
     1
 43
0.0
 10
0.499566
 20
-0.499963
 10
0.499566
 20
0.500037
 10
-0.500434
 20
0.500037
 10
-0.500434
 20
-0.499963
  0
ENDBLK
  5
395
330
38B
100
AcDbEntity
  8
0
100
AcDbBlockEnd
  0
BLOCK
  5
397
330
396
100
AcDbEntity
  8
0
100
AcDbBlockBegin
  2
POINT
 70
     0
 10
0.0
 20
0.0
 30
0.0
  3
POINT
  1

  0
LWPOLYLINE
  5
398
330
396
100
AcDbEntity
  8
0
100
AcDbPolyline
 90
        3
 70
     0
 43
0.0
 10
0.004128
 20
2.318056
 42
1.0
 10
0.004128
 20
-2.301944
 42
1.0
 10
0.004128
 20
2.318056
  0
ENDBLK
  5
39D
330
396
100
AcDbEntity
  8
0
100
AcDbBlockEnd
  0
BLOCK
  5
39F
330
39E
100
AcDbEntity
  8
0
100
AcDbBlockBegin
  2
COPY
 70
     0
 10
0.0
 20
0.0
 30
0.0
  3
COPY
  1

  0
LWPOLYLINE
  5
3A0
330
39E
100
AcDbEntity
  8
0
100
AcDbPolyline
 90
        9
 70
     0
 43
0.0
 10
-0.006975
 20
2.994124
 10
-0.006975
 20
12.994124
 10
2.993025
 20
15.994124
 10
12.993025
 20
15.994124
 10
15.993025
 20
12.994124
 10
15.993025
 20
2.994124
 10
12.993025
 20
-0.005876
 10
2.993025
 20
-0.005876
 10
-0.006975
 20
2.994124
  0
LWPOLYLINE
  5
3AB
330
39E
100
AcDbEntity
  8
0
100
AcDbPolyline
 90
        6
 70
     0
 43
0.0
 10
11.993025
 20
3.994124
 10
4.993025
 20
3.994124
 10
3.993025
 20
4.994124
 10
3.993025
 20
10.994124
 10
4.993025
 20
11.994124
 10
11.993025
 20
11.994124
  0
ENDBLK
  5
3B3
330
39E
100
AcDbEntity
  8
0
100
AcDbBlockEnd
  0
BLOCK
  5
3B5
330
3B4
100
AcDbEntity
  8
0
100
AcDbBlockBegin
  2
FLARROW
 70
     0
 10
0.0
 20
0.0
 30
0.0
  3
FLARROW
  1

  0
LINE
  5
3B6
330
3B4
100
AcDbEntity
  8
0
100
AcDbLine
 10
27.69632
 20
0.005086
 30
0.0
 11
0.000452
 21
0.005086
 31
0.0
  0
LINE
  5
3B7
330
3B4
100
AcDbEntity
  8
0
100
AcDbLine
 10
-0.016003
 20
-0.003322
 30
0.0
 11
3.833997
 21
-3.853322
 31
0.0
  0
LINE
  5
3B8
330
3B4
100
AcDbEntity
  8
0
100
AcDbLine
 10
-0.016003
 20
0.013495
 30
0.0
 11
3.833997
 21
3.863495
 31
0.0
  0
LINE
  5
3B9
330
3B4
100
AcDbEntity
  8
0
100
AcDbLine
 10
27.758844
 20
-0.003322
 30
0.0
 11
31.608844
 21
3.846678
 31
0.0
  0
LINE
  5
3BA
330
3B4
100
AcDbEntity
  8
0
100
AcDbLine
 10
23.908844
 20
-0.003322
 30
0.0
 11
27.758844
 21
3.846678
 31
0.0
  0
LINE
  5
3BB
330
3B4
100
AcDbEntity
  8
0
100
AcDbLine
 10
27.758844
 20
-0.058184
 30
0.0
 11
31.608844
 21
-3.908183999999999
 31
0.0
  0
LINE
  5
3BC
330
3B4
100
AcDbEntity
  8
0
100
AcDbLine
 10
23.908844
 20
-0.003322
 30
0.0
 11
27.758844
 21
-3.853322
 31
0.0
  0
ENDBLK
  5
3BD
330
3B4
100
AcDbEntity
  8
0
100
AcDbBlockEnd
  0
BLOCK
  5
3BF
330
3BE
100
AcDbEntity
  8
0
100
AcDbBlockBegin
  2
ULC
 70
     0
 10
0.0
 20
0.0
 30
0.0
  3
ULC
  1

  0
LINE
  5
3C0
330
3BE
100
AcDbEntity
  8
0
100
AcDbLine
 10
-4.08
 20
-4.08
 30
0.0
 11
4.08
 21
4.08
 31
0.0
  0
LINE
  5
3C1
330
3BE
100
AcDbEntity
  8
0
100
AcDbLine
 10
-4.08
 20
4.08
 30
0.0
 11
4.08
 21
-4.08
 31
0.0
  0
ENDBLK
  5
3C2
330
3BE
100
AcDbEntity
  8
0
100
AcDbBlockEnd
  0
BLOCK
  5
3C4
330
3C3
100
AcDbEntity
  8
0
100
AcDbBlockBegin
  2
GLASSEED
 70
     0
 10
0.0
 20
0.0
 30
0.0
  3
GLASSEED
  1

  0
LINE
  5
3C5
330
3C3
100
AcDbEntity
  8
0
100
AcDbLine
 10
-4.08
 20
-4.08
 30
0.0
 11
4.08
 21
4.08
 31
0.0
  0
LINE
  5
3C6
330
3C3
100
AcDbEntity
  8
0
100
AcDbLine
 10
-4.08
 20
4.08
 30
0.0
 11
4.08
 21
-4.08
 31
0.0
  0
ENDBLK
  5
3C7
330
3C3
100
AcDbEntity
  8
0
100
AcDbBlockEnd
  0
BLOCK
  5
3C9
330
3C8
100
AcDbEntity
  8
0
100
AcDbBlockBegin
  2
BUILDSED
 70
     0
 10
0.0
 20
0.0
 30
0.0
  3
BUILDSED
  1

  0
LINE
  5
3CA
330
3C8
100
AcDbEntity
  8
0
100
AcDbLine
 10
-4.08
 20
-4.08
 30
0.0
 11
4.08
 21
4.08
 31
0.0
  0
LINE
  5
3CB
330
3C8
100
AcDbEntity
  8
0
100
AcDbLine
 10
-4.08
 20
4.08
 30
0.0
 11
4.08
 21
-4.08
 31
0.0
  0
ENDBLK
  5
3CC
330
3C8
100
AcDbEntity
  8
0
100
AcDbBlockEnd
  0
BLOCK
  5
3CE
330
3CD
100
AcDbEntity
  8
0
100
AcDbBlockBegin
  2
REGTM
 70
     0
 10
0.0
 20
0.0
 30
0.0
  3
REGTM
  1

  0
LWPOLYLINE
  5
3CF
330
3CD
100
AcDbEntity
  8
0
100
AcDbPolyline
 90
        9
 70
     0
 43
0.0
 10
0.0
 20
3.0
 10
0.0
 20
13.0
 10
3.0
 20
16.0
 10
13.0
 20
16.0
 10
16.0
 20
13.0
 10
16.0
 20
3.0
 10
13.0
 20
0.0
 10
3.0
 20
0.0
 10
0.0
 20
3.0
  0
LWPOLYLINE
  5
3DA
330
3CD
100
AcDbEntity
  8
0
100
AcDbPolyline
 90
        8
 70
     0
 43
0.0
 10
4.0
 20
4.0
 10
4.0
 20
12.0
 10
10.0
 20
12.0
 10
11.2
 20
11.3
 10
12.0
 20
10.0
 10
11.2
 20
8.7
 10
10.0
 20
8.0
 10
4.0
 20
8.0
  0
LWPOLYLINE
  5
3E4
330
3CD
100
AcDbEntity
  8
0
100
AcDbPolyline
 90
        2
 70
     0
 43
0.0
 10
8.0
 20
8.0
 10
12.0
 20
4.0
  0
ENDBLK
  5
3E8
330
3CD
100
AcDbEntity
  8
0
100
AcDbBlockEnd
  0
BLOCK
  5
AAB
330
AA7
100
AcDbEntity
  8
0
100
AcDbBlockBegin
  2
A$C689B0824
 70
     0
 10
0.0
 20
0.0
 30
0.0
  3
A$C689B0824
  1

  0
ENDBLK
  5
AAC
330
AA7
100
AcDbEntity
  8
0
100
AcDbBlockEnd
  0
BLOCK
  5
B36
330
B31
100
AcDbEntity
  8
0
100
AcDbBlockBegin
  2
A$C2D01300C
 70
     0
 10
0.0
 20
0.0
 30
0.0
  3
A$C2D01300C
  1

  0
ENDBLK
  5
B37
330
B31
100
AcDbEntity
  8
0
100
AcDbBlockEnd
  0
BLOCK
  5
E50
330
E4C
100
AcDbEntity
  8
0
100
AcDbBlockBegin
  2
A$C4BBC1FCB
 70
     0
 10
0.0
 20
0.0
 30
0.0
  3
A$C4BBC1FCB
  1

  0
ENDBLK
  5
E51
330
E4C
100
AcDbEntity
  8
0
100
AcDbBlockEnd
  0
BLOCK
  5
E64
330
E60
100
AcDbEntity
  8
0
100
AcDbBlockBegin
  2
A$C4F9B3CDD
 70
     0
 10
0.0
 20
0.0
 30
0.0
  3
A$C4F9B3CDD
  1

  0
ENDBLK
  5
E65
330
E60
100
AcDbEntity
  8
0
100
AcDbBlockEnd
  0
BLOCK
  5
FCA
330
FC9
100
AcDbEntity
  8
0
100
AcDbBlockBegin
  2
N_arrow
 70
     0
 10
0.0
 20
0.0
 30
0.0
  3
N_arrow
  1

  0
HATCH
  5
FCB
330
FC9
100
AcDbEntity
  8
wText
100
AcDbHatch
 10
0.0
 20
0.0
 30
0.0
210
0.0
220
0.0
230
1.0
  2
SOLID
 70
     1
 71
     1
 91
        1
 92
        1
 93
        4
 72
     1
 10
236.2828877723649
 20
307.6833528978382
 11
236.7755767393404
 21
307.6819076411983
 72
     1
 10
236.7755767393404
 20
307.6819076411983
 11
236.2828877723649
 21
312.3823944438869
 72
     1
 10
236.2828877723649
 20
312.3823944438869
 11
235.7901988053894
 21
307.6819076411983
 72
     1
 10
235.7901988053894
 20
307.6819076411983
 11
236.2828877723649
 21
307.6833528978382
 97
        1
330
FCC
 75
     0
 76
     1
 98
        1
 10
63.73765264892336
 20
45.57963566445363
  0
LWPOLYLINE
  5
FCC
102
{ACAD_REACTORS
330
FCB
102
}
330
FC9
100
AcDbEntity
  8
wText
100
AcDbPolyline
 90
        4
 70
     1
 43
0.0
 10
236.2828877723649
 20
307.6833528978382
 10
236.7755767393404
 20
307.6819076411983
 10
236.2828877723649
 20
312.3823944438869
 10
235.7901988053894
 20
307.6819076411983
  0
LWPOLYLINE
  5
FCD
330
FC9
100
AcDbEntity
  8
wText
100
AcDbPolyline
 90
        2
 70
     0
 43
0.0
 10
238.9256409225426
 20
303.7818687897139
 10
233.5197059941192
 20
303.7818687897139
  0
LWPOLYLINE
  5
FCE
330
FC9
100
AcDbEntity
  8
wText
100
AcDbPolyline
 90
        2
 70
     0
 43
0.0
 10
236.2828877723649
 20
307.6833528978382
 10
236.2828877723649
 20
290.6643795191491
  0
LWPOLYLINE
  5
FCF
330
FC9
100
AcDbEntity
  8
wBlank
100
AcDbPolyline
 90
        4
 70
     1
 43
0.0
 10
232.8380839348663
 20
313.4387724816941
 10
239.4511011324634
 20
313.4387724816941
 10
239.4511011324634
 20
289.407193912705
 10
232.8380839348663
 20
289.407193912705
  0
ENDBLK
  5
FD0
330
FC9
100
AcDbEntity
  8
0
100
AcDbBlockEnd
  0
BLOCK
  5
1024
330
FE9
100
AcDbEntity
  8
0
100
AcDbBlockBegin
  2
A3-L1
 70
     0
 10
0.0
 20
0.0
 30
0.0
  3
A3-L1
  1

  0
TEXT
  5
FEA
330
FE9
100
AcDbEntity
  8
wText
100
AcDbText
 10
-42.24601707649626
 20
-154.4442022419609
 30
0.0
 40
1.25
  1
Reproduced from the (date) Ordnance Survey (scale / map name ®) map with the permission of the controller of Her Majesty's Stationery Office 
  7
Arial
100
AcDbText
  0
TEXT
  5
FEB
330
FE9
100
AcDbEntity
  8
wText
100
AcDbText
 10
-42.24304981865177
 20
-163.6242263992912
 30
0.0
 40
1.25
  1
This material is for client report only © Wessex Archaeology. No unauthorised reproduction.
  7
Arial
100
AcDbText
  0
TEXT
  5
FEC
330
FE9
100
AcDbEntity
  8
wText
100
AcDbText
 10
-42.31376919344277
 20
-156.6865851432797
 30
0.0
 40
1.25
  1
© Crown copyright, Wessex Archaeology, Portway House, Old Sarum Park, Salisbury, Wiltshire. SP4 6EB. Licence Number: 100028190.
  7
Arial
100
AcDbText
  0
TEXT
  5
FED
330
FE9
100
AcDbEntity
  8
wText
100
AcDbText
 10
-183.1321112830327
 20
-171.5058649991421
 30
0.0
 40
2.3
  1
Caption
  7
title
100
AcDbText
  0
TEXT
  5
FEE
330
FE9
100
AcDbEntity
  8
wText
100
AcDbText
 10
-42.23513713106652
 20
-158.7849175854805
 30
0.0
 40
1.25
  1
Digital data reproduced from Ordnance Survey data © Crown Copyright (year) All rights reserved. Reference Number: 100020449.
  7
Arial
100
AcDbText
  0
TEXT
  5
FEF
330
FE9
100
AcDbEntity
  8
wText
100
AcDbText
 10
185.7632479248593
 20
-171.3648227612924
 30
0.0
 40
2.3
  1
Figure ?
  7
title
 72
     2
 11
197.5503557011212
 21
-171.3648227612924
 31
0.0
100
AcDbText
  0
TEXT
  5
FF0
330
FE9
100
AcDbEntity
  8
wText
100
AcDbText
 10
87.92314900403316
 20
-164.8361010718271
 30
0.0
 40
1.8
  1
Path:
  7
Arial
 72
     2
 11
93.7946360435966
 21
-164.8361010718271
 31
0.0
100
AcDbText
  0
TEXT
  5
FF1
330
FE9
100
AcDbEntity
  8
wText
100
AcDbText
 10
97.2164280442995
 20
-164.8361010718271
 30
0.0
 40
1.8
  1
?
  7
Arial
100
AcDbText
  0
INSERT
  5
FF2
330
FE9
100
AcDbEntity
  8
wText
100
AcDbBlockReference
  2
N_arrow
 10
-48.6739050403996
 20
-233.8539131095459
 30
0.0
  0
TEXT
  5
FF3
330
FE9
100
AcDbEntity
  8
wText
100
AcDbText
 10
-227.7552498046164
 20
70.84797501355223
 30
0.0
 40
2.0
  1
Text - 8pt
  7
Arial
100
AcDbText
  0
TEXT
  5
FF4
330
FE9
100
AcDbEntity
  8
wText
100
AcDbText
 10
-230.5586994713931
 20
62.61856874378037
 30
0.0
 40
2.5
  1
Text - 10pt
  7
Arial
100
AcDbText
  0
TEXT
  5
FF5
330
FE9
100
AcDbEntity
  8
wText
100
AcDbText
 10
-232.0477056833868
 20
53.70567498406257
 30
0.0
 40
3.0
  1
Text - 12pt
  7
Arial
100
AcDbText
  0
TEXT
  5
FF6
330
FE9
100
AcDbEntity
  8
wText
100
AcDbText
 10
-226.0033565197891
 20
77.29429491847924
 30
0.0
 40
1.5
  1
Text - 6pt
  7
Arial
100
AcDbText
  0
TEXT
  5
FF7
330
FE9
100
AcDbEntity
  8
wText
100
AcDbText
 10
-226.7920235173201
 20
74.20753578802447
 30
0.0
 40
1.8
  1
Text - 7pt
  7
Arial
100
AcDbText
  0
TEXT
  5
FF8
330
FE9
100
AcDbEntity
  8
wText
100
AcDbText
 10
-228.8068050307731
 20
66.97310747092723
 30
0.0
 40
2.3
  1
Text - 9pt
  7
title
100
AcDbText
  0
TEXT
  5
FF9
330
FE9
100
AcDbEntity
  8
wText
100
AcDbText
 10
-231.6102558533771
 20
58.02126872655691
 30
0.0
 40
2.75
  1
Text - 11pt
  7
Arial
100
AcDbText
  0
LWPOLYLINE
  5
FFA
330
FE9
100
AcDbEntity
  8
wBorderthin
100
AcDbPolyline
 90
        2
 70
     0
 43
0.0
 10
80.0306135587251
 20
-155.4444534443453
 10
197.0306135587251
 20
-155.4444534443453
  0
LWPOLYLINE
  5
FFB
330
FE9
100
AcDbEntity
  8
wBorderthin
100
AcDbPolyline
 90
        2
 70
     0
 43
0.0
 10
80.0306135587251
 20
-161.1044534443453
 10
197.0306135587251
 20
-161.1044534443453
  0
TEXT
  5
FFC
330
FE9
100
AcDbEntity
  8
wText
100
AcDbText
 10
86.80582294673438
 20
-159.1761010718272
 30
0.0
 40
1.8
  1
Scale:
  7
Arial
 72
     2
 11
93.7946360435966
 21
-159.1761010718272
 31
0.0
100
AcDbText
  0
TEXT
  5
FFD
330
FE9
100
AcDbEntity
  8
wText
100
AcDbText
 10
97.2164280442995
 20
-159.1761010718272
 30
0.0
 40
1.8
  1
?
  7
Arial
100
AcDbText
  0
TEXT
  5
FFE
330
FE9
100
AcDbEntity
  8
wText
100
AcDbText
 10
87.78440411999496
 20
-153.5061010718271
 30
0.0
 40
1.8
  1
Date:
  7
Arial
 72
     2
 11
93.7946360435966
 21
-153.5061010718271
 31
0.0
100
AcDbText
  0
TEXT
  5
FFF
330
FE9
100
AcDbEntity
  8
wText
100
AcDbText
 10
97.2164280442995
 20
-153.5061010718271
 30
0.0
 40
1.8
  1
?
  7
Arial
100
AcDbText
  0
TEXT
  5
1000
330
FE9
100
AcDbEntity
  8
wText
100
AcDbText
 10
139.8104614187671
 20
-153.5061010718271
 30
0.0
 40
1.8
  1
Revision Number:
  7
Arial
 72
     2
 11
159.7946360435966
 21
-153.5061010718271
 31
0.0
100
AcDbText
  0
TEXT
  5
1001
330
FE9
100
AcDbEntity
  8
wText
100
AcDbText
 10
163.2164280442995
 20
-153.5061010718271
 30
0.0
 40
1.8
  1
?
  7
Arial
100
AcDbText
  0
TEXT
  5
1002
330
FE9
100
AcDbEntity
  8
wText
100
AcDbText
 10
148.7552090313183
 20
-159.1711010718271
 30
0.0
 40
1.8
  1
Illustrator:
  7
Arial
 72
     2
 11
159.7946360435966
 21
-159.1711010718271
 31
0.0
100
AcDbText
  0
TEXT
  5
1003
330
FE9
100
AcDbEntity
  8
wText
100
AcDbText
 10
163.2164280442995
 20
-159.1711010718271
 30
0.0
 40
1.8
  1
?
  7
Arial
100
AcDbText
  0
LWPOLYLINE
  5
1004
330
FE9
100
AcDbEntity
  8
wBorderthin
100
AcDbPolyline
 90
        2
 70
     0
 43
0.0
 10
95.0306135587251
 20
-149.7744534443453
 10
95.0306135587251
 20
-166.7744534443453
  0
LWPOLYLINE
  5
1005
330
FE9
100
AcDbEntity
  8
wBorder
100
AcDbPolyline
 90
        4
 70
     1
 43
0.0
 10
-182.9693864412749
 20
-166.7744534443453
 10
197.0306135587251
 20
-166.7744534443453
 10
197.0306135587251
 20
84.22554655565472
 10
-182.9693864412749
 20
84.22554655565472
  0
LWPOLYLINE
  5
1006
330
FE9
100
AcDbEntity
  8
wBorder
100
AcDbPolyline
 90
        4
 70
     1
 43
0.0
 10
-182.9693864412749
 20
-166.7744534443453
 10
-44.96938644127491
 20
-166.7744534443453
 10
-44.96938644127491
 20
-149.7744534443453
 10
-182.9693864412749
 20
-149.7744534443453
  0
LWPOLYLINE
  5
1007
330
FE9
100
AcDbEntity
  8
wBorder
100
AcDbPolyline
 90
        4
 70
     1
 43
0.0
 10
-44.96938644127491
 20
-166.7744534443453
 10
80.0306135587251
 20
-166.7744534443453
 10
80.0306135587251
 20
-149.7744534443453
 10
-44.96938644127491
 20
-149.7744534443453
  0
LWPOLYLINE
  5
1008
330
FE9
100
AcDbEntity
  8
wBorder
100
AcDbPolyline
 90
        4
 70
     1
 43
0.0
 10
80.0306135587251
 20
-149.7744534443453
 10
197.0306135587251
 20
-149.7744534443453
 10
197.0306135587251
 20
-166.7744534443453
 10
80.0306135587251
 20
-166.7744534443453
  0
LWPOLYLINE
  5
1009
330
FE9
100
AcDbEntity
  8
wBorderthin
100
AcDbPolyline
 90
        2
 70
     0
 43
0.0
 10
132.0306135587251
 20
-149.7744534443453
 10
132.0306135587251
 20
-161.1044534443453
  0
LWPOLYLINE
  5
100A
330
FE9
100
AcDbEntity
  8
wBorderthin
100
AcDbPolyline
 90
        2
 70
     0
 43
0.0
 10
161.0306135587251
 20
-149.7744534443453
 10
161.0306135587251
 20
-161.1044534443453
  0
POLYLINE
  5
100B
330
FE9
100
AcDbEntity
  8
M-COLOR
100
AcDb2dPolyline
 66
     1
 10
0.0
 20
0.0
 30
0.0
1001
M-COLOR__358644234323
1000
PAPER
1040
1.0
1000
meter
1002
{
1004
000000000000000000000000000000000000000000000000000000000000F03F0000000000000000
1002
}
1002
{
1004
5C5C444F5345525645525C4C617365724A657420353530302050530000000000010402059C00BC1053FF800302000800EA0A6F0864000100E9045802020001005802030000004C6574746572000000000000000000000000000000000000000000000000000000000000000000000000000000000100000000000000010000
1004
000200000001010000000000000000000000000000000000000000000050524956E2300000000000000000000000000000000000000000000000000000000000000000000000000000000000000000000000000000000000000000000000000000000000000000000000000000000000000000000018000000000010271027
1004
10270000102700000000000000000000C4020000000000000000000000000000000000000000000000000300000000000000F80D10005C4B03006843040000000000000000000100010000000000000000000000000000000000D39C0FCA1F0000000000000000000000000000000000000000000000010000000300FF0000
1004
00FF0000000100000000000000000004000300040003000400040005000300000000000000000000000000000000000000000000000000000000000000000000000000000000000000000000000000000000000000000000000000000000000000000000000000000000000000000000000000000000000000000000000000
1004
00000000000000000000000000000000000000000000000000000000000000000000000000000000000000000000000000000000000000000000000000000000000000000000000000000000000000000000000000000000000000000000000000000000000000000000000000000000000000000000000000000000000000
1004
00000000000000000000000000000000000000000000000000000000000000000000000000000000000000000000000000000000000000000000000000000000000000000000000000000000000000000000000000000000000000000000000000000000000000000000000000000000000000000000000000000000000000
1004
000000000000000000000000000000000000000000000000000000000000000000000000000000000000000000000000000000000000000000000000000000000000000000000000000000000000000000000000000000000000000000000000000000000000F80D0000495550480000110000000000020000000300000001
1004
00000000000000000000000300000000000000010001006400010000000300020000000100000002000000410033000000000000000000000000000000000000000000000000000000000000000000010000000600000000000000000000000000000000000000000000000000000000000000000000000000000000000000
1004
0000000000000000000000000000000020005B006E006F006E0065005D0000000000000000000000000000000000000000000000000000000000000000000000000000000000000000000000000000000000000000000000000000000000000000000000000000000000000000000000000000000000000000000000000000
1004
00000000000000000000000000000000000000000000000000000000000000000000000000000000000000000000000000000000000000000000000000000000000000000000000000000000000000000000000000000000000000000000000000000000000000000000000000000000000000000000000000000000000000
1004
00000000000000000000000000000000000000000000000000000000000000000000000000000000000000000000000000000000000000000000000000000000000000000000000000000000000000000000000000000000000000000000000000000000000000000000000000000000000000000000000000000000000000
1004
00000000000000000000000000000000000000000000000000000000000000000000000000000000000000000000000000000000000000000000000000000000000000000000000000000000000000000000000000000000000000000000000000000000000000000000000000000000000000000000000000000000000000
1004
000000000000000000000000000000000000000020005B006E006F006E0065005D00000000000000000000000000000000000000000000000000000000000000000000000000000000000000000000000000000000000000000000000000000000000000000000000000000000000000000000000000000000000000000000
1004
00000000000000000000000000000000000000000000000000000000000000000000000000000000000000000000000000000000000000000000000000000000000000000000000000000000000000000000000000000000000000000000000000000000000000000000000000000000000000000000000000000000000000
1004
00000000000000000000000000000000000000000000000000000000000000000000000000000000000000000000000000000000000000000000000000000000000000000000000000000000000000000000000000000000000000000000000000000000000000000000000000000000000000000000000000000000000000
1004
00000000000000000000000000000000000000000000000000000000000000000000000000000000000000000000000000000000000000000000000000000000000000000000000000000000000000000000000000000000000000000000000000000000000000000000000000000000000000000000000000000000000000
1004
00000000000000000000000000000000000000000000000041007200690061006C00000000000000000000000000000000000000000000000000000000000000000000000000000000000000000000000000000000000000000000000000000000000000000000000000000000000000000000000000000000000000000000
1004
00000000000000000000000000000000000000000000000000000000000000000000000000000000000000000000000000000000000000000000000000000000000000000000000000000000000000000000000000000000000000000000000000000000000000000000000000000000000000000000000000000000000000
1004
00000000000000000000000000000000000000000000000000000000000000000000000000000000000000000000000000000000000000000000000000000000000000000000000000000000000000000000000000000000000000000000000000000000000000000000000000000000000000000000000000000000000000
1004
00000000000000000000000000000000000000000000000000000000000000000000000000000000000000000000000000000000000000000000000000000000000000000000000000000000000000000000000000000000000000000000000000000000000000000000000000000000000000000000000000000000000000
1004
000000000000000000000000000000000000000000000000000000003400000050000000000000000100000000000000C0C0C00000000000C0C0C00004000000000000000000000000000000010000000100000064000000000000000000803F00000000000000000000000000000000010000000100000000000000000000
1004
00000000005000410055004C005F004D000000000000000000000000000000000000000000000000000000000000000000000000000000000000000000000000000000000000000000000000000000000000000000000000000000000000000000000000000000000000000000000000000000000000000000000000000000
1004
00000000000000000000000000000000000000000000000000000000000000000000000000000000000000000000000000000000000000000000000000000000000000000000000000000000000000000000000000000000000000000000000000000000000000000000000000000000000000000000000000000000000000
1004
00000000000000000000000000000000000000000000000000000000000000000000000000000000000000000000000000000000000000000000000000000000000000000000000000000000000000000000000000000000000000000000000000000000000000000000000000000000000000000000000000000000000000
1004
00000000000000000000000000000000000000000000000000000000000000000000000000000000000000000000000000000000000000000000000000000000000000000000000000000000000000000000000000000000000000000000000000000000000000000000000000000000000000000000000000000000000000
1004
00000000000000000055004E005400490054004C0045004400000000000000000000000000000000000000000000000000000000000000000000000000000000000000000000000000000000000000000000000000000000000000000000000000000000000000000000000000000000000000000000000000000000000000
1004
00000000000000000000000000000000000000000000000000000000000000000000000000000000000000000000000000000000000000000000000000000000000000000000000000000000000000000000000000000000000000000000000000000000000000000000000000000000000000000000000000000000000000
1004
00000000000000000000000000000000000000000000000000000000000000000000000000000000000000000000000000000000000000000000000000000000000000000000000000000000000000000000000000000000000000000000000000000000000000000000000000000000000000000000000000000000000000
1004
00000000000000000000000000000000000000000000000000000000000000000000000000000000000000000000000000000000000000000000000000000000000000000000000000000000000000000000000000000000000000000000000000000000000000000000000000000000000000000000000000000000000000
1004
0000000000000000000000000000000000010000000100000001000000010000000100000001000000010000000100000001000000000000000000000001000000000000000000000000000000BF000000000000000F0000000001000000000000050100000000000000000000FFFFFFFF00000000000000000F0000000000
1004
00000F00000001010000000000000000000000000000000000000000000000000000000000000000000000000000000000000000000000000000000000000000000000000000000000000000000000000000000000000000000000000000000000000000000000000000000000000000000000000000000000000000000000
1004
00000000000000000000000000000000000000000000000000000000000000000000000000000000000000000000000000000000000000000000000000000000000000000000000000000000000000000000000000000000000000000000000000000000000000000000000000000000000000000000000000000000000000
1004
00000000000000000000000000000000000000000000000000000000000000000000000000000000000000000000000000000000000000000000000000000000000000000000000000000000000000000000000000000000000000000000000000000000000000000000000000000000000000000000000000000000000000
1004
00000000000000000000000000000000000000000000000000000000000000000000000000000000000000000000000000000000000000000000000000000000000000000000000000000000000000000000000000000000000000000000000000000000000000000000000000000000000000000000000000000000000000
1004
000000000000000000000000000000000000000000005300530050005F005300540044005000410047004500310000000000000000000000000000000000000000000000000000000000000000000000000000000000000000000000000000000000000000000000000000000000000000000000000000000000
1002
}
1002
{
1004
080012002F00010077696E73706F6F6C00005C5C444F5345525645525C4C617365724A6574203535303020505300006870636F6C6F724C617365724A65743535303000
1002
}
  0
VERTEX
  5
100C
330
100B
100
AcDbEntity
  8
M-COLOR
100
AcDbVertex
100
AcDb2dVertex
 10
-199.9693864412749
 20
-191.7744534443453
 30
0.0
  0
VERTEX
  5
100D
330
100B
100
AcDbEntity
  8
M-COLOR
100
AcDbVertex
100
AcDb2dVertex
 10
-199.9693864412749
 20
105.2255465556547
 30
0.0
  0
VERTEX
  5
100E
330
100B
100
AcDbEntity
  8
M-COLOR
100
AcDbVertex
100
AcDb2dVertex
 10
220.0306135587251
 20
105.2255465556547
 30
0.0
  0
VERTEX
  5
100F
330
100B
100
AcDbEntity
  8
M-COLOR
100
AcDbVertex
100
AcDb2dVertex
 10
220.0306135587251
 20
-191.7744534443453
 30
0.0
  0
VERTEX
  5
1010
330
100B
100
AcDbEntity
  8
M-COLOR
100
AcDbVertex
100
AcDb2dVertex
 10
-199.9693864412749
 20
-191.7744534443453
 30
0.0
  0
VERTEX
  5
1011
330
100B
100
AcDbEntity
  8
M-COLOR
100
AcDbVertex
100
AcDb2dVertex
 10
-199.9693864412749
 20
-162.0744534443453
 30
0.0
  0
VERTEX
  5
1012
330
100B
100
AcDbEntity
  8
M-COLOR
100
AcDbVertex
100
AcDb2dVertex
 10
-204.4243864412749
 20
-162.0744534443453
 30
0.0
  0
VERTEX
  5
1013
330
100B
100
AcDbEntity
  8
M-COLOR
100
AcDbVertex
100
AcDb2dVertex
 10
-199.9693864412749
 20
-141.2844534443453
 30
0.0
  0
VERTEX
  5
1014
330
100B
100
AcDbEntity
  8
M-COLOR
100
AcDbVertex
100
AcDb2dVertex
 10
-199.9693864412749
 20
-191.7744534443453
 30
0.0
  0
VERTEX
  5
1015
330
100B
100
AcDbEntity
  8
M-COLOR
100
AcDbVertex
100
AcDb2dVertex
 10
-170.2693864412749
 20
-191.7744534443453
 30
0.0
  0
VERTEX
  5
1016
330
100B
100
AcDbEntity
  8
M-COLOR
100
AcDbVertex
100
AcDb2dVertex
 10
-170.2693864412749
 20
-196.2294534443453
 30
0.0
  0
VERTEX
  5
1017
330
100B
100
AcDbEntity
  8
M-COLOR
100
AcDbVertex
100
AcDb2dVertex
 10
-149.4793864412749
 20
-191.7744534443453
 30
0.0
  0
VERTEX
  5
1018
330
100B
100
AcDbEntity
  8
M-COLOR
100
AcDbVertex
100
AcDb2dVertex
 10
-199.9693864412749
 20
-191.7744534443453
 30
0.0
  0
SEQEND
  5
1019
330
100B
100
AcDbEntity
  8
M-COLOR
  0
TEXT
  5
101A
330
FE9
100
AcDbEntity
  8
wText
100
AcDbText
 10
-42.28117471268524
 20
-161.1685706971779
 30
0.0
 40
1.25
  1
Contains Ordnance Survey data © Crown Copyright and database right 2012.
  7
Arial
100
AcDbText
  0
TEXT
  5
101B
330
FE9
100
AcDbEntity
  8
wBorderthin
100
AcDbText
 10
-16.19867014050726
 20
-198.6465444544
 30
0.0
 40
1.25
  1
Digital map data © (2005) XYZ Digital Map Company.
100
AcDbText
  0
TEXT
  5
101C
330
FE9
100
AcDbEntity
  8
wText
100
AcDbText
 10
-15.91137086090851
 20
-203.9035344565616
 30
0.0
 40
1.25
  1
Contains Ordnance Survey data © Crown copyright and database right 2012.
100
AcDbText
  0
HATCH
  5
101D
330
FE9
100
AcDbEntity
  8
wLogo
100
AcDbHatch
 10
0.0
 20
0.0
 30
0.0
210
0.0
220
0.0
230
1.0
  2
SOLID
 70
     1
 71
     1
 91
        4
 92
        7
 72
     0
 73
     1
 93
        4
 10
-178.617385638834
 20
-162.422453450334
 10
-170.617385638834
 20
-162.422453450334
 10
-170.617385638834
 20
-154.422453450334
 10
-178.617385638834
 20
-154.422453450334
 97
        1
330
101E
 92
       22
 72
     0
 73
     1
 93
        4
 10
-177.2319856235353
 20
-155.0167139873186
 10
-172.0031856235353
 20
-155.0167139873186
 10
-172.0031856235353
 20
-156.7599139873186
 10
-177.2319856235353
 20
-156.7599139873186
 97
        1
330
1021
 92
       22
 72
     0
 73
     1
 93
        4
 10
-177.2319856235353
 20
-157.0039139873186
 10
-175.4887856235353
 20
-157.0039139873186
 10
-175.4887856235353
 20
-161.8287139873187
 10
-177.2319856235353
 20
-161.8287139873187
 97
        1
330
1020
 92
       22
 72
     0
 73
     1
 93
        4
 10
-173.7455856235352
 20
-157.0039139873186
 10
-172.0023856235353
 20
-157.0039139873186
 10
-172.0023856235353
 20
-161.8287139873187
 10
-173.7455856235353
 20
-161.8287139873187
 97
        1
330
101F
 75
     0
 76
     1
 47
0.0368075626144011
 98
        4
 10
-177.8241304117765
 20
-155.5876077944692
 10
-177.8241304117765
 20
-155.5876077944692
 10
-177.8241304117765
 20
-155.5876077944692
 10
-177.8241304117765
 20
-155.5876077944692
450
        0
451
        0
460
0.0
461
0.0
452
        1
462
1.0
453
        2
463
0.0
 63
     5
421
      255
463
1.0
 63
     7
421
 16777215
470
LINEAR
  0
LWPOLYLINE
  5
101E
102
{ACAD_REACTORS
330
101D
102
}
330
FE9
100
AcDbEntity
  8
wLogo
100
AcDbPolyline
 90
        4
 70
     1
 43
0.0
 10
-178.617385638834
 20
-162.422453450334
 10
-170.617385638834
 20
-162.422453450334
 10
-170.617385638834
 20
-154.422453450334
 10
-178.617385638834
 20
-154.422453450334
  0
LWPOLYLINE
  5
101F
102
{ACAD_REACTORS
330
101D
102
}
330
FE9
100
AcDbEntity
  8
wLogo
100
AcDbPolyline
 90
        4
 70
     1
 43
0.0
 10
-173.7455856235353
 20
-161.8287139873187
 10
-172.0023856235353
 20
-161.8287139873187
 10
-172.0023856235353
 20
-157.0039139873186
 10
-173.7455856235353
 20
-157.0039139873186
  0
LWPOLYLINE
  5
1020
102
{ACAD_REACTORS
330
101D
102
}
330
FE9
100
AcDbEntity
  8
wLogo
100
AcDbPolyline
 90
        4
 70
     1
 43
0.0
 10
-177.2319856235353
 20
-161.8287139873187
 10
-175.4887856235353
 20
-161.8287139873187
 10
-175.4887856235353
 20
-157.0039139873186
 10
-177.2319856235353
 20
-157.0039139873186
  0
LWPOLYLINE
  5
1021
102
{ACAD_REACTORS
330
101D
102
}
330
FE9
100
AcDbEntity
  8
wLogo
100
AcDbPolyline
 90
        4
 70
     1
 43
0.0
 10
-177.2319856235353
 20
-156.7599139873186
 10
-172.0031856235353
 20
-156.7599139873186
 10
-172.0031856235353
 20
-155.0167139873186
 10
-177.2319856235353
 20
-155.0167139873186
  0
ENDBLK
  5
1025
330
FE9
100
AcDbEntity
  8
0
100
AcDbBlockEnd
  0
BLOCK
  5
1260
330
125C
100
AcDbEntity
  8
0
100
AcDbBlockBegin
  2
A$C22221F0C
 70
     0
 10
0.0
 20
0.0
 30
0.0
  3
A$C22221F0C
  1

  0
MTEXT
  5
125D
330
125C
100
AcDbEntity
  8
wText
100
AcDbMText
 10
0.2602838160237297
 20
0.8488743806083221
 30
0.0
 40
0.5
 41
22.57142857147846
 46
0.0
 71
     1
 72
     5
  1
National Temperance Hospital
  7
Legend
 73
     1
 44
1.0
  0
ENDBLK
  5
1261
330
125C
100
AcDbEntity
  8
0
100
AcDbBlockEnd
  0
BLOCK
  5
1848
330
180E
100
AcDbEntity
  8
0
100
AcDbBlockBegin
  2
A4-P
 70
     0
 10
0.0
 20
0.0
 30
0.0
  3
A4-P
  1

  0
TEXT
  5
180F
330
180E
100
AcDbEntity
  8
wText
100
AcDbText
 10
-32.24601707649626
 20
-142.6794958810191
 30
0.0
 40
1.25
  1
Reproduced from the (date) Ordnance Survey (scale / map name ®) map with the permission of the controller of Her Majesty's Stationery Office 
  7
Arial
100
AcDbText
  0
TEXT
  5
1810
330
180E
100
AcDbEntity
  8
wText
100
AcDbText
 10
-32.24304981865177
 20
-152.4116756096593
 30
0.0
 40
1.25
  1
This material is for client report only © Wessex Archaeology. No unauthorised reproduction.
  7
Arial
100
AcDbText
  0
TEXT
  5
1811
330
180E
100
AcDbEntity
  8
wText
100
AcDbText
 10
-32.31376919344277
 20
-145.1218787823379
 30
0.0
 40
1.25
  1
© Crown copyright, Wessex Archaeology, Portway House, Old Sarum Park, Salisbury, Wiltshire. SP4 6EB. Licence Number: 100028190.
  7
Arial
100
AcDbText
  0
TEXT
  5
1812
330
180E
100
AcDbEntity
  8
wText
100
AcDbText
 10
-75.13211128303274
 20
-175.5058649991421
 30
0.0
 40
2.3
  1
Caption
  7
title
100
AcDbText
  0
TEXT
  5
1813
330
180E
100
AcDbEntity
  8
wText
100
AcDbText
 10
-32.23513713106652
 20
-147.5444799646936
 30
0.0
 40
1.25
  1
Digital data reproduced from Ordnance Survey data © Crown Copyright (year) All rights reserved. Reference Number: 100020449.
  7
Arial
100
AcDbText
  0
TEXT
  5
1814
330
180E
100
AcDbEntity
  8
wText
100
AcDbText
 10
83.76324792485923
 20
-175.3648227612924
 30
0.0
 40
2.3
  1
Figure ?
  7
title
 72
     2
 11
95.55035570112116
 21
-175.3648227612924
 31
0.0
100
AcDbText
  0
TEXT
  5
1815
330
180E
100
AcDbEntity
  8
wText
100
AcDbText
 10
-27.07685099596684
 20
-168.8361010718271
 30
0.0
 40
1.8
  1
Path:
  7
Arial
 72
     2
 11
-21.2053639564034
 21
-168.8361010718271
 31
0.0
100
AcDbText
  0
TEXT
  5
1816
330
180E
100
AcDbEntity
  8
wText
100
AcDbText
 10
-17.78357195570049
 20
-168.8361010718271
 30
0.0
 40
1.8
  1
?
  7
Arial
100
AcDbText
  0
INSERT
  5
1817
330
180E
100
AcDbEntity
  8
wText
100
AcDbBlockReference
  2
N_arrow
 10
-150.6739050403996
 20
-228.8539131095459
 30
0.0
  0
TEXT
  5
1818
330
180E
100
AcDbEntity
  8
wText
100
AcDbText
 10
-136.8980240535864
 20
75.05656851488294
 30
0.0
 40
2.0
  1
Text - 8pt
  7
Arial
100
AcDbText
  0
TEXT
  5
1819
330
180E
100
AcDbEntity
  8
wText
100
AcDbText
 10
-139.7014737203631
 20
66.82716224511108
 30
0.0
 40
2.5
  1
Text - 10pt
  7
Arial
100
AcDbText
  0
TEXT
  5
181A
330
180E
100
AcDbEntity
  8
wText
100
AcDbText
 10
-141.1904799323568
 20
57.91426848539328
 30
0.0
 40
3.0
  1
Text - 12pt
  7
Arial
100
AcDbText
  0
TEXT
  5
181B
330
180E
100
AcDbEntity
  8
wText
100
AcDbText
 10
-135.1461307687591
 20
81.50288841980995
 30
0.0
 40
1.5
  1
Text - 6pt
  7
Arial
100
AcDbText
  0
TEXT
  5
181C
330
180E
100
AcDbEntity
  8
wText
100
AcDbText
 10
-135.9347977662901
 20
78.41612928935518
 30
0.0
 40
1.8
  1
Text - 7pt
  7
Arial
100
AcDbText
  0
TEXT
  5
181D
330
180E
100
AcDbEntity
  8
wText
100
AcDbText
 10
-137.9495792797431
 20
71.18170097225794
 30
0.0
 40
2.3
  1
Text - 9pt
  7
title
100
AcDbText
  0
TEXT
  5
181E
330
180E
100
AcDbEntity
  8
wText
100
AcDbText
 10
-140.7530301023471
 20
62.22986222788762
 30
0.0
 40
2.75
  1
Text - 11pt
  7
Arial
100
AcDbText
  0
LWPOLYLINE
  5
181F
330
180E
100
AcDbEntity
  8
wBorderthin
100
AcDbPolyline
 90
        2
 70
     0
 43
0.0
 10
-34.96938644127491
 20
-159.4444534443453
 10
95.0306135587251
 20
-159.4444534443453
  0
LWPOLYLINE
  5
1820
330
180E
100
AcDbEntity
  8
wBorderthin
100
AcDbPolyline
 90
        2
 70
     0
 43
0.0
 10
-34.96938644127491
 20
-165.1044534443453
 10
95.0306135587251
 20
-165.1044534443453
  0
TEXT
  5
1821
330
180E
100
AcDbEntity
  8
wText
100
AcDbText
 10
-28.19417705326561
 20
-163.1761010718272
 30
0.0
 40
1.8
  1
Scale:
  7
Arial
 72
     2
 11
-21.2053639564034
 21
-163.1761010718272
 31
0.0
100
AcDbText
  0
TEXT
  5
1822
330
180E
100
AcDbEntity
  8
wText
100
AcDbText
 10
-17.78357195570049
 20
-163.1761010718272
 30
0.0
 40
1.8
  1
?
  7
Arial
100
AcDbText
  0
TEXT
  5
1823
330
180E
100
AcDbEntity
  8
wText
100
AcDbText
 10
-27.21559588000504
 20
-157.5061010718271
 30
0.0
 40
1.8
  1
Date:
  7
Arial
 72
     2
 11
-21.2053639564034
 21
-157.5061010718271
 31
0.0
100
AcDbText
  0
TEXT
  5
1824
330
180E
100
AcDbEntity
  8
wText
100
AcDbText
 10
-17.78357195570049
 20
-157.5061010718271
 30
0.0
 40
1.8
  1
?
  7
Arial
100
AcDbText
  0
TEXT
  5
1825
330
180E
100
AcDbEntity
  8
wText
100
AcDbText
 10
25.81046141876713
 20
-157.5061010718271
 30
0.0
 40
1.8
  1
Revision Number:
  7
Arial
 72
     2
 11
45.7946360435966
 21
-157.5061010718271
 31
0.0
100
AcDbText
  0
TEXT
  5
1826
330
180E
100
AcDbEntity
  8
wText
100
AcDbText
 10
49.21642804429951
 20
-157.5061010718271
 30
0.0
 40
1.8
  1
?
  7
Arial
100
AcDbText
  0
TEXT
  5
1827
330
180E
100
AcDbEntity
  8
wText
100
AcDbText
 10
34.75520903131829
 20
-163.1711010718271
 30
0.0
 40
1.8
  1
Illustrator:
  7
Arial
 72
     2
 11
45.7946360435966
 21
-163.1711010718271
 31
0.0
100
AcDbText
  0
TEXT
  5
1828
330
180E
100
AcDbEntity
  8
wText
100
AcDbText
 10
49.21642804429951
 20
-163.1711010718271
 30
0.0
 40
1.8
  1
?
  7
Arial
100
AcDbText
  0
LWPOLYLINE
  5
1829
330
180E
100
AcDbEntity
  8
wBorder
100
AcDbPolyline
 90
        4
 70
     1
 43
0.0
 10
-74.9693864412749
 20
-170.7744534443453
 10
95.0306135587251
 20
-170.7744534443453
 10
95.0306135587251
 20
89.22554655565472
 10
-74.9693864412749
 20
89.22554655565472
  0
LWPOLYLINE
  5
182A
330
180E
100
AcDbEntity
  8
wBorder
100
AcDbPolyline
 90
        4
 70
     1
 43
0.0
 10
-74.9693864412749
 20
-170.7744534443453
 10
-34.96938644127491
 20
-170.7744534443453
 10
-34.96938644127491
 20
-139.7744534443453
 10
-74.9693864412749
 20
-139.7744534443453
  0
LWPOLYLINE
  5
182B
330
180E
100
AcDbEntity
  8
wBorder
100
AcDbPolyline
 90
        4
 70
     1
 43
0.0
 10
-34.96938644127491
 20
-153.7744534443453
 10
95.0306135587251
 20
-153.7744534443453
 10
95.0306135587251
 20
-170.7744534443453
 10
-34.96938644127491
 20
-170.7744534443453
  0
LWPOLYLINE
  5
182C
330
180E
100
AcDbEntity
  8
wBorder
100
AcDbPolyline
 90
        4
 70
     1
 43
0.0
 10
-34.96938644127491
 20
-139.7744534443453
 10
95.0306135587251
 20
-139.7744534443453
 10
95.0306135587251
 20
-153.7744534443453
 10
-34.96938644127491
 20
-153.7744534443453
  0
LWPOLYLINE
  5
182D
330
180E
100
AcDbEntity
  8
wBorderthin
100
AcDbPolyline
 90
        2
 70
     0
 43
0.0
 10
-19.96938644127491
 20
-153.7744534443453
 10
-19.96938644127491
 20
-170.7744534443453
  0
LWPOLYLINE
  5
182E
330
180E
100
AcDbEntity
  8
wBorderthin
100
AcDbPolyline
 90
        2
 70
     0
 43
0.0
 10
17.03061355872509
 20
-153.7744534443453
 10
17.03061355872509
 20
-165.1044534443453
  0
LWPOLYLINE
  5
182F
330
180E
100
AcDbEntity
  8
wBorderthin
100
AcDbPolyline
 90
        2
 70
     0
 43
0.0
 10
47.03061355872509
 20
-153.7744534443453
 10
47.03061355872509
 20
-165.1044534443453
  0
POLYLINE
  5
1830
330
180E
100
AcDbEntity
  8
M-COLOR
100
AcDb2dPolyline
 66
     1
 10
0.0
 20
0.0
 30
0.0
1001
M-COLOR__358644234323
1000
PAPER
1040
1.0
1000
meter
1002
{
1004
000000000000000000000000000000000000000000000000000000000000F03F0000000000000000
1002
}
1002
{
1004
5C5C444F5345525645525C4C617365724A657420353530302050530000000000010402059C00BC1053FF800301000900EA0A6F0864000100E9045802020001005802030000004C6574746572000000000000000000000000000000000000000000000000000000000000000000000000000000000100000000000000010000
1004
000200000001010000000000000000000000000000000000000000000050524956E2300000000000000000000000000000000000000000000000000000000000000000000000000000000000000000000000000000000000000000000000000000000000000000000000000000000000000000000018000000000010271027
1004
10270000102700000000000000000000C4020000000000000000000000000000000000000000000000000300000000000000F80D10005C4B03006843040000000000000000000100010000000000000000000000000000000000D39C0FCA1F0000000000000000000000000000000000000000000000010000000300FF0000
1004
00FF0000000100000000000000000004000300040003000400040005000300000000000000000000000000000000000000000000000000000000000000000000000000000000000000000000000000000000000000000000000000000000000000000000000000000000000000000000000000000000000000000000000000
1004
00000000000000000000000000000000000000000000000000000000000000000000000000000000000000000000000000000000000000000000000000000000000000000000000000000000000000000000000000000000000000000000000000000000000000000000000000000000000000000000000000000000000000
1004
00000000000000000000000000000000000000000000000000000000000000000000000000000000000000000000000000000000000000000000000000000000000000000000000000000000000000000000000000000000000000000000000000000000000000000000000000000000000000000000000000000000000000
1004
000000000000000000000000000000000000000000000000000000000000000000000000000000000000000000000000000000000000000000000000000000000000000000000000000000000000000000000000000000000000000000000000000000000000F80D0000495550480000110000000000020000000300000001
1004
00000000000000000000000300000000000000010001006400010000000300020000000100000002000000410034000000000000000000000000000000000000000000000000000000000000000000010000000600000000000000000000000000000000000000000000000000000000000000000000000000000000000000
1004
0000000000000000000000000000000020005B006E006F006E0065005D0000000000000000000000000000000000000000000000000000000000000000000000000000000000000000000000000000000000000000000000000000000000000000000000000000000000000000000000000000000000000000000000000000
1004
00000000000000000000000000000000000000000000000000000000000000000000000000000000000000000000000000000000000000000000000000000000000000000000000000000000000000000000000000000000000000000000000000000000000000000000000000000000000000000000000000000000000000
1004
00000000000000000000000000000000000000000000000000000000000000000000000000000000000000000000000000000000000000000000000000000000000000000000000000000000000000000000000000000000000000000000000000000000000000000000000000000000000000000000000000000000000000
1004
00000000000000000000000000000000000000000000000000000000000000000000000000000000000000000000000000000000000000000000000000000000000000000000000000000000000000000000000000000000000000000000000000000000000000000000000000000000000000000000000000000000000000
1004
000000000000000000000000000000000000000020005B006E006F006E0065005D00000000000000000000000000000000000000000000000000000000000000000000000000000000000000000000000000000000000000000000000000000000000000000000000000000000000000000000000000000000000000000000
1004
00000000000000000000000000000000000000000000000000000000000000000000000000000000000000000000000000000000000000000000000000000000000000000000000000000000000000000000000000000000000000000000000000000000000000000000000000000000000000000000000000000000000000
1004
00000000000000000000000000000000000000000000000000000000000000000000000000000000000000000000000000000000000000000000000000000000000000000000000000000000000000000000000000000000000000000000000000000000000000000000000000000000000000000000000000000000000000
1004
00000000000000000000000000000000000000000000000000000000000000000000000000000000000000000000000000000000000000000000000000000000000000000000000000000000000000000000000000000000000000000000000000000000000000000000000000000000000000000000000000000000000000
1004
00000000000000000000000000000000000000000000000041007200690061006C00000000000000000000000000000000000000000000000000000000000000000000000000000000000000000000000000000000000000000000000000000000000000000000000000000000000000000000000000000000000000000000
1004
00000000000000000000000000000000000000000000000000000000000000000000000000000000000000000000000000000000000000000000000000000000000000000000000000000000000000000000000000000000000000000000000000000000000000000000000000000000000000000000000000000000000000
1004
00000000000000000000000000000000000000000000000000000000000000000000000000000000000000000000000000000000000000000000000000000000000000000000000000000000000000000000000000000000000000000000000000000000000000000000000000000000000000000000000000000000000000
1004
00000000000000000000000000000000000000000000000000000000000000000000000000000000000000000000000000000000000000000000000000000000000000000000000000000000000000000000000000000000000000000000000000000000000000000000000000000000000000000000000000000000000000
1004
000000000000000000000000000000000000000000000000000000003400000050000000000000000100000000000000C0C0C00000000000C0C0C00004000000000000000000000000000000010000000100000064000000000000000000803F00000000000000000000000000000000010000000100000000000000000000
1004
00000000005000410055004C005F004D000000000000000000000000000000000000000000000000000000000000000000000000000000000000000000000000000000000000000000000000000000000000000000000000000000000000000000000000000000000000000000000000000000000000000000000000000000
1004
00000000000000000000000000000000000000000000000000000000000000000000000000000000000000000000000000000000000000000000000000000000000000000000000000000000000000000000000000000000000000000000000000000000000000000000000000000000000000000000000000000000000000
1004
00000000000000000000000000000000000000000000000000000000000000000000000000000000000000000000000000000000000000000000000000000000000000000000000000000000000000000000000000000000000000000000000000000000000000000000000000000000000000000000000000000000000000
1004
00000000000000000000000000000000000000000000000000000000000000000000000000000000000000000000000000000000000000000000000000000000000000000000000000000000000000000000000000000000000000000000000000000000000000000000000000000000000000000000000000000000000000
1004
00000000000000000055004E005400490054004C0045004400000000000000000000000000000000000000000000000000000000000000000000000000000000000000000000000000000000000000000000000000000000000000000000000000000000000000000000000000000000000000000000000000000000000000
1004
00000000000000000000000000000000000000000000000000000000000000000000000000000000000000000000000000000000000000000000000000000000000000000000000000000000000000000000000000000000000000000000000000000000000000000000000000000000000000000000000000000000000000
1004
00000000000000000000000000000000000000000000000000000000000000000000000000000000000000000000000000000000000000000000000000000000000000000000000000000000000000000000000000000000000000000000000000000000000000000000000000000000000000000000000000000000000000
1004
00000000000000000000000000000000000000000000000000000000000000000000000000000000000000000000000000000000000000000000000000000000000000000000000000000000000000000000000000000000000000000000000000000000000000000000000000000000000000000000000000000000000000
1004
0000000000000000000000000000000000010000000100000001000000010000000100000001000000010000000100000001000000000000000000000001000000000000000000000000000000BF000000000000000F0000000001000000000000050100000000000000000000FFFFFFFF00000000000000000F0000000000
1004
00000F00000001010000000000000000000000000000000000000000000000000000000000000000000000000000000000000000000000000000000000000000000000000000000000000000000000000000000000000000000000000000000000000000000000000000000000000000000000000000000000000000000000
1004
00000000000000000000000000000000000000000000000000000000000000000000000000000000000000000000000000000000000000000000000000000000000000000000000000000000000000000000000000000000000000000000000000000000000000000000000000000000000000000000000000000000000000
1004
00000000000000000000000000000000000000000000000000000000000000000000000000000000000000000000000000000000000000000000000000000000000000000000000000000000000000000000000000000000000000000000000000000000000000000000000000000000000000000000000000000000000000
1004
00000000000000000000000000000000000000000000000000000000000000000000000000000000000000000000000000000000000000000000000000000000000000000000000000000000000000000000000000000000000000000000000000000000000000000000000000000000000000000000000000000000000000
1004
000000000000000000000000000000000000000000005300530050005F005300540044005000410047004500310000000000000000000000000000000000000000000000000000000000000000000000000000000000000000000000000000000000000000000000000000000000000000000000000000000000
1002
}
1002
{
1004
080012002F00010077696E73706F6F6C00005C5C444F5345525645525C4C617365724A6574203535303020505300006870636F6C6F724C617365724A65743535303000
1002
}
  0
VERTEX
  5
1831
330
1830
100
AcDbEntity
  8
M-COLOR
100
AcDbVertex
100
AcDb2dVertex
 10
-94.9693864412749
 20
-191.7744534443453
 30
0.0
  0
VERTEX
  5
1832
330
1830
100
AcDbEntity
  8
M-COLOR
100
AcDbVertex
100
AcDb2dVertex
 10
-94.9693864412749
 20
105.2255465556547
 30
0.0
  0
VERTEX
  5
1833
330
1830
100
AcDbEntity
  8
M-COLOR
100
AcDbVertex
100
AcDb2dVertex
 10
115.0306135587251
 20
105.2255465556547
 30
0.0
  0
VERTEX
  5
1834
330
1830
100
AcDbEntity
  8
M-COLOR
100
AcDbVertex
100
AcDb2dVertex
 10
115.0306135587251
 20
-191.7744534443453
 30
0.0
  0
VERTEX
  5
1835
330
1830
100
AcDbEntity
  8
M-COLOR
100
AcDbVertex
100
AcDb2dVertex
 10
-94.9693864412749
 20
-191.7744534443453
 30
0.0
  0
VERTEX
  5
1836
330
1830
100
AcDbEntity
  8
M-COLOR
100
AcDbVertex
100
AcDb2dVertex
 10
-94.9693864412749
 20
-162.0744534443453
 30
0.0
  0
VERTEX
  5
1837
330
1830
100
AcDbEntity
  8
M-COLOR
100
AcDbVertex
100
AcDb2dVertex
 10
-99.4243864412749
 20
-162.0744534443453
 30
0.0
  0
VERTEX
  5
1838
330
1830
100
AcDbEntity
  8
M-COLOR
100
AcDbVertex
100
AcDb2dVertex
 10
-94.9693864412749
 20
-141.2844534443453
 30
0.0
  0
VERTEX
  5
1839
330
1830
100
AcDbEntity
  8
M-COLOR
100
AcDbVertex
100
AcDb2dVertex
 10
-94.9693864412749
 20
-191.7744534443453
 30
0.0
  0
VERTEX
  5
183A
330
1830
100
AcDbEntity
  8
M-COLOR
100
AcDbVertex
100
AcDb2dVertex
 10
-65.2693864412749
 20
-191.7744534443453
 30
0.0
  0
VERTEX
  5
183B
330
1830
100
AcDbEntity
  8
M-COLOR
100
AcDbVertex
100
AcDb2dVertex
 10
-65.2693864412749
 20
-196.2294534443453
 30
0.0
  0
VERTEX
  5
183C
330
1830
100
AcDbEntity
  8
M-COLOR
100
AcDbVertex
100
AcDb2dVertex
 10
-44.4793864412749
 20
-191.7744534443453
 30
0.0
  0
VERTEX
  5
183D
330
1830
100
AcDbEntity
  8
M-COLOR
100
AcDbVertex
100
AcDb2dVertex
 10
-94.9693864412749
 20
-191.7744534443453
 30
0.0
  0
SEQEND
  5
183E
330
1830
100
AcDbEntity
  8
M-COLOR
  0
TEXT
  5
183F
330
180E
100
AcDbEntity
  8
wText
100
AcDbText
 10
-32.28809392414996
 20
-149.9790905018009
 30
0.0
 40
1.25
  1
Contains Ordnance Survey data © Crown Copyright and database right 2012.
  7
Arial
100
AcDbText
  0
HATCH
  5
1840
330
180E
100
AcDbEntity
  8
wLogo
100
AcDbHatch
 10
0.0
 20
0.0
 30
0.0
210
0.0
220
0.0
230
1.0
  2
SOLID
 70
     1
 71
     1
 91
        4
 92
        7
 72
     0
 73
     1
 93
        4
 10
-70.6173864412749
 20
-166.4224534443453
 10
-62.6173864412749
 20
-166.4224534443453
 10
-62.6173864412749
 20
-158.4224534443453
 10
-70.6173864412749
 20
-158.4224534443453
 97
        1
330
1841
 92
       22
 72
     0
 73
     1
 93
        4
 10
-69.2319864259762
 20
-159.0167139813299
 10
-64.00318642597624
 20
-159.0167139813299
 10
-64.00318642597624
 20
-160.7599139813299
 10
-69.2319864259762
 20
-160.7599139813299
 97
        1
330
1844
 92
       22
 72
     0
 73
     1
 93
        4
 10
-69.2319864259762
 20
-161.0039139813299
 10
-67.48878642597619
 20
-161.0039139813299
 10
-67.4887864259762
 20
-165.8287139813299
 10
-69.23198642597619
 20
-165.8287139813299
 97
        1
330
1843
 92
       22
 72
     0
 73
     1
 93
        4
 10
-65.74558642597616
 20
-161.0039139813299
 10
-64.00238642597621
 20
-161.0039139813299
 10
-64.0023864259762
 20
-165.8287139813299
 10
-65.7455864259762
 20
-165.8287139813299
 97
        1
330
1842
 75
     0
 76
     1
 47
0.0368075626144011
 98
        4
 10
-69.82413121421737
 20
-159.5876077884804
 10
-69.82413121421737
 20
-159.5876077884804
 10
-69.82413121421737
 20
-159.5876077884804
 10
-69.82413121421737
 20
-159.5876077884804
450
        0
451
        0
460
0.0
461
0.0
452
        1
462
1.0
453
        2
463
0.0
 63
     5
421
      255
463
1.0
 63
     7
421
 16777215
470
LINEAR
  0
LWPOLYLINE
  5
1841
102
{ACAD_REACTORS
330
1840
102
}
330
180E
100
AcDbEntity
  8
wLogo
100
AcDbPolyline
 90
        4
 70
     1
 43
0.0
 10
-70.6173864412749
 20
-166.4224534443453
 10
-62.6173864412749
 20
-166.4224534443453
 10
-62.6173864412749
 20
-158.4224534443453
 10
-70.6173864412749
 20
-158.4224534443453
  0
LWPOLYLINE
  5
1842
102
{ACAD_REACTORS
330
1840
102
}
330
180E
100
AcDbEntity
  8
wLogo
100
AcDbPolyline
 90
        4
 70
     1
 43
0.0
 10
-65.7455864259762
 20
-165.8287139813299
 10
-64.0023864259762
 20
-165.8287139813299
 10
-64.0023864259762
 20
-161.0039139813299
 10
-65.7455864259762
 20
-161.0039139813299
  0
LWPOLYLINE
  5
1843
102
{ACAD_REACTORS
330
1840
102
}
330
180E
100
AcDbEntity
  8
wLogo
100
AcDbPolyline
 90
        4
 70
     1
 43
0.0
 10
-69.2319864259762
 20
-165.8287139813299
 10
-67.4887864259762
 20
-165.8287139813299
 10
-67.4887864259762
 20
-161.0039139813299
 10
-69.2319864259762
 20
-161.0039139813299
  0
LWPOLYLINE
  5
1844
102
{ACAD_REACTORS
330
1840
102
}
330
180E
100
AcDbEntity
  8
wLogo
100
AcDbPolyline
 90
        4
 70
     1
 43
0.0
 10
-69.2319864259762
 20
-160.7599139813299
 10
-64.00318642597622
 20
-160.7599139813299
 10
-64.00318642597622
 20
-159.0167139813299
 10
-69.2319864259762
 20
-159.0167139813299
  0
TEXT
  5
1845
330
180E
100
AcDbEntity
  8
wText
100
AcDbText
 10
-169.2206723976582
 20
-111.7760992434219
 30
0.0
 40
1.25
  1
Contains Ordnance Survey data © Crown copyright and database right 2012.
100
AcDbText
  0
ENDBLK
  5
1849
330
180E
100
AcDbEntity
  8
0
100
AcDbBlockEnd
  0
ENDSEC
  0
SECTION
  2
ENTITIES
  0
IMAGE
  5
C8A
330
6B
100
AcDbEntity
  8
0
160
               140
310
8C00000001000000840000000600000005000000B496071009272041A9F1A217294D064100000000000000001C14CE7409272041616FE2BA184D06410000000000000000EF16A63F0D272041222499301A4D064100000000000000008699DFDA0C2720416BA6598D2A4D06410000000000000000B496071009272041A9F1A2
310
17294D06410000000000000000
100
AcDbRasterImage
 90
        0
 10
529284.5313078971
 20
182693.1365412597
 30
0.0
 11
0.0002391577856415278
 21
-0.002485162887750805
 31
0.0
 12
0.002485162887750806
 22
0.0002391577856415279
 32
0.0
 13
823.0
 23
763.0
340
C88
 70
     7
280
     0
281
    50
282
    50
283
     0
360
C8B
 71
     1
 91
        2
 14
-0.5
 24
-0.5
 14
822.5
 24
762.5
290
     0
  0
IMAGE
  5
D43
330
6B
100
AcDbEntity
  8
0
160
               140
310
8C000000010000008400000006000000050000003C2C8C4908272041DF028324A94C0641000000000000000067E9B7AB04272041553EEFE1A94C06410000000000000000FED6A682042720414B8E6E569D4C06410000000000000000D3197B2008272041D55202999C4C064100000000000000003C2C8C4908272041DF0283
310
24A94C06410000000000000000
100
AcDbRasterImage
 90
        0
 10
529284.1436475585
 20
182677.1428280091
 30
0.0
 11
-0.002052508568003945
 21
0.0001049847819696541
 31
0.0
 12
-0.0001049847819696541
 22
-0.002052508568003944
 32
0.0
 13
881.0
 23
764.0
340
D40
 70
     7
280
     0
281
    50
282
    50
283
     0
360
D44
 71
     1
 91
        2
 14
-0.5
 24
-0.5
 14
880.5
 24
763.5
290
     0
  0
LWPOLYLINE
  5
1768
330
6B
100
AcDbEntity
  8
Background
100
AcDbPolyline
 90
        4
 70
   129
 43
0.0
 10
529353.6688250323
 20
182684.5341474524
 10
529352.9139829922
 20
182684.5381860671
 10
529352.9162869393
 20
182685.2904898472
 10
529353.6683820097
 20
182685.2925190777
  0
LWPOLYLINE
  5
1769
330
6B
100
AcDbEntity
  8
Background
100
AcDbPolyline
 90
        4
 70
   129
 43
0.0
 10
529353.9704740812
 20
182684.232768608
 10
529352.6074740811
 20
182684.2327686081
 10
529352.6074740815
 20
182685.5927686081
 10
529353.9704740816
 20
182685.5927686081
  0
LWPOLYLINE
  5
176A
330
6B
100
AcDbEntity
  8
Background
100
AcDbPolyline
 90
        2
 70
   128
 43
0.0
 10
529353.6332688659
 20
182685.2524745484
 10
529352.9534650347
 20
182685.2523373514
  0
LWPOLYLINE
  5
176B
330
6B
100
AcDbEntity
  8
Background
100
AcDbPolyline
 90
        2
 70
   128
 43
0.0
 10
529353.6332688659
 20
182685.2524745484
 10
529353.6292964171
 20
182684.5750150657
  0
LWPOLYLINE
  5
176C
330
6B
100
AcDbEntity
  8
Background
100
AcDbPolyline
 90
        2
 70
   128
 43
0.0
 10
529353.6292964171
 20
182684.5750150657
 10
529352.9496369965
 20
182684.5711384739
  0
LWPOLYLINE
  5
176D
330
6B
100
AcDbEntity
  8
Background
100
AcDbPolyline
 90
        2
 70
   128
 43
0.0
 10
529352.9534650347
 20
182685.2523373514
 10
529352.9496369965
 20
182684.5711384739
  0
LWPOLYLINE
  5
176E
330
6B
100
AcDbEntity
  8
Background
100
AcDbPolyline
 90
        2
 70
   128
 43
0.0
 10
529353.6683820097
 20
182685.2925190777
 10
529353.6332688659
 20
182685.2524745484
  0
LWPOLYLINE
  5
176F
330
6B
100
AcDbEntity
  8
Background
100
AcDbPolyline
 90
        2
 70
   128
 43
0.0
 10
529353.6688250323
 20
182684.5341474524
 10
529353.6292964171
 20
182684.5750150657
  0
LWPOLYLINE
  5
1770
330
6B
100
AcDbEntity
  8
Background
100
AcDbPolyline
 90
        2
 70
   128
 43
0.0
 10
529352.9139829922
 20
182684.5381860671
 10
529352.9496369965
 20
182684.5711384739
  0
LWPOLYLINE
  5
1771
330
6B
100
AcDbEntity
  8
Background
100
AcDbPolyline
 90
        2
 70
   128
 43
0.0
 10
529352.9162869393
 20
182685.2904898472
 10
529352.9534650347
 20
182685.2523373514
  0
LWPOLYLINE
  5
1772
330
6B
100
AcDbEntity
  8
Middleground
100
AcDbPolyline
 90
        2
 70
   128
 43
0.0
 10
529353.600878221
 20
182685.2248728526
 10
529353.344246665
 20
182685.2217575506
  0
LWPOLYLINE
  5
1773
330
6B
100
AcDbEntity
  8
Middleground
100
AcDbPolyline
 90
        2
 70
   128
 43
0.0
 10
529353.2089303301
 20
182685.2201149185
 10
529352.9822998351
 20
182685.2173638053
  0
LWPOLYLINE
  5
1774
330
6B
100
AcDbEntity
  8
Middleground
100
AcDbPolyline
 90
        2
 70
   128
 43
0.0
 10
529353.600878221
 20
182685.2248728526
 10
529353.6034904175
 20
182684.9797657053
  0
LWPOLYLINE
  5
1775
330
6B
100
AcDbEntity
  8
Middleground
100
AcDbPolyline
 90
        2
 70
   128
 43
0.0
 10
529353.6049084559
 20
182684.8467085911
 10
529353.6074232414
 20
182684.6107417042
  0
LWPOLYLINE
  5
1776
330
6B
100
AcDbEntity
  8
Middleground
100
AcDbPolyline
 90
        2
 70
   128
 43
0.0
 10
529352.9822998351
 20
182685.2173638053
 10
529352.9864640963
 20
182684.9690883244
  0
LWPOLYLINE
  5
1777
330
6B
100
AcDbEntity
  8
Middleground
100
AcDbPolyline
 90
        2
 70
   128
 43
0.0
 10
529352.9887658854
 20
182684.8318544414
 10
529352.9926442063
 20
182684.6006268813
  0
LWPOLYLINE
  5
1778
330
6B
100
AcDbEntity
  8
Middleground
100
AcDbPolyline
 90
        2
 70
   128
 43
0.0
 10
529353.6074232414
 20
182684.6107417042
 10
529353.361402405
 20
182684.606693978
  0
LWPOLYLINE
  5
1779
330
6B
100
AcDbEntity
  8
Middleground
100
AcDbPolyline
 90
        2
 70
   128
 43
0.0
 10
529353.2256630313
 20
182684.6044606883
 10
529352.9926442063
 20
182684.6006268813
  0
LWPOLYLINE
  5
177A
330
6B
100
AcDbEntity
  8
Middleground
100
AcDbPolyline
 90
        3
 70
   128
 43
0.0
 10
529353.2104310376
 20
182685.135742658
 10
529353.0485014637
 20
182685.1319032625
 10
529353.0518112504
 20
182684.9704964622
  0
LWPOLYLINE
  5
177B
330
6B
100
AcDbEntity
  8
Middleground
100
AcDbPolyline
 90
        3
 70
   128
 43
0.0
 10
529353.0546211365
 20
182684.8334680805
 10
529353.0580453072
 20
182684.6664831763
 10
529353.22466873
 20
182684.6701418739
  0
LWPOLYLINE
  5
177C
330
6B
100
AcDbEntity
  8
Middleground
100
AcDbPolyline
 90
        3
 70
   128
 43
0.0
 10
529353.3602042553
 20
182684.6731179471
 10
529353.5274724214
 20
182684.6767908019
 10
529353.524527994
 20
182684.8448791976
  0
LWPOLYLINE
  5
177D
330
6B
100
AcDbEntity
  8
Middleground
100
AcDbPolyline
 90
        3
 70
   128
 43
0.0
 10
529353.5221983953
 20
182684.9778688853
 10
529353.5193046125
 20
182685.1430661369
 10
529353.3466473713
 20
182685.1389723854
  0
LWPOLYLINE
  5
177E
330
6B
100
AcDbEntity
  8
Middleground
100
AcDbPolyline
 90
        2
 70
   128
 43
0.0
 10
529353.600878221
 20
182685.2248728526
 10
529353.5193046125
 20
182685.1430661369
  0
LWPOLYLINE
  5
177F
330
6B
100
AcDbEntity
  8
Middleground
100
AcDbPolyline
 90
        2
 70
   128
 43
0.0
 10
529353.0485014637
 20
182685.1319032625
 10
529352.9822998351
 20
182685.2173638053
  0
LWPOLYLINE
  5
1780
330
6B
100
AcDbEntity
  8
Middleground
100
AcDbPolyline
 90
        2
 70
   128
 43
0.0
 10
529353.0580453072
 20
182684.6664831763
 10
529352.9926442063
 20
182684.6006268813
  0
LWPOLYLINE
  5
1781
330
6B
100
AcDbEntity
  8
Middleground
100
AcDbPolyline
 90
        2
 70
   128
 43
0.0
 10
529353.6074232414
 20
182684.6107417042
 10
529353.5274724214
 20
182684.6767908019
  0
LWPOLYLINE
  5
1782
330
6B
100
AcDbEntity
  8
Middleground
100
AcDbPolyline
 90
        2
 70
   128
 43
0.0
 10
529352.9645611967
 20
182685.2335744077
 10
529352.9639634106
 20
182685.1829523147
  0
LWPOLYLINE
  5
1783
330
6B
100
AcDbEntity
  8
Middleground
100
AcDbPolyline
 90
        2
 70
   128
 43
0.0
 10
529352.9739265045
 20
182684.6338452459
 10
529352.9750402564
 20
182684.5816599823
  0
LWPOLYLINE
  5
1784
330
6B
100
AcDbEntity
  8
Middleground
100
AcDbPolyline
 90
        2
 70
   128
 43
0.0
 10
529353.5649014662
 20
182685.2417404135
 10
529353.6221627528
 20
182685.2424708387
  0
LWPOLYLINE
  5
1785
330
6B
100
AcDbEntity
  8
Middleground
100
AcDbPolyline
 90
        3
 70
   128
 43
0.0
 10
529353.6266461351
 20
182684.6423770881
 10
529353.6262285495
 20
182684.5896243198
 10
529353.574666038
 20
182684.5888084545
  0
LWPOLYLINE
  5
1786
330
6B
100
AcDbEntity
  8
Middleground
100
AcDbPolyline
 90
        2
 70
   128
 43
0.0
 10
529353.0252435302
 20
182684.580829262
 10
529352.9750402564
 20
182684.5816599823
  0
LWPOLYLINE
  5
1787
330
6B
100
AcDbEntity
  8
Middleground
100
AcDbPolyline
 90
        2
 70
   128
 43
0.0
 10
529353.600878221
 20
182685.2248728526
 10
529353.6221627528
 20
182685.2424708387
  0
LWPOLYLINE
  5
1788
330
6B
100
AcDbEntity
  8
Middleground
100
AcDbPolyline
 90
        2
 70
   128
 43
0.0
 10
529352.9822998351
 20
182685.2173638053
 10
529352.9645611967
 20
182685.2335744077
  0
LWPOLYLINE
  5
1789
330
6B
100
AcDbEntity
  8
Middleground
100
AcDbPolyline
 90
        2
 70
   128
 43
0.0
 10
529352.9750402564
 20
182684.5816599823
 10
529352.9926442063
 20
182684.6006268813
  0
LWPOLYLINE
  5
178A
330
6B
100
AcDbEntity
  8
Middleground
100
AcDbPolyline
 90
        2
 70
   128
 43
0.0
 10
529353.6074232414
 20
182684.6107417042
 10
529353.6262285495
 20
182684.5896243198
  0
LWPOLYLINE
  5
178B
330
6B
100
AcDbEntity
  8
Middleground
100
AcDbPolyline
 90
        4
 70
   128
 43
0.0
 10
529353.6070877204
 20
182684.6422242429
 10
529353.6266461351
 20
182684.6423770881
 10
529353.6225349802
 20
182685.1926487852
 10
529353.6012724746
 20
182685.1938714636
  0
LWPOLYLINE
  5
178C
330
6B
100
AcDbEntity
  8
Middleground
100
AcDbPolyline
 90
        2
 70
   128
 43
0.0
 10
529353.6225349802
 20
182685.1926487852
 10
529353.6221627528
 20
182685.2424708387
  0
LWPOLYLINE
  5
178D
330
6B
100
AcDbEntity
  8
Middleground
100
AcDbPolyline
 90
        2
 70
   128
 43
0.0
 10
529352.9645611967
 20
182685.2335744077
 10
529353.0150521172
 20
182685.2346710493
  0
SPLINE
  5
178E
330
6B
100
AcDbEntity
  8
Middleground
100
AcDbSpline
210
0.0
220
0.0
230
1.0
 70
    12
 71
     3
 72
    18
 73
    14
 74
     0
 42
0.0000000001
 43
0.0000000001
 40
0.0
 40
0.0
 40
0.0
 40
0.0
 40
1.0
 40
1.0
 40
1.0
 40
2.0
 40
2.0
 40
2.0
 40
2.003937576500139
 40
2.009899628186294
 40
2.013703201209643
 40
2.019081803387117
 40
2.019240828781663
 40
2.019240828781663
 40
2.019240828781663
 40
2.019240828781663
 10
529353.5732361163
 20
182685.2244097586
 30
0.0
 41
1.0
 10
529353.5704578996
 20
182685.2301866435
 30
0.0
 41
1.0
 10
529353.567679683
 20
182685.2359635285
 30
0.0
 41
1.0
 10
529353.5630995091
 20
182685.245348238
 30
0.0
 41
1.0
 10
529353.3836815767
 20
182685.2394287712
 30
0.0
 41
1.0
 10
529353.2024616871
 20
182685.2371171289
 30
0.0
 41
1.0
 10
529353.014980738
 20
182685.2369919136
 30
0.0
 41
1.0
 10
529353.0152424554
 20
182685.2314031411
 30
0.0
 41
1.0
 10
529353.0140782833
 20
182685.2259100643
 30
0.0
 41
1.0
 10
529353.0118093042
 20
182685.2252684021
 30
0.0
 41
1.0
 10
529353.0122817516
 20
182685.2228480609
 30
0.0
 41
1.0
 10
529353.0126282506
 20
182685.2201134973
 30
0.0
 41
1.0
 10
529353.0132583018
 20
182685.217806689
 30
0.0
 41
1.0
 10
529353.0132767884
 20
182685.2177398408
 30
0.0
 41
1.0
  0
LWPOLYLINE
  5
178F
330
6B
100
AcDbEntity
  8
Middleground
100
AcDbPolyline
 90
        3
 70
   128
 43
0.0
 10
529352.9921001832
 20
182684.6330618357
 10
529352.9709402478
 20
182684.6339739739
 10
529352.9684317634
 20
182684.8313561982
  0
LWPOLYLINE
  5
1790
330
6B
100
AcDbEntity
  8
Middleground
100
AcDbPolyline
 90
        3
 70
   128
 43
0.0
 10
529352.9666867742
 20
182684.9686621514
 10
529352.9639634106
 20
182685.1829523147
 10
529352.9830819204
 20
182685.1842311717
  0
LWPOLYLINE
  5
1791
330
6B
100
AcDbEntity
  8
Middleground
100
AcDbPolyline
 90
        3
 70
   128
 43
0.0
 10
529353.0251675514
 20
182684.6008865261
 10
529353.0252435302
 20
182684.580829262
 10
529353.2259766394
 20
182684.5837444832
  0
LWPOLYLINE
  5
1792
330
6B
100
AcDbEntity
  8
Middleground
100
AcDbPolyline
 90
        3
 70
   128
 43
0.0
 10
529353.3617807904
 20
182684.5857167494
 10
529353.574666038
 20
182684.5888084545
 10
529353.5759028445
 20
182684.6100882371
  0
LWPOLYLINE
  5
1793
330
6B
100
AcDbEntity
  8
Middleground
100
AcDbPolyline
 90
        3
 70
   128
 43
0.0
 10
529353.2105920692
 20
182685.1266891905
 10
529353.0621768098
 20
182685.123272158
 10
529353.0651936528
 20
182684.9707848338
  0
LWPOLYLINE
  5
1794
330
6B
100
AcDbEntity
  8
Middleground
100
AcDbPolyline
 90
        3
 70
   128
 43
0.0
 10
529353.0679039184
 20
182684.833793546
 10
529353.0709488541
 20
182684.6798862697
 10
529353.2244767366
 20
182684.6828245077
  0
LWPOLYLINE
  5
1795
330
6B
100
AcDbEntity
  8
Middleground
100
AcDbPolyline
 90
        3
 70
   128
 43
0.0
 10
529353.3599823911
 20
182684.6854178338
 10
529353.5149055921
 20
182684.6883827757
 10
529353.5114916225
 20
182684.8445825005
  0
LWPOLYLINE
  5
1796
330
6B
100
AcDbEntity
  8
Middleground
100
AcDbPolyline
 90
        3
 70
   128
 43
0.0
 10
529353.5085853994
 20
182684.9775512476
 10
529353.5051775365
 20
182685.1334715666
 10
529353.3469125584
 20
182685.1298277596
  0
LWPOLYLINE
  5
1797
330
6B
100
AcDbEntity
  8
Middleground
100
AcDbPolyline
 90
        2
 70
   128
 43
0.0
 10
529353.0733804109
 20
182685.1112424222
 10
529353.210804708
 20
182685.114734281
  0
LWPOLYLINE
  5
1798
330
6B
100
AcDbEntity
  8
Middleground
100
AcDbPolyline
 90
        3
 70
   128
 43
0.0
 10
529353.347249718
 20
182685.1182012567
 10
529353.4944074769
 20
182685.1219404361
 10
529353.4977391487
 20
182684.9772981676
  0
LWPOLYLINE
  5
1799
330
6B
100
AcDbEntity
  8
Middleground
100
AcDbPolyline
 90
        3
 70
   128
 43
0.0
 10
529353.5008017088
 20
182684.8443392068
 10
529353.5041706089
 20
182684.6980807004
 10
529353.3598034367
 20
182684.6953388437
  0
LWPOLYLINE
  5
179A
330
6B
100
AcDbEntity
  8
Middleground
100
AcDbPolyline
 90
        3
 70
   128
 43
0.0
 10
529353.224326242
 20
182684.6927658277
 10
529353.081894211
 20
182684.6900607237
 10
529353.0789832968
 20
182684.834065022
  0
LWPOLYLINE
  5
179B
330
6B
100
AcDbEntity
  8
Middleground
100
AcDbPolyline
 90
        2
 70
   128
 43
0.0
 10
529353.0762148311
 20
182684.9710223245
 10
529353.0733804109
 20
182685.1112424222
  0
LWPOLYLINE
  5
179C
330
6B
100
AcDbEntity
  8
Middleground
100
AcDbPolyline
 90
        2
 70
   128
 43
0.0
 10
529353.0826329108
 20
182685.1021348459
 10
529353.0843359567
 20
182684.9711973231
  0
LWPOLYLINE
  5
179D
330
6B
100
AcDbEntity
  8
Middleground
100
AcDbPolyline
 90
        3
 70
   128
 43
0.0
 10
529353.0861173018
 20
182684.8342398252
 10
529353.0879001712
 20
182684.6971651326
 10
529353.2242086348
 20
182684.7005346779
  0
LWPOLYLINE
  5
179E
330
6B
100
AcDbEntity
  8
Middleground
100
AcDbPolyline
 90
        3
 70
   128
 43
0.0
 10
529353.3596493221
 20
182684.7038827718
 10
529353.4921487622
 20
182684.7071581581
 10
529353.4893797071
 20
182684.8440792514
  0
LWPOLYLINE
  5
179F
330
6B
100
AcDbEntity
  8
Middleground
100
AcDbPolyline
 90
        3
 70
   128
 43
0.0
 10
529353.4866907374
 20
182684.9770403705
 10
529353.4839253448
 20
182685.1137803641
 10
529353.3474927365
 20
182685.1098210858
  0
LWPOLYLINE
  5
17A0
330
6B
100
AcDbEntity
  8
Middleground
100
AcDbPolyline
 90
        2
 70
   128
 43
0.0
 10
529353.2109625707
 20
182685.1058589764
 10
529353.0826329108
 20
182685.1021348459
  0
LWPOLYLINE
  5
17A1
330
6B
100
AcDbEntity
  8
Middleground
100
AcDbPolyline
 90
        2
 70
   128
 43
0.0
 10
529353.0933068434
 20
182685.0924411482
 10
529353.2111627631
 20
182685.0946038391
  0
LWPOLYLINE
  5
17A2
330
6B
100
AcDbEntity
  8
Middleground
100
AcDbPolyline
 90
        3
 70
   128
 43
0.0
 10
529353.3478612816
 20
182685.0971122971
 10
529353.4719485199
 20
182685.0993893345
 10
529353.4739361862
 20
182684.9767427634
  0
LWPOLYLINE
  5
17A3
330
6B
100
AcDbEntity
  8
Middleground
100
AcDbPolyline
 90
        3
 70
   128
 43
0.0
 10
529353.476091093
 20
182684.8437768135
 10
529353.4781171766
 20
182684.718759743
 10
529353.3594195821
 20
182684.7166192792
  0
LWPOLYLINE
  5
17A4
330
6B
100
AcDbEntity
  8
Middleground
100
AcDbPolyline
 90
        3
 70
   128
 43
0.0
 10
529353.2240021086
 20
182684.7141773073
 10
529353.09809847
 20
182684.7119068976
 10
529353.0965548529
 20
182684.8344955746
  0
LWPOLYLINE
  5
17A5
330
6B
100
AcDbEntity
  8
Middleground
100
AcDbPolyline
 90
        2
 70
   128
 43
0.0
 10
529353.0948306788
 20
182684.9714234694
 10
529353.0933068434
 20
182685.0924411482
  0
LWPOLYLINE
  5
17A6
330
6B
100
AcDbEntity
  8
Foreground
100
AcDbPolyline
 90
        3
 70
   128
 43
0.0
 10
529353.206131866
 20
182684.9819549102
 10
529353.2085343467
 20
182684.82498428
 10
529353.3674577385
 20
182684.8300064287
  0
LWPOLYLINE
  5
17A7
330
6B
100
AcDbEntity
  8
Foreground
100
AcDbPolyline
 90
        2
 70
   128
 43
0.0
 10
529353.2085343467
 20
182684.82498428
 10
529353.3674577385
 20
182684.8300064287
  0
LWPOLYLINE
  5
17A8
330
6B
100
AcDbEntity
  8
Foreground
100
AcDbPolyline
 90
        2
 70
   128
 43
0.0
 10
529353.206131866
 20
182684.9819549102
 10
529353.3634101306
 20
182684.9838893129
  0
LWPOLYLINE
  5
17A9
330
6B
100
AcDbEntity
  8
Foreground
100
AcDbPolyline
 90
        2
 70
   128
 43
0.0
 10
529353.3634101306
 20
182684.9838893129
 10
529353.3674577385
 20
182684.8300064287
  0
LWPOLYLINE
  5
17AA
330
6B
100
AcDbEntity
  8
Foreground
100
AcDbPolyline
 90
        3
 70
   128
 43
0.0
 10
529353.2166716891
 20
182684.9743112141
 10
529353.2208718985
 20
182684.836414533
 10
529353.3593611786
 20
182684.8398123892
  0
LWPOLYLINE
  5
17AB
330
6B
100
AcDbEntity
  8
Foreground
100
AcDbPolyline
 90
        2
 70
   128
 43
0.0
 10
529353.2166716891
 20
182684.9743112141
 10
529353.353836505
 20
182684.9759982368
  0
LWPOLYLINE
  5
17AC
330
6B
100
AcDbEntity
  8
Foreground
100
AcDbPolyline
 90
        2
 70
   128
 43
0.0
 10
529353.353846428
 20
182684.9757536305
 10
529353.3593611786
 20
182684.8398123892
  0
LWPOLYLINE
  5
17AD
330
6B
100
AcDbEntity
  8
Foreground
100
AcDbPolyline
 90
        3
 70
   128
 43
0.0
 10
529353.3383332044
 20
182684.963986691
 10
529353.2298454964
 20
182684.9608048053
 10
529353.2336225384
 20
182684.8484951491
  0
LWPOLYLINE
  5
17AE
330
6B
100
AcDbEntity
  8
Foreground
100
AcDbPolyline
 90
        2
 70
   128
 43
0.0
 10
529353.2298454964
 20
182684.9608048053
 10
529353.3383332044
 20
182684.963986691
  0
LWPOLYLINE
  5
17AF
330
6B
100
AcDbEntity
  8
Foreground
100
AcDbPolyline
 90
        2
 70
   128
 43
0.0
 10
529353.2336225384
 20
182684.8484951491
 10
529353.3421102465
 20
182684.8516770347
  0
LWPOLYLINE
  5
17B0
330
6B
100
AcDbEntity
  8
Foreground
100
AcDbPolyline
 90
        2
 70
   128
 43
0.0
 10
529353.2298454964
 20
182684.9608048053
 10
529353.2336225384
 20
182684.8484951491
  0
LWPOLYLINE
  5
17B1
330
6B
100
AcDbEntity
  8
Foreground
100
AcDbPolyline
 90
        2
 70
   128
 43
0.0
 10
529353.3383332044
 20
182684.963986691
 10
529353.3421102465
 20
182684.8516770347
  0
LWPOLYLINE
  5
17B2
330
6B
100
AcDbEntity
  8
Detail
100
AcDbPolyline
 90
        2
 70
   128
 43
0.0
 10
529353.3383332044
 20
182684.963986691
 10
529353.2336225384
 20
182684.8484951491
  0
LWPOLYLINE
  5
17B3
330
6B
100
AcDbEntity
  8
Detail
100
AcDbPolyline
 90
        2
 70
   128
 43
0.0
 10
529353.3421102465
 20
182684.8516770347
 10
529353.2298454964
 20
182684.9608048053
  0
LWPOLYLINE
  5
17B4
330
6B
100
AcDbEntity
  8
Foreground
100
AcDbPolyline
 90
        3
 70
   128
 43
0.0
 10
529353.4109074647
 20
182685.0327757793
 10
529353.1573000597
 20
182685.02995812
 10
529353.1611752986
 20
182684.7774060026
  0
LWPOLYLINE
  5
17B5
330
6B
100
AcDbEntity
  8
Foreground
100
AcDbPolyline
 90
        2
 70
   128
 43
0.0
 10
529353.1573000597
 20
182685.02995812
 10
529353.4109074647
 20
182685.0327757793
  0
LWPOLYLINE
  5
17B6
330
6B
100
AcDbEntity
  8
Foreground
100
AcDbPolyline
 90
        2
 70
   128
 43
0.0
 10
529353.1611752986
 20
182684.7774060026
 10
529353.4147827036
 20
182684.7802236619
  0
LWPOLYLINE
  5
17B7
330
6B
100
AcDbEntity
  8
Foreground
100
AcDbPolyline
 90
        2
 70
   128
 43
0.0
 10
529353.4109074647
 20
182685.0327757793
 10
529353.4147827036
 20
182684.7802236619
  0
LWPOLYLINE
  5
17B8
330
6B
100
AcDbEntity
  8
Foreground
100
AcDbPolyline
 90
        4
 70
   129
 43
0.0
 10
529353.2250365568
 20
182685.2015011891
 10
529353.2268034322
 20
182685.0424710531
 10
529353.3310342423
 20
182685.0436290907
 10
529353.3292673667
 20
182685.2026592267
  0
LWPOLYLINE
  5
17B9
330
6B
100
AcDbEntity
  8
Foreground
100
AcDbPolyline
 90
        6
 70
   128
 43
0.0
 10
529353.3309084157
 20
182685.054954282
 10
529353.3490779776
 20
182685.0551561517
 10
529353.3439425603
 20
182685.232244198
 10
529353.2087445849
 20
182685.2305578132
 10
529353.2118915191
 20
182685.0536319663
 10
529353.2266776058
 20
182685.0537962445
  0
LWPOLYLINE
  5
17BA
330
6B
100
AcDbEntity
  8
Foreground
100
AcDbPolyline
 90
        4
 70
   129
 43
0.0
 10
529352.9900934454
 20
182684.8509584085
 10
529353.1516909377
 20
182684.8494667043
 10
529353.1512005251
 20
182684.9573660063
 10
529352.9908807297
 20
182684.9547681424
  0
LWPOLYLINE
  5
17BB
330
6B
100
AcDbEntity
  8
Foreground
100
AcDbPolyline
 90
        6
 70
   128
 43
0.0
 10
529353.140820104
 20
182684.9571977993
 10
529353.1406510824
 20
182684.9724108336
 10
529352.9617840183
 20
182684.968556504
 10
529352.9638674618
 20
182684.83124436
 10
529353.1468522609
 20
182684.8357280027
 10
529353.146699912
 20
182684.8494403658
  0
LWPOLYLINE
  5
17BC
330
6B
100
AcDbEntity
  8
Foreground
100
AcDbPolyline
 90
        4
 70
   129
 43
0.0
 10
529353.3472870216
 20
182684.6099001363
 10
529353.3413100153
 20
182684.7696332891
 10
529353.2372509864
 20
182684.7672578031
 10
529353.2414965966
 20
182684.6072334147
  0
LWPOLYLINE
  5
17BD
330
6B
100
AcDbEntity
  8
Foreground
100
AcDbPolyline
 90
        6
 70
   128
 43
0.0
 10
529353.2373653316
 20
182684.7629479355
 10
529353.2232661757
 20
182684.7627912894
 10
529353.2260554121
 20
182684.5785409454
 10
529353.3618778279
 20
182684.580337102
 10
529353.3585877735
 20
182684.7627337409
 10
529353.341591166
 20
182684.7621196479
  0
LWPOLYLINE
  5
17BE
330
6B
100
AcDbEntity
  8
Foreground
100
AcDbPolyline
 90
        4
 70
   129
 43
0.0
 10
529353.5781910067
 20
182684.9637743464
 10
529353.4245751841
 20
182684.9618576934
 10
529353.4257332217
 20
182684.8576268834
 10
529353.5819410742
 20
182684.8600827035
  0
LWPOLYLINE
  5
17BF
330
6B
100
AcDbEntity
  8
Foreground
100
AcDbPolyline
 90
        6
 70
   128
 43
0.0
 10
529353.4306567955
 20
182684.8577042893
 10
529353.4306335793
 20
182684.8427422377
 10
529353.6077003963
 20
182684.8467721333
 10
529353.6044402311
 20
182684.9797878676
 10
529353.4326767006
 20
182684.9757800389
 10
529353.432830238
 20
182684.9619606911
  0
LWPOLYLINE
  5
18E0
330
6B
100
AcDbEntity
  8
Middleground
100
AcDbPolyline
 90
        2
 70
   128
 43
0.0
 10
529353.1573000597
 20
182685.02995812
 10
529353.0933068434
 20
182685.0924411482
  0
LWPOLYLINE
  5
18E1
330
6B
100
AcDbEntity
  8
Middleground
100
AcDbPolyline
 90
        2
 70
   128
 43
0.0
 10
529353.1611752986
 20
182684.7774060026
 10
529353.09809847
 20
182684.7119068976
  0
LWPOLYLINE
  5
18E2
330
6B
100
AcDbEntity
  8
Middleground
100
AcDbPolyline
 90
        2
 70
   128
 43
0.0
 10
529353.4147827036
 20
182684.7802236619
 10
529353.4781171766
 20
182684.718759743
  0
LWPOLYLINE
  5
18E3
330
6B
100
AcDbEntity
  8
Middleground
100
AcDbPolyline
 90
        2
 70
   128
 43
0.0
 10
529353.4109074647
 20
182685.0327757793
 10
529353.4719485199
 20
182685.0993893345
  0
LWPOLYLINE
  5
18E4
330
6B
100
AcDbEntity
  8
Middleground
100
AcDbPolyline
 90
        5
 70
   128
 43
0.0
 10
529353.5193046125
 20
182685.1430661369
 10
529353.5051775365
 20
182685.1334715666
 10
529353.4944074769
 20
182685.1219404361
 10
529353.4839253448
 20
182685.1137803641
 10
529353.4839253448
 20
182685.1137803641
  0
LWPOLYLINE
  5
18E5
330
6B
100
AcDbEntity
  8
Middleground
100
AcDbPolyline
 90
        4
 70
   128
 43
0.0
 10
529353.4921487622
 20
182684.7071581581
 10
529353.5041706089
 20
182684.6980807004
 10
529353.5149055921
 20
182684.6883827757
 10
529353.5274724214
 20
182684.6767908019
  0
LWPOLYLINE
  5
18E6
330
6B
100
AcDbEntity
  8
Middleground
100
AcDbPolyline
 90
        4
 70
   128
 43
0.0
 10
529353.0879001712
 20
182684.6971651326
 10
529353.081894211
 20
182684.6900607237
 10
529353.0709488541
 20
182684.6798862697
 10
529353.0580453072
 20
182684.6664831763
  0
LWPOLYLINE
  5
18F9
330
6B
100
AcDbEntity
  8
Foreground
100
AcDbPolyline
 90
        2
 70
   128
 43
0.0
 10
529353.206131866
 20
182684.9819549102
 10
529353.1573000597
 20
182685.02995812
  0
LWPOLYLINE
  5
18FA
330
6B
100
AcDbEntity
  8
Foreground
100
AcDbPolyline
 90
        2
 70
   128
 43
0.0
 10
529353.2085343467
 20
182684.82498428
 10
529353.1611752986
 20
182684.7774060026
  0
LWPOLYLINE
  5
18FB
330
6B
100
AcDbEntity
  8
Foreground
100
AcDbPolyline
 90
        2
 70
   128
 43
0.0
 10
529353.3674577385
 20
182684.8300064287
 10
529353.4147827036
 20
182684.7802236619
  0
LWPOLYLINE
  5
18FC
330
6B
100
AcDbEntity
  8
Foreground
100
AcDbPolyline
 90
        2
 70
   128
 43
0.0
 10
529353.3634101306
 20
182684.9838893129
 10
529353.4109074647
 20
182685.0327757793
  0
LWPOLYLINE
  5
18FD
330
6B
100
AcDbEntity
  8
Foreground
100
AcDbPolyline
 90
        2
 70
   128
 43
0.0
 10
529353.2298454964
 20
182684.9608048053
 10
529353.2166716891
 20
182684.9743112141
  0
LWPOLYLINE
  5
18FE
330
6B
100
AcDbEntity
  8
Foreground
100
AcDbPolyline
 90
        2
 70
   128
 43
0.0
 10
529353.2336225384
 20
182684.8484951491
 10
529353.2208718985
 20
182684.836414533
  0
LWPOLYLINE
  5
18FF
330
6B
100
AcDbEntity
  8
Foreground
100
AcDbPolyline
 90
        2
 70
   128
 43
0.0
 10
529353.3421102465
 20
182684.8516770347
 10
529353.3593611786
 20
182684.8398123892
  0
LWPOLYLINE
  5
1900
330
6B
100
AcDbEntity
  8
Foreground
100
AcDbPolyline
 90
        2
 70
   128
 43
0.0
 10
529353.3383332044
 20
182684.963986691
 10
529353.353836505
 20
182684.9759982368
  0
LWPOLYLINE
  5
190B
330
6B
100
AcDbEntity
  8
Middleground
100
AcDbPolyline
 90
        4
 70
   128
 43
0.0
 10
529353.0826329108
 20
182685.1021348459
 10
529353.0733804109
 20
182685.1112424222
 10
529353.0621768098
 20
182685.123272158
 10
529353.0485014637
 20
182685.1319032625
  0
VIEWPORT
  5
FA3
102
{ACAD_XDICTIONARY
360
FA4
102
}
330
67
100
AcDbEntity
 67
     1
  8
0
100
AcDbViewport
 10
42.04981585901697
 20
-41.95771757679296
 30
0.0
 40
600.6566050497587
 41
314.2820835571289
 68
     1
 69
     1
 12
42.04981585901697
 22
-41.95771757679296
 13
0.0
 23
0.0
 14
10.0
 24
10.0
 15
10.0
 25
10.0
 16
0.0
 26
0.0
 36
1.0
 17
0.0
 27
0.0
 37
0.0
 42
50.0
 43
0.0
 44
0.0
 45
314.2820835571289
 50
0.0
 51
0.0
 72
   100
 90
   819232
  1

281
     0
 71
     1
 74
     0
110
0.0
120
0.0
130
0.0
111
1.0
121
0.0
131
0.0
112
0.0
122
1.0
132
0.0
 79
     0
146
0.0
170
     0
 61
     5
348
2F
292
     1
282
     1
141
0.0
142
0.0
 63
   250
421
  3355443
  0
VIEWPORT
  5
184C
102
{ACAD_XDICTIONARY
360
184D
102
}
330
67
100
AcDbEntity
 67
     1
  8
wVports
100
AcDbViewport
 10
42.04981430929624
 20
-23.95771149711919
 30
0.0
 40
170.0
 41
229.0
 68
     2
 69
     2
 12
529353.2956832529
 22
182684.9641992878
 13
0.0
 23
0.0
 14
1.0
 24
1.0
 15
0.0
 25
0.0
 16
0.0
 26
0.0
 36
1.0
 17
0.0
 27
0.0
 37
0.0
 42
50.0
 43
0.0
 44
0.0
 45
2.290821275139744
 50
0.0
 51
0.0
 72
   100
 90
   819232
  1

281
     0
 71
     1
 74
     0
110
0.0
120
0.0
130
0.0
111
1.0
121
0.0
131
0.0
112
0.0
122
1.0
132
0.0
 79
     0
146
0.0
170
     0
 61
     5
348
2F
292
     1
282
     1
141
0.0
142
0.0
 63
   250
421
  3355443
  0
TEXT
  5
1850
330
67
100
AcDbEntity
 67
     1
  8
wText
100
AcDbText
 10
-0.2238490680806251
 20
-142.3142736714548
 30
0.0
 40
1.25
  1
This material is for client report only © Wessex Archaeology. No unauthorised reproduction.
  7
Arial
100
AcDbText
  0
TEXT
  5
1852
330
67
100
AcDbEntity
 67
     1
  8
wText
100
AcDbText
 10
-43.1129105324616
 20
-174.1891230519161
 30
0.0
 40
2.3
  1
Plan of the Monument to the Christie Family in St James's Gardens, London
  7
title
100
AcDbText
  0
TEXT
  5
1854
330
67
100
AcDbEntity
 67
     1
  8
wText
100
AcDbText
 10
115.7824486754304
 20
-174.0480808140663
 30
0.0
 40
2.3
  1
Figure 1
  7
title
 72
     2
 11
127.5695564516923
 21
-174.0480808140663
 31
0.0
100
AcDbText
  0
TEXT
  5
1855
330
67
100
AcDbEntity
 67
     1
  8
wText
100
AcDbText
 10
4.942349754604304
 20
-167.519359124601
 30
0.0
 40
1.8
  1
Path:
  7
Arial
 72
     2
 11
10.81383679416774
 21
-167.519359124601
 31
0.0
100
AcDbText
  0
TEXT
  5
1856
330
67
100
AcDbEntity
 67
     1
  8
wText
100
AcDbText
 10
14.23562879487065
 20
-167.519359124601
 30
0.0
 40
1.8
  1
S:\PROJECTS\117530\Built_Heritage\CAD_Figures\2017_07_25
  7
Arial
100
AcDbText
  0
LWPOLYLINE
  5
185F
330
67
100
AcDbEntity
 67
     1
  8
wBorderthin
100
AcDbPolyline
 90
        2
 70
     0
 43
0.0
 10
-2.950185690703762
 20
-158.1277114971192
 10
127.0498143092962
 20
-158.1277114971192
  0
LWPOLYLINE
  5
1860
330
67
100
AcDbEntity
 67
     1
  8
wBorderthin
100
AcDbPolyline
 90
        2
 70
     0
 43
0.0
 10
-2.950185690703762
 20
-163.7877114971192
 10
127.0498143092962
 20
-163.7877114971192
  0
TEXT
  5
1861
330
67
100
AcDbEntity
 67
     1
  8
wText
100
AcDbText
 10
3.825023697305531
 20
-161.8593591246011
 30
0.0
 40
1.8
  1
Scale:
  7
Arial
 72
     2
 11
10.81383679416774
 21
-161.8593591246011
 31
0.0
100
AcDbText
  0
TEXT
  5
1862
330
67
100
AcDbEntity
 67
     1
  8
wText
100
AcDbText
 10
14.23562879487065
 20
-161.8593591246011
 30
0.0
 40
1.8
  1
1:10@a3
  7
Arial
100
AcDbText
  0
TEXT
  5
1863
330
67
100
AcDbEntity
 67
     1
  8
wText
100
AcDbText
 10
4.803604870566105
 20
-156.1893591246011
 30
0.0
 40
1.8
  1
Date:
  7
Arial
 72
     2
 11
10.81383679416774
 21
-156.1893591246011
 31
0.0
100
AcDbText
  0
TEXT
  5
1864
330
67
100
AcDbEntity
 67
     1
  8
wText
100
AcDbText
 10
14.23562879487065
 20
-156.1893591246011
 30
0.0
 40
1.8
  1
03/08/2017
  7
Arial
100
AcDbText
  0
TEXT
  5
1865
330
67
100
AcDbEntity
 67
     1
  8
wText
100
AcDbText
 10
57.82966216933828
 20
-156.1893591246011
 30
0.0
 40
1.8
  1
Revision Number:
  7
Arial
 72
     2
 11
77.81383679416774
 21
-156.1893591246011
 31
0.0
100
AcDbText
  0
TEXT
  5
1866
330
67
100
AcDbEntity
 67
     1
  8
wText
100
AcDbText
 10
81.23562879487065
 20
-156.1893591246011
 30
0.0
 40
1.8
  1
0
  7
Arial
100
AcDbText
  0
TEXT
  5
1867
330
67
100
AcDbEntity
 67
     1
  8
wText
100
AcDbText
 10
66.77440978188943
 20
-161.854359124601
 30
0.0
 40
1.8
  1
Illustrator:
  7
Arial
 72
     2
 11
77.81383679416774
 21
-161.854359124601
 31
0.0
100
AcDbText
  0
TEXT
  5
1868
330
67
100
AcDbEntity
 67
     1
  8
wText
100
AcDbText
 10
81.23562879487065
 20
-161.854359124601
 30
0.0
 40
1.8
  1
VDP
  7
Arial
100
AcDbText
  0
LWPOLYLINE
  5
1869
330
67
100
AcDbEntity
 67
     1
  8
wBorder
100
AcDbPolyline
 90
        4
 70
     1
 43
0.0
 10
-42.95018569070376
 20
-169.4577114971192
 10
127.0498143092962
 20
-169.4577114971192
 10
127.0498143092962
 20
90.54228850288081
 10
-42.95018569070376
 20
90.54228850288081
  0
LWPOLYLINE
  5
186A
330
67
100
AcDbEntity
 67
     1
  8
wBorder
100
AcDbPolyline
 90
        4
 70
     1
 43
0.0
 10
-42.95018569070376
 20
-169.4577114971192
 10
-2.950185690703762
 20
-169.4577114971192
 10
-2.950185690703762
 20
-138.4577114971192
 10
-42.95018569070376
 20
-138.4577114971192
  0
LWPOLYLINE
  5
186B
330
67
100
AcDbEntity
 67
     1
  8
wBorder
100
AcDbPolyline
 90
        4
 70
     1
 43
0.0
 10
-2.950185690703762
 20
-152.4577114971192
 10
127.0498143092962
 20
-152.4577114971192
 10
127.0498143092962
 20
-169.4577114971192
 10
-2.950185690703762
 20
-169.4577114971192
  0
LWPOLYLINE
  5
186C
330
67
100
AcDbEntity
 67
     1
  8
wBorder
100
AcDbPolyline
 90
        4
 70
     1
 43
0.0
 10
-2.950185690703762
 20
-138.4577114971192
 10
127.0498143092962
 20
-138.4577114971192
 10
127.0498143092962
 20
-152.4577114971192
 10
-2.950185690703762
 20
-152.4577114971192
  0
LWPOLYLINE
  5
186D
330
67
100
AcDbEntity
 67
     1
  8
wBorderthin
100
AcDbPolyline
 90
        2
 70
     0
 43
0.0
 10
12.04981430929624
 20
-152.4577114971192
 10
12.04981430929624
 20
-169.4577114971192
  0
LWPOLYLINE
  5
186E
330
67
100
AcDbEntity
 67
     1
  8
wBorderthin
100
AcDbPolyline
 90
        2
 70
     0
 43
0.0
 10
49.04981430929624
 20
-152.4577114971192
 10
49.04981430929624
 20
-163.7877114971192
  0
LWPOLYLINE
  5
186F
330
67
100
AcDbEntity
 67
     1
  8
wBorderthin
100
AcDbPolyline
 90
        2
 70
     0
 43
0.0
 10
79.04981430929624
 20
-152.4577114971192
 10
79.04981430929624
 20
-163.7877114971192
  0
POLYLINE
  5
1870
330
67
100
AcDbEntity
 67
     1
  8
M-COLOR
100
AcDb2dPolyline
 66
     1
 10
0.0
 20
0.0
 30
0.0
1001
M-COLOR__358644234323
1000
PAPER
1040
1.0
1000
meter
1002
{
1004
000000000000000000000000000000000000000000000000000000000000F03F0000000000000000
1002
}
1002
{
1004
5C5C444F5345525645525C4C617365724A657420353530302050530000000000010402059C00BC1053FF800301000900EA0A6F0864000100E9045802020001005802030000004C6574746572000000000000000000000000000000000000000000000000000000000000000000000000000000000100000000000000010000
1004
000200000001010000000000000000000000000000000000000000000050524956E2300000000000000000000000000000000000000000000000000000000000000000000000000000000000000000000000000000000000000000000000000000000000000000000000000000000000000000000018000000000010271027
1004
10270000102700000000000000000000C4020000000000000000000000000000000000000000000000000300000000000000F80D10005C4B03006843040000000000000000000100010000000000000000000000000000000000D39C0FCA1F0000000000000000000000000000000000000000000000010000000300FF0000
1004
00FF0000000100000000000000000004000300040003000400040005000300000000000000000000000000000000000000000000000000000000000000000000000000000000000000000000000000000000000000000000000000000000000000000000000000000000000000000000000000000000000000000000000000
1004
00000000000000000000000000000000000000000000000000000000000000000000000000000000000000000000000000000000000000000000000000000000000000000000000000000000000000000000000000000000000000000000000000000000000000000000000000000000000000000000000000000000000000
1004
00000000000000000000000000000000000000000000000000000000000000000000000000000000000000000000000000000000000000000000000000000000000000000000000000000000000000000000000000000000000000000000000000000000000000000000000000000000000000000000000000000000000000
1004
000000000000000000000000000000000000000000000000000000000000000000000000000000000000000000000000000000000000000000000000000000000000000000000000000000000000000000000000000000000000000000000000000000000000F80D0000495550480000110000000000020000000300000001
1004
00000000000000000000000300000000000000010001006400010000000300020000000100000002000000410034000000000000000000000000000000000000000000000000000000000000000000010000000600000000000000000000000000000000000000000000000000000000000000000000000000000000000000
1004
0000000000000000000000000000000020005B006E006F006E0065005D0000000000000000000000000000000000000000000000000000000000000000000000000000000000000000000000000000000000000000000000000000000000000000000000000000000000000000000000000000000000000000000000000000
1004
00000000000000000000000000000000000000000000000000000000000000000000000000000000000000000000000000000000000000000000000000000000000000000000000000000000000000000000000000000000000000000000000000000000000000000000000000000000000000000000000000000000000000
1004
00000000000000000000000000000000000000000000000000000000000000000000000000000000000000000000000000000000000000000000000000000000000000000000000000000000000000000000000000000000000000000000000000000000000000000000000000000000000000000000000000000000000000
1004
00000000000000000000000000000000000000000000000000000000000000000000000000000000000000000000000000000000000000000000000000000000000000000000000000000000000000000000000000000000000000000000000000000000000000000000000000000000000000000000000000000000000000
1004
000000000000000000000000000000000000000020005B006E006F006E0065005D00000000000000000000000000000000000000000000000000000000000000000000000000000000000000000000000000000000000000000000000000000000000000000000000000000000000000000000000000000000000000000000
1004
00000000000000000000000000000000000000000000000000000000000000000000000000000000000000000000000000000000000000000000000000000000000000000000000000000000000000000000000000000000000000000000000000000000000000000000000000000000000000000000000000000000000000
1004
00000000000000000000000000000000000000000000000000000000000000000000000000000000000000000000000000000000000000000000000000000000000000000000000000000000000000000000000000000000000000000000000000000000000000000000000000000000000000000000000000000000000000
1004
00000000000000000000000000000000000000000000000000000000000000000000000000000000000000000000000000000000000000000000000000000000000000000000000000000000000000000000000000000000000000000000000000000000000000000000000000000000000000000000000000000000000000
1004
00000000000000000000000000000000000000000000000041007200690061006C00000000000000000000000000000000000000000000000000000000000000000000000000000000000000000000000000000000000000000000000000000000000000000000000000000000000000000000000000000000000000000000
1004
00000000000000000000000000000000000000000000000000000000000000000000000000000000000000000000000000000000000000000000000000000000000000000000000000000000000000000000000000000000000000000000000000000000000000000000000000000000000000000000000000000000000000
1004
00000000000000000000000000000000000000000000000000000000000000000000000000000000000000000000000000000000000000000000000000000000000000000000000000000000000000000000000000000000000000000000000000000000000000000000000000000000000000000000000000000000000000
1004
00000000000000000000000000000000000000000000000000000000000000000000000000000000000000000000000000000000000000000000000000000000000000000000000000000000000000000000000000000000000000000000000000000000000000000000000000000000000000000000000000000000000000
1004
000000000000000000000000000000000000000000000000000000003400000050000000000000000100000000000000C0C0C00000000000C0C0C00004000000000000000000000000000000010000000100000064000000000000000000803F00000000000000000000000000000000010000000100000000000000000000
1004
00000000005000410055004C005F004D000000000000000000000000000000000000000000000000000000000000000000000000000000000000000000000000000000000000000000000000000000000000000000000000000000000000000000000000000000000000000000000000000000000000000000000000000000
1004
00000000000000000000000000000000000000000000000000000000000000000000000000000000000000000000000000000000000000000000000000000000000000000000000000000000000000000000000000000000000000000000000000000000000000000000000000000000000000000000000000000000000000
1004
00000000000000000000000000000000000000000000000000000000000000000000000000000000000000000000000000000000000000000000000000000000000000000000000000000000000000000000000000000000000000000000000000000000000000000000000000000000000000000000000000000000000000
1004
00000000000000000000000000000000000000000000000000000000000000000000000000000000000000000000000000000000000000000000000000000000000000000000000000000000000000000000000000000000000000000000000000000000000000000000000000000000000000000000000000000000000000
1004
00000000000000000055004E005400490054004C0045004400000000000000000000000000000000000000000000000000000000000000000000000000000000000000000000000000000000000000000000000000000000000000000000000000000000000000000000000000000000000000000000000000000000000000
1004
00000000000000000000000000000000000000000000000000000000000000000000000000000000000000000000000000000000000000000000000000000000000000000000000000000000000000000000000000000000000000000000000000000000000000000000000000000000000000000000000000000000000000
1004
00000000000000000000000000000000000000000000000000000000000000000000000000000000000000000000000000000000000000000000000000000000000000000000000000000000000000000000000000000000000000000000000000000000000000000000000000000000000000000000000000000000000000
1004
00000000000000000000000000000000000000000000000000000000000000000000000000000000000000000000000000000000000000000000000000000000000000000000000000000000000000000000000000000000000000000000000000000000000000000000000000000000000000000000000000000000000000
1004
0000000000000000000000000000000000010000000100000001000000010000000100000001000000010000000100000001000000000000000000000001000000000000000000000000000000BF000000000000000F0000000001000000000000050100000000000000000000FFFFFFFF00000000000000000F0000000000
1004
00000F00000001010000000000000000000000000000000000000000000000000000000000000000000000000000000000000000000000000000000000000000000000000000000000000000000000000000000000000000000000000000000000000000000000000000000000000000000000000000000000000000000000
1004
00000000000000000000000000000000000000000000000000000000000000000000000000000000000000000000000000000000000000000000000000000000000000000000000000000000000000000000000000000000000000000000000000000000000000000000000000000000000000000000000000000000000000
1004
00000000000000000000000000000000000000000000000000000000000000000000000000000000000000000000000000000000000000000000000000000000000000000000000000000000000000000000000000000000000000000000000000000000000000000000000000000000000000000000000000000000000000
1004
00000000000000000000000000000000000000000000000000000000000000000000000000000000000000000000000000000000000000000000000000000000000000000000000000000000000000000000000000000000000000000000000000000000000000000000000000000000000000000000000000000000000000
1004
000000000000000000000000000000000000000000005300530050005F005300540044005000410047004500310000000000000000000000000000000000000000000000000000000000000000000000000000000000000000000000000000000000000000000000000000000000000000000000000000000000
1002
}
1002
{
1004
080012002F00010077696E73706F6F6C00005C5C444F5345525645525C4C617365724A6574203535303020505300006870636F6C6F724C617365724A65743535303000
1002
}
  0
VERTEX
  5
1871
330
1870
100
AcDbEntity
 67
     1
  8
M-COLOR
100
AcDbVertex
100
AcDb2dVertex
 10
-62.95018569070376
 20
-190.4577114971192
 30
0.0
  0
VERTEX
  5
1872
330
1870
100
AcDbEntity
 67
     1
  8
M-COLOR
100
AcDbVertex
100
AcDb2dVertex
 10
-62.95018569070376
 20
106.5422885028808
 30
0.0
  0
VERTEX
  5
1873
330
1870
100
AcDbEntity
 67
     1
  8
M-COLOR
100
AcDbVertex
100
AcDb2dVertex
 10
147.0498143092962
 20
106.5422885028808
 30
0.0
  0
VERTEX
  5
1874
330
1870
100
AcDbEntity
 67
     1
  8
M-COLOR
100
AcDbVertex
100
AcDb2dVertex
 10
147.0498143092962
 20
-190.4577114971192
 30
0.0
  0
VERTEX
  5
1875
330
1870
100
AcDbEntity
 67
     1
  8
M-COLOR
100
AcDbVertex
100
AcDb2dVertex
 10
-62.95018569070376
 20
-190.4577114971192
 30
0.0
  0
VERTEX
  5
1876
330
1870
100
AcDbEntity
 67
     1
  8
M-COLOR
100
AcDbVertex
100
AcDb2dVertex
 10
-62.95018569070376
 20
-160.7577114971192
 30
0.0
  0
VERTEX
  5
1877
330
1870
100
AcDbEntity
 67
     1
  8
M-COLOR
100
AcDbVertex
100
AcDb2dVertex
 10
-67.40518569070376
 20
-160.7577114971192
 30
0.0
  0
VERTEX
  5
1878
330
1870
100
AcDbEntity
 67
     1
  8
M-COLOR
100
AcDbVertex
100
AcDb2dVertex
 10
-62.95018569070376
 20
-139.9677114971192
 30
0.0
  0
VERTEX
  5
1879
330
1870
100
AcDbEntity
 67
     1
  8
M-COLOR
100
AcDbVertex
100
AcDb2dVertex
 10
-62.95018569070376
 20
-190.4577114971192
 30
0.0
  0
VERTEX
  5
187A
330
1870
100
AcDbEntity
 67
     1
  8
M-COLOR
100
AcDbVertex
100
AcDb2dVertex
 10
-33.25018569070376
 20
-190.4577114971192
 30
0.0
  0
VERTEX
  5
187B
330
1870
100
AcDbEntity
 67
     1
  8
M-COLOR
100
AcDbVertex
100
AcDb2dVertex
 10
-33.25018569070376
 20
-194.9127114971192
 30
0.0
  0
VERTEX
  5
187C
330
1870
100
AcDbEntity
 67
     1
  8
M-COLOR
100
AcDbVertex
100
AcDb2dVertex
 10
-12.46018569070376
 20
-190.4577114971192
 30
0.0
  0
VERTEX
  5
187D
330
1870
100
AcDbEntity
 67
     1
  8
M-COLOR
100
AcDbVertex
100
AcDb2dVertex
 10
-62.95018569070376
 20
-190.4577114971192
 30
0.0
  0
SEQEND
  5
187E
330
1870
100
AcDbEntity
 67
     1
  8
M-COLOR
  0
HATCH
  5
1880
330
67
100
AcDbEntity
 67
     1
  8
wLogo
100
AcDbHatch
 10
0.0
 20
0.0
 30
0.0
210
0.0
220
0.0
230
1.0
  2
SOLID
 70
     1
 71
     1
 91
        4
 92
        7
 72
     0
 73
     1
 93
        4
 10
-38.59818569070376
 20
-165.1057114971192
 10
-30.59818569070376
 20
-165.1057114971192
 10
-30.59818569070376
 20
-157.1057114971192
 10
-38.59818569070376
 20
-157.1057114971192
 97
        1
330
1881
 92
       22
 72
     0
 73
     1
 93
        4
 10
-37.21278567540506
 20
-157.6999720341038
 10
-31.98398567540509
 20
-157.6999720341038
 10
-31.98398567540509
 20
-159.4431720341038
 10
-37.21278567540506
 20
-159.4431720341038
 97
        1
330
1884
 92
       22
 72
     0
 73
     1
 93
        4
 10
-37.21278567540506
 20
-159.6871720341038
 10
-35.46958567540504
 20
-159.6871720341038
 10
-35.46958567540506
 20
-164.5119720341038
 10
-37.21278567540504
 20
-164.5119720341038
 97
        1
330
1883
 92
       22
 72
     0
 73
     1
 93
        4
 10
-33.72638567540501
 20
-159.6871720341038
 10
-31.98318567540507
 20
-159.6871720341038
 10
-31.98318567540505
 20
-164.5119720341038
 10
-33.72638567540506
 20
-164.5119720341038
 97
        1
330
1882
 75
     0
 76
     1
 47
0.0368075626144011
 98
        4
 10
-37.80493046364623
 20
-158.2708658412543
 10
-37.80493046364623
 20
-158.2708658412543
 10
-37.80493046364623
 20
-158.2708658412543
 10
-37.80493046364623
 20
-158.2708658412543
450
        0
451
        0
460
0.0
461
0.0
452
        1
462
1.0
453
        2
463
0.0
 63
     5
421
      255
463
1.0
 63
     7
421
 16777215
470
LINEAR
  0
LWPOLYLINE
  5
1881
102
{ACAD_REACTORS
330
1880
102
}
330
67
100
AcDbEntity
 67
     1
  8
wLogo
100
AcDbPolyline
 90
        4
 70
     1
 43
0.0
 10
-38.59818569070376
 20
-165.1057114971192
 10
-30.59818569070376
 20
-165.1057114971192
 10
-30.59818569070376
 20
-157.1057114971192
 10
-38.59818569070376
 20
-157.1057114971192
  0
LWPOLYLINE
  5
1882
102
{ACAD_REACTORS
330
1880
102
}
330
67
100
AcDbEntity
 67
     1
  8
wLogo
100
AcDbPolyline
 90
        4
 70
     1
 43
0.0
 10
-33.72638567540506
 20
-164.5119720341038
 10
-31.98318567540505
 20
-164.5119720341038
 10
-31.98318567540505
 20
-159.6871720341038
 10
-33.72638567540506
 20
-159.6871720341038
  0
LWPOLYLINE
  5
1883
102
{ACAD_REACTORS
330
1880
102
}
330
67
100
AcDbEntity
 67
     1
  8
wLogo
100
AcDbPolyline
 90
        4
 70
     1
 43
0.0
 10
-37.21278567540506
 20
-164.5119720341038
 10
-35.46958567540506
 20
-164.5119720341038
 10
-35.46958567540506
 20
-159.6871720341038
 10
-37.21278567540506
 20
-159.6871720341038
  0
LWPOLYLINE
  5
1884
102
{ACAD_REACTORS
330
1880
102
}
330
67
100
AcDbEntity
 67
     1
  8
wLogo
100
AcDbPolyline
 90
        4
 70
     1
 43
0.0
 10
-37.21278567540506
 20
-159.4431720341038
 10
-31.98398567540508
 20
-159.4431720341038
 10
-31.98398567540508
 20
-157.6999720341038
 10
-37.21278567540506
 20
-157.6999720341038
  0
HATCH
  5
18A4
330
67
100
AcDbEntity
 67
     1
  8
wText
100
AcDbHatch
 10
0.0
 20
0.0
 30
0.0
210
0.0
220
0.0
230
1.0
  2
SOLID
 70
     1
 71
     1
 91
        1
 92
        1
 93
        4
 72
     1
 10
119.4704237670516
 20
80.7143313811151
 11
119.9618362353816
 21
80.67885895638908
 72
     1
 10
119.9618362353816
 20
80.67885895638908
 11
119.7949922204588
 21
85.40215035912024
 72
     1
 10
119.7949922204588
 20
85.40215035912024
 11
118.9788116474915
 21
80.74692019588015
 72
     1
 10
118.9788116474915
 20
80.74692019588015
 11
119.4704237670516
 21
80.7143313811151
 97
        1
330
18A5
 75
     0
 76
     1
 98
        1
 10
-70.7665462938827
 20
-168.845505077793
  0
LWPOLYLINE
  5
18A5
102
{ACAD_REACTORS
330
18A4
102
}
330
67
100
AcDbEntity
 67
     1
  8
wText
100
AcDbPolyline
 90
        4
 70
     1
 43
0.0
 10
119.4704237670516
 20
80.7143313811151
 10
119.9618362353816
 20
80.67885895638908
 10
119.7949922204588
 20
85.40215035912024
 10
118.9788116474915
 20
80.74692019588015
  0
LWPOLYLINE
  5
18A6
330
67
100
AcDbEntity
 67
     1
  8
wText
100
AcDbPolyline
 90
        2
 70
     0
 43
0.0
 10
121.8373851143015
 20
76.63962692074685
 10
116.4443610043885
 20
77.01302135059905
  0
LWPOLYLINE
  5
18A7
330
67
100
AcDbEntity
 67
     1
  8
wText
100
AcDbPolyline
 90
        2
 70
     0
 43
0.0
 10
119.4704237670516
 20
80.7143313811151
 10
118.2949027987925
 20
63.73600386284311
  0
ENDSEC
  0
SECTION
  2
OBJECTS
  0
DICTIONARY
  5
C
330
0
100
AcDbDictionary
281
     1
  3
ACAD_COLOR
350
62
  3
ACAD_DETAILVIEWSTYLE
350
1965
  3
ACAD_GROUP
350
D
  3
ACAD_IMAGE_DICT
350
C7D
  3
ACAD_IMAGE_VARS
350
9EF
  3
ACAD_LAYOUT
350
61
  3
ACAD_MATERIAL
350
10
  3
ACAD_MLEADERSTYLE
350
65
  3
ACAD_MLINESTYLE
350
5E
  3
ACAD_PLOTSETTINGS
350
60
  3
ACAD_PLOTSTYLENAME
350
E
  3
ACAD_SCALELIST
350
42
  3
ACAD_SECTIONVIEWSTYLE
350
1966
  3
ACAD_TABLESTYLE
350
63
  3
ACAD_VISUALSTYLE
350
29
  3
ACDB_RECOMPOSE_DATA
350
1962
  3
AcDbVariableDictionary
350
C8C
  3
ADE_QUERY_LIBRARY
350
A05
  3
ASE_INDEX_DICTIONARY
350
1954
  3
Autodesk_MAP
350
9F0
1001
ADE
1000
ADE02C004
1000
[Query]
1000
CaseSensitiveMatch=0
1000
SaveCurrQueryInSession=1
1000
MkSelSetWithQryObj=0
1000
ShowBlockAsInsPt=0
1000
CreateAssociativeHatchObjects=0
1000
ReferenceBoundaryForAreaLocation=1
1000
ShowImageAsBoundary=1
1000
DefaultJoinOperator=2
1000
ColorForAdd=red
1000
ColorForRemove=red
1000
BlockLocnForQuery=1
1000
TextLocnForQuery=1
1000
IncludeAllObjectsInGroups=0
1000
AlwaysUseLibraryDefinitions=0
1000
PreviewDefinitionsFrom=2
1000
[Save Back]
1000
RedefineBlockDefinitions=1
1000
RedefineLayerDefinitions=1
1000
RedefineTextStyleDefinitions=1
1000
RemoveUnusedGroups=1
1000
EraseSavedBackObjects=1
1000
RemoveLockAfterSave=1
1000
CreateHistoryFileOfChanges=0
1000
CreateBackupFileOfSourceDwg=1
1000
DontAddObjectsToSaveSet=0
1000
MarkObjectsForEditingWithoutPrompting=0
1000
FdoDontAddObjsToSvSet=0
1000
FdoEditWithoutPrompt=1
1000
FdoRemUnusedGrps=1
1000
FdoEraseSvdBkObjs=1
1000
FdoRemoveLockOnSave=1
1000
FdoTesselationMaxPointsDistance=0
1000
FdoTesselationMaxCurvesDistance=0
1000
[Coordinate Transformation]
1000
RestoreLastActiveDwgsOnStartup=1
1000
ActivateDwgsOnAttach=1
1000
AdjustSizesAndScalesForChangesInUnits=1
1000
AdjustRotationsForMapDistortions=1
1000
AdjustSizesAndScalesForMapDistortions=1
1000
AdjustElevations=1
1000
AdjustZeroRotationObjects=1
1000
ReconnectDbOnWSOpen=1
1000
NoOfSQLConditionsInHistory=10
  0
DICTIONARY
  5
B5D
330
2
100
AcDbDictionary
280
     1
281
     1
  3
ACAD_LAYERSTATES
360
B5E
  0
DICTIONARY
  5
A09
330
54
100
AcDbDictionary
280
     1
281
     1
  3
ADSK_XREC_LAYER_RECONCILED
360
A0A
  0
DICTIONARY
  5
9FE
330
6B
100
AcDbDictionary
280
     1
281
     1
  3
ACAD_SORTENTS
360
9FF
  0
DICTIONARY
  5
1060
330
67
100
AcDbDictionary
280
     1
281
     1
  3
ACAD_SORTENTS
360
1061
  0
DICTIONARY
  5
AA9
330
AA7
100
AcDbDictionary
280
     1
281
     1
  3
ACAD_SORTENTS
360
AAA
  0
DICTIONARY
  5
B34
330
B31
100
AcDbDictionary
280
     1
281
     1
  3
ACAD_SORTENTS
360
B35
  0
DICTIONARY
  5
E4E
330
E4C
100
AcDbDictionary
280
     1
281
     1
  3
ACAD_SORTENTS
360
E4F
  0
DICTIONARY
  5
E62
330
E60
100
AcDbDictionary
280
     1
281
     1
  3
ACAD_SORTENTS
360
E63
  0
DICTIONARY
  5
1022
330
FE9
100
AcDbDictionary
280
     1
281
     1
  3
ACAD_SORTENTS
360
1023
  0
DICTIONARY
  5
125E
330
125C
100
AcDbDictionary
280
     1
281
     1
  3
ACAD_SORTENTS
360
125F
  0
DICTIONARY
  5
1846
330
180E
100
AcDbDictionary
280
     1
281
     1
  3
ACAD_SORTENTS
360
1847
  0
IMAGEDEF_REACTOR
  5
C8B
330
C8A
100
AcDbRasterImageDefReactor
 90
        2
330
C8A
  0
IMAGEDEF_REACTOR
  5
D44
330
D43
100
AcDbRasterImageDefReactor
 90
        2
330
D43
  0
DICTIONARY
  5
FA4
330
FA3
100
AcDbDictionary
280
     1
281
     1
  3
ASDK_XREC_ANNOTATION_SCALE_INFO
360
FA5
  0
DICTIONARY
  5
184D
330
184C
100
AcDbDictionary
280
     1
281
     1
  3
ASDK_XREC_ANNOTATION_SCALE_INFO
360
184E
  0
DICTIONARY
  5
62
102
{ACAD_REACTORS
330
C
102
}
330
C
100
AcDbDictionary
281
     1
  0
DICTIONARY
  5
1965
102
{ACAD_REACTORS
330
C
102
}
330
C
100
AcDbDictionary
281
     1
  0
DICTIONARY
  5
D
102
{ACAD_REACTORS
330
C
102
}
330
C
100
AcDbDictionary
281
     1
  0
DICTIONARY
  5
C7D
102
{ACAD_REACTORS
330
C
102
}
330
C
100
AcDbDictionary
281
     1
  3
Plan
350
C88
  3
Plan_1
350
D40
  0
RASTERVARIABLES
  5
9EF
102
{ACAD_REACTORS
330
C
102
}
330
C
100
AcDbRasterVariables
 90
        0
 70
     1
 71
     1
 72
     0
  0
DICTIONARY
  5
61
102
{ACAD_REACTORS
330
C
102
}
330
C
100
AcDbDictionary
281
     1
  3
Layout1
350
6A
  3
Model
350
6E
  0
DICTIONARY
  5
10
102
{ACAD_REACTORS
330
C
102
}
330
C
100
AcDbDictionary
281
     1
  3
ByBlock
350
19
  3
ByLayer
350
11
  3
Global
350
21
  0
DICTIONARY
  5
65
102
{ACAD_REACTORS
330
C
102
}
330
C
100
AcDbDictionary
281
     1
  3
Standard
350
66
  0
DICTIONARY
  5
5E
102
{ACAD_REACTORS
330
C
102
}
330
C
100
AcDbDictionary
281
     1
  3
Standard
350
5F
  0
DICTIONARY
  5
60
102
{ACAD_REACTORS
330
C
102
}
330
C
100
AcDbDictionary
281
     1
  0
ACDBDICTIONARYWDFLT
  5
E
102
{ACAD_REACTORS
330
C
102
}
330
C
100
AcDbDictionary
281
     1
  3
Normal
350
F
100
AcDbDictionaryWithDefault
340
F
  0
DICTIONARY
  5
42
102
{ACAD_REACTORS
330
C
102
}
330
C
100
AcDbDictionary
281
     1
  3
A0
350
43
  3
A1
350
44
  3
A2
350
45
  3
A3
350
46
  3
A4
350
47
  3
A5
350
48
  3
A6
350
49
  3
A7
350
4A
  3
A8
350
4B
  3
A9
350
4C
  3
B0
350
4D
  3
B1
350
4E
  3
B2
350
4F
  3
B3
350
50
  3
B4
350
51
  3
B5
350
52
  3
B6
350
53
  0
DICTIONARY
  5
1966
102
{ACAD_REACTORS
330
C
102
}
330
C
100
AcDbDictionary
281
     1
  0
DICTIONARY
  5
63
102
{ACAD_REACTORS
330
C
102
}
330
C
100
AcDbDictionary
281
     1
  3
Legend
350
9F7
  3
Standard
350
64
  0
DICTIONARY
  5
29
102
{ACAD_REACTORS
330
C
102
}
330
C
100
AcDbDictionary
281
     1
  3
2dWireframe
350
2F
  3
Basic
350
2E
  3
Brighten
350
35
  3
ColorChange
350
39
  3
Conceptual
350
32
  3
Dim
350
34
  3
EdgeColorOff
350
41
  3
Facepattern
350
38
  3
Flat
350
2A
  3
FlatWithEdges
350
2B
  3
Gouraud
350
2C
  3
GouraudWithEdges
350
2D
  3
Hidden
350
31
  3
JitterOff
350
3F
  3
Linepattern
350
37
  3
OverhangOff
350
40
  3
Realistic
350
33
  3
Shaded
350
3E
  3
Shaded with edges
350
3D
  3
Shades of Gray
350
3A
  3
Sketchy
350
3B
  3
Thicken
350
36
  3
Wireframe
350
30
  3
X-Ray
350
3C
  0
XRECORD
  5
1962
102
{ACAD_REACTORS
330
C
102
}
330
C
100
AcDbXrecord
280
     1
 90
        1
330
64
330
9F7
  0
DICTIONARY
  5
C8C
102
{ACAD_REACTORS
330
C
102
}
330
C
100
AcDbDictionary
281
     1
  3
CANNOSCALE
350
F71
  3
CMLEADERSTYLE
350
F6F
  3
CTABLESTYLE
350
F6E
  3
DWFFRAME
350
1963
  3
FRAME
350
C8D
  3
LAYEREVAL
350
F73
  3
LAYERNOTIFY
350
F74
  3
LIGHTINGUNITS
350
F72
  3
MSLTSCALE
350
F70
  3
XCLIPFRAME
350
1964
  0
DICTIONARY
  5
A05
102
{ACAD_REACTORS
330
C
102
}
330
C
100
AcDbDictionary
281
     1
  3
_CurrQry
350
1952
  0
DICTIONARY
  5
1954
102
{ACAD_REACTORS
330
C
102
}
330
C
100
AcDbDictionary
281
     1
  3
ASEBlockHierarchyIndexRecord
350
1955
1001
DCO15
1040
1915592514.142
  0
DICTIONARY
  5
9F0
102
{ACAD_REACTORS
330
C
102
}
330
C
100
AcDbDictionary
281
     1
  3
AcMapDMStylizedEntities
350
A00
  3
FSD_Dictionary
350
A02
  3
MAP_DISPLAY_CUSTOMOBJ_REG_TABLE
350
9F4
  3
MAP_DISPLAY_MANAGEMENT_DICTIONARY
350
9F1
  3
MAP_DISPLAY_STYLELIBRARY_DICTIONARY
350
9F2
  3
MAP_RESOURCE_VERSION_MANAGEMENT_DICTIONARY
350
A01
1001
MapGWS
1000
C:\ProgramData\Autodesk\AutoCAD Map 3D 2011\R18.1\MapCache\117530_chrisite_planGWS1502183070.xml
  0
DICTIONARY
  5
B5E
102
{ACAD_REACTORS
330
B5D
102
}
330
B5D
100
AcDbDictionary
281
     1
  0
XRECORD
  5
A0A
102
{ACAD_REACTORS
330
A09
102
}
330
A09
100
AcDbXrecord
280
     1
290
     1
  0
SORTENTSTABLE
  5
9FF
102
{ACAD_REACTORS
330
9FE
102
}
330
9FE
100
AcDbSortentsTable
330
6B
331
C8A
  5
3F5
331
D43
  5
3F1
  0
SORTENTSTABLE
  5
1061
102
{ACAD_REACTORS
330
1060
102
}
330
1060
100
AcDbSortentsTable
330
67
331
FA3
  5
FA3
331
184C
  5
188A
331
1850
  5
184F
331
1852
  5
1851
331
1854
  5
1853
331
1855
  5
1854
331
1856
  5
1855
331
185F
  5
1863
331
1860
  5
1864
331
1861
  5
1865
331
1862
  5
1866
331
1863
  5
1867
331
1864
  5
1868
331
1865
  5
1869
331
1866
  5
186A
331
1867
  5
186B
331
1868
  5
186C
331
1869
  5
186D
331
186A
  5
186E
331
186B
  5
186F
331
186C
  5
1870
331
186D
  5
187F
331
186E
  5
1880
331
186F
  5
1881
331
1870
  5
1882
331
1880
  5
1884
331
1881
  5
1885
331
1882
  5
1886
331
1883
  5
1887
331
1884
  5
1888
  0
SORTENTSTABLE
  5
AAA
102
{ACAD_REACTORS
330
AA9
102
}
330
AA9
100
AcDbSortentsTable
330
AA7
  0
SORTENTSTABLE
  5
B35
102
{ACAD_REACTORS
330
B34
102
}
330
B34
100
AcDbSortentsTable
330
B31
  0
SORTENTSTABLE
  5
E4F
102
{ACAD_REACTORS
330
E4E
102
}
330
E4E
100
AcDbSortentsTable
330
E4C
  0
SORTENTSTABLE
  5
E63
102
{ACAD_REACTORS
330
E62
102
}
330
E62
100
AcDbSortentsTable
330
E60
  0
SORTENTSTABLE
  5
1023
102
{ACAD_REACTORS
330
1022
102
}
330
1022
100
AcDbSortentsTable
330
FE9
  0
SORTENTSTABLE
  5
125F
102
{ACAD_REACTORS
330
125E
102
}
330
125E
100
AcDbSortentsTable
330
125C
  0
SORTENTSTABLE
  5
1847
102
{ACAD_REACTORS
330
1846
102
}
330
1846
100
AcDbSortentsTable
330
180E
  0
XRECORD
  5
FA5
102
{ACAD_REACTORS
330
FA4
102
}
330
FA4
100
AcDbXrecord
280
     1
 90
        1
340
43
  0
XRECORD
  5
184E
102
{ACAD_REACTORS
330
184D
102
}
330
184D
100
AcDbXrecord
280
     1
 90
        1
340
43
  0
IMAGEDEF
  5
C88
102
{ACAD_REACTORS
330
C7D
330
C8B
102
}
330
C7D
100
AcDbRasterImageDef
 90
        0
  1
X:\USERS\Vijaya Pieterson\_St James Garden, Euston Station\Christie Monument\Plan2.JPG
 10
823.0
 20
763.0
 11
0.2645833333333333
 21
0.2645833333333333
280
     1
281
     5
  0
IMAGEDEF
  5
D40
102
{ACAD_REACTORS
330
C7D
330
D44
102
}
330
C7D
100
AcDbRasterImageDef
 90
        0
  1
X:\USERS\Vijaya Pieterson\_St James Garden, Euston Station\Southampton Monument\Plan.JPG
 10
881.0
 20
764.0
 11
0.2645833333333333
 21
0.2645833333333333
280
     1
281
     5
  0
LAYOUT
  5
6A
102
{ACAD_REACTORS
330
61
102
}
330
61
100
AcDbPlotSettings
  1

  2
CutePDF Writer
  4
A4
  6

 40
3.174999952316284
 41
3.174999952316284
 42
3.175003051757812
 43
3.17498779296875
 44
209.8886566162109
 45
297.0530090332031
 46
-3.23067319393158
 47
-3.148489356040955
 48
-62.95018569070376
 49
-190.4577114971192
140
147.0498143092962
141
106.5422885028808
142
1.0
143
1.0
 70
   676
 72
     1
 73
     0
 74
     4
  7
Monochrome+170.ctb
 75
    16
 76
     0
 77
     2
 78
   300
147
25.4
148
62.95018569070376
149
190.4577114971192
100
AcDbLayout
  1
Layout1
 70
     1
 71
     1
 10
0.0
 20
0.0
 11
12.0
 21
9.0
 12
0.0
 22
0.0
 32
0.0
 14
-67.40518569070376
 24
-194.9127114971192
 34
0.0
 15
147.0498143092962
 25
106.5422885028808
 35
0.0
146
0.0
 13
0.0
 23
0.0
 33
0.0
 16
1.0
 26
0.0
 36
0.0
 17
0.0
 27
1.0
 37
0.0
 76
     0
330
67
331
FA3
1001
ACAD_PSEXT
1000
CutePDF Writer
1000
CutePDF Writer v3.2
1000
CPW3:
1000

1070
     0
  0
LAYOUT
  5
6E
102
{ACAD_REACTORS
330
61
102
}
330
61
100
AcDbPlotSettings
  1

  2
NPIFD5C0C (HP LaserJet P2055dn)
  4

  6

 40
0.0
 41
0.0
 42
0.0
 43
0.0
 44
0.0
 45
0.0
 46
0.0
 47
0.0
 48
0.0
 49
0.0
140
0.0
141
0.0
142
1.0
143
1.0
 70
  1712
 72
     0
 73
     0
 74
     0
  7

 75
     0
 76
     0
 77
     2
 78
   300
147
1.0
148
0.0
149
0.0
100
AcDbLayout
  1
Model
 70
     1
 71
     0
 10
0.0
 20
0.0
 11
12.0
 21
9.0
 12
0.0
 22
0.0
 32
0.0
 14
0.0
 24
0.0
 34
0.0
 15
0.0
 25
0.0
 35
0.0
146
0.0
 13
0.0
 23
0.0
 33
0.0
 16
1.0
 26
0.0
 36
0.0
 17
0.0
 27
1.0
 37
0.0
 76
     0
330
6B
331
BB
  0
MATERIAL
  5
19
102
{ACAD_REACTORS
330
10
102
}
330
10
100
AcDbMaterial
  1
ByBlock
 72
     0
 73
     2
 43
0.0208333333333333
 43
0.0
 43
0.0
 43
0.0
 43
0.0
 43
0.0208333333333333
 43
0.0
 43
0.0
 43
0.0
 43
0.0
 43
1.0
 43
0.0
 43
0.0
 43
0.0
 43
0.0
 43
1.0
 77
     0
 78
     2
 47
0.0208333333333333
 47
0.0
 47
0.0
 47
0.0
 47
0.0
 47
0.0208333333333333
 47
0.0
 47
0.0
 47
0.0
 47
0.0
 47
1.0
 47
0.0
 47
0.0
 47
0.0
 47
0.0
 47
1.0
171
     0
172
     2
 49
0.0208333333333333
 49
0.0
 49
0.0
 49
0.0
 49
0.0
 49
0.0208333333333333
 49
0.0
 49
0.0
 49
0.0
 49
0.0
 49
1.0
 49
0.0
 49
0.0
 49
0.0
 49
0.0
 49
1.0
175
     0
176
     2
142
0.0208333333333333
142
0.0
142
0.0
142
0.0
142
0.0
142
0.0208333333333333
142
0.0
142
0.0
142
0.0
142
0.0
142
1.0
142
0.0
142
0.0
142
0.0
142
0.0
142
1.0
179
     0
270
     2
144
0.0208333333333333
144
0.0
144
0.0
144
0.0
144
0.0
144
0.0208333333333333
144
0.0
144
0.0
144
0.0
144
0.0
144
1.0
144
0.0
144
0.0
144
0.0
144
0.0
144
1.0
274
     2
147
0.0208333333333333
147
0.0
147
0.0
147
0.0
147
0.0
147
0.0208333333333333
147
0.0
147
0.0
147
0.0
147
0.0
147
1.0
147
0.0
147
0.0
147
0.0
147
0.0
147
1.0
 94
      127
  0
MATERIAL
  5
11
102
{ACAD_REACTORS
330
10
102
}
330
10
100
AcDbMaterial
  1
ByLayer
 72
     0
 73
     2
 43
0.0208333333333333
 43
0.0
 43
0.0
 43
0.0
 43
0.0
 43
0.0208333333333333
 43
0.0
 43
0.0
 43
0.0
 43
0.0
 43
1.0
 43
0.0
 43
0.0
 43
0.0
 43
0.0
 43
1.0
 77
     0
 78
     2
 47
0.0208333333333333
 47
0.0
 47
0.0
 47
0.0
 47
0.0
 47
0.0208333333333333
 47
0.0
 47
0.0
 47
0.0
 47
0.0
 47
1.0
 47
0.0
 47
0.0
 47
0.0
 47
0.0
 47
1.0
171
     0
172
     2
 49
0.0208333333333333
 49
0.0
 49
0.0
 49
0.0
 49
0.0
 49
0.0208333333333333
 49
0.0
 49
0.0
 49
0.0
 49
0.0
 49
1.0
 49
0.0
 49
0.0
 49
0.0
 49
0.0
 49
1.0
175
     0
176
     2
142
0.0208333333333333
142
0.0
142
0.0
142
0.0
142
0.0
142
0.0208333333333333
142
0.0
142
0.0
142
0.0
142
0.0
142
1.0
142
0.0
142
0.0
142
0.0
142
0.0
142
1.0
179
     0
270
     2
144
0.0208333333333333
144
0.0
144
0.0
144
0.0
144
0.0
144
0.0208333333333333
144
0.0
144
0.0
144
0.0
144
0.0
144
1.0
144
0.0
144
0.0
144
0.0
144
0.0
144
1.0
274
     2
147
0.0208333333333333
147
0.0
147
0.0
147
0.0
147
0.0
147
0.0208333333333333
147
0.0
147
0.0
147
0.0
147
0.0
147
1.0
147
0.0
147
0.0
147
0.0
147
0.0
147
1.0
 94
      127
  0
MATERIAL
  5
21
102
{ACAD_REACTORS
330
10
102
}
330
10
100
AcDbMaterial
  1
Global
 72
     0
 73
     2
 43
0.0208333333333333
 43
0.0
 43
0.0
 43
0.0
 43
0.0
 43
0.0208333333333333
 43
0.0
 43
0.0
 43
0.0
 43
0.0
 43
1.0
 43
0.0
 43
0.0
 43
0.0
 43
0.0
 43
1.0
 77
     0
 78
     2
 47
0.0208333333333333
 47
0.0
 47
0.0
 47
0.0
 47
0.0
 47
0.0208333333333333
 47
0.0
 47
0.0
 47
0.0
 47
0.0
 47
1.0
 47
0.0
 47
0.0
 47
0.0
 47
0.0
 47
1.0
171
     0
172
     2
 49
0.0208333333333333
 49
0.0
 49
0.0
 49
0.0
 49
0.0
 49
0.0208333333333333
 49
0.0
 49
0.0
 49
0.0
 49
0.0
 49
1.0
 49
0.0
 49
0.0
 49
0.0
 49
0.0
 49
1.0
175
     0
176
     2
142
0.0208333333333333
142
0.0
142
0.0
142
0.0
142
0.0
142
0.0208333333333333
142
0.0
142
0.0
142
0.0
142
0.0
142
1.0
142
0.0
142
0.0
142
0.0
142
0.0
142
1.0
179
     0
270
     2
144
0.0208333333333333
144
0.0
144
0.0
144
0.0
144
0.0
144
0.0208333333333333
144
0.0
144
0.0
144
0.0
144
0.0
144
1.0
144
0.0
144
0.0
144
0.0
144
0.0
144
1.0
274
     2
147
0.0208333333333333
147
0.0
147
0.0
147
0.0
147
0.0
147
0.0208333333333333
147
0.0
147
0.0
147
0.0
147
0.0
147
1.0
147
0.0
147
0.0
147
0.0
147
0.0
147
1.0
 94
      127
  0
MLEADERSTYLE
  5
66
102
{ACAD_REACTORS
330
65
102
}
330
65
100
AcDbMLeaderStyle
179
     2
170
     2
171
     1
172
     0
 90
        2
 40
0.0
 41
0.0
173
     1
 91
-1056964608
340
5A
 92
       -2
290
     1
 42
0.09
291
     1
 43
0.36
  3
Standard
341
0
 44
0.18
300

342
55
174
     1
178
     6
175
     1
176
     0
 93
-1056964608
 45
0.18
292
     0
297
     0
 46
0.18
343
0
 94
-1056964608
 47
1.0
 49
1.0
140
1.0
293
     1
141
0.0
294
     1
177
     0
142
1.0
295
     0
296
     0
143
0.125
271
     0
272
     9
273
     9
298
     0
  0
MLINESTYLE
  5
5F
102
{ACAD_REACTORS
330
5E
102
}
330
5E
100
AcDbMlineStyle
  2
STANDARD
 70
     0
  3

 62
   256
 51
90.0
 52
90.0
 71
     2
 49
0.5
 62
   256
  6
BYLAYER
 49
-0.5
 62
   256
  6
BYLAYER
  0
ACDBPLACEHOLDER
  5
F
102
{ACAD_REACTORS
330
E
102
}
330
E
  0
SCALE
  5
43
102
{ACAD_REACTORS
330
42
102
}
330
42
100
AcDbScale
 70
     0
300
1:1
140
1.0
141
1.0
290
     1
  0
SCALE
  5
44
102
{ACAD_REACTORS
330
42
102
}
330
42
100
AcDbScale
 70
     0
300
1/128" = 1'-0"
140
0.0078125
141
12.0
290
     0
  0
SCALE
  5
45
102
{ACAD_REACTORS
330
42
102
}
330
42
100
AcDbScale
 70
     0
300
1/64" = 1'-0"
140
0.015625
141
12.0
290
     0
  0
SCALE
  5
46
102
{ACAD_REACTORS
330
42
102
}
330
42
100
AcDbScale
 70
     0
300
1/32" = 1'-0"
140
0.03125
141
12.0
290
     0
  0
SCALE
  5
47
102
{ACAD_REACTORS
330
42
102
}
330
42
100
AcDbScale
 70
     0
300
1/16" = 1'-0"
140
0.0625
141
12.0
290
     0
  0
SCALE
  5
48
102
{ACAD_REACTORS
330
42
102
}
330
42
100
AcDbScale
 70
     0
300
3/32" = 1'-0"
140
0.09375
141
12.0
290
     0
  0
SCALE
  5
49
102
{ACAD_REACTORS
330
42
102
}
330
42
100
AcDbScale
 70
     0
300
1/8" = 1'-0"
140
0.125
141
12.0
290
     0
  0
SCALE
  5
4A
102
{ACAD_REACTORS
330
42
102
}
330
42
100
AcDbScale
 70
     0
300
3/16" = 1'-0"
140
0.1875
141
12.0
290
     0
  0
SCALE
  5
4B
102
{ACAD_REACTORS
330
42
102
}
330
42
100
AcDbScale
 70
     0
300
1/4" = 1'-0"
140
0.25
141
12.0
290
     0
  0
SCALE
  5
4C
102
{ACAD_REACTORS
330
42
102
}
330
42
100
AcDbScale
 70
     0
300
3/8" = 1'-0"
140
0.375
141
12.0
290
     0
  0
SCALE
  5
4D
102
{ACAD_REACTORS
330
42
102
}
330
42
100
AcDbScale
 70
     0
300
1/2" = 1'-0"
140
0.5
141
12.0
290
     0
  0
SCALE
  5
4E
102
{ACAD_REACTORS
330
42
102
}
330
42
100
AcDbScale
 70
     0
300
3/4" = 1'-0"
140
0.75
141
12.0
290
     0
  0
SCALE
  5
4F
102
{ACAD_REACTORS
330
42
102
}
330
42
100
AcDbScale
 70
     0
300
1" = 1'-0"
140
1.0
141
12.0
290
     0
  0
SCALE
  5
50
102
{ACAD_REACTORS
330
42
102
}
330
42
100
AcDbScale
 70
     0
300
1-1/2" = 1'-0"
140
1.5
141
12.0
290
     0
  0
SCALE
  5
51
102
{ACAD_REACTORS
330
42
102
}
330
42
100
AcDbScale
 70
     0
300
3" = 1'-0"
140
3.0
141
12.0
290
     0
  0
SCALE
  5
52
102
{ACAD_REACTORS
330
42
102
}
330
42
100
AcDbScale
 70
     0
300
6" = 1'-0"
140
6.0
141
12.0
290
     0
  0
SCALE
  5
53
102
{ACAD_REACTORS
330
42
102
}
330
42
100
AcDbScale
 70
     0
300
1'-0" = 1'-0"
140
12.0
141
12.0
290
     0
  0
TABLESTYLE
  5
9F7
102
{ACAD_REACTORS
330
63
102
}
102
{ACAD_XDICTIONARY
360
195E
102
}
330
63
100
AcDbTableStyle
  3

 70
     0
 71
     0
 40
0.06
 41
0.06
280
     0
281
     0
  7
Legend
140
0.4
170
     4
 62
     0
 63
   257
283
     0
 90
      512
 91
        0
  1

274
    -2
284
     0
 64
     0
275
    -2
285
     0
 65
     0
276
    -2
286
     0
 66
     0
277
    -2
287
     0
 67
     0
278
    -2
288
     0
 68
     0
279
    -2
289
     0
 69
     0
  7
Legend
140
0.5
170
     5
 62
     0
 63
   257
283
     0
 90
      512
 91
        0
  1

274
    -2
284
     0
 64
     0
275
    -2
285
     0
 65
     0
276
    -2
286
     0
 66
     0
277
    -2
287
     0
 67
     0
278
    -2
288
     0
 68
     0
279
    -2
289
     0
 69
     0
  7
Legend
140
0.4
170
     4
 62
     0
 63
   257
283
     0
 90
      512
 91
        0
  1

274
    -2
284
     0
 64
     0
275
    -2
285
     0
 65
     0
276
    -2
286
     0
 66
     0
277
    -2
287
     0
 67
     0
278
    -2
288
     0
 68
     0
279
    -2
289
     0
 69
     0
  0
TABLESTYLE
  5
64
102
{ACAD_REACTORS
330
63
102
}
102
{ACAD_XDICTIONARY
360
1960
102
}
330
63
100
AcDbTableStyle
  3
Standard
 70
     0
 71
     0
 40
0.06
 41
0.06
280
     0
281
     0
  7
STANDARD
140
0.18
170
     2
 62
     0
 63
   257
283
     0
 90
      512
 91
        0
  1

274
    -2
284
     1
 64
     0
275
    -2
285
     1
 65
     0
276
    -2
286
     1
 66
     0
277
    -2
287
     1
 67
     0
278
    -2
288
     1
 68
     0
279
    -2
289
     1
 69
     0
  7
STANDARD
140
0.25
170
     5
 62
     0
 63
   257
283
     0
 90
      512
 91
        0
  1

274
    -2
284
     1
 64
     0
275
    -2
285
     1
 65
     0
276
    -2
286
     1
 66
     0
277
    -2
287
     1
 67
     0
278
    -2
288
     1
 68
     0
279
    -2
289
     1
 69
     0
  7
STANDARD
140
0.18
170
     5
 62
     0
 63
   257
283
     0
 90
      512
 91
        0
  1

274
    -2
284
     1
 64
     0
275
    -2
285
     1
 65
     0
276
    -2
286
     1
 66
     0
277
    -2
287
     1
 67
     0
278
    -2
288
     1
 68
     0
279
    -2
289
     1
 69
     0
  0
VISUALSTYLE
  5
2F
102
{ACAD_REACTORS
330
29
102
}
330
29
100
AcDbVisualStyle
  2
2dWireframe
 70
     4
177
     3
291
     0
 70
    58
 90
        0
176
     1
 90
        2
176
     1
 90
        0
176
     1
 90
        0
176
     1
 40
0.6
176
     1
 40
30.0
176
     1
 62
     7
420
 16777215
176
     1
 90
        1
176
     1
 90
        4
176
     1
 62
     7
176
     1
 62
   257
176
     1
 90
        1
176
     1
 90
        1
176
     1
 40
1.0
176
     1
 90
        0
176
     1
 62
   257
176
     1
 40
1.0
176
     1
 90
        1
176
     1
 90
        6
176
     1
 90
        2
176
     1
 62
     7
176
     1
 90
        5
176
     1
 90
        0
176
     1
 90
        0
176
     1
290
     0
176
     1
 90
        1
176
     1
 40
0.0
176
     1
 90
        0
176
     1
290
     1
176
     1
290
     1
176
     1
290
     0
176
     1
290
     0
176
     1
290
     0
176
     1
290
     0
176
     1
290
     0
176
     1
290
     0
176
     1
290
     0
176
     1
 90
       50
176
     1
 40
0.0
176
     1
 40
1.0
176
     1
 90
        0
176
     1
 62
    18
420
        0
176
     1
 90
       50
176
     1
 90
        3
176
     1
 62
     5
420
      255
176
     1
290
     0
176
     1
 90
       50
176
     1
 90
       50
176
     1
 90
       50
176
     1
290
     0
176
     1
 90
       50
176
     1
 62
   256
176
     0
 40
1.0
176
     0
 90
        2
176
     1
  1
strokes_ogs.tif
176
     1
290
     0
176
     1
 40
1.0
176
     1
 40
1.0
176
     1
  0
VISUALSTYLE
  5
2E
102
{ACAD_REACTORS
330
29
102
}
330
29
100
AcDbVisualStyle
  2
Basic
 70
     7
177
     3
291
     1
 70
    58
 90
        1
176
     1
 90
        0
176
     1
 90
        1
176
     1
 90
        0
176
     1
 40
0.6
176
     1
 40
30.0
176
     1
 62
     7
420
 16777215
176
     1
 90
        0
176
     1
 90
        4
176
     1
 62
     7
176
     1
 62
   257
176
     1
 90
        1
176
     1
 90
        1
176
     1
 40
1.0
176
     1
 90
        8
176
     1
 62
     7
176
     1
 40
1.0
176
     1
 90
        1
176
     1
 90
        6
176
     1
 90
        2
176
     1
 62
     7
176
     1
 90
        5
176
     1
 90
        0
176
     1
 90
        0
176
     1
290
     0
176
     1
 90
        1
176
     1
 40
0.0
176
     1
 90
        0
176
     1
290
     0
176
     1
290
     1
176
     1
290
     1
176
     1
290
     0
176
     1
290
     0
176
     1
290
     0
176
     1
290
     0
176
     1
290
     0
176
     1
290
     0
176
     1
 90
       50
176
     1
 40
0.0
176
     1
 40
1.0
176
     1
 90
        0
176
     1
 62
    18
420
        0
176
     1
 90
       50
176
     1
 90
        3
176
     1
 62
     5
420
      255
176
     1
290
     0
176
     1
 90
       50
176
     1
 90
       50
176
     1
 90
       50
176
     1
290
     0
176
     1
 90
       50
176
     1
 62
   256
176
     0
 40
1.0
176
     0
 90
        2
176
     1
  1
strokes_ogs.tif
176
     1
290
     0
176
     1
 40
1.0
176
     1
 40
1.0
176
     1
  0
VISUALSTYLE
  5
35
102
{ACAD_REACTORS
330
29
102
}
330
29
100
AcDbVisualStyle
  2
Brighten
 70
    12
177
     3
291
     1
 70
    58
 90
        2
176
     1
 90
        2
176
     1
 90
        0
176
     1
 90
        0
176
     1
 40
0.6
176
     1
 40
30.0
176
     1
 62
     7
420
 16777215
176
     1
 90
        1
176
     1
 90
        4
176
     1
 62
     7
176
     1
 62
   257
176
     1
 90
        1
176
     1
 90
        1
176
     1
 40
1.0
176
     1
 90
        8
176
     1
 62
     7
176
     1
 40
1.0
176
     1
 90
        1
176
     1
 90
        6
176
     1
 90
        2
176
     1
 62
     7
176
     1
 90
        5
176
     1
 90
        0
176
     1
 90
        0
176
     1
290
     0
176
     1
 90
        1
176
     1
 40
50.0
176
     1
 90
        0
176
     1
290
     0
176
     1
290
     1
176
     1
290
     1
176
     1
290
     0
176
     1
290
     0
176
     1
290
     0
176
     1
290
     0
176
     1
290
     0
176
     1
290
     0
176
     1
 90
       50
176
     1
 40
0.0
176
     1
 40
1.0
176
     1
 90
        0
176
     1
 62
    18
420
        0
176
     1
 90
       50
176
     1
 90
        3
176
     1
 62
     5
420
      255
176
     1
290
     0
176
     1
 90
       50
176
     1
 90
       50
176
     1
 90
       50
176
     1
290
     0
176
     1
 90
       50
176
     1
 62
   256
176
     0
 40
1.0
176
     0
 90
        2
176
     1
  1
strokes_ogs.tif
176
     1
290
     0
176
     1
 40
1.0
176
     1
 40
1.0
176
     1
  0
VISUALSTYLE
  5
39
102
{ACAD_REACTORS
330
29
102
}
330
29
100
AcDbVisualStyle
  2
ColorChange
 70
    16
177
     3
291
     1
 70
    58
 90
        2
176
     1
 90
        2
176
     1
 90
        3
176
     1
 90
        0
176
     1
 40
0.6
176
     1
 40
30.0
176
     1
 62
     8
420
  8421504
176
     1
 90
        1
176
     1
 90
        4
176
     1
 62
     7
176
     1
 62
   257
176
     1
 90
        1
176
     1
 90
        1
176
     1
 40
1.0
176
     1
 90
        8
176
     1
 62
     8
420
  8421504
176
     1
 40
1.0
176
     1
 90
        1
176
     1
 90
        6
176
     1
 90
        2
176
     1
 62
     7
176
     1
 90
        5
176
     1
 90
        0
176
     1
 90
        0
176
     1
290
     0
176
     1
 90
        1
176
     1
 40
0.0
176
     1
 90
        0
176
     1
290
     0
176
     1
290
     1
176
     1
290
     1
176
     1
290
     0
176
     1
290
     0
176
     1
290
     0
176
     1
290
     0
176
     1
290
     0
176
     1
290
     0
176
     1
 90
       50
176
     1
 40
0.0
176
     1
 40
1.0
176
     1
 90
        0
176
     1
 62
    18
420
        0
176
     1
 90
       50
176
     1
 90
        3
176
     1
 62
     5
420
      255
176
     1
290
     0
176
     1
 90
       50
176
     1
 90
       50
176
     1
 90
       50
176
     1
290
     0
176
     1
 90
       50
176
     1
 62
   256
176
     0
 40
1.0
176
     0
 90
        2
176
     1
  1
strokes_ogs.tif
176
     1
290
     0
176
     1
 40
1.0
176
     1
 40
1.0
176
     1
  0
VISUALSTYLE
  5
32
102
{ACAD_REACTORS
330
29
102
}
330
29
100
AcDbVisualStyle
  2
Conceptual
 70
     9
177
     3
291
     0
 70
    58
 90
        3
176
     1
 90
        2
176
     1
 90
        0
176
     1
 90
        0
176
     1
 40
0.6
176
     1
 40
30.0
176
     1
 62
     7
420
 16777215
176
     1
 90
        2
176
     1
 90
        2
176
     1
 62
     7
176
     1
 62
   257
176
     1
 90
        1
176
     1
 90
        1
176
     1
 40
179.0
176
     1
 90
        8
176
     1
 62
     7
176
     1
 40
1.0
176
     1
 90
        1
176
     1
 90
        6
176
     1
 90
        2
176
     1
 62
     7
176
     1
 90
        3
176
     1
 90
        0
176
     1
 90
        0
176
     1
290
     0
176
     1
 90
        1
176
     1
 40
0.0
176
     1
 90
        0
176
     1
290
     0
176
     1
290
     1
176
     1
290
     1
176
     1
290
     0
176
     1
290
     0
176
     1
290
     0
176
     1
290
     0
176
     1
290
     0
176
     1
290
     0
176
     1
 90
       50
176
     1
 40
0.0
176
     1
 40
1.0
176
     1
 90
        0
176
     1
 62
    18
420
        0
176
     1
 90
       50
176
     1
 90
        3
176
     1
 62
     5
420
      255
176
     1
290
     0
176
     1
 90
       50
176
     1
 90
       50
176
     1
 90
       50
176
     1
290
     0
176
     1
 90
       50
176
     1
 62
   256
176
     0
 40
1.0
176
     0
 90
        2
176
     1
  1
strokes_ogs.tif
176
     1
290
     0
176
     1
 40
1.0
176
     1
 40
1.0
176
     1
  0
VISUALSTYLE
  5
34
102
{ACAD_REACTORS
330
29
102
}
330
29
100
AcDbVisualStyle
  2
Dim
 70
    11
177
     3
291
     1
 70
    58
 90
        2
176
     1
 90
        2
176
     1
 90
        0
176
     1
 90
        0
176
     1
 40
0.6
176
     1
 40
30.0
176
     1
 62
     7
420
 16777215
176
     1
 90
        1
176
     1
 90
        4
176
     1
 62
     7
176
     1
 62
   257
176
     1
 90
        1
176
     1
 90
        1
176
     1
 40
1.0
176
     1
 90
        8
176
     1
 62
     7
176
     1
 40
1.0
176
     1
 90
        1
176
     1
 90
        6
176
     1
 90
        2
176
     1
 62
     7
176
     1
 90
        5
176
     1
 90
        0
176
     1
 90
        0
176
     1
290
     0
176
     1
 90
        1
176
     1
 40
-50.0
176
     1
 90
        0
176
     1
290
     0
176
     1
290
     1
176
     1
290
     1
176
     1
290
     0
176
     1
290
     0
176
     1
290
     0
176
     1
290
     0
176
     1
290
     0
176
     1
290
     0
176
     1
 90
       50
176
     1
 40
0.0
176
     1
 40
1.0
176
     1
 90
        0
176
     1
 62
    18
420
        0
176
     1
 90
       50
176
     1
 90
        3
176
     1
 62
     5
420
      255
176
     1
290
     0
176
     1
 90
       50
176
     1
 90
       50
176
     1
 90
       50
176
     1
290
     0
176
     1
 90
       50
176
     1
 62
   256
176
     0
 40
1.0
176
     0
 90
        2
176
     1
  1
strokes_ogs.tif
176
     1
290
     0
176
     1
 40
1.0
176
     1
 40
1.0
176
     1
  0
VISUALSTYLE
  5
41
102
{ACAD_REACTORS
330
29
102
}
330
29
100
AcDbVisualStyle
  2
EdgeColorOff
 70
    22
177
     3
291
     1
 70
    58
 90
        2
176
     0
 90
        2
176
     0
 90
        0
176
     0
 90
        0
176
     0
 40
0.6
176
     0
 40
30.0
176
     0
 62
     7
420
 16777215
176
     0
 90
        1
176
     0
 90
        4
176
     0
 62
     7
176
     0
 62
   257
176
     0
 90
        1
176
     0
 90
        1
176
     0
 40
1.0
176
     0
 90
        8
176
     2
 62
     7
176
     0
 40
1.0
176
     0
 90
        1
176
     0
 90
        6
176
     0
 90
        2
176
     0
 62
     7
176
     0
 90
        5
176
     0
 90
        0
176
     0
 90
        0
176
     0
290
     0
176
     0
 90
        1
176
     0
 40
0.0
176
     0
 90
        0
176
     0
290
     0
176
     1
290
     1
176
     1
290
     1
176
     1
290
     0
176
     1
290
     0
176
     1
290
     0
176
     1
290
     0
176
     1
290
     0
176
     1
290
     0
176
     1
 90
       50
176
     1
 40
0.0
176
     1
 40
1.0
176
     1
 90
        0
176
     1
 62
    18
420
        0
176
     1
 90
       50
176
     1
 90
        3
176
     1
 62
     5
420
      255
176
     1
290
     0
176
     1
 90
       50
176
     1
 90
       50
176
     1
 90
       50
176
     1
290
     0
176
     1
 90
       50
176
     1
 62
   256
176
     0
 40
1.0
176
     0
 90
        2
176
     1
  1
strokes_ogs.tif
176
     1
290
     0
176
     1
 40
1.0
176
     1
 40
1.0
176
     1
  0
VISUALSTYLE
  5
38
102
{ACAD_REACTORS
330
29
102
}
330
29
100
AcDbVisualStyle
  2
Facepattern
 70
    15
177
     3
291
     1
 70
    58
 90
        2
176
     1
 90
        2
176
     1
 90
        0
176
     1
 90
        0
176
     1
 40
0.6
176
     1
 40
30.0
176
     1
 62
     7
420
 16777215
176
     1
 90
        1
176
     1
 90
        4
176
     1
 62
     7
176
     1
 62
   257
176
     1
 90
        1
176
     1
 90
        1
176
     1
 40
1.0
176
     1
 90
        8
176
     1
 62
     7
176
     1
 40
1.0
176
     1
 90
        1
176
     1
 90
        6
176
     1
 90
        2
176
     1
 62
     7
176
     1
 90
        5
176
     1
 90
        0
176
     1
 90
        0
176
     1
290
     0
176
     1
 90
        1
176
     1
 40
0.0
176
     1
 90
        0
176
     1
290
     0
176
     1
290
     1
176
     1
290
     1
176
     1
290
     0
176
     1
290
     0
176
     1
290
     0
176
     1
290
     0
176
     1
290
     0
176
     1
290
     0
176
     1
 90
       50
176
     1
 40
0.0
176
     1
 40
1.0
176
     1
 90
        0
176
     1
 62
    18
420
        0
176
     1
 90
       50
176
     1
 90
        3
176
     1
 62
     5
420
      255
176
     1
290
     0
176
     1
 90
       50
176
     1
 90
       50
176
     1
 90
       50
176
     1
290
     0
176
     1
 90
       50
176
     1
 62
   256
176
     0
 40
1.0
176
     0
 90
        2
176
     1
  1
strokes_ogs.tif
176
     1
290
     0
176
     1
 40
1.0
176
     1
 40
1.0
176
     1
  0
VISUALSTYLE
  5
2A
102
{ACAD_REACTORS
330
29
102
}
330
29
100
AcDbVisualStyle
  2
Flat
 70
     0
177
     3
291
     1
 70
    58
 90
        2
176
     1
 90
        1
176
     1
 90
        1
176
     1
 90
        2
176
     1
 40
0.6
176
     1
 40
30.0
176
     1
 62
     7
420
 16777215
176
     1
 90
        0
176
     1
 90
        0
176
     1
 62
     7
176
     1
 62
   257
176
     1
 90
        1
176
     1
 90
        1
176
     1
 40
1.0
176
     1
 90
        8
176
     1
 62
     7
176
     1
 40
1.0
176
     1
 90
        1
176
     1
 90
        6
176
     1
 90
        2
176
     1
 62
     7
176
     1
 90
        5
176
     1
 90
        0
176
     1
 90
        0
176
     1
290
     0
176
     1
 90
       13
176
     1
 40
0.0
176
     1
 90
        0
176
     1
290
     0
176
     1
290
     1
176
     1
290
     1
176
     1
290
     0
176
     1
290
     0
176
     1
290
     0
176
     1
290
     0
176
     1
290
     0
176
     1
290
     0
176
     1
 90
       50
176
     1
 40
0.0
176
     1
 40
1.0
176
     1
 90
        0
176
     1
 62
    18
420
        0
176
     1
 90
       50
176
     1
 90
        3
176
     1
 62
     5
420
      255
176
     1
290
     0
176
     1
 90
       50
176
     1
 90
       50
176
     1
 90
       50
176
     1
290
     0
176
     1
 90
       50
176
     1
 62
   256
176
     0
 40
1.0
176
     0
 90
        2
176
     1
  1
strokes_ogs.tif
176
     1
290
     0
176
     1
 40
1.0
176
     1
 40
1.0
176
     1
  0
VISUALSTYLE
  5
2B
102
{ACAD_REACTORS
330
29
102
}
330
29
100
AcDbVisualStyle
  2
FlatWithEdges
 70
     1
177
     3
291
     1
 70
    58
 90
        2
176
     1
 90
        1
176
     1
 90
        1
176
     1
 90
        2
176
     1
 40
0.6
176
     1
 40
30.0
176
     1
 62
     7
420
 16777215
176
     1
 90
        1
176
     1
 90
        0
176
     1
 62
     7
176
     1
 62
   257
176
     1
 90
        1
176
     1
 90
        1
176
     1
 40
1.0
176
     1
 90
        0
176
     1
 62
   257
176
     1
 40
1.0
176
     1
 90
        1
176
     1
 90
        6
176
     1
 90
        2
176
     1
 62
     7
176
     1
 90
        5
176
     1
 90
        0
176
     1
 90
        0
176
     1
290
     0
176
     1
 90
       13
176
     1
 40
0.0
176
     1
 90
        0
176
     1
290
     0
176
     1
290
     1
176
     1
290
     1
176
     1
290
     0
176
     1
290
     0
176
     1
290
     0
176
     1
290
     0
176
     1
290
     0
176
     1
290
     0
176
     1
 90
       50
176
     1
 40
0.0
176
     1
 40
1.0
176
     1
 90
        0
176
     1
 62
    18
420
        0
176
     1
 90
       50
176
     1
 90
        3
176
     1
 62
     5
420
      255
176
     1
290
     0
176
     1
 90
       50
176
     1
 90
       50
176
     1
 90
       50
176
     1
290
     0
176
     1
 90
       50
176
     1
 62
   256
176
     0
 40
1.0
176
     0
 90
        2
176
     1
  1
strokes_ogs.tif
176
     1
290
     0
176
     1
 40
1.0
176
     1
 40
1.0
176
     1
  0
VISUALSTYLE
  5
2C
102
{ACAD_REACTORS
330
29
102
}
330
29
100
AcDbVisualStyle
  2
Gouraud
 70
     2
177
     3
291
     1
 70
    58
 90
        2
176
     1
 90
        2
176
     1
 90
        1
176
     1
 90
        2
176
     1
 40
0.6
176
     1
 40
30.0
176
     1
 62
     7
420
 16777215
176
     1
 90
        0
176
     1
 90
        0
176
     1
 62
     7
176
     1
 62
   257
176
     1
 90
        1
176
     1
 90
        1
176
     1
 40
1.0
176
     1
 90
        0
176
     1
 62
     7
176
     1
 40
1.0
176
     1
 90
        1
176
     1
 90
        6
176
     1
 90
        2
176
     1
 62
     7
176
     1
 90
        5
176
     1
 90
        0
176
     1
 90
        0
176
     1
290
     0
176
     1
 90
       13
176
     1
 40
0.0
176
     1
 90
        0
176
     1
290
     0
176
     1
290
     1
176
     1
290
     1
176
     1
290
     0
176
     1
290
     0
176
     1
290
     0
176
     1
290
     0
176
     1
290
     0
176
     1
290
     0
176
     1
 90
       50
176
     1
 40
0.0
176
     1
 40
1.0
176
     1
 90
        0
176
     1
 62
    18
420
        0
176
     1
 90
       50
176
     1
 90
        3
176
     1
 62
     5
420
      255
176
     1
290
     0
176
     1
 90
       50
176
     1
 90
       50
176
     1
 90
       50
176
     1
290
     0
176
     1
 90
       50
176
     1
 62
   256
176
     0
 40
1.0
176
     0
 90
        2
176
     1
  1
strokes_ogs.tif
176
     1
290
     0
176
     1
 40
1.0
176
     1
 40
1.0
176
     1
  0
VISUALSTYLE
  5
2D
102
{ACAD_REACTORS
330
29
102
}
330
29
100
AcDbVisualStyle
  2
GouraudWithEdges
 70
     3
177
     3
291
     1
 70
    58
 90
        2
176
     1
 90
        2
176
     1
 90
        1
176
     1
 90
        2
176
     1
 40
0.6
176
     1
 40
30.0
176
     1
 62
     7
420
 16777215
176
     1
 90
        1
176
     1
 90
        0
176
     1
 62
     7
176
     1
 62
   257
176
     1
 90
        1
176
     1
 90
        1
176
     1
 40
1.0
176
     1
 90
        0
176
     1
 62
   257
176
     1
 40
1.0
176
     1
 90
        1
176
     1
 90
        6
176
     1
 90
        2
176
     1
 62
     7
176
     1
 90
        5
176
     1
 90
        0
176
     1
 90
        0
176
     1
290
     0
176
     1
 90
       13
176
     1
 40
0.0
176
     1
 90
        0
176
     1
290
     0
176
     1
290
     1
176
     1
290
     1
176
     1
290
     0
176
     1
290
     0
176
     1
290
     0
176
     1
290
     0
176
     1
290
     0
176
     1
290
     0
176
     1
 90
       50
176
     1
 40
0.0
176
     1
 40
1.0
176
     1
 90
        0
176
     1
 62
    18
420
        0
176
     1
 90
       50
176
     1
 90
        3
176
     1
 62
     5
420
      255
176
     1
290
     0
176
     1
 90
       50
176
     1
 90
       50
176
     1
 90
       50
176
     1
290
     0
176
     1
 90
       50
176
     1
 62
   256
176
     0
 40
1.0
176
     0
 90
        2
176
     1
  1
strokes_ogs.tif
176
     1
290
     0
176
     1
 40
1.0
176
     1
 40
1.0
176
     1
  0
VISUALSTYLE
  5
31
102
{ACAD_REACTORS
330
29
102
}
330
29
100
AcDbVisualStyle
  2
Hidden
 70
     6
177
     3
291
     0
 70
    58
 90
        1
176
     1
 90
        2
176
     1
 90
        2
176
     1
 90
        0
176
     1
 40
0.6
176
     1
 40
30.0
176
     1
 62
     7
420
 16777215
176
     1
 90
        2
176
     1
 90
        2
176
     1
 62
     7
176
     1
 62
   257
176
     1
 90
        2
176
     1
 90
        1
176
     1
 40
40.0
176
     1
 90
        0
176
     1
 62
   257
176
     1
 40
1.0
176
     1
 90
        1
176
     1
 90
        6
176
     1
 90
        2
176
     1
 62
     7
176
     1
 90
        3
176
     1
 90
        0
176
     1
 90
        0
176
     1
290
     0
176
     1
 90
        1
176
     1
 40
0.0
176
     1
 90
        0
176
     1
290
     0
176
     1
290
     1
176
     1
290
     1
176
     1
290
     0
176
     1
290
     0
176
     1
290
     0
176
     1
290
     0
176
     1
290
     0
176
     1
290
     0
176
     1
 90
       50
176
     1
 40
0.0
176
     1
 40
1.0
176
     1
 90
        0
176
     1
 62
    18
420
        0
176
     1
 90
       50
176
     1
 90
        3
176
     1
 62
     5
420
      255
176
     1
290
     0
176
     1
 90
       50
176
     1
 90
       50
176
     1
 90
       50
176
     1
290
     0
176
     1
 90
       50
176
     1
 62
   256
176
     0
 40
1.0
176
     0
 90
        2
176
     1
  1
strokes_ogs.tif
176
     1
290
     0
176
     1
 40
1.0
176
     1
 40
1.0
176
     1
  0
VISUALSTYLE
  5
3F
102
{ACAD_REACTORS
330
29
102
}
330
29
100
AcDbVisualStyle
  2
JitterOff
 70
    20
177
     3
291
     1
 70
    58
 90
        2
176
     0
 90
        2
176
     0
 90
        0
176
     0
 90
        0
176
     0
 40
0.6
176
     0
 40
30.0
176
     0
 62
     7
420
 16777215
176
     0
 90
        1
176
     0
 90
        4
176
     0
 62
     7
176
     0
 62
   257
176
     0
 90
        1
176
     0
 90
        1
176
     0
 40
1.0
176
     0
 90
       10
176
     2
 62
     7
176
     0
 40
1.0
176
     0
 90
        1
176
     0
 90
        6
176
     0
 90
        2
176
     0
 62
     7
176
     0
 90
        5
176
     0
 90
        0
176
     0
 90
        0
176
     0
290
     0
176
     0
 90
        1
176
     0
 40
0.0
176
     0
 90
        0
176
     0
290
     0
176
     1
290
     1
176
     1
290
     1
176
     1
290
     0
176
     1
290
     0
176
     1
290
     0
176
     1
290
     0
176
     1
290
     0
176
     1
290
     0
176
     1
 90
       50
176
     1
 40
0.0
176
     1
 40
1.0
176
     1
 90
        0
176
     1
 62
    18
420
        0
176
     1
 90
       50
176
     1
 90
        3
176
     1
 62
     5
420
      255
176
     1
290
     0
176
     1
 90
       50
176
     1
 90
       50
176
     1
 90
       50
176
     1
290
     0
176
     1
 90
       50
176
     1
 62
   256
176
     0
 40
1.0
176
     0
 90
        2
176
     1
  1
strokes_ogs.tif
176
     1
290
     0
176
     1
 40
1.0
176
     1
 40
1.0
176
     1
  0
VISUALSTYLE
  5
37
102
{ACAD_REACTORS
330
29
102
}
330
29
100
AcDbVisualStyle
  2
Linepattern
 70
    14
177
     3
291
     1
 70
    58
 90
        2
176
     1
 90
        2
176
     1
 90
        0
176
     1
 90
        0
176
     1
 40
0.6
176
     1
 40
30.0
176
     1
 62
     7
420
 16777215
176
     1
 90
        1
176
     1
 90
        4
176
     1
 62
     7
176
     1
 62
   257
176
     1
 90
        7
176
     1
 90
        7
176
     1
 40
1.0
176
     1
 90
        8
176
     1
 62
     7
176
     1
 40
1.0
176
     1
 90
        1
176
     1
 90
        6
176
     1
 90
        2
176
     1
 62
     7
176
     1
 90
        5
176
     1
 90
        0
176
     1
 90
        0
176
     1
290
     0
176
     1
 90
        1
176
     1
 40
0.0
176
     1
 90
        0
176
     1
290
     0
176
     1
290
     1
176
     1
290
     1
176
     1
290
     0
176
     1
290
     0
176
     1
290
     0
176
     1
290
     0
176
     1
290
     0
176
     1
290
     0
176
     1
 90
       50
176
     1
 40
0.0
176
     1
 40
1.0
176
     1
 90
        0
176
     1
 62
    18
420
        0
176
     1
 90
       50
176
     1
 90
        3
176
     1
 62
     5
420
      255
176
     1
290
     0
176
     1
 90
       50
176
     1
 90
       50
176
     1
 90
       50
176
     1
290
     0
176
     1
 90
       50
176
     1
 62
   256
176
     0
 40
1.0
176
     0
 90
        2
176
     1
  1
strokes_ogs.tif
176
     1
290
     0
176
     1
 40
1.0
176
     1
 40
1.0
176
     1
  0
VISUALSTYLE
  5
40
102
{ACAD_REACTORS
330
29
102
}
330
29
100
AcDbVisualStyle
  2
OverhangOff
 70
    21
177
     3
291
     1
 70
    58
 90
        2
176
     0
 90
        2
176
     0
 90
        0
176
     0
 90
        0
176
     0
 40
0.6
176
     0
 40
30.0
176
     0
 62
     7
420
 16777215
176
     0
 90
        1
176
     0
 90
        4
176
     0
 62
     7
176
     0
 62
   257
176
     0
 90
        1
176
     0
 90
        1
176
     0
 40
1.0
176
     0
 90
        9
176
     2
 62
     7
176
     0
 40
1.0
176
     0
 90
        1
176
     0
 90
        6
176
     0
 90
        2
176
     0
 62
     7
176
     0
 90
        5
176
     0
 90
        0
176
     0
 90
        0
176
     0
290
     0
176
     0
 90
        1
176
     0
 40
0.0
176
     0
 90
        0
176
     0
290
     0
176
     1
290
     1
176
     1
290
     1
176
     1
290
     0
176
     1
290
     0
176
     1
290
     0
176
     1
290
     0
176
     1
290
     0
176
     1
290
     0
176
     1
 90
       50
176
     1
 40
0.0
176
     1
 40
1.0
176
     1
 90
        0
176
     1
 62
    18
420
        0
176
     1
 90
       50
176
     1
 90
        3
176
     1
 62
     5
420
      255
176
     1
290
     0
176
     1
 90
       50
176
     1
 90
       50
176
     1
 90
       50
176
     1
290
     0
176
     1
 90
       50
176
     1
 62
   256
176
     0
 40
1.0
176
     0
 90
        2
176
     1
  1
strokes_ogs.tif
176
     1
290
     0
176
     1
 40
1.0
176
     1
 40
1.0
176
     1
  0
VISUALSTYLE
  5
33
102
{ACAD_REACTORS
330
29
102
}
330
29
100
AcDbVisualStyle
  2
Realistic
 70
     8
177
     3
291
     0
 70
    58
 90
        2
176
     1
 90
        3
176
     1
 90
        0
176
     1
 90
        2
176
     1
 40
0.6
176
     1
 40
30.0
176
     1
 62
     7
420
 16777215
176
     1
 90
        0
176
     1
 90
        0
176
     1
 62
     7
176
     1
 62
   257
176
     1
 90
        1
176
     1
 90
        1
176
     1
 40
1.0
176
     1
 90
        8
176
     1
 62
   257
176
     1
 40
1.0
176
     1
 90
        1
176
     1
 90
        6
176
     1
 90
        2
176
     1
 62
     7
176
     1
 90
        3
176
     1
 90
        0
176
     1
 90
        0
176
     1
290
     0
176
     1
 90
       13
176
     1
 40
0.0
176
     1
 90
        0
176
     1
290
     0
176
     1
290
     1
176
     1
290
     1
176
     1
290
     0
176
     1
290
     0
176
     1
290
     0
176
     1
290
     0
176
     1
290
     0
176
     1
290
     0
176
     1
 90
       50
176
     1
 40
0.0
176
     1
 40
1.0
176
     1
 90
        0
176
     1
 62
    18
420
        0
176
     1
 90
       50
176
     1
 90
        3
176
     1
 62
     5
420
      255
176
     1
290
     0
176
     1
 90
       50
176
     1
 90
       50
176
     1
 90
       50
176
     1
290
     0
176
     1
 90
       50
176
     1
 62
   256
176
     0
 40
1.0
176
     0
 90
        2
176
     1
  1
strokes_ogs.tif
176
     1
290
     0
176
     1
 40
1.0
176
     1
 40
1.0
176
     1
  0
VISUALSTYLE
  5
3E
102
{ACAD_REACTORS
330
29
102
}
330
29
100
AcDbVisualStyle
  2
Shaded
 70
    27
177
     3
291
     0
 70
    58
 90
        2
176
     1
 90
        2
176
     1
 90
        1
176
     1
 90
        2
176
     1
 40
0.6
176
     1
 40
30.0
176
     1
 62
     7
420
 16777215
176
     1
 90
        0
176
     1
 90
        4
176
     1
 62
     7
176
     1
 62
   257
176
     1
 90
        1
176
     1
 90
        1
176
     1
 40
1.0
176
     1
 90
        8
176
     1
 62
   257
176
     1
 40
1.0
176
     1
 90
        1
176
     1
 90
        6
176
     1
 90
        2
176
     1
 62
     8
420
  7895160
176
     1
 90
        3
176
     1
 90
        0
176
     1
 90
        0
176
     1
290
     0
176
     1
 90
        5
176
     1
 40
0.0
176
     1
 90
        0
176
     1
290
     0
176
     1
290
     1
176
     1
290
     1
176
     1
290
     0
176
     1
290
     0
176
     1
290
     0
176
     1
290
     0
176
     1
290
     0
176
     1
290
     0
176
     1
 90
       50
176
     1
 40
0.0
176
     1
 40
1.0
176
     1
 90
        0
176
     1
 62
    18
420
        0
176
     1
 90
       50
176
     1
 90
        3
176
     1
 62
     5
420
      255
176
     1
290
     0
176
     1
 90
       50
176
     1
 90
       50
176
     1
 90
       50
176
     1
290
     0
176
     1
 90
       50
176
     1
 62
   256
176
     0
 40
1.0
176
     0
 90
        2
176
     1
  1
strokes_ogs.tif
176
     1
290
     0
176
     1
 40
1.0
176
     1
 40
1.0
176
     1
  0
VISUALSTYLE
  5
3D
102
{ACAD_REACTORS
330
29
102
}
330
29
100
AcDbVisualStyle
  2
Shaded with edges
 70
    26
177
     3
291
     0
 70
    58
 90
        2
176
     1
 90
        2
176
     1
 90
        1
176
     1
 90
        2
176
     1
 40
0.6
176
     1
 40
30.0
176
     1
 62
     7
420
 16777215
176
     1
 90
        1
176
     1
 90
       10
176
     1
 62
     7
176
     1
 62
   257
176
     1
 90
        2
176
     1
 90
        1
176
     1
 40
1.0
176
     1
 90
        8
176
     1
 62
   257
176
     1
 40
1.0
176
     1
 90
        1
176
     1
 90
        6
176
     1
 90
        2
176
     1
 62
     7
176
     1
 90
        3
176
     1
 90
        0
176
     1
 90
        0
176
     1
290
     0
176
     1
 90
        5
176
     1
 40
0.0
176
     1
 90
        0
176
     1
290
     0
176
     1
290
     1
176
     1
290
     1
176
     1
290
     0
176
     1
290
     0
176
     1
290
     0
176
     1
290
     0
176
     1
290
     0
176
     1
290
     0
176
     1
 90
       50
176
     1
 40
0.0
176
     1
 40
1.0
176
     1
 90
        0
176
     1
 62
    18
420
        0
176
     1
 90
       50
176
     1
 90
        3
176
     1
 62
     5
420
      255
176
     1
290
     0
176
     1
 90
       50
176
     1
 90
       50
176
     1
 90
       50
176
     1
290
     0
176
     1
 90
       50
176
     1
 62
   256
176
     0
 40
1.0
176
     0
 90
        2
176
     1
  1
strokes_ogs.tif
176
     1
290
     0
176
     1
 40
1.0
176
     1
 40
1.0
176
     1
  0
VISUALSTYLE
  5
3A
102
{ACAD_REACTORS
330
29
102
}
330
29
100
AcDbVisualStyle
  2
Shades of Gray
 70
    23
177
     3
291
     0
 70
    58
 90
        2
176
     1
 90
        2
176
     1
 90
        3
176
     1
 90
        0
176
     1
 40
0.6
176
     1
 40
30.0
176
     1
 62
     7
420
 16777215
176
     1
 90
        2
176
     1
 90
        2
176
     1
 62
     7
176
     1
 62
     7
176
     1
 90
        1
176
     1
 90
        1
176
     1
 40
40.0
176
     1
 90
        8
176
     1
 62
     7
176
     1
 40
1.0
176
     1
 90
        1
176
     1
 90
        6
176
     1
 90
        2
176
     1
 62
     7
176
     1
 90
        3
176
     1
 90
        0
176
     1
 90
        0
176
     1
290
     0
176
     1
 90
        1
176
     1
 40
0.0
176
     1
 90
        0
176
     1
290
     0
176
     1
290
     1
176
     1
290
     1
176
     1
290
     0
176
     1
290
     0
176
     1
290
     0
176
     1
290
     0
176
     1
290
     0
176
     1
290
     0
176
     1
 90
       50
176
     1
 40
0.0
176
     1
 40
1.0
176
     1
 90
        0
176
     1
 62
    18
420
        0
176
     1
 90
       50
176
     1
 90
        3
176
     1
 62
     5
420
      255
176
     1
290
     0
176
     1
 90
       50
176
     1
 90
       50
176
     1
 90
       50
176
     1
290
     0
176
     1
 90
       50
176
     1
 62
   256
176
     0
 40
1.0
176
     0
 90
        2
176
     1
  1
strokes_ogs.tif
176
     1
290
     0
176
     1
 40
1.0
176
     1
 40
1.0
176
     1
  0
VISUALSTYLE
  5
3B
102
{ACAD_REACTORS
330
29
102
}
330
29
100
AcDbVisualStyle
  2
Sketchy
 70
    24
177
     3
291
     0
 70
    58
 90
        1
176
     1
 90
        2
176
     1
 90
        2
176
     1
 90
        0
176
     1
 40
0.6
176
     1
 40
30.0
176
     1
 62
     7
420
 16777215
176
     1
 90
        2
176
     1
 90
        2
176
     1
 62
     7
176
     1
 62
     7
176
     1
 90
        1
176
     1
 90
        1
176
     1
 40
40.0
176
     1
 90
       11
176
     1
 62
     7
176
     1
 40
1.0
176
     1
 90
        1
176
     1
 90
        6
176
     1
 90
        2
176
     1
 62
     7
176
     1
 90
        6
176
     1
 90
        0
176
     1
 90
        0
176
     1
290
     0
176
     1
 90
        1
176
     1
 40
0.0
176
     1
 90
        0
176
     1
290
     0
176
     1
290
     1
176
     1
290
     1
176
     1
290
     0
176
     1
290
     0
176
     1
290
     0
176
     1
290
     0
176
     1
290
     0
176
     1
290
     0
176
     1
 90
       50
176
     1
 40
0.0
176
     1
 40
1.0
176
     1
 90
        0
176
     1
 62
    18
420
        0
176
     1
 90
       50
176
     1
 90
        3
176
     1
 62
     5
420
      255
176
     1
290
     0
176
     1
 90
       50
176
     1
 90
       50
176
     1
 90
       50
176
     1
290
     0
176
     1
 90
       50
176
     1
 62
   256
176
     0
 40
1.0
176
     0
 90
        2
176
     1
  1
strokes_ogs.tif
176
     1
290
     0
176
     1
 40
1.0
176
     1
 40
1.0
176
     1
  0
VISUALSTYLE
  5
36
102
{ACAD_REACTORS
330
29
102
}
330
29
100
AcDbVisualStyle
  2
Thicken
 70
    13
177
     3
291
     1
 70
    58
 90
        2
176
     1
 90
        2
176
     1
 90
        0
176
     1
 90
        0
176
     1
 40
0.6
176
     1
 40
30.0
176
     1
 62
     7
420
 16777215
176
     1
 90
        1
176
     1
 90
        4
176
     1
 62
     7
176
     1
 62
   257
176
     1
 90
        1
176
     1
 90
        1
176
     1
 40
1.0
176
     1
 90
       12
176
     1
 62
     7
176
     1
 40
1.0
176
     1
 90
        1
176
     1
 90
        6
176
     1
 90
        2
176
     1
 62
     7
176
     1
 90
        5
176
     1
 90
        0
176
     1
 90
        0
176
     1
290
     0
176
     1
 90
        1
176
     1
 40
0.0
176
     1
 90
        0
176
     1
290
     0
176
     1
290
     1
176
     1
290
     1
176
     1
290
     0
176
     1
290
     0
176
     1
290
     0
176
     1
290
     0
176
     1
290
     0
176
     1
290
     0
176
     1
 90
       50
176
     1
 40
0.0
176
     1
 40
1.0
176
     1
 90
        0
176
     1
 62
    18
420
        0
176
     1
 90
       50
176
     1
 90
        3
176
     1
 62
     5
420
      255
176
     1
290
     0
176
     1
 90
       50
176
     1
 90
       50
176
     1
 90
       50
176
     1
290
     0
176
     1
 90
       50
176
     1
 62
   256
176
     0
 40
1.0
176
     0
 90
        2
176
     1
  1
strokes_ogs.tif
176
     1
290
     0
176
     1
 40
1.0
176
     1
 40
1.0
176
     1
  0
VISUALSTYLE
  5
30
102
{ACAD_REACTORS
330
29
102
}
330
29
100
AcDbVisualStyle
  2
Wireframe
 70
     5
177
     3
291
     0
 70
    58
 90
        0
176
     1
 90
        2
176
     1
 90
        0
176
     1
 90
        0
176
     1
 40
0.6
176
     1
 40
30.0
176
     1
 62
     7
420
 16777215
176
     1
 90
        1
176
     1
 90
        4
176
     1
 62
     7
176
     1
 62
   257
176
     1
 90
        1
176
     1
 90
        1
176
     1
 40
1.0
176
     1
 90
        0
176
     1
 62
   257
176
     1
 40
1.0
176
     1
 90
        1
176
     1
 90
        6
176
     1
 90
        2
176
     1
 62
     7
176
     1
 90
        3
176
     1
 90
        0
176
     1
 90
        0
176
     1
290
     0
176
     1
 90
        1
176
     1
 40
0.0
176
     1
 90
        0
176
     1
290
     0
176
     1
290
     1
176
     1
290
     1
176
     1
290
     0
176
     1
290
     0
176
     1
290
     0
176
     1
290
     0
176
     1
290
     0
176
     1
290
     0
176
     1
 90
       50
176
     1
 40
0.0
176
     1
 40
1.0
176
     1
 90
        0
176
     1
 62
    18
420
        0
176
     1
 90
       50
176
     1
 90
        3
176
     1
 62
     5
420
      255
176
     1
290
     0
176
     1
 90
       50
176
     1
 90
       50
176
     1
 90
       50
176
     1
290
     0
176
     1
 90
       50
176
     1
 62
   256
176
     0
 40
1.0
176
     0
 90
        2
176
     1
  1
strokes_ogs.tif
176
     1
290
     0
176
     1
 40
1.0
176
     1
 40
1.0
176
     1
  0
VISUALSTYLE
  5
3C
102
{ACAD_REACTORS
330
29
102
}
330
29
100
AcDbVisualStyle
  2
X-Ray
 70
    25
177
     3
291
     0
 70
    58
 90
        2
176
     1
 90
        2
176
     1
 90
        1
176
     1
 90
        1
176
     1
 40
0.5
176
     1
 40
30.0
176
     1
 62
     7
420
 16777215
176
     1
 90
        1
176
     1
 90
        0
176
     1
 62
     7
176
     1
 62
   257
176
     1
 90
        1
176
     1
 90
        1
176
     1
 40
1.0
176
     1
 90
        8
176
     1
 62
     7
176
     1
 40
1.0
176
     1
 90
        1
176
     1
 90
        6
176
     1
 90
        2
176
     1
 62
     7
176
     1
 90
        3
176
     1
 90
        0
176
     1
 90
        0
176
     1
290
     0
176
     1
 90
       13
176
     1
 40
0.0
176
     1
 90
        0
176
     1
290
     0
176
     1
290
     1
176
     1
290
     1
176
     1
290
     0
176
     1
290
     0
176
     1
290
     0
176
     1
290
     0
176
     1
290
     0
176
     1
290
     0
176
     1
 90
       50
176
     1
 40
0.0
176
     1
 40
1.0
176
     1
 90
        0
176
     1
 62
    18
420
        0
176
     1
 90
       50
176
     1
 90
        3
176
     1
 62
     5
420
      255
176
     1
290
     0
176
     1
 90
       50
176
     1
 90
       50
176
     1
 90
       50
176
     1
290
     0
176
     1
 90
       50
176
     1
 62
   256
176
     0
 40
1.0
176
     0
 90
        2
176
     1
  1
strokes_ogs.tif
176
     1
290
     0
176
     1
 40
1.0
176
     1
 40
1.0
176
     1
  0
DICTIONARYVAR
  5
F71
102
{ACAD_REACTORS
330
C8C
102
}
330
C8C
100
DictionaryVariables
280
     0
  1
1:1
  0
DICTIONARYVAR
  5
F6F
102
{ACAD_REACTORS
330
C8C
102
}
330
C8C
100
DictionaryVariables
280
     0
  1
Standard
  0
DICTIONARYVAR
  5
F6E
102
{ACAD_REACTORS
330
C8C
102
}
330
C8C
100
DictionaryVariables
280
     0
  1
Standard
  0
DICTIONARYVAR
  5
1963
102
{ACAD_REACTORS
330
C8C
102
}
330
C8C
100
DictionaryVariables
280
     0
  1
1
  0
DICTIONARYVAR
  5
C8D
102
{ACAD_REACTORS
330
C8C
102
}
330
C8C
100
DictionaryVariables
280
     0
  1
1
  0
DICTIONARYVAR
  5
F73
102
{ACAD_REACTORS
330
C8C
102
}
330
C8C
100
DictionaryVariables
280
     0
  1
1
  0
DICTIONARYVAR
  5
F74
102
{ACAD_REACTORS
330
C8C
102
}
330
C8C
100
DictionaryVariables
280
     0
  1
15
  0
DICTIONARYVAR
  5
F72
102
{ACAD_REACTORS
330
C8C
102
}
330
C8C
100
DictionaryVariables
280
     0
  1
0
  0
DICTIONARYVAR
  5
F70
102
{ACAD_REACTORS
330
C8C
102
}
330
C8C
100
DictionaryVariables
280
     0
  1
0
  0
DICTIONARYVAR
  5
1964
102
{ACAD_REACTORS
330
C8C
102
}
330
C8C
100
DictionaryVariables
280
     0
  1
1
  0
XRECORD
  5
1952
102
{ACAD_REACTORS
330
A05
102
}
330
A05
100
AcDbXrecord
280
     1
1000
ADE02C001
1070
     1
1070
     0
1002
{
1002
}
1002
{
1002
}
1002
{
1002
}
1000

  0
XRECORD
  5
1955
102
{ACAD_REACTORS
330
1954
102
}
330
1954
100
AcDbXrecord
280
     1
  0
ACAD_PROXY_OBJECT
  5
A00
102
{ACAD_REACTORS
330
9F0
102
}
330
9F0
100
AcDbProxyObject
 90
      499
 91
      517
 71
    29
 97
       39
 70
     0
161
                10
310
4040
  0
DICTIONARY
  5
A02
102
{ACAD_REACTORS
330
9F0
102
}
330
9F0
100
AcDbDictionary
280
     1
281
     1
  0
DATATABLE
  5
9F4
102
{ACAD_REACTORS
330
9F0
102
}
330
9F0
100
AcDbDataTable
 70
     2
 90
        4
 91
       15
  1

 92
        3
  2
OriginalClassName
  3
AcMapDMDefaultStyle
  3
AcMapDMEntityStyle
  3
AcMapDMRasterStyle
  3
AcMapDMSEAnnotationStyle
  3
AcMapDMSEHatchStyle
  3
AcMapDMSETextStyle
  3
AcMapDMThematicStyle
  3
AcMapDMBaseElement
  3
AcMapDMAttachedDwgsQueryElement
  3
AcMapDMFeatureElement
  3
AcMapDMLayerElement
  3
AcMapDMCurrentDwgQueryElement
  3
AcMapDMRasterElement
  3
AcMapDMTopoElement
  3
AcMapDMTopoQueryElement
 92
        3
  2
ProxyDisplayName
  3
Default
  3
Entity
  3
Raster
  3
Annotation
  3
Hatch
  3
Text
  3
Thematic
  3
Map Base
  3
Ade Query
  3
Feature Class
  3
Layer
  3
Ade Project Query
  3
Raster
  3
Topology
  3
Topology Query
 92
        1
  2
CustomObjectType
 93
        2
 93
        2
 93
        2
 93
        2
 93
        2
 93
        2
 93
        2
 93
        1
 93
        1
 93
        1
 93
        1
 93
        1
 93
        1
 93
        1
 93
        1
 92
        1
  2
StyleCoExistanceType
 93
        1
 93
        1
 93
        1
 93
        1
 93
        1
 93
        1
 93
        2
 93
        0
 93
        0
 93
        0
 93
        0
 93
        0
 93
        0
 93
        0
 93
        0
  0
ACAD_PROXY_OBJECT
  5
9F1
102
{ACAD_REACTORS
330
9F0
102
}
330
9F0
100
AcDbProxyObject
 90
      499
 91
      507
 71
    29
 97
       39
 70
     0
162
               186
311
42D1001A401CC01C001B0018401E40134018401C000C4000
161
                38
310
4050100404
350
9F5
340
9F5
340
9F5
 94
        0
  0
ACAD_PROXY_OBJECT
  5
9F2
102
{ACAD_REACTORS
330
9F0
102
}
330
9F0
100
AcDbProxyObject
 90
      499
 91
      508
 71
    29
 97
       39
 70
     0
161
                20
310
405010
360
9F3
 94
        0
  0
DICTIONARY
  5
A01
102
{ACAD_REACTORS
330
9F0
102
}
330
9F0
100
AcDbDictionary
281
     1
  0
DICTIONARY
  5
195E
330
9F7
100
AcDbDictionary
280
     1
281
     1
  3
ACAD_ROUNDTRIP_2008_TABLESTYLE_CELLSTYLEMAP
360
195F
  0
DICTIONARY
  5
1960
330
64
100
AcDbDictionary
280
     1
281
     1
  3
ACAD_ROUNDTRIP_2008_TABLESTYLE_CELLSTYLEMAP
360
1961
  0
ACAD_PROXY_OBJECT
  5
9F5
102
{ACAD_REACTORS
330
9F1
330
9F8
102
}
330
9F1
100
AcDbProxyObject
 90
      499
 91
      511
 71
    29
 97
       39
 70
     0
162
               230
311
41D1001940198018401D401B001D001064C006500670065006E0064008
161
               572
310
4050140501404FFFFFFFFFFFFEF7FA0B1FFFFFFFFFFFFDEFFA00000000000004202027FFFFFFFFFFFF7BF80000000000001440CAD0000000000201190000000000008046404A1010
330
0
360
9F8
360
9F9
 94
        0
  0
ACAD_PROXY_OBJECT
  5
9F3
102
{ACAD_REACTORS
330
9F2
102
}
330
9F2
100
AcDbProxyObject
 90
      499
 91
      509
 71
    29
 97
       39
 70
     0
162
               234
311
4391001A401CC01C001B0018401E40080014C01D001E401B0019401CC000
161
                12
310
4060
  0
CELLSTYLEMAP
  5
195F
102
{ACAD_REACTORS
330
195E
102
}
330
195E
100
AcDbCellStyleMap
 90
        3
300
CELLSTYLE
  1
TABLEFORMAT_BEGIN
 90
        5
170
     1
 91
        0
 92
    32768
 62
   257
 93
        1
300
CONTENTFORMAT
  1
CONTENTFORMAT_BEGIN
 90
        0
 91
        0
 92
      512
 93
        0
300

 40
0.0
140
1.0
 94
        5
 62
     0
340
9F6
144
0.5
309
CONTENTFORMAT_END
171
     0
 94
        6
 95
        1
302
GRIDFORMAT
  1
GRIDFORMAT_BEGIN
 90
        0
 91
        1
 62
     0
 92
       -2
340
0
 93
        1
 40
0.045
309
GRIDFORMAT_END
 95
        2
302
GRIDFORMAT
  1
GRIDFORMAT_BEGIN
 90
        0
 91
        1
 62
     0
 92
       -2
340
0
 93
        1
 40
0.045
309
GRIDFORMAT_END
 95
        4
302
GRIDFORMAT
  1
GRIDFORMAT_BEGIN
 90
        0
 91
        1
 62
     0
 92
       -2
340
0
 93
        1
 40
0.045
309
GRIDFORMAT_END
 95
        8
302
GRIDFORMAT
  1
GRIDFORMAT_BEGIN
 90
        0
 91
        1
 62
     0
 92
       -2
340
0
 93
        1
 40
0.045
309
GRIDFORMAT_END
 95
       16
302
GRIDFORMAT
  1
GRIDFORMAT_BEGIN
 90
        0
 91
        1
 62
     0
 92
       -2
340
0
 93
        1
 40
0.045
309
GRIDFORMAT_END
 95
       32
302
GRIDFORMAT
  1
GRIDFORMAT_BEGIN
 90
        0
 91
        1
 62
     0
 92
       -2
340
0
 93
        1
 40
0.045
309
GRIDFORMAT_END
309
TABLEFORMAT_END
  1
CELLSTYLE_BEGIN
 90
        1
 91
        1
300
_TITLE
309
CELLSTYLE_END
300
CELLSTYLE
  1
TABLEFORMAT_BEGIN
 90
        5
170
     1
 91
        0
 92
        0
 62
   257
 93
        1
300
CONTENTFORMAT
  1
CONTENTFORMAT_BEGIN
 90
        0
 91
        0
 92
      512
 93
        0
300

 40
0.0
140
1.0
 94
        4
 62
     0
340
9F6
144
0.4
309
CONTENTFORMAT_END
171
     0
 94
        6
 95
        1
302
GRIDFORMAT
  1
GRIDFORMAT_BEGIN
 90
        0
 91
        1
 62
     0
 92
       -2
340
0
 93
        1
 40
0.045
309
GRIDFORMAT_END
 95
        2
302
GRIDFORMAT
  1
GRIDFORMAT_BEGIN
 90
        0
 91
        1
 62
     0
 92
       -2
340
0
 93
        1
 40
0.045
309
GRIDFORMAT_END
 95
        4
302
GRIDFORMAT
  1
GRIDFORMAT_BEGIN
 90
        0
 91
        1
 62
     0
 92
       -2
340
0
 93
        1
 40
0.045
309
GRIDFORMAT_END
 95
        8
302
GRIDFORMAT
  1
GRIDFORMAT_BEGIN
 90
        0
 91
        1
 62
     0
 92
       -2
340
0
 93
        1
 40
0.045
309
GRIDFORMAT_END
 95
       16
302
GRIDFORMAT
  1
GRIDFORMAT_BEGIN
 90
        0
 91
        1
 62
     0
 92
       -2
340
0
 93
        1
 40
0.045
309
GRIDFORMAT_END
 95
       32
302
GRIDFORMAT
  1
GRIDFORMAT_BEGIN
 90
        0
 91
        1
 62
     0
 92
       -2
340
0
 93
        1
 40
0.045
309
GRIDFORMAT_END
309
TABLEFORMAT_END
  1
CELLSTYLE_BEGIN
 90
        2
 91
        1
300
_HEADER
309
CELLSTYLE_END
300
CELLSTYLE
  1
TABLEFORMAT_BEGIN
 90
        5
170
     1
 91
        0
 92
        0
 62
   257
 93
        1
300
CONTENTFORMAT
  1
CONTENTFORMAT_BEGIN
 90
        0
 91
        0
 92
      512
 93
        0
300

 40
0.0
140
1.0
 94
        4
 62
     0
340
9F6
144
0.4
309
CONTENTFORMAT_END
171
     0
 94
        6
 95
        1
302
GRIDFORMAT
  1
GRIDFORMAT_BEGIN
 90
        0
 91
        1
 62
     0
 92
       -2
340
0
 93
        1
 40
0.045
309
GRIDFORMAT_END
 95
        2
302
GRIDFORMAT
  1
GRIDFORMAT_BEGIN
 90
        0
 91
        1
 62
     0
 92
       -2
340
0
 93
        1
 40
0.045
309
GRIDFORMAT_END
 95
        4
302
GRIDFORMAT
  1
GRIDFORMAT_BEGIN
 90
        0
 91
        1
 62
     0
 92
       -2
340
0
 93
        1
 40
0.045
309
GRIDFORMAT_END
 95
        8
302
GRIDFORMAT
  1
GRIDFORMAT_BEGIN
 90
        0
 91
        1
 62
     0
 92
       -2
340
0
 93
        1
 40
0.045
309
GRIDFORMAT_END
 95
       16
302
GRIDFORMAT
  1
GRIDFORMAT_BEGIN
 90
        0
 91
        1
 62
     0
 92
       -2
340
0
 93
        1
 40
0.045
309
GRIDFORMAT_END
 95
       32
302
GRIDFORMAT
  1
GRIDFORMAT_BEGIN
 90
        0
 91
        1
 62
     0
 92
       -2
340
0
 93
        1
 40
0.045
309
GRIDFORMAT_END
309
TABLEFORMAT_END
  1
CELLSTYLE_BEGIN
 90
        3
 91
        2
300
_DATA
309
CELLSTYLE_END
  0
CELLSTYLEMAP
  5
1961
102
{ACAD_REACTORS
330
1960
102
}
330
1960
100
AcDbCellStyleMap
 90
        3
300
CELLSTYLE
  1
TABLEFORMAT_BEGIN
 90
        5
170
     1
 91
        0
 92
    32768
 62
   257
 93
        1
300
CONTENTFORMAT
  1
CONTENTFORMAT_BEGIN
 90
        0
 91
        0
 92
      512
 93
        0
300

 40
0.0
140
1.0
 94
        5
 62
     0
340
55
144
0.25
309
CONTENTFORMAT_END
171
     0
 94
        0
309
TABLEFORMAT_END
  1
CELLSTYLE_BEGIN
 90
        1
 91
        1
300
_TITLE
309
CELLSTYLE_END
300
CELLSTYLE
  1
TABLEFORMAT_BEGIN
 90
        5
170
     1
 91
        0
 92
        0
 62
   257
 93
        1
300
CONTENTFORMAT
  1
CONTENTFORMAT_BEGIN
 90
        0
 91
        0
 92
      512
 93
        0
300

 40
0.0
140
1.0
 94
        5
 62
     0
340
55
144
0.18
309
CONTENTFORMAT_END
171
     0
 94
        0
309
TABLEFORMAT_END
  1
CELLSTYLE_BEGIN
 90
        2
 91
        1
300
_HEADER
309
CELLSTYLE_END
300
CELLSTYLE
  1
TABLEFORMAT_BEGIN
 90
        5
170
     1
 91
        0
 92
        0
 62
   257
 93
        1
300
CONTENTFORMAT
  1
CONTENTFORMAT_BEGIN
 90
        0
 91
        0
 92
      512
 93
        0
300

 40
0.0
140
1.0
 94
        2
 62
     0
340
55
144
0.18
309
CONTENTFORMAT_END
171
     0
 94
        0
309
TABLEFORMAT_END
  1
CELLSTYLE_BEGIN
 90
        3
 91
        2
300
_DATA
309
CELLSTYLE_END
  0
ACAD_PROXY_OBJECT
  5
9F8
102
{ACAD_REACTORS
330
9F5
102
}
102
{ACAD_XDICTIONARY
360
9FC
102
}
330
9F5
100
AcDbProxyObject
 90
      499
 91
      512
 71
    29
 97
       39
 70
     0
162
               142
311
42134018401C000800108018401CC0194028
161
               148
310
4050140902404FFFFFFFFFFFFEF7FA03405010
330
9F5
360
9FB
 94
        0
  0
ACAD_PROXY_OBJECT
  5
9F9
102
{ACAD_REACTORS
330
9F5
102
}
330
9F5
100
AcDbProxyObject
 90
      499
 91
      513
 71
    29
 97
       39
 70
     0
162
               122
311
41D1001940198018401D401B001D0000
161
                40
310
4050140592
1001
AcMapDMDisplayStyleRegapp
1070
     2
1071
        1
1000
Default
1000

  0
DICTIONARY
  5
9FC
330
9F8
100
AcDbDictionary
280
     1
281
     1
  3
AcMapDMSurrogateStyleSets
360
9FD
  0
ACAD_PROXY_OBJECT
  5
9FB
330
9F8
100
AcDbProxyObject
 90
      499
 91
      514
 71
    29
 97
       39
 70
     0
161
                11
310
4040
340
9F9
330
9F5
 94
        0
  0
ACAD_PROXY_OBJECT
  5
9FD
102
{ACAD_REACTORS
330
9FC
102
}
330
9FC
100
AcDbProxyObject
 90
      499
 91
      515
 71
    29
 97
       39
 70
     0
162
               138
311
42134018401C000800108018401CC0194000
161
               110
310
405013FFFFFFFFFFFFBDFE80D018
330
9FB
 94
        0
  0
ENDSEC
  0
SECTION
  2
THUMBNAILIMAGE
 90
    35368
310
28000000000100008600000001000800000000000086000000000000000000000001000000000000FFFFFF0000000000FFFFFF000000000000000000000000000000000000000000000000000000000000000000330000006600000099000000CC000000FF00000000330000333300006633000099330000CC330000FF3300
310
0000660000336600006666000099660000CC660000FF66000000990000339900006699000099990000CC990000FF99000000CC000033CC000066CC000099CC0000CCCC0000FFCC000000FF000033FF000066FF000099FF0000CCFF0000FFFF000000003300330033006600330099003300CC003300FF003300003333003333
310
33006633330099333300CC333300FF33330000663300336633006666330099663300CC663300FF66330000993300339933006699330099993300CC993300FF99330000CC330033CC330066CC330099CC3300CCCC3300FFCC330000FF330033FF330066FF330099FF3300CCFF3300FFFF330000006600330066006600660099
310
006600CC006600FF00660000336600333366006633660099336600CC336600FF33660000666600336666006666660099666600CC666600FF66660000996600339966006699660099996600CC996600FF99660000CC660033CC660066CC660099CC6600CCCC6600FFCC660000FF660033FF660066FF660099FF6600CCFF6600
310
FFFF660000009900330099006600990099009900CC009900FF00990000339900333399006633990099339900CC339900FF33990000669900336699006666990099669900CC669900FF66990000999900339999006699990099999900CC999900FF99990000CC990033CC990066CC990099CC9900CCCC9900FFCC990000FF99
310
0033FF990066FF990099FF9900CCFF9900FFFF99000000CC003300CC006600CC009900CC00CC00CC00FF00CC000033CC003333CC006633CC009933CC00CC33CC00FF33CC000066CC003366CC006666CC009966CC00CC66CC00FF66CC000099CC003399CC006699CC009999CC00CC99CC00FF99CC0000CCCC0033CCCC0066CC
310
CC0099CCCC00CCCCCC00FFCCCC0000FFCC0033FFCC0066FFCC0099FFCC00CCFFCC00FFFFCC000000FF003300FF006600FF009900FF00CC00FF00FF00FF000033FF003333FF006633FF009933FF00CC33FF00FF33FF000066FF003366FF006666FF009966FF00CC66FF00FF66FF000099FF003399FF006699FF009999FF00CC
310
99FF00FF99FF0000CCFF0033CCFF0066CCFF0099CCFF00CCCCFF00FFCCFF0000FFFF0033FFFF0066FFFF0099FFFF00CCFFFF00FFFFFF00000000000D0D0D001A1A1A00282828003535350043434300505050005D5D5D006B6B6B00787878008686860093939300A1A1A100AEAEAE00BBBBBB00C9C9C900D6D6D600E4E4E400
310
F1F1F100FFFFFF000000000000000000000000000000000000000000000000000000000000000000000000000000000000000000000000000000000000000000000000000000000000000000000000000000000000000000000000000000000000000000000000000000000000000000000000000000000000000000000000
310
00000000000000000000000000000000000000000000000000000000000000000000000000000000000000000000000000000000000000000000000000000000000000000000000000000000000000000000000000000000000000000000000000000000000000000000000000000000000000000000000000000000000000
310
00000000000000000000000000000000000000000000000000000000000000000000000000000000000000000000000000000000000000000000000000000000000000000000000000000000000000000000000000000000000000000000000000000000000000000000000000000000000000000000000000000000000000
310
00000000000000000000000000000000000000000000000000000000000000000000000000000000000000000000000000000000000000000000000000000000000000000000000000000000000000000000000000000000000000000000000000000000000000000000000000000000000000000000000000000000000000
310
00000000000000000000000000000000000000000000000000000000000000000000000000000000000000000000000000000000000000000000000000000000000000000000000000000000000000000000000000000000000000000000000000000000000000000000000000000000000000000000000000000000000000
310
000000000000000000000000000000000000000000E2E20000000000000000000000000000000000000000000000000000000000000000000000000000000000000000000000000000000000000000000000000000000000000000000000000000000000000000000000000000000000000000000000000000000000000000
310
00000000000000000000000000000000000000000000000000000000000000000000000000000000000000000000000000000000000000000000000000000000000000000000000000000000000000000000000000000000000000000000000000000000000000000000000000000000000000000000000000000000000000
310
0000000000000000000000000000000000000000000000E200E2E2E2E20000000000000000000000000000000000000000000000000000000000000000000000000000000000000000000000000000000000000000000000000000000000000000000000000000000000000000000000000000000000000000000000000000
310
00000000000000000000000000000000000000000000000000000000000000000000000000000000000000000000000000000000000000000000000000000000000000000000000000000000000000000000000000000000000000000000000000000000000000000000000000000000000000000000000000000000000000
310
000000000000000000000000E2E2E2E2E2E2E2E2E2E2E2E2E2E2E2E2E2E2E2E2E2E2E2E2E2E2E2E2E2E2E2E2E2E2E2E2E2E2E2E2E2E2E2E2E2E2E2E2E2E2E2E2E2E2E2E2E2E2E2E2E2E2E2E2E2E2E2E2E2E2E2E2E2E2E2E2E2E2E2E2E2E2E2E2E2E2E2E2E2E200000000000000000000000000000000000000000000000000
310
00000000000000000000000000000000000000000000000000000000000000000000000000000000000000000000000000000000000000000000000000000000000000000000000000000000000000000000000000000000000000000000000000000000000000000000000000000000000000000000000000000000000000
310
0000000000000000000000000000E200000000000000000000000000000000000000000000000000000000000000000000000000000000000000000000000000000000000000000000000000000000000000000000000000000000000000000000000000000000E20000000000000000000000000000000000000000000000
310
00000000000000000000000000000000000000000000000000000000000000000000000000000000000000000000000000000000000000000000000000000000000000000000000000000000000000000000000000000000000000000000000000000000000000000000000000000000000000000000000000000000000000
310
00000000000000000000000000000000E200000000000000000000000000000000000000000000000000000000000000000000000000000000000000000000000000000000000000000000000000000000000000000000000000000000000000000000000000000000E2000000000000000000000000000000000000000000
310
00000000000000000000000000000000000000000000000000000000000000000000000000000000000000000000000000000000000000000000000000000000000000000000000000000000000000000000000000000000000000000000000000000000000000000000000000000000000000000000000000000000000000
310
000000000000000000000000000000000000E200000000000000000000000000000000000000000000000000000000000000000000000000000000000000000000000000000000000000000000000000000000000000000000000000000000000000000000000000000000E200000000000000000000000000000000000000
310
00000000000000000000000000000000000000000000000000000000000000000000000000000000000000000000000000000000000000000000000000000000000000000000000000000000000000000000000000000000000000000000000000000000000000000000000000000000000000000000000000000000000000
310
0000000000000000000000000000000000000000E200000000000000000000000000000000000000000000000000000000000000000000000000000000000000000000000000000000000000000000000000000000000000000000000000000000000000000000000000000000E20000000000000000000000000000000000
310
00000000000000000000000000000000000000000000000000000000000000000000000000000000000000000000000000000000000000000000000000000000000000000000000000000000000000000000000000000000000000000000000000000000000000000000000000000000000000000000000000000000000000
310
00000000000000000000000000000000000000000000E200000000000000000000000000000000000000000000000000000000000000000000000000000000000000000000000000000000000000000000000000000000000000000000000000000000000000000000000000000000E2000000000000000000000000000000
310
00000000000000000000000000000000000000000000000000000000000000000000000000000000000000000000000000000000000000000000000000000000000000000000000000000000000000000000000000000000000000000000000000000000000000000000000000000000000000000000000000000000000000
310
000000000000000000000000000000000000000000000000E200000000000000E2E2E2E2E2E2E2E2E2E2E2E2E2E2E2E2E2E2E2E2E2E2E2E2E2E2E2E2E2E2E2E2E2E2E2E2E2E2E2E2E2E2E2E2E2E200000000000000000000000000000000000000000000E2E2E2E2E20000000000000000E200000000000000000000000000
310
00000000000000000000000000000000000000000000000000000000000000000000000000000000000000000000000000000000000000000000000000000000000000000000000000000000000000000000000000000000000000000000000000000000000000000000000000000000000000000000000000000000000000
310
0000000000000000000000000000000000000000000000000000E200000000000000E2E2E2E2E2E2E2E2E2E2E2E2E2E2E2E2E2E2E2E2E2E2E2E2E2E2E2E2E2E2E2E2E2E2E2E2E2E2E2E2E2E2E2E2E2E200000000000000000000000000000000000000000000E2E2E2E2E20000000000000000E20000000000000000000000
310
00000000000000000000000000000000000000000000000000000000000000000000000000000000000000000000000000000000000000000000000000000000000000000000000000000000000000000000000000000000000000000000000000000000000000000000000000000000000000000000000000000000000000
310
00000000000000000000000000000000000000000000000000000000E200000000000000000000000000000000000000000000000000000000000000000000000000000000000000000000000000000000000000000000000000000000000000000000000000000000000000000000000000000000E2000000000000000000
310
00000000000000000000000000000000000000000000000000000000000000000000000000000000000000000000000000000000000000000000000000000000000000000000000000000000000000000000000000000000000000000000000000000000000000000000000000000000000000000000000000000000000000
310
000000000000000000000000000000000000000000000000000000000000E200000000000000E2E2E2E2E2E2E2E2E2E2E2E2E2E2E2E2E2E2E2E2E2E2E2E2E2E2E2E2E2E2E2E2E2E2E2E2E2E2E2E2E2E2E2E2E2E2E2E2E2E2E2E2E2E2E2E2E2E2E2E2E2E2E2E2E2E2E2E2E2E2E2E2E2E200000000000000E200000000000000
310
00000000000000000000000000000000000000000000000000000000000000000000000000000000000000000000000000000000000000000000000000000000000000000000000000000000000000000000000000000000000000000000000000000000000000000000000000000000000000000000000000000000000000
310
0000000000000000000000000000000000000000000000000000000000000000E200000000000000E2000F0F0F0F0F00000000000000000000E2000000000000E2000000000000000000000000000000000000000000000000000000000000000000000000000000000000000000000000E200000000000000E20000000000
310
00000000000000000000000000000000000000000000000000000000000000000000000000000000000000000000000000000000000000000000000000000000000000000000000000000000000000000000000000000000000000000000000000000000000000000000000000000000000000000000000000000000000000
310
00000000000000000000000000000000000000000000000000000000000000000000E200000000000000E2000F0F0F0F0F00000000000000000000E2E2E2E2E2E2E2E2E2E2E2E2E2E2E2E2E2E2E2E2E2E2E2E2E2E2E2E2E2E2E2E2E2E2E2E2E2E2E2E2E2E2E2E2E2E2E2E2E2E2E2E2E2E2E2E2E200000000000000E2000000
310
00000000000000000000000000000000000000000000000000000000000000000000000000000000000000000000000000000000000000000000000000000000000000000000000000000000000000000000000000000000000000000000000000000000000000000000000000000000000000000000000000000000000000
310
00000000000000000000000000000000000000000000000000000000000000000000E2E2E200000000000000E2000F0F0F0F0F00000000000000000000E20000E2E2E200E2E2E2E2E200000000000000000000E200000000000000E2E2E2E2E2E2E2E2000000000000000000000000000000000000E200000000000000E200
310
00000000000000000000000000000000000000000000000000000000000000000000000000000000000000000000000000000000000000000000000000000000000000000000000000000000000000000000000000000000000000000000000000000000000000000000000000000000000000000000000000000000000000
310
000000000000000000000000000000000000000000000000000000000000000000000000E200E200000000000000E2000F0F0F0F0F00000000000000000000E2E2E2E2E2E2E2E2E2E2E2E2E2E2E2E2E2E2E2E2E2E2E2E2E2E2E2E2E2E2E2E2E2E2E2E2E2E2E2E2E2E2E2E2E2E2E2E2E2E2E2E2E2E2E2E2E200000000000000
310
E2000000000000000000000000000000000000000000000000000000000000000000000000000000000000000000000000000000000000000000000000000000000000000000000000000000000000000000000000000000000000000000000000000000000000000000000000000000000000000000000000000000000000
310
0000000000000000000000000000000000000000000000000000000000000000000000000000E200E200000000000000E2000F0F0F0F0F00000000000000000000E2000000E2E200E2E2E2E2E2E2000000000000000000E2000000E2E2E2E2E2E2E2E2E2E2E2E2000000000000000000000000000000000000E20000000000
310
0000E200000000000000000000000000000000000000000000000000000000000000000000000000000000000000000000000000000000000000000000000000000000000000000000000000000000000000000000000000000000000000000000000000000000000000000000000000000000000000000000000000000000
310
0000000000000000000000000000000000000000000000000000000000000000000000000000000000E2E200000000000000E200000000000000000000000000000000E2000000000000E20000000000000000000000000000E2000000000000000000000000E20000000000000000000000000000000000000000E2000000
310
00000000E20000000000000000000000000000000000000000000000000000000000000000000000000000000000000000000000000000000000000000000000000000000000000000000000000000000000000000000000000000000000000000000000000000000000000000000000000000000000000000000000000000
310
00000000000000000000000000000000000000000000000000000000000000000000000000000000000000E2E200000000000000E200000000000000000000000000000000E2E2E2E2E2E2E2E2E2E2E2E2E2E2E2E2E2E2E2E2E2E2E2E2E2E2E2E2E2E2E2E2E2E2E2E2E2E2E2E2E2E2E2E2E2E2E2E2E2E2E2E2E2E2E2E2E200
310
000000000000E2000000000000000000000000000000000000000000000000000000000000000000000000000000000000000000000000000000000000000000000000000000000000000000000000000000000000000000000000000000000000000000000000000000000000000000000000000000000000000000000000
310
000000000000000000000000000000000000000000000000000000000000000000000000000000000000000000E2E200000000000000E200000000000000000000000000000000E200000000000000000000000000000000000000000000000000000000000000000000000000000000000000000000000000000000000000
310
E200000000000000E200000000000000000000000000000000000000000000000000000000000000000000000000000000000000000000000000000000000000000000000000000000000000000000000000000000000000000000000000000000000000000000000000000000000000000000000000000000000000000000
310
0000000000000000000000000000000000000000000000000000000000000000000000000000000000000000000000E2E200000000000000E200000000000000000000000000000000E20000000000000000000000000000000000000000000000000000000000000000000000000000000000000000000000000000000000
310
0000E200000000000000E20000000000000000000000000000000000000000000000000000000000000000000000000000000000000000000000000000000000000000000000000000000000000000000000000000000000000000000000000000000000000000000000000000000000000000000000000000000000000000
310
0000000000000000000000000000000000000000000000000000000000000000000000000000000000000000000000000000E200000000000000E200000000000000000000000000000000E2000000000000000000000000000000000000000000000000000000000000000000000000000000000000000000000000000000
310
00000000E200000000000000E2000000000000000000000000000000000000000000000000000000000000000000000000000000000000000000000000000000000000000000000000000000000000000000000000000000000000000000000000000000000000000000000000000000000000000000000000000000000000
310
00000000000000000000000000000000000000000000000000000000000000000000000000000000000000000000000000000000E200000000000000E200000000000000000000000000000000E200E2E2E2E2E2E2E2E2E2E2E2E2E2E2E2E2E2E2E2E2E2E2E2E2E2E2E2E2E2E2000000000000000000000000000000000000
310
000000000000E200000000000000E200000000000000000000000000000000000000000000000000000000000000000000000000000000000000000000000000000000000000000000000000000000000000000000000000000000000000000000000000000000000000000000000000000000000000000000000000000000
310
000000000000000000000000000000000000000000000000000000000000000000000000000000000000000000000000000000000000E200000000000000E200000000000000000000000000000000E20000000000000000000000000000000000000000000000000000000000000000000000000000000000000000000000
310
0000000000000000E200000000000000E20000000000000000000000000000000000000000000000000000000000000000000000000000000000000000000000000000000000000000000000000000000000000000000000000000000000000000000000000000000000000000000000000000000000000000000000000000
310
0000000000000000000000000000000000000000000000000000000000000000000000000000000000000000000000000000000000000000E200000000000000E2E2E2E2E2E2E2E2E2E2E2E2E2E2E2E2E2E2E2E2E2E2E2E2E2E2E2E2E2E2E2E2E2E2E2E2E2E2E2E2E2E2E2E2E2E2E2E2E2E2E2E2E2E2E2E2E2E2E2E2E2E2E2
310
E2E2E2E2E2E2E2E2E2E2E200000000000000E2000000000000000000000000000000000000000000000000000000000000000000000000000000000000000000000000000000000000000000000000000000000000000000000000000000000000000000000000000000000000000000000000000000000000000000000000
310
00000000000000000000000000000000000000000000000000000000000000000000000000000000000000000000000000000000000000000000E200000000000000E2000000000000000000000000000000000000000000000000000000000000000000000000000000000000000000000000000000000000000000000000
310
000000000000000000000000E200000000000000E200000000000000000000000000000000000000000000000000000000000000000000000000000000000000000000000000000000000000000000000000000000000000000000000000000000000000000000000000000000000000000000000000000000000000000000
310
000000000000000000000000000000000000000000000000000000000000000000000000000000000000000000000000000000000000000000000000E200000000000000E200000000000000000000000000000000000000000000000000000000000000000000000000000000000000000000000000000000000000000000
310
0000000000000000000000000000E200000000000000E20000000000000000000000000000000000000000000000000000000000000000000000000000000000000000000000000000000000000000000000000000000000000000000000000000000000000000000000000000000000000000000000000000000000000000
310
0000000000000000000000000000000000000000000000000000000000000000000000000000000000000000000000000000000000000000000000000000E200000000000000E20000000000000000000000000000000000000000000000000000000000000000000000000000000000000000000000000000000000000000
310
00000000000000000000000000000000E200000000000000E2000000000000000000000000000000000000000000000000000000000000000000000000000000000000000000000000000000000000000000000000000000000000000000000000000000000000000000000000000000000000000000000000000000000000
310
00000000000000000000000000000000000000000000000000000000000000000000000000000000000000000000000000000000000000000000000000000000E200000000000000E2000000000000000000000000000000000000000000000000000000000000000000000000000000000000000000000000000000000000
310
000000000000000000000000000000000000E200000000000000E200000000000000000000000000000000000000000000000000000000000000000000000000000000000000000000000000000000000000000000000000000000000000000000000000000000000000000000000000000000000000000000000000000000
310
000000000000000000000000000000000000000000000000000000000000000000000000000000000000000000000000000000000000000000000000000000000000E200000000000000E200000000000000000000000000000000000000000000000000000000000000000000000000000000000000000000000000000000
310
0000000000000000000000000000000000000000E200000000000000E20000000000000000000000000000000000000000000000000000000000000000000000000000000000000000000000000000000000000000000000000000000000000000000000000000000000000000000000000000000000000000000000000000
310
0000000000000000000000000000000000000000000000000000000000000000000000000000000000000000000000000000000000000000000000000000000000000000E200000000000000E20000000000000000000000000000000000000000000000000000000000000000000000000000000000000000000000000000
310
00000000000000000000000000000000000000000000E200000000000000E2000000000000000000000000000000000000000000000000000000000000000000000000000000000000000000000000000000000000000000000000000000000000000000000000000000000000000000000000000000000000000000000000
310
00000000000000000000000000000000000000000000000000000000000000000000000000000000000000000000000000000000000000000000000000000000000000000000E200000000000000E2000000000000000000000000000000000000000000000000000000000000000000000000000000000000000000000000
310
000000000000000000000000000000000000000000000000E200000000000000E200000000000000000000000000000000000000000000000000000000000000000000000000000000000000000000000000000000000000000000000000000000000000000000000000000000000000000000000000000000000000000000
310
000000000000000000000000000000000000000000000000000000000000000000000000000000000000000000000000000000000000000000000000000000000000000000000000E200000000000000E200000000000000000000000000000000000000000000000000000000000000000000000000000000000000000000
310
0000000000000000000000000000000000000000000000000000E200000000000000E20000000000000000000000000000000000000000000000000000000000000000000000000000000000000000000000000000000000000000000000000000000000000000000000000000000000000000000000000000000000000000
310
0000000000000000000000000000000000000000000000000000000000000000000000000000000000000000000000000000000000000000000000000000000000000000000000000000E200000000000000E20000000000000000000000000000000000000000000000000000000000000000000000000000000000000000
310
00000000000000000000000000000000000000000000000000000000E200000000000000E2000000000000000000000000000000000000000000000000000000000000000000000000000000000000000000000000000000000000000000000000000000000000000000000000000000000000000000000000000000000000
310
00000000000000000000000000000000000000000000000000000000000000000000000000000000000000000000000000000000000000000000000000000000000000000000000000000000E200000000000000E2000000000000000000000000000000000000000000000000000000000000000000000000000000000000
310
000000000000000000000000000000000000000000000000000000000000E200000000000000E200000000000000000000000000000000000000000000000000000000000000000000000000000000000000000000000000000000000000000000000000000000000000000000000000000000000000000000000000000000
310
000000000000000000000000000000000000000000000000000000000000000000000000000000000000000000000000000000000000000000000000000000000000000000000000000000000000E200000000000000E200000000000000000000000000000000000000000000000000000000000000000000000000000000
310
0000000000000000000000000000000000000000000000000000000000000000E200000000000000E20000000000000000000000000000000000000000000000000000000000000000000000000000000000000000000000000000000000000000000000000000000000000000000000000000000000000000000000000000
310
0000000000000000000000000000000000000000000000000000000000000000000000000000000000000000000000000000000000000000000000000000000000000000000000000000000000000000E200000000000000E20000000000000000000000000000000000000000000000000000000000000000000000000000
310
00000000000000000000000000000000000000000000000000000000000000000000E200000000000000E2000000000000000000000000000000000000000000000000000000000000000000000000000000000000000000000000000000000000000000000000000000000000000000000000000000000000000000000000
310
00000000000000000000000000000000000000000000000000000000000000000000000000000000000000000000000000000000000000000000000000000000000000000000000000000000000000000000E200000000000000E2000000000000000000000000000000000000000000000000000000000000000000000000
310
000000000000000000000000000000000000000000000000000000000000000000000000E200000000000000E200000000000000000000000000000000000000000000000000000000000000000000000000000000000000000000000000000000000000000000000000000000000000000000000000000000000000000000
310
000000000000000000000000000000000000000000000000000000000000000000000000000000000000000000000000000000000000000000000000000000000000000000000000000000000000000000000000E200000000000000E200000000000000000000000000000000000000000000000000000000000000000000
310
0000000000000000000000000000000000000000000000000000000000000000000000000000E200000000000000E20000000000000000000000000000000000000000000000000000000000000000000000000000000000000000000000000000000000000000000000000000000000000000000000000000000000000000
310
0000000000000000000000000000000000000000000000000000000000000000000000000000000000000000000000000000000000000000000000000000000000000000000000000000000000000000000000000000E200000000000000E20000000000000000000000000000000000000000000000000000000000000000
310
00000000000000000000000000000000000000000000000000000000000000000000000000000000E200000000000000E2000000000000000000000000000000000000000000000000000000000000000000000000000000000000000000000000000000000000000000000000000000000000000000000000000000000000
310
00000000000000000000000000000000000000000000000000000000000000000000000000000000000000000000000000000000000000000000000000000000000000000000000000000000000000000000000000000000E200000000000000E2000000000000000000000000000000000000000000000000000000000000
310
000000000000000000000000000000000000000000000000000000000000000000000000000000000000E200000000000000E200000000000000000000000000000000000000000000000000000000000000000000000000000000000000000000000000000000000000000000000000000000000000000000000000000000
310
000000000000000000000000000000000000000000000000000000000000000000000000000000000000000000000000000000000000000000000000000000000000000000000000000000000000000000000000000000000000E200000000000000E200000000000000C3C3C3C3C3C3C3C3C3C3C3C3C3C3C3C3C3C3C3C3C3
310
C3C3C3C3C3C3C3C3C3C3C3C3C3C3C3C3C3C3C3C3C3C3C3C3C3C3C3C3C3C3C3C3C3C3C3C3C300000000000000E200000000000000E20000000000000000000000000000000000000000000000000000000000000000000000000000000000000000000000000000000000000000000000000000000000000000000000000000
310
0000000000000000000000000000000000000000000000000000000000000000000000000000000000000000000000000000000000000000000000000000000000000000000000000000000000000000000000000000000000000000E200000000000000E200000000000000C3000000000000000000000000000000000000
310
0000000000000000000000000000000000000000000000000000000000000000000000000000C300000000000000E200000000000000E2000000000000000000000000000000000000000000000000000000000000000000000000000000000000000000000000000000000000000000000000000000000000000000000000
310
00000000000000000000000000000000000000000000000000000000000000000000000000000000000000000000000000000000000000000000000000000000000000000000000000000000000000000000000000000000000000000000E200000000000000E200000000000000C300000000000000000000000000000000
310
00000000000000000000000000000000000000000000000000000000000000000000000000000000C300000000000000E200000000000000E200000000000000000000000000000000000000000000000000000000000000000000000000000000000000000000000000000000000000000000000000000000000000000000
310
000000000000000000000000000000000000000000000000000000000000000000000000000000000000000000000000000000000000000000000000000000000000000000000000000000000000000000000000000000000000000000000000E200000000000000E200000000000000C30000000000000000000000000000
310
000000000000000000000000000000000000000000000000000000000000000000000000000000000000C300000000000000E200000000000000E20000000000000000000000000000000000000000000000000000000000000000000000000000000000000000000000000000000000000000000000000000000000000000
310
0000000000000000000000000000000000000000000000000000000000000000000000000000000000000000000000000000000000000000000000000000000000000000000000000000000000000000000000000000000000000000000000000000E200000000000000E200000000000000C3000000000000000000000000
310
0000000000000000000000000000000000000000000000000000000000000000000000000000000000000000C300000000000000E200000000000000E2000000000000000000000000000000000000000000000000000000000000000000000000000000000000000000000000000000000000000000000000000000000000
310
00000000000000000000000000000000000000000000000000000000000000000000000000000000000000000000000000000000000000000000000000000000000000000000000000000000000000000000000000000000000000000000000000000000E200000000000000E200000000000000C300000000000000000000
310
00000000000000000000000000000000000000000000000000000000000000000000000000000000000000000000C300000000000000E200000000000000E200000000000000000000000000000000000000000000000000000000000000000000000000000000000000000000000000000000000000000000000000000000
310
000000000000000000000000000000000000000000000000000000000000000000000000000000000000000000000000000000000000000000000000000000000000000000000000000000000000000000000000000000000000000000000000000000000000E200000000000000E200000000000000C30000000000000000
310
000000000000000000000000000000000000000000000000000000000000000000000000000000000000000000000000C300000000000000E200000000000000E20000000000000000000000000000000000000000000000000000000000000000000000000000000000000000000000000000000000000000000000000000
310
0000000000000000000000000000000000000000000000000000000000000000000000000000000000000000000000000000000000000000000000000000000000000000000000000000000000000000000000000000000000000000000000000000000000000000E200000000000000E200000000000000C3000000000000
310
0000000000000000000000000000000000000000000000000000000000000000000000000000000000000000000000000000C300000000000000E200000000000000E2000000000000000000000000000000000000000000000000000000000000000000000000000000000000000000000000000000000000000000000000
310
00000000000000000000000000000000000000000000000000000000000000000000000000000000000000000000000000000000000000000000000000000000000000000000000000000000000000000000000000000000000000000000000000000000000000000000E200000000000000E200000000000000C300000000
310
00000000000000000000000000000000000000000000000000000000000000000000000000000000000000000000000000000000C300000000000000E200000000000000E200000000000000000000000000000000000000000000000000000000000000000000000000000000000000000000000000000000000000000000
310
000000000000000000000000000000000000000000000000000000000000000000000000000000000000000000000000000000000000000000000000000000000000000000000000000000000000000000000000000000000000000000000000000000000000000000000000E200000000000000E200000000000000C30000
310
000000000000000000000000000000000000000000000000000000000000000000000000000000000000000000000000000000000000C300000000000000E200000000000000E20000000000000000000000000000000000000000000000000000000000000000000000000000000000000000000000000000000000000000
310
0000000000000000000000000000000000000000000000000000000000000000000000000000000000000000000000000000000000000000000000000000000000000000000000000000000000000000000000000000000000000000000000000000000000000000000000000000E200000000000000E200000000000000C3
310
0000000000000000000000000000000000000000000000000000000000000000000000000000000000000000000000000000000000000000C300000000000000E200000000000000E2000000000000000000000000000000000000000000000000000000000000000000000000000000000000000000000000000000000000
310
00000000000000000000000000000000000000000000000000000000000000000000000000000000000000000000000000000000000000000000000000000000000000000000000000000000000000000000000000000000000000000000000000000000000000000000000000000000E200000000000000E2000000000000
310
00C30000000000000000000000000000000000000000000000000000000000000000000000000000000000000000000000000000000000000000C300000000000000E200000000000000E200000000000000000000000000000000000000000000000000000000000000000000000000000000000000000000000000000000
310
000000000000000000000000000000000000000000000000000000000000000000000000000000000000000000000000000000000000000000000000000000000000000000000000000000000000000000000000000000000000000000000000000000000000000000000000000000000000E200000000000000E200000000
310
000000C30000000000000000000000000000000000000000000000000000000000000000000000000000000000000000000000000000000000000000C300000000000000E200000000000000E20000000000000000000000000000000000000000000000000000000000000000000000000000000000000000000000000000
310
0000000000000000000000000000000000000000000000000000000000000000000000000000000000000000000000000000000000000000000000000000000000000000000000000000000000000000000000000000000000000000000000000000000000000000000000000000000000000000E200000000000000E20000
310
0000000000C30000000000000000000000C3C3C3C3C3C3C3C3C3C3C3C3C3C3C3C3C3C3C3C3C3C3C3C3C3C3C3C3C3C3C3C3C3000000000000000000000000C300000000000000E200000000000000E2000000000000000000000000000000000000000000000000000000000000000000000000000000000000000000000000
310
00000000000000000000000000000000000000000000000000000000000000000000000000000000000000000000000000000000000000000000000000000000000000000000000000000000000000000000000000000000000000000000000000000000000000000000000000000000000000000000E200000000000000E2
310
00000000000000C30000000000000000000000C3C3C3C3C3C3C3C3C3C3C3C3C3C3C3C3000000000000000000000000000000C3C3000000000000000000000000C300000000000000E200000000000000E200000000000000000000000000000000000000000000000000000000000000000000000000000000000000000000
310
000000000000000000000000000000000000000000000000000000000000000000000000000000000000000000000000000000000000000000000000000000000000000000000000000000000000000000000000000000000000000000000000000000000000000000000000000000000000000000000000E2000000000000
310
00E200000000000000C30000000000000000000000C300C30D0D0D0D0D0D0D0D0D0D0D2D2D2D2D2D2D0D0D0D0D0D0D0D0D0D0D0D00C3000000000000000000000000C300000000000000E200000000000000E20000000000000000000000000000000000000000000000000000000000000000000000000000000000000000
310
0000000000000000000000000000000000000000000000000000000000000000000000000000000000000000000000000000000000000000000000000000000000000000000000000000000000000000000000000000000000000000000000000000000000000000000000000000000000000000000000000000E200000000
310
000000E200000000000000C30000000000000000000000C300C30D0D0D0D0D0D0D0D0D0D0D2D2D2D2D2D2D0D0D0D0D0D0D0D0D0D0D0D00C3000000000000000000000000C300000000000000E200000000000000E2000000000000000000000000000000000000000000000000000000000000000000000000000000000000
310
00000000000000000000000000000000000000000000000000000000000000000000000000000000000000000000000000000000000000000000000000000000000000000000000000000000000000000000000000000000000000000000000000000000000000000000000000000000000000000000000000000000E20000
310
0000000000E200000000000000C30000000000000000000000C300C30D0D0D0D000000000000002D000000002D0000000000000000000D0D00C3000000000000000000000000C300000000000000E200000000000000E200000000000000000000000000000000000000000000000000000000000000000000000000000000
310
000000000000000000000000000000000000000000000000000000000000000000000000000000000000000000000000000000000000000000000000000000000000000000000000000000000000000000000000000000000000000000000000000000000000000000000000000000000000000000000000000000000000E2
310
00000000000000E200000000000000C30000000000000000000000C300C30D0D00000D0D0D0D0000002D000000002D000000000000000D0D000D00C3000000000000000000000000C300000000000000E200000000000000E20000000000000000000000000000000000000000000000000000000000000000000000000000
310
00000000000000000000000000000000000000000000000000000000000000000000000000000000000000000000000000000000000000000000000000000000000000000000000000000000000000000000000000000000000000000000000000000000000000000000000000000000000000000000000000000000000000
310
00E200000000000000E200000000000000C30000000000000000000000C300C30D0D00000D0D0D0D0D0D0D2D000000002D0D0D0D0D0D0D0D0000000D00C3000000000000000000000000C300000000000000E200000000000000E2000000000000000000000000000000000000000000000000000000000000000000000000
310
00000000000000000000000000000000000000000000000000000000000000000000000000000000000000000000000000000000000000000000000000000000000000000000000000000000000000000000000000000000000000000000000000000000000000000000000000000000000000000000000000000000000000
310
000000E200000000000000E200000000000000C30000000000000000000000C300C30D0D00000D0D0D0D0D0D2D2D0000002D2D0D0D0D0D0D0D0D0000000D00C3000000000000000000000000C300000000000000E200000000000000E200000000000000000000000000000000000000000000000000000000000000000000
310
00000000000000000000000000000000000000000000000000000000000000000000000000000000000000000000000000000000000000000000000000000000000000000000000000000000000000000000000000000000000000000000000000000000000000000000000000000000000000000000000000000000000000
310
0000000000E200000000000000E200000000000000C30000000000000000000000C300C30D0D00000D0D0D0000002D2D0000002D2D0D0D0D0D0D0D0D00000D0D00C3000000000000000000000000C300000000000000E200000000000000E20000000000000000000000000000000000000000000000000000000000000000
310
00000000000000000000000000000000000000000000000000000000000000000000000000000000000000000000000000000000000000000000000000000000000000000000000000000000000000000000000000000000000000000000000000000000000000000000000000000000000000000000000000000000000000
310
00000000000000E200000000000000E200000000000000C30000000000000000000000C300C30D0D00000D0D000D00002D2D0000002D2D00000D0D0D0D0D00000D0D00C3000000000000000000000000C300000000000000E200000000000000E2000000000000000000000000000000000000000000000000000000000000
310
00000000000000000000000000000000000000000000000000000000000000000000000000000000000000000000000000000000000000000000000000000000000000000000000000000000000000000000000000000000000000000000000000000000000000000000000000000000000000000000000000000000000000
310
000000000000000000E200000000000000E200000000000000C30000000000000000000000C300C30D0D000D0D0D00002D2D2D2D2D2D2D2D2D2D2D00000D0D0D00000D0D00C3000000000000000000000000C300000000000000E200000000000000E200000000000000000000000000000000000000000000000000000000
310
00000000000000000000000000000000000000000000000000000000000000000000000000000000000000000000000000000000000000000000000000000000000000000000000000000000000000000000000000000000000000000000000000000000000000000000000000000000000000000000000000000000000000
310
0000000000000000000000E200000000000000E200000000000000C30000000000000000000000C300C30D0D000D0D0D00002D2D00000000000000002D00000D0D0D00000D0D00C3000000000000000000000000C300000000000000E200000000000000E20000000000000000000000000000000000000000000000000000
310
00000000000000000000000000000000000000000000000000000000000000000000000000000000000000000000000000000000000000000000000000000000000000000000000000000000000000000000000000000000000000000000000000000000000000000000000000000000000000000000000000000000000000
310
00000000000000000000000000E200000000000000E200000000000000C30000000000000000000000C300C32D2D2D2D0D0D00002D002D2D2D2D2D2D2D2D2D00000D0D0D00000D0D00C3000000000000000000000000C300000000000000E200000000000000E2000000000000000000000000000000000000000000000000
310
00000000000000000000000000000000000000000000000000000000000000000000000000000000000000000000000000000000000000000000000000000000000000000000000000000000000000000000000000000000000000000000000000000000000000000000000000000000000000000000000000000000000000
310
000000000000000000000000000000E200000000000000E200000000000000C30000000000000000000000C300C32D2D2D2D2D2D2D2D2D002D2D2D2D2D2D2D2D2D2D2D2D2D2D2D2D2D2D00C3000000000000000000000000C300000000000000E200000000000000E200000000000000000000000000000000000000000000
310
00000000000000000000000000000000000000000000000000000000000000000000000000000000000000000000000000000000000000000000000000000000000000000000000000000000000000000000000000000000000000000000000000000000000000000000000000000000000000000000000000000000000000
310
0000000000000000000000000000000000E200000000000000E200000000000000C30000000000000000000000C300C32D2D00000000002D2D002D2D5700572D2D2D2D2D2D2D2D2D2D2D2D2D00C3000000000000000000000000C300000000000000E200000000000000E20000000000000000000000000000000000000000
310
00000000000000000000000000000000000000000000000000000000000000000000000000000000000000000000000000000000000000000000000000000000000000000000000000000000000000000000000000000000000000000000000000000000000000000000000000000000000000000000000000000000000000
310
00000000000000000000000000000000000000E200000000000000E200000000000000C30000000000000000000000C3002D002D00000000002D2D002D2D0057002D2D2D2D2D0000000000002D2D00C3000000000000000000000000C300000000000000E200000000000000E2000000000000000000000000000000000000
310
00000000000000000000000000000000000000000000000000000000000000000000000000000000000000000000000000000000000000000000000000000000000000000000000000000000000000000000000000000000000000000000000000000000000000000000000000000000000000000000000000000000000000
310
000000000000000000000000000000000000000000E200000000000000E200000000000000C3000000000000000000000000C32D002D00000000002D2D002D2D0057002D2D002D2D0000000000002D2D00C3000000000000000000000000C300000000000000E200000000000000E200000000000000000000000000000000
310
00000000000000000000000000000000000000000000000000000000000000000000000000000000000000000000000000000000000000000000000000000000000000000000000000000000000000000000000000000000000000000000000000000000000000000000000000000000000000000000000000000000000000
310
0000000000000000000000000000000000000000000000E200000000000000E200000000000000C3000000000000000000000000C32D002D00000000002D2D002D2D5700572D2D002D2D00000000002D2D0DC3C3000000000000000000000000C300000000000000E200000000000000E20000000000000000000000000000
310
00000000000000000000000000000000000000000000000000000000000000000000000000000000000000000000000000000000000000000000000000000000000000000000000000000000000000000000000000000000000000000000000000000000000000000000000000000000000000000000000000000000000000
310
00000000000000000000000000000000000000000000000000E200000000000000E200000000000000C3000000000000000000000000C32D2D2D2D2D2D2D2D2D2D002D2D2D2D2D2D2D002D2D2D2D2D2D2D2D2D0DC3C3000000000000000000000000C300000000000000E200000000000000E2000000000000000000000000
310
00000000000000000000000000000000000000000000000000000000000000000000000000000000000000000000000000000000000000000000000000000000000000000000000000000000000000000000000000000000000000000000000000000000000000000000000000000000000000000000000000000000000000
310
000000000000000000000000000000000000000000000000000000E200000000000000E200000000000000C3000000000000000000000000C3C30D0D000D0D0D00002D002D2D2D2D2D2D2D002D00000D0D2D2D2D2D0DC3C3000000000000000000000000C300000000000000E200000000000000E200000000000000000000
310
00000000000000000000000000000000000000000000000000000000000000000000000000000000000000000000000000000000000000000000000000000000000000000000000000000000000000000000000000000000000000000000000000000000000000000000000000000000000000000000000000000000000000
310
0000000000000000000000000000000000000000000000000000000000E200000000000000E200000000000000C3000000000000000000000000C3C30D0D000D0D0D00002D2D000000000000002D2D00000D0D0D00000D0DC3C3000000000000000000000000C300000000000000E200000000000000E20000000000000000
310
00000000000000000000000000000000000000000000000000000000000000000000000000000000000000000000000000000000000000000000000000000000000000000000000000000000000000000000000000000000000000000000000000000000000000000000000000000000000000000000000000000000000000
310
00000000000000000000000000000000000000000000000000000000000000E200000000000000E200000000000000C3000000000000000000000000C3C30D0D000D0D0D00002D2D2D2D2D2D2D2D2D2D2D00000D0D0D00000D0DC3C3000000000000000000000000C300000000000000E200000000000000E2000000000000
310
00000000000000000000000000000000000000000000000000000000000000000000000000000000000000000000000000000000000000000000000000000000000000000000000000000000000000000000000000000000000000000000000000000000000000000000000000000000000000000000000000000000000000
310
000000000000000000000000000000000000000000000000000000000000000000E200000000000000E200000000000000C3000000000000000000000000C3C30D0D000D0D0D0D0D00002D2D0000002D2D00000D000D0D0D00000D0DC3C3000000000000000000000000C300000000000000E200000000000000E200000000
310
00000000000000000000000000000000000000000000000000000000000000000000000000000000000000000000000000000000000000000000000000000000000000000000000000000000000000000000000000000000000000000000000000000000000000000000000000000000000000000000000000000000000000
310
0000000000000000000000000000000000000000000000000000000000000000000000E200000000000000E200000000000000C3000000000000000000000000C3C30D0D000D0D0D0D0D0D0D2D2D0000002D2D0000000D0D0D0D00000D0DC3C3000000000000000000000000C300000000000000E200000000000000E20000
310
00000000000000000000000000000000000000000000000000000000000000000000000000000000000000000000000000000000000000000000000000000000000000000000000000000000000000000000000000000000000000000000000000000000000000000000000000000000000000000000000000000000000000
310
00000000000000000000000000000000000000000000000000000000000000000000000000E200000000000000E200000000000000C3000000000000000000000000C3C30D00000D0D0D0D0D0D0D2D2D0000002D2D0D0D0D0D0D0D0D00000D0DC3C3000000000000000000000000C300000000000000E200000000000000E2
310
00000000000000000000000000000000000000000000000000000000000000000000000000000000000000000000000000000000000000000000000000000000000000000000000000000000000000000000000000000000000000000000000000000000000000000000000000000000000000000000000000000000000000
310
000000000000000000000000000000000000000000000000000000000000000000000000000000E200000000000000E200000000000000C3000000000000000000000000C3C30D00000D0D0D0D0D0D0D2D2D0000002D2D0D0D0D0D0D0D0D00000D0DC3C3000000000000000000000000C300000000000000E2000000000000
310
00E20000000000000000000000000000000000000000000000000000000000000000000000000000000000000000000000000000000000000000000000000000000000000000000000000000000000000000000000000000000000000000000000000000000000000000000000000000000000000000000000000000000000
310
0000000000000000000000000000000000000000000000000000000000000000000000000000000000E200000000000000E200000000000000C3000000000000000000000000C3C30D000D000000000000002D2D0000002D2D0000000D0D0D0D00000D0DC3C3000000000000000000000000C300000000000000E200000000
310
000000E2000000000000000000000000000000000000000000000000000000000000000000000000000000000000000000000000000000000000000000000000000000000000000000000000000000000000000000000000000000000000000000000000000000000000000000000000000000000000000000000000000000
310
00000000000000000000000000000000000000000000000000000000000000000000000000000000000000E200000000000000E200000000000000C3000000000000000000000000C3C30D000D000000000000002D2D0000002D2D000000000000000D000D0DC3C3000000000000000000000000C300000000000000E20000
310
0000000000E200000000000000000000000000000000000000000000000000000000000000000000000000000000000000000000000000000000000000000000000000000000000000000000000000000000000000000000000000000000000000000000000000000000000000000000000000000000000000000000000000
310
000000000000000000000000000000000000000000000000000000000000000000000000000000000000000000E200000000000000E200000000000000C3000000000000000000000000C3C30D0D00000000000000002D2D2D2D2D2D2D00000000000000000D0D0DC3C3000000000000000000000000C300000000000000E2
310
00000000000000E20000000000000000000000000000000000000000000000000000000000000000000000000000000000000000000000000000000000000000000000000000000000000000000000000000000000000000000000000000000000000000000000000000000000000000000000000000000000000000000000
310
0000000000000000000000000000000000000000000000000000000000000000000000000000000000000000000000E200000000000000E200000000000000C3000000000000000000000000C3C30D0D0D0D0D0D0D0D0D0D2D2D2D2D2D2D2D0D0D0D0D0D0D0D0D0D0D0DC3C3000000000000000000000000C3000000000000
310
00E200000000000000E2000000000000000000000000000000000000000000000000000000000000000000000000000000000000000000000000000000000000000000000000000000000000000000000000000000000000000000000000000000000000000000000000000000000000000000000000000000000000000000
310
00000000000000000000000000000000000000000000000000000000000000000000000000000000000000000000000000E200000000000000E200000000000000C3000000000000000000000000C3C3C3C3C3C3C3C3C3C3C3C30D0D0D0D0D0D0D0D0D0D0D0D0D0D0D0D0D0DC3C3000000000000000000000000C300000000
310
000000E200000000000000E200000000000000000000000000000000000000000000000000000000000000000000000000000000000000000000000000000000000000000000000000000000000000000000000000000000000000000000000000000000000000000000000000000000000000000000000000000000000000
310
000000000000000000000000000000000000000000000000000000000000000000000000000000000000000000000000000000E200000000000000E200000000000000C3000000000000000000000000C3C30000000000000000000000000000000000000000000000000000000000C3000000000000000000000000C30000
310
0000000000E200000000000000E20000000000000000000000000000000000000000000000000000000000000000000000000000000000000000000000000000000000000000000000000000000000000000000000000000000000000000000000000000000000000000000000000000000000000000000000000000000000
310
0000000000000000000000000000000000000000000000000000000000000000000000000000000000000000000000000000000000E200000000000000E200000000000000C3000000000000000000000000C3C3C3C3C3C3C3C3C3C3C3C3C3C3C3C3C3C3C3C3C3C3C3C3C3C3C3C3C3C3C3C3000000000000000000000000C3
310
00000000000000E200000000000000E2000000000000000000000000000000000000000000000000000000000000000000000000000000000000000000000000000000000000000000000000000000000000000000000000000000000000000000000000000000000000000000000000000000000000000000000000000000
310
00000000000000000000000000000000000000000000000000000000000000000000000000000000000000000000000000000000000000E200000000000000E200000000000000C300000000000000000000000000000000000000000000000000000000000000000000000000000000000000000000000000000000000000
310
00C300000000000000E200000000000000E200000000000000000000000000000000000000000000000000000000000000000000000000000000000000000000000000000000000000000000000000000000000000000000000000000000000000000000000000000000000000000000000000000000000000000000000000
310
000000000000000000000000000000000000000000000000000000000000000000000000000000000000000000000000000000000000000000E200000000000000E200000000000000C30000000000000000000000000000000000000000000000000000000000000000000000000000000000000000000000000000000000
310
000000C300000000000000E200000000000000E20000000000000000000000000000000000000000000000000000000000000000000000000000000000000000000000000000000000000000000000000000000000000000000000000000000000000000000000000000000000000000000000000000000000000000000000
310
0000000000000000000000000000000000000000000000000000000000000000000000000000000000000000000000000000000000000000000000E200000000000000E200000000000000C3000000000000000000000000000000000000000000000000000000000000000000000000000000000000000000000000000000
310
0000000000C300000000000000E200000000000000E2000000000000000000000000000000000000000000000000000000000000000000000000000000000000000000000000000000000000000000000000000000000000000000000000000000000000000000000000000000000000000000000000000000000000000000
310
00000000000000000000000000000000000000000000000000000000000000000000000000000000000000000000000000000000000000000000000000E200000000000000E200000000000000C300000000000000000000000000000000000000000000000000000000000000000000000000000000000000000000000000
310
00000000000000C300000000000000E200000000000000E200000000000000000000000000000000000000000000000000000000000000000000000000000000000000000000000000000000000000000000000000000000000000000000000000000000000000000000000000000000000000000000000000000000000000
310
000000000000000000000000000000000000000000000000000000000000000000000000000000000000000000000000000000000000000000000000000000E200000000000000E200000000000000C30000000000000000000000000000000000000000000000000000000000000000000000000000000000000000000000
310
000000000000000000C300000000000000E200000000000000E20000000000000000000000000000000000000000000000000000000000000000000000000000000000000000000000000000000000000000000000000000000000000000000000000000000000000000000000000000000000000000000000000000000000
310
0000000000000000000000000000000000000000000000000000000000000000000000000000000000000000000000000000000000000000000000000000000000E200000000000000E200000000000000C3000000000000000000000000000000000000000000000000000000000000000000000000000000000000000000
310
0000000000000000000000C300000000000000E200000000000000E2000000000000000000000000000000000000000000000000000000000000000000000000000000000000000000000000000000000000000000000000000000000000000000000000000000000000000000000000000000000000000000000000000000
310
00000000000000000000000000000000000000000000000000000000000000000000000000000000000000000000000000000000000000000000000000000000000000E200000000000000E200000000000000C300000000000000000000000000000000000000000000000000000000000000000000000000000000000000
310
00000000000000000000000000C300000000000000E200000000000000E200000000000000000000000000000000000000000000000000000000000000000000000000000000000000000000000000000000000000000000000000000000000000000000000000000000000000000000000000000000000000000000000000
310
000000000000000000000000000000000000000000000000000000000000000000000000000000000000000000000000000000000000000000000000000000000000000000E200000000000000E200000000000000C30000000000000000000000000000000000000000000000000000000000000000000000000000000000
310
000000000000000000000000000000C300000000000000E200000000000000E20000000000000000000000000000000000000000000000000000000000000000000000000000000000000000000000000000000000000000000000000000000000000000000000000000000000000000000000000000000000000000000000
310
0000000000000000000000000000000000000000000000000000000000000000000000000000000000000000000000000000000000000000000000000000000000000000000000E200000000000000E200000000000000C3000000000000000000000000000000000000000000000000000000000000000000000000000000
310
0000000000000000000000000000000000C300000000000000E200000000000000E2000000000000000000000000000000000000000000000000000000000000000000000000000000000000000000000000000000000000000000000000000000000000000000000000000000000000000000000000000000000000000000
310
00000000000000000000000000000000000000000000000000000000000000000000000000000000000000000000000000000000000000000000000000000000000000000000000000E200000000000000E200000000000000C300000000000000000000000000000000000000000000000000000000000000000000000000
310
00000000000000000000000000000000000000C300000000000000E200000000000000E200000000000000000000000000000000000000000000000000000000000000000000000000000000000000000000000000000000000000000000000000000000000000000000000000000000000000000000000000000000000000
310
000000000000000000000000000000000000000000000000000000000000000000000000000000000000000000000000000000000000000000000000000000000000000000000000000000E200000000000000E200000000000000C30000000000000000000000000000000000000000000000000000000000000000000000
310
000000000000000000000000000000000000000000C300000000000000E200000000000000E20000000000000000000000000000000000000000000000000000000000000000000000000000000000000000000000000000000000000000000000000000000000000000000000000000000000000000000000000000000000
310
0000000000000000000000000000000000000000000000000000000000000000000000000000000000000000000000000000000000000000000000000000000000000000000000000000000000E200000000000000E200000000000000C3C3C3C3C3C3C3C3C3C3C3C3C3C3C3C3C3C3C3C3C3C3C3C3C3C3C3C3C3C3C3C3C3C3
310
C3C3C3C3C3C3C3C3C3C3C3C3C3C3C3C3C3C3C3C3C3C3C3C300000000000000E200000000000000E2000000000000000000000000000000000000000000000000000000000000000000000000000000000000000000000000000000000000000000000000000000000000000000000000000000000000000000000000000000
310
00000000000000000000000000000000000000000000000000000000000000000000000000000000000000000000000000000000000000000000000000000000000000000000000000000000000000E200000000000000E2000000000000000000000000000000000000000000000000000000000000000000000000000000
310
000000000000000000000000000000000000000000000000000000000000000000E200000000000000E200000000000000000000000000000000000000000000000000000000000000000000000000000000000000000000000000000000000000000000000000000000000000000000000000000000000000000000000000
310
000000000000000000000000000000000000000000000000000000000000000000000000000000000000000000000000000000000000000000000000000000000000000000000000000000000000000000E200000000000000E200000000000000000000000000000000000000000000000000000000000000000000000000
310
0000000000000000000000000000000000000000000000000000000000000000000000E200000000000000E20000000000000000000000000000000000000000000000000000000000000000000000000000000000000000000000000000000000000000000000000000000000000000000000000000000000000000000000
310
0000000000000000000000000000000000000000000000000000000000000000000000000000000000000000000000000000000000000000000000000000000000000000000000000000000000000000000000E200000000000000E20000000000000000000000000000000000000000000000000000000000000000000000
310
00000000000000000000000000000000000000000000000000000000000000000000000000E200000000000000E2000000000000000000000000000000000000000000000000000000000000000000000000000000000000000000000000000000000000000000000000000000000000000000000000000000000000000000
310
00000000000000000000000000000000000000000000000000000000000000000000000000000000000000000000000000000000000000000000000000000000000000000000000000000000000000000000000000E200000000000000E2000000000000000000000000000000000000000000000000000000000000000000
310
000000000000000000000000000000000000000000000000000000000000000000000000000000E200000000000000E200000000000000000000000000000000000000000000000000000000000000000000000000000000000000000000000000000000000000000000000000000000000000000000000000000000000000
310
000000000000000000000000000000000000000000000000000000000000000000000000000000000000000000000000000000000000000000000000000000000000000000000000000000000000000000000000000000E200000000000000E200000000000000000000000000000000000000000000000000000000000000
310
0000000000000000000000000000000000000000000000000000000000000000000000000000000000E200000000000000E20000000000000000000000000000000000000000000000000000000000000000000000000000000000000000000000000000000000000000000000000000000000000000000000000000000000
310
0000000000000000000000000000000000000000000000000000000000000000000000000000000000000000000000000000000000000000000000000000000000000000000000000000000000000000000000000000000000E200000000000000E20000000000000000000000000000000000000000000000000000000000
310
00000000000000000000000000000000000000000000000000000000000000000000000000000000000000E200000000000000E2000000000000000000000000000000000000000000000000000000000000000000000000000000000000000000000000000000000000000000000000000000000000000000000000000000
310
00000000000000000000000000000000000000000000000000000000000000000000000000000000000000000000000000000000000000000000000000000000000000000000000000000000000000000000000000000000000000E200000000000000E2000000000000000000000000000000000000000000000000000000
310
000000000000000000000000000000000000000000000000000000000000000000000000000000000000000000E200000000000000E200000000000000000000000000000000000000000000000000000000000000000000000000000000000000000000000000000000000000000000000000000000000000000000000000
310
000000000000000000000000000000000000000000000000000000000000000000000000000000000000000000000000000000000000000000000000000000000000000000000000000000000000000000000000000000000000000000E200000000000000E200000000000000000000000000000000000000000000000000
310
0000000000000000000000000000000000000000000000000000000000000000000000000000000000000000000000E200000000000000E20000000000000000000000000000000000000000000000000000000000000000000000000000000000000000000000000000000000000000000000000000000000000000000000
310
0000000000000000000000000000000000000000000000000000000000000000000000000000000000000000000000000000000000000000000000000000000000000000000000000000000000000000000000000000000000000000000000E200000000000000E20000000000000000000000000000000000000000000000
310
00000000000000000000000000000000000000000000000000000000000000000000000000000000000000000000000000E200000000000000E2000000000000000000000000000000000000000000000000000000000000000000000000000000000000000000000000000000000000000000000000000000000000000000
310
00000000000000000000000000000000000000000000000000000000000000000000000000000000000000000000000000000000000000000000000000000000000000000000000000000000000000000000000000000000000000000000000000E200000000000000E2000000000000000000000000000000000000000000
310
000000000000000000000000000000000000000000000000000000000000000000000000000000000000000000000000000000E200000000000000E200000000000000000000000000000000000000000000000000000000000000000000000000000000000000000000000000000000000000000000000000000000000000
310
000000000000000000000000000000000000000000000000000000000000000000000000000000000000000000000000000000000000000000000000000000000000000000000000000000000000000000000000000000000000000000000000000000E200000000000000E200000000000000000000000000000000000000
310
00000000000000000000000000000000000000000000000000000000000000000000000000000000000000000000000000E2000000E200000000000000E20000000000000000000000000000000000000000000000000000000000000000000000000000000000000000000000000000000000000000000000000000000000
310
0000000000000000000000000000000000000000000000000000000000000000000000000000000000000000000000000000000000000000000000000000000000000000000000000000000000000000000000000000000000000000000000000000000000E200000000000000E20000000000000000000000000000000000
310
000000000000000000000000000000000000000000000000000000000000000000000000000000000000000000000000000000E2000000E200000000000000E2000000000000000000000000000000000000000000000000000000000000000000000000000000000000000000000000000000000000000000000000000000
310
00000000000000000000000000000000000000000000000000000000000000000000000000000000000000000000000000000000000000000000000000000000000000000000000000000000000000000000000000000000000000000000000000000000000000E200000000000000E2000000000000000000000000000000
310
0000000000000000000000000000000000000000000000000000000000000000000000000000000000000000000000000000000000E2000000E200000000000000E200000000000000000000000000000000000000000000000000000000000000000000000000000000000000000000000000000000000000000000000000
310
000000000000000000000000000000000000000000000000000000000000000000000000000000000000000000000000000000000000000000000000000000000000000000000000000000000000000000000000000000000000000000000000000000000000000000E200000000000000E200000000000000000000000000
310
00000000000000000000000000000000000000000000000000000000000000000000000000000000000000000000000000000000000000E2000000E200000000000000E20000000000000000000000000000000000000000000000000000000000000000000000000000000000000000000000000000000000000000000000
310
0000000000000000000000000000000000000000000000000000000000000000000000000000000000000000000000000000000000000000000000000000000000000000000000000000000000000000000000000000000000000000000000000000000000000000000000E200000000000000E20000000000000000000000
310
000000000000000000000000000000000000000000000000000000000000000000000000000000000000000000000000000000000000000000E2000000E200000000000000E2000000000000000000000000000000000000000000000000000000000000000000000000000000000000000000000000000000000000000000
310
00000000000000000000000000000000000000000000000000000000000000000000000000000000000000000000000000000000000000000000000000000000000000000000000000000000000000000000000000000000000000000000000000000000000000000000000000E200000000000000E2000000000000000000
310
0000000000000000000000000000000000000000000000000000000000000000000000000000000000000000000000000000000000000000000000E2000000E200000000000000E200000000000000000000000000000000000000000000000000000000000000000000000000000000000000000000000000000000000000
310
000000000000000000000000000000000000000000000000000000000000000000000000000000000000000000000000000000000000000000000000000000000000000000000000000000000000000000000000000000000000000000000000000000000000000000000000000000E200000000000000E200000000000000
310
000000000000000000000000000000000000000000000000000000000000000000000000000000000000000000000000000000000000000000000000E2E2E20000E200000000000000E20000000000000000000000000000000000000000000000000000000000000000000000000000000000000000000000000000000000
310
0000000000000000000000000000000000000000000000000000000000000000000000000000000000000000000000000000000000000000000000000000000000000000000000000000000000000000000000000000000000000000000000000000000000000000000000000000000000E200000000000000E20000000000
310
000000000000000000000000000000000000000000000000000000000000000000000000000000000000000000000000000000000000000000000000000000E2E20000E200000000000000E2000000000000000000000000000000000000000000000000000000000000000000000000000000000000000000000000000000
310
00000000000000000000000000000000000000000000000000000000000000000000000000000000000000000000000000000000000000000000000000000000000000000000000000000000000000000000000000000000000000000000000000000000000000000000000000000000000000E200000000000000E2000000
310
000000000000000000000000000000000000000000000000000000000000000000000000000000000000000000000000000000000000000000000000000000000000E20000E200000000000000E200000000000000000000000000000000000000000000000000000000000000000000000000000000000000000000000000
310
000000000000000000000000000000000000000000000000000000000000000000000000000000000000000000000000000000000000000000000000000000000000000000000000000000000000000000000000000000000000000000000000000000000000000000000000000000000000000000E200000000000000E200
310
0000000000000000000000000000000000000000000000000000000000000000000000000000000000000000000000000000000000000000000000000000000000000000E20000E200000000000000E20000000000000000000000000000000000000000000000000000000000000000000000000000000000000000000000
310
0000000000000000000000000000000000000000000000000000000000000000000000000000000000000000000000000000000000000000000000000000000000000000000000000000000000000000000000000000000000000000000000000000000000000000000000000000000000000000000000E200000000000000
310
E2000000000000000000000000000000000000000000000000000000000000000000000000000000000000000000000000000000000000000000000000000000000000000000000000E200000000000000E2000000000000000000000000000000000000000000000000000000000000000000000000000000000000000000
310
00000000000000000000000000000000000000000000000000000000000000000000000000000000000000000000000000000000000000000000000000000000000000000000000000000000000000000000000000000000000000000000000000000000000000000000000000000000000000000000000000E20000000000
310
0000E2000000000000000000000000000000000000000000000000000000000000000000000000000000000000000000000000000000000000000000000000000000000000000000000000E200000000000000E200000000000000000000000000000000000000000000000000000000000000000000000000000000000000
310
000000000000000000000000000000000000000000000000000000000000000000000000000000000000000000000000000000000000000000000000000000000000000000000000000000000000000000000000000000000000000000000000000000000000000000000000000000000000000000000000000000E2000000
310
00000000E2E2E2E2E2E2E2E2E2E2E2E2E2E2E2E2E2E2E2E2E2E2E2E2E2E2E2E2E2E2E2E2E2E2E2E2E2E2E2E2E2E2E2E2E2E2E2E2E2E2E2E2E2E2E2E2E2E2E2E2E2E2E2E2E2E2E2E2E2E2E2E2E2E200000000000000E20000000000000000000000000000000000000000000000000000000000000000000000000000000000
310
0000000000000000000000000000000000000000000000000000000000000000000000000000000000000000000000000000000000000000000000000000000000000000000000000000000000000000000000000000000000000000000000000000000000000000000000000000000000000000000000000000000000E200
310
000000000000000000000000000000000000000000000000000000000000000000000000000000000000000000000000000000000000000000000000000000000000000000000000000000000000000000000000000000E2000000000000000000000000000000000000000000000000000000000000000000000000000000
310
00000000000000000000000000000000000000000000000000000000000000000000000000000000000000000000000000000000000000000000000000000000000000000000000000000000000000000000000000000000000000000000000000000000000000000000000000000000000000000000000000000000000000
310
E200000000000000000000000000000000000000000000000000000000000000000000000000000000000000000000000000000000000000000000000000000000000000000000000000000000000000000000000000000000E200000000000000000000000000000000000000000000000000000000000000000000000000
310
00000000000000000000000000000000000000000000000000000000000000000000000000000000000000000000000000000000000000000000000000000000000000000000000000000000000000000000000000000000000000000000000000000000000000000000000000000000000000000000000000000000000000
310
0000E200000000000000000000000000000000000000000000000000000000000000000000000000000000000000000000000000000000000000000000000000000000000000000000000000000000000000000000000000000000E20000000000000000000000000000000000000000000000000000000000000000000000
310
00000000000000000000000000000000000000000000000000000000000000000000000000000000000000000000000000000000000000000000000000000000000000000000000000000000000000000000000000000000000000000000000000000000000000000000000000000000000000000000000000000000000000
310
00000000E200000000000000000000000000000000000000000000000000000000000000000000000000000000000000000000000000000000000000000000000000000000000000000000000000000000000000000000000000000000E2000000000000000000000000000000000000000000000000000000000000000000
310
00000000000000000000000000000000000000000000000000000000000000000000000000000000000000000000000000000000000000000000000000000000000000000000000000000000000000000000000000000000000000000000000000000000000000000000000000000000000000000000000000000000000000
310
000000000000E200000000000000000000000000000000000000000000000000000000000000000000000000000000000000000000000000000000000000000000000000000000000000000000000000000000000000000000000000000000E200000000000000000000000000000000000000000000000000000000000000
310
00000000000000000000000000000000000000000000000000000000000000000000000000000000000000000000000000000000000000000000000000000000000000000000000000000000000000000000000000000000000000000000000000000000000000000000000000000000000000000000000000000000000000
310
0000000000000000E2E2E2E2E2E2E2E2E2E2E2E2E2E2E2E2E2E2E2E2E2E2E2E2E2E2E2E2E2E2E2E2E2E2E2E2E2E2E2E2E2E2E2E2E2E2E2E2E2E2E2E2E2E2E2E2E2E2E2E2E2E2E2E2E2E2E2E2E2E2E2E2E2E2E2E2E2E2E2E2E2E2E2E2E2E2E2E2E2E20000000000000000000000000000000000000000000000000000000000
310
00000000000000000000000000000000000000000000000000000000000000000000000000000000000000000000000000000000000000000000000000000000000000000000000000000000000000000000000000000000000000000000000000000000000000000000000000000000000000000000000000000000000000
310
00000000000000000000000000000000000000000000000000000000000000000000000000000000000000000000000000000000000000000000000000000000000000000000000000000000000000000000000000000000000000000000000000000000000000000000000000000000000000000000000000000000000000
310
00000000000000000000000000000000000000000000000000000000000000000000000000000000000000000000000000000000000000000000000000000000000000000000000000000000000000000000000000000000000000000000000000000000000000000000000000000000000000000000000000000000000000
310
00000000000000000000000000000000000000000000000000000000000000000000000000000000000000000000000000000000000000000000000000000000000000000000000000000000000000000000000000000000000000000000000000000000000000000000000000000000000000000000000000000000000000
310
00000000000000000000000000000000000000000000000000000000000000000000000000000000000000000000000000000000000000000000000000000000000000000000000000000000000000000000000000000000000000000000000000000000000000000000000000000000000000000000000000000000000000
310
00000000000000000000000000000000000000000000000000000000000000000000000000000000000000000000000000000000000000000000000000000000000000000000000000000000000000000000000000000000000000000000000000000000000000000000000000000000000000000000000000000000000000
310
00000000000000000000000000000000000000000000000000000000000000000000000000000000000000000000000000000000000000000000000000000000000000000000000000000000000000000000000000000000000000000000000000000000000000000000000000000000000000000000000000000000000000
310
00000000000000000000000000000000000000000000000000000000000000000000000000000000000000000000000000000000000000000000000000000000000000000000000000000000000000000000000000000000000000000000000000000000000000000000000000000000000000000000000000000000000000
310
0000000000000000000000000000000000000000000000000000000000000000000000000000000000000000000000000000000000000000000000000000
  0
ENDSEC
  0
EOF
