  0
SECTION
  2
HEADER
  9
$ACADVER
  1
AC1024
  9
$ACADMAINTVER
 70
     6
  9
$DWGCODEPAGE
  3
ANSI_1252
  9
$INSBASE
 10
0.0
 20
0.0
 30
0.0
  9
$EXTMIN
 10
99.61029162119416
 20
199.2341775591883
 30
-0.0015258207003583
  9
$EXTMAX
 10
137.5817877584857
 20
211.7647711000926
 30
0.0000000349246037
  9
$LIMMIN
 10
0.0
 20
0.0
  9
$LIMMAX
 10
420.0
 20
297.0
  9
$ORTHOMODE
 70
     0
  9
$REGENMODE
 70
     1
  9
$FILLMODE
 70
     1
  9
$QTEXTMODE
 70
     0
  9
$MIRRTEXT
 70
     1
  9
$LTSCALE
 40
1.0
  9
$ATTMODE
 70
     1
  9
$TEXTSIZE
 40
0.12
  9
$TRACEWID
 40
1.0
  9
$TEXTSTYLE
  7
STANDARD
  9
$CLAYER
  8
42
  9
$CELTYPE
  6
BYLAYER
  9
$CECOLOR
 62
   256
  9
$CELTSCALE
 40
1.0
  9
$DISPSILH
 70
     0
  9
$DIMSCALE
 40
1.0
  9
$DIMASZ
 40
2.5
  9
$DIMEXO
 40
0.625
  9
$DIMDLI
 40
3.75
  9
$DIMRND
 40
0.0
  9
$DIMDLE
 40
0.0
  9
$DIMEXE
 40
1.25
  9
$DIMTP
 40
0.0
  9
$DIMTM
 40
0.0
  9
$DIMTXT
 40
2.5
  9
$DIMCEN
 40
2.5
  9
$DIMTSZ
 40
0.0
  9
$DIMTOL
 70
     0
  9
$DIMLIM
 70
     0
  9
$DIMTIH
 70
     0
  9
$DIMTOH
 70
     0
  9
$DIMSE1
 70
     0
  9
$DIMSE2
 70
     0
  9
$DIMTAD
 70
     1
  9
$DIMZIN
 70
     8
  9
$DIMBLK
  1

  9
$DIMASO
 70
     1
  9
$DIMSHO
 70
     1
  9
$DIMPOST
  1

  9
$DIMAPOST
  1

  9
$DIMALT
 70
     0
  9
$DIMALTD
 70
     4
  9
$DIMALTF
 40
0.0394
  9
$DIMLFAC
 40
1.0
  9
$DIMTOFL
 70
     1
  9
$DIMTVP
 40
0.0
  9
$DIMTIX
 70
     0
  9
$DIMSOXD
 70
     0
  9
$DIMSAH
 70
     0
  9
$DIMBLK1
  1

  9
$DIMBLK2
  1

  9
$DIMSTYLE
  2
STANDARD
  9
$DIMCLRD
 70
     0
  9
$DIMCLRE
 70
     0
  9
$DIMCLRT
 70
     0
  9
$DIMTFAC
 40
1.0
  9
$DIMGAP
 40
0.625
  9
$DIMJUST
 70
     0
  9
$DIMSD1
 70
     0
  9
$DIMSD2
 70
     0
  9
$DIMTOLJ
 70
     1
  9
$DIMTZIN
 70
     0
  9
$DIMALTZ
 70
     0
  9
$DIMALTTZ
 70
     0
  9
$DIMUPT
 70
     0
  9
$DIMDEC
 70
     4
  9
$DIMTDEC
 70
     4
  9
$DIMALTU
 70
     8
  9
$DIMALTTD
 70
     4
  9
$DIMTXSTY
  7
STANDARD
  9
$DIMAUNIT
 70
     0
  9
$DIMADEC
 70
     0
  9
$DIMALTRND
 40
0.0
  9
$DIMAZIN
 70
     0
  9
$DIMDSEP
 70
    46
  9
$DIMATFIT
 70
     3
  9
$DIMFRAC
 70
     0
  9
$DIMLDRBLK
  1

  9
$DIMLUNIT
 70
     6
  9
$DIMLWD
 70
    -2
  9
$DIMLWE
 70
    -2
  9
$DIMTMOVE
 70
     0
  9
$DIMFXL
 40
1.0
  9
$DIMFXLON
 70
     0
  9
$DIMJOGANG
 40
0.7853981633974483
  9
$DIMTFILL
 70
     0
  9
$DIMTFILLCLR
 70
     0
  9
$DIMARCSYM
 70
     0
  9
$DIMLTYPE
  6

  9
$DIMLTEX1
  6

  9
$DIMLTEX2
  6

  9
$DIMTXTDIRECTION
 70
     0
  9
$LUNITS
 70
     2
  9
$LUPREC
 70
     4
  9
$SKETCHINC
 40
1.0
  9
$FILLETRAD
 40
10.0
  9
$AUNITS
 70
     0
  9
$AUPREC
 70
     0
  9
$MENU
  1
.
  9
$ELEVATION
 40
0.0
  9
$PELEVATION
 40
0.0
  9
$THICKNESS
 40
0.0
  9
$LIMCHECK
 70
     0
  9
$CHAMFERA
 40
10.0
  9
$CHAMFERB
 40
10.0
  9
$CHAMFERC
 40
20.0
  9
$CHAMFERD
 40
0.0
  9
$SKPOLY
 70
     0
  9
$TDCREATE
 40
2451590.000421412
  9
$TDUCREATE
 40
2451589.958754745
  9
$TDUPDATE
 40
2457231.701094074
  9
$TDUUPDATE
 40
2457231.659427407
  9
$TDINDWG
 40
0.6692147569
  9
$TDUSRTIMER
 40
0.6692147569
  9
$USRTIMER
 70
     1
  9
$ANGBASE
 50
0.0
  9
$ANGDIR
 70
     0
  9
$PDMODE
 70
     0
  9
$PDSIZE
 40
0.0
  9
$PLINEWID
 40
0.0
  9
$SPLFRAME
 70
     0
  9
$SPLINETYPE
 70
     6
  9
$SPLINESEGS
 70
     8
  9
$HANDSEED
  5
2E1
  9
$SURFTAB1
 70
     6
  9
$SURFTAB2
 70
     6
  9
$SURFTYPE
 70
     6
  9
$SURFU
 70
     6
  9
$SURFV
 70
     6
  9
$UCSBASE
  2

  9
$UCSNAME
  2

  9
$UCSORG
 10
0.0
 20
0.0
 30
0.0
  9
$UCSXDIR
 10
1.0
 20
0.0
 30
0.0
  9
$UCSYDIR
 10
0.0
 20
1.0
 30
0.0
  9
$UCSORTHOREF
  2

  9
$UCSORTHOVIEW
 70
     0
  9
$UCSORGTOP
 10
0.0
 20
0.0
 30
0.0
  9
$UCSORGBOTTOM
 10
0.0
 20
0.0
 30
0.0
  9
$UCSORGLEFT
 10
0.0
 20
0.0
 30
0.0
  9
$UCSORGRIGHT
 10
0.0
 20
0.0
 30
0.0
  9
$UCSORGFRONT
 10
0.0
 20
0.0
 30
0.0
  9
$UCSORGBACK
 10
0.0
 20
0.0
 30
0.0
  9
$PUCSBASE
  2

  9
$PUCSNAME
  2

  9
$PUCSORG
 10
0.0
 20
0.0
 30
0.0
  9
$PUCSXDIR
 10
1.0
 20
0.0
 30
0.0
  9
$PUCSYDIR
 10
0.0
 20
1.0
 30
0.0
  9
$PUCSORTHOREF
  2

  9
$PUCSORTHOVIEW
 70
     0
  9
$PUCSORGTOP
 10
0.0
 20
0.0
 30
0.0
  9
$PUCSORGBOTTOM
 10
0.0
 20
0.0
 30
0.0
  9
$PUCSORGLEFT
 10
0.0
 20
0.0
 30
0.0
  9
$PUCSORGRIGHT
 10
0.0
 20
0.0
 30
0.0
  9
$PUCSORGFRONT
 10
0.0
 20
0.0
 30
0.0
  9
$PUCSORGBACK
 10
0.0
 20
0.0
 30
0.0
  9
$USERI1
 70
     0
  9
$USERI2
 70
     0
  9
$USERI3
 70
     0
  9
$USERI4
 70
     0
  9
$USERI5
 70
     0
  9
$USERR1
 40
0.0
  9
$USERR2
 40
0.0
  9
$USERR3
 40
0.0
  9
$USERR4
 40
0.0
  9
$USERR5
 40
0.0
  9
$WORLDVIEW
 70
     1
  9
$SHADEDGE
 70
     3
  9
$SHADEDIF
 70
    70
  9
$TILEMODE
 70
     1
  9
$MAXACTVP
 70
    48
  9
$PINSBASE
 10
0.0
 20
0.0
 30
0.0
  9
$PLIMCHECK
 70
     0
  9
$PEXTMIN
 10
1.000000000000000E+20
 20
1.000000000000000E+20
 30
1.000000000000000E+20
  9
$PEXTMAX
 10
-1.000000000000000E+20
 20
-1.000000000000000E+20
 30
-1.000000000000000E+20
  9
$PLIMMIN
 10
0.0
 20
0.0
  9
$PLIMMAX
 10
420.0
 20
297.0
  9
$UNITMODE
 70
     0
  9
$VISRETAIN
 70
     1
  9
$PLINEGEN
 70
     0
  9
$PSLTSCALE
 70
     1
  9
$TREEDEPTH
 70
  3020
  9
$CMLSTYLE
  2
STANDARD
  9
$CMLJUST
 70
     0
  9
$CMLSCALE
 40
20.0
  9
$PROXYGRAPHICS
 70
     1
  9
$MEASUREMENT
 70
     1
  9
$CELWEIGHT
370
    -1
  9
$ENDCAPS
280
     0
  9
$JOINSTYLE
280
     0
  9
$LWDISPLAY
290
     0
  9
$INSUNITS
 70
     0
  9
$HYPERLINKBASE
  1

  9
$STYLESHEET
  1

  9
$XEDIT
290
     1
  9
$CEPSNTYPE
380
     0
  9
$PSTYLEMODE
290
     1
  9
$FINGERPRINTGUID
  2
{52E165C0-3319-11D5-807D-00D0B7A04F89}
  9
$VERSIONGUID
  2
{C3DBDBCC-C7CD-4876-BD24-062D67851B8A}
  9
$EXTNAMES
290
     1
  9
$PSVPSCALE
 40
0.0
  9
$OLESTARTUP
290
     0
  9
$SORTENTS
280
   127
  9
$INDEXCTL
280
     0
  9
$HIDETEXT
280
     0
  9
$XCLIPFRAME
280
     0
  9
$HALOGAP
280
     0
  9
$OBSCOLOR
 70
   257
  9
$OBSLTYPE
280
     0
  9
$INTERSECTIONDISPLAY
280
     0
  9
$INTERSECTIONCOLOR
 70
   257
  9
$DIMASSOC
280
     1
  9
$PROJECTNAME
  1

  9
$CAMERADISPLAY
290
     0
  9
$LENSLENGTH
 40
50.0
  9
$CAMERAHEIGHT
 40
0.0
  9
$STEPSPERSEC
 40
2.0
  9
$STEPSIZE
 40
6.0
  9
$3DDWFPREC
 40
2.0
  9
$PSOLWIDTH
 40
0.25
  9
$PSOLHEIGHT
 40
4.0
  9
$LOFTANG1
 40
1.570796326794897
  9
$LOFTANG2
 40
1.570796326794897
  9
$LOFTMAG1
 40
0.0
  9
$LOFTMAG2
 40
0.0
  9
$LOFTPARAM
 70
     7
  9
$LOFTNORMALS
280
     1
  9
$LATITUDE
 40
37.795
  9
$LONGITUDE
 40
-122.394
  9
$NORTHDIRECTION
 40
0.0
  9
$TIMEZONE
 70
 -8000
  9
$LIGHTGLYPHDISPLAY
280
     1
  9
$TILEMODELIGHTSYNCH
280
     1
  9
$SOLIDHIST
280
     0
  9
$SHOWHIST
280
     1
  9
$DWFFRAME
280
     2
  9
$DGNFRAME
280
     2
  9
$REALWORLDSCALE
290
     1
  9
$INTERFERECOLOR
 62
   256
  9
$CSHADOW
280
     0
  9
$SHADOWPLANELOCATION
 40
0.0
  0
ENDSEC
  0
SECTION
  2
CLASSES
  0
CLASS
  1
LWPOLYLINE
  2
AcDbPolyline
  3
ObjectDBX Classes
 90
        0
 91
        1
280
     0
281
     1
  0
CLASS
  1
ACDBDICTIONARYWDFLT
  2
AcDbDictionaryWithDefault
  3
ObjectDBX Classes
 90
        0
 91
        4
280
     0
281
     0
  0
CLASS
  1
ACDBPLACEHOLDER
  2
AcDbPlaceHolder
  3
ObjectDBX Classes
 90
        0
 91
        1
280
     0
281
     0
  0
CLASS
  1
LAYOUT
  2
AcDbLayout
  3
ObjectDBX Classes
 90
        0
 91
        1
280
     0
281
     0
  0
CLASS
  1
LONG_TRANSACTION
  2
AcDbLongTransaction
  3
ObjectDBX Classes
 90
        0
 91
        1
280
     0
281
     0
  0
CLASS
  1
LWPOLYLINE
  2
AcDbPolyline
  3
ObjectDBX Classes
 90
        0
 91
        1
280
     0
281
     1
  0
CLASS
  1
HATCH
  2
AcDbHatch
  3
ObjectDBX Classes
 90
        0
 91
        1
280
     0
281
     1
  0
CLASS
  1
XRECORD
  2
AcDbXrecord
  3
ObjectDBX Classes
 90
        0
 91
        1
280
     0
281
     0
  0
CLASS
  1
LONG_TRANSACTION
  2
AcDbLongTransaction
  3
ObjectDBX Classes
 90
        0
 91
        1
280
     0
281
     0
  0
CLASS
  1
LWPOLYLINE
  2
AcDbPolyline
  3
ObjectDBX Classes
 90
        0
 91
        1
280
     0
281
     1
  0
CLASS
  1
HATCH
  2
AcDbHatch
  3
ObjectDBX Classes
 90
        0
 91
        1
280
     0
281
     1
  0
CLASS
  1
XRECORD
  2
AcDbXrecord
  3
ObjectDBX Classes
 90
        0
 91
        1
280
     0
281
     0
  0
CLASS
  1
LONG_TRANSACTION
  2
AcDbLongTransaction
  3
ObjectDBX Classes
 90
        0
 91
        1
280
     0
281
     0
  0
CLASS
  1
LWPOLYLINE
  2
AcDbPolyline
  3
ObjectDBX Classes
 90
        0
 91
        1
280
     0
281
     1
  0
CLASS
  1
HATCH
  2
AcDbHatch
  3
ObjectDBX Classes
 90
        0
 91
        1
280
     0
281
     1
  0
CLASS
  1
XRECORD
  2
AcDbXrecord
  3
ObjectDBX Classes
 90
        0
 91
        1
280
     0
281
     0
  0
CLASS
  1
VISUALSTYLE
  2
AcDbVisualStyle
  3
ObjectDBX Classes
 90
     4095
 91
        4
280
     0
281
     0
  0
CLASS
  1
SCALE
  2
AcDbScale
  3
ObjectDBX Classes
 90
     1153
 91
        4
280
     0
281
     0
  0
CLASS
  1
MATERIAL
  2
AcDbMaterial
  3
ObjectDBX Classes
 90
     1153
 91
        4
280
     0
281
     0
  0
CLASS
  1
TABLESTYLE
  2
AcDbTableStyle
  3
ObjectDBX Classes
 90
     4095
 91
        4
280
     0
281
     0
  0
CLASS
  1
MLEADERSTYLE
  2
AcDbMLeaderStyle
  3
ACDB_MLEADERSTYLE_CLASS
 90
     4095
 91
        4
280
     0
281
     0
  0
CLASS
  1
DICTIONARYVAR
  2
AcDbDictionaryVar
  3
ObjectDBX Classes
 90
        0
 91
        4
280
     0
281
     0
  0
CLASS
  1
CELLSTYLEMAP
  2
AcDbCellStyleMap
  3
ObjectDBX Classes
 90
     1152
 91
        4
280
     0
281
     0
  0
ENDSEC
  0
SECTION
  2
TABLES
  0
TABLE
  2
VPORT
  5
8
330
0
100
AcDbSymbolTable
 70
     2
  0
VPORT
  5
263
330
8
100
AcDbSymbolTableRecord
100
AcDbViewportTableRecord
  2
*Active
 70
     0
 10
0.0
 20
0.0
 11
1.0
 21
1.0
 12
118.5960396898399
 22
205.4994743296405
 13
0.0
 23
0.0
 14
10.0
 24
10.0
 15
10.0
 25
10.0
 16
0.0
 26
0.0
 36
1.0
 17
0.0
 27
0.0
 37
0.0
 40
21.35786261764349
 41
1.789077212806026
 42
50.0
 43
0.0
 44
0.0
 50
0.0
 51
0.0
 71
     0
 72
   100
 73
     1
 74
     1
 75
     0
 76
     0
 77
     0
 78
     0
281
     0
 65
     1
110
0.0
120
0.0
130
0.0
111
1.0
121
0.0
131
0.0
112
0.0
122
1.0
132
0.0
 79
     0
146
0.0
348
269
 60
     3
 61
     5
292
     1
282
     1
141
0.0
142
0.0
 63
   256
  0
ENDTAB
  0
TABLE
  2
LTYPE
  5
5
330
0
100
AcDbSymbolTable
 70
     1
  0
LTYPE
  5
12
330
5
100
AcDbSymbolTableRecord
100
AcDbLinetypeTableRecord
  2
BYBLOCK
 70
     0
  3

 72
    65
 73
     0
 40
0.0
  0
LTYPE
  5
13
330
5
100
AcDbSymbolTableRecord
100
AcDbLinetypeTableRecord
  2
BYLAYER
 70
     0
  3

 72
    65
 73
     0
 40
0.0
  0
LTYPE
  5
14
330
5
100
AcDbSymbolTableRecord
100
AcDbLinetypeTableRecord
  2
CONTINUOUS
 70
     0
  3
Solid line
 72
    65
 73
     0
 40
0.0
  0
ENDTAB
  0
TABLE
  2
LAYER
  5
2
330
0
100
AcDbSymbolTable
 70
    93
  0
LAYER
  5
E
330
2
100
AcDbSymbolTableRecord
100
AcDbLayerTableRecord
  2
0
 70
     0
 62
     7
  6
CONTINUOUS
370
    -3
390
15F
347
2A1
  0
LAYER
  5
21
330
2
100
AcDbSymbolTableRecord
100
AcDbLayerTableRecord
  2
LOEXC
 70
     0
 62
     1
  6
CONTINUOUS
370
    -3
390
15F
347
2A1
  0
LAYER
  5
24
330
2
100
AcDbSymbolTableRecord
100
AcDbLayerTableRecord
  2
17
 70
     0
 62
     7
  6
CONTINUOUS
370
    -3
390
15F
347
2A1
  0
LAYER
  5
29
330
2
100
AcDbSymbolTableRecord
100
AcDbLayerTableRecord
  2
13
 70
     0
 62
     7
  6
CONTINUOUS
370
    -3
390
15F
347
2A1
  0
LAYER
  5
2D
330
2
100
AcDbSymbolTableRecord
100
AcDbLayerTableRecord
  2
12
 70
     0
 62
     7
  6
CONTINUOUS
370
    -3
390
15F
347
2A1
  0
LAYER
  5
30
330
2
100
AcDbSymbolTableRecord
100
AcDbLayerTableRecord
  2
110
 70
     0
 62
     7
  6
CONTINUOUS
370
    -3
390
15F
347
2A1
  0
LAYER
  5
35
330
2
100
AcDbSymbolTableRecord
100
AcDbLayerTableRecord
  2
14
 70
     0
 62
     7
  6
CONTINUOUS
370
    -3
390
15F
347
2A1
  0
LAYER
  5
38
330
2
100
AcDbSymbolTableRecord
100
AcDbLayerTableRecord
  2
33
 70
     0
 62
     7
  6
CONTINUOUS
370
    -3
390
15F
347
2A1
  0
LAYER
  5
3B
330
2
100
AcDbSymbolTableRecord
100
AcDbLayerTableRecord
  2
CHURCH1
 70
     0
 62
     6
  6
CONTINUOUS
370
    -3
390
15F
347
2A1
  0
LAYER
  5
40
330
2
100
AcDbSymbolTableRecord
100
AcDbLayerTableRecord
  2
CHURCH2
 70
     0
 62
     6
  6
CONTINUOUS
370
    -3
390
15F
347
2A1
  0
LAYER
  5
55
330
2
100
AcDbSymbolTableRecord
100
AcDbLayerTableRecord
  2
9
 70
     0
 62
     7
  6
CONTINUOUS
370
    -3
390
15F
347
2A1
  0
LAYER
  5
58
330
2
100
AcDbSymbolTableRecord
100
AcDbLayerTableRecord
  2
11
 70
     0
 62
     7
  6
CONTINUOUS
370
    -3
390
15F
347
2A1
  0
LAYER
  5
5B
330
2
100
AcDbSymbolTableRecord
100
AcDbLayerTableRecord
  2
15
 70
     0
 62
     7
  6
CONTINUOUS
370
    -3
390
15F
347
2A1
  0
LAYER
  5
5E
330
2
100
AcDbSymbolTableRecord
100
AcDbLayerTableRecord
  2
LAYER
 70
     0
 62
     7
  6
CONTINUOUS
370
    -3
390
15F
347
2A1
  0
LAYER
  5
5F
330
2
100
AcDbSymbolTableRecord
100
AcDbLayerTableRecord
  2
35
 70
     0
 62
     7
  6
CONTINUOUS
370
    -3
390
15F
347
2A1
  0
LAYER
  5
64
330
2
100
AcDbSymbolTableRecord
100
AcDbLayerTableRecord
  2
27
 70
     0
 62
     7
  6
CONTINUOUS
370
    -3
390
15F
347
2A1
  0
LAYER
  5
67
330
2
100
AcDbSymbolTableRecord
100
AcDbLayerTableRecord
  2
30
 70
     0
 62
     7
  6
CONTINUOUS
370
    -3
390
15F
347
2A1
  0
LAYER
  5
6A
330
2
100
AcDbSymbolTableRecord
100
AcDbLayerTableRecord
  2
135
 70
     0
 62
     7
  6
CONTINUOUS
370
    -3
390
15F
347
2A1
  0
LAYER
  5
6F
330
2
100
AcDbSymbolTableRecord
100
AcDbLayerTableRecord
  2
127
 70
     0
 62
     7
  6
CONTINUOUS
370
    -3
390
15F
347
2A1
  0
LAYER
  5
72
330
2
100
AcDbSymbolTableRecord
100
AcDbLayerTableRecord
  2
133
 70
     0
 62
     7
  6
CONTINUOUS
370
    -3
390
15F
347
2A1
  0
LAYER
  5
75
330
2
100
AcDbSymbolTableRecord
100
AcDbLayerTableRecord
  2
111
 70
     0
 62
     7
  6
CONTINUOUS
370
    -3
390
15F
347
2A1
  0
LAYER
  5
79
330
2
100
AcDbSymbolTableRecord
100
AcDbLayerTableRecord
  2
109
 70
     0
 62
     7
  6
CONTINUOUS
370
    -3
390
15F
347
2A1
  0
LAYER
  5
7C
330
2
100
AcDbSymbolTableRecord
100
AcDbLayerTableRecord
  2
114
 70
     0
 62
     7
  6
CONTINUOUS
370
    -3
390
15F
347
2A1
  0
LAYER
  5
7F
330
2
100
AcDbSymbolTableRecord
100
AcDbLayerTableRecord
  2
113
 70
     0
 62
     7
  6
CONTINUOUS
370
    -3
390
15F
347
2A1
  0
LAYER
  5
84
330
2
100
AcDbSymbolTableRecord
100
AcDbLayerTableRecord
  2
112
 70
     0
 62
     7
  6
CONTINUOUS
370
    -3
390
15F
347
2A1
  0
LAYER
  5
89
330
2
100
AcDbSymbolTableRecord
100
AcDbLayerTableRecord
  2
CHURCH3
 70
     0
 62
     6
  6
CONTINUOUS
370
    -3
390
15F
347
2A1
  0
LAYER
  5
8B
330
2
100
AcDbSymbolTableRecord
100
AcDbLayerTableRecord
  2
3
 70
     0
 62
     7
  6
CONTINUOUS
370
    -3
390
15F
347
2A1
  0
LAYER
  5
8E
330
2
100
AcDbSymbolTableRecord
100
AcDbLayerTableRecord
  2
103
 70
     0
 62
     7
  6
CONTINUOUS
370
    -3
390
15F
347
2A1
  0
LAYER
  5
93
330
2
100
AcDbSymbolTableRecord
100
AcDbLayerTableRecord
  2
7
 70
     0
 62
     7
  6
CONTINUOUS
370
    -3
390
15F
347
2A1
  0
LAYER
  5
96
330
2
100
AcDbSymbolTableRecord
100
AcDbLayerTableRecord
  2
107
 70
     0
 62
     7
  6
CONTINUOUS
370
    -3
390
15F
347
2A1
  0
LAYER
  5
99
330
2
100
AcDbSymbolTableRecord
100
AcDbLayerTableRecord
  2
4
 70
     0
 62
     7
  6
CONTINUOUS
370
    -3
390
15F
347
2A1
  0
LAYER
  5
9C
330
2
100
AcDbSymbolTableRecord
100
AcDbLayerTableRecord
  2
104
 70
     0
 62
     7
  6
CONTINUOUS
370
    -3
390
15F
347
2A1
  0
LAYER
  5
9F
330
2
100
AcDbSymbolTableRecord
100
AcDbLayerTableRecord
  2
5
 70
     0
 62
     7
  6
CONTINUOUS
370
    -3
390
15F
347
2A1
  0
LAYER
  5
A2
330
2
100
AcDbSymbolTableRecord
100
AcDbLayerTableRecord
  2
105
 70
     0
 62
     7
  6
CONTINUOUS
370
    -3
390
15F
347
2A1
  0
LAYER
  5
A4
330
2
100
AcDbSymbolTableRecord
100
AcDbLayerTableRecord
  2
2
 70
     0
 62
     7
  6
CONTINUOUS
370
    -3
390
15F
347
2A1
  0
LAYER
  5
A7
330
2
100
AcDbSymbolTableRecord
100
AcDbLayerTableRecord
  2
202
 70
     0
 62
     7
  6
CONTINUOUS
370
    -3
390
15F
347
2A1
  0
LAYER
  5
A9
330
2
100
AcDbSymbolTableRecord
100
AcDbLayerTableRecord
  2
102
 70
     0
 62
     7
  6
CONTINUOUS
370
    -3
390
15F
347
2A1
  0
LAYER
  5
AF
330
2
100
AcDbSymbolTableRecord
100
AcDbLayerTableRecord
  2
10
 70
     0
 62
     7
  6
CONTINUOUS
370
    -3
390
15F
347
2A1
  0
LAYER
  5
B2
330
2
100
AcDbSymbolTableRecord
100
AcDbLayerTableRecord
  2
130
 70
     0
 62
     7
  6
CONTINUOUS
370
    -3
390
15F
347
2A1
  0
LAYER
  5
B7
330
2
100
AcDbSymbolTableRecord
100
AcDbLayerTableRecord
  2
199
 70
     0
 62
     7
  6
CONTINUOUS
370
    -3
390
15F
347
2A1
  0
LAYER
  5
B8
330
2
100
AcDbSymbolTableRecord
100
AcDbLayerTableRecord
  2
99
 70
     0
 62
     7
  6
CONTINUOUS
370
    -3
390
15F
347
2A1
  0
LAYER
  5
BB
330
2
100
AcDbSymbolTableRecord
100
AcDbLayerTableRecord
  2
19
 70
     0
 62
     7
  6
CONTINUOUS
370
    -3
390
15F
347
2A1
  0
LAYER
  5
BE
330
2
100
AcDbSymbolTableRecord
100
AcDbLayerTableRecord
  2
119
 70
     0
 62
     7
  6
CONTINUOUS
370
    -3
390
15F
347
2A1
  0
LAYER
  5
C6
330
2
100
AcDbSymbolTableRecord
100
AcDbLayerTableRecord
  2
20
 70
     0
 62
     7
  6
CONTINUOUS
370
    -3
390
15F
347
2A1
  0
LAYER
  5
C9
330
2
100
AcDbSymbolTableRecord
100
AcDbLayerTableRecord
  2
120
 70
     0
 62
     7
  6
CONTINUOUS
370
    -3
390
15F
347
2A1
  0
LAYER
  5
CB
330
2
100
AcDbSymbolTableRecord
100
AcDbLayerTableRecord
  2
41
 70
     0
 62
     7
  6
CONTINUOUS
370
    -3
390
15F
347
2A1
  0
LAYER
  5
CF
330
2
100
AcDbSymbolTableRecord
100
AcDbLayerTableRecord
  2
141
 70
     0
 62
     7
  6
CONTINUOUS
370
    -3
390
15F
347
2A1
  0
LAYER
  5
D7
330
2
100
AcDbSymbolTableRecord
100
AcDbLayerTableRecord
  2
26
 70
     0
 62
     7
  6
CONTINUOUS
370
    -3
390
15F
347
2A1
  0
LAYER
  5
DA
330
2
100
AcDbSymbolTableRecord
100
AcDbLayerTableRecord
  2
126
 70
     0
 62
     7
  6
CONTINUOUS
370
    -3
390
15F
347
2A1
  0
LAYER
  5
E4
330
2
100
AcDbSymbolTableRecord
100
AcDbLayerTableRecord
  2
25
 70
     0
 62
     7
  6
CONTINUOUS
370
    -3
390
15F
347
2A1
  0
LAYER
  5
E7
330
2
100
AcDbSymbolTableRecord
100
AcDbLayerTableRecord
  2
125
 70
     0
 62
     7
  6
CONTINUOUS
370
    -3
390
15F
347
2A1
  0
LAYER
  5
EB
330
2
100
AcDbSymbolTableRecord
100
AcDbLayerTableRecord
  2
24
 70
     0
 62
     7
  6
CONTINUOUS
370
    -3
390
15F
347
2A1
  0
LAYER
  5
EE
330
2
100
AcDbSymbolTableRecord
100
AcDbLayerTableRecord
  2
124
 70
     0
 62
     7
  6
CONTINUOUS
370
    -3
390
15F
347
2A1
  0
LAYER
  5
F2
330
2
100
AcDbSymbolTableRecord
100
AcDbLayerTableRecord
  2
31
 70
     0
 62
     7
  6
CONTINUOUS
370
    -3
390
15F
347
2A1
  0
LAYER
  5
F5
330
2
100
AcDbSymbolTableRecord
100
AcDbLayerTableRecord
  2
131
 70
     0
 62
     7
  6
CONTINUOUS
370
    -3
390
15F
347
2A1
  0
LAYER
  5
F8
330
2
100
AcDbSymbolTableRecord
100
AcDbLayerTableRecord
  2
16
 70
     0
 62
     7
  6
CONTINUOUS
370
    -3
390
15F
347
2A1
  0
LAYER
  5
FC
330
2
100
AcDbSymbolTableRecord
100
AcDbLayerTableRecord
  2
116
 70
     0
 62
     7
  6
CONTINUOUS
370
    -3
390
15F
347
2A1
  0
LAYER
  5
FF
330
2
100
AcDbSymbolTableRecord
100
AcDbLayerTableRecord
  2
40
 70
     0
 62
     7
  6
CONTINUOUS
370
    -3
390
15F
347
2A1
  0
LAYER
  5
102
330
2
100
AcDbSymbolTableRecord
100
AcDbLayerTableRecord
  2
140
 70
     0
 62
     7
  6
CONTINUOUS
370
    -3
390
15F
347
2A1
  0
LAYER
  5
108
330
2
100
AcDbSymbolTableRecord
100
AcDbLayerTableRecord
  2
1
 70
     0
 62
     7
  6
CONTINUOUS
370
    -3
390
15F
347
2A1
  0
LAYER
  5
10A
330
2
100
AcDbSymbolTableRecord
100
AcDbLayerTableRecord
  2
28
 70
     0
 62
     7
  6
CONTINUOUS
370
    -3
390
15F
347
2A1
  0
LAYER
  5
10D
330
2
100
AcDbSymbolTableRecord
100
AcDbLayerTableRecord
  2
34
 70
     0
 62
     7
  6
CONTINUOUS
370
    -3
390
15F
347
2A1
  0
LAYER
  5
110
330
2
100
AcDbSymbolTableRecord
100
AcDbLayerTableRecord
  2
93
 70
     0
 62
     7
  6
CONTINUOUS
370
    -3
390
15F
347
2A1
  0
LAYER
  5
116
330
2
100
AcDbSymbolTableRecord
100
AcDbLayerTableRecord
  2
101
 70
     0
 62
     7
  6
CONTINUOUS
370
    -3
390
15F
347
2A1
  0
LAYER
  5
11A
330
2
100
AcDbSymbolTableRecord
100
AcDbLayerTableRecord
  2
6
 70
     0
 62
     7
  6
CONTINUOUS
370
    -3
390
15F
347
2A1
  0
LAYER
  5
11E
330
2
100
AcDbSymbolTableRecord
100
AcDbLayerTableRecord
  2
106
 70
     0
 62
     7
  6
CONTINUOUS
370
    -3
390
15F
347
2A1
  0
LAYER
  5
121
330
2
100
AcDbSymbolTableRecord
100
AcDbLayerTableRecord
  2
8
 70
     0
 62
     7
  6
CONTINUOUS
370
    -3
390
15F
347
2A1
  0
LAYER
  5
124
330
2
100
AcDbSymbolTableRecord
100
AcDbLayerTableRecord
  2
108
 70
     0
 62
     7
  6
CONTINUOUS
370
    -3
390
15F
347
2A1
  0
LAYER
  5
127
330
2
100
AcDbSymbolTableRecord
100
AcDbLayerTableRecord
  2
21
 70
     0
 62
     7
  6
CONTINUOUS
370
    -3
390
15F
347
2A1
  0
LAYER
  5
12A
330
2
100
AcDbSymbolTableRecord
100
AcDbLayerTableRecord
  2
121
 70
     0
 62
     7
  6
CONTINUOUS
370
    -3
390
15F
347
2A1
  0
LAYER
  5
12D
330
2
100
AcDbSymbolTableRecord
100
AcDbLayerTableRecord
  2
39
 70
     0
 62
     7
  6
CONTINUOUS
370
    -3
390
15F
347
2A1
  0
LAYER
  5
130
330
2
100
AcDbSymbolTableRecord
100
AcDbLayerTableRecord
  2
239
 70
     0
 62
     7
  6
CONTINUOUS
370
    -3
390
15F
347
2A1
  0
LAYER
  5
134
330
2
100
AcDbSymbolTableRecord
100
AcDbLayerTableRecord
  2
139
 70
     0
 62
     7
  6
CONTINUOUS
370
    -3
390
15F
347
2A1
  0
LAYER
  5
138
330
2
100
AcDbSymbolTableRecord
100
AcDbLayerTableRecord
  2
CHURCH4
 70
     0
 62
     7
  6
CONTINUOUS
370
    -3
390
15F
347
2A1
  0
LAYER
  5
13C
330
2
100
AcDbSymbolTableRecord
100
AcDbLayerTableRecord
  2
29
 70
     0
 62
     7
  6
CONTINUOUS
370
    -3
390
15F
347
2A1
  0
LAYER
  5
13F
330
2
100
AcDbSymbolTableRecord
100
AcDbLayerTableRecord
  2
129
 70
     0
 62
     7
  6
CONTINUOUS
370
    -3
390
15F
347
2A1
  0
LAYER
  5
142
330
2
100
AcDbSymbolTableRecord
100
AcDbLayerTableRecord
  2
23
 70
     0
 62
     7
  6
CONTINUOUS
370
    -3
390
15F
347
2A1
  0
LAYER
  5
146
330
2
100
AcDbSymbolTableRecord
100
AcDbLayerTableRecord
  2
123
 70
     0
 62
     7
  6
CONTINUOUS
370
    -3
390
15F
347
2A1
  0
LAYER
  5
148
330
2
100
AcDbSymbolTableRecord
100
AcDbLayerTableRecord
  2
22
 70
     0
 62
     2
  6
CONTINUOUS
370
    -3
390
15F
347
2A1
  0
LAYER
  5
14C
330
2
100
AcDbSymbolTableRecord
100
AcDbLayerTableRecord
  2
37
 70
     0
 62
     7
  6
CONTINUOUS
370
    -3
390
15F
347
2A1
  0
LAYER
  5
14D
330
2
100
AcDbSymbolTableRecord
100
AcDbLayerTableRecord
  2
137
 70
     0
 62
     7
  6
CONTINUOUS
370
    -3
390
15F
347
2A1
  0
LAYER
  5
14E
330
2
100
AcDbSymbolTableRecord
100
AcDbLayerTableRecord
  2
38
 70
     0
 62
     7
  6
CONTINUOUS
370
    -3
390
15F
347
2A1
  0
LAYER
  5
152
330
2
100
AcDbSymbolTableRecord
100
AcDbLayerTableRecord
  2
138
 70
     0
 62
     7
  6
CONTINUOUS
370
    -3
390
15F
347
2A1
  0
LAYER
  5
155
330
2
100
AcDbSymbolTableRecord
100
AcDbLayerTableRecord
  2
CHURCH5
 70
     0
 62
   221
  6
CONTINUOUS
370
    -3
390
15F
347
2A1
  0
LAYER
  5
166
330
2
100
AcDbSymbolTableRecord
100
AcDbLayerTableRecord
  2
203
 70
     0
 62
     7
  6
CONTINUOUS
370
    -3
390
15F
347
2A1
  0
LAYER
  5
168
330
2
100
AcDbSymbolTableRecord
100
AcDbLayerTableRecord
  2
115
 70
     0
 62
     7
  6
CONTINUOUS
370
    -3
390
15F
347
2A1
  0
LAYER
  5
16B
330
2
100
AcDbSymbolTableRecord
100
AcDbLayerTableRecord
  2
117
 70
     0
 62
     7
  6
CONTINUOUS
370
    -3
390
15F
347
2A1
  0
LAYER
  5
16E
330
2
100
AcDbSymbolTableRecord
100
AcDbLayerTableRecord
  2
122
 70
     0
 62
     7
  6
CONTINUOUS
370
    -3
390
15F
347
2A1
  0
LAYER
  5
16F
330
2
100
AcDbSymbolTableRecord
100
AcDbLayerTableRecord
  2
222
 70
     0
 62
     7
  6
CONTINUOUS
370
    -3
390
15F
347
2A1
  0
LAYER
  5
172
330
2
100
AcDbSymbolTableRecord
100
AcDbLayerTableRecord
  2
128
 70
     0
 62
     7
  6
CONTINUOUS
370
    -3
390
15F
347
2A1
  0
LAYER
  5
175
330
2
100
AcDbSymbolTableRecord
100
AcDbLayerTableRecord
  2
134
 70
     0
 62
     7
  6
CONTINUOUS
370
    -3
390
15F
347
2A1
  0
LAYER
  5
205
330
2
100
AcDbSymbolTableRecord
100
AcDbLayerTableRecord
  2
42
 70
     0
 62
     7
  6
CONTINUOUS
370
    -3
390
15F
347
2A1
  0
LAYER
  5
206
330
2
100
AcDbSymbolTableRecord
100
AcDbLayerTableRecord
  2
142
 70
     0
 62
     7
  6
CONTINUOUS
370
    -3
390
15F
347
2A1
  0
ENDTAB
  0
TABLE
  2
STYLE
  5
3
330
0
100
AcDbSymbolTable
 70
     1
  0
STYLE
  5
F
330
3
100
AcDbSymbolTableRecord
100
AcDbTextStyleTableRecord
  2
STANDARD
 70
     0
 40
0.0
 41
1.0
 50
0.0
 71
     0
 42
0.12
  3
TIMES.TTF
  4

1001
ACAD
1000
Times New Roman
1071
       18
  0
ENDTAB
  0
TABLE
  2
VIEW
  5
6
330
0
100
AcDbSymbolTable
 70
     0
  0
ENDTAB
  0
TABLE
  2
UCS
  5
7
330
0
100
AcDbSymbolTable
 70
     0
  0
ENDTAB
  0
TABLE
  2
APPID
  5
9
330
0
100
AcDbSymbolTable
 70
     1
  0
APPID
  5
10
330
9
100
AcDbSymbolTableRecord
100
AcDbRegAppTableRecord
  2
ACAD
 70
     0
  0
ENDTAB
  0
TABLE
  2
DIMSTYLE
  5
A
330
0
100
AcDbSymbolTable
 70
     1
100
AcDbDimStyleTable
  0
DIMSTYLE
105
1D
330
A
100
AcDbSymbolTableRecord
100
AcDbDimStyleTableRecord
  2
STANDARD
 70
     0
178
     0
340
F
  0
ENDTAB
  0
TABLE
  2
BLOCK_RECORD
  5
1
330
0
100
AcDbSymbolTable
 70
     0
  0
BLOCK_RECORD
  5
18
330
1
100
AcDbSymbolTableRecord
100
AcDbBlockTableRecord
  2
*MODEL_SPACE
340
162
 70
     0
280
     1
281
     0
  0
BLOCK_RECORD
  5
15
330
1
100
AcDbSymbolTableRecord
100
AcDbBlockTableRecord
  2
*PAPER_SPACE
340
163
 70
     0
280
     1
281
     0
  0
ENDTAB
  0
ENDSEC
  0
SECTION
  2
BLOCKS
  0
BLOCK
  5
19
330
18
100
AcDbEntity
  8
0
370
    -1
100
AcDbBlockBegin
  2
*MODEL_SPACE
 70
     0
 10
0.0
 20
0.0
 30
0.0
  3
*MODEL_SPACE
  1

  0
ENDBLK
  5
1A
330
18
100
AcDbEntity
  8
0
370
    -1
100
AcDbBlockEnd
  0
BLOCK
  5
16
330
15
100
AcDbEntity
 67
     1
  8
0
370
    -1
100
AcDbBlockBegin
  2
*PAPER_SPACE
 70
     0
 10
0.0
 20
0.0
 30
0.0
  3
*PAPER_SPACE
  1

  0
ENDBLK
  5
17
330
15
100
AcDbEntity
 67
     1
  8
0
370
    -1
100
AcDbBlockEnd
  0
ENDSEC
  0
SECTION
  2
ENTITIES
  0
LWPOLYLINE
  5
22
330
18
100
AcDbEntity
  8
LOEXC
370
    -1
100
AcDbPolyline
 90
        4
 70
     0
 43
0.0
 10
108.4965731556908
 20
209.389998807293
 10
114.7230560884973
 20
209.4049291371636
 10
115.3536226783889
 20
205.3294696105932
 10
107.9375936162534
 20
205.3859959929194
  0
LWPOLYLINE
  5
23
330
18
100
AcDbEntity
  8
LOEXC
370
    -1
100
AcDbPolyline
 90
       10
 70
     0
 43
0.0
 10
135.7288613128516
 20
201.3001841404183
 10
137.0232629042509
 20
201.3288679647956
 10
136.9780190304412
 20
209.9873398655973
 10
124.9936538468358
 20
210.0157098846359
 10
124.9949572294091
 20
201.3256251819501
 10
126.0489886927625
 20
201.3197789336606
 10
126.0590519611249
 20
199.2904477387169
 10
135.4981089610882
 20
199.2471094432264
 10
135.5131514808512
 20
201.2954040296871
 10
135.7025278251624
 20
201.2996005926684
  0
LWPOLYLINE
  5
27
330
18
100
AcDbEntity
  8
17
 62
     2
370
    -1
100
AcDbPolyline
 90
       17
 70
     1
 43
0.0
 10
110.4519959593186
 20
209.8528778047885
 10
110.3546011089858
 20
209.8116438947061
 10
110.326692223402
 20
209.6919892498417
 10
110.2989120262241
 20
209.5345794064847
 10
110.3182829310266
 20
209.3899154897994
 10
110.5362008847917
 20
209.2865646779879
 10
110.8540087197414
 20
209.2927868580846
 10
111.2216680155273
 20
209.3861181765202
 10
111.8012002193313
 20
209.3674516362303
 10
112.0566925829273
 20
209.3736738163269
 10
112.184051161971
 20
209.3868360422383
 10
112.2653822345498
 20
209.5255505949242
 10
112.2617426624525
 20
209.6702681317787
 10
112.189013914858
 20
209.7769945413962
 10
112.0976542207954
 20
209.8112924763667
 10
111.6602481033526
 20
209.8318257014515
 10
110.9743834454713
 20
209.8231953289941
  0
TEXT
  5
28
330
18
100
AcDbEntity
  8
17
370
    -1
100
AcDbText
 10
110.8270053997239
 20
209.432783835738
 30
0.0
 40
0.12
  1
17
100
AcDbText
  0
LWPOLYLINE
  5
2A
330
18
100
AcDbEntity
  8
13
 62
     2
370
    -1
100
AcDbPolyline
 90
       18
 70
     1
 43
0.0
 10
109.7136403279092
 20
208.5336940249279
 10
109.8017119958391
 20
208.6361883209061
 10
110.2451425455182
 20
208.6943332074152
 10
110.544230899527
 20
208.6387191928903
 10
110.8620467163084
 20
208.6272172541431
 10
111.2082432761622
 20
208.5969342324541
 10
111.3341904541088
 20
208.5690467949379
 10
111.3942805153698
 20
208.4780088218903
 10
111.388352599438
 20
208.3710143114269
 10
111.2909470250714
 20
208.3329266678855
 10
110.995369554754
 20
208.2815783440485
 10
110.7406184812334
 20
208.2523932984387
 10
110.5235797100701
 20
208.2359220073991
 10
110.2374839355111
 20
208.1720207894994
 10
109.9731975460629
 20
208.1711199706575
 10
109.7967385189182
 20
208.2491760882892
 10
109.7396982078937
 20
208.3685411842402
 10
109.7074098497283
 20
208.4528070666855
  0
TEXT
  5
2C
330
18
100
AcDbEntity
  8
13
370
    -1
100
AcDbText
 10
110.1996985611438
 20
208.3719201084433
 30
0.0
 40
0.12
  1
13
100
AcDbText
  0
LWPOLYLINE
  5
2E
330
18
100
AcDbEntity
  8
12
370
    -1
100
AcDbPolyline
 90
       23
 70
     1
 43
0.0
 10
110.6323263626764
 20
208.6390194658376
 10
110.6634887551396
 20
208.7272221693254
 10
110.7229353743708
 20
208.8249601887407
 10
110.9145251883261
 20
208.923148617577
 10
111.0779487398856
 20
208.9771927985341
 10
111.2634176053001
 20
209.0250195146459
 10
111.5719876550673
 20
208.9568526060583
 10
111.8362311483802
 20
208.9703384910644
 10
112.0250071408432
 20
208.9709819330943
 10
112.1257841864613
 20
208.9430087033074
 10
112.166878684104
 20
208.8865153180083
 10
112.2144694714715
 20
208.7702643164969
 10
112.2085415555397
 20
208.6632698060336
 10
112.2183449723131
 20
208.5563289157393
 10
112.1839505210382
 20
208.4932856205462
 10
112.083366508029
 20
208.4646260525941
 10
111.8568353170734
 20
208.4638539221583
 10
111.5987449444028
 20
208.4912909502535
 10
111.4225754661716
 20
208.4843978712768
 10
111.3909626642875
 20
208.5283383625132
 10
111.3279086450605
 20
208.5658790803292
 10
111.0698397204575
 20
208.5870235753424
 10
110.745667026391
 20
208.6173816652682
  0
TEXT
  5
2F
330
18
100
AcDbEntity
  8
12
370
    -1
100
AcDbText
 10
111.4211135628996
 20
208.691058892702
 30
0.0
 40
0.12
  1
12
100
AcDbText
  0
LWPOLYLINE
  5
31
330
18
100
AcDbEntity
  8
99
370
    -1
100
AcDbPolyline
 90
       17
 70
     1
 43
0.0
 10
112.198437865819
 20
208.8583061594772
 10
112.3934742192626
 20
208.8684098491979
 10
112.5381595840156
 20
208.8814882209184
 10
112.7050082269957
 20
208.853740195842
 10
112.7240466867495
 20
208.8066105419292
 10
112.7213079334941
 20
208.6870416893354
 10
112.69971302906
 20
208.5611159594566
 10
112.6086857800461
 20
208.4978796316545
 10
112.3571882134049
 20
208.437242644668
 10
112.2375550166082
 20
208.4588589971698
 10
112.1273820675023
 20
208.4742149886909
 10
112.1902859502556
 20
208.4807220024496
 10
112.2058349743857
 20
208.5342621538167
 10
112.2055347014384
 20
208.6223576169661
 10
112.2051915323558
 20
208.7230381462797
 10
112.2049556036115
 20
208.7922560101828
 10
112.1891492026695
 20
208.814226255801
  0
TEXT
  5
32
330
18
100
AcDbEntity
  8
199
370
    -1
100
AcDbText
 10
112.3333380307781
 20
208.5847943186154
 30
0.0
 40
0.12
  1
99
100
AcDbText
  0
TEXT
  5
33
330
18
100
AcDbEntity
  8
199
 62
     3
370
    -1
100
AcDbText
 10
112.3789518502044
 20
208.9643113461459
 30
0.0
 40
0.12
  1
99 no number
100
AcDbText
  0
TEXT
  5
34
330
18
100
AcDbEntity
  8
199
 62
     3
370
    -1
100
AcDbText
 10
112.3789518502044
 20
208.7643113461459
 30
0.0
 40
0.12
  1
on plan
100
AcDbText
  0
LWPOLYLINE
  5
36
330
18
100
AcDbEntity
  8
14
370
    -1
100
AcDbPolyline
 90
       26
 70
     1
 43
0.0
 10
112.4691520761607
 20
207.8964601407914
 10
112.667677865228
 20
207.8058940252324
 10
112.8851563217784
 20
207.6933683880889
 10
113.0521014810631
 20
207.6373039641431
 10
113.2534410916226
 20
207.6442828353904
 10
113.4514735751337
 20
207.6984449807197
 10
113.687154016799
 20
207.7841984798654
 10
114.0142692207638
 20
207.8136301782533
 10
114.2501534190719
 20
207.8396046131191
 10
114.3224317572454
 20
207.8650213982256
 10
114.3881172893895
 20
207.9785121984139
 10
114.4065444792149
 20
208.110719737341
 10
114.4063085504706
 20
208.1799376012441
 10
114.3649459519822
 20
208.3150876500695
 10
114.330122539354
 20
208.3778950165184
 10
114.2356594748857
 20
208.3995971612908
 10
113.7733298778926
 20
208.3476804636607
 10
113.3265171329281
 20
208.3587427170208
 10
113.1063642673252
 20
208.3328219023242
 10
112.9868168627991
 20
208.3292681224976
 10
112.9079242705285
 20
208.3982178855549
 10
112.7221658562006
 20
208.4353403660514
 10
112.6183819564812
 20
208.4224014067708
 10
112.5115375824915
 20
208.3842815911279
 10
112.4683370495895
 20
208.1355763979113
 10
112.4530561263052
 20
208.003379583018
  0
TEXT
  5
37
330
18
100
AcDbEntity
  8
14
370
    -1
100
AcDbText
 10
113.2607645600021
 20
207.9775667979641
 30
0.0
 40
0.12
  1
14
100
AcDbText
  0
LWPOLYLINE
  5
39
330
18
100
AcDbEntity
  8
33
370
    -1
100
AcDbPolyline
 90
       22
 70
     1
 43
0.0
 10
129.3778385092011
 20
206.8403020190367
 10
129.4589979972385
 20
207.0293568363793
 10
129.5406078946968
 20
207.0862684589978
 10
129.7764813689711
 20
207.1153891604047
 10
130.1728895050758
 20
207.1230329217495
 10
130.6164809152625
 20
207.133983810143
 10
130.8996341799232
 20
207.1380952397288
 10
130.9940221761547
 20
207.1384169607438
 10
131.050815834401
 20
207.091415995237
 10
131.0700258786961
 20
206.9939460766674
 10
131.1365157133776
 20
206.8714668862769
 10
131.1338949244943
 20
206.7172891017316
 10
131.0997256779299
 20
206.5881742091764
 10
131.0150767542688
 20
206.4997891971136
 10
130.8515352383372
 20
206.480353948108
 10
130.5967412686812
 20
206.4637539686624
 10
130.1626530023208
 20
206.4339576531242
 10
129.8542759851625
 20
206.4454917639729
 10
129.6151061078735
 20
206.460408070107
 10
129.4859590432168
 20
206.5040161162946
 10
129.4069806586756
 20
206.5981360116803
 10
129.3845707276703
 20
206.7113265389213
  0
TEXT
  5
3A
330
18
100
AcDbEntity
  8
33
370
    -1
100
AcDbText
 10
130.0354795334893
 20
206.6324957631367
 30
0.0
 40
0.12
  1
33
100
AcDbText
  0
LWPOLYLINE
  5
3C
330
18
100
AcDbEntity
  8
CHURCH1
 62
   184
370
    -1
100
AcDbPolyline
 90
        8
 70
     0
 43
0.0
 10
129.5384692211765
 20
204.1325821711909
 10
129.5465770569126
 20
204.4119311750711
 10
136.97133300781
 20
203.6412237359941
 10
137.0030703734718
 20
202.6376612257035
 10
130.576088429373
 20
203.2922100549452
 10
130.4670035572381
 20
199.2960333104917
 10
129.3973480015178
 20
199.2703632732017
 10
129.5376553360238
 20
204.1045404083721
  0
TEXT
  5
3E
330
18
100
AcDbEntity
  8
CHURCH1
 62
   184
370
    -1
100
AcDbText
 10
131.2636290630161
 20
200.420480819578
 30
0.0
 40
0.12
  1
Church
100
AcDbText
  0
TEXT
  5
3F
330
18
100
AcDbEntity
  8
CHURCH1
 62
   184
370
    -1
100
AcDbText
 10
131.3116908996752
 20
200.172491736601
 30
0.0
 40
0.12
  1
(phase 1)
100
AcDbText
  0
LWPOLYLINE
  5
42
330
18
100
AcDbEntity
  8
CHURCH2
 62
   224
370
    -1
100
AcDbPolyline
 90
       16
 70
     0
 43
0.0
 10
103.4522892574624
 20
204.6235448266525
 10
103.7643660037215
 20
206.9349958852603
 10
103.0945337437448
 20
207.0182999223731
 10
103.1993700566901
 20
207.8893880876371
 10
103.3593486971027
 20
208.0406691480937
 10
103.5980190216213
 20
208.151265960491
 10
104.0476138964181
 20
208.1397507270283
 10
105.4061709437418
 20
207.960611878044
 10
106.7081022979257
 20
207.7970586640509
 10
107.865396027252
 20
207.6425959036539
 10
107.917321238497
 20
208.2872035344892
 10
105.6563713271433
 20
208.5145159397281
 10
104.0777770378148
 20
208.6805606479794
 10
103.7060065600317
 20
209.0192177257102
 10
103.717899841714
 20
209.3084781500051
 10
103.9607385802626
 20
211.6512042565381
  0
LWPOLYLINE
  5
44
330
18
100
AcDbEntity
  8
CHURCH2
 62
   224
370
    -1
100
AcDbPolyline
 90
        6
 70
     0
 43
0.0
 10
104.436436078541
 20
204.569276375353
 10
104.6794527221342
 20
206.8365509757675
 10
109.0662649616117
 20
206.3407378529374
 10
109.3864907472728
 20
209.1960907562799
 10
104.9524694274999
 20
209.7137993777417
 10
105.1870553487039
 20
211.5566370181091
  0
LWPOLYLINE
  5
49
330
18
100
AcDbEntity
  8
CHURCH2
370
    -1
100
AcDbPolyline
 90
       18
 70
     0
 43
0.0
 10
128.3127510067592
 20
205.300089726837
 10
128.2685167782176
 20
205.119050733827
 10
128.2507954590573
 20
204.6348590933055
 10
128.3517755154349
 20
204.4747618495298
 10
128.6099536222696
 20
204.3118914285087
 10
129.1348220981403
 20
204.3760056062091
 10
129.4680588374534
 20
204.3799351662441
 10
129.7888241036894
 20
204.3398216968693
 10
129.9364424616778
 20
204.399902536592
 10
129.9636915843355
 20
204.8432468494299
 10
130.0036864503473
 20
205.2143131197449
 10
129.9431386098826
 20
205.5599916812943
 10
129.9336033936752
 20
205.6039828217329
 10
129.6096943146842
 20
205.6440888783975
 10
129.0719244285454
 20
205.7182728110735
 10
128.6632584212444
 20
205.7047339077291
 10
128.3899542674502
 20
205.6160622448044
 10
128.3218593220248
 20
205.3373676511521
  0
LWPOLYLINE
  5
4E
330
18
100
AcDbEntity
  8
CHURCH2
 62
   224
370
    -1
100
AcDbPolyline
 90
       16
 70
     0
 43
0.0
 10
137.0428817045571
 20
202.4800591918697
 10
134.5555327985869
 20
202.7257007585045
 10
133.470732080379
 20
202.8017386923624
 10
133.3287712675343
 20
203.0088967622297
 10
133.3989885766243
 20
203.8956224514563
 10
132.3673954685242
 20
204.0723884095455
 10
132.2060232385958
 20
204.5121441470169
 10
132.2083442405197
 20
204.8611147755251
 10
132.3081160251364
 20
205.2134590108041
 10
132.345426666425
 20
205.3896014776029
 10
132.9520861628954
 20
205.4319016964837
 10
133.4929702109483
 20
205.3703004275376
 10
133.8448490927543
 20
208.1345568880887
 10
127.3702116120402
 20
208.7669195453249
 10
117.35162986942
 20
209.7587541705049
 10
109.5405458086094
 20
210.5262941871276
  0
LWPOLYLINE
  5
4F
330
18
100
AcDbEntity
  8
CHURCH2
 62
   224
370
    -1
100
AcDbPolyline
 90
        4
 70
     0
 43
0.0
 10
136.9899343629404
 20
203.6022817420191
 10
134.5780740266396
 20
203.8323821499238
 10
134.9920071763477
 20
208.2787341012802
 10
137.5674495538479
 20
208.0050057757362
  0
LWPOLYLINE
  5
51
330
18
100
AcDbEntity
  8
CHURCH2
 62
   224
370
    -1
100
AcDbPolyline
 90
        4
 70
     0
 43
0.0
 10
109.6829299695693
 20
211.4729228110324
 10
134.0060738921133
 20
209.0906614265194
 10
134.0522600184025
 20
209.502612088069
 10
137.5616594035552
 20
209.1273395165385
  0
LWPOLYLINE
  5
53
330
18
100
AcDbEntity
  8
LOEXC
370
    -1
100
AcDbPolyline
 90
        2
 70
     0
 43
0.0
 10
99.75297376634381
 20
209.5443481173409
 10
108.4965731556908
 20
209.389998807293
  0
LWPOLYLINE
  5
54
330
18
100
AcDbEntity
  8
LOEXC
370
    -1
100
AcDbPolyline
 90
        2
 70
     0
 43
0.0
 10
99.6270927691697
 20
205.598544363357
 10
107.9375936162534
 20
205.3859959929194
  0
LWPOLYLINE
  5
56
330
18
100
AcDbEntity
  8
9
370
    -1
100
AcDbPolyline
 90
       19
 70
     1
 43
0.0
 10
111.0006676927813
 20
208.6057128659241
 10
110.6673420009459
 20
208.6395090589483
 10
109.9598507023017
 20
208.6944298287445
 10
109.6831951798672
 20
208.6937775102478
 10
109.5009874688643
 20
208.6367589434679
 10
109.35648327279
 20
208.5892607674751
 10
109.334810155464
 20
208.4477373045316
 10
109.3634528676374
 20
208.3000448194413
 10
109.4139984911526
 20
208.1964176018915
 10
109.7569335262974
 20
208.0871921408794
 10
110.1342207077306
 20
208.0755064150824
 10
110.3164432441539
 20
208.1262373563524
 10
110.4167932201654
 20
208.2333641967463
 10
110.6242107348893
 20
208.2652915631682
 10
110.8316653131642
 20
208.2814998658154
 10
110.9385845976728
 20
208.2691766469421
 10
110.9194919271273
 20
208.366590366084
 10
110.916059018675
 20
208.4891916508164
 10
110.9630234795341
 20
208.5710419730976
  0
TEXT
  5
57
330
18
100
AcDbEntity
  8
9
370
    -1
100
AcDbText
 10
109.4900226631041
 20
208.4745611857853
 30
0.0
 40
0.12
  1
09
100
AcDbText
  0
LWPOLYLINE
  5
59
330
18
100
AcDbEntity
  8
11
370
    -1
100
AcDbPolyline
 90
       11
 70
     1
 43
0.0
 10
111.771027833814
 20
208.5540841630867
 10
111.4281150367998
 20
208.653878185834
 10
111.0854913354831
 20
208.6310635111388
 10
110.9943578291408
 20
208.6151294787686
 10
110.9222576916626
 20
208.526932229296
 10
110.9257424890863
 20
208.3823242552791
 10
110.951137610562
 20
208.2786377360477
 10
110.9921850814208
 20
208.2032825951617
 10
111.0961310455088
 20
208.1186442702146
 10
111.3635033838822
 20
208.056398095482
 10
111.7597498070775
 20
208.003887280132
  0
TEXT
  5
5A
330
18
100
AcDbEntity
  8
11
370
    -1
100
AcDbText
 10
111.4743566639418
 20
208.1873458227493
 30
0.0
 40
0.12
  1
11
100
AcDbText
  0
LWPOLYLINE
  5
5C
330
18
100
AcDbEntity
  8
15
370
    -1
100
AcDbPolyline
 90
       11
 70
     1
 43
0.0
 10
111.1455813549003
 20
209.3810777819076
 10
111.1500659248497
 20
209.2442626652655
 10
111.1660666716116
 20
209.1248348441288
 10
111.2040370441071
 20
209.0211779757382
 10
111.3833159109506
 20
208.9870185599146
 10
111.7008928881706
 20
208.9657605543593
 10
112.2572365551415
 20
209.0142297953869
 10
112.8701762644116
 20
209.059688652443
 10
113.021057038518
 20
209.069475900797
 10
113.0836219597887
 20
209.2016642907081
 10
113.0989110863724
 20
209.3840424940454
  0
TEXT
  5
5D
330
18
100
AcDbEntity
  8
15
370
    -1
100
AcDbText
 10
111.9077413962229
 20
209.1124881602476
 30
0.0
 40
0.12
  1
15
100
AcDbText
  0
LWPOLYLINE
  5
62
330
18
100
AcDbEntity
  8
35
370
    -1
100
AcDbPolyline
 90
       21
 70
     1
 43
0.0
 10
131.1531663594991
 20
207.0404449822479
 10
131.4674067934992
 20
207.1009186956107
 10
131.8888778458358
 20
207.0170290543928
 10
132.253738030453
 20
206.9424374226564
 10
132.5157604422775
 20
206.8915887556369
 10
132.571720908586
 20
206.7758463280961
 10
132.8355346942611
 20
206.7399262533315
 10
133.0154076288992
 20
206.7159795520745
 10
133.1283109931407
 20
206.6929931356942
 10
133.1475815687307
 20
206.5201279104338
 10
133.1069714477732
 20
206.4099980987785
 10
133.0537415995348
 20
206.3187015128121
 10
132.6513187414825
 20
206.3240403114177
 10
132.1041767187604
 20
206.3730515039236
 10
131.9092899787951
 20
206.3600166648721
 10
131.5004757172903
 20
206.4093540166265
 10
131.1703234890506
 20
206.4305823713411
 10
131.0978823669036
 20
206.4870005085956
 10
131.0881025312599
 20
206.6347374699471
 10
131.0938860924769
 20
206.8485315627032
 10
131.1092938224236
 20
206.9806087619614
  0
TEXT
  5
63
330
18
100
AcDbEntity
  8
35
370
    -1
100
AcDbText
 10
131.6843114467592
 20
206.5562017944701
 30
0.0
 40
0.12
  1
35
100
AcDbText
  0
LWPOLYLINE
  5
65
330
18
100
AcDbEntity
  8
27
370
    -1
100
AcDbPolyline
 90
       20
 70
     1
 43
0.0
 10
129.3913924704983
 20
206.2283265738126
 10
129.4667179605435
 20
206.2819492956911
 10
129.526398513916
 20
206.3040968264693
 10
129.8282564273613
 20
206.282801757363
 10
130.491563855102
 20
206.3000849029877
 10
130.7745514793074
 20
206.2818891703752
 10
130.9758740989864
 20
206.2320625797483
 10
131.0325739192282
 20
206.1850388172077
 10
131.0485376024391
 20
206.0813300598457
 10
131.0865079749346
 20
205.9776731914551
 10
131.0584879304172
 20
205.8612854051307
 10
130.857432168305
 20
205.7979347365798
 10
130.4458002532936
 20
205.7089369144067
 10
130.2256518206359
 20
205.7429999649978
 10
129.8768220336214
 20
205.6855885245778
 10
129.6221657877613
 20
205.6881319078074
 10
129.5309285034764
 20
205.7162112540063
 10
129.3925043770267
 20
205.7567546605721
 10
129.3450506772951
 20
205.8823959801168
 10
129.3541040673402
 20
206.0427526687491
  0
TEXT
  5
66
330
18
100
AcDbEntity
  8
27
370
    -1
100
AcDbText
 10
130.0105499853762
 20
206.0190225511503
 30
0.0
 40
0.12
  1
27
100
AcDbText
  0
LWPOLYLINE
  5
68
330
18
100
AcDbEntity
  8
30
370
    -1
100
AcDbPolyline
 90
        6
 70
     1
 43
0.0
 10
131.1707593000456
 20
205.7414744035329
 10
131.3166514338253
 20
205.3772968533106
 10
131.4938759343179
 20
205.20839530611
 10
131.8551771944096
 20
205.3098497759398
 10
132.3012502082317
 20
205.4586615802688
 10
132.6734484800756
 20
205.5958033925956
  0
TEXT
  5
69
330
18
100
AcDbEntity
  8
30
370
    -1
100
AcDbText
 10
131.5647565112754
 20
205.3923132034415
 30
0.0
 40
0.12
  1
30
100
AcDbText
  0
CIRCLE
  5
6D
330
18
100
AcDbEntity
  8
135
370
    -1
100
AcDbCircle
 10
131.3708381233189
 20
206.7234313710024
 30
0.0
 40
0.1149
  0
LWPOLYLINE
  5
6E
330
18
100
AcDbEntity
  8
135
370
    -1
100
AcDbPolyline
 90
        2
 70
     0
 43
0.0
 10
131.4847912477928
 20
206.7087107927996
 10
132.9589750415651
 20
206.5102517095576
  0
CIRCLE
  5
70
330
18
100
AcDbEntity
  8
127
370
    -1
100
AcDbCircle
 10
129.5301279307759
 20
206.0557430315395
 30
0.0
 40
0.1149
  0
LWPOLYLINE
  5
71
330
18
100
AcDbEntity
  8
127
370
    -1
100
AcDbPolyline
 90
        2
 70
     0
 43
0.0
 10
129.6388393014272
 20
206.0185429254761
 10
130.9982365983601
 20
206.0812114564827
  0
CIRCLE
  5
73
330
18
100
AcDbEntity
  8
130
370
    -1
100
AcDbCircle
 10
131.4837551140055
 20
205.5007476541886
 30
0.0
 40
0.1149
  0
LWPOLYLINE
  5
74
330
18
100
AcDbEntity
  8
130
370
    -1
100
AcDbPolyline
 90
        2
 70
     0
 43
0.0
 10
131.5959427194811
 20
205.5255660179068
 10
132.1342056077393
 20
205.6374660336601
  0
CIRCLE
  5
76
330
18
100
AcDbEntity
  8
111
370
    -1
100
AcDbCircle
 10
111.0861214158492
 20
208.3638394269692
 30
0.0
 40
0.1149
  0
LWPOLYLINE
  5
78
330
18
100
AcDbEntity
  8
111
370
    -1
100
AcDbPolyline
 90
        2
 70
     0
 43
0.0
 10
111.2005292132606
 20
208.3532155909638
 10
111.6301270385265
 20
208.3116770089981
  0
CIRCLE
  5
7A
330
18
100
AcDbEntity
  8
109
370
    -1
100
AcDbCircle
 10
109.5142757390374
 20
208.2920574677696
 30
0.0
 40
0.1149
  0
LWPOLYLINE
  5
7B
330
18
100
AcDbEntity
  8
109
370
    -1
100
AcDbPolyline
 90
        2
 70
     0
 43
0.0
 10
109.6251909016505
 20
208.3220547460214
 10
110.8847987961702
 20
208.413666017596
  0
CIRCLE
  5
7D
330
18
100
AcDbEntity
  8
114
 62
     2
370
    -1
100
AcDbCircle
 10
112.8286257933983
 20
207.9402565422704
 30
0.0
 40
0.1149
  0
LWPOLYLINE
  5
7E
330
18
100
AcDbEntity
  8
114
370
    -1
100
AcDbPolyline
 90
        2
 70
     0
 43
0.0
 10
113.0278286653299
 20
207.9036682095881
 10
114.3635484184833
 20
207.9395997064742
  0
CIRCLE
  5
80
330
18
100
AcDbEntity
  8
113
 62
     2
370
    -1
100
AcDbCircle
 10
110.0552704743119
 20
208.4072126044028
 30
0.0
 40
0.1149
  0
LWPOLYLINE
  5
83
330
18
100
AcDbEntity
  8
113
370
    -1
100
AcDbPolyline
 90
        2
 70
     0
 43
0.0
 10
111.0252918949054
 20
208.5005341891672
 10
111.2644017658731
 20
208.5005341891672
  0
CIRCLE
  5
85
330
18
100
AcDbEntity
  8
112
 62
     2
370
    -1
100
AcDbCircle
 10
110.8078827821145
 20
208.6045802665292
 30
0.0
 40
0.1149
  0
LWPOLYLINE
  5
86
330
18
100
AcDbEntity
  8
112
370
    -1
100
AcDbPolyline
 90
        2
 70
     0
 43
0.0
 10
110.9269983116627
 20
208.6489610191878
 10
112.2326351601506
 20
208.688270178455
  0
LWPOLYLINE
  5
87
330
18
100
AcDbEntity
  8
199
370
    -1
100
AcDbPolyline
 90
        2
 70
     0
 43
0.0
 10
112.2656701510853
 20
208.6497503383085
 10
112.6392774156245
 20
208.6795937064381
  0
LWPOLYLINE
  5
8C
330
18
100
AcDbEntity
  8
3
370
    -1
100
AcDbPolyline
 90
       28
 70
     1
 43
0.0
 10
110.4283436446215
 20
209.3614876221002
 10
110.150345451541
 20
209.3419414013236
 10
109.8141659492062
 20
209.4164749574187
 10
109.7320523282069
 20
209.4090473435397
 10
109.5271081665188
 20
209.3651864338569
 10
109.3196398157265
 20
209.2738607722257
 10
109.1633500238222
 20
209.1389541109906
 10
109.1448484674471
 20
209.1039228647784
 10
109.1583441319649
 20
209.0408631227206
 10
109.1754261443684
 20
208.9462310232825
 10
109.1888793225349
 20
208.8863327655978
 10
109.2214288659941
 20
208.8172049729012
 10
109.2347545851068
 20
208.7667911683359
 10
109.2538934367508
 20
208.7544001489509
 10
109.3933811263305
 20
208.727816189048
 10
109.5929795053512
 20
208.6988779854459
 10
109.7447732416135
 20
208.6977558459332
 10
109.8767058582604
 20
208.7627699601491
 10
109.94831535371
 20
208.8459457399298
 10
110.0073213980182
 20
208.9257900899323
 10
110.1994921631599
 20
208.9789655073295
 10
110.4168698305843
 20
209.0388037842831
 10
110.602930058736
 20
209.076086807112
 10
110.8145370799804
 20
209.0947408145121
 10
110.8992173764352
 20
209.1464716959664
 10
110.9360080574289
 20
209.2323416102565
 10
110.944770242577
 20
209.2862143036537
 10
110.9562690485855
 20
209.3717443271337
  0
TEXT
  5
8D
330
18
100
AcDbEntity
  8
3
370
    -1
100
AcDbText
 10
109.6777417786263
 20
208.97140205905
 30
0.0
 40
0.12
  1
03
100
AcDbText
  0
CIRCLE
  5
8F
330
18
100
AcDbEntity
  8
103
370
    -1
100
AcDbCircle
 10
109.3252230221215
 20
209.0936986493077
 30
0.0
 40
0.1149
  0
LWPOLYLINE
  5
90
330
18
100
AcDbEntity
  8
103
370
    -1
100
AcDbPolyline
 90
        2
 70
     0
 43
0.0
 10
109.4400031389791
 20
209.0989460080864
 10
110.7514948323025
 20
209.3152374799583
  0
CIRCLE
  5
91
330
18
100
AcDbEntity
  8
203
370
    -1
100
AcDbCircle
 10
109.4839170416677
 20
208.8144083713095
 30
0.0
 40
0.075
  0
LWPOLYLINE
  5
92
330
18
100
AcDbEntity
  8
203
370
    -1
100
AcDbPolyline
 90
        2
 70
     0
 43
0.0
 10
109.5582990766241
 20
208.8048004123306
 10
109.897306740227
 20
208.8768808020411
  0
LWPOLYLINE
  5
95
330
18
100
AcDbEntity
  8
7
370
    -1
100
AcDbPolyline
 90
       20
 70
     1
 43
0.0
 10
109.1205062873725
 20
208.0917380291569
 10
109.1540080249393
 20
208.1870499102151
 10
109.2136513645165
 20
208.2194719946204
 10
109.6267011722657
 20
208.3072363003373
 10
109.9463084984122
 20
208.2893970312024
 10
110.4679534199812
 20
208.2964072791603
 10
110.7079288278814
 20
208.321766632468
 10
110.7650904647056
 20
208.3035624805518
 10
110.7880705823428
 20
208.2406301975478
 10
110.8015662468606
 20
208.1775704554899
 10
110.818478313859
 20
208.0955842935444
 10
110.7810078512452
 20
208.0602981292247
 10
110.7085486287704
 20
208.0403520369069
 10
110.5126215703379
 20
208.0313949143825
 10
109.9978094537303
 20
207.9865318266494
 10
109.7137007236599
 20
207.9510932113046
 10
109.4117702188345
 20
207.8300395997773
 10
109.2094352189532
 20
207.8273204732967
 10
109.2233732413635
 20
207.9666382174713
 10
109.2003081510238
 20
208.0358934692217
  0
CIRCLE
  5
97
330
18
100
AcDbEntity
  8
107
 62
     2
370
    -1
100
AcDbCircle
 10
109.1346392471592
 20
207.9812560215018
 30
0.0
 40
0.1149
  0
LWPOLYLINE
  5
98
330
18
100
AcDbEntity
  8
107
370
    -1
100
AcDbPolyline
 90
        2
 70
     0
 43
0.0
 10
109.311639885704
 20
207.9867967415455
 10
110.7317586725438
 20
208.195604662001
  0
LWPOLYLINE
  5
9A
330
18
100
AcDbEntity
  8
4
370
    -1
100
AcDbPolyline
 90
       21
 70
     1
 43
0.0
 10
109.517033902876
 20
207.7618889931597
 10
109.7661963594369
 20
207.8095061961332
 10
109.9810073514057
 20
207.8250412055114
 10
110.1042202692558
 20
207.8330211419569
 10
110.3418414334569
 20
207.7982698058236
 10
110.6046270135893
 20
207.7733428136198
 10
110.7123299140325
 20
207.7589799276969
 10
110.788375484393
 20
207.7473536626346
 10
110.8748402076007
 20
207.6663022004168
 10
110.8760298254359
 20
207.5777806379687
 10
110.8768795524611
 20
207.5145509505058
 10
110.7984372520501
 20
207.4692280105003
 10
110.6855585143446
 20
207.3981458456458
 10
110.5881473076948
 20
207.3525679875327
 10
110.4280587361484
 20
207.2650411055435
 10
110.304973277352
 20
207.2475767159787
 10
110.1412558715686
 20
207.1947836757429
 10
109.8380082898542
 20
207.171736079783
 10
109.6982656821669
 20
207.2172889459248
 10
109.5490386213602
 20
207.2627143530128
 10
109.5676426448177
 20
207.5254149604426
  0
TEXT
  5
9B
330
18
100
AcDbEntity
  8
4
370
    -1
100
AcDbText
 10
109.8758053204219
 20
207.2537906109393
 30
0.0
 40
0.12
  1
04
100
AcDbText
  0
LWPOLYLINE
  5
9D
330
18
100
AcDbEntity
  8
104
370
    -1
100
AcDbPolyline
 90
        2
 70
     0
 43
0.0
 10
109.5576058691319
 20
207.5663867982398
 10
110.7774290009508
 20
207.6207243423037
  0
TEXT
  5
9E
330
18
100
AcDbEntity
  8
7
370
    -1
100
AcDbText
 10
109.4017178515155
 20
208.020976842168
 30
0.0
 40
0.12
  1
07
100
AcDbText
  0
LWPOLYLINE
  5
A0
330
18
100
AcDbEntity
  8
5
370
    -1
100
AcDbPolyline
 90
       14
 70
     1
 43
0.0
 10
110.1380094144929
 20
207.2010641581379
 10
110.6291866238145
 20
207.1222894645082
 10
110.964983748988
 20
207.0762092677714
 10
111.0787971864212
 20
207.0777387764168
 10
111.2457610492803
 20
207.1242513342576
 10
111.3179653536475
 20
207.1631663328143
 10
111.3456964450344
 20
207.2172939443191
 10
111.354543602885
 20
207.26484366897
 10
111.3062716102626
 20
207.327436061164
 10
111.0993305900653
 20
207.4321649170191
 10
110.9691149218487
 20
207.4746837578415
 10
110.8768795524611
 20
207.5145509505058
 10
110.5692208878071
 20
207.349151585052
 10
110.3996053767901
 20
207.2646587283822
  0
TEXT
  5
A1
330
18
100
AcDbEntity
  8
5
370
    -1
100
AcDbText
 10
110.8165800383169
 20
207.1364992660347
 30
0.0
 40
0.12
  1
05
100
AcDbText
  0
LWPOLYLINE
  5
A3
330
18
100
AcDbEntity
  8
105
370
    -1
100
AcDbPolyline
 90
        2
 70
     0
 43
0.0
 10
110.5066284956131
 20
207.3008795924296
 10
111.2195344745674
 20
207.1934640996567
  0
LWPOLYLINE
  5
A5
330
18
100
AcDbEntity
  8
2
370
    -1
100
AcDbPolyline
 90
       20
 70
     1
 43
0.0
 10
112.8902127691654
 20
208.9929910016395
 10
112.8826402018526
 20
208.8505967457941
 10
112.8972405115031
 20
208.7053384100345
 10
112.9020589635754
 20
208.5820830058331
 10
112.9225998648109
 20
208.4653630021343
 10
113.0775975717975
 20
208.4611218645997
 10
113.4827774077752
 20
208.4286223050832
 10
113.8593339389896
 20
208.408386305898
 10
114.140621075497
 20
208.4184905599064
 10
114.4347665812533
 20
208.4129573374541
 10
114.7033228075656
 20
208.4292146148037
 10
114.7501077778939
 20
208.4772741756698
 10
114.7557684593999
 20
208.7619352283066
 10
114.7200574315676
 20
208.831020534652
 10
114.5550654352464
 20
208.8730720256105
 10
114.0110352049579
 20
208.8847332794327
 10
113.602693884607
 20
208.917190352598
 10
113.2662169778133
 20
209.0138542993051
 10
113.0632871690144
 20
209.0553959540485
 10
112.9270459365104
 20
209.0756994315564
  0
TEXT
  5
A6
330
18
100
AcDbEntity
  8
2
370
    -1
100
AcDbText
 10
113.5376635027985
 20
208.6680676675572
 30
0.0
 40
0.12
  1
02
100
AcDbText
  0
LWPOLYLINE
  5
A8
330
18
100
AcDbEntity
  8
2
 62
     4
370
    -1
100
AcDbPolyline
 90
       30
 70
     0
 43
0.0
 10
113.4207782805211
 20
208.8778737268278
 10
113.4705913225551
 20
208.8648221758747
 10
113.6544247660614
 20
208.8325100561432
 10
113.6280282459435
 20
208.9143687590349
 10
113.4092485289275
 20
208.9588594663952
 10
113.0792645362852
 20
209.0429624483122
 10
112.9972358879884
 20
209.0292118656869
 10
112.9401592238668
 20
209.0410930488568
 10
112.9153346987455
 20
209.0059768299421
 10
112.9023738624142
 20
208.7939449451851
 10
112.9159794916058
 20
208.4874084200438
 10
113.4636810424826
 20
208.4378518400951
 10
114.1057597746899
 20
208.4243461787888
 10
114.5993337140619
 20
208.402520690227
 10
114.6365917449195
 20
208.4536142764125
 10
114.7025580532429
 20
208.4861213335203
 10
114.733808014193
 20
208.7489918863552
 10
114.686258289542
 20
208.7578390442058
 10
114.6916465585606
 20
208.8274766731175
 10
114.3149200819412
 20
208.8603586097954
 10
114.3252542620858
 20
208.7972563813862
 10
114.6319607326322
 20
208.7982160730853
 10
114.6142914089024
 20
208.4659628094462
 10
114.2626018891606
 20
208.518153543173
 10
114.0351024733479
 20
208.5056100727629
 10
113.5924096884051
 20
208.5059849523328
 10
113.3232161668239
 20
208.5371499405803
 10
113.0765778993673
 20
208.5369974895552
 10
113.0802842087154
 20
208.9670868233567
 10
113.4182455571304
 20
208.8785373275041
  0
CIRCLE
  5
AA
330
18
100
AcDbEntity
  8
202
370
    -1
100
AcDbCircle
 10
113.5375173225776
 20
208.5906227624363
 30
0.0
 40
0.075
  0
LWPOLYLINE
  5
AC
330
18
100
AcDbEntity
  8
202
370
    -1
100
AcDbPolyline
 90
        2
 70
     0
 43
0.0
 10
113.6125054388452
 20
208.5892876899166
 10
114.328398252079
 20
208.5633065377735
  0
CIRCLE
  5
AD
330
18
100
AcDbEntity
  8
102
 62
     2
370
    -1
100
AcDbCircle
 10
113.2017794737549
 20
208.6647270178919
 30
0.0
 40
0.1149
  0
LWPOLYLINE
  5
AE
330
18
100
AcDbEntity
  8
102
370
    -1
100
AcDbPolyline
 90
        2
 70
     0
 43
0.0
 10
113.3457498181425
 20
208.733771720147
 10
114.5147338102527
 20
208.6575775061807
  0
LWPOLYLINE
  5
B0
330
18
100
AcDbEntity
  8
10
370
    -1
100
AcDbPolyline
 90
       19
 70
     1
 43
0.0
 10
111.4999743832468
 20
208.4430826596943
 10
111.6152498510028
 20
208.5711140296167
 10
111.8081853704672
 20
208.5673827282973
 10
112.0679794116314
 20
208.5297673122497
 10
112.4958419607875
 20
208.4564658603411
 10
113.057506526046
 20
208.3090732102299
 10
113.3536064039602
 20
208.158111706613
 10
113.2542233307724
 20
208.0239697997006
 10
113.1227580639894
 20
207.9241793573802
 10
113.028890718874
 20
207.85019062626
 10
112.8165614296582
 20
207.8852818532034
 10
112.4906311347654
 20
207.9030361496356
 10
112.3766477519271
 20
207.9141525784829
 10
112.3124833647365
 20
207.9828555076669
 10
111.9863406380874
 20
208.0164172259649
 10
111.7385127527956
 20
208.1047863373878
 10
111.6139402717051
 20
208.1979739008831
 10
111.5079118333409
 20
208.3230312262173
 10
111.4879232546718
 20
208.3986519330652
  0
TEXT
  5
B1
330
18
100
AcDbEntity
  8
10
370
    -1
100
AcDbText
 10
112.2979418901525
 20
208.0281657490679
 30
0.0
 40
0.12
  1
10
100
AcDbText
  0
CIRCLE
  5
B3
330
18
100
AcDbEntity
  8
133
 62
     2
370
    -1
100
AcDbCircle
 10
129.6335052682916
 20
206.7749545057538
 30
0.0
 40
0.1149
  0
LWPOLYLINE
  5
B4
330
18
100
AcDbEntity
  8
133
370
    -1
100
AcDbPolyline
 90
        2
 70
     0
 43
0.0
 10
129.8252192198236
 20
206.7749545057538
 10
130.9659250958905
 20
206.8132390999826
  0
CIRCLE
  5
B9
330
18
100
AcDbEntity
  8
110
370
    -1
100
AcDbCircle
 10
111.7487369682664
 20
208.2851608920622
 30
0.0
 40
0.1149
  0
LWPOLYLINE
  5
BA
330
18
100
AcDbEntity
  8
110
370
    -1
100
AcDbPolyline
 90
        2
 70
     0
 43
0.0
 10
111.8614802613063
 20
208.2630032776934
 10
113.253501062801
 20
208.077715034044
  0
LWPOLYLINE
  5
BC
330
18
100
AcDbEntity
  8
19
370
    -1
100
AcDbPolyline
 90
       19
 70
     1
 43
0.0
 10
115.0240922603789
 20
207.3837229789917
 10
114.5916061965269
 20
207.3304800832719
 10
114.3128432491237
 20
207.367840581212
 10
113.9439267635447
 20
207.2901555375323
 10
113.6697273501063
 20
207.2232295375098
 10
113.6134154403073
 20
207.1782040019631
 10
113.570259304216
 20
207.0954105993436
 10
113.5780268089051
 20
206.9880051033592
 10
113.6266811786888
 20
206.8969593518069
 10
113.6658086090018
 20
206.8089476255739
 10
113.7776501798972
 20
206.72191308542
 10
113.8601036917065
 20
206.7040488243138
 10
114.049580322339
 20
206.7224054272552
 10
114.2235469355645
 20
206.7184192078282
 10
114.3214679784294
 20
206.7260592534635
 10
114.450536515162
 20
206.768900490716
 10
114.5888770732577
 20
206.8276766088881
 10
114.7911271004365
 20
206.836718704115
 10
115.1220208008353
 20
206.9202168803259
  0
TEXT
  5
BD
330
18
100
AcDbEntity
  8
19
370
    -1
100
AcDbText
 10
113.90956349415
 20
206.7577387471757
 30
0.0
 40
0.12
  1
19
100
AcDbText
  0
CIRCLE
  5
BF
330
18
100
AcDbEntity
  8
119
370
    -1
100
AcDbCircle
 10
114.0005185834226
 20
207.079058352503
 30
0.0
 40
0.1149
  0
LWPOLYLINE
  5
C0
330
18
100
AcDbEntity
  8
119
370
    -1
100
AcDbPolyline
 90
        2
 70
     0
 43
0.0
 10
114.1150221559052
 20
207.0885946981723
 10
115.0432985903454
 20
207.1310166608964
  0
LWPOLYLINE
  5
C1
330
18
100
AcDbEntity
  8
CHURCH3
370
    -1
100
AcDbPolyline
 90
        6
 70
     0
 43
0.0
 10
107.1563160368396
 20
210.3070839508834
 10
107.2911789587767
 20
211.7446245393656
 10
109.6919177214493
 20
211.4543577875596
 10
109.517371294489
 20
210.5603124996083
 10
108.2979905205625
 20
210.7083524417769
 10
108.2700138068461
 20
210.277130241106
  0
LWPOLYLINE
  5
C2
330
18
100
AcDbEntity
  8
CHURCH3
370
    -1
100
AcDbPolyline
 90
       17
 70
     0
 43
0.0
 10
111.4039318201462
 20
207.2112536091578
 10
111.5126078247537
 20
206.5618295122678
 10
111.58541443563
 20
206.0853375852994
 10
111.7963241808743
 20
205.9205830127058
 10
111.9494774803769
 20
205.8182933732525
 10
113.33030638909
 20
205.6566128131324
 10
113.4454543977922
 20
205.7941286361743
 10
113.5016913316772
 20
206.5506156147324
 10
113.6063702035896
 20
207.231864263604
 10
113.5978554389577
 20
207.630168808269
 10
113.1638823528116
 20
207.6875778656094
 10
112.6481355364763
 20
207.7122674340855
 10
111.8942152333737
 20
207.8128076355458
 10
111.5556814873396
 20
207.8272305021999
 10
111.5056075735844
 20
207.788612908102
 10
111.3716431096684
 20
207.404203899496
 10
111.3994640195038
 20
207.2379522111885
  0
LWPOLYLINE
  5
C3
330
18
100
AcDbEntity
  8
CHURCH3
370
    -1
100
AcDbPolyline
 90
       16
 70
     0
 43
0.0
 10
115.4120275778621
 20
206.7582280155614
 10
115.4006387948047
 20
206.6583485055413
 10
115.3829769686664
 20
205.854949097601
 10
115.3514720896088
 20
205.611047451005
 10
115.473520381595
 20
205.4703951355613
 10
115.7589461885545
 20
205.4078277353386
 10
116.9424035028923
 20
205.3446805213811
 10
117.2486001372235
 20
205.3835780255579
 10
117.3867382603515
 20
206.1633000398608
 10
117.4174109067638
 20
206.7044237038838
 10
117.4576354846182
 20
207.0053595282502
 10
117.4648681611209
 20
207.1730456590807
 10
117.3643129644778
 20
207.3614176445804
 10
116.4747462377887
 20
207.4380005423245
 10
115.5024710811827
 20
207.5514166074136
 10
115.4152999265313
 20
206.7869264796599
  0
LWPOLYLINE
  5
C4
330
18
100
AcDbEntity
  8
CHURCH3
370
    -1
100
AcDbPolyline
 90
        6
 70
     0
 43
0.0
 10
119.9563781593044
 20
206.2445908062445
 10
119.8354416143991
 20
205.1274328122077
 10
121.8847032890862
 20
204.8735493722627
 10
122.0448893293208
 20
206.8361763783371
 10
120.0407806492342
 20
207.0242634553636
 10
119.9598347897492
 20
206.2765216203495
  0
LWPOLYLINE
  5
C5
330
18
100
AcDbEntity
  8
CHURCH3
370
    -1
100
AcDbPolyline
 90
       15
 70
     0
 43
0.0
 10
123.9242885311905
 20
205.7961072718627
 10
123.8162002956729
 20
204.912154470375
 10
125.0326745033337
 20
204.7451031356163
 10
125.4175683561835
 20
204.8103546735597
 10
125.7702525563842
 20
204.9194421292146
 10
125.9713729464589
 20
205.2478366324804
 10
125.9801101396356
 20
205.5388631402148
 10
125.901600360902
 20
205.7338554989196
 10
125.7534104669054
 20
205.9373976110161
 10
125.7291732531104
 20
206.3291667551786
 10
125.702861705695
 20
206.4047024893239
 10
124.9488564298898
 20
206.5115656595305
 10
124.3341688982593
 20
206.6044908073268
 10
124.0241734842861
 20
206.6129730823959
 10
123.9285295245375
 20
205.830790398404
  0
LWPOLYLINE
  5
C7
330
18
100
AcDbEntity
  8
20
370
    -1
100
AcDbPolyline
 90
       10
 70
     1
 43
0.0
 10
114.9009318256685
 20
208.0777200324383
 10
114.6427522658521
 20
207.9951990423064
 10
114.5740918230194
 20
207.9278731707426
 10
114.5911738354229
 20
207.8332410713045
 10
114.6117147366584
 20
207.7165210676057
 10
114.6253378602299
 20
207.6439768724284
 10
114.6486578686772
 20
207.5557527144392
 10
114.7408507517135
 20
207.519047006148
 10
114.9185311718786
 20
207.4740039762213
 10
114.9945767422391
 20
207.462377711159
  0
TEXT
  5
C8
330
18
100
AcDbEntity
  8
20
370
    -1
100
AcDbText
 10
115.0634892843375
 20
207.6023336563749
 30
0.0
 40
0.12
  1
20
100
AcDbText
  0
CIRCLE
  5
CA
330
18
100
AcDbEntity
  8
120
370
    -1
100
AcDbCircle
 10
114.8826676930211
 20
207.7897275500233
 30
0.0
 40
0.1149
  0
LWPOLYLINE
  5
CC
330
18
100
AcDbEntity
  8
41
 62
     2
370
    -1
100
AcDbPolyline
 90
       14
 70
     1
 43
0.0
 10
128.523478082684
 20
207.811777966327
 10
128.9463772263341
 20
207.6372240417753
 10
129.2394855652802
 20
207.4735741143145
 10
129.6434582890427
 20
207.295603787282
 10
129.9040170845297
 20
207.2010816525178
 10
129.9814647044818
 20
207.0851264031417
 10
129.9447589961906
 20
206.9929335201053
 10
129.7715146509365
 20
206.9431745051889
 10
129.6553044834528
 20
206.8846957914757
 10
129.5825478565192
 20
206.8868800897698
 10
129.3826945593909
 20
206.9347871996108
 10
129.0604355850864
 20
206.9146461699166
 10
128.6843039173846
 20
206.9032673253704
 10
128.4564646107619
 20
206.9160157299454
  0
TEXT
  5
CE
330
18
100
AcDbEntity
  8
41
370
    -1
100
AcDbText
 10
128.6642963583067
 20
207.0769529056988
 30
0.0
 40
0.12
  1
41
100
AcDbText
  0
LWPOLYLINE
  5
D0
330
18
100
AcDbEntity
  8
141
370
    -1
100
AcDbPolyline
 90
        2
 70
     0
 43
0.0
 10
128.4774653642698
 20
207.2356655424432
 10
129.8900790621194
 20
207.0617639083431
  0
LWPOLYLINE
  5
D5
330
18
100
AcDbEntity
  8
LOEXC
370
    -1
100
AcDbPolyline
 90
        2
 70
     0
 43
0.0
 10
128.5397957599013
 20
207.9409344730518
 10
128.4151810246352
 20
206.5722492208407
  0
LWPOLYLINE
  5
D8
330
18
100
AcDbEntity
  8
26
370
    -1
100
AcDbPolyline
 90
       20
 70
     1
 43
0.0
 10
130.2629074655457
 20
207.2660862841342
 10
130.1900706003565
 20
207.3000322255901
 10
130.2389889182539
 20
207.4518207457057
 10
130.2850071402335
 20
207.5783636121189
 10
130.4073285995428
 20
207.6394742544761
 10
130.6115332694865
 20
207.7077063998551
 10
130.910951822194
 20
207.7106950799189
 10
131.4063466539438
 20
207.6589023306693
 10
131.677619457031
 20
207.6395454529486
 10
131.8004442729826
 20
207.6502277074813
 10
131.844569112329
 20
207.6506681445433
 10
131.8861399134491
 20
207.5911934112737
 10
131.9249364578119
 20
207.4938659273457
 10
131.9129900164489
 20
207.4275528291655
 10
131.8693056141645
 20
207.3829875527571
 10
131.7250161145525
 20
207.3122013691519
 10
131.5836896304386
 20
207.2603572907709
 10
131.1519280194822
 20
207.252895525282
 10
130.8020810789502
 20
207.2494034885758
 10
130.4490823641793
 20
207.2458799920796
  0
TEXT
  5
D9
330
18
100
AcDbEntity
  8
26
370
    -1
100
AcDbText
 10
130.7205549974026
 20
207.3499112905014
 30
0.0
 40
0.12
  1
26
100
AcDbText
  0
CIRCLE
  5
DB
330
18
100
AcDbEntity
  8
126
370
    -1
100
AcDbCircle
 10
130.5009007779946
 20
207.4229141658975
 30
0.0
 40
0.1149
  0
LWPOLYLINE
  5
DC
330
18
100
AcDbEntity
  8
126
370
    -1
100
AcDbPolyline
 90
        2
 70
     0
 43
0.0
 10
130.6126508986233
 20
207.4496334574201
 10
131.798896948041
 20
207.4894557615008
  0
LWPOLYLINE
  5
DD
330
18
100
AcDbEntity
  8
37
370
    -1
100
AcDbPolyline
 90
       19
 70
     1
 43
0.0
 10
130.0087264352887
 20
207.7836437101521
 10
130.2255067423983
 20
207.8551534689307
 10
130.6417611604808
 20
207.8372437415566
 10
131.1020145787491
 20
207.8323815482008
 10
131.2978964784209
 20
207.7870554416044
 10
131.4493389408449
 20
207.7728066403362
 10
131.5532531113623
 20
207.7833001361281
 10
131.6201324857651
 20
207.7146217584626
 10
131.620541463037
 20
207.6736486933552
 10
131.6464419771079
 20
207.289352454725
 10
131.6347157542758
 20
207.2009769368717
 10
131.6069789819275
 20
207.1376583139799
 10
131.3334038189351
 20
207.0718858274567
 10
130.6556150585937
 20
207.0808808437706
 10
130.1421275359536
 20
207.0505387040647
 10
129.9585381353364
 20
207.127508392212
 10
129.943917611811
 20
207.329096104349
 10
129.966489183351
 20
207.5940968187485
 10
129.9816188587432
 20
207.6572896024797
  0
TEXT
  5
DE
330
18
100
AcDbEntity
  8
27
370
    -1
100
AcDbText
 10
130.128634629149
 20
207.5987631800162
 30
0.0
 40
0.12
  1
37
100
AcDbText
  0
CIRCLE
  5
E2
330
18
100
AcDbEntity
  8
137
370
    -1
100
AcDbCircle
 10
130.2173061012146
 20
207.423455308579
 30
0.0
 40
0.1149
  0
LWPOLYLINE
  5
E3
330
18
100
AcDbEntity
  8
137
370
    -1
100
AcDbPolyline
 90
        2
 70
     0
 43
0.0
 10
130.3317356496036
 20
207.4338422453497
 10
131.4266912302764
 20
207.3999315964176
  0
LWPOLYLINE
  5
E5
330
18
100
AcDbEntity
  8
25
370
    -1
100
AcDbPolyline
 90
       15
 70
     1
 43
0.0
 10
130.5206459357568
 20
204.8131821764033
 10
130.5136444766711
 20
204.5672494063888
 10
130.4932808856657
 20
204.3968333789504
 10
130.5880228715774
 20
204.3788665272206
 10
131.0579832908839
 20
204.348884519323
 10
131.7200446398203
 20
204.3365804298193
 10
132.0981631691331
 20
204.3498109273538
 10
132.2682960584602
 20
204.3578133044997
 10
132.3209324268193
 20
204.452901348103
 10
132.3261348826423
 20
204.5632763660492
 10
132.2939250248688
 20
204.6323008014063
 10
131.369354080179
 20
204.7333951812597
 10
131.1575245505712
 20
204.7974746343395
 10
130.8293625122307
 20
204.8320241070327
 10
130.6876899704252
 20
204.814849545281
  0
TEXT
  5
E6
330
18
100
AcDbEntity
  8
25
370
    -1
100
AcDbText
 10
130.8763234954752
 20
204.4570083915908
 30
0.0
 40
0.12
  1
25
100
AcDbText
  0
CIRCLE
  5
E8
330
18
100
AcDbEntity
  8
125
370
    -1
100
AcDbCircle
 10
130.7366654126785
 20
204.6451256332258
 30
0.0
 40
0.1149
  0
LWPOLYLINE
  5
E9
330
18
100
AcDbEntity
  8
125
370
    -1
100
AcDbPolyline
 90
        2
 70
     0
 43
0.0
 10
130.8512580556691
 20
204.6367270516532
 10
132.2260960615372
 20
204.4803235225498
  0
LWPOLYLINE
  5
EA
330
18
100
AcDbEntity
  8
2
 62
     4
370
    -1
100
AcDbPolyline
 90
        4
 70
     0
 43
0.0
 10
113.0723816939377
 20
208.8592403615379
 10
112.9485656267632
 20
208.8592403615379
 10
112.9568200514514
 20
208.6449512669704
 10
113.0806360175765
 20
208.6449512669704
  0
LWPOLYLINE
  5
EC
330
18
100
AcDbEntity
  8
24
370
    -1
100
AcDbPolyline
 90
       21
 70
     1
 43
0.0
 10
131.0544887705102
 20
206.2779276525578
 10
131.0411208433661
 20
206.0382355114411
 10
131.0488086226105
 20
205.8996203645042
 10
131.0589875205009
 20
205.8272239363771
 10
131.1545160011662
 20
205.7304627286716
 10
131.7567880189316
 20
205.7081055804381
 10
132.3581791625729
 20
205.7739981108974
 10
132.7208219588018
 20
205.7587053413299
 10
133.0610877374561
 20
205.7747100956217
 10
133.2276284154821
 20
205.8268058523238
 10
133.3557815264173
 20
205.9352560278467
 10
133.3864813142638
 20
206.0175167559628
 10
133.3987108937381
 20
206.0554638859917
 10
133.3697471895741
 20
206.1150644584219
 10
133.2553080634747
 20
206.2116369073865
 10
132.658836237545
 20
206.2844853630247
 10
132.192121971848
 20
206.3050435079954
 10
131.8422121117358
 20
206.3078550197674
 10
131.3471947974677
 20
206.3218264781487
 10
131.1862970123267
 20
206.3359809000464
 10
131.1045396408528
 20
206.3162523000685
  0
TEXT
  5
ED
330
18
100
AcDbEntity
  8
24
370
    -1
100
AcDbText
 10
131.2907077003339
 20
205.832007934748
 30
0.0
 40
0.12
  1
24
100
AcDbText
  0
CIRCLE
  5
F0
330
18
100
AcDbEntity
  8
124
370
    -1
100
AcDbCircle
 10
131.4167167942427
 20
205.988399064405
 30
0.0
 40
0.1149
  0
LWPOLYLINE
  5
F1
330
18
100
AcDbEntity
  8
124
370
    -1
100
AcDbPolyline
 90
        2
 70
     0
 43
0.0
 10
131.5296048134637
 20
205.9669910024576
 10
133.2351961507905
 20
206.0160066860358
  0
LWPOLYLINE
  5
F3
330
18
100
AcDbEntity
  8
31
370
    -1
100
AcDbPolyline
 90
       16
 70
     1
 43
0.0
 10
131.202527780374
 20
206.2888615854118
 10
131.1477463510605
 20
206.0928853063695
 10
131.1307232930351
 20
205.9035900932871
 10
131.2018555343319
 20
205.7246310770457
 10
131.4608358383645
 20
205.6736306177742
 10
132.1924564390906
 20
205.6399562239806
 10
132.6308047366364
 20
205.6191149408986
 10
132.9609545369806
 20
205.7012125748394
 10
133.1694817349266
 20
205.7123401830422
 10
133.1852396598183
 20
205.9682267158081
 10
133.1719089876888
 20
206.0405916841452
 10
132.9886341849731
 20
206.0860436299021
 10
132.6606923651636
 20
206.0985306829222
 10
131.9719696719683
 20
206.2555647090999
 10
131.3979377831936
 20
206.2908120924008
 10
131.2589765785651
 20
206.3177938297856
  0
TEXT
  5
F4
330
18
100
AcDbEntity
  8
31
370
    -1
100
AcDbText
 10
132.7901621870994
 20
205.8143099318806
 30
0.0
 40
0.12
  1
31
100
AcDbText
  0
CIRCLE
  5
F6
330
18
100
AcDbEntity
  8
131
370
    -1
100
AcDbCircle
 10
131.3250007434095
 20
206.019004472881
 30
0.0
 40
0.1149
  0
LWPOLYLINE
  5
F7
330
18
100
AcDbEntity
  8
131
370
    -1
100
AcDbPolyline
 90
        2
 70
     0
 43
0.0
 10
131.4398985764865
 20
206.0182988141785
 10
133.0527680279029
 20
205.9162796349609
  0
LWPOLYLINE
  5
F9
330
18
100
AcDbEntity
  8
16
370
    -1
100
AcDbPolyline
 90
       15
 70
     1
 43
0.0
 10
131.1717038091453
 20
201.16641049245
 10
131.508031318807
 20
201.2611781429273
 10
131.9840750680605
 20
201.2533214742832
 10
132.3618789994718
 20
201.2980697142079
 10
132.6580513985699
 20
201.3104822571987
 10
132.8385834043184
 20
201.2240257865442
 10
132.9192653477028
 20
201.0357058269562
 10
132.9834963045089
 20
200.9165676016761
 10
133.001646119755
 20
200.6771900584609
 10
132.8437742696924
 20
200.7039830371049
 10
132.3324632677968
 20
200.7713773585989
 10
131.8908688166415
 20
200.8016425046079
 10
131.4179768416269
 20
200.8095306330422
 10
131.2286501687543
 20
200.8297054653067
 10
131.1447220717605
 20
201.0274492878216
  0
TEXT
  5
FB
330
18
100
AcDbEntity
  8
16
370
    -1
100
AcDbText
 10
131.4101636867557
 20
200.8757466867887
 30
0.0
 40
0.12
  1
16
100
AcDbText
  0
CIRCLE
  5
FD
330
18
100
AcDbEntity
  8
116
370
    -1
100
AcDbCircle
 10
131.3561740838866
 20
201.0011911256101
 30
0.0
 40
0.1149
  0
LWPOLYLINE
  5
FE
330
18
100
AcDbEntity
  8
116
370
    -1
100
AcDbPolyline
 90
        2
 70
     0
 43
0.0
 10
131.4686492834573
 20
201.0246717448848
 10
132.7932258379319
 20
201.0312956611114
  0
LWPOLYLINE
  5
100
330
18
100
AcDbEntity
  8
40
370
    -1
100
AcDbPolyline
 90
       13
 70
     1
 43
0.0
 10
136.7702226601479
 20
205.8621666564471
 10
136.5272529056315
 20
205.8881102207571
 10
136.4229297578422
 20
205.9185897900726
 10
136.3125232801058
 20
205.9269440201346
 10
136.1522232309775
 20
205.8812147314908
 10
136.0237555221409
 20
205.8042822983583
 10
135.9741136290701
 20
205.7249845857403
 10
136.0125955755315
 20
205.6591748442025
 10
136.1238514676018
 20
205.5657227096868
 10
136.2851896898049
 20
205.5074434484426
 10
136.5093746380476
 20
205.4687040284356
 10
136.6632767593275
 20
205.5238257202162
 10
136.8076606383099
 20
205.5851565811044
  0
TEXT
  5
101
330
18
100
AcDbEntity
  8
40
370
    -1
100
AcDbText
 10
136.4029770584038
 20
205.5474633897383
 30
0.0
 40
0.12
  1
40
100
AcDbText
  0
CIRCLE
  5
103
330
18
100
AcDbEntity
  8
140
 62
     2
370
    -1
100
AcDbCircle
 10
136.1219280800584
 20
205.6976784676523
 30
0.0
 40
0.075
  0
LWPOLYLINE
  5
104
330
18
100
AcDbEntity
  8
140
370
    -1
100
AcDbPolyline
 90
        2
 70
     0
 43
0.0
 10
136.1968860390937
 20
205.6951676157533
 10
136.6904831962973
 20
205.7148934008655
  0
LWPOLYLINE
  5
106
330
18
100
AcDbEntity
  8
CHURCH3
370
    -1
100
AcDbPolyline
 90
        6
 70
     0
 43
0.0
 10
133.3485427369948
 20
202.0758264034744
 10
133.4832663462504
 20
204.0089422099645
 10
134.8070128261708
 20
203.8220207464981
 10
134.3826005042399
 20
199.2400529834727
 10
133.1530349898542
 20
199.2705340098309
 10
133.3471448011135
 20
202.0557677666577
  0
LWPOLYLINE
  5
10B
330
18
100
AcDbEntity
  8
28
370
    -1
100
AcDbPolyline
 90
       21
 70
     1
 43
0.0
 10
132.4957745831065
 20
207.1829404782566
 10
132.2810926739361
 20
207.3078416415221
 10
132.2606882806837
 20
207.445389084712
 10
132.2461048428024
 20
207.6205831727328
 10
132.2762391541572
 20
207.7211458146981
 10
132.3229849229373
 20
207.7404839043628
 10
132.5487177155653
 20
207.7180825410194
 10
133.1820808023551
 20
207.6503636837401
 10
133.617890926506
 20
207.6053771116072
 10
133.9691247916
 20
207.562528866286
 10
134.0736642148387
 20
207.4604162029367
 10
134.1506121135159
 20
207.3078751422479
 10
134.1680931150809
 20
207.1990601881893
 10
133.9562426845099
 20
207.306820366725
 10
133.5949984543038
 20
207.3705230553267
 10
133.1133748993025
 20
207.367719694795
 10
132.8715093013986
 20
207.4024520055887
 10
132.6712658216202
 20
207.4157638209704
 10
132.593392976076
 20
207.3804025793082
 10
132.547737837161
 20
207.3066651548024
 10
132.5077661188189
 20
207.2348250052732
  0
TEXT
  5
10C
330
18
100
AcDbEntity
  8
28
370
    -1
100
AcDbText
 10
132.5443941115629
 20
207.4896809688127
 30
0.0
 40
0.12
  1
28
100
AcDbText
  0
LWPOLYLINE
  5
10E
330
18
100
AcDbEntity
  8
34
370
    -1
100
AcDbPolyline
 90
       15
 70
     1
 43
0.0
 10
132.5620249127469
 20
206.795111367373
 10
132.571720908586
 20
206.7758463280961
 10
133.0835600704786
 20
206.7066180070867
 10
133.4759025944275
 20
206.6298057454943
 10
133.6988719857268
 20
206.5760566908513
 10
133.7802436143844
 20
206.5801437793925
 10
133.8896479966743
 20
206.5970861586208
 10
133.9640220591051
 20
206.6637215534041
 10
134.1081354365184
 20
206.8598150172974
 10
133.9442511487974
 20
206.8318771915378
 10
133.3806490713592
 20
206.8438505650454
 10
133.1408184581586
 20
206.8318771915378
 10
132.9569482102171
 20
206.8199038637884
 10
132.7411006684415
 20
206.8199038637884
 10
132.549468611777
 20
206.8201857802551
  0
TEXT
  5
10F
330
18
100
AcDbEntity
  8
34
370
    -1
100
AcDbText
 10
133.4462572318799
 20
206.7000150540643
 30
0.0
 40
0.12
  1
34
100
AcDbText
  0
LWPOLYLINE
  5
111
330
18
100
AcDbEntity
  8
93
370
    -1
100
AcDbPolyline
 90
       19
 70
     1
 43
0.0
 10
132.5044665252171
 20
207.2196505724479
 10
132.5934297451653
 20
207.3772714870872
 10
132.6899788367679
 20
207.4222466199479
 10
133.1572101903969
 20
207.3682344620443
 10
133.576776548015
 20
207.3731615200016
 10
133.946944042792
 20
207.3180095203317
 10
134.1611820010345
 20
207.2077904984426
 10
134.206745439323
 20
207.0611439313034
 10
134.211604678738
 20
206.9140193660043
 10
134.1151291253138
 20
206.8627820487015
 10
133.974634435349
 20
206.8266854252546
 10
133.62682581519
 20
206.8445217018968
 10
133.2385703797823
 20
206.8399623348317
 10
132.9414024629463
 20
206.8192902458987
 10
132.6552996995197
 20
206.8201857802551
 10
132.5503655265068
 20
206.8201857802551
 10
132.5162842825162
 20
206.8900359042792
 10
132.4972058557296
 20
207.0379369163604
 10
132.4836887214362
 20
207.1223293299713
  0
TEXT
  5
112
330
18
100
AcDbEntity
  8
93
370
    -1
100
AcDbText
 10
132.9467638424888
 20
206.9632370408998
 30
0.0
 40
0.12
  1
93
100
AcDbText
  0
TEXT
  5
113
330
18
100
AcDbEntity
  8
93
 62
     3
370
    -1
100
AcDbText
 10
132.9467638424888
 20
207.1433362709672
 30
0.0
 40
0.12
  1
no skeleton
100
AcDbText
  0
LWPOLYLINE
  5
115
330
18
100
AcDbEntity
  8
1
370
    -1
100
AcDbPolyline
 90
       23
 70
     1
 43
0.0
 10
109.2470257950319
 20
208.8110735625247
 10
109.3314831569219
 20
208.8965109149009
 10
109.6180231360801
 20
208.8572618009892
 10
109.84805857962
 20
208.7956626346959
 10
110.1913390180319
 20
208.7378629938056
 10
110.307929839008
 20
208.7070724846449
 10
110.4782782525733
 20
208.6293975148226
 10
110.730101161364
 20
208.6088259636933
 10
110.881173129072
 20
208.6002584711106
 10
110.9043035442482
 20
208.4084674037618
 10
110.9114488957552
 20
208.260632374326
 10
110.7387890904879
 20
208.1935640692088
 10
110.5821324968618
 20
208.0793935277665
 10
110.4910742226237
 20
208.0474052524562
 10
110.3017215827807
 20
208.1469947233331
 10
110.1092953364131
 20
208.2339812525887
 10
109.8889344117458
 20
208.2547342834376
 10
109.7724706265735
 20
208.2635014037119
 10
109.6401669615077
 20
208.2910549746005
 10
109.4667812373619
 20
208.3498346059768
 10
109.3529373594149
 20
208.4498596281809
 10
109.2234532292661
 20
208.5340629184634
 10
109.1916827296193
 20
208.5873668117535
  0
CIRCLE
  5
117
330
18
100
AcDbEntity
  8
101
370
    -1
100
AcDbCircle
 10
109.376527167025
 20
208.6795297570544
 30
0.0
 40
0.1149
  0
LWPOLYLINE
  5
118
330
18
100
AcDbEntity
  8
101
370
    -1
100
AcDbPolyline
 90
        2
 70
     0
 43
0.0
 10
109.4896574693754
 20
208.6594413352619
 10
110.8509815029861
 20
208.3798431025274
  0
TEXT
  5
119
330
18
100
AcDbEntity
  8
1
370
    -1
100
AcDbText
 10
109.8050784651748
 20
208.4295679558035
 30
0.0
 40
0.12
  1
01
100
AcDbText
  0
LWPOLYLINE
  5
11C
330
18
100
AcDbEntity
  8
6
370
    -1
100
AcDbPolyline
 90
       18
 70
     1
 43
0.0
 10
110.4515264920825
 20
205.6308163562584
 10
110.6742787723328
 20
205.6304804449908
 10
110.8409836202495
 20
205.7494760460384
 10
110.8971251964285
 20
205.8347500666669
 10
110.8934164108853
 20
205.9322640694773
 10
110.7638415408767
 20
206.0321983518215
 10
110.5875092460101
 20
206.0563516526902
 10
110.266469972148
 20
206.0765239484363
 10
109.9989886631836
 20
206.0844199660563
 10
109.8638110192849
 20
206.0647624127878
 10
109.7917932672684
 20
206.0045672395983
 10
109.7384893739784
 20
205.9727967399515
 10
109.7232483771597
 20
205.8877586429586
 10
109.7710220884476
 20
205.7873525133433
 10
109.8311809656933
 20
205.7216271581515
 10
110.0109498265236
 20
205.6471528306574
 10
110.2153801314376
 20
205.6609172424845
 10
110.4263024608679
 20
205.6401097677197
  0
TEXT
  5
11D
330
18
100
AcDbEntity
  8
6
370
    -1
100
AcDbText
 10
110.0603910634566
 20
205.736162742216
 30
0.0
 40
0.12
  1
06
100
AcDbText
  0
CIRCLE
  5
11F
330
18
100
AcDbEntity
  8
106
370
    -1
100
AcDbCircle
 10
109.9432463423877
 20
205.9299295803565
 30
0.0
 40
0.1149
  0
LWPOLYLINE
  5
120
330
18
100
AcDbEntity
  8
106
370
    -1
100
AcDbPolyline
 90
        2
 70
     0
 43
0.0
 10
110.0470572266733
 20
205.8806821407901
 10
110.8408747324177
 20
205.7683532365124
  0
LWPOLYLINE
  5
122
330
18
100
AcDbEntity
  8
8
370
    -1
100
AcDbPolyline
 90
       14
 70
     1
 43
0.0
 10
110.4483621456982
 20
205.6339444066988
 10
110.6749065793583
 20
205.6321048622679
 10
110.8503859195426
 20
205.755822886779
 10
110.9033450013654
 20
205.8473711562601
 10
110.9093470306386
 20
205.8977466268014
 10
111.1456385750592
 20
205.8424761532767
 10
111.3382100052024
 20
205.7303200367224
 10
111.5400929947789
 20
205.6402417529704
 10
111.6314960804844
 20
205.6124522584463
 10
111.6446616092366
 20
205.5118465011394
 10
111.6543542760811
 20
205.4678541672826
 10
110.8993211010362
 20
205.4540600587741
 10
110.7196248320937
 20
205.5159495926189
 10
110.5398922672073
 20
205.5841315232884
  0
TEXT
  5
123
330
18
100
AcDbEntity
  8
8
370
    -1
100
AcDbText
 10
111.0025084363184
 20
205.4770216117758
 30
0.0
 40
0.12
  1
08
100
AcDbText
  0
LWPOLYLINE
  5
125
330
18
100
AcDbEntity
  8
108
370
    -1
100
AcDbPolyline
 90
        2
 70
     0
 43
0.0
 10
110.8033744230772
 20
205.7240886830762
 10
111.4813315113745
 20
205.4637098304122
  0
LWPOLYLINE
  5
126
330
18
100
AcDbEntity
  8
CHURCH2
370
    -1
100
AcDbPolyline
 90
       22
 70
     0
 43
0.0
 10
112.1790740347131
 20
207.1236411160681
 10
112.1022613643064
 20
207.0459371594014
 10
112.0590130973001
 20
206.9072503576511
 10
112.0735760198935
 20
206.5643873225943
 10
112.0928343177788
 20
206.498426043767
 10
112.2296452791542
 20
206.2349257399252
 10
112.2959695174208
 20
206.1912600695637
 10
112.6739488782283
 20
206.1179290643033
 10
112.9664908866597
 20
206.129055420933
 10
113.0638052617786
 20
206.1673723890119
 10
113.229247123651
 20
206.3948605172143
 10
113.2624216164015
 20
206.6436098194804
 10
113.2617138454949
 20
206.7663115575616
 10
113.2518215509588
 20
206.8449120739541
 10
113.1153554010507
 20
207.0486346079615
 10
113.042430250436
 20
207.1457493553888
 10
112.9822532252184
 20
207.2146209089929
 10
112.777532552753
 20
207.2511956717632
 10
112.5569901483661
 20
207.3034106867354
 10
112.4342158183971
 20
207.3152877094782
 10
112.2836882898479
 20
207.2294692496908
 10
112.2028762727621
 20
207.1477195404236
  0
LWPOLYLINE
  5
128
330
18
100
AcDbEntity
  8
21
370
    -1
100
AcDbPolyline
 90
        8
 70
     1
 43
0.0
 10
114.2695710756112
 20
205.3570871954913
 10
114.3054743634189
 20
205.6782172092132
 10
114.3269533131463
 20
205.7727301973871
 10
114.4275953663972
 20
205.7796033293146
 10
114.8494581732297
 20
205.7348421813728
 10
115.0508148716193
 20
205.7360036515785
 10
115.2963998275011
 20
205.7059572092683
 10
115.377359580249
 20
205.3068437102007
  0
TEXT
  5
129
330
18
100
AcDbEntity
  8
21
370
    -1
100
AcDbText
 10
114.399942108961
 20
205.4191158962985
 30
0.0
 40
0.12
  1
21
100
AcDbText
  0
CIRCLE
  5
12B
330
18
100
AcDbEntity
  8
121
370
    -1
100
AcDbCircle
 10
114.5265793549368
 20
205.5284700434586
 30
0.0
 40
0.1149
  0
LWPOLYLINE
  5
12C
330
18
100
AcDbEntity
  8
121
370
    -1
100
AcDbPolyline
 90
        2
 70
     0
 43
0.0
 10
114.6386224466685
 20
205.5030072157445
 10
115.2041371878509
 20
205.337307555866
  0
LWPOLYLINE
  5
12E
330
18
100
AcDbEntity
  8
39
370
    -1
100
AcDbPolyline
 90
       16
 70
     1
 43
0.0
 10
125.9942481929771
 20
205.0880633089099
 10
125.8741416148868
 20
204.6374491650392
 10
126.0607110157568
 20
204.4749175779436
 10
126.042251228638
 20
204.402446126628
 10
126.28545220093
 20
204.2402412030278
 10
126.6791988497431
 20
204.1607085408025
 10
127.2020666692658
 20
204.0598965565415
 10
127.5331252734677
 20
203.9391003555166
 10
127.6858371579151
 20
204.1916854791298
 10
127.8164349136163
 20
204.4598745590009
 10
127.2105137253073
 20
204.7773023864421
 10
126.7155805840844
 20
204.9443478691099
 10
126.4411898472485
 20
205.0591783368054
 10
126.2237754933019
 20
205.114557698162
 10
126.1738537220597
 20
205.0419047671268
 10
126.0570995693359
 20
205.1010110619985
  0
TEXT
  5
12F
330
18
100
AcDbEntity
  8
39
370
    -1
100
AcDbText
 10
126.5793092070127
 20
204.394595947854
 30
0.0
 40
0.12
  1
39
100
AcDbText
  0
LWPOLYLINE
  5
132
330
18
100
AcDbEntity
  8
39
 62
     4
370
    -1
100
AcDbPolyline
 90
       13
 70
     0
 43
0.0
 10
126.021574340628
 20
204.8874967322452
 10
126.0360380229637
 20
204.9341355103409
 10
126.1967845095443
 20
204.8847218823137
 10
126.2340307472773
 20
204.9730332135227
 10
126.8834361262281
 20
204.7533916084714
 10
127.4571512635631
 20
204.5647764362164
 10
127.7096456473165
 20
204.4277955438307
 10
127.5263065854561
 20
204.0303038135305
 10
126.9085083744044
 20
204.2249573110027
 10
126.0888997656641
 20
204.4971042985776
 10
126.1194180552453
 20
204.6608880957387
 10
125.9588167524404
 20
204.6851321364672
 10
126.0206855715946
 20
204.8846308575136
  0
LWPOLYLINE
  5
133
330
18
100
AcDbEntity
  8
39
 62
     4
370
    -1
100
AcDbPolyline
 90
       18
 70
     0
 43
0.0
 10
125.9467912540581
 20
204.888346049478
 10
125.8796285988692
 20
204.6363661592067
 10
126.0661979997392
 20
204.473834572111
 10
126.0477382126203
 20
204.4013631207955
 10
126.2909391849124
 20
204.2391581971953
 10
126.6846858337255
 20
204.15962553497
 10
127.2075536532482
 20
204.058813550709
 10
127.5386122574501
 20
203.9380173496841
 10
127.6913241418975
 20
204.1906024732972
 10
127.8219218975986
 20
204.4587915531683
 10
127.2160007092897
 20
204.7762193806095
 10
126.7210675680668
 20
204.9432648632773
 10
126.4466768312308
 20
205.0580953309729
 10
126.2292624772843
 20
205.1134746923294
 10
126.1793407060421
 20
205.0408217612943
 10
126.0625865533183
 20
205.099928056166
 10
125.9997351769594
 20
205.0869803030774
 10
125.9474439306728
 20
204.8907947522772
  0
CIRCLE
  5
135
330
18
100
AcDbEntity
  8
139
370
    -1
100
AcDbCircle
 10
126.0968320792281
 20
204.7582932107174
 30
0.0
 40
0.1149
  0
LWPOLYLINE
  5
137
330
18
100
AcDbEntity
  8
139
370
    -1
100
AcDbPolyline
 90
        2
 70
     0
 43
0.0
 10
126.202701159333
 20
204.7136418067335
 10
127.5316371397667
 20
204.1970886253282
  0
LWPOLYLINE
  5
13A
330
18
100
AcDbEntity
  8
CHURCH4
 62
   230
370
    -1
100
AcDbPolyline
 90
       16
 70
     0
 43
0.0
 10
134.9353868744776
 20
205.5755614818107
 10
135.0046606062286
 20
208.0408275443263
 10
132.7725395866578
 20
208.2356792783117
 10
132.7713165461474
 20
209.2296524110139
 10
135.5429204890934
 20
209.0234582665082
 10
136.0661819468379
 20
209.5041828176605
 10
136.7413986105529
 20
208.7484437225934
 10
136.0942127574101
 20
208.1593920240787
 10
136.0779806423979
 20
207.2937373854337
 10
136.1193403827386
 20
204.9864972668661
 10
137.0157807450411
 20
205.01145450209
 10
137.0100390900262
 20
204.0675547613755
 10
133.5478547025398
 20
204.1011330805454
 10
133.5385725377554
 20
204.9977905263946
 10
134.9185431536536
 20
204.9761386953632
 10
134.9350401147548
 20
205.5632212345798
  0
LWPOLYLINE
  5
13D
330
18
100
AcDbEntity
  8
29
370
    -1
100
AcDbPolyline
 90
       23
 70
     1
 43
0.0
 10
129.6497740681538
 20
203.7174967866944
 10
129.6029607930442
 20
203.6603506950487
 10
129.5784019230217
 20
203.5813212983485
 10
129.5789055587804
 20
203.5214201202991
 10
129.5952256767372
 20
203.4553460908127
 10
129.7218105486125
 20
203.3996578921527
 10
130.0189059453431
 20
203.3138741435177
 10
130.4927642398017
 20
203.2043532463612
 10
130.8242476873322
 20
203.1535407057204
 10
130.9947051978972
 20
203.1297505429085
 10
131.1047578946541
 20
203.1653579223873
 10
131.1578765569269
 20
203.2225570283234
 10
131.182249876933
 20
203.3236552800944
 10
131.2063051111968
 20
203.4625858548439
 10
131.2055894182766
 20
203.5477085815456
 10
131.1769766117359
 20
203.5758442594727
 10
130.9745945581776
 20
203.6466597545558
 10
130.4982197416221
 20
203.68048949861
 10
130.0939327631189
 20
203.7653720043084
 10
129.8953130674816
 20
203.7637020541612
 10
129.7314790298221
 20
203.7497129082849
 10
129.6435747095715
 20
203.7048329980778
 10
129.5809979665542
 20
203.6475543707061
  0
TEXT
  5
13E
330
18
100
AcDbEntity
  8
29
370
    -1
100
AcDbText
 10
130.1549288951295
 20
203.3879556166991
 30
0.0
 40
0.12
  1
29
100
AcDbText
  0
CIRCLE
  5
140
330
18
100
AcDbEntity
  8
129
370
    -1
100
AcDbCircle
 10
129.7455476971339
 20
203.5764207898807
 30
0.0
 40
0.1149
  0
LWPOLYLINE
  5
141
330
18
100
AcDbEntity
  8
129
370
    -1
100
AcDbPolyline
 90
        2
 70
     0
 43
0.0
 10
129.8604436361675
 20
203.5773868093366
 10
131.0210914042415
 20
203.3664411258311
  0
LWPOLYLINE
  5
144
330
18
100
AcDbEntity
  8
23
 62
     2
370
    -1
100
AcDbPolyline
 90
        8
 70
     1
 43
0.0
 10
114.9444662563457
 20
208.0241509363586
 10
114.7506210150923
 20
207.9757630703907
 10
114.6813905356984
 20
207.9204626456047
 10
114.6504365694295
 20
207.7477817858508
 10
114.6759985381791
 20
207.5946421620615
 10
114.7852362042645
 20
207.5333597636196
 10
114.9316187309221
 20
207.5180723959251
 10
115.0168254281533
 20
207.5265801324653
  0
TEXT
  5
145
330
18
100
AcDbEntity
  8
23
370
    -1
100
AcDbText
 10
114.7271225767277
 20
207.9094291461803
 30
0.0
 40
0.12
  1
23
100
AcDbText
  0
CIRCLE
  5
147
330
18
100
AcDbEntity
  8
123
370
    -1
100
AcDbCircle
 10
114.8293706538249
 20
207.7562895681492
 30
0.0
 40
0.1149
  0
LWPOLYLINE
  5
149
330
18
100
AcDbEntity
  8
22
 62
     2
370
    -1
100
AcDbPolyline
 90
       10
 70
     1
 43
0.0
 10
111.3480774749355
 20
205.2552751151231
 10
111.137190853816
 20
205.2728223903745
 10
110.7291306253583
 20
205.2079507619809
 10
110.5368829755737
 20
205.1119726417853
 10
110.5368829755737
 20
204.9680054386127
 10
110.8296479278394
 20
204.8692357002055
 10
111.3058734736624
 20
204.920016401394
 10
111.4981211234469
 20
204.9680054386127
 10
111.4981211234469
 20
205.0639835588083
 10
111.4981211234469
 20
205.159961679004
  0
TEXT
  5
14A
330
18
100
AcDbEntity
  8
22
370
    -1
100
AcDbText
 10
110.9087304233904
 20
204.9832928063072
 30
0.0
 40
0.12
  1
22
100
AcDbText
  0
LWPOLYLINE
  5
150
330
18
100
AcDbEntity
  8
38
370
    -1
100
AcDbPolyline
 90
       24
 70
     1
 43
0.0
 10
136.7534421324309
 20
206.6999763920704
 10
136.3240396338562
 20
206.772036066281
 10
135.9734809819653
 20
206.84160572554
 10
135.8063882221434
 20
206.8402008468447
 10
135.6488330645017
 20
206.8294174088404
 10
135.5291367369838
 20
206.8157993629968
 10
135.4320394074406
 20
206.7393129955387
 10
135.3788677308775
 20
206.6884192767657
 10
135.3384658715117
 20
206.6187154250842
 10
135.3422282294327
 20
206.5462299798539
 10
135.3365590137543
 20
206.4705123196064
 10
135.3906849475444
 20
206.4079090694438
 10
135.4419762734953
 20
206.3074469891575
 10
135.5022485515774
 20
206.2638129147746
 10
135.7734597210258
 20
206.2566344485166
 10
135.9972479510251
 20
206.2648218429885
 10
136.1449474207442
 20
206.3228161632804
 10
136.2457275867728
 20
206.3362751662528
 10
136.2806457804765
 20
206.3081925026161
 10
136.4382539524086
 20
206.3126705534573
 10
136.6683740767161
 20
206.317758268638
 10
136.6299851036885
 20
206.3836467481082
 10
136.6039948478255
 20
206.4748628048114
 10
136.6064848627772
 20
206.5537066514952
  0
TEXT
  5
151
330
18
100
AcDbEntity
  8
38
370
    -1
100
AcDbText
 10
135.6812496012398
 20
206.3170165024474
 30
0.0
 40
0.12
  1
38
100
AcDbText
  0
CIRCLE
  5
153
330
18
100
AcDbEntity
  8
138
370
    -1
100
AcDbCircle
 10
135.4900072205874
 20
206.5947662194012
 30
0.0
 40
0.1149
  0
LWPOLYLINE
  5
154
330
18
100
AcDbEntity
  8
138
370
    -1
100
AcDbPolyline
 90
        2
 70
     0
 43
0.0
 10
135.5972484486127
 20
206.6360133891418
 10
136.5939801170318
 20
206.5409898485883
  0
LWPOLYLINE
  5
159
330
18
100
AcDbEntity
  8
CHURCH5
370
    -1
100
AcDbPolyline
 90
       10
 70
     0
 43
0.0
 10
134.8772988225553
 20
205.5772330988694
 10
134.8487927515515
 20
206.3592121303288
 10
136.2305472760594
 20
206.2667833717329
 10
136.1783348268129
 20
204.9768015539773
 10
137.010142296582
 20
205.0437006183579
 10
136.9679694285779
 20
204.059636106593
 10
133.5843870155152
 20
204.1194693600827
 10
133.5641156762279
 20
205.0304917765683
 10
134.8979701326732
 20
205.01017736317
 10
134.8777828755118
 20
205.5639545498164
  0
CIRCLE
  5
169
330
18
100
AcDbEntity
  8
115
370
    -1
100
AcDbCircle
 10
111.3717621320643
 20
209.31587919432
 30
0.0
 40
0.1149
  0
LWPOLYLINE
  5
16A
330
18
100
AcDbEntity
  8
115
370
    -1
100
AcDbPolyline
 90
        2
 70
     0
 43
0.0
 10
111.4781489101196
 20
209.31587919432
 10
112.8292607687347
 20
209.31587919432
  0
CIRCLE
  5
16C
330
18
100
AcDbEntity
  8
117
370
    -1
100
AcDbCircle
 10
110.5984622509031
 20
209.5105010257205
 30
0.0
 40
0.1149
  0
LWPOLYLINE
  5
16D
330
18
100
AcDbEntity
  8
117
370
    -1
100
AcDbPolyline
 90
        2
 70
     0
 43
0.0
 10
110.7163016265653
 20
209.5105010257205
 10
112.1009150922688
 20
209.5105010257205
  0
CIRCLE
  5
170
330
18
100
AcDbEntity
  8
222
 62
     2
370
    -1
100
AcDbCircle
 10
110.7604914815133
 20
205.0665824614001
 30
0.0
 40
0.075
  0
LWPOLYLINE
  5
171
330
18
100
AcDbEntity
  8
222
 62
     2
370
    -1
100
AcDbPolyline
 90
        2
 70
     0
 43
0.0
 10
110.84887101326
 20
205.0960123880078
 10
111.0992798646916
 20
205.0960123880078
  0
CIRCLE
  5
173
330
18
100
AcDbEntity
  8
128
370
    -1
100
AcDbCircle
 10
132.5659314428071
 20
207.4340153960636
 30
0.0
 40
0.1149
  0
LWPOLYLINE
  5
174
330
18
100
AcDbEntity
  8
128
370
    -1
100
AcDbPolyline
 90
        2
 70
     0
 43
0.0
 10
132.6819547640877
 20
207.4340153960636
 10
134.041084055643
 20
207.2187625910906
  0
LWPOLYLINE
  5
176
330
18
100
AcDbEntity
  8
134
370
    -1
100
AcDbPolyline
 90
        2
 70
     0
 43
0.0
 10
133.474434114221
 20
206.8482677759421
 10
133.9739992490681
 20
206.7432030369166
  0
CIRCLE
  5
177
330
18
100
AcDbEntity
  8
134
 62
     2
370
    -1
100
AcDbCircle
 10
132.6987934397943
 20
207.0452641671376
 30
0.0
 40
0.1149
  0
LWPOLYLINE
  5
17F
330
18
100
AcDbEntity
  8
CHURCH3
370
    -1
100
AcDbPolyline
 90
        7
 70
     0
 43
0.0
 10
108.2650022486953
 20
210.1998840299724
 10
108.1251060596956
 20
208.0435785004055
 10
107.7577365771419
 20
208.0860723492565
 10
107.3744497080485
 20
208.3718305494347
 10
107.1926306174314
 20
208.4895452335924
 10
106.9897008086324
 20
208.5310868883359
 10
107.1486624755375
 20
210.225502558013
  0
LWPOLYLINE
  5
207
330
18
100
AcDbEntity
  8
42
370
    -1
100
AcDbPolyline
 90
        6
 70
     1
 43
0.0
 10
133.1836684520244
 20
202.2740712192576
 10
133.0163790882678
 20
202.2740712192576
 10
132.8968867866237
 20
202.1547002835329
 10
132.8968867866237
 20
201.9637067776034
 10
132.9924806456208
 20
201.8443357980284
 10
133.1836684520244
 20
201.8443357980284
  0
CIRCLE
  5
208
330
18
100
AcDbEntity
  8
142
370
    -1
100
AcDbCircle
 10
133.0163790882678
 20
202.083077713328
 30
0.0
 40
0.1149
  0
MTEXT
  5
209
330
18
100
AcDbEntity
  8
42
370
    -1
100
AcDbMText
 10
133.3748562584281
 20
202.2740712192576
 30
0.0
 40
0.12
 41
0.8842
 46
0.0
 71
     1
 72
     5
  1
42
 73
     1
 44
1.0
  0
ENDSEC
  0
SECTION
  2
OBJECTS
  0
DICTIONARY
  5
C
330
0
100
AcDbDictionary
281
     1
  3
ACAD_COLOR
350
260
  3
ACAD_DETAILVIEWSTYLE
350
2DF
  3
ACAD_GROUP
350
D
  3
ACAD_LAYOUT
350
160
  3
ACAD_MATERIAL
350
25F
  3
ACAD_MLEADERSTYLE
350
2A4
  3
ACAD_MLINESTYLE
350
1B
  3
ACAD_PLOTSETTINGS
350
161
  3
ACAD_PLOTSTYLENAME
350
15E
  3
ACAD_SCALELIST
350
27D
  3
ACAD_SECTIONVIEWSTYLE
350
2E0
  3
ACAD_TABLESTYLE
350
2A2
  3
ACAD_VISUALSTYLE
350
264
  3
ACDB_RECOMPOSE_DATA
350
2DA
  3
AcDbVariableDictionary
350
2A6
  0
DICTIONARY
  5
260
102
{ACAD_REACTORS
330
C
102
}
330
C
100
AcDbDictionary
281
     1
  0
DICTIONARY
  5
2DF
102
{ACAD_REACTORS
330
C
102
}
330
C
100
AcDbDictionary
281
     1
  0
DICTIONARY
  5
D
102
{ACAD_REACTORS
330
C
102
}
330
C
100
AcDbDictionary
281
     1
  0
DICTIONARY
  5
160
102
{ACAD_REACTORS
330
C
102
}
330
C
100
AcDbDictionary
281
     1
  3
Layout1
350
163
  3
Model
350
162
  0
DICTIONARY
  5
25F
102
{ACAD_REACTORS
330
C
102
}
330
C
100
AcDbDictionary
281
     1
  3
ByBlock
350
2A0
  3
ByLayer
350
29F
  3
Global
350
2A1
  0
DICTIONARY
  5
2A4
102
{ACAD_REACTORS
330
C
102
}
330
C
100
AcDbDictionary
281
     1
  3
Standard
350
2A5
  0
DICTIONARY
  5
1B
102
{ACAD_REACTORS
330
C
102
}
330
C
100
AcDbDictionary
281
     1
  3
STANDARD
350
1C
  0
DICTIONARY
  5
161
102
{ACAD_REACTORS
330
C
102
}
330
C
100
AcDbDictionary
281
     1
  0
ACDBDICTIONARYWDFLT
  5
15E
102
{ACAD_REACTORS
330
C
102
}
330
C
100
AcDbDictionary
281
     1
  3
Normal
350
15F
100
AcDbDictionaryWithDefault
340
15F
  0
DICTIONARY
  5
27D
102
{ACAD_REACTORS
330
C
102
}
330
C
100
AcDbDictionary
281
     1
  3
A0
350
27E
  3
A1
350
27F
  3
A2
350
280
  3
A3
350
281
  3
A4
350
282
  3
A5
350
283
  3
A6
350
284
  3
A7
350
285
  3
A8
350
286
  3
A9
350
287
  3
B0
350
288
  3
B1
350
289
  3
B2
350
28A
  3
B3
350
28B
  3
B4
350
28C
  3
B5
350
28D
  3
B6
350
28E
  3
B7
350
28F
  3
B8
350
290
  3
B9
350
291
  3
C0
350
292
  3
C1
350
293
  3
C2
350
294
  3
C3
350
295
  3
C4
350
296
  3
C5
350
297
  3
C6
350
298
  3
C7
350
299
  3
C8
350
29A
  3
C9
350
29B
  3
D0
350
29C
  3
D1
350
29D
  3
D2
350
29E
  0
DICTIONARY
  5
2E0
102
{ACAD_REACTORS
330
C
102
}
330
C
100
AcDbDictionary
281
     1
  0
DICTIONARY
  5
2A2
102
{ACAD_REACTORS
330
C
102
}
330
C
100
AcDbDictionary
281
     1
  3
Standard
350
2A3
  0
DICTIONARY
  5
264
102
{ACAD_REACTORS
330
C
102
}
330
C
100
AcDbDictionary
281
     1
  3
2dWireframe
350
269
  3
Basic
350
26C
  3
Brighten
350
270
  3
ColorChange
350
274
  3
Conceptual
350
26E
  3
Dim
350
26F
  3
EdgeColorOff
350
277
  3
Facepattern
350
273
  3
Flat
350
265
  3
FlatWithEdges
350
266
  3
Gouraud
350
267
  3
GouraudWithEdges
350
268
  3
Hidden
350
26B
  3
JitterOff
350
275
  3
Linepattern
350
272
  3
OverhangOff
350
276
  3
Realistic
350
26D
  3
Shaded
350
27C
  3
Shaded with edges
350
27B
  3
Shades of Gray
350
278
  3
Sketchy
350
279
  3
Thicken
350
271
  3
Wireframe
350
26A
  3
X-Ray
350
27A
  0
XRECORD
  5
2DA
102
{ACAD_REACTORS
330
C
102
}
330
C
100
AcDbXrecord
280
     1
 90
        1
330
2A3
  0
DICTIONARY
  5
2A6
102
{ACAD_REACTORS
330
C
102
}
330
C
100
AcDbDictionary
281
     1
  3
CANNOSCALE
350
2A7
  3
CMLEADERSTYLE
350
2DC
  3
CTABLESTYLE
350
2DB
  3
MSLTSCALE
350
2DD
  3
XCLIPFRAME
350
2DE
  0
LAYOUT
  5
163
102
{ACAD_REACTORS
330
160
102
}
330
160
100
AcDbPlotSettings
  1

  2
D:\Programs\AutoCAD LT 2000\plotters\DWF Classic.pc3
  4

  6

 40
0.0
 41
0.0
 42
0.0
 43
0.0
 44
0.0
 45
0.0
 46
0.0
 47
0.0
 48
0.0
 49
0.0
140
0.0
141
0.0
142
1.0
143
1.0
 70
   688
 72
     0
 73
     0
 74
     5
  7

 75
    16
 76
     0
 77
     2
 78
   300
147
1.0
148
0.0
149
0.0
100
AcDbLayout
  1
Layout1
 70
     1
 71
     1
 10
0.0
 20
0.0
 11
420.0
 21
297.0
 12
0.0
 22
0.0
 32
0.0
 14
1.000000000000000E+20
 24
1.000000000000000E+20
 34
1.000000000000000E+20
 15
-1.000000000000000E+20
 25
-1.000000000000000E+20
 35
-1.000000000000000E+20
146
0.0
 13
0.0
 23
0.0
 33
0.0
 16
1.0
 26
0.0
 36
0.0
 17
0.0
 27
1.0
 37
0.0
 76
     0
330
15
  0
LAYOUT
  5
162
102
{ACAD_REACTORS
330
160
102
}
330
160
100
AcDbPlotSettings
  1

  2
D:\Programs\AutoCAD LT 2000\plotters\DWF Classic.pc3
  4

  6

 40
0.0
 41
0.0
 42
0.0
 43
0.0
 44
0.0
 45
0.0
 46
0.0
 47
0.0
 48
0.0
 49
0.0
140
0.0
141
0.0
142
1.0
143
1.0
 70
  1712
 72
     0
 73
     0
 74
     0
  7

 75
     0
 76
     0
 77
     2
 78
   300
147
1.0
148
0.0
149
0.0
100
AcDbLayout
  1
Model
 70
     1
 71
     0
 10
0.0
 20
0.0
 11
12.0
 21
9.0
 12
0.0
 22
0.0
 32
0.0
 14
0.0
 24
0.0
 34
0.0
 15
0.0
 25
0.0
 35
0.0
146
0.0
 13
0.0
 23
0.0
 33
0.0
 16
1.0
 26
0.0
 36
0.0
 17
0.0
 27
1.0
 37
0.0
 76
     0
330
18
331
263
  0
MATERIAL
  5
2A0
102
{ACAD_REACTORS
330
25F
102
}
330
25F
100
AcDbMaterial
  1
ByBlock
 72
     1
 94
      127
  0
MATERIAL
  5
29F
102
{ACAD_REACTORS
330
25F
102
}
330
25F
100
AcDbMaterial
  1
ByLayer
 72
     1
 94
      127
  0
MATERIAL
  5
2A1
102
{ACAD_REACTORS
330
25F
102
}
330
25F
100
AcDbMaterial
  1
Global
 72
     1
 94
      127
  0
MLEADERSTYLE
  5
2A5
102
{ACAD_REACTORS
330
2A4
102
}
330
2A4
100
AcDbMLeaderStyle
179
     2
170
     2
171
     1
172
     0
 90
        2
 40
0.0
 41
0.0
173
     1
 91
-1056964608
340
12
 92
       -2
290
     1
 42
2.0
291
     1
 43
8.0
  3
Standard
341
0
 44
4.0
300

342
F
174
     1
178
     6
175
     1
176
     0
 93
-1056964608
 45
4.0
292
     0
297
     0
 46
4.0
343
0
 94
-1056964608
 47
1.0
 49
1.0
140
1.0
293
     1
141
0.0
294
     1
177
     0
142
1.0
295
     0
296
     0
143
3.75
271
     0
272
     9
273
     9
  0
MLINESTYLE
  5
1C
102
{ACAD_REACTORS
330
1B
102
}
330
1B
100
AcDbMlineStyle
  2
STANDARD
 70
     0
  3

 62
   256
 51
90.0
 52
90.0
 71
     2
 49
0.5
 62
   256
  6
BYLAYER
 49
-0.5
 62
   256
  6
BYLAYER
  0
ACDBPLACEHOLDER
  5
15F
102
{ACAD_REACTORS
330
15E
102
}
330
15E
  0
SCALE
  5
27E
102
{ACAD_REACTORS
330
27D
102
}
330
27D
100
AcDbScale
 70
     0
300
1:1
140
1.0
141
1.0
290
     1
  0
SCALE
  5
27F
102
{ACAD_REACTORS
330
27D
102
}
330
27D
100
AcDbScale
 70
     0
300
1:2
140
1.0
141
2.0
290
     0
  0
SCALE
  5
280
102
{ACAD_REACTORS
330
27D
102
}
330
27D
100
AcDbScale
 70
     0
300
1:4
140
1.0
141
4.0
290
     0
  0
SCALE
  5
281
102
{ACAD_REACTORS
330
27D
102
}
330
27D
100
AcDbScale
 70
     0
300
1:5
140
1.0
141
5.0
290
     0
  0
SCALE
  5
282
102
{ACAD_REACTORS
330
27D
102
}
330
27D
100
AcDbScale
 70
     0
300
1:8
140
1.0
141
8.0
290
     0
  0
SCALE
  5
283
102
{ACAD_REACTORS
330
27D
102
}
330
27D
100
AcDbScale
 70
     0
300
1:10
140
1.0
141
10.0
290
     0
  0
SCALE
  5
284
102
{ACAD_REACTORS
330
27D
102
}
330
27D
100
AcDbScale
 70
     0
300
1:16
140
1.0
141
16.0
290
     0
  0
SCALE
  5
285
102
{ACAD_REACTORS
330
27D
102
}
330
27D
100
AcDbScale
 70
     0
300
1:20
140
1.0
141
20.0
290
     0
  0
SCALE
  5
286
102
{ACAD_REACTORS
330
27D
102
}
330
27D
100
AcDbScale
 70
     0
300
1:30
140
1.0
141
30.0
290
     0
  0
SCALE
  5
287
102
{ACAD_REACTORS
330
27D
102
}
330
27D
100
AcDbScale
 70
     0
300
1:40
140
1.0
141
40.0
290
     0
  0
SCALE
  5
288
102
{ACAD_REACTORS
330
27D
102
}
330
27D
100
AcDbScale
 70
     0
300
1:50
140
1.0
141
50.0
290
     0
  0
SCALE
  5
289
102
{ACAD_REACTORS
330
27D
102
}
330
27D
100
AcDbScale
 70
     0
300
1:100
140
1.0
141
100.0
290
     0
  0
SCALE
  5
28A
102
{ACAD_REACTORS
330
27D
102
}
330
27D
100
AcDbScale
 70
     0
300
2:1
140
2.0
141
1.0
290
     0
  0
SCALE
  5
28B
102
{ACAD_REACTORS
330
27D
102
}
330
27D
100
AcDbScale
 70
     0
300
4:1
140
4.0
141
1.0
290
     0
  0
SCALE
  5
28C
102
{ACAD_REACTORS
330
27D
102
}
330
27D
100
AcDbScale
 70
     0
300
8:1
140
8.0
141
1.0
290
     0
  0
SCALE
  5
28D
102
{ACAD_REACTORS
330
27D
102
}
330
27D
100
AcDbScale
 70
     0
300
10:1
140
10.0
141
1.0
290
     0
  0
SCALE
  5
28E
102
{ACAD_REACTORS
330
27D
102
}
330
27D
100
AcDbScale
 70
     0
300
100:1
140
100.0
141
1.0
290
     0
  0
SCALE
  5
28F
102
{ACAD_REACTORS
330
27D
102
}
330
27D
100
AcDbScale
 70
     0
300
1/128" = 1'-0"
140
0.0078125
141
12.0
290
     0
  0
SCALE
  5
290
102
{ACAD_REACTORS
330
27D
102
}
330
27D
100
AcDbScale
 70
     0
300
1/64" = 1'-0"
140
0.015625
141
12.0
290
     0
  0
SCALE
  5
291
102
{ACAD_REACTORS
330
27D
102
}
330
27D
100
AcDbScale
 70
     0
300
1/32" = 1'-0"
140
0.03125
141
12.0
290
     0
  0
SCALE
  5
292
102
{ACAD_REACTORS
330
27D
102
}
330
27D
100
AcDbScale
 70
     0
300
1/16" = 1'-0"
140
0.0625
141
12.0
290
     0
  0
SCALE
  5
293
102
{ACAD_REACTORS
330
27D
102
}
330
27D
100
AcDbScale
 70
     0
300
3/32" = 1'-0"
140
0.09375
141
12.0
290
     0
  0
SCALE
  5
294
102
{ACAD_REACTORS
330
27D
102
}
330
27D
100
AcDbScale
 70
     0
300
1/8" = 1'-0"
140
0.125
141
12.0
290
     0
  0
SCALE
  5
295
102
{ACAD_REACTORS
330
27D
102
}
330
27D
100
AcDbScale
 70
     0
300
3/16" = 1'-0"
140
0.1875
141
12.0
290
     0
  0
SCALE
  5
296
102
{ACAD_REACTORS
330
27D
102
}
330
27D
100
AcDbScale
 70
     0
300
1/4" = 1'-0"
140
0.25
141
12.0
290
     0
  0
SCALE
  5
297
102
{ACAD_REACTORS
330
27D
102
}
330
27D
100
AcDbScale
 70
     0
300
3/8" = 1'-0"
140
0.375
141
12.0
290
     0
  0
SCALE
  5
298
102
{ACAD_REACTORS
330
27D
102
}
330
27D
100
AcDbScale
 70
     0
300
1/2" = 1'-0"
140
0.5
141
12.0
290
     0
  0
SCALE
  5
299
102
{ACAD_REACTORS
330
27D
102
}
330
27D
100
AcDbScale
 70
     0
300
3/4" = 1'-0"
140
0.75
141
12.0
290
     0
  0
SCALE
  5
29A
102
{ACAD_REACTORS
330
27D
102
}
330
27D
100
AcDbScale
 70
     0
300
1" = 1'-0"
140
1.0
141
12.0
290
     0
  0
SCALE
  5
29B
102
{ACAD_REACTORS
330
27D
102
}
330
27D
100
AcDbScale
 70
     0
300
1-1/2" = 1'-0"
140
1.5
141
12.0
290
     0
  0
SCALE
  5
29C
102
{ACAD_REACTORS
330
27D
102
}
330
27D
100
AcDbScale
 70
     0
300
3" = 1'-0"
140
3.0
141
12.0
290
     0
  0
SCALE
  5
29D
102
{ACAD_REACTORS
330
27D
102
}
330
27D
100
AcDbScale
 70
     0
300
6" = 1'-0"
140
6.0
141
12.0
290
     0
  0
SCALE
  5
29E
102
{ACAD_REACTORS
330
27D
102
}
330
27D
100
AcDbScale
 70
     0
300
1'-0" = 1'-0"
140
12.0
141
12.0
290
     0
  0
TABLESTYLE
  5
2A3
102
{ACAD_REACTORS
330
2A2
102
}
102
{ACAD_XDICTIONARY
360
2D8
102
}
330
2A2
100
AcDbTableStyle
  3
Standard
 70
     0
 71
     0
 40
0.06
 41
0.06
280
     0
281
     0
  7
STANDARD
140
4.5
170
     2
 62
     0
 63
   257
283
     0
 90
        4
 91
        0
  1

274
    -2
284
     1
 64
     0
275
    -2
285
     1
 65
     0
276
    -2
286
     1
 66
     0
277
    -2
287
     1
 67
     0
278
    -2
288
     1
 68
     0
279
    -2
289
     1
 69
     0
  7
STANDARD
140
6.0
170
     5
 62
     0
 63
   257
283
     0
 90
        4
 91
        0
  1

274
    -2
284
     1
 64
     0
275
    -2
285
     1
 65
     0
276
    -2
286
     1
 66
     0
277
    -2
287
     1
 67
     0
278
    -2
288
     1
 68
     0
279
    -2
289
     1
 69
     0
  7
STANDARD
140
4.5
170
     5
 62
     0
 63
   257
283
     0
 90
        4
 91
        0
  1

274
    -2
284
     1
 64
     0
275
    -2
285
     1
 65
     0
276
    -2
286
     1
 66
     0
277
    -2
287
     1
 67
     0
278
    -2
288
     1
 68
     0
279
    -2
289
     1
 69
     0
  0
VISUALSTYLE
  5
269
102
{ACAD_REACTORS
330
264
102
}
102
{ACAD_XDICTIONARY
360
2B0
102
}
330
264
100
AcDbVisualStyle
  2
2dWireframe
 70
     4
177
     2
291
     0
 71
     0
176
     1
 72
     2
176
     1
 73
     0
176
     1
 90
        0
176
     1
 40
0.6
176
     1
 41
30.0
176
     1
 62
     5
 63
     7
421
 16777215
176
     1
 74
     1
176
     1
 91
        4
176
     1
 64
     7
176
     1
 65
   257
176
     1
 75
     1
176
     1
175
     1
176
     1
 42
1.0
176
     1
 92
        0
176
     1
 66
   257
176
     1
 43
1.0
176
     1
 76
     1
176
     1
 77
     6
176
     1
 78
     2
176
     1
 67
     7
176
     1
 79
     5
176
     1
170
     0
176
     1
171
     0
176
     1
290
     0
176
     1
 93
        1
176
     1
 44
0.0
176
     1
173
     0
176
     1
  0
VISUALSTYLE
  5
26C
102
{ACAD_REACTORS
330
264
102
}
102
{ACAD_XDICTIONARY
360
2B6
102
}
330
264
100
AcDbVisualStyle
  2
Basic
 70
     7
177
     2
291
     1
 71
     1
176
     1
 72
     0
176
     1
 73
     1
176
     1
 90
        0
176
     1
 40
0.6
176
     1
 41
30.0
176
     1
 62
     5
 63
     7
421
 16777215
176
     1
 74
     0
176
     1
 91
        4
176
     1
 64
     7
176
     1
 65
   257
176
     1
 75
     1
176
     1
175
     1
176
     1
 42
1.0
176
     1
 92
        8
176
     1
 66
     7
176
     1
 43
1.0
176
     1
 76
     1
176
     1
 77
     6
176
     1
 78
     2
176
     1
 67
     7
176
     1
 79
     5
176
     1
170
     0
176
     1
171
     0
176
     1
290
     0
176
     1
 93
        1
176
     1
 44
0.0
176
     1
173
     0
176
     1
  0
VISUALSTYLE
  5
270
102
{ACAD_REACTORS
330
264
102
}
102
{ACAD_XDICTIONARY
360
2BE
102
}
330
264
100
AcDbVisualStyle
  2
Brighten
 70
    12
177
     2
291
     1
 71
     2
176
     1
 72
     2
176
     1
 73
     0
176
     1
 90
        0
176
     1
 40
0.6
176
     1
 41
30.0
176
     1
 62
     5
 63
     7
421
 16777215
176
     1
 74
     1
176
     1
 91
        4
176
     1
 64
     7
176
     1
 65
   257
176
     1
 75
     1
176
     1
175
     1
176
     1
 42
1.0
176
     1
 92
        8
176
     1
 66
     7
176
     1
 43
1.0
176
     1
 76
     1
176
     1
 77
     6
176
     1
 78
     2
176
     1
 67
     7
176
     1
 79
     5
176
     1
170
     0
176
     1
171
     0
176
     1
290
     0
176
     1
 93
        1
176
     1
 44
50.0
176
     1
173
     0
176
     1
  0
VISUALSTYLE
  5
274
102
{ACAD_REACTORS
330
264
102
}
102
{ACAD_XDICTIONARY
360
2C6
102
}
330
264
100
AcDbVisualStyle
  2
ColorChange
 70
    16
177
     2
291
     1
 71
     2
176
     1
 72
     2
176
     1
 73
     3
176
     1
 90
        0
176
     1
 40
0.6
176
     1
 41
30.0
176
     1
 62
     5
 63
     8
421
  8421504
176
     1
 74
     1
176
     1
 91
        4
176
     1
 64
     7
176
     1
 65
   257
176
     1
 75
     1
176
     1
175
     1
176
     1
 42
1.0
176
     1
 92
        8
176
     1
 66
     8
424
  8421504
176
     1
 43
1.0
176
     1
 76
     1
176
     1
 77
     6
176
     1
 78
     2
176
     1
 67
     7
176
     1
 79
     5
176
     1
170
     0
176
     1
171
     0
176
     1
290
     0
176
     1
 93
        1
176
     1
 44
0.0
176
     1
173
     0
176
     1
  0
VISUALSTYLE
  5
26E
102
{ACAD_REACTORS
330
264
102
}
102
{ACAD_XDICTIONARY
360
2BA
102
}
330
264
100
AcDbVisualStyle
  2
Conceptual
 70
     9
177
     2
291
     0
 71
     3
176
     1
 72
     2
176
     1
 73
     0
176
     1
 90
        0
176
     1
 40
0.6
176
     1
 41
30.0
176
     1
 62
     5
 63
     7
421
 16777215
176
     1
 74
     2
176
     1
 91
        2
176
     1
 64
     7
176
     1
 65
   257
176
     1
 75
     1
176
     1
175
     1
176
     1
 42
179.0
176
     1
 92
        8
176
     1
 66
     7
176
     1
 43
1.0
176
     1
 76
     1
176
     1
 77
     6
176
     1
 78
     2
176
     1
 67
     7
176
     1
 79
     3
176
     1
170
     0
176
     1
171
     0
176
     1
290
     0
176
     1
 93
        1
176
     1
 44
0.0
176
     1
173
     0
176
     1
  0
VISUALSTYLE
  5
26F
102
{ACAD_REACTORS
330
264
102
}
102
{ACAD_XDICTIONARY
360
2BC
102
}
330
264
100
AcDbVisualStyle
  2
Dim
 70
    11
177
     2
291
     1
 71
     2
176
     1
 72
     2
176
     1
 73
     0
176
     1
 90
        0
176
     1
 40
0.6
176
     1
 41
30.0
176
     1
 62
     5
 63
     7
421
 16777215
176
     1
 74
     1
176
     1
 91
        4
176
     1
 64
     7
176
     1
 65
   257
176
     1
 75
     1
176
     1
175
     1
176
     1
 42
1.0
176
     1
 92
        8
176
     1
 66
     7
176
     1
 43
1.0
176
     1
 76
     1
176
     1
 77
     6
176
     1
 78
     2
176
     1
 67
     7
176
     1
 79
     5
176
     1
170
     0
176
     1
171
     0
176
     1
290
     0
176
     1
 93
        1
176
     1
 44
-50.0
176
     1
173
     0
176
     1
  0
VISUALSTYLE
  5
277
102
{ACAD_REACTORS
330
264
102
}
102
{ACAD_XDICTIONARY
360
2CC
102
}
330
264
100
AcDbVisualStyle
  2
EdgeColorOff
 70
    22
177
     2
291
     1
 71
     2
176
     0
 72
     2
176
     0
 73
     0
176
     0
 90
        0
176
     0
 40
0.6
176
     0
 41
30.0
176
     0
 62
     5
 63
     7
421
 16777215
176
     0
 74
     1
176
     0
 91
        4
176
     0
 64
     7
176
     0
 65
   257
176
     0
 75
     1
176
     0
175
     1
176
     0
 42
1.0
176
     0
 92
        8
176
     2
 66
     7
176
     0
 43
1.0
176
     0
 76
     1
176
     0
 77
     6
176
     0
 78
     2
176
     0
 67
     7
176
     0
 79
     5
176
     0
170
     0
176
     0
171
     0
176
     0
290
     0
176
     0
 93
        1
176
     0
 44
0.0
176
     0
173
     0
176
     0
  0
VISUALSTYLE
  5
273
102
{ACAD_REACTORS
330
264
102
}
102
{ACAD_XDICTIONARY
360
2C4
102
}
330
264
100
AcDbVisualStyle
  2
Facepattern
 70
    15
177
     2
291
     1
 71
     2
176
     1
 72
     2
176
     1
 73
     0
176
     1
 90
        0
176
     1
 40
0.6
176
     1
 41
30.0
176
     1
 62
     5
 63
     7
421
 16777215
176
     1
 74
     1
176
     1
 91
        4
176
     1
 64
     7
176
     1
 65
   257
176
     1
 75
     1
176
     1
175
     1
176
     1
 42
1.0
176
     1
 92
        8
176
     1
 66
     7
176
     1
 43
1.0
176
     1
 76
     1
176
     1
 77
     6
176
     1
 78
     2
176
     1
 67
     7
176
     1
 79
     5
176
     1
170
     0
176
     1
171
     0
176
     1
290
     0
176
     1
 93
        1
176
     1
 44
0.0
176
     1
173
     0
176
     1
  0
VISUALSTYLE
  5
265
102
{ACAD_REACTORS
330
264
102
}
102
{ACAD_XDICTIONARY
360
2A8
102
}
330
264
100
AcDbVisualStyle
  2
Flat
 70
     0
177
     2
291
     1
 71
     2
176
     1
 72
     1
176
     1
 73
     1
176
     1
 90
        2
176
     1
 40
0.6
176
     1
 41
30.0
176
     1
 62
     5
 63
     7
421
 16777215
176
     1
 74
     0
176
     1
 91
        0
176
     1
 64
     7
176
     1
 65
   257
176
     1
 75
     1
176
     1
175
     1
176
     1
 42
1.0
176
     1
 92
        8
176
     1
 66
     7
176
     1
 43
1.0
176
     1
 76
     1
176
     1
 77
     6
176
     1
 78
     2
176
     1
 67
     7
176
     1
 79
     5
176
     1
170
     0
176
     1
171
     0
176
     1
290
     0
176
     1
 93
       13
176
     1
 44
0.0
176
     1
173
     0
176
     1
  0
VISUALSTYLE
  5
266
102
{ACAD_REACTORS
330
264
102
}
102
{ACAD_XDICTIONARY
360
2AA
102
}
330
264
100
AcDbVisualStyle
  2
FlatWithEdges
 70
     1
177
     2
291
     1
 71
     2
176
     1
 72
     1
176
     1
 73
     1
176
     1
 90
        2
176
     1
 40
0.6
176
     1
 41
30.0
176
     1
 62
     5
 63
     7
421
 16777215
176
     1
 74
     1
176
     1
 91
        0
176
     1
 64
     7
176
     1
 65
   257
176
     1
 75
     1
176
     1
175
     1
176
     1
 42
1.0
176
     1
 92
        0
176
     1
 66
   257
176
     1
 43
1.0
176
     1
 76
     1
176
     1
 77
     6
176
     1
 78
     2
176
     1
 67
     7
176
     1
 79
     5
176
     1
170
     0
176
     1
171
     0
176
     1
290
     0
176
     1
 93
       13
176
     1
 44
0.0
176
     1
173
     0
176
     1
  0
VISUALSTYLE
  5
267
102
{ACAD_REACTORS
330
264
102
}
102
{ACAD_XDICTIONARY
360
2AC
102
}
330
264
100
AcDbVisualStyle
  2
Gouraud
 70
     2
177
     2
291
     1
 71
     2
176
     1
 72
     2
176
     1
 73
     1
176
     1
 90
        2
176
     1
 40
0.6
176
     1
 41
30.0
176
     1
 62
     5
 63
     7
421
 16777215
176
     1
 74
     0
176
     1
 91
        0
176
     1
 64
     7
176
     1
 65
   257
176
     1
 75
     1
176
     1
175
     1
176
     1
 42
1.0
176
     1
 92
        0
176
     1
 66
     7
176
     1
 43
1.0
176
     1
 76
     1
176
     1
 77
     6
176
     1
 78
     2
176
     1
 67
     7
176
     1
 79
     5
176
     1
170
     0
176
     1
171
     0
176
     1
290
     0
176
     1
 93
       13
176
     1
 44
0.0
176
     1
173
     0
176
     1
  0
VISUALSTYLE
  5
268
102
{ACAD_REACTORS
330
264
102
}
102
{ACAD_XDICTIONARY
360
2AE
102
}
330
264
100
AcDbVisualStyle
  2
GouraudWithEdges
 70
     3
177
     2
291
     1
 71
     2
176
     1
 72
     2
176
     1
 73
     1
176
     1
 90
        2
176
     1
 40
0.6
176
     1
 41
30.0
176
     1
 62
     5
 63
     7
421
 16777215
176
     1
 74
     1
176
     1
 91
        0
176
     1
 64
     7
176
     1
 65
   257
176
     1
 75
     1
176
     1
175
     1
176
     1
 42
1.0
176
     1
 92
        0
176
     1
 66
   257
176
     1
 43
1.0
176
     1
 76
     1
176
     1
 77
     6
176
     1
 78
     2
176
     1
 67
     7
176
     1
 79
     5
176
     1
170
     0
176
     1
171
     0
176
     1
290
     0
176
     1
 93
       13
176
     1
 44
0.0
176
     1
173
     0
176
     1
  0
VISUALSTYLE
  5
26B
102
{ACAD_REACTORS
330
264
102
}
102
{ACAD_XDICTIONARY
360
2B4
102
}
330
264
100
AcDbVisualStyle
  2
Hidden
 70
     6
177
     2
291
     0
 71
     1
176
     1
 72
     2
176
     1
 73
     2
176
     1
 90
        0
176
     1
 40
0.6
176
     1
 41
30.0
176
     1
 62
     5
 63
     7
421
 16777215
176
     1
 74
     2
176
     1
 91
        2
176
     1
 64
     7
176
     1
 65
   257
176
     1
 75
     2
176
     1
175
     1
176
     1
 42
40.0
176
     1
 92
        0
176
     1
 66
   257
176
     1
 43
1.0
176
     1
 76
     1
176
     1
 77
     6
176
     1
 78
     2
176
     1
 67
     7
176
     1
 79
     3
176
     1
170
     0
176
     1
171
     0
176
     1
290
     0
176
     1
 93
        1
176
     1
 44
0.0
176
     1
173
     0
176
     1
  0
VISUALSTYLE
  5
275
102
{ACAD_REACTORS
330
264
102
}
102
{ACAD_XDICTIONARY
360
2C8
102
}
330
264
100
AcDbVisualStyle
  2
JitterOff
 70
    20
177
     2
291
     1
 71
     2
176
     0
 72
     2
176
     0
 73
     0
176
     0
 90
        0
176
     0
 40
0.6
176
     0
 41
30.0
176
     0
 62
     5
 63
     7
421
 16777215
176
     0
 74
     1
176
     0
 91
        4
176
     0
 64
     7
176
     0
 65
   257
176
     0
 75
     1
176
     0
175
     1
176
     0
 42
1.0
176
     0
 92
       10
176
     2
 66
     7
176
     0
 43
1.0
176
     0
 76
     1
176
     0
 77
     6
176
     0
 78
     2
176
     0
 67
     7
176
     0
 79
     5
176
     0
170
     0
176
     0
171
     0
176
     0
290
     0
176
     0
 93
        1
176
     0
 44
0.0
176
     0
173
     0
176
     0
  0
VISUALSTYLE
  5
272
102
{ACAD_REACTORS
330
264
102
}
102
{ACAD_XDICTIONARY
360
2C2
102
}
330
264
100
AcDbVisualStyle
  2
Linepattern
 70
    14
177
     2
291
     1
 71
     2
176
     1
 72
     2
176
     1
 73
     0
176
     1
 90
        0
176
     1
 40
0.6
176
     1
 41
30.0
176
     1
 62
     5
 63
     7
421
 16777215
176
     1
 74
     1
176
     1
 91
        4
176
     1
 64
     7
176
     1
 65
   257
176
     1
 75
     7
176
     1
175
     7
176
     1
 42
1.0
176
     1
 92
        8
176
     1
 66
     7
176
     1
 43
1.0
176
     1
 76
     1
176
     1
 77
     6
176
     1
 78
     2
176
     1
 67
     7
176
     1
 79
     5
176
     1
170
     0
176
     1
171
     0
176
     1
290
     0
176
     1
 93
        1
176
     1
 44
0.0
176
     1
173
     0
176
     1
  0
VISUALSTYLE
  5
276
102
{ACAD_REACTORS
330
264
102
}
102
{ACAD_XDICTIONARY
360
2CA
102
}
330
264
100
AcDbVisualStyle
  2
OverhangOff
 70
    21
177
     2
291
     1
 71
     2
176
     0
 72
     2
176
     0
 73
     0
176
     0
 90
        0
176
     0
 40
0.6
176
     0
 41
30.0
176
     0
 62
     5
 63
     7
421
 16777215
176
     0
 74
     1
176
     0
 91
        4
176
     0
 64
     7
176
     0
 65
   257
176
     0
 75
     1
176
     0
175
     1
176
     0
 42
1.0
176
     0
 92
        9
176
     2
 66
     7
176
     0
 43
1.0
176
     0
 76
     1
176
     0
 77
     6
176
     0
 78
     2
176
     0
 67
     7
176
     0
 79
     5
176
     0
170
     0
176
     0
171
     0
176
     0
290
     0
176
     0
 93
        1
176
     0
 44
0.0
176
     0
173
     0
176
     0
  0
VISUALSTYLE
  5
26D
102
{ACAD_REACTORS
330
264
102
}
102
{ACAD_XDICTIONARY
360
2B8
102
}
330
264
100
AcDbVisualStyle
  2
Realistic
 70
     8
177
     2
291
     0
 71
     2
176
     1
 72
     3
176
     1
 73
     0
176
     1
 90
        2
176
     1
 40
0.6
176
     1
 41
30.0
176
     1
 62
     5
 63
     7
421
 16777215
176
     1
 74
     0
176
     1
 91
        0
176
     1
 64
     7
176
     1
 65
   257
176
     1
 75
     1
176
     1
175
     1
176
     1
 42
1.0
176
     1
 92
        8
176
     1
 66
   257
176
     1
 43
1.0
176
     1
 76
     1
176
     1
 77
     6
176
     1
 78
     2
176
     1
 67
     7
176
     1
 79
     3
176
     1
170
     0
176
     1
171
     0
176
     1
290
     0
176
     1
 93
       13
176
     1
 44
0.0
176
     1
173
     0
176
     1
  0
VISUALSTYLE
  5
27C
102
{ACAD_REACTORS
330
264
102
}
102
{ACAD_XDICTIONARY
360
2D6
102
}
330
264
100
AcDbVisualStyle
  2
Shaded
 70
    27
177
     2
291
     0
 71
     2
176
     1
 72
     2
176
     1
 73
     1
176
     1
 90
        2
176
     1
 40
0.6
176
     1
 41
30.0
176
     1
 62
     5
 63
     7
421
 16777215
176
     1
 74
     0
176
     1
 91
        4
176
     1
 64
     7
176
     1
 65
   257
176
     1
 75
     1
176
     1
175
     1
176
     1
 42
1.0
176
     1
 92
        8
176
     1
 66
   257
176
     1
 43
1.0
176
     1
 76
     1
176
     1
 77
     6
176
     1
 78
     2
176
     1
 67
     8
425
  7895160
176
     1
 79
     3
176
     1
170
     0
176
     1
171
     0
176
     1
290
     0
176
     1
 93
        5
176
     1
 44
0.0
176
     1
173
     0
176
     1
  0
VISUALSTYLE
  5
27B
102
{ACAD_REACTORS
330
264
102
}
102
{ACAD_XDICTIONARY
360
2D4
102
}
330
264
100
AcDbVisualStyle
  2
Shaded with edges
 70
    26
177
     2
291
     0
 71
     2
176
     1
 72
     2
176
     1
 73
     1
176
     1
 90
        2
176
     1
 40
0.6
176
     1
 41
30.0
176
     1
 62
     5
 63
     7
421
 16777215
176
     1
 74
     1
176
     1
 91
       10
176
     1
 64
     7
176
     1
 65
   257
176
     1
 75
     2
176
     1
175
     1
176
     1
 42
1.0
176
     1
 92
        8
176
     1
 66
   257
176
     1
 43
1.0
176
     1
 76
     1
176
     1
 77
     6
176
     1
 78
     2
176
     1
 67
     7
176
     1
 79
     3
176
     1
170
     0
176
     1
171
     0
176
     1
290
     0
176
     1
 93
        5
176
     1
 44
0.0
176
     1
173
     0
176
     1
  0
VISUALSTYLE
  5
278
102
{ACAD_REACTORS
330
264
102
}
102
{ACAD_XDICTIONARY
360
2CE
102
}
330
264
100
AcDbVisualStyle
  2
Shades of Gray
 70
    23
177
     2
291
     0
 71
     2
176
     1
 72
     2
176
     1
 73
     3
176
     1
 90
        0
176
     1
 40
0.6
176
     1
 41
30.0
176
     1
 62
     5
 63
     7
421
 16777215
176
     1
 74
     2
176
     1
 91
        2
176
     1
 64
     7
176
     1
 65
     7
176
     1
 75
     1
176
     1
175
     1
176
     1
 42
40.0
176
     1
 92
        8
176
     1
 66
     7
176
     1
 43
1.0
176
     1
 76
     1
176
     1
 77
     6
176
     1
 78
     2
176
     1
 67
     7
176
     1
 79
     3
176
     1
170
     0
176
     1
171
     0
176
     1
290
     0
176
     1
 93
        1
176
     1
 44
0.0
176
     1
173
     0
176
     1
  0
VISUALSTYLE
  5
279
102
{ACAD_REACTORS
330
264
102
}
102
{ACAD_XDICTIONARY
360
2D0
102
}
330
264
100
AcDbVisualStyle
  2
Sketchy
 70
    24
177
     2
291
     0
 71
     1
176
     1
 72
     2
176
     1
 73
     2
176
     1
 90
        0
176
     1
 40
0.6
176
     1
 41
30.0
176
     1
 62
     5
 63
     7
421
 16777215
176
     1
 74
     2
176
     1
 91
        2
176
     1
 64
     7
176
     1
 65
     7
176
     1
 75
     1
176
     1
175
     1
176
     1
 42
40.0
176
     1
 92
       11
176
     1
 66
     7
176
     1
 43
1.0
176
     1
 76
     1
176
     1
 77
     6
176
     1
 78
     2
176
     1
 67
     7
176
     1
 79
     6
176
     1
170
     0
176
     1
171
     0
176
     1
290
     0
176
     1
 93
        1
176
     1
 44
0.0
176
     1
173
     0
176
     1
  0
VISUALSTYLE
  5
271
102
{ACAD_REACTORS
330
264
102
}
102
{ACAD_XDICTIONARY
360
2C0
102
}
330
264
100
AcDbVisualStyle
  2
Thicken
 70
    13
177
     2
291
     1
 71
     2
176
     1
 72
     2
176
     1
 73
     0
176
     1
 90
        0
176
     1
 40
0.6
176
     1
 41
30.0
176
     1
 62
     5
 63
     7
421
 16777215
176
     1
 74
     1
176
     1
 91
        4
176
     1
 64
     7
176
     1
 65
   257
176
     1
 75
     1
176
     1
175
     1
176
     1
 42
1.0
176
     1
 92
       12
176
     1
 66
     7
176
     1
 43
1.0
176
     1
 76
     1
176
     1
 77
     6
176
     1
 78
     2
176
     1
 67
     7
176
     1
 79
     5
176
     1
170
     0
176
     1
171
     0
176
     1
290
     0
176
     1
 93
        1
176
     1
 44
0.0
176
     1
173
     0
176
     1
  0
VISUALSTYLE
  5
26A
102
{ACAD_REACTORS
330
264
102
}
102
{ACAD_XDICTIONARY
360
2B2
102
}
330
264
100
AcDbVisualStyle
  2
Wireframe
 70
     5
177
     2
291
     0
 71
     0
176
     1
 72
     2
176
     1
 73
     0
176
     1
 90
        0
176
     1
 40
0.6
176
     1
 41
30.0
176
     1
 62
     5
 63
     7
421
 16777215
176
     1
 74
     1
176
     1
 91
        4
176
     1
 64
     7
176
     1
 65
   257
176
     1
 75
     1
176
     1
175
     1
176
     1
 42
1.0
176
     1
 92
        0
176
     1
 66
   257
176
     1
 43
1.0
176
     1
 76
     1
176
     1
 77
     6
176
     1
 78
     2
176
     1
 67
     7
176
     1
 79
     3
176
     1
170
     0
176
     1
171
     0
176
     1
290
     0
176
     1
 93
        1
176
     1
 44
0.0
176
     1
173
     0
176
     1
  0
VISUALSTYLE
  5
27A
102
{ACAD_REACTORS
330
264
102
}
102
{ACAD_XDICTIONARY
360
2D2
102
}
330
264
100
AcDbVisualStyle
  2
X-Ray
 70
    25
177
     2
291
     0
 71
     2
176
     1
 72
     2
176
     1
 73
     1
176
     1
 90
        1
176
     1
 40
0.5
176
     1
 41
30.0
176
     1
 62
     5
 63
     7
421
 16777215
176
     1
 74
     1
176
     1
 91
        0
176
     1
 64
     7
176
     1
 65
   257
176
     1
 75
     1
176
     1
175
     1
176
     1
 42
1.0
176
     1
 92
        8
176
     1
 66
     7
176
     1
 43
1.0
176
     1
 76
     1
176
     1
 77
     6
176
     1
 78
     2
176
     1
 67
     7
176
     1
 79
     3
176
     1
170
     0
176
     1
171
     0
176
     1
290
     0
176
     1
 93
       13
176
     1
 44
0.0
176
     1
173
     0
176
     1
  0
DICTIONARYVAR
  5
2A7
102
{ACAD_REACTORS
330
2A6
102
}
330
2A6
100
DictionaryVariables
280
     0
  1
1:1
  0
DICTIONARYVAR
  5
2DC
102
{ACAD_REACTORS
330
2A6
102
}
330
2A6
100
DictionaryVariables
280
     0
  1
Standard
  0
DICTIONARYVAR
  5
2DB
102
{ACAD_REACTORS
330
2A6
102
}
330
2A6
100
DictionaryVariables
280
     0
  1
Standard
  0
DICTIONARYVAR
  5
2DD
102
{ACAD_REACTORS
330
2A6
102
}
330
2A6
100
DictionaryVariables
280
     0
  1
0
  0
DICTIONARYVAR
  5
2DE
102
{ACAD_REACTORS
330
2A6
102
}
330
2A6
100
DictionaryVariables
280
     0
  1
0
  0
DICTIONARY
  5
2D8
330
2A3
100
AcDbDictionary
280
     1
281
     1
  3
ACAD_ROUNDTRIP_2008_TABLESTYLE_CELLSTYLEMAP
360
2D9
  0
DICTIONARY
  5
2B0
330
269
100
AcDbDictionary
280
     1
281
     1
  3
ACAD_XREC_ROUNDTRIP
360
2B1
  0
DICTIONARY
  5
2B6
330
26C
100
AcDbDictionary
280
     1
281
     1
  3
ACAD_XREC_ROUNDTRIP
360
2B7
  0
DICTIONARY
  5
2BE
330
270
100
AcDbDictionary
280
     1
281
     1
  3
ACAD_XREC_ROUNDTRIP
360
2BF
  0
DICTIONARY
  5
2C6
330
274
100
AcDbDictionary
280
     1
281
     1
  3
ACAD_XREC_ROUNDTRIP
360
2C7
  0
DICTIONARY
  5
2BA
330
26E
100
AcDbDictionary
280
     1
281
     1
  3
ACAD_XREC_ROUNDTRIP
360
2BB
  0
DICTIONARY
  5
2BC
330
26F
100
AcDbDictionary
280
     1
281
     1
  3
ACAD_XREC_ROUNDTRIP
360
2BD
  0
DICTIONARY
  5
2CC
330
277
100
AcDbDictionary
280
     1
281
     1
  3
ACAD_XREC_ROUNDTRIP
360
2CD
  0
DICTIONARY
  5
2C4
330
273
100
AcDbDictionary
280
     1
281
     1
  3
ACAD_XREC_ROUNDTRIP
360
2C5
  0
DICTIONARY
  5
2A8
330
265
100
AcDbDictionary
280
     1
281
     1
  3
ACAD_XREC_ROUNDTRIP
360
2A9
  0
DICTIONARY
  5
2AA
330
266
100
AcDbDictionary
280
     1
281
     1
  3
ACAD_XREC_ROUNDTRIP
360
2AB
  0
DICTIONARY
  5
2AC
330
267
100
AcDbDictionary
280
     1
281
     1
  3
ACAD_XREC_ROUNDTRIP
360
2AD
  0
DICTIONARY
  5
2AE
330
268
100
AcDbDictionary
280
     1
281
     1
  3
ACAD_XREC_ROUNDTRIP
360
2AF
  0
DICTIONARY
  5
2B4
330
26B
100
AcDbDictionary
280
     1
281
     1
  3
ACAD_XREC_ROUNDTRIP
360
2B5
  0
DICTIONARY
  5
2C8
330
275
100
AcDbDictionary
280
     1
281
     1
  3
ACAD_XREC_ROUNDTRIP
360
2C9
  0
DICTIONARY
  5
2C2
330
272
100
AcDbDictionary
280
     1
281
     1
  3
ACAD_XREC_ROUNDTRIP
360
2C3
  0
DICTIONARY
  5
2CA
330
276
100
AcDbDictionary
280
     1
281
     1
  3
ACAD_XREC_ROUNDTRIP
360
2CB
  0
DICTIONARY
  5
2B8
330
26D
100
AcDbDictionary
280
     1
281
     1
  3
ACAD_XREC_ROUNDTRIP
360
2B9
  0
DICTIONARY
  5
2D6
330
27C
100
AcDbDictionary
280
     1
281
     1
  3
ACAD_XREC_ROUNDTRIP
360
2D7
  0
DICTIONARY
  5
2D4
330
27B
100
AcDbDictionary
280
     1
281
     1
  3
ACAD_XREC_ROUNDTRIP
360
2D5
  0
DICTIONARY
  5
2CE
330
278
100
AcDbDictionary
280
     1
281
     1
  3
ACAD_XREC_ROUNDTRIP
360
2CF
  0
DICTIONARY
  5
2D0
330
279
100
AcDbDictionary
280
     1
281
     1
  3
ACAD_XREC_ROUNDTRIP
360
2D1
  0
DICTIONARY
  5
2C0
330
271
100
AcDbDictionary
280
     1
281
     1
  3
ACAD_XREC_ROUNDTRIP
360
2C1
  0
DICTIONARY
  5
2B2
330
26A
100
AcDbDictionary
280
     1
281
     1
  3
ACAD_XREC_ROUNDTRIP
360
2B3
  0
DICTIONARY
  5
2D2
330
27A
100
AcDbDictionary
280
     1
281
     1
  3
ACAD_XREC_ROUNDTRIP
360
2D3
  0
CELLSTYLEMAP
  5
2D9
102
{ACAD_REACTORS
330
2D8
102
}
330
2D8
100
AcDbCellStyleMap
 90
        3
300
CELLSTYLE
  1
TABLEFORMAT_BEGIN
 90
        5
170
     1
 91
        0
 92
    32768
 62
   257
 93
        1
300
CONTENTFORMAT
  1
CONTENTFORMAT_BEGIN
 90
        0
 91
        0
 92
        4
 93
        0
300

 40
0.0
140
1.0
 94
        5
 62
     0
340
F
144
6.0
309
CONTENTFORMAT_END
171
     1
301
MARGIN
  1
CELLMARGIN_BEGIN
 40
1.5
 40
1.5
 40
1.5
 40
1.5
 40
1.5
 40
1.5
309
CELLMARGIN_END
 94
        6
 95
        1
302
GRIDFORMAT
  1
GRIDFORMAT_BEGIN
 90
        0
 91
        1
 62
     0
 92
       -2
340
12
 93
        0
 40
0.045
309
GRIDFORMAT_END
 95
        2
302
GRIDFORMAT
  1
GRIDFORMAT_BEGIN
 90
        0
 91
        1
 62
     0
 92
       -2
340
12
 93
        0
 40
0.045
309
GRIDFORMAT_END
 95
        4
302
GRIDFORMAT
  1
GRIDFORMAT_BEGIN
 90
        0
 91
        1
 62
     0
 92
       -2
340
12
 93
        0
 40
0.045
309
GRIDFORMAT_END
 95
        8
302
GRIDFORMAT
  1
GRIDFORMAT_BEGIN
 90
        0
 91
        1
 62
     0
 92
       -2
340
12
 93
        0
 40
0.045
309
GRIDFORMAT_END
 95
       16
302
GRIDFORMAT
  1
GRIDFORMAT_BEGIN
 90
        0
 91
        1
 62
     0
 92
       -2
340
12
 93
        0
 40
0.045
309
GRIDFORMAT_END
 95
       32
302
GRIDFORMAT
  1
GRIDFORMAT_BEGIN
 90
        0
 91
        1
 62
     0
 92
       -2
340
12
 93
        0
 40
0.045
309
GRIDFORMAT_END
309
TABLEFORMAT_END
  1
CELLSTYLE_BEGIN
 90
        1
 91
        1
300
_TITLE
309
CELLSTYLE_END
300
CELLSTYLE
  1
TABLEFORMAT_BEGIN
 90
        5
170
     1
 91
        0
 92
        0
 62
   257
 93
        1
300
CONTENTFORMAT
  1
CONTENTFORMAT_BEGIN
 90
        0
 91
        0
 92
        4
 93
        0
300

 40
0.0
140
1.0
 94
        5
 62
     0
340
F
144
4.5
309
CONTENTFORMAT_END
171
     1
301
MARGIN
  1
CELLMARGIN_BEGIN
 40
1.5
 40
1.5
 40
1.5
 40
1.5
 40
1.5
 40
1.5
309
CELLMARGIN_END
 94
        6
 95
        1
302
GRIDFORMAT
  1
GRIDFORMAT_BEGIN
 90
        0
 91
        1
 62
     0
 92
       -2
340
12
 93
        0
 40
0.045
309
GRIDFORMAT_END
 95
        2
302
GRIDFORMAT
  1
GRIDFORMAT_BEGIN
 90
        0
 91
        1
 62
     0
 92
       -2
340
12
 93
        0
 40
0.045
309
GRIDFORMAT_END
 95
        4
302
GRIDFORMAT
  1
GRIDFORMAT_BEGIN
 90
        0
 91
        1
 62
     0
 92
       -2
340
12
 93
        0
 40
0.045
309
GRIDFORMAT_END
 95
        8
302
GRIDFORMAT
  1
GRIDFORMAT_BEGIN
 90
        0
 91
        1
 62
     0
 92
       -2
340
12
 93
        0
 40
0.045
309
GRIDFORMAT_END
 95
       16
302
GRIDFORMAT
  1
GRIDFORMAT_BEGIN
 90
        0
 91
        1
 62
     0
 92
       -2
340
12
 93
        0
 40
0.045
309
GRIDFORMAT_END
 95
       32
302
GRIDFORMAT
  1
GRIDFORMAT_BEGIN
 90
        0
 91
        1
 62
     0
 92
       -2
340
12
 93
        0
 40
0.045
309
GRIDFORMAT_END
309
TABLEFORMAT_END
  1
CELLSTYLE_BEGIN
 90
        2
 91
        1
300
_HEADER
309
CELLSTYLE_END
300
CELLSTYLE
  1
TABLEFORMAT_BEGIN
 90
        5
170
     1
 91
        0
 92
        0
 62
   257
 93
        1
300
CONTENTFORMAT
  1
CONTENTFORMAT_BEGIN
 90
        0
 91
        0
 92
        4
 93
        0
300

 40
0.0
140
1.0
 94
        2
 62
     0
340
F
144
4.5
309
CONTENTFORMAT_END
171
     1
301
MARGIN
  1
CELLMARGIN_BEGIN
 40
1.5
 40
1.5
 40
1.5
 40
1.5
 40
1.5
 40
1.5
309
CELLMARGIN_END
 94
        6
 95
        1
302
GRIDFORMAT
  1
GRIDFORMAT_BEGIN
 90
        0
 91
        1
 62
     0
 92
       -2
340
12
 93
        0
 40
0.045
309
GRIDFORMAT_END
 95
        2
302
GRIDFORMAT
  1
GRIDFORMAT_BEGIN
 90
        0
 91
        1
 62
     0
 92
       -2
340
12
 93
        0
 40
0.045
309
GRIDFORMAT_END
 95
        4
302
GRIDFORMAT
  1
GRIDFORMAT_BEGIN
 90
        0
 91
        1
 62
     0
 92
       -2
340
12
 93
        0
 40
0.045
309
GRIDFORMAT_END
 95
        8
302
GRIDFORMAT
  1
GRIDFORMAT_BEGIN
 90
        0
 91
        1
 62
     0
 92
       -2
340
12
 93
        0
 40
0.045
309
GRIDFORMAT_END
 95
       16
302
GRIDFORMAT
  1
GRIDFORMAT_BEGIN
 90
        0
 91
        1
 62
     0
 92
       -2
340
12
 93
        0
 40
0.045
309
GRIDFORMAT_END
 95
       32
302
GRIDFORMAT
  1
GRIDFORMAT_BEGIN
 90
        0
 91
        1
 62
     0
 92
       -2
340
12
 93
        0
 40
0.045
309
GRIDFORMAT_END
309
TABLEFORMAT_END
  1
CELLSTYLE_BEGIN
 90
        3
 91
        2
300
_DATA
309
CELLSTYLE_END
  0
XRECORD
  5
2B1
102
{ACAD_REACTORS
330
2B0
102
}
330
2B0
100
AcDbXrecord
280
     1
102
RTVSPost2010Prop28
280
     1
102
RTVSPost2010PropOp28
 70
     1
102
RTVSPost2010Prop29
280
     1
102
RTVSPost2010PropOp29
 70
     1
102
RTVSPost2010Prop30
280
     0
102
RTVSPost2010PropOp30
 70
     1
102
RTVSPost2010Prop31
280
     0
102
RTVSPost2010PropOp31
 70
     1
102
RTVSPost2010Prop32
280
     0
102
RTVSPost2010PropOp32
 70
     1
102
RTVSPost2010Prop33
280
     0
102
RTVSPost2010PropOp33
 70
     1
102
RTVSPost2010Prop34
280
     0
102
RTVSPost2010PropOp34
 70
     1
102
RTVSPost2010Prop35
280
     0
102
RTVSPost2010PropOp35
 70
     1
102
RTVSPost2010Prop36
280
     0
102
RTVSPost2010PropOp36
 70
     1
102
RTVSPost2010Prop37
 90
       50
102
RTVSPost2010PropOp37
 70
     1
102
RTVSPost2010Prop38
140
0.0
102
RTVSPost2010PropOp38
 70
     1
102
RTVSPost2010Prop39
140
1.0
102
RTVSPost2010PropOp39
 70
     1
102
RTVSPost2010Prop40
 90
        0
102
RTVSPost2010PropOp40
 70
     1
102
RTVSPost2010Prop41ColorIndex
 90
       18
102
RTVSPost2010Prop41ColorRGB
 90
        0
102
RTVSPost2010PropOp41
 70
     1
102
RTVSPost2010Prop42
 90
       50
102
RTVSPost2010PropOp42
 70
     1
102
RTVSPost2010Prop43
 90
        3
102
RTVSPost2010PropOp43
 70
     1
102
RTVSPost2010Prop44ColorIndex
 90
        5
102
RTVSPost2010Prop44ColorRGB
 90
      255
102
RTVSPost2010PropOp44
 70
     1
102
RTVSPost2010Prop45
280
     0
102
RTVSPost2010PropOp45
 70
     1
102
RTVSPost2010Prop46
 90
       50
102
RTVSPost2010PropOp46
 70
     1
102
RTVSPost2010Prop47
 90
       50
102
RTVSPost2010PropOp47
 70
     1
102
RTVSPost2010Prop48
 90
       50
102
RTVSPost2010PropOp48
 70
     1
102
RTVSPost2010Prop49
280
     0
102
RTVSPost2010PropOp49
 70
     1
102
RTVSPost2010Prop50
 90
       50
102
RTVSPost2010PropOp50
 70
     1
102
RTVSPost2010Prop51ColorIndex
 90
      256
102
RTVSPost2010Prop51ColorRGB
 90
-16777216
102
RTVSPost2010PropOp51
 70
     0
102
RTVSPost2010Prop52
140
1.0
102
RTVSPost2010PropOp52
 70
     0
102
RTVSPost2010Prop53
 90
        2
102
RTVSPost2010PropOp53
 70
     1
102
RTVSPost2010Prop54
  1
strokes_ogs.tif
102
RTVSPost2010PropOp54
 70
     1
102
RTVSPost2010Prop55
280
     0
102
RTVSPost2010PropOp55
 70
     1
102
RTVSPost2010Prop56
140
1.0
102
RTVSPost2010PropOp56
 70
     1
102
RTVSPost2010Prop57
140
1.0
102
RTVSPost2010PropOp57
 70
     1
  0
XRECORD
  5
2B7
102
{ACAD_REACTORS
330
2B6
102
}
330
2B6
100
AcDbXrecord
280
     1
102
RTVSPost2010Prop28
280
     0
102
RTVSPost2010PropOp28
 70
     1
102
RTVSPost2010Prop29
280
     1
102
RTVSPost2010PropOp29
 70
     1
102
RTVSPost2010Prop30
280
     1
102
RTVSPost2010PropOp30
 70
     1
102
RTVSPost2010Prop31
280
     0
102
RTVSPost2010PropOp31
 70
     1
102
RTVSPost2010Prop32
280
     0
102
RTVSPost2010PropOp32
 70
     1
102
RTVSPost2010Prop33
280
     0
102
RTVSPost2010PropOp33
 70
     1
102
RTVSPost2010Prop34
280
     0
102
RTVSPost2010PropOp34
 70
     1
102
RTVSPost2010Prop35
280
     0
102
RTVSPost2010PropOp35
 70
     1
102
RTVSPost2010Prop36
280
     0
102
RTVSPost2010PropOp36
 70
     1
102
RTVSPost2010Prop37
 90
       50
102
RTVSPost2010PropOp37
 70
     1
102
RTVSPost2010Prop38
140
0.0
102
RTVSPost2010PropOp38
 70
     1
102
RTVSPost2010Prop39
140
1.0
102
RTVSPost2010PropOp39
 70
     1
102
RTVSPost2010Prop40
 90
        0
102
RTVSPost2010PropOp40
 70
     1
102
RTVSPost2010Prop41ColorIndex
 90
       18
102
RTVSPost2010Prop41ColorRGB
 90
        0
102
RTVSPost2010PropOp41
 70
     1
102
RTVSPost2010Prop42
 90
       50
102
RTVSPost2010PropOp42
 70
     1
102
RTVSPost2010Prop43
 90
        3
102
RTVSPost2010PropOp43
 70
     1
102
RTVSPost2010Prop44ColorIndex
 90
        5
102
RTVSPost2010Prop44ColorRGB
 90
      255
102
RTVSPost2010PropOp44
 70
     1
102
RTVSPost2010Prop45
280
     0
102
RTVSPost2010PropOp45
 70
     1
102
RTVSPost2010Prop46
 90
       50
102
RTVSPost2010PropOp46
 70
     1
102
RTVSPost2010Prop47
 90
       50
102
RTVSPost2010PropOp47
 70
     1
102
RTVSPost2010Prop48
 90
       50
102
RTVSPost2010PropOp48
 70
     1
102
RTVSPost2010Prop49
280
     0
102
RTVSPost2010PropOp49
 70
     1
102
RTVSPost2010Prop50
 90
       50
102
RTVSPost2010PropOp50
 70
     1
102
RTVSPost2010Prop51ColorIndex
 90
      256
102
RTVSPost2010Prop51ColorRGB
 90
-16777216
102
RTVSPost2010PropOp51
 70
     0
102
RTVSPost2010Prop52
140
1.0
102
RTVSPost2010PropOp52
 70
     0
102
RTVSPost2010Prop53
 90
        2
102
RTVSPost2010PropOp53
 70
     1
102
RTVSPost2010Prop54
  1
strokes_ogs.tif
102
RTVSPost2010PropOp54
 70
     1
102
RTVSPost2010Prop55
280
     0
102
RTVSPost2010PropOp55
 70
     1
102
RTVSPost2010Prop56
140
1.0
102
RTVSPost2010PropOp56
 70
     1
102
RTVSPost2010Prop57
140
1.0
102
RTVSPost2010PropOp57
 70
     1
  0
XRECORD
  5
2BF
102
{ACAD_REACTORS
330
2BE
102
}
330
2BE
100
AcDbXrecord
280
     1
102
RTVSPost2010Prop28
280
     0
102
RTVSPost2010PropOp28
 70
     1
102
RTVSPost2010Prop29
280
     1
102
RTVSPost2010PropOp29
 70
     1
102
RTVSPost2010Prop30
280
     1
102
RTVSPost2010PropOp30
 70
     1
102
RTVSPost2010Prop31
280
     0
102
RTVSPost2010PropOp31
 70
     1
102
RTVSPost2010Prop32
280
     0
102
RTVSPost2010PropOp32
 70
     1
102
RTVSPost2010Prop33
280
     0
102
RTVSPost2010PropOp33
 70
     1
102
RTVSPost2010Prop34
280
     0
102
RTVSPost2010PropOp34
 70
     1
102
RTVSPost2010Prop35
280
     0
102
RTVSPost2010PropOp35
 70
     1
102
RTVSPost2010Prop36
280
     0
102
RTVSPost2010PropOp36
 70
     1
102
RTVSPost2010Prop37
 90
       50
102
RTVSPost2010PropOp37
 70
     1
102
RTVSPost2010Prop38
140
0.0
102
RTVSPost2010PropOp38
 70
     1
102
RTVSPost2010Prop39
140
1.0
102
RTVSPost2010PropOp39
 70
     1
102
RTVSPost2010Prop40
 90
        0
102
RTVSPost2010PropOp40
 70
     1
102
RTVSPost2010Prop41ColorIndex
 90
       18
102
RTVSPost2010Prop41ColorRGB
 90
        0
102
RTVSPost2010PropOp41
 70
     1
102
RTVSPost2010Prop42
 90
       50
102
RTVSPost2010PropOp42
 70
     1
102
RTVSPost2010Prop43
 90
        3
102
RTVSPost2010PropOp43
 70
     1
102
RTVSPost2010Prop44ColorIndex
 90
        5
102
RTVSPost2010Prop44ColorRGB
 90
      255
102
RTVSPost2010PropOp44
 70
     1
102
RTVSPost2010Prop45
280
     0
102
RTVSPost2010PropOp45
 70
     1
102
RTVSPost2010Prop46
 90
       50
102
RTVSPost2010PropOp46
 70
     1
102
RTVSPost2010Prop47
 90
       50
102
RTVSPost2010PropOp47
 70
     1
102
RTVSPost2010Prop48
 90
       50
102
RTVSPost2010PropOp48
 70
     1
102
RTVSPost2010Prop49
280
     0
102
RTVSPost2010PropOp49
 70
     1
102
RTVSPost2010Prop50
 90
       50
102
RTVSPost2010PropOp50
 70
     1
102
RTVSPost2010Prop51ColorIndex
 90
      256
102
RTVSPost2010Prop51ColorRGB
 90
-16777216
102
RTVSPost2010PropOp51
 70
     0
102
RTVSPost2010Prop52
140
1.0
102
RTVSPost2010PropOp52
 70
     0
102
RTVSPost2010Prop53
 90
        2
102
RTVSPost2010PropOp53
 70
     1
102
RTVSPost2010Prop54
  1
strokes_ogs.tif
102
RTVSPost2010PropOp54
 70
     1
102
RTVSPost2010Prop55
280
     0
102
RTVSPost2010PropOp55
 70
     1
102
RTVSPost2010Prop56
140
1.0
102
RTVSPost2010PropOp56
 70
     1
102
RTVSPost2010Prop57
140
1.0
102
RTVSPost2010PropOp57
 70
     1
  0
XRECORD
  5
2C7
102
{ACAD_REACTORS
330
2C6
102
}
330
2C6
100
AcDbXrecord
280
     1
102
RTVSPost2010Prop28
280
     0
102
RTVSPost2010PropOp28
 70
     1
102
RTVSPost2010Prop29
280
     1
102
RTVSPost2010PropOp29
 70
     1
102
RTVSPost2010Prop30
280
     1
102
RTVSPost2010PropOp30
 70
     1
102
RTVSPost2010Prop31
280
     0
102
RTVSPost2010PropOp31
 70
     1
102
RTVSPost2010Prop32
280
     0
102
RTVSPost2010PropOp32
 70
     1
102
RTVSPost2010Prop33
280
     0
102
RTVSPost2010PropOp33
 70
     1
102
RTVSPost2010Prop34
280
     0
102
RTVSPost2010PropOp34
 70
     1
102
RTVSPost2010Prop35
280
     0
102
RTVSPost2010PropOp35
 70
     1
102
RTVSPost2010Prop36
280
     0
102
RTVSPost2010PropOp36
 70
     1
102
RTVSPost2010Prop37
 90
       50
102
RTVSPost2010PropOp37
 70
     1
102
RTVSPost2010Prop38
140
0.0
102
RTVSPost2010PropOp38
 70
     1
102
RTVSPost2010Prop39
140
1.0
102
RTVSPost2010PropOp39
 70
     1
102
RTVSPost2010Prop40
 90
        0
102
RTVSPost2010PropOp40
 70
     1
102
RTVSPost2010Prop41ColorIndex
 90
       18
102
RTVSPost2010Prop41ColorRGB
 90
        0
102
RTVSPost2010PropOp41
 70
     1
102
RTVSPost2010Prop42
 90
       50
102
RTVSPost2010PropOp42
 70
     1
102
RTVSPost2010Prop43
 90
        3
102
RTVSPost2010PropOp43
 70
     1
102
RTVSPost2010Prop44ColorIndex
 90
        5
102
RTVSPost2010Prop44ColorRGB
 90
      255
102
RTVSPost2010PropOp44
 70
     1
102
RTVSPost2010Prop45
280
     0
102
RTVSPost2010PropOp45
 70
     1
102
RTVSPost2010Prop46
 90
       50
102
RTVSPost2010PropOp46
 70
     1
102
RTVSPost2010Prop47
 90
       50
102
RTVSPost2010PropOp47
 70
     1
102
RTVSPost2010Prop48
 90
       50
102
RTVSPost2010PropOp48
 70
     1
102
RTVSPost2010Prop49
280
     0
102
RTVSPost2010PropOp49
 70
     1
102
RTVSPost2010Prop50
 90
       50
102
RTVSPost2010PropOp50
 70
     1
102
RTVSPost2010Prop51ColorIndex
 90
      256
102
RTVSPost2010Prop51ColorRGB
 90
-16777216
102
RTVSPost2010PropOp51
 70
     0
102
RTVSPost2010Prop52
140
1.0
102
RTVSPost2010PropOp52
 70
     0
102
RTVSPost2010Prop53
 90
        2
102
RTVSPost2010PropOp53
 70
     1
102
RTVSPost2010Prop54
  1
strokes_ogs.tif
102
RTVSPost2010PropOp54
 70
     1
102
RTVSPost2010Prop55
280
     0
102
RTVSPost2010PropOp55
 70
     1
102
RTVSPost2010Prop56
140
1.0
102
RTVSPost2010PropOp56
 70
     1
102
RTVSPost2010Prop57
140
1.0
102
RTVSPost2010PropOp57
 70
     1
  0
XRECORD
  5
2BB
102
{ACAD_REACTORS
330
2BA
102
}
330
2BA
100
AcDbXrecord
280
     1
102
RTVSPost2010Prop28
280
     0
102
RTVSPost2010PropOp28
 70
     1
102
RTVSPost2010Prop29
280
     1
102
RTVSPost2010PropOp29
 70
     1
102
RTVSPost2010Prop30
280
     1
102
RTVSPost2010PropOp30
 70
     1
102
RTVSPost2010Prop31
280
     0
102
RTVSPost2010PropOp31
 70
     1
102
RTVSPost2010Prop32
280
     0
102
RTVSPost2010PropOp32
 70
     1
102
RTVSPost2010Prop33
280
     0
102
RTVSPost2010PropOp33
 70
     1
102
RTVSPost2010Prop34
280
     0
102
RTVSPost2010PropOp34
 70
     1
102
RTVSPost2010Prop35
280
     0
102
RTVSPost2010PropOp35
 70
     1
102
RTVSPost2010Prop36
280
     0
102
RTVSPost2010PropOp36
 70
     1
102
RTVSPost2010Prop37
 90
       50
102
RTVSPost2010PropOp37
 70
     1
102
RTVSPost2010Prop38
140
0.0
102
RTVSPost2010PropOp38
 70
     1
102
RTVSPost2010Prop39
140
1.0
102
RTVSPost2010PropOp39
 70
     1
102
RTVSPost2010Prop40
 90
        0
102
RTVSPost2010PropOp40
 70
     1
102
RTVSPost2010Prop41ColorIndex
 90
       18
102
RTVSPost2010Prop41ColorRGB
 90
        0
102
RTVSPost2010PropOp41
 70
     1
102
RTVSPost2010Prop42
 90
       50
102
RTVSPost2010PropOp42
 70
     1
102
RTVSPost2010Prop43
 90
        3
102
RTVSPost2010PropOp43
 70
     1
102
RTVSPost2010Prop44ColorIndex
 90
        5
102
RTVSPost2010Prop44ColorRGB
 90
      255
102
RTVSPost2010PropOp44
 70
     1
102
RTVSPost2010Prop45
280
     0
102
RTVSPost2010PropOp45
 70
     1
102
RTVSPost2010Prop46
 90
       50
102
RTVSPost2010PropOp46
 70
     1
102
RTVSPost2010Prop47
 90
       50
102
RTVSPost2010PropOp47
 70
     1
102
RTVSPost2010Prop48
 90
       50
102
RTVSPost2010PropOp48
 70
     1
102
RTVSPost2010Prop49
280
     0
102
RTVSPost2010PropOp49
 70
     1
102
RTVSPost2010Prop50
 90
       50
102
RTVSPost2010PropOp50
 70
     1
102
RTVSPost2010Prop51ColorIndex
 90
      256
102
RTVSPost2010Prop51ColorRGB
 90
-16777216
102
RTVSPost2010PropOp51
 70
     0
102
RTVSPost2010Prop52
140
1.0
102
RTVSPost2010PropOp52
 70
     0
102
RTVSPost2010Prop53
 90
        2
102
RTVSPost2010PropOp53
 70
     1
102
RTVSPost2010Prop54
  1
strokes_ogs.tif
102
RTVSPost2010PropOp54
 70
     1
102
RTVSPost2010Prop55
280
     0
102
RTVSPost2010PropOp55
 70
     1
102
RTVSPost2010Prop56
140
1.0
102
RTVSPost2010PropOp56
 70
     1
102
RTVSPost2010Prop57
140
1.0
102
RTVSPost2010PropOp57
 70
     1
  0
XRECORD
  5
2BD
102
{ACAD_REACTORS
330
2BC
102
}
330
2BC
100
AcDbXrecord
280
     1
102
RTVSPost2010Prop28
280
     0
102
RTVSPost2010PropOp28
 70
     1
102
RTVSPost2010Prop29
280
     1
102
RTVSPost2010PropOp29
 70
     1
102
RTVSPost2010Prop30
280
     1
102
RTVSPost2010PropOp30
 70
     1
102
RTVSPost2010Prop31
280
     0
102
RTVSPost2010PropOp31
 70
     1
102
RTVSPost2010Prop32
280
     0
102
RTVSPost2010PropOp32
 70
     1
102
RTVSPost2010Prop33
280
     0
102
RTVSPost2010PropOp33
 70
     1
102
RTVSPost2010Prop34
280
     0
102
RTVSPost2010PropOp34
 70
     1
102
RTVSPost2010Prop35
280
     0
102
RTVSPost2010PropOp35
 70
     1
102
RTVSPost2010Prop36
280
     0
102
RTVSPost2010PropOp36
 70
     1
102
RTVSPost2010Prop37
 90
       50
102
RTVSPost2010PropOp37
 70
     1
102
RTVSPost2010Prop38
140
0.0
102
RTVSPost2010PropOp38
 70
     1
102
RTVSPost2010Prop39
140
1.0
102
RTVSPost2010PropOp39
 70
     1
102
RTVSPost2010Prop40
 90
        0
102
RTVSPost2010PropOp40
 70
     1
102
RTVSPost2010Prop41ColorIndex
 90
       18
102
RTVSPost2010Prop41ColorRGB
 90
        0
102
RTVSPost2010PropOp41
 70
     1
102
RTVSPost2010Prop42
 90
       50
102
RTVSPost2010PropOp42
 70
     1
102
RTVSPost2010Prop43
 90
        3
102
RTVSPost2010PropOp43
 70
     1
102
RTVSPost2010Prop44ColorIndex
 90
        5
102
RTVSPost2010Prop44ColorRGB
 90
      255
102
RTVSPost2010PropOp44
 70
     1
102
RTVSPost2010Prop45
280
     0
102
RTVSPost2010PropOp45
 70
     1
102
RTVSPost2010Prop46
 90
       50
102
RTVSPost2010PropOp46
 70
     1
102
RTVSPost2010Prop47
 90
       50
102
RTVSPost2010PropOp47
 70
     1
102
RTVSPost2010Prop48
 90
       50
102
RTVSPost2010PropOp48
 70
     1
102
RTVSPost2010Prop49
280
     0
102
RTVSPost2010PropOp49
 70
     1
102
RTVSPost2010Prop50
 90
       50
102
RTVSPost2010PropOp50
 70
     1
102
RTVSPost2010Prop51ColorIndex
 90
      256
102
RTVSPost2010Prop51ColorRGB
 90
-16777216
102
RTVSPost2010PropOp51
 70
     0
102
RTVSPost2010Prop52
140
1.0
102
RTVSPost2010PropOp52
 70
     0
102
RTVSPost2010Prop53
 90
        2
102
RTVSPost2010PropOp53
 70
     1
102
RTVSPost2010Prop54
  1
strokes_ogs.tif
102
RTVSPost2010PropOp54
 70
     1
102
RTVSPost2010Prop55
280
     0
102
RTVSPost2010PropOp55
 70
     1
102
RTVSPost2010Prop56
140
1.0
102
RTVSPost2010PropOp56
 70
     1
102
RTVSPost2010Prop57
140
1.0
102
RTVSPost2010PropOp57
 70
     1
  0
XRECORD
  5
2CD
102
{ACAD_REACTORS
330
2CC
102
}
330
2CC
100
AcDbXrecord
280
     1
102
RTVSPost2010Prop28
280
     0
102
RTVSPost2010PropOp28
 70
     0
102
RTVSPost2010Prop29
280
     1
102
RTVSPost2010PropOp29
 70
     0
102
RTVSPost2010Prop30
280
     1
102
RTVSPost2010PropOp30
 70
     0
102
RTVSPost2010Prop31
280
     0
102
RTVSPost2010PropOp31
 70
     0
102
RTVSPost2010Prop32
280
     0
102
RTVSPost2010PropOp32
 70
     0
102
RTVSPost2010Prop33
280
     0
102
RTVSPost2010PropOp33
 70
     0
102
RTVSPost2010Prop34
280
     0
102
RTVSPost2010PropOp34
 70
     0
102
RTVSPost2010Prop35
280
     0
102
RTVSPost2010PropOp35
 70
     0
102
RTVSPost2010Prop36
280
     0
102
RTVSPost2010PropOp36
 70
     0
102
RTVSPost2010Prop37
 90
       50
102
RTVSPost2010PropOp37
 70
     0
102
RTVSPost2010Prop38
140
0.0
102
RTVSPost2010PropOp38
 70
     0
102
RTVSPost2010Prop39
140
1.0
102
RTVSPost2010PropOp39
 70
     0
102
RTVSPost2010Prop40
 90
        0
102
RTVSPost2010PropOp40
 70
     0
102
RTVSPost2010Prop41ColorIndex
 90
       18
102
RTVSPost2010Prop41ColorRGB
 90
        0
102
RTVSPost2010PropOp41
 70
     0
102
RTVSPost2010Prop42
 90
       50
102
RTVSPost2010PropOp42
 70
     0
102
RTVSPost2010Prop43
 90
        3
102
RTVSPost2010PropOp43
 70
     0
102
RTVSPost2010Prop44ColorIndex
 90
        5
102
RTVSPost2010Prop44ColorRGB
 90
      255
102
RTVSPost2010PropOp44
 70
     0
102
RTVSPost2010Prop45
280
     0
102
RTVSPost2010PropOp45
 70
     0
102
RTVSPost2010Prop46
 90
       50
102
RTVSPost2010PropOp46
 70
     0
102
RTVSPost2010Prop47
 90
       50
102
RTVSPost2010PropOp47
 70
     0
102
RTVSPost2010Prop48
 90
       50
102
RTVSPost2010PropOp48
 70
     0
102
RTVSPost2010Prop49
280
     0
102
RTVSPost2010PropOp49
 70
     0
102
RTVSPost2010Prop50
 90
       50
102
RTVSPost2010PropOp50
 70
     0
102
RTVSPost2010Prop51ColorIndex
 90
      256
102
RTVSPost2010Prop51ColorRGB
 90
-16777216
102
RTVSPost2010PropOp51
 70
     0
102
RTVSPost2010Prop52
140
1.0
102
RTVSPost2010PropOp52
 70
     0
102
RTVSPost2010Prop53
 90
        2
102
RTVSPost2010PropOp53
 70
     0
102
RTVSPost2010Prop54
  1
strokes_ogs.tif
102
RTVSPost2010PropOp54
 70
     0
102
RTVSPost2010Prop55
280
     0
102
RTVSPost2010PropOp55
 70
     0
102
RTVSPost2010Prop56
140
1.0
102
RTVSPost2010PropOp56
 70
     0
102
RTVSPost2010Prop57
140
1.0
102
RTVSPost2010PropOp57
 70
     0
  0
XRECORD
  5
2C5
102
{ACAD_REACTORS
330
2C4
102
}
330
2C4
100
AcDbXrecord
280
     1
102
RTVSPost2010Prop28
280
     0
102
RTVSPost2010PropOp28
 70
     1
102
RTVSPost2010Prop29
280
     1
102
RTVSPost2010PropOp29
 70
     1
102
RTVSPost2010Prop30
280
     1
102
RTVSPost2010PropOp30
 70
     1
102
RTVSPost2010Prop31
280
     0
102
RTVSPost2010PropOp31
 70
     1
102
RTVSPost2010Prop32
280
     0
102
RTVSPost2010PropOp32
 70
     1
102
RTVSPost2010Prop33
280
     0
102
RTVSPost2010PropOp33
 70
     1
102
RTVSPost2010Prop34
280
     0
102
RTVSPost2010PropOp34
 70
     1
102
RTVSPost2010Prop35
280
     0
102
RTVSPost2010PropOp35
 70
     1
102
RTVSPost2010Prop36
280
     0
102
RTVSPost2010PropOp36
 70
     1
102
RTVSPost2010Prop37
 90
       50
102
RTVSPost2010PropOp37
 70
     1
102
RTVSPost2010Prop38
140
0.0
102
RTVSPost2010PropOp38
 70
     1
102
RTVSPost2010Prop39
140
1.0
102
RTVSPost2010PropOp39
 70
     1
102
RTVSPost2010Prop40
 90
        0
102
RTVSPost2010PropOp40
 70
     1
102
RTVSPost2010Prop41ColorIndex
 90
       18
102
RTVSPost2010Prop41ColorRGB
 90
        0
102
RTVSPost2010PropOp41
 70
     1
102
RTVSPost2010Prop42
 90
       50
102
RTVSPost2010PropOp42
 70
     1
102
RTVSPost2010Prop43
 90
        3
102
RTVSPost2010PropOp43
 70
     1
102
RTVSPost2010Prop44ColorIndex
 90
        5
102
RTVSPost2010Prop44ColorRGB
 90
      255
102
RTVSPost2010PropOp44
 70
     1
102
RTVSPost2010Prop45
280
     0
102
RTVSPost2010PropOp45
 70
     1
102
RTVSPost2010Prop46
 90
       50
102
RTVSPost2010PropOp46
 70
     1
102
RTVSPost2010Prop47
 90
       50
102
RTVSPost2010PropOp47
 70
     1
102
RTVSPost2010Prop48
 90
       50
102
RTVSPost2010PropOp48
 70
     1
102
RTVSPost2010Prop49
280
     0
102
RTVSPost2010PropOp49
 70
     1
102
RTVSPost2010Prop50
 90
       50
102
RTVSPost2010PropOp50
 70
     1
102
RTVSPost2010Prop51ColorIndex
 90
      256
102
RTVSPost2010Prop51ColorRGB
 90
-16777216
102
RTVSPost2010PropOp51
 70
     0
102
RTVSPost2010Prop52
140
1.0
102
RTVSPost2010PropOp52
 70
     0
102
RTVSPost2010Prop53
 90
        2
102
RTVSPost2010PropOp53
 70
     1
102
RTVSPost2010Prop54
  1
strokes_ogs.tif
102
RTVSPost2010PropOp54
 70
     1
102
RTVSPost2010Prop55
280
     0
102
RTVSPost2010PropOp55
 70
     1
102
RTVSPost2010Prop56
140
1.0
102
RTVSPost2010PropOp56
 70
     1
102
RTVSPost2010Prop57
140
1.0
102
RTVSPost2010PropOp57
 70
     1
  0
XRECORD
  5
2A9
102
{ACAD_REACTORS
330
2A8
102
}
330
2A8
100
AcDbXrecord
280
     1
102
RTVSPost2010Prop28
280
     0
102
RTVSPost2010PropOp28
 70
     1
102
RTVSPost2010Prop29
280
     1
102
RTVSPost2010PropOp29
 70
     1
102
RTVSPost2010Prop30
280
     1
102
RTVSPost2010PropOp30
 70
     1
102
RTVSPost2010Prop31
280
     0
102
RTVSPost2010PropOp31
 70
     1
102
RTVSPost2010Prop32
280
     0
102
RTVSPost2010PropOp32
 70
     1
102
RTVSPost2010Prop33
280
     0
102
RTVSPost2010PropOp33
 70
     1
102
RTVSPost2010Prop34
280
     0
102
RTVSPost2010PropOp34
 70
     1
102
RTVSPost2010Prop35
280
     0
102
RTVSPost2010PropOp35
 70
     1
102
RTVSPost2010Prop36
280
     0
102
RTVSPost2010PropOp36
 70
     1
102
RTVSPost2010Prop37
 90
       50
102
RTVSPost2010PropOp37
 70
     1
102
RTVSPost2010Prop38
140
0.0
102
RTVSPost2010PropOp38
 70
     1
102
RTVSPost2010Prop39
140
1.0
102
RTVSPost2010PropOp39
 70
     1
102
RTVSPost2010Prop40
 90
        0
102
RTVSPost2010PropOp40
 70
     1
102
RTVSPost2010Prop41ColorIndex
 90
       18
102
RTVSPost2010Prop41ColorRGB
 90
        0
102
RTVSPost2010PropOp41
 70
     1
102
RTVSPost2010Prop42
 90
       50
102
RTVSPost2010PropOp42
 70
     1
102
RTVSPost2010Prop43
 90
        3
102
RTVSPost2010PropOp43
 70
     1
102
RTVSPost2010Prop44ColorIndex
 90
        5
102
RTVSPost2010Prop44ColorRGB
 90
      255
102
RTVSPost2010PropOp44
 70
     1
102
RTVSPost2010Prop45
280
     0
102
RTVSPost2010PropOp45
 70
     1
102
RTVSPost2010Prop46
 90
       50
102
RTVSPost2010PropOp46
 70
     1
102
RTVSPost2010Prop47
 90
       50
102
RTVSPost2010PropOp47
 70
     1
102
RTVSPost2010Prop48
 90
       50
102
RTVSPost2010PropOp48
 70
     1
102
RTVSPost2010Prop49
280
     0
102
RTVSPost2010PropOp49
 70
     1
102
RTVSPost2010Prop50
 90
       50
102
RTVSPost2010PropOp50
 70
     1
102
RTVSPost2010Prop51ColorIndex
 90
      256
102
RTVSPost2010Prop51ColorRGB
 90
-16777216
102
RTVSPost2010PropOp51
 70
     0
102
RTVSPost2010Prop52
140
1.0
102
RTVSPost2010PropOp52
 70
     0
102
RTVSPost2010Prop53
 90
        2
102
RTVSPost2010PropOp53
 70
     1
102
RTVSPost2010Prop54
  1
strokes_ogs.tif
102
RTVSPost2010PropOp54
 70
     1
102
RTVSPost2010Prop55
280
     0
102
RTVSPost2010PropOp55
 70
     1
102
RTVSPost2010Prop56
140
1.0
102
RTVSPost2010PropOp56
 70
     1
102
RTVSPost2010Prop57
140
1.0
102
RTVSPost2010PropOp57
 70
     1
  0
XRECORD
  5
2AB
102
{ACAD_REACTORS
330
2AA
102
}
330
2AA
100
AcDbXrecord
280
     1
102
RTVSPost2010Prop28
280
     0
102
RTVSPost2010PropOp28
 70
     1
102
RTVSPost2010Prop29
280
     1
102
RTVSPost2010PropOp29
 70
     1
102
RTVSPost2010Prop30
280
     1
102
RTVSPost2010PropOp30
 70
     1
102
RTVSPost2010Prop31
280
     0
102
RTVSPost2010PropOp31
 70
     1
102
RTVSPost2010Prop32
280
     0
102
RTVSPost2010PropOp32
 70
     1
102
RTVSPost2010Prop33
280
     0
102
RTVSPost2010PropOp33
 70
     1
102
RTVSPost2010Prop34
280
     0
102
RTVSPost2010PropOp34
 70
     1
102
RTVSPost2010Prop35
280
     0
102
RTVSPost2010PropOp35
 70
     1
102
RTVSPost2010Prop36
280
     0
102
RTVSPost2010PropOp36
 70
     1
102
RTVSPost2010Prop37
 90
       50
102
RTVSPost2010PropOp37
 70
     1
102
RTVSPost2010Prop38
140
0.0
102
RTVSPost2010PropOp38
 70
     1
102
RTVSPost2010Prop39
140
1.0
102
RTVSPost2010PropOp39
 70
     1
102
RTVSPost2010Prop40
 90
        0
102
RTVSPost2010PropOp40
 70
     1
102
RTVSPost2010Prop41ColorIndex
 90
       18
102
RTVSPost2010Prop41ColorRGB
 90
        0
102
RTVSPost2010PropOp41
 70
     1
102
RTVSPost2010Prop42
 90
       50
102
RTVSPost2010PropOp42
 70
     1
102
RTVSPost2010Prop43
 90
        3
102
RTVSPost2010PropOp43
 70
     1
102
RTVSPost2010Prop44ColorIndex
 90
        5
102
RTVSPost2010Prop44ColorRGB
 90
      255
102
RTVSPost2010PropOp44
 70
     1
102
RTVSPost2010Prop45
280
     0
102
RTVSPost2010PropOp45
 70
     1
102
RTVSPost2010Prop46
 90
       50
102
RTVSPost2010PropOp46
 70
     1
102
RTVSPost2010Prop47
 90
       50
102
RTVSPost2010PropOp47
 70
     1
102
RTVSPost2010Prop48
 90
       50
102
RTVSPost2010PropOp48
 70
     1
102
RTVSPost2010Prop49
280
     0
102
RTVSPost2010PropOp49
 70
     1
102
RTVSPost2010Prop50
 90
       50
102
RTVSPost2010PropOp50
 70
     1
102
RTVSPost2010Prop51ColorIndex
 90
      256
102
RTVSPost2010Prop51ColorRGB
 90
-16777216
102
RTVSPost2010PropOp51
 70
     0
102
RTVSPost2010Prop52
140
1.0
102
RTVSPost2010PropOp52
 70
     0
102
RTVSPost2010Prop53
 90
        2
102
RTVSPost2010PropOp53
 70
     1
102
RTVSPost2010Prop54
  1
strokes_ogs.tif
102
RTVSPost2010PropOp54
 70
     1
102
RTVSPost2010Prop55
280
     0
102
RTVSPost2010PropOp55
 70
     1
102
RTVSPost2010Prop56
140
1.0
102
RTVSPost2010PropOp56
 70
     1
102
RTVSPost2010Prop57
140
1.0
102
RTVSPost2010PropOp57
 70
     1
  0
XRECORD
  5
2AD
102
{ACAD_REACTORS
330
2AC
102
}
330
2AC
100
AcDbXrecord
280
     1
102
RTVSPost2010Prop28
280
     0
102
RTVSPost2010PropOp28
 70
     1
102
RTVSPost2010Prop29
280
     1
102
RTVSPost2010PropOp29
 70
     1
102
RTVSPost2010Prop30
280
     1
102
RTVSPost2010PropOp30
 70
     1
102
RTVSPost2010Prop31
280
     0
102
RTVSPost2010PropOp31
 70
     1
102
RTVSPost2010Prop32
280
     0
102
RTVSPost2010PropOp32
 70
     1
102
RTVSPost2010Prop33
280
     0
102
RTVSPost2010PropOp33
 70
     1
102
RTVSPost2010Prop34
280
     0
102
RTVSPost2010PropOp34
 70
     1
102
RTVSPost2010Prop35
280
     0
102
RTVSPost2010PropOp35
 70
     1
102
RTVSPost2010Prop36
280
     0
102
RTVSPost2010PropOp36
 70
     1
102
RTVSPost2010Prop37
 90
       50
102
RTVSPost2010PropOp37
 70
     1
102
RTVSPost2010Prop38
140
0.0
102
RTVSPost2010PropOp38
 70
     1
102
RTVSPost2010Prop39
140
1.0
102
RTVSPost2010PropOp39
 70
     1
102
RTVSPost2010Prop40
 90
        0
102
RTVSPost2010PropOp40
 70
     1
102
RTVSPost2010Prop41ColorIndex
 90
       18
102
RTVSPost2010Prop41ColorRGB
 90
        0
102
RTVSPost2010PropOp41
 70
     1
102
RTVSPost2010Prop42
 90
       50
102
RTVSPost2010PropOp42
 70
     1
102
RTVSPost2010Prop43
 90
        3
102
RTVSPost2010PropOp43
 70
     1
102
RTVSPost2010Prop44ColorIndex
 90
        5
102
RTVSPost2010Prop44ColorRGB
 90
      255
102
RTVSPost2010PropOp44
 70
     1
102
RTVSPost2010Prop45
280
     0
102
RTVSPost2010PropOp45
 70
     1
102
RTVSPost2010Prop46
 90
       50
102
RTVSPost2010PropOp46
 70
     1
102
RTVSPost2010Prop47
 90
       50
102
RTVSPost2010PropOp47
 70
     1
102
RTVSPost2010Prop48
 90
       50
102
RTVSPost2010PropOp48
 70
     1
102
RTVSPost2010Prop49
280
     0
102
RTVSPost2010PropOp49
 70
     1
102
RTVSPost2010Prop50
 90
       50
102
RTVSPost2010PropOp50
 70
     1
102
RTVSPost2010Prop51ColorIndex
 90
      256
102
RTVSPost2010Prop51ColorRGB
 90
-16777216
102
RTVSPost2010PropOp51
 70
     0
102
RTVSPost2010Prop52
140
1.0
102
RTVSPost2010PropOp52
 70
     0
102
RTVSPost2010Prop53
 90
        2
102
RTVSPost2010PropOp53
 70
     1
102
RTVSPost2010Prop54
  1
strokes_ogs.tif
102
RTVSPost2010PropOp54
 70
     1
102
RTVSPost2010Prop55
280
     0
102
RTVSPost2010PropOp55
 70
     1
102
RTVSPost2010Prop56
140
1.0
102
RTVSPost2010PropOp56
 70
     1
102
RTVSPost2010Prop57
140
1.0
102
RTVSPost2010PropOp57
 70
     1
  0
XRECORD
  5
2AF
102
{ACAD_REACTORS
330
2AE
102
}
330
2AE
100
AcDbXrecord
280
     1
102
RTVSPost2010Prop28
280
     0
102
RTVSPost2010PropOp28
 70
     1
102
RTVSPost2010Prop29
280
     1
102
RTVSPost2010PropOp29
 70
     1
102
RTVSPost2010Prop30
280
     1
102
RTVSPost2010PropOp30
 70
     1
102
RTVSPost2010Prop31
280
     0
102
RTVSPost2010PropOp31
 70
     1
102
RTVSPost2010Prop32
280
     0
102
RTVSPost2010PropOp32
 70
     1
102
RTVSPost2010Prop33
280
     0
102
RTVSPost2010PropOp33
 70
     1
102
RTVSPost2010Prop34
280
     0
102
RTVSPost2010PropOp34
 70
     1
102
RTVSPost2010Prop35
280
     0
102
RTVSPost2010PropOp35
 70
     1
102
RTVSPost2010Prop36
280
     0
102
RTVSPost2010PropOp36
 70
     1
102
RTVSPost2010Prop37
 90
       50
102
RTVSPost2010PropOp37
 70
     1
102
RTVSPost2010Prop38
140
0.0
102
RTVSPost2010PropOp38
 70
     1
102
RTVSPost2010Prop39
140
1.0
102
RTVSPost2010PropOp39
 70
     1
102
RTVSPost2010Prop40
 90
        0
102
RTVSPost2010PropOp40
 70
     1
102
RTVSPost2010Prop41ColorIndex
 90
       18
102
RTVSPost2010Prop41ColorRGB
 90
        0
102
RTVSPost2010PropOp41
 70
     1
102
RTVSPost2010Prop42
 90
       50
102
RTVSPost2010PropOp42
 70
     1
102
RTVSPost2010Prop43
 90
        3
102
RTVSPost2010PropOp43
 70
     1
102
RTVSPost2010Prop44ColorIndex
 90
        5
102
RTVSPost2010Prop44ColorRGB
 90
      255
102
RTVSPost2010PropOp44
 70
     1
102
RTVSPost2010Prop45
280
     0
102
RTVSPost2010PropOp45
 70
     1
102
RTVSPost2010Prop46
 90
       50
102
RTVSPost2010PropOp46
 70
     1
102
RTVSPost2010Prop47
 90
       50
102
RTVSPost2010PropOp47
 70
     1
102
RTVSPost2010Prop48
 90
       50
102
RTVSPost2010PropOp48
 70
     1
102
RTVSPost2010Prop49
280
     0
102
RTVSPost2010PropOp49
 70
     1
102
RTVSPost2010Prop50
 90
       50
102
RTVSPost2010PropOp50
 70
     1
102
RTVSPost2010Prop51ColorIndex
 90
      256
102
RTVSPost2010Prop51ColorRGB
 90
-16777216
102
RTVSPost2010PropOp51
 70
     0
102
RTVSPost2010Prop52
140
1.0
102
RTVSPost2010PropOp52
 70
     0
102
RTVSPost2010Prop53
 90
        2
102
RTVSPost2010PropOp53
 70
     1
102
RTVSPost2010Prop54
  1
strokes_ogs.tif
102
RTVSPost2010PropOp54
 70
     1
102
RTVSPost2010Prop55
280
     0
102
RTVSPost2010PropOp55
 70
     1
102
RTVSPost2010Prop56
140
1.0
102
RTVSPost2010PropOp56
 70
     1
102
RTVSPost2010Prop57
140
1.0
102
RTVSPost2010PropOp57
 70
     1
  0
XRECORD
  5
2B5
102
{ACAD_REACTORS
330
2B4
102
}
330
2B4
100
AcDbXrecord
280
     1
102
RTVSPost2010Prop28
280
     0
102
RTVSPost2010PropOp28
 70
     1
102
RTVSPost2010Prop29
280
     1
102
RTVSPost2010PropOp29
 70
     1
102
RTVSPost2010Prop30
280
     1
102
RTVSPost2010PropOp30
 70
     1
102
RTVSPost2010Prop31
280
     0
102
RTVSPost2010PropOp31
 70
     1
102
RTVSPost2010Prop32
280
     0
102
RTVSPost2010PropOp32
 70
     1
102
RTVSPost2010Prop33
280
     0
102
RTVSPost2010PropOp33
 70
     1
102
RTVSPost2010Prop34
280
     0
102
RTVSPost2010PropOp34
 70
     1
102
RTVSPost2010Prop35
280
     0
102
RTVSPost2010PropOp35
 70
     1
102
RTVSPost2010Prop36
280
     0
102
RTVSPost2010PropOp36
 70
     1
102
RTVSPost2010Prop37
 90
       50
102
RTVSPost2010PropOp37
 70
     1
102
RTVSPost2010Prop38
140
0.0
102
RTVSPost2010PropOp38
 70
     1
102
RTVSPost2010Prop39
140
1.0
102
RTVSPost2010PropOp39
 70
     1
102
RTVSPost2010Prop40
 90
        0
102
RTVSPost2010PropOp40
 70
     1
102
RTVSPost2010Prop41ColorIndex
 90
       18
102
RTVSPost2010Prop41ColorRGB
 90
        0
102
RTVSPost2010PropOp41
 70
     1
102
RTVSPost2010Prop42
 90
       50
102
RTVSPost2010PropOp42
 70
     1
102
RTVSPost2010Prop43
 90
        3
102
RTVSPost2010PropOp43
 70
     1
102
RTVSPost2010Prop44ColorIndex
 90
        5
102
RTVSPost2010Prop44ColorRGB
 90
      255
102
RTVSPost2010PropOp44
 70
     1
102
RTVSPost2010Prop45
280
     0
102
RTVSPost2010PropOp45
 70
     1
102
RTVSPost2010Prop46
 90
       50
102
RTVSPost2010PropOp46
 70
     1
102
RTVSPost2010Prop47
 90
       50
102
RTVSPost2010PropOp47
 70
     1
102
RTVSPost2010Prop48
 90
       50
102
RTVSPost2010PropOp48
 70
     1
102
RTVSPost2010Prop49
280
     0
102
RTVSPost2010PropOp49
 70
     1
102
RTVSPost2010Prop50
 90
       50
102
RTVSPost2010PropOp50
 70
     1
102
RTVSPost2010Prop51ColorIndex
 90
      256
102
RTVSPost2010Prop51ColorRGB
 90
-16777216
102
RTVSPost2010PropOp51
 70
     0
102
RTVSPost2010Prop52
140
1.0
102
RTVSPost2010PropOp52
 70
     0
102
RTVSPost2010Prop53
 90
        2
102
RTVSPost2010PropOp53
 70
     1
102
RTVSPost2010Prop54
  1
strokes_ogs.tif
102
RTVSPost2010PropOp54
 70
     1
102
RTVSPost2010Prop55
280
     0
102
RTVSPost2010PropOp55
 70
     1
102
RTVSPost2010Prop56
140
1.0
102
RTVSPost2010PropOp56
 70
     1
102
RTVSPost2010Prop57
140
1.0
102
RTVSPost2010PropOp57
 70
     1
  0
XRECORD
  5
2C9
102
{ACAD_REACTORS
330
2C8
102
}
330
2C8
100
AcDbXrecord
280
     1
102
RTVSPost2010Prop28
280
     0
102
RTVSPost2010PropOp28
 70
     0
102
RTVSPost2010Prop29
280
     1
102
RTVSPost2010PropOp29
 70
     0
102
RTVSPost2010Prop30
280
     1
102
RTVSPost2010PropOp30
 70
     0
102
RTVSPost2010Prop31
280
     0
102
RTVSPost2010PropOp31
 70
     0
102
RTVSPost2010Prop32
280
     0
102
RTVSPost2010PropOp32
 70
     0
102
RTVSPost2010Prop33
280
     0
102
RTVSPost2010PropOp33
 70
     0
102
RTVSPost2010Prop34
280
     0
102
RTVSPost2010PropOp34
 70
     0
102
RTVSPost2010Prop35
280
     0
102
RTVSPost2010PropOp35
 70
     0
102
RTVSPost2010Prop36
280
     0
102
RTVSPost2010PropOp36
 70
     0
102
RTVSPost2010Prop37
 90
       50
102
RTVSPost2010PropOp37
 70
     0
102
RTVSPost2010Prop38
140
0.0
102
RTVSPost2010PropOp38
 70
     0
102
RTVSPost2010Prop39
140
1.0
102
RTVSPost2010PropOp39
 70
     0
102
RTVSPost2010Prop40
 90
        0
102
RTVSPost2010PropOp40
 70
     0
102
RTVSPost2010Prop41ColorIndex
 90
       18
102
RTVSPost2010Prop41ColorRGB
 90
        0
102
RTVSPost2010PropOp41
 70
     0
102
RTVSPost2010Prop42
 90
       50
102
RTVSPost2010PropOp42
 70
     0
102
RTVSPost2010Prop43
 90
        3
102
RTVSPost2010PropOp43
 70
     0
102
RTVSPost2010Prop44ColorIndex
 90
        5
102
RTVSPost2010Prop44ColorRGB
 90
      255
102
RTVSPost2010PropOp44
 70
     0
102
RTVSPost2010Prop45
280
     0
102
RTVSPost2010PropOp45
 70
     0
102
RTVSPost2010Prop46
 90
       50
102
RTVSPost2010PropOp46
 70
     0
102
RTVSPost2010Prop47
 90
       50
102
RTVSPost2010PropOp47
 70
     0
102
RTVSPost2010Prop48
 90
       50
102
RTVSPost2010PropOp48
 70
     0
102
RTVSPost2010Prop49
280
     0
102
RTVSPost2010PropOp49
 70
     0
102
RTVSPost2010Prop50
 90
       50
102
RTVSPost2010PropOp50
 70
     0
102
RTVSPost2010Prop51ColorIndex
 90
      256
102
RTVSPost2010Prop51ColorRGB
 90
-16777216
102
RTVSPost2010PropOp51
 70
     0
102
RTVSPost2010Prop52
140
1.0
102
RTVSPost2010PropOp52
 70
     0
102
RTVSPost2010Prop53
 90
        2
102
RTVSPost2010PropOp53
 70
     0
102
RTVSPost2010Prop54
  1
strokes_ogs.tif
102
RTVSPost2010PropOp54
 70
     0
102
RTVSPost2010Prop55
280
     0
102
RTVSPost2010PropOp55
 70
     0
102
RTVSPost2010Prop56
140
1.0
102
RTVSPost2010PropOp56
 70
     0
102
RTVSPost2010Prop57
140
1.0
102
RTVSPost2010PropOp57
 70
     0
  0
XRECORD
  5
2C3
102
{ACAD_REACTORS
330
2C2
102
}
330
2C2
100
AcDbXrecord
280
     1
102
RTVSPost2010Prop28
280
     0
102
RTVSPost2010PropOp28
 70
     1
102
RTVSPost2010Prop29
280
     1
102
RTVSPost2010PropOp29
 70
     1
102
RTVSPost2010Prop30
280
     1
102
RTVSPost2010PropOp30
 70
     1
102
RTVSPost2010Prop31
280
     0
102
RTVSPost2010PropOp31
 70
     1
102
RTVSPost2010Prop32
280
     0
102
RTVSPost2010PropOp32
 70
     1
102
RTVSPost2010Prop33
280
     0
102
RTVSPost2010PropOp33
 70
     1
102
RTVSPost2010Prop34
280
     0
102
RTVSPost2010PropOp34
 70
     1
102
RTVSPost2010Prop35
280
     0
102
RTVSPost2010PropOp35
 70
     1
102
RTVSPost2010Prop36
280
     0
102
RTVSPost2010PropOp36
 70
     1
102
RTVSPost2010Prop37
 90
       50
102
RTVSPost2010PropOp37
 70
     1
102
RTVSPost2010Prop38
140
0.0
102
RTVSPost2010PropOp38
 70
     1
102
RTVSPost2010Prop39
140
1.0
102
RTVSPost2010PropOp39
 70
     1
102
RTVSPost2010Prop40
 90
        0
102
RTVSPost2010PropOp40
 70
     1
102
RTVSPost2010Prop41ColorIndex
 90
       18
102
RTVSPost2010Prop41ColorRGB
 90
        0
102
RTVSPost2010PropOp41
 70
     1
102
RTVSPost2010Prop42
 90
       50
102
RTVSPost2010PropOp42
 70
     1
102
RTVSPost2010Prop43
 90
        3
102
RTVSPost2010PropOp43
 70
     1
102
RTVSPost2010Prop44ColorIndex
 90
        5
102
RTVSPost2010Prop44ColorRGB
 90
      255
102
RTVSPost2010PropOp44
 70
     1
102
RTVSPost2010Prop45
280
     0
102
RTVSPost2010PropOp45
 70
     1
102
RTVSPost2010Prop46
 90
       50
102
RTVSPost2010PropOp46
 70
     1
102
RTVSPost2010Prop47
 90
       50
102
RTVSPost2010PropOp47
 70
     1
102
RTVSPost2010Prop48
 90
       50
102
RTVSPost2010PropOp48
 70
     1
102
RTVSPost2010Prop49
280
     0
102
RTVSPost2010PropOp49
 70
     1
102
RTVSPost2010Prop50
 90
       50
102
RTVSPost2010PropOp50
 70
     1
102
RTVSPost2010Prop51ColorIndex
 90
      256
102
RTVSPost2010Prop51ColorRGB
 90
-16777216
102
RTVSPost2010PropOp51
 70
     0
102
RTVSPost2010Prop52
140
1.0
102
RTVSPost2010PropOp52
 70
     0
102
RTVSPost2010Prop53
 90
        2
102
RTVSPost2010PropOp53
 70
     1
102
RTVSPost2010Prop54
  1
strokes_ogs.tif
102
RTVSPost2010PropOp54
 70
     1
102
RTVSPost2010Prop55
280
     0
102
RTVSPost2010PropOp55
 70
     1
102
RTVSPost2010Prop56
140
1.0
102
RTVSPost2010PropOp56
 70
     1
102
RTVSPost2010Prop57
140
1.0
102
RTVSPost2010PropOp57
 70
     1
  0
XRECORD
  5
2CB
102
{ACAD_REACTORS
330
2CA
102
}
330
2CA
100
AcDbXrecord
280
     1
102
RTVSPost2010Prop28
280
     0
102
RTVSPost2010PropOp28
 70
     0
102
RTVSPost2010Prop29
280
     1
102
RTVSPost2010PropOp29
 70
     0
102
RTVSPost2010Prop30
280
     1
102
RTVSPost2010PropOp30
 70
     0
102
RTVSPost2010Prop31
280
     0
102
RTVSPost2010PropOp31
 70
     0
102
RTVSPost2010Prop32
280
     0
102
RTVSPost2010PropOp32
 70
     0
102
RTVSPost2010Prop33
280
     0
102
RTVSPost2010PropOp33
 70
     0
102
RTVSPost2010Prop34
280
     0
102
RTVSPost2010PropOp34
 70
     0
102
RTVSPost2010Prop35
280
     0
102
RTVSPost2010PropOp35
 70
     0
102
RTVSPost2010Prop36
280
     0
102
RTVSPost2010PropOp36
 70
     0
102
RTVSPost2010Prop37
 90
       50
102
RTVSPost2010PropOp37
 70
     0
102
RTVSPost2010Prop38
140
0.0
102
RTVSPost2010PropOp38
 70
     0
102
RTVSPost2010Prop39
140
1.0
102
RTVSPost2010PropOp39
 70
     0
102
RTVSPost2010Prop40
 90
        0
102
RTVSPost2010PropOp40
 70
     0
102
RTVSPost2010Prop41ColorIndex
 90
       18
102
RTVSPost2010Prop41ColorRGB
 90
        0
102
RTVSPost2010PropOp41
 70
     0
102
RTVSPost2010Prop42
 90
       50
102
RTVSPost2010PropOp42
 70
     0
102
RTVSPost2010Prop43
 90
        3
102
RTVSPost2010PropOp43
 70
     0
102
RTVSPost2010Prop44ColorIndex
 90
        5
102
RTVSPost2010Prop44ColorRGB
 90
      255
102
RTVSPost2010PropOp44
 70
     0
102
RTVSPost2010Prop45
280
     0
102
RTVSPost2010PropOp45
 70
     0
102
RTVSPost2010Prop46
 90
       50
102
RTVSPost2010PropOp46
 70
     0
102
RTVSPost2010Prop47
 90
       50
102
RTVSPost2010PropOp47
 70
     0
102
RTVSPost2010Prop48
 90
       50
102
RTVSPost2010PropOp48
 70
     0
102
RTVSPost2010Prop49
280
     0
102
RTVSPost2010PropOp49
 70
     0
102
RTVSPost2010Prop50
 90
       50
102
RTVSPost2010PropOp50
 70
     0
102
RTVSPost2010Prop51ColorIndex
 90
      256
102
RTVSPost2010Prop51ColorRGB
 90
-16777216
102
RTVSPost2010PropOp51
 70
     0
102
RTVSPost2010Prop52
140
1.0
102
RTVSPost2010PropOp52
 70
     0
102
RTVSPost2010Prop53
 90
        2
102
RTVSPost2010PropOp53
 70
     0
102
RTVSPost2010Prop54
  1
strokes_ogs.tif
102
RTVSPost2010PropOp54
 70
     0
102
RTVSPost2010Prop55
280
     0
102
RTVSPost2010PropOp55
 70
     0
102
RTVSPost2010Prop56
140
1.0
102
RTVSPost2010PropOp56
 70
     0
102
RTVSPost2010Prop57
140
1.0
102
RTVSPost2010PropOp57
 70
     0
  0
XRECORD
  5
2B9
102
{ACAD_REACTORS
330
2B8
102
}
330
2B8
100
AcDbXrecord
280
     1
102
RTVSPost2010Prop28
280
     0
102
RTVSPost2010PropOp28
 70
     1
102
RTVSPost2010Prop29
280
     1
102
RTVSPost2010PropOp29
 70
     1
102
RTVSPost2010Prop30
280
     1
102
RTVSPost2010PropOp30
 70
     1
102
RTVSPost2010Prop31
280
     0
102
RTVSPost2010PropOp31
 70
     1
102
RTVSPost2010Prop32
280
     0
102
RTVSPost2010PropOp32
 70
     1
102
RTVSPost2010Prop33
280
     0
102
RTVSPost2010PropOp33
 70
     1
102
RTVSPost2010Prop34
280
     0
102
RTVSPost2010PropOp34
 70
     1
102
RTVSPost2010Prop35
280
     0
102
RTVSPost2010PropOp35
 70
     1
102
RTVSPost2010Prop36
280
     0
102
RTVSPost2010PropOp36
 70
     1
102
RTVSPost2010Prop37
 90
       50
102
RTVSPost2010PropOp37
 70
     1
102
RTVSPost2010Prop38
140
0.0
102
RTVSPost2010PropOp38
 70
     1
102
RTVSPost2010Prop39
140
1.0
102
RTVSPost2010PropOp39
 70
     1
102
RTVSPost2010Prop40
 90
        0
102
RTVSPost2010PropOp40
 70
     1
102
RTVSPost2010Prop41ColorIndex
 90
       18
102
RTVSPost2010Prop41ColorRGB
 90
        0
102
RTVSPost2010PropOp41
 70
     1
102
RTVSPost2010Prop42
 90
       50
102
RTVSPost2010PropOp42
 70
     1
102
RTVSPost2010Prop43
 90
        3
102
RTVSPost2010PropOp43
 70
     1
102
RTVSPost2010Prop44ColorIndex
 90
        5
102
RTVSPost2010Prop44ColorRGB
 90
      255
102
RTVSPost2010PropOp44
 70
     1
102
RTVSPost2010Prop45
280
     0
102
RTVSPost2010PropOp45
 70
     1
102
RTVSPost2010Prop46
 90
       50
102
RTVSPost2010PropOp46
 70
     1
102
RTVSPost2010Prop47
 90
       50
102
RTVSPost2010PropOp47
 70
     1
102
RTVSPost2010Prop48
 90
       50
102
RTVSPost2010PropOp48
 70
     1
102
RTVSPost2010Prop49
280
     0
102
RTVSPost2010PropOp49
 70
     1
102
RTVSPost2010Prop50
 90
       50
102
RTVSPost2010PropOp50
 70
     1
102
RTVSPost2010Prop51ColorIndex
 90
      256
102
RTVSPost2010Prop51ColorRGB
 90
-16777216
102
RTVSPost2010PropOp51
 70
     0
102
RTVSPost2010Prop52
140
1.0
102
RTVSPost2010PropOp52
 70
     0
102
RTVSPost2010Prop53
 90
        2
102
RTVSPost2010PropOp53
 70
     1
102
RTVSPost2010Prop54
  1
strokes_ogs.tif
102
RTVSPost2010PropOp54
 70
     1
102
RTVSPost2010Prop55
280
     0
102
RTVSPost2010PropOp55
 70
     1
102
RTVSPost2010Prop56
140
1.0
102
RTVSPost2010PropOp56
 70
     1
102
RTVSPost2010Prop57
140
1.0
102
RTVSPost2010PropOp57
 70
     1
  0
XRECORD
  5
2D7
102
{ACAD_REACTORS
330
2D6
102
}
330
2D6
100
AcDbXrecord
280
     1
102
RTVSPost2010Prop28
280
     0
102
RTVSPost2010PropOp28
 70
     1
102
RTVSPost2010Prop29
280
     1
102
RTVSPost2010PropOp29
 70
     1
102
RTVSPost2010Prop30
280
     1
102
RTVSPost2010PropOp30
 70
     1
102
RTVSPost2010Prop31
280
     0
102
RTVSPost2010PropOp31
 70
     1
102
RTVSPost2010Prop32
280
     0
102
RTVSPost2010PropOp32
 70
     1
102
RTVSPost2010Prop33
280
     0
102
RTVSPost2010PropOp33
 70
     1
102
RTVSPost2010Prop34
280
     0
102
RTVSPost2010PropOp34
 70
     1
102
RTVSPost2010Prop35
280
     0
102
RTVSPost2010PropOp35
 70
     1
102
RTVSPost2010Prop36
280
     0
102
RTVSPost2010PropOp36
 70
     1
102
RTVSPost2010Prop37
 90
       50
102
RTVSPost2010PropOp37
 70
     1
102
RTVSPost2010Prop38
140
0.0
102
RTVSPost2010PropOp38
 70
     1
102
RTVSPost2010Prop39
140
1.0
102
RTVSPost2010PropOp39
 70
     1
102
RTVSPost2010Prop40
 90
        0
102
RTVSPost2010PropOp40
 70
     1
102
RTVSPost2010Prop41ColorIndex
 90
       18
102
RTVSPost2010Prop41ColorRGB
 90
        0
102
RTVSPost2010PropOp41
 70
     1
102
RTVSPost2010Prop42
 90
       50
102
RTVSPost2010PropOp42
 70
     1
102
RTVSPost2010Prop43
 90
        3
102
RTVSPost2010PropOp43
 70
     1
102
RTVSPost2010Prop44ColorIndex
 90
        5
102
RTVSPost2010Prop44ColorRGB
 90
      255
102
RTVSPost2010PropOp44
 70
     1
102
RTVSPost2010Prop45
280
     0
102
RTVSPost2010PropOp45
 70
     1
102
RTVSPost2010Prop46
 90
       50
102
RTVSPost2010PropOp46
 70
     1
102
RTVSPost2010Prop47
 90
       50
102
RTVSPost2010PropOp47
 70
     1
102
RTVSPost2010Prop48
 90
       50
102
RTVSPost2010PropOp48
 70
     1
102
RTVSPost2010Prop49
280
     0
102
RTVSPost2010PropOp49
 70
     1
102
RTVSPost2010Prop50
 90
       50
102
RTVSPost2010PropOp50
 70
     1
102
RTVSPost2010Prop51ColorIndex
 90
      256
102
RTVSPost2010Prop51ColorRGB
 90
-16777216
102
RTVSPost2010PropOp51
 70
     0
102
RTVSPost2010Prop52
140
1.0
102
RTVSPost2010PropOp52
 70
     0
102
RTVSPost2010Prop53
 90
        2
102
RTVSPost2010PropOp53
 70
     1
102
RTVSPost2010Prop54
  1
strokes_ogs.tif
102
RTVSPost2010PropOp54
 70
     1
102
RTVSPost2010Prop55
280
     0
102
RTVSPost2010PropOp55
 70
     1
102
RTVSPost2010Prop56
140
1.0
102
RTVSPost2010PropOp56
 70
     1
102
RTVSPost2010Prop57
140
1.0
102
RTVSPost2010PropOp57
 70
     1
  0
XRECORD
  5
2D5
102
{ACAD_REACTORS
330
2D4
102
}
330
2D4
100
AcDbXrecord
280
     1
102
RTVSPost2010Prop28
280
     0
102
RTVSPost2010PropOp28
 70
     1
102
RTVSPost2010Prop29
280
     1
102
RTVSPost2010PropOp29
 70
     1
102
RTVSPost2010Prop30
280
     1
102
RTVSPost2010PropOp30
 70
     1
102
RTVSPost2010Prop31
280
     0
102
RTVSPost2010PropOp31
 70
     1
102
RTVSPost2010Prop32
280
     0
102
RTVSPost2010PropOp32
 70
     1
102
RTVSPost2010Prop33
280
     0
102
RTVSPost2010PropOp33
 70
     1
102
RTVSPost2010Prop34
280
     0
102
RTVSPost2010PropOp34
 70
     1
102
RTVSPost2010Prop35
280
     0
102
RTVSPost2010PropOp35
 70
     1
102
RTVSPost2010Prop36
280
     0
102
RTVSPost2010PropOp36
 70
     1
102
RTVSPost2010Prop37
 90
       50
102
RTVSPost2010PropOp37
 70
     1
102
RTVSPost2010Prop38
140
0.0
102
RTVSPost2010PropOp38
 70
     1
102
RTVSPost2010Prop39
140
1.0
102
RTVSPost2010PropOp39
 70
     1
102
RTVSPost2010Prop40
 90
        0
102
RTVSPost2010PropOp40
 70
     1
102
RTVSPost2010Prop41ColorIndex
 90
       18
102
RTVSPost2010Prop41ColorRGB
 90
        0
102
RTVSPost2010PropOp41
 70
     1
102
RTVSPost2010Prop42
 90
       50
102
RTVSPost2010PropOp42
 70
     1
102
RTVSPost2010Prop43
 90
        3
102
RTVSPost2010PropOp43
 70
     1
102
RTVSPost2010Prop44ColorIndex
 90
        5
102
RTVSPost2010Prop44ColorRGB
 90
      255
102
RTVSPost2010PropOp44
 70
     1
102
RTVSPost2010Prop45
280
     0
102
RTVSPost2010PropOp45
 70
     1
102
RTVSPost2010Prop46
 90
       50
102
RTVSPost2010PropOp46
 70
     1
102
RTVSPost2010Prop47
 90
       50
102
RTVSPost2010PropOp47
 70
     1
102
RTVSPost2010Prop48
 90
       50
102
RTVSPost2010PropOp48
 70
     1
102
RTVSPost2010Prop49
280
     0
102
RTVSPost2010PropOp49
 70
     1
102
RTVSPost2010Prop50
 90
       50
102
RTVSPost2010PropOp50
 70
     1
102
RTVSPost2010Prop51ColorIndex
 90
      256
102
RTVSPost2010Prop51ColorRGB
 90
-16777216
102
RTVSPost2010PropOp51
 70
     0
102
RTVSPost2010Prop52
140
1.0
102
RTVSPost2010PropOp52
 70
     0
102
RTVSPost2010Prop53
 90
        2
102
RTVSPost2010PropOp53
 70
     1
102
RTVSPost2010Prop54
  1
strokes_ogs.tif
102
RTVSPost2010PropOp54
 70
     1
102
RTVSPost2010Prop55
280
     0
102
RTVSPost2010PropOp55
 70
     1
102
RTVSPost2010Prop56
140
1.0
102
RTVSPost2010PropOp56
 70
     1
102
RTVSPost2010Prop57
140
1.0
102
RTVSPost2010PropOp57
 70
     1
  0
XRECORD
  5
2CF
102
{ACAD_REACTORS
330
2CE
102
}
330
2CE
100
AcDbXrecord
280
     1
102
RTVSPost2010Prop28
280
     0
102
RTVSPost2010PropOp28
 70
     1
102
RTVSPost2010Prop29
280
     1
102
RTVSPost2010PropOp29
 70
     1
102
RTVSPost2010Prop30
280
     1
102
RTVSPost2010PropOp30
 70
     1
102
RTVSPost2010Prop31
280
     0
102
RTVSPost2010PropOp31
 70
     1
102
RTVSPost2010Prop32
280
     0
102
RTVSPost2010PropOp32
 70
     1
102
RTVSPost2010Prop33
280
     0
102
RTVSPost2010PropOp33
 70
     1
102
RTVSPost2010Prop34
280
     0
102
RTVSPost2010PropOp34
 70
     1
102
RTVSPost2010Prop35
280
     0
102
RTVSPost2010PropOp35
 70
     1
102
RTVSPost2010Prop36
280
     0
102
RTVSPost2010PropOp36
 70
     1
102
RTVSPost2010Prop37
 90
       50
102
RTVSPost2010PropOp37
 70
     1
102
RTVSPost2010Prop38
140
0.0
102
RTVSPost2010PropOp38
 70
     1
102
RTVSPost2010Prop39
140
1.0
102
RTVSPost2010PropOp39
 70
     1
102
RTVSPost2010Prop40
 90
        0
102
RTVSPost2010PropOp40
 70
     1
102
RTVSPost2010Prop41ColorIndex
 90
       18
102
RTVSPost2010Prop41ColorRGB
 90
        0
102
RTVSPost2010PropOp41
 70
     1
102
RTVSPost2010Prop42
 90
       50
102
RTVSPost2010PropOp42
 70
     1
102
RTVSPost2010Prop43
 90
        3
102
RTVSPost2010PropOp43
 70
     1
102
RTVSPost2010Prop44ColorIndex
 90
        5
102
RTVSPost2010Prop44ColorRGB
 90
      255
102
RTVSPost2010PropOp44
 70
     1
102
RTVSPost2010Prop45
280
     0
102
RTVSPost2010PropOp45
 70
     1
102
RTVSPost2010Prop46
 90
       50
102
RTVSPost2010PropOp46
 70
     1
102
RTVSPost2010Prop47
 90
       50
102
RTVSPost2010PropOp47
 70
     1
102
RTVSPost2010Prop48
 90
       50
102
RTVSPost2010PropOp48
 70
     1
102
RTVSPost2010Prop49
280
     0
102
RTVSPost2010PropOp49
 70
     1
102
RTVSPost2010Prop50
 90
       50
102
RTVSPost2010PropOp50
 70
     1
102
RTVSPost2010Prop51ColorIndex
 90
      256
102
RTVSPost2010Prop51ColorRGB
 90
-16777216
102
RTVSPost2010PropOp51
 70
     0
102
RTVSPost2010Prop52
140
1.0
102
RTVSPost2010PropOp52
 70
     0
102
RTVSPost2010Prop53
 90
        2
102
RTVSPost2010PropOp53
 70
     1
102
RTVSPost2010Prop54
  1
strokes_ogs.tif
102
RTVSPost2010PropOp54
 70
     1
102
RTVSPost2010Prop55
280
     0
102
RTVSPost2010PropOp55
 70
     1
102
RTVSPost2010Prop56
140
1.0
102
RTVSPost2010PropOp56
 70
     1
102
RTVSPost2010Prop57
140
1.0
102
RTVSPost2010PropOp57
 70
     1
  0
XRECORD
  5
2D1
102
{ACAD_REACTORS
330
2D0
102
}
330
2D0
100
AcDbXrecord
280
     1
102
RTVSPost2010Prop28
280
     0
102
RTVSPost2010PropOp28
 70
     1
102
RTVSPost2010Prop29
280
     1
102
RTVSPost2010PropOp29
 70
     1
102
RTVSPost2010Prop30
280
     1
102
RTVSPost2010PropOp30
 70
     1
102
RTVSPost2010Prop31
280
     0
102
RTVSPost2010PropOp31
 70
     1
102
RTVSPost2010Prop32
280
     0
102
RTVSPost2010PropOp32
 70
     1
102
RTVSPost2010Prop33
280
     0
102
RTVSPost2010PropOp33
 70
     1
102
RTVSPost2010Prop34
280
     0
102
RTVSPost2010PropOp34
 70
     1
102
RTVSPost2010Prop35
280
     0
102
RTVSPost2010PropOp35
 70
     1
102
RTVSPost2010Prop36
280
     0
102
RTVSPost2010PropOp36
 70
     1
102
RTVSPost2010Prop37
 90
       50
102
RTVSPost2010PropOp37
 70
     1
102
RTVSPost2010Prop38
140
0.0
102
RTVSPost2010PropOp38
 70
     1
102
RTVSPost2010Prop39
140
1.0
102
RTVSPost2010PropOp39
 70
     1
102
RTVSPost2010Prop40
 90
        0
102
RTVSPost2010PropOp40
 70
     1
102
RTVSPost2010Prop41ColorIndex
 90
       18
102
RTVSPost2010Prop41ColorRGB
 90
        0
102
RTVSPost2010PropOp41
 70
     1
102
RTVSPost2010Prop42
 90
       50
102
RTVSPost2010PropOp42
 70
     1
102
RTVSPost2010Prop43
 90
        3
102
RTVSPost2010PropOp43
 70
     1
102
RTVSPost2010Prop44ColorIndex
 90
        5
102
RTVSPost2010Prop44ColorRGB
 90
      255
102
RTVSPost2010PropOp44
 70
     1
102
RTVSPost2010Prop45
280
     0
102
RTVSPost2010PropOp45
 70
     1
102
RTVSPost2010Prop46
 90
       50
102
RTVSPost2010PropOp46
 70
     1
102
RTVSPost2010Prop47
 90
       50
102
RTVSPost2010PropOp47
 70
     1
102
RTVSPost2010Prop48
 90
       50
102
RTVSPost2010PropOp48
 70
     1
102
RTVSPost2010Prop49
280
     0
102
RTVSPost2010PropOp49
 70
     1
102
RTVSPost2010Prop50
 90
       50
102
RTVSPost2010PropOp50
 70
     1
102
RTVSPost2010Prop51ColorIndex
 90
      256
102
RTVSPost2010Prop51ColorRGB
 90
-16777216
102
RTVSPost2010PropOp51
 70
     0
102
RTVSPost2010Prop52
140
1.0
102
RTVSPost2010PropOp52
 70
     0
102
RTVSPost2010Prop53
 90
        2
102
RTVSPost2010PropOp53
 70
     1
102
RTVSPost2010Prop54
  1
strokes_ogs.tif
102
RTVSPost2010PropOp54
 70
     1
102
RTVSPost2010Prop55
280
     0
102
RTVSPost2010PropOp55
 70
     1
102
RTVSPost2010Prop56
140
1.0
102
RTVSPost2010PropOp56
 70
     1
102
RTVSPost2010Prop57
140
1.0
102
RTVSPost2010PropOp57
 70
     1
  0
XRECORD
  5
2C1
102
{ACAD_REACTORS
330
2C0
102
}
330
2C0
100
AcDbXrecord
280
     1
102
RTVSPost2010Prop28
280
     0
102
RTVSPost2010PropOp28
 70
     1
102
RTVSPost2010Prop29
280
     1
102
RTVSPost2010PropOp29
 70
     1
102
RTVSPost2010Prop30
280
     1
102
RTVSPost2010PropOp30
 70
     1
102
RTVSPost2010Prop31
280
     0
102
RTVSPost2010PropOp31
 70
     1
102
RTVSPost2010Prop32
280
     0
102
RTVSPost2010PropOp32
 70
     1
102
RTVSPost2010Prop33
280
     0
102
RTVSPost2010PropOp33
 70
     1
102
RTVSPost2010Prop34
280
     0
102
RTVSPost2010PropOp34
 70
     1
102
RTVSPost2010Prop35
280
     0
102
RTVSPost2010PropOp35
 70
     1
102
RTVSPost2010Prop36
280
     0
102
RTVSPost2010PropOp36
 70
     1
102
RTVSPost2010Prop37
 90
       50
102
RTVSPost2010PropOp37
 70
     1
102
RTVSPost2010Prop38
140
0.0
102
RTVSPost2010PropOp38
 70
     1
102
RTVSPost2010Prop39
140
1.0
102
RTVSPost2010PropOp39
 70
     1
102
RTVSPost2010Prop40
 90
        0
102
RTVSPost2010PropOp40
 70
     1
102
RTVSPost2010Prop41ColorIndex
 90
       18
102
RTVSPost2010Prop41ColorRGB
 90
        0
102
RTVSPost2010PropOp41
 70
     1
102
RTVSPost2010Prop42
 90
       50
102
RTVSPost2010PropOp42
 70
     1
102
RTVSPost2010Prop43
 90
        3
102
RTVSPost2010PropOp43
 70
     1
102
RTVSPost2010Prop44ColorIndex
 90
        5
102
RTVSPost2010Prop44ColorRGB
 90
      255
102
RTVSPost2010PropOp44
 70
     1
102
RTVSPost2010Prop45
280
     0
102
RTVSPost2010PropOp45
 70
     1
102
RTVSPost2010Prop46
 90
       50
102
RTVSPost2010PropOp46
 70
     1
102
RTVSPost2010Prop47
 90
       50
102
RTVSPost2010PropOp47
 70
     1
102
RTVSPost2010Prop48
 90
       50
102
RTVSPost2010PropOp48
 70
     1
102
RTVSPost2010Prop49
280
     0
102
RTVSPost2010PropOp49
 70
     1
102
RTVSPost2010Prop50
 90
       50
102
RTVSPost2010PropOp50
 70
     1
102
RTVSPost2010Prop51ColorIndex
 90
      256
102
RTVSPost2010Prop51ColorRGB
 90
-16777216
102
RTVSPost2010PropOp51
 70
     0
102
RTVSPost2010Prop52
140
1.0
102
RTVSPost2010PropOp52
 70
     0
102
RTVSPost2010Prop53
 90
        2
102
RTVSPost2010PropOp53
 70
     1
102
RTVSPost2010Prop54
  1
strokes_ogs.tif
102
RTVSPost2010PropOp54
 70
     1
102
RTVSPost2010Prop55
280
     0
102
RTVSPost2010PropOp55
 70
     1
102
RTVSPost2010Prop56
140
1.0
102
RTVSPost2010PropOp56
 70
     1
102
RTVSPost2010Prop57
140
1.0
102
RTVSPost2010PropOp57
 70
     1
  0
XRECORD
  5
2B3
102
{ACAD_REACTORS
330
2B2
102
}
330
2B2
100
AcDbXrecord
280
     1
102
RTVSPost2010Prop28
280
     0
102
RTVSPost2010PropOp28
 70
     1
102
RTVSPost2010Prop29
280
     1
102
RTVSPost2010PropOp29
 70
     1
102
RTVSPost2010Prop30
280
     1
102
RTVSPost2010PropOp30
 70
     1
102
RTVSPost2010Prop31
280
     0
102
RTVSPost2010PropOp31
 70
     1
102
RTVSPost2010Prop32
280
     0
102
RTVSPost2010PropOp32
 70
     1
102
RTVSPost2010Prop33
280
     0
102
RTVSPost2010PropOp33
 70
     1
102
RTVSPost2010Prop34
280
     0
102
RTVSPost2010PropOp34
 70
     1
102
RTVSPost2010Prop35
280
     0
102
RTVSPost2010PropOp35
 70
     1
102
RTVSPost2010Prop36
280
     0
102
RTVSPost2010PropOp36
 70
     1
102
RTVSPost2010Prop37
 90
       50
102
RTVSPost2010PropOp37
 70
     1
102
RTVSPost2010Prop38
140
0.0
102
RTVSPost2010PropOp38
 70
     1
102
RTVSPost2010Prop39
140
1.0
102
RTVSPost2010PropOp39
 70
     1
102
RTVSPost2010Prop40
 90
        0
102
RTVSPost2010PropOp40
 70
     1
102
RTVSPost2010Prop41ColorIndex
 90
       18
102
RTVSPost2010Prop41ColorRGB
 90
        0
102
RTVSPost2010PropOp41
 70
     1
102
RTVSPost2010Prop42
 90
       50
102
RTVSPost2010PropOp42
 70
     1
102
RTVSPost2010Prop43
 90
        3
102
RTVSPost2010PropOp43
 70
     1
102
RTVSPost2010Prop44ColorIndex
 90
        5
102
RTVSPost2010Prop44ColorRGB
 90
      255
102
RTVSPost2010PropOp44
 70
     1
102
RTVSPost2010Prop45
280
     0
102
RTVSPost2010PropOp45
 70
     1
102
RTVSPost2010Prop46
 90
       50
102
RTVSPost2010PropOp46
 70
     1
102
RTVSPost2010Prop47
 90
       50
102
RTVSPost2010PropOp47
 70
     1
102
RTVSPost2010Prop48
 90
       50
102
RTVSPost2010PropOp48
 70
     1
102
RTVSPost2010Prop49
280
     0
102
RTVSPost2010PropOp49
 70
     1
102
RTVSPost2010Prop50
 90
       50
102
RTVSPost2010PropOp50
 70
     1
102
RTVSPost2010Prop51ColorIndex
 90
      256
102
RTVSPost2010Prop51ColorRGB
 90
-16777216
102
RTVSPost2010PropOp51
 70
     0
102
RTVSPost2010Prop52
140
1.0
102
RTVSPost2010PropOp52
 70
     0
102
RTVSPost2010Prop53
 90
        2
102
RTVSPost2010PropOp53
 70
     1
102
RTVSPost2010Prop54
  1
strokes_ogs.tif
102
RTVSPost2010PropOp54
 70
     1
102
RTVSPost2010Prop55
280
     0
102
RTVSPost2010PropOp55
 70
     1
102
RTVSPost2010Prop56
140
1.0
102
RTVSPost2010PropOp56
 70
     1
102
RTVSPost2010Prop57
140
1.0
102
RTVSPost2010PropOp57
 70
     1
  0
XRECORD
  5
2D3
102
{ACAD_REACTORS
330
2D2
102
}
330
2D2
100
AcDbXrecord
280
     1
102
RTVSPost2010Prop28
280
     0
102
RTVSPost2010PropOp28
 70
     1
102
RTVSPost2010Prop29
280
     1
102
RTVSPost2010PropOp29
 70
     1
102
RTVSPost2010Prop30
280
     1
102
RTVSPost2010PropOp30
 70
     1
102
RTVSPost2010Prop31
280
     0
102
RTVSPost2010PropOp31
 70
     1
102
RTVSPost2010Prop32
280
     0
102
RTVSPost2010PropOp32
 70
     1
102
RTVSPost2010Prop33
280
     0
102
RTVSPost2010PropOp33
 70
     1
102
RTVSPost2010Prop34
280
     0
102
RTVSPost2010PropOp34
 70
     1
102
RTVSPost2010Prop35
280
     0
102
RTVSPost2010PropOp35
 70
     1
102
RTVSPost2010Prop36
280
     0
102
RTVSPost2010PropOp36
 70
     1
102
RTVSPost2010Prop37
 90
       50
102
RTVSPost2010PropOp37
 70
     1
102
RTVSPost2010Prop38
140
0.0
102
RTVSPost2010PropOp38
 70
     1
102
RTVSPost2010Prop39
140
1.0
102
RTVSPost2010PropOp39
 70
     1
102
RTVSPost2010Prop40
 90
        0
102
RTVSPost2010PropOp40
 70
     1
102
RTVSPost2010Prop41ColorIndex
 90
       18
102
RTVSPost2010Prop41ColorRGB
 90
        0
102
RTVSPost2010PropOp41
 70
     1
102
RTVSPost2010Prop42
 90
       50
102
RTVSPost2010PropOp42
 70
     1
102
RTVSPost2010Prop43
 90
        3
102
RTVSPost2010PropOp43
 70
     1
102
RTVSPost2010Prop44ColorIndex
 90
        5
102
RTVSPost2010Prop44ColorRGB
 90
      255
102
RTVSPost2010PropOp44
 70
     1
102
RTVSPost2010Prop45
280
     0
102
RTVSPost2010PropOp45
 70
     1
102
RTVSPost2010Prop46
 90
       50
102
RTVSPost2010PropOp46
 70
     1
102
RTVSPost2010Prop47
 90
       50
102
RTVSPost2010PropOp47
 70
     1
102
RTVSPost2010Prop48
 90
       50
102
RTVSPost2010PropOp48
 70
     1
102
RTVSPost2010Prop49
280
     0
102
RTVSPost2010PropOp49
 70
     1
102
RTVSPost2010Prop50
 90
       50
102
RTVSPost2010PropOp50
 70
     1
102
RTVSPost2010Prop51ColorIndex
 90
      256
102
RTVSPost2010Prop51ColorRGB
 90
-16777216
102
RTVSPost2010PropOp51
 70
     0
102
RTVSPost2010Prop52
140
1.0
102
RTVSPost2010PropOp52
 70
     0
102
RTVSPost2010Prop53
 90
        2
102
RTVSPost2010PropOp53
 70
     1
102
RTVSPost2010Prop54
  1
strokes_ogs.tif
102
RTVSPost2010PropOp54
 70
     1
102
RTVSPost2010Prop55
280
     0
102
RTVSPost2010PropOp55
 70
     1
102
RTVSPost2010Prop56
140
1.0
102
RTVSPost2010PropOp56
 70
     1
102
RTVSPost2010Prop57
140
1.0
102
RTVSPost2010PropOp57
 70
     1
  0
ENDSEC
  0
EOF
