  0
SECTION
  2
HEADER
  9
$ACADVER
  1
AC1024
  9
$ACADMAINTVER
 70
     6
  9
$DWGCODEPAGE
  3
ANSI_1252
  9
$INSBASE
 10
0.0
 20
0.0
 30
0.0
  9
$EXTMIN
 10
-15.47845478560794
 20
172.5415200574108
 30
-0.0015258207003583
  9
$EXTMAX
 10
146.3857333556355
 20
246.2295691138478
 30
0.0000000349246037
  9
$LIMMIN
 10
0.0
 20
0.0
  9
$LIMMAX
 10
420.0
 20
297.0
  9
$ORTHOMODE
 70
     0
  9
$REGENMODE
 70
     1
  9
$FILLMODE
 70
     1
  9
$QTEXTMODE
 70
     0
  9
$MIRRTEXT
 70
     1
  9
$LTSCALE
 40
1.0
  9
$ATTMODE
 70
     1
  9
$TEXTSIZE
 40
0.12
  9
$TRACEWID
 40
1.0
  9
$TEXTSTYLE
  7
Standard
  9
$CLAYER
  8
precinct
  9
$CELTYPE
  6
ByLayer
  9
$CECOLOR
 62
   256
  9
$CELTSCALE
 40
1.0
  9
$DISPSILH
 70
     0
  9
$DIMSCALE
 40
1.0
  9
$DIMASZ
 40
2.5
  9
$DIMEXO
 40
0.625
  9
$DIMDLI
 40
3.75
  9
$DIMRND
 40
0.0
  9
$DIMDLE
 40
0.0
  9
$DIMEXE
 40
1.25
  9
$DIMTP
 40
0.0
  9
$DIMTM
 40
0.0
  9
$DIMTXT
 40
2.5
  9
$DIMCEN
 40
2.5
  9
$DIMTSZ
 40
0.0
  9
$DIMTOL
 70
     0
  9
$DIMLIM
 70
     0
  9
$DIMTIH
 70
     0
  9
$DIMTOH
 70
     0
  9
$DIMSE1
 70
     0
  9
$DIMSE2
 70
     0
  9
$DIMTAD
 70
     1
  9
$DIMZIN
 70
     8
  9
$DIMBLK
  1

  9
$DIMASO
 70
     1
  9
$DIMSHO
 70
     1
  9
$DIMPOST
  1

  9
$DIMAPOST
  1

  9
$DIMALT
 70
     0
  9
$DIMALTD
 70
     3
  9
$DIMALTF
 40
0.03937007874016
  9
$DIMLFAC
 40
1.0
  9
$DIMTOFL
 70
     1
  9
$DIMTVP
 40
0.0
  9
$DIMTIX
 70
     0
  9
$DIMSOXD
 70
     0
  9
$DIMSAH
 70
     0
  9
$DIMBLK1
  1

  9
$DIMBLK2
  1

  9
$DIMSTYLE
  2
ISO-25
  9
$DIMCLRD
 70
     0
  9
$DIMCLRE
 70
     0
  9
$DIMCLRT
 70
     0
  9
$DIMTFAC
 40
1.0
  9
$DIMGAP
 40
0.625
  9
$DIMJUST
 70
     0
  9
$DIMSD1
 70
     0
  9
$DIMSD2
 70
     0
  9
$DIMTOLJ
 70
     0
  9
$DIMTZIN
 70
     8
  9
$DIMALTZ
 70
     0
  9
$DIMALTTZ
 70
     0
  9
$DIMUPT
 70
     0
  9
$DIMDEC
 70
     2
  9
$DIMTDEC
 70
     2
  9
$DIMALTU
 70
     2
  9
$DIMALTTD
 70
     3
  9
$DIMTXSTY
  7
Standard
  9
$DIMAUNIT
 70
     0
  9
$DIMADEC
 70
     0
  9
$DIMALTRND
 40
0.0
  9
$DIMAZIN
 70
     0
  9
$DIMDSEP
 70
    44
  9
$DIMATFIT
 70
     3
  9
$DIMFRAC
 70
     0
  9
$DIMLDRBLK
  1

  9
$DIMLUNIT
 70
     2
  9
$DIMLWD
 70
    -2
  9
$DIMLWE
 70
    -2
  9
$DIMTMOVE
 70
     0
  9
$DIMFXL
 40
1.0
  9
$DIMFXLON
 70
     0
  9
$DIMJOGANG
 40
0.7853981633974483
  9
$DIMTFILL
 70
     0
  9
$DIMTFILLCLR
 70
     0
  9
$DIMARCSYM
 70
     0
  9
$DIMLTYPE
  6

  9
$DIMLTEX1
  6

  9
$DIMLTEX2
  6

  9
$DIMTXTDIRECTION
 70
     0
  9
$LUNITS
 70
     2
  9
$LUPREC
 70
     4
  9
$SKETCHINC
 40
1.0
  9
$FILLETRAD
 40
10.0
  9
$AUNITS
 70
     0
  9
$AUPREC
 70
     0
  9
$MENU
  1
.
  9
$ELEVATION
 40
0.0
  9
$PELEVATION
 40
0.0
  9
$THICKNESS
 40
0.0
  9
$LIMCHECK
 70
     0
  9
$CHAMFERA
 40
10.0
  9
$CHAMFERB
 40
10.0
  9
$CHAMFERC
 40
20.0
  9
$CHAMFERD
 40
0.0
  9
$SKPOLY
 70
     0
  9
$TDCREATE
 40
2452145.626648217
  9
$TDUCREATE
 40
2452145.584981551
  9
$TDUPDATE
 40
2457231.70109456
  9
$TDUUPDATE
 40
2457231.659427893
  9
$TDINDWG
 40
0.2916402083
  9
$TDUSRTIMER
 40
0.2916398495
  9
$USRTIMER
 70
     1
  9
$ANGBASE
 50
0.0
  9
$ANGDIR
 70
     0
  9
$PDMODE
 70
     0
  9
$PDSIZE
 40
0.0
  9
$PLINEWID
 40
0.0
  9
$SPLFRAME
 70
     0
  9
$SPLINETYPE
 70
     6
  9
$SPLINESEGS
 70
     8
  9
$HANDSEED
  5
297
  9
$SURFTAB1
 70
     6
  9
$SURFTAB2
 70
     6
  9
$SURFTYPE
 70
     6
  9
$SURFU
 70
     6
  9
$SURFV
 70
     6
  9
$UCSBASE
  2

  9
$UCSNAME
  2

  9
$UCSORG
 10
0.0
 20
0.0
 30
0.0
  9
$UCSXDIR
 10
1.0
 20
0.0
 30
0.0
  9
$UCSYDIR
 10
0.0
 20
1.0
 30
0.0
  9
$UCSORTHOREF
  2

  9
$UCSORTHOVIEW
 70
     0
  9
$UCSORGTOP
 10
0.0
 20
0.0
 30
0.0
  9
$UCSORGBOTTOM
 10
0.0
 20
0.0
 30
0.0
  9
$UCSORGLEFT
 10
0.0
 20
0.0
 30
0.0
  9
$UCSORGRIGHT
 10
0.0
 20
0.0
 30
0.0
  9
$UCSORGFRONT
 10
0.0
 20
0.0
 30
0.0
  9
$UCSORGBACK
 10
0.0
 20
0.0
 30
0.0
  9
$PUCSBASE
  2

  9
$PUCSNAME
  2

  9
$PUCSORG
 10
0.0
 20
0.0
 30
0.0
  9
$PUCSXDIR
 10
1.0
 20
0.0
 30
0.0
  9
$PUCSYDIR
 10
0.0
 20
1.0
 30
0.0
  9
$PUCSORTHOREF
  2

  9
$PUCSORTHOVIEW
 70
     0
  9
$PUCSORGTOP
 10
0.0
 20
0.0
 30
0.0
  9
$PUCSORGBOTTOM
 10
0.0
 20
0.0
 30
0.0
  9
$PUCSORGLEFT
 10
0.0
 20
0.0
 30
0.0
  9
$PUCSORGRIGHT
 10
0.0
 20
0.0
 30
0.0
  9
$PUCSORGFRONT
 10
0.0
 20
0.0
 30
0.0
  9
$PUCSORGBACK
 10
0.0
 20
0.0
 30
0.0
  9
$USERI1
 70
     0
  9
$USERI2
 70
     0
  9
$USERI3
 70
     0
  9
$USERI4
 70
     0
  9
$USERI5
 70
     0
  9
$USERR1
 40
0.0
  9
$USERR2
 40
0.0
  9
$USERR3
 40
0.0
  9
$USERR4
 40
0.0
  9
$USERR5
 40
0.0
  9
$WORLDVIEW
 70
     1
  9
$SHADEDGE
 70
     3
  9
$SHADEDIF
 70
    70
  9
$TILEMODE
 70
     1
  9
$MAXACTVP
 70
    48
  9
$PINSBASE
 10
0.0
 20
0.0
 30
0.0
  9
$PLIMCHECK
 70
     0
  9
$PEXTMIN
 10
24.38124809265136
 20
20.4312497138977
 30
0.0
  9
$PEXTMAX
 10
219.4312328338623
 20
183.8812474250794
 30
0.0
  9
$PLIMMIN
 10
0.0
 20
0.0
  9
$PLIMMAX
 10
420.0
 20
297.0
  9
$UNITMODE
 70
     0
  9
$VISRETAIN
 70
     1
  9
$PLINEGEN
 70
     0
  9
$PSLTSCALE
 70
     1
  9
$TREEDEPTH
 70
  3020
  9
$CMLSTYLE
  2
Standard
  9
$CMLJUST
 70
     0
  9
$CMLSCALE
 40
20.0
  9
$PROXYGRAPHICS
 70
     1
  9
$MEASUREMENT
 70
     1
  9
$CELWEIGHT
370
    -1
  9
$ENDCAPS
280
     0
  9
$JOINSTYLE
280
     0
  9
$LWDISPLAY
290
     0
  9
$INSUNITS
 70
     4
  9
$HYPERLINKBASE
  1

  9
$STYLESHEET
  1

  9
$XEDIT
290
     1
  9
$CEPSNTYPE
380
     0
  9
$PSTYLEMODE
290
     1
  9
$FINGERPRINTGUID
  2
{DA5034F0-97D7-11D5-80AB-00D0B7A04F89}
  9
$VERSIONGUID
  2
{E4F89352-22F0-4574-96C3-9C0F3F86C1F7}
  9
$EXTNAMES
290
     1
  9
$PSVPSCALE
 40
0.0
  9
$OLESTARTUP
290
     0
  9
$SORTENTS
280
   127
  9
$INDEXCTL
280
     0
  9
$HIDETEXT
280
     0
  9
$XCLIPFRAME
280
     0
  9
$HALOGAP
280
     0
  9
$OBSCOLOR
 70
   257
  9
$OBSLTYPE
280
     0
  9
$INTERSECTIONDISPLAY
280
     0
  9
$INTERSECTIONCOLOR
 70
   257
  9
$DIMASSOC
280
     1
  9
$PROJECTNAME
  1

  9
$CAMERADISPLAY
290
     0
  9
$LENSLENGTH
 40
50.0
  9
$CAMERAHEIGHT
 40
0.0
  9
$STEPSPERSEC
 40
2.0
  9
$STEPSIZE
 40
6.0
  9
$3DDWFPREC
 40
2.0
  9
$PSOLWIDTH
 40
0.25
  9
$PSOLHEIGHT
 40
4.0
  9
$LOFTANG1
 40
1.570796326794897
  9
$LOFTANG2
 40
1.570796326794897
  9
$LOFTMAG1
 40
0.0
  9
$LOFTMAG2
 40
0.0
  9
$LOFTPARAM
 70
     7
  9
$LOFTNORMALS
280
     1
  9
$LATITUDE
 40
37.795
  9
$LONGITUDE
 40
-122.394
  9
$NORTHDIRECTION
 40
0.0
  9
$TIMEZONE
 70
 -8000
  9
$LIGHTGLYPHDISPLAY
280
     1
  9
$TILEMODELIGHTSYNCH
280
     1
  9
$SOLIDHIST
280
     0
  9
$SHOWHIST
280
     1
  9
$DWFFRAME
280
     2
  9
$DGNFRAME
280
     2
  9
$REALWORLDSCALE
290
     1
  9
$INTERFERECOLOR
 62
   256
  9
$CSHADOW
280
     0
  9
$SHADOWPLANELOCATION
 40
0.0
  0
ENDSEC
  0
SECTION
  2
CLASSES
  0
CLASS
  1
ACDBDICTIONARYWDFLT
  2
AcDbDictionaryWithDefault
  3
ObjectDBX Classes
 90
        0
 91
        4
280
     0
281
     0
  0
CLASS
  1
ACDBPLACEHOLDER
  2
AcDbPlaceHolder
  3
ObjectDBX Classes
 90
        0
 91
        1
280
     0
281
     0
  0
CLASS
  1
LAYOUT
  2
AcDbLayout
  3
ObjectDBX Classes
 90
        0
 91
        1
280
     0
281
     0
  0
CLASS
  1
LONG_TRANSACTION
  2
AcDbLongTransaction
  3
ObjectDBX Classes
 90
        0
 91
        1
280
     0
281
     0
  0
CLASS
  1
LWPOLYLINE
  2
AcDbPolyline
  3
ObjectDBX Classes
 90
        0
 91
        1
280
     0
281
     1
  0
CLASS
  1
HATCH
  2
AcDbHatch
  3
ObjectDBX Classes
 90
        0
 91
        1
280
     0
281
     1
  0
CLASS
  1
XRECORD
  2
AcDbXrecord
  3
ObjectDBX Classes
 90
        0
 91
        1
280
     0
281
     0
  0
CLASS
  1
LONG_TRANSACTION
  2
AcDbLongTransaction
  3
ObjectDBX Classes
 90
        0
 91
        1
280
     0
281
     0
  0
CLASS
  1
LWPOLYLINE
  2
AcDbPolyline
  3
ObjectDBX Classes
 90
        0
 91
        1
280
     0
281
     1
  0
CLASS
  1
HATCH
  2
AcDbHatch
  3
ObjectDBX Classes
 90
        0
 91
        1
280
     0
281
     1
  0
CLASS
  1
XRECORD
  2
AcDbXrecord
  3
ObjectDBX Classes
 90
        0
 91
        1
280
     0
281
     0
  0
CLASS
  1
VISUALSTYLE
  2
AcDbVisualStyle
  3
ObjectDBX Classes
 90
     4095
 91
        4
280
     0
281
     0
  0
CLASS
  1
SCALE
  2
AcDbScale
  3
ObjectDBX Classes
 90
     1153
 91
        4
280
     0
281
     0
  0
CLASS
  1
MATERIAL
  2
AcDbMaterial
  3
ObjectDBX Classes
 90
     1153
 91
        4
280
     0
281
     0
  0
CLASS
  1
TABLESTYLE
  2
AcDbTableStyle
  3
ObjectDBX Classes
 90
     4095
 91
        4
280
     0
281
     0
  0
CLASS
  1
MLEADERSTYLE
  2
AcDbMLeaderStyle
  3
ACDB_MLEADERSTYLE_CLASS
 90
     4095
 91
        4
280
     0
281
     0
  0
CLASS
  1
DICTIONARYVAR
  2
AcDbDictionaryVar
  3
ObjectDBX Classes
 90
        0
 91
        4
280
     0
281
     0
  0
CLASS
  1
CELLSTYLEMAP
  2
AcDbCellStyleMap
  3
ObjectDBX Classes
 90
     1152
 91
        4
280
     0
281
     0
  0
ENDSEC
  0
SECTION
  2
TABLES
  0
TABLE
  2
VPORT
  5
8
330
0
100
AcDbSymbolTable
 70
     2
  0
VPORT
  5
219
330
8
100
AcDbSymbolTableRecord
100
AcDbViewportTableRecord
  2
*Active
 70
     0
 10
0.0
 20
0.0
 11
1.0
 21
1.0
 12
65.45363928501376
 22
209.3855445856293
 13
0.0
 23
0.0
 14
10.0
 24
10.0
 15
10.0
 25
10.0
 16
0.0
 26
0.0
 36
1.0
 17
0.0
 27
0.0
 37
0.0
 40
91.04389989105302
 41
1.789077212806026
 42
50.0
 43
0.0
 44
0.0
 50
0.0
 51
0.0
 71
     0
 72
   100
 73
     1
 74
     3
 75
     0
 76
     0
 77
     0
 78
     0
281
     0
 65
     1
110
0.0
120
0.0
130
0.0
111
1.0
121
0.0
131
0.0
112
0.0
122
1.0
132
0.0
 79
     0
146
0.0
348
21F
 60
     3
 61
     5
292
     1
282
     1
141
0.0
142
0.0
 63
   256
  0
ENDTAB
  0
TABLE
  2
LTYPE
  5
5
330
0
100
AcDbSymbolTable
 70
     3
  0
LTYPE
  5
14
330
5
100
AcDbSymbolTableRecord
100
AcDbLinetypeTableRecord
  2
ByBlock
 70
     0
  3

 72
    65
 73
     0
 40
0.0
  0
LTYPE
  5
15
330
5
100
AcDbSymbolTableRecord
100
AcDbLinetypeTableRecord
  2
ByLayer
 70
     0
  3

 72
    65
 73
     0
 40
0.0
  0
LTYPE
  5
16
330
5
100
AcDbSymbolTableRecord
100
AcDbLinetypeTableRecord
  2
Continuous
 70
     0
  3
Solid line
 72
    65
 73
     0
 40
0.0
  0
LTYPE
  5
105
330
5
100
AcDbSymbolTableRecord
100
AcDbLinetypeTableRecord
  2
ACAD_ISO02W100
 70
     0
  3
ISO dash __ __ __ __ __ __ __ __ __ __ __ __ __
 72
    65
 73
     2
 40
15.0
 49
12.0
 74
     0
 49
-3.0
 74
     0
  0
LTYPE
  5
106
330
5
100
AcDbSymbolTableRecord
100
AcDbLinetypeTableRecord
  2
ACAD_ISO07W100
 70
     0
  3
ISO dot . . . . . . . . . . . . . . . . . . . .
 72
    65
 73
     2
 40
3.0
 49
0.0
 74
     0
 49
-3.0
 74
     0
  0
ENDTAB
  0
TABLE
  2
LAYER
  5
2
330
0
100
AcDbSymbolTable
 70
    41
  0
LAYER
  5
10
330
2
100
AcDbSymbolTableRecord
100
AcDbLayerTableRecord
  2
0
 70
     0
 62
     7
  6
Continuous
370
    -3
390
F
347
257
  0
LAYER
  5
2B
330
2
100
AcDbSymbolTableRecord
100
AcDbLayerTableRecord
  2
LOExc
 70
     0
 62
     1
  6
Continuous
370
    -3
390
F
347
257
  0
LAYER
  5
2C
330
2
100
AcDbSymbolTableRecord
100
AcDbLayerTableRecord
  2
6
 70
     0
 62
     7
  6
Continuous
370
    -3
390
F
347
257
  0
LAYER
  5
2D
330
2
100
AcDbSymbolTableRecord
100
AcDbLayerTableRecord
  2
7
 70
     0
 62
     7
  6
Continuous
370
    -3
390
F
347
257
  0
LAYER
  5
2E
330
2
100
AcDbSymbolTableRecord
100
AcDbLayerTableRecord
  2
8
 70
     0
 62
     7
  6
Continuous
370
    -3
390
F
347
257
  0
LAYER
  5
2F
330
2
100
AcDbSymbolTableRecord
100
AcDbLayerTableRecord
  2
13
 70
     0
 62
     7
  6
Continuous
370
    -3
390
F
347
257
  0
LAYER
  5
30
330
2
100
AcDbSymbolTableRecord
100
AcDbLayerTableRecord
  2
14
 70
     0
 62
     7
  6
Continuous
370
    -3
390
F
347
257
  0
LAYER
  5
31
330
2
100
AcDbSymbolTableRecord
100
AcDbLayerTableRecord
  2
16
 70
     0
 62
     7
  6
Continuous
370
    -3
390
F
347
257
  0
LAYER
  5
32
330
2
100
AcDbSymbolTableRecord
100
AcDbLayerTableRecord
  2
17
 70
     0
 62
     7
  6
Continuous
370
    -3
390
F
347
257
  0
LAYER
  5
33
330
2
100
AcDbSymbolTableRecord
100
AcDbLayerTableRecord
  2
87
 70
     0
 62
     7
  6
Continuous
370
    -3
390
F
347
257
  0
LAYER
  5
34
330
2
100
AcDbSymbolTableRecord
100
AcDbLayerTableRecord
  2
62
 70
     0
 62
     7
  6
Continuous
370
    -3
390
F
347
257
  0
LAYER
  5
35
330
2
100
AcDbSymbolTableRecord
100
AcDbLayerTableRecord
  2
60
 70
     0
 62
     7
  6
Continuous
370
    -3
390
F
347
257
  0
LAYER
  5
36
330
2
100
AcDbSymbolTableRecord
100
AcDbLayerTableRecord
  2
38
 70
     0
 62
     7
  6
Continuous
370
    -3
390
F
347
257
  0
LAYER
  5
37
330
2
100
AcDbSymbolTableRecord
100
AcDbLayerTableRecord
  2
88
 70
     0
 62
     7
  6
Continuous
370
    -3
390
F
347
257
  0
LAYER
  5
38
330
2
100
AcDbSymbolTableRecord
100
AcDbLayerTableRecord
  2
57
 70
     0
 62
     7
  6
Continuous
370
    -3
390
F
347
257
  0
LAYER
  5
39
330
2
100
AcDbSymbolTableRecord
100
AcDbLayerTableRecord
  2
84
 70
     0
 62
     7
  6
Continuous
370
    -3
390
F
347
257
  0
LAYER
  5
3A
330
2
100
AcDbSymbolTableRecord
100
AcDbLayerTableRecord
  2
85
 70
     0
 62
     7
  6
Continuous
370
    -3
390
F
347
257
  0
LAYER
  5
3B
330
2
100
AcDbSymbolTableRecord
100
AcDbLayerTableRecord
  2
58
 70
     0
 62
     7
  6
Continuous
370
    -3
390
F
347
257
  0
LAYER
  5
3C
330
2
100
AcDbSymbolTableRecord
100
AcDbLayerTableRecord
  2
27
 70
     0
 62
     7
  6
Continuous
370
    -3
390
F
347
257
  0
LAYER
  5
3D
330
2
100
AcDbSymbolTableRecord
100
AcDbLayerTableRecord
  2
37
 70
     0
 62
     7
  6
Continuous
370
    -3
390
F
347
257
  0
LAYER
  5
3E
330
2
100
AcDbSymbolTableRecord
100
AcDbLayerTableRecord
  2
40
 70
     0
 62
     7
  6
Continuous
370
    -3
390
F
347
257
  0
LAYER
  5
3F
330
2
100
AcDbSymbolTableRecord
100
AcDbLayerTableRecord
  2
30
 70
     0
 62
     7
  6
Continuous
370
    -3
390
F
347
257
  0
LAYER
  5
40
330
2
100
AcDbSymbolTableRecord
100
AcDbLayerTableRecord
  2
50
 70
     0
 62
     7
  6
Continuous
370
    -3
390
F
347
257
  0
LAYER
  5
41
330
2
100
AcDbSymbolTableRecord
100
AcDbLayerTableRecord
  2
33
 70
     0
 62
     7
  6
Continuous
370
    -3
390
F
347
257
  0
LAYER
  5
42
330
2
100
AcDbSymbolTableRecord
100
AcDbLayerTableRecord
  2
25
 70
     0
 62
     7
  6
Continuous
370
    -3
390
F
347
257
  0
LAYER
  5
43
330
2
100
AcDbSymbolTableRecord
100
AcDbLayerTableRecord
  2
26
 70
     0
 62
     7
  6
Continuous
370
    -3
390
F
347
257
  0
LAYER
  5
44
330
2
100
AcDbSymbolTableRecord
100
AcDbLayerTableRecord
  2
29
 70
     0
 62
     7
  6
Continuous
370
    -3
390
F
347
257
  0
LAYER
  5
45
330
2
100
AcDbSymbolTableRecord
100
AcDbLayerTableRecord
  2
80
 70
     0
 62
     7
  6
Continuous
370
    -3
390
F
347
257
  0
LAYER
  5
46
330
2
100
AcDbSymbolTableRecord
100
AcDbLayerTableRecord
  2
46
 70
     0
 62
     7
  6
Continuous
370
    -3
390
F
347
257
  0
LAYER
  5
47
330
2
100
AcDbSymbolTableRecord
100
AcDbLayerTableRecord
  2
43
 70
     0
 62
     7
  6
Continuous
370
    -3
390
F
347
257
  0
LAYER
  5
48
330
2
100
AcDbSymbolTableRecord
100
AcDbLayerTableRecord
  2
45
 70
     0
 62
     7
  6
Continuous
370
    -3
390
F
347
257
  0
LAYER
  5
49
330
2
100
AcDbSymbolTableRecord
100
AcDbLayerTableRecord
  2
44
 70
     0
 62
     7
  6
Continuous
370
    -3
390
F
347
257
  0
LAYER
  5
57
330
2
100
AcDbSymbolTableRecord
100
AcDbLayerTableRecord
  2
oldchurch
 70
     0
 62
   207
  6
Continuous
370
    -3
390
F
347
257
  0
LAYER
  5
5C
330
2
100
AcDbSymbolTableRecord
100
AcDbLayerTableRecord
  2
north
 70
     0
 62
     5
  6
Continuous
370
    -3
390
F
347
257
  0
LAYER
  5
96
330
2
100
AcDbSymbolTableRecord
100
AcDbLayerTableRecord
  2
28
 70
     0
 62
     7
  6
Continuous
370
    -3
390
F
347
257
  0
LAYER
  5
DC
330
2
100
AcDbSymbolTableRecord
100
AcDbLayerTableRecord
  2
31
 70
     0
 62
     7
  6
Continuous
370
    -3
390
F
347
257
  0
LAYER
  5
E2
330
2
100
AcDbSymbolTableRecord
100
AcDbLayerTableRecord
  2
61
 70
     0
 62
     7
  6
Continuous
370
    -3
390
F
347
257
  0
LAYER
  5
EB
330
2
100
AcDbSymbolTableRecord
100
AcDbLayerTableRecord
  2
94
 70
     0
 62
     7
  6
Continuous
370
    -3
390
F
347
257
  0
LAYER
  5
FC
330
2
100
AcDbSymbolTableRecord
100
AcDbLayerTableRecord
  2
precinct
 70
     0
 62
     6
  6
Continuous
370
    -3
390
F
347
257
  0
LAYER
  5
101
330
2
100
AcDbSymbolTableRecord
100
AcDbLayerTableRecord
  2
hillslope
 70
     0
 62
     3
  6
Continuous
370
    -3
390
F
347
257
  0
LAYER
  5
17C
330
2
100
AcDbSymbolTableRecord
100
AcDbLayerTableRecord
  2
59
 70
     0
 62
     7
  6
Continuous
370
    -3
390
F
347
257
  0
ENDTAB
  0
TABLE
  2
STYLE
  5
3
330
0
100
AcDbSymbolTable
 70
     2
  0
STYLE
  5
11
330
3
100
AcDbSymbolTableRecord
100
AcDbTextStyleTableRecord
  2
Standard
 70
     0
 40
0.12
 41
1.0
 50
0.0
 71
     0
 42
0.12
  3
TIMES.TTF
  4

1001
ACAD
1000
Times New Roman
1071
       18
  0
STYLE
  5
104
330
3
100
AcDbSymbolTableRecord
100
AcDbTextStyleTableRecord
  2

 70
     1
 40
0.0
 41
1.0
 50
0.0
 71
     0
 42
0.12
  3
ltypeshp.shx
  4

  0
ENDTAB
  0
TABLE
  2
VIEW
  5
6
330
0
100
AcDbSymbolTable
 70
     0
  0
ENDTAB
  0
TABLE
  2
UCS
  5
7
330
0
100
AcDbSymbolTable
 70
     0
  0
ENDTAB
  0
TABLE
  2
APPID
  5
9
330
0
100
AcDbSymbolTable
 70
     1
  0
APPID
  5
12
330
9
100
AcDbSymbolTableRecord
100
AcDbRegAppTableRecord
  2
ACAD
 70
     0
  0
ENDTAB
  0
TABLE
  2
DIMSTYLE
  5
A
330
0
100
AcDbSymbolTable
 70
     1
100
AcDbDimStyleTable
  0
DIMSTYLE
105
27
330
A
100
AcDbSymbolTableRecord
100
AcDbDimStyleTableRecord
  2
ISO-25
 70
     0
 41
2.5
 42
0.625
 43
3.75
 44
1.25
 73
     0
 74
     0
 77
     1
 78
     8
140
2.5
141
2.5
143
0.03937007874016
147
0.625
171
     3
172
     1
178
     0
271
     2
272
     2
274
     3
278
    44
283
     0
284
     8
340
11
  0
ENDTAB
  0
TABLE
  2
BLOCK_RECORD
  5
1
330
0
100
AcDbSymbolTable
 70
     1
  0
BLOCK_RECORD
  5
1F
330
1
100
AcDbSymbolTableRecord
100
AcDbBlockTableRecord
  2
*Model_Space
340
22
 70
     0
280
     1
281
     0
  0
BLOCK_RECORD
  5
1B
330
1
100
AcDbSymbolTableRecord
100
AcDbBlockTableRecord
  2
*Paper_Space
340
1E
 70
     0
280
     1
281
     0
  0
BLOCK_RECORD
  5
23
330
1
100
AcDbSymbolTableRecord
100
AcDbBlockTableRecord
  2
*Paper_Space0
340
26
 70
     0
280
     1
281
     0
  0
ENDTAB
  0
ENDSEC
  0
SECTION
  2
BLOCKS
  0
BLOCK
  5
20
330
1F
100
AcDbEntity
  8
0
370
    -1
100
AcDbBlockBegin
  2
*Model_Space
 70
     0
 10
0.0
 20
0.0
 30
0.0
  3
*Model_Space
  1

  0
ENDBLK
  5
21
330
1F
100
AcDbEntity
  8
0
370
    -1
100
AcDbBlockEnd
  0
BLOCK
  5
1C
330
1B
100
AcDbEntity
 67
     1
  8
0
370
    -1
100
AcDbBlockBegin
  2
*Paper_Space
 70
     0
 10
0.0
 20
0.0
 30
0.0
  3
*Paper_Space
  1

  0
ENDBLK
  5
1D
330
1B
100
AcDbEntity
 67
     1
  8
0
370
    -1
100
AcDbBlockEnd
  0
BLOCK
  5
24
330
23
100
AcDbEntity
  8
0
370
    -1
100
AcDbBlockBegin
  2
*Paper_Space0
 70
     0
 10
0.0
 20
0.0
 30
0.0
  3
*Paper_Space0
  1

  0
ENDBLK
  5
25
330
23
100
AcDbEntity
  8
0
370
    -1
100
AcDbBlockEnd
  0
ENDSEC
  0
SECTION
  2
ENTITIES
  0
LWPOLYLINE
  5
4A
330
1F
100
AcDbEntity
  8
LOExc
370
    -1
100
AcDbPolyline
 90
       57
 70
     0
 43
0.0
 10
114.3138833942202
 20
213.4197469087562
 10
114.9150687879215
 20
211.6212350920817
 10
115.8381182755004
 20
211.6094141595663
 10
115.787526643311
 20
207.0680840145365
 10
118.7035302035389
 20
207.3547642520838
 10
120.6857045822566
 20
207.337055743525
 10
120.6327217211714
 20
206.8520014564538
 10
121.0916907459207
 20
207.3479120930575
 10
122.2027349016767
 20
207.2225461157944
 10
123.8338053332697
 20
208.6735163414817
 10
124.3742624561722
 20
207.9034884686531
 10
124.7428790142081
 20
207.484817932298
 10
124.8458679438617
 20
207.3335317151879
 10
125.0398364256337
 20
206.8416412390074
 10
125.2695562281179
 20
206.4700787636276
 10
125.4001411742354
 20
206.3282893237883
 10
125.5369096721903
 20
206.2627019395968
 10
125.6849231209897
 20
206.2272189134892
 10
125.8235068661695
 20
206.2124105418458
 10
126.4984030084766
 20
205.3790800476085
 10
126.6714775155918
 20
205.1384868610138
 10
126.8725015066657
 20
204.632820734485
 10
127.1204461783563
 20
203.8091967557609
 10
127.195137479862
 20
203.244622928964
 10
127.2120794324079
 20
202.4487557305343
 10
127.2237672822822
 20
202.1950618887471
 10
126.6734748198698
 20
201.5990507481329
 10
126.2285273821896
 20
201.084817293499
 10
123.964842760367
 20
202.5326542214837
 10
122.8503373912806
 20
203.253279688604
 10
121.2979943915334
 20
202.7260073291231
 10
119.9065461755855
 20
202.2625922794991
 10
118.5083778185914
 20
201.7783460702249
 10
117.659308438884
 20
201.5370768238132
 10
117.528093213378
 20
201.5058098557765
 10
115.7560456783873
 20
201.5070959664203
 10
114.7108976585502
 20
201.4992749657666
 10
113.1542662037753
 20
201.6526255608058
 10
111.7639933737139
 20
201.7822075961398
 10
109.5934218849123
 20
201.9549893214445
 10
108.9749208426088
 20
202.4450730676891
 10
107.1996974234703
 20
203.9645563663505
 10
106.4016167945533
 20
204.1760193597944
 10
106.4702608208462
 20
206.1402286466212
 10
106.4743650894986
 20
206.4309929242594
 10
106.5698598694651
 20
206.8149363439085
 10
106.7420166386871
 20
207.8595211580084
 10
106.8362593771659
 20
208.3726633349851
 10
108.1431181370916
 20
208.2791903465025
 10
109.574784991849
 20
208.1638534770747
 10
110.7852365572207
 20
208.0186848028119
 10
112.0949837427895
 20
207.8652490348825
 10
113.2702919089537
 20
207.7751158883617
 10
114.1043474374198
 20
207.6609096890528
 10
113.959764326778
 20
211.628128772892
 10
112.970098992357
 20
211.6093087581145
 10
112.4618244460621
 20
213.3441155114736
  0
LWPOLYLINE
  5
4B
330
1F
100
AcDbEntity
  8
13
370
    -1
100
AcDbPolyline
 90
       28
 70
     1
 43
0.0
 10
111.9705940597816
 20
204.9867939433525
 10
112.0329800079582
 20
205.2158249100862
 10
112.1306882184119
 20
205.3713633837455
 10
112.2848628611649
 20
205.4143895339521
 10
112.4765550974431
 20
205.3954811523009
 10
112.5031450091401
 20
205.5087983595671
 10
112.4926644849862
 20
205.6379076853598
 10
112.2176923258746
 20
205.6790823898631
 10
112.0738906765015
 20
205.7561383037363
 10
111.8554115662174
 20
205.9201493506602
 10
111.274244995725
 20
206.1290997438397
 10
110.7506893682454
 20
206.3455304461115
 10
110.4471821615541
 20
206.4741074413398
 10
110.1274133207784
 20
206.6140635347149
 10
110.0447104442769
 20
206.3386889336965
 10
109.9936812363635
 20
206.1282267217139
 10
109.9675384823406
 20
205.9687671011165
 10
110.051668004755
 20
205.8588301929349
 10
110.022413246252
 20
205.7824045584501
 10
109.8820589696147
 20
205.7418196762123
 10
109.9384359703791
 20
205.6385358354259
 10
110.0775339468843
 20
205.5706636884516
 10
110.1103925833089
 20
205.5132986821594
 10
110.7673587675423
 20
205.3396929091408
 10
111.0364380273049
 20
205.1923235803244
 10
111.2794458653402
 20
205.1162290554507
 10
111.5390059899482
 20
204.9987628637648
 10
111.5734562947607
 20
205.0152480766864
  0
LWPOLYLINE
  5
4C
330
1F
100
AcDbEntity
  8
13
 62
     4
370
    -1
100
AcDbPolyline
 90
       16
 70
     0
 43
0.0
 10
110.1200362838155
 20
206.1848273013154
 10
110.3418775939449
 20
206.1500597274865
 10
110.3736854098352
 20
206.2011293925228
 10
110.4053590784233
 20
206.2660417815586
 10
110.4583110643357
 20
206.2780916162167
 10
110.7432048005085
 20
206.1654856025847
 10
110.9259368487249
 20
206.1188023413999
 10
111.1601410038845
 20
205.9987830923266
 10
111.4404875723753
 20
205.8792110009276
 10
111.5305770677898
 20
205.8685473550594
 10
111.683696631364
 20
205.7823523900548
 10
111.8490225347823
 20
205.6270555944718
 10
112.0872149105311
 20
205.5716804398297
 10
112.2608526233835
 20
205.5110650231107
 10
112.3303568958686
 20
205.4817431909566
 10
112.3284075013414
 20
205.4448069024079
  0
LWPOLYLINE
  5
4D
330
1F
100
AcDbEntity
  8
13
 62
     4
370
    -1
100
AcDbPolyline
 90
       15
 70
     0
 43
0.0
 10
110.119991568048
 20
206.1894415426486
 10
110.0866144416536
 20
206.0622145377319
 10
110.0804756055837
 20
205.981398240751
 10
110.2588617070715
 20
205.9069848158001
 10
110.2386565681652
 20
205.8491055781826
 10
110.2853355707055
 20
205.7941818398592
 10
110.4499236639613
 20
205.7150200262728
 10
110.5587160614292
 20
205.6791569161421
 10
110.7439117354982
 20
205.6163461681751
 10
110.9753616123169
 20
205.5424469745494
 10
111.2341839267626
 20
205.5011157648601
 10
111.5330098184696
 20
205.3794154158642
 10
111.6809338357342
 20
205.3531608724228
 10
111.8683919147023
 20
205.2949867236726
 10
112.0443367482213
 20
205.2343936648373
  0
CIRCLE
  5
4E
330
1F
100
AcDbEntity
  8
13
370
    -1
100
AcDbCircle
 10
110.3244938070305
 20
206.0391390724218
 30
0.0
 40
0.1149
  0
LWPOLYLINE
  5
4F
330
1F
100
AcDbEntity
  8
13
370
    -1
100
AcDbPolyline
 90
        3
 70
     0
 43
0.0
 10
110.4436653386538
 20
206.0131170812652
 10
110.9843037011395
 20
205.8101847612893
 10
111.8271586538369
 20
205.5022474996402
  0
MTEXT
  5
51
330
1F
100
AcDbEntity
  8
13
370
    -1
100
AcDbMText
 10
110.8239403216224
 20
205.9336074423114
 30
0.0
 40
0.12
 41
0.4156
 46
0.0
 71
     1
 72
     5
  1
13
 73
     1
 44
1.0
  0
LWPOLYLINE
  5
52
330
1F
100
AcDbEntity
  8
14
370
    -1
100
AcDbPolyline
 90
       38
 70
     1
 43
0.0
 10
109.5885638361806
 20
204.5991508262801
 10
109.6798202001926
 20
204.7061726922904
 10
109.7965666809552
 20
204.8019048916887
 10
109.8986836531442
 20
204.7405963805747
 10
109.974416193234
 20
204.7828623627352
 10
110.0963358624226
 20
204.8209612612368
 10
110.2973907286693
 20
204.7882995871211
 10
110.3851507455335
 20
204.7799207040358
 10
110.4846252288003
 20
204.7531966450365
 10
110.6775918644499
 20
204.6027823853912
 10
110.8266784916674
 20
204.4565575672885
 10
110.9792838239162
 20
204.4234263776148
 10
111.1501001847768
 20
204.415852378343
 10
111.3679756322007
 20
204.3141335894163
 10
111.5536631797113
 20
204.2005661867849
 10
111.6977778394563
 20
204.0912105835798
 10
111.7999842431801
 20
204.0206735897995
 10
111.7254143130431
 20
203.8584373329776
 10
111.6520112515035
 20
203.8138865880342
 10
111.6295660655818
 20
203.7490636305333
 10
111.671854405626
 20
203.6710239697769
 10
111.6240756081395
 20
203.6013408342221
 10
111.5666882439636
 20
203.5707893184641
 10
111.4163453166139
 20
203.6085571073545
 10
111.2965315471385
 20
203.5912446527357
 10
111.0810079361486
 20
203.688371558213
 10
110.9467477798137
 20
203.7332172142891
 10
110.7859200696655
 20
203.6624385424326
 10
110.5447721946226
 20
203.7846978385213
 10
110.3639671830496
 20
203.8706245089214
 10
110.0097256795776
 20
203.9964025100415
 10
109.8680299299177
 20
204.0942448677974
 10
109.7650857160315
 20
204.2409168435743
 10
109.7068040365073
 20
204.3026501544788
 10
109.6257194449219
 20
204.3364744385474
 10
109.57431441163
 20
204.4028890644362
 10
109.5645046239873
 20
204.462784770232
 10
109.5845532577076
 20
204.5368138525155
  0
LWPOLYLINE
  5
53
330
1F
100
AcDbEntity
  8
14
 62
     4
370
    -1
100
AcDbPolyline
 90
       37
 70
     0
 43
0.0
 10
111.6583513085268
 20
203.873938799016
 10
111.5763947594768
 20
203.9977407890806
 10
111.3332527741392
 20
204.0876780379537
 10
111.0176733749061
 20
204.2715141397609
 10
110.9274944479567
 20
204.2914062682954
 10
110.8278187437365
 20
204.3388944132937
 10
110.6795146424489
 20
204.4043700080666
 10
110.5381319031609
 20
204.4699126764907
 10
110.4519859125682
 20
204.5498346581232
 10
110.2203795305635
 20
204.6398836964149
 10
110.0539314743152
 20
204.6728807387863
 10
110.0008229832168
 20
204.6769807487941
 10
109.9576807849471
 20
204.6050352083401
 10
109.9396262615214
 20
204.5633281732723
 10
109.7846020191874
 20
204.6079726083951
 10
109.7265843756232
 20
204.404364684761
 10
109.9347618248229
 20
204.3510059982973
 10
109.9328347881794
 20
204.311762589082
 10
109.935678498055
 20
204.2564140509682
 10
109.9568226680771
 20
204.21739422059
 10
110.1008031805199
 20
204.1218813413843
 10
110.3461852128729
 20
204.0388878123946
 10
110.4783171116109
 20
203.9755628331022
 10
110.5713397484359
 20
203.900322166454
 10
110.6940866593216
 20
203.8530576002927
 10
110.8557863269345
 20
203.8338585661533
 10
111.0013808656488
 20
203.8098887854948
 10
111.0429761112981
 20
203.8033698654018
 10
111.070572127762
 20
203.8128666426726
 10
111.1424058787974
 20
203.7812600477357
 10
111.2280823538322
 20
203.7497876001011
 10
111.3527563013615
 20
203.7417664431551
 10
111.3948210625687
 20
203.6867979890643
 10
111.4985967767966
 20
203.6924183351644
 10
111.5925403454982
 20
203.7602415077268
 10
111.6242363719699
 20
203.822846776096
 10
111.6446427318297
 20
203.8599619277144
  0
CIRCLE
  5
54
330
1F
100
AcDbEntity
  8
14
370
    -1
100
AcDbCircle
 10
109.8827531286708
 20
204.4797128821833
 30
0.0
 40
0.1149
  0
LWPOLYLINE
  5
55
330
1F
100
AcDbEntity
  8
14
370
    -1
100
AcDbPolyline
 90
        3
 70
     0
 43
0.0
 10
110.0006622193864
 20
204.4554748069203
 10
110.5611764932983
 20
204.2347875894546
 10
111.5178628845872
 20
203.8471966407775
  0
MTEXT
  5
56
330
1F
100
AcDbEntity
  8
14
370
    -1
100
AcDbMText
 10
110.2382514246844
 20
204.444668174216
 30
0.0
 40
0.12
 41
0.3647
 46
0.0
 71
     1
 72
     5
  1
14
 73
     1
 44
1.0
  0
LWPOLYLINE
  5
58
330
1F
100
AcDbEntity
  8
oldchurch
370
    -1
100
AcDbPolyline
 90
       41
 70
     0
 43
0.0
 10
106.5723011374339
 20
206.8011159777928
 10
108.5516722633989
 20
206.5964859794749
 10
109.2634727544209
 20
206.4787876916629
 10
110.0516988799277
 20
206.331834645348
 10
111.0702569880678
 20
206.2263384387355
 10
112.1649500782046
 20
206.1215800422855
 10
112.892475614102
 20
206.0478735523241
 10
113.3424312177331
 20
206.0453119776477
 10
113.3542840900824
 20
206.2507798642742
 10
114.7251162079281
 20
206.2225322751993
 10
115.9376513151292
 20
206.1004571654859
 10
116.8892358502879
 20
206.0012339422456
 10
117.8184422731759
 20
205.8302663995048
 10
118.5293260909658
 20
205.8071600590218
 10
118.6559941487897
 20
205.8314609492915
 10
120.6112432475548
 20
205.735042043465
 10
121.3801628081481
 20
205.6755807194098
 10
121.3862888682844
 20
205.0434296567713
 10
122.2086522882318
 20
204.9452615127098
 10
122.9949066613277
 20
204.7636792985127
 10
123.7133602197448
 20
204.6737335323506
 10
124.8405989359343
 20
204.5439098189403
 10
125.6637448818114
 20
204.3649924515491
 10
126.6501289306329
 20
203.7700289374858
 10
127.2514250490916
 20
203.1505675708439
 10
127.6119044021184
 20
202.3811029037525
 10
127.7473633668846
 20
201.7363611586024
 10
127.7349430301535
 20
201.1132597155605
 10
127.5219820585011
 20
200.4697561713033
 10
127.2732516668974
 20
199.9458875334519
 10
126.8532577567589
 20
199.4757353082035
 10
125.7986672573686
 20
198.7756216023947
 10
124.7228963894777
 20
198.5944535413767
 10
122.8238230705237
 20
198.608352692416
 10
121.5521747834566
 20
198.6398687911569
 10
120.8695353607581
 20
198.6055654095802
 10
120.864327038515
 20
197.9525384715241
 10
116.4982976070212
 20
198.2470993307483
 10
112.8127569827452
 20
198.5597913689996
 10
112.792198376344
 20
198.7764818485869
 10
106.4492614447376
 20
199.2595452193468
  0
LWPOLYLINE
  5
59
330
1F
100
AcDbEntity
  8
oldchurch
370
    -1
100
AcDbPolyline
 90
       12
 70
     0
 43
0.0
 10
106.4528993918155
 20
206.0270008708899
 10
108.990973803112
 20
205.7885604290981
 10
109.9035385078925
 20
205.6681930358356
 10
112.6267191617231
 20
205.3761703287429
 10
113.3244533499087
 20
205.2814091002943
 10
113.0530062837952
 20
203.2921611130355
 10
112.8340544639699
 20
202.0763798540519
 10
112.8056141712306
 20
201.2016233952849
 10
112.8129656563265
 20
200.2049249094456
 10
112.814678696083
 20
199.5519650450406
 10
108.8942365636079
 20
199.8185412864888
 10
106.4421069219507
 20
199.9978238326472
  0
LWPOLYLINE
  5
5A
330
1F
100
AcDbEntity
  8
oldchurch
370
    -1
100
AcDbPolyline
 90
       20
 70
     0
 43
0.0
 10
114.425951753982
 20
204.9505975942884
 10
114.3482165863085
 20
204.4006979918327
 10
114.1999667827384
 20
203.7462848649866
 10
114.1882352817579
 20
202.8140068947414
 10
114.0584115683476
 20
201.686768178552
 10
114.0077677677628
 20
200.4841546484121
 10
113.9817687429924
 20
199.5955778235293
 10
115.4413669824693
 20
199.4551309213738
 10
116.9075064999228
 20
199.3539721442009
 10
118.6483275239997
 20
199.2416312311901
 10
119.8189096594122
 20
199.1629889722346
 10
119.9755947731075
 20
201.8041012875968
 10
120.0973611310934
 20
203.2865918706696
 10
120.219181786797
 20
204.0491937321234
 10
120.2384787697603
 20
204.6769764901496
 10
118.6403191429873
 20
204.829924643282
 10
117.1133672465059
 20
205.0158655801413
 10
115.886046125545
 20
204.9970498240083
 10
115.0693030516977
 20
204.9914422538418
 10
114.423599917548
 20
204.9551894777379
  0
LWPOLYLINE
  5
5B
330
1F
100
AcDbEntity
  8
oldchurch
370
    -1
100
AcDbPolyline
 90
       17
 70
     0
 43
0.0
 10
121.2674194532305
 20
203.9762878673311
 10
122.8836112455455
 20
203.8673538699331
 10
124.1860346272078
 20
203.7553792003506
 10
125.5972461476935
 20
203.3698856340977
 10
126.6393545600073
 20
202.5008889920386
 10
126.9718982696701
 20
201.5188785711351
 10
126.9082517627168
 20
200.9437347886494
 10
126.5147721733351
 20
200.1185095595872
 10
125.8460563888819
 20
199.599800269567
 10
125.1974829283284
 20
199.3835473657037
 10
124.3945602205968
 20
199.380381063506
 10
122.7461581704847
 20
199.4797735678658
 10
121.4921843228202
 20
199.5922177530062
 10
120.9722102153787
 20
199.6771649351676
 10
121.096430617267
 20
201.8588025117441
 10
121.2514889287571
 20
203.7154043689397
 10
121.2858317027956
 20
203.9810809717339
  0
LWPOLYLINE
  5
5D
330
1F
100
AcDbEntity
  8
north
370
    -1
100
AcDbPolyline
 90
        2
 70
     0
 43
0.0
 10
109.6686849094442
 20
212.0457048376065
 10
109.7134336813576
 20
210.5232958501626
  0
LWPOLYLINE
  5
62
330
1F
100
AcDbEntity
  8
29
370
    -1
100
AcDbPolyline
 90
       31
 70
     1
 43
0.0
 10
108.9605601021461
 20
202.4295207778276
 10
108.959072650913
 20
202.5635773202089
 10
108.9376039851631
 20
202.6234408209125
 10
108.9695264838248
 20
202.6630922957013
 10
108.9823429278546
 20
202.7580102775121
 10
108.974793471704
 20
202.8134050130889
 10
109.0782130066832
 20
202.8677194230933
 10
109.1746729368629
 20
202.9242682156613
 10
109.28826099622
 20
202.8954776994451
 10
109.3438096060622
 20
202.8891592374184
 10
109.4645624359063
 20
202.839643781069
 10
109.7097418436829
 20
202.8261829885524
 10
109.8160625497095
 20
202.8273626912545
 10
109.9574120911322
 20
202.7965686038731
 10
110.1566215620935
 20
202.7594817001759
 10
110.3927865024835
 20
202.7251164475496
 10
110.5484142934583
 20
202.657495119294
 10
110.6486729945672
 20
202.5800130151916
 10
110.679386939102
 20
202.5202520973315
 10
110.7041414615628
 20
202.372584093882
 10
110.6641790325293
 20
202.2241980105269
 10
110.6302786084133
 20
202.1544737339763
 10
110.5564702523995
 20
202.1397851530497
 10
110.4686144582319
 20
202.1411219357311
 10
110.3507115080133
 20
202.1421253241707
 10
110.1498062144178
 20
202.1237149094475
 10
110.0391706175298
 20
202.0947480789688
 10
109.9468460582352
 20
202.082165652051
 10
109.8661293888436
 20
202.0650888142954
 10
109.5890787738271
 20
202.0342754926308
 10
109.324998477106
 20
202.0845122345998
  0
LWPOLYLINE
  5
63
330
1F
100
AcDbEntity
  8
29
 62
     4
370
    -1
100
AcDbPolyline
 90
       18
 70
     0
 43
0.0
 10
109.2596211485555
 20
202.5599773035391
 10
109.2623940910482
 20
202.5183991947179
 10
109.7957158838122
 20
202.3694392885811
 10
110.1226890808389
 20
202.2759799065785
 10
110.492961855032
 20
202.2384794657928
 10
110.4967381859642
 20
202.3148043071902
 10
110.5325395984018
 20
202.4215353445913
 10
110.4947378205128
 20
202.495087243496
 10
110.4500277292461
 20
202.5662508855717
 10
110.2852572423301
 20
202.6245243521987
 10
110.0695607849642
 20
202.6891675722742
 10
109.7803124286937
 20
202.7160090144608
 10
109.4332041428847
 20
202.7491432729632
 10
109.2685362388124
 20
202.7981714608053
 10
109.2551042977205
 20
202.7587251517039
 10
109.1604171273079
 20
202.7507397184677
 10
109.1228429551033
 20
202.5954453217348
 10
109.2502989326378
 20
202.5668086797841
  0
LWPOLYLINE
  5
64
330
1F
100
AcDbEntity
  8
29
 62
     4
370
    -1
100
AcDbPolyline
 90
       14
 70
     0
 43
0.0
 10
108.9640799759692
 20
202.5289588161872
 10
109.1723808514498
 20
202.5058424135111
 10
109.1876336380166
 20
202.3811850241802
 10
109.3077196793769
 20
202.3917638799327
 10
109.358850815514
 20
202.3669035689144
 10
109.4166850993415
 20
202.3629220722948
 10
109.4686625439388
 20
202.2617882113008
 10
109.5194859315449
 20
202.2646637366372
 10
109.5912907163935
 20
202.2515908354982
 10
109.7420907022886
 20
202.2024087733906
 10
109.8837736379532
 20
202.1415675299583
 10
109.9813619794131
 20
202.0964182558921
 10
110.043870194055
 20
202.0878654113019
 10
110.1151620646853
 20
202.1210189040875
  0
CIRCLE
  5
65
330
1F
100
AcDbEntity
  8
29
370
    -1
100
AcDbCircle
 10
109.2863568021845
 20
202.650426520223
 30
0.0
 40
0.1149
  0
LWPOLYLINE
  5
66
330
1F
100
AcDbEntity
  8
29
370
    -1
100
AcDbPolyline
 90
        2
 70
     0
 43
0.0
 10
109.3743921163286
 20
202.632910499668
 10
110.491423112377
 20
202.3771586475665
  0
MTEXT
  5
67
330
1F
100
AcDbEntity
  8
29
370
    -1
100
AcDbMText
 10
109.6758115390615
 20
202.6890919998759
 30
0.0
 40
0.12
 41
0.3094
 46
0.0
 71
     1
 72
     5
  1
29
 73
     1
 44
1.0
  0
LWPOLYLINE
  5
68
330
1F
100
AcDbEntity
  8
26
370
    -1
100
AcDbPolyline
 90
       26
 70
     1
 43
0.0
 10
106.8709700167758
 20
205.5454938883028
 10
106.9240021412345
 20
205.557640338135
 10
106.9508147319963
 20
205.6411555957302
 10
107.1056987973545
 20
205.6405625386653
 10
107.3454861944113
 20
205.6963900456138
 10
107.6368150589798
 20
205.6903761264041
 10
107.7939335069015
 20
205.6967426741388
 10
107.981483796538
 20
205.668772820672
 10
108.124836909126
 20
205.6657402153563
 10
108.1943047285674
 20
205.6549529882026
 10
108.3796975727731
 20
205.6130895708474
 10
108.6109834166615
 20
205.6017862237616
 10
108.7574172202732
 20
205.5294396732699
 10
108.8615035437363
 20
205.5236597711724
 10
108.8435996318036
 20
205.2622498341003
 10
108.7605684370019
 20
205.0371029322623
 10
108.5808497063362
 20
204.9842535334938
 10
108.2020753789747
 20
204.9546231202452
 10
107.8652638460982
 20
204.8930958540459
 10
107.7544743749447
 20
204.8779969417446
 10
107.4677681497686
 20
204.884062152376
 10
107.2413101109601
 20
204.8769262333139
 10
107.1141105905347
 20
204.8824496783022
 10
107.0617997516955
 20
205.0136306953472
 10
106.8895823914725
 20
205.1180536187659
 10
106.8616478008582
 20
205.5523252645478
  0
LWPOLYLINE
  5
69
330
1F
100
AcDbEntity
  8
26
 62
     4
370
    -1
100
AcDbPolyline
 90
       24
 70
     0
 43
0.0
 10
107.1286517086236
 20
205.2385980772088
 10
106.9649070501442
 20
205.2044187559866
 10
106.9200719360367
 20
205.495183414915
 10
107.0727216188315
 20
205.4876307530505
 10
107.1574710762645
 20
205.5579192352412
 10
107.2405503567742
 20
205.5703990793153
 10
107.3929179367489
 20
205.5882709341093
 10
107.6219950437847
 20
205.5676966625276
 10
107.8833793351459
 20
205.5521040702912
 10
108.1032368091077
 20
205.5291158961696
 10
108.2212679878809
 20
205.5165559092489
 10
108.3855512062895
 20
205.5021975168503
 10
108.5175528860837
 20
205.4805461254102
 10
108.6794991390852
 20
205.4684734069968
 10
108.7791679888431
 20
205.4441516559077
 10
108.7555899633705
 20
205.2774545349591
 10
108.731370795125
 20
205.1685404064163
 10
108.5003926997676
 20
205.1521079171474
 10
107.8203005034362
 20
205.1954171114554
 10
107.7636972137326
 20
205.088455262656
 10
107.5559092524702
 20
205.0653452714076
 10
107.3756006704534
 20
205.0656562256524
 10
107.1237694064081
 20
205.0536155643777
 10
107.1331717651724
 20
205.2478946474155
  0
CIRCLE
  5
6A
330
1F
100
AcDbEntity
  8
26
370
    -1
100
AcDbCircle
 10
107.0923405876816
 20
205.3861378521037
 30
0.0
 40
0.1149
  0
LWPOLYLINE
  5
6B
330
1F
100
AcDbEntity
  8
26
370
    -1
100
AcDbPolyline
 90
        2
 70
     0
 43
0.0
 10
107.1688705947663
 20
205.3638709636016
 10
108.6876384465869
 20
205.3599183184068
  0
MTEXT
  5
6C
330
1F
100
AcDbEntity
  8
26
370
    -1
100
AcDbMText
 10
107.4232392383282
 20
205.4571174259958
 30
0.0
 40
0.12
 41
0.3678
 46
0.0
 71
     1
 72
     5
  1
26
 73
     1
 44
1.0
  0
LWPOLYLINE
  5
6F
330
1F
100
AcDbEntity
  8
25
370
    -1
100
AcDbPolyline
 90
        2
 70
     0
 43
0.0
 10
106.6048092117567
 20
207.2415697739631
 10
106.9886165098852
 20
207.2342703634939
  0
LWPOLYLINE
  5
70
330
1F
100
AcDbEntity
  8
25
 62
     2
370
    -1
100
AcDbPolyline
 90
        8
 70
     1
 43
0.0
 10
106.6492404059172
 20
207.4038750669174
 10
107.0100370899271
 20
207.3870739205541
 10
107.0616042031498
 20
207.3229211746999
 10
107.0418025086094
 20
207.2325488951487
 10
107.030938344323
 20
207.1700150347959
 10
106.9873566643365
 20
207.1394806102376
 10
106.8835780894045
 20
207.1175246759803
 10
106.6177506786272
 20
207.1168867389213
  0
MTEXT
  5
71
330
1F
100
AcDbEntity
  8
25
370
    -1
100
AcDbMText
 10
106.7251291101325
 20
207.3418954255555
 30
0.0
 40
0.12
 41
0.2274
 46
0.0
 71
     1
 72
     5
  1
25
 73
     1
 44
1.0
  0
LWPOLYLINE
  5
72
330
1F
100
AcDbEntity
  8
30
370
    -1
100
AcDbPolyline
 90
       29
 70
     1
 43
0.0
 10
108.6446145608129
 20
206.5291126904567
 10
108.6822111730145
 20
206.4740513491219
 10
108.9850966360641
 20
206.4681656584669
 10
109.3176958609229
 20
206.4926605181047
 10
109.4145917681881
 20
206.5099168758368
 10
109.5466447394041
 20
206.4836428450042
 10
109.7083088895856
 20
206.4969946432494
 10
109.9409058704445
 20
206.5758584100274
 10
110.0098351299567
 20
206.6136088964945
 10
110.0252962879247
 20
206.6785053679653
 10
110.0274569390693
 20
206.9004433502251
 10
110.0259694878362
 20
207.0344998926064
 10
110.0116912382842
 20
207.0713271334805
 10
109.972475740581
 20
207.0639571973063
 10
109.7951196210334
 20
207.0065108048563
 10
109.3189621178993
 20
207.003539108104
 10
108.9657918271728
 20
206.9580115598019
 10
108.7211253336144
 20
206.9252459583939
 10
108.6660896379905
 20
206.8853380264961
 10
108.6366836247124
 20
206.8272216398485
 10
108.6142372162339
 20
206.7668708706373
 10
108.5867578369883
 20
206.7434499251441
 10
108.5127186695762
 20
206.7495632214835
 10
108.4459725012056
 20
206.7233949792084
 10
108.4184674762491
 20
206.7022853534114
 10
108.4190060361783
 20
206.6537476397906
 10
108.4192624932875
 20
206.6306344428283
 10
108.4425552102262
 20
206.6147116620638
 10
108.5515719216127
 20
206.5812472150334
  0
CIRCLE
  5
73
330
1F
100
AcDbEntity
  8
30
370
    -1
100
AcDbCircle
 10
108.5947689159354
 20
206.6464514350352
 30
0.0
 40
0.1149
  0
LWPOLYLINE
  5
74
330
1F
100
AcDbEntity
  8
30
370
    -1
100
AcDbPolyline
 90
        3
 70
     0
 43
0.0
 10
108.7063567763033
 20
206.6605405394585
 10
109.2115065891648
 20
206.687968635293
 10
109.9588610737989
 20
206.832645707707
  0
MTEXT
  5
75
330
1F
100
AcDbEntity
  8
30
370
    -1
100
AcDbMText
 10
109.0636273042793
 20
206.8876588615303
 30
0.0
 40
0.12
 41
0.4872
 46
0.0
 71
     1
 72
     5
  1
30
 73
     1
 44
1.0
  0
LWPOLYLINE
  5
76
330
1F
100
AcDbEntity
  8
33
370
    -1
100
AcDbPolyline
 90
       24
 70
     1
 43
0.0
 10
108.4120464313787
 20
206.6559820223541
 10
108.0459346737816
 20
206.7351375090937
 10
107.6701160146031
 20
206.8557941675218
 10
107.5092500871739
 20
206.978835877065
 10
107.4501335178006
 20
207.0983833584961
 10
107.4632096246535
 20
207.3782325617161
 10
107.4988828085365
 20
207.4965201975984
 10
107.7185607625219
 20
207.4897112613505
 10
108.2302087238487
 20
207.4191054134872
 10
108.5008382939948
 20
207.4036154040944
 10
108.8836165579729
 20
207.2807243631028
 10
109.0139224151328
 20
207.2035756532423
 10
108.9770695285477
 20
207.1916087233865
 10
108.8199991663339
 20
206.9725751178879
 10
108.8199991663339
 20
206.9725751178879
 10
108.789976935307
 20
206.9209250926298
 10
108.7211253336144
 20
206.9252459583939
 10
108.6660896379905
 20
206.8853380264961
 10
108.6366836247124
 20
206.8272216398485
 10
108.6142372162339
 20
206.7668708706373
 10
108.5867578369883
 20
206.7434499251441
 10
108.5127186695762
 20
206.7495632214835
 10
108.4459725012056
 20
206.7233949792084
 10
108.4184674762491
 20
206.7022853534114
  0
LWPOLYLINE
  5
77
330
1F
100
AcDbEntity
  8
33
 62
     4
370
    -1
100
AcDbPolyline
 90
       12
 70
     0
 43
0.0
 10
107.5092500871739
 20
206.978835877065
 10
107.5092500871739
 20
206.978835877065
 10
107.8057145053532
 20
206.9266468553527
 10
107.8479850483691
 20
206.8670141660472
 10
107.9246432840084
 20
206.833190679064
 10
107.9592874337409
 20
206.8358866844239
 10
107.9514558747702
 20
206.9167059366592
 10
108.0369490578197
 20
206.9199661476593
 10
108.2131735603733
 20
206.8710661883718
 10
108.3851601091981
 20
206.787445142219
 10
108.3792263328351
 20
206.6972267369334
 10
108.2407010253268
 20
206.6818200761011
  0
LWPOLYLINE
  5
78
330
1F
100
AcDbEntity
  8
33
 62
     4
370
    -1
100
AcDbPolyline
 90
        4
 70
     0
 43
0.0
 10
107.4790779082822
 20
207.1981034996758
 10
107.4976966944066
 20
207.186752066882
 10
107.5510397731102
 20
207.3792070987309
 10
107.495465517557
 20
207.3878368804539
  0
LWPOLYLINE
  5
79
330
1F
100
AcDbEntity
  8
33
 62
     4
370
    -1
100
AcDbPolyline
 90
        4
 70
     0
 43
0.0
 10
107.7139894145512
 20
207.4850373305362
 10
107.6941107828781
 20
207.4015990100737
 10
108.0090401129163
 20
207.3519264737449
 10
108.008527198698
 20
207.3981528676695
  0
LWPOLYLINE
  5
7A
330
1F
100
AcDbEntity
  8
33
 62
     4
370
    -1
100
AcDbPolyline
 90
        5
 70
     0
 43
0.0
 10
108.4430809472999
 20
207.4006629416253
 10
108.3766425274604
 20
207.3467588629955
 10
108.6340966136238
 20
207.2687093475391
 10
108.6385397330398
 20
207.2849398768345
 10
108.6150418504138
 20
207.3193532151688
  0
LWPOLYLINE
  5
7B
330
1F
100
AcDbEntity
  8
33
 62
     4
370
    -1
100
AcDbPolyline
 90
        4
 70
     0
 43
0.0
 10
108.7472486958954
 20
207.2792112661588
 10
108.7130661689593
 20
207.2349115062668
 10
108.9683115182702
 20
207.1475910663145
 10
108.9908348638814
 20
207.2010078764369
  0
CIRCLE
  5
7C
330
1F
100
AcDbEntity
  8
33
370
    -1
100
AcDbCircle
 10
107.7523265466556
 20
207.1549032996392
 30
0.0
 40
0.1149
  0
LWPOLYLINE
  5
7D
330
1F
100
AcDbEntity
  8
33
370
    -1
100
AcDbPolyline
 90
        3
 70
     0
 43
0.0
 10
107.8689347625123
 20
207.1327873353888
 10
108.4512683405096
 20
207.0794407952713
 10
108.8062851224221
 20
206.958553325445
  0
MTEXT
  5
7E
330
1F
100
AcDbEntity
  8
33
370
    -1
100
AcDbMText
 10
108.0628383778375
 20
207.3446494980293
 30
0.0
 40
0.12
 41
0.3333
 46
0.0
 71
     1
 72
     5
  1
33
 73
     1
 44
1.0
  0
LWPOLYLINE
  5
7F
330
1F
100
AcDbEntity
  8
50
370
    -1
100
AcDbPolyline
 90
       27
 70
     1
 43
0.0
 10
107.7864225193173
 20
208.2486704301737
 10
107.7414239138027
 20
207.9291697521649
 10
107.7489477242425
 20
207.8760863362844
 10
107.7839252682169
 20
207.8487351855934
 10
107.8697261997974
 20
207.8242595602387
 10
107.8955097564088
 20
207.7921831873116
 10
107.8867773918421
 20
207.7458542105434
 10
107.9035208353559
 20
207.6951846972027
 10
107.9869848015293
 20
207.6729947458334
 10
108.255636446221
 20
207.6274319346788
 10
108.5745985643006
 20
207.6309710427851
 10
108.7159737514343
 20
207.5978656357074
 10
109.0073282617137
 20
207.5895403968016
 10
109.0705064705532
 20
207.728937658481
 10
109.2182001197136
 20
207.7513808612456
 10
109.3906739370458
 20
207.6238447408645
 10
109.4552113685638
 20
207.6407420586437
 10
109.6070403886093
 20
207.7071516270585
 10
109.6931490687208
 20
207.6549401653491
 10
109.7628476995605
 20
207.6233510609294
 10
109.8228394288188
 20
207.6332631281981
 10
109.8541977218403
 20
207.7237636363038
 10
109.8886623515964
 20
207.7426388795374
 10
109.8259521769811
 20
207.9777267000689
 10
109.7019904275588
 20
208.1081127000755
 10
109.6811527491608
 20
208.1395312173588
 10
107.7839215352385
 20
208.2853207978295
  0
LWPOLYLINE
  5
80
330
1F
100
AcDbEntity
  8
50
 62
     4
370
    -1
100
AcDbPolyline
 90
       11
 70
     0
 43
0.0
 10
108.1192525555742
 20
208.2523634125455
 10
108.1156044531965
 20
208.164481972667
 10
107.8357808956873
 20
208.1752467598236
 10
107.808554767837
 20
207.9206681989966
 10
108.1001144438038
 20
207.8938524025209
 10
108.1041440261313
 20
207.7390196285845
 10
108.5363351636152
 20
207.7461266962218
 10
109.0445690396764
 20
207.7748819495855
 10
109.3744979048861
 20
207.8317096392596
 10
109.7015255990485
 20
207.9416720362361
 10
109.7156788257598
 20
208.1244458122146
  0
CIRCLE
  5
81
330
1F
100
AcDbEntity
  8
50
370
    -1
100
AcDbCircle
 10
108.0874294340424
 20
207.9954222406004
 30
0.0
 40
0.1149
  0
LWPOLYLINE
  5
82
330
1F
100
AcDbEntity
  8
50
370
    -1
100
AcDbPolyline
 90
        3
 70
     0
 43
0.0
 10
108.1729995542247
 20
207.9917484925118
 10
108.7215516935584
 20
207.9284869351118
 10
109.552344498655
 20
208.0532853758527
  0
MTEXT
  5
83
330
1F
100
AcDbEntity
  8
50
370
    -1
100
AcDbMText
 10
108.4573009077027
 20
208.1750364392758
 30
0.0
 40
0.12
 41
0.3396
 46
0.0
 71
     1
 72
     5
  1
50
 73
     1
 44
1.0
  0
LWPOLYLINE
  5
84
330
1F
100
AcDbEntity
  8
37
370
    -1
100
AcDbPolyline
 90
       29
 70
     1
 43
0.0
 10
110.6584792732784
 20
207.3212221463517
 10
110.56912961645
 20
207.0405266346714
 10
110.8294848736607
 20
206.9093424119127
 10
110.8171300524273
 20
206.7728206755696
 10
110.9523150060889
 20
206.6726100601687
 10
111.0545516326521
 20
206.6252007578281
 10
111.1468249005249
 20
206.6424058241383
 10
111.313650250028
 20
206.6072712001846
 10
111.4363810053264
 20
206.587828545597
 10
111.5262916620811
 20
206.6096306055888
 10
111.6388250415768
 20
206.4675597785465
 10
111.7316625150897
 20
206.4339158115397
 10
111.8312544277148
 20
206.4165280195392
 10
111.890681951333
 20
206.4772891201249
 10
111.9883472299257
 20
206.4252058869701
 10
112.0700127906211
 20
206.3567638959653
 10
112.1743299254824
 20
206.3301821166017
 10
112.3249247456901
 20
206.299490612064
 10
112.5103432356067
 20
206.2553158750126
 10
112.618513638533
 20
206.2981249779578
 10
112.6900395262754
 20
206.5185210118488
 10
112.7236578475713
 20
206.6136698050579
 10
112.6370618989524
 20
206.7097963409957
 10
112.5469236365133
 20
206.9168405766415
 10
112.1522297341013
 20
207.0719618648257
 10
112.0634218429159
 20
206.9507730578961
 10
111.4892656669473
 20
207.0299317503496
 10
111.2988654976854
 20
207.1064136717264
 10
111.2933452584109
 20
207.1872585696725
  0
LWPOLYLINE
  5
85
330
1F
100
AcDbEntity
  8
37
 62
     4
370
    -1
100
AcDbPolyline
 90
       14
 70
     0
 43
0.0
 10
110.6679553634615
 20
207.3005228519293
 10
110.6486922288504
 20
207.1616128587574
 10
110.8599455668002
 20
207.0807391093864
 10
110.8609970409477
 20
206.985975001841
 10
111.0915615992166
 20
206.8313441878781
 10
111.2356327917102
 20
206.7635946310679
 10
111.4953469061481
 20
206.6901934007149
 10
111.7368525658361
 20
206.591162488016
 10
111.8920700254363
 20
206.5605222749001
 10
112.0609758832374
 20
206.5462151739233
 10
112.2162959256812
 20
206.5063296820225
 10
112.4362046910648
 20
206.4787188685085
 10
112.5797629693402
 20
206.4571957056229
 10
112.653548885357
 20
206.6822400246173
  0
CIRCLE
  5
86
330
1F
100
AcDbEntity
  8
37
 62
     2
370
    -1
100
AcDbCircle
 10
110.8603078124668
 20
207.2564250520107
 30
0.0
 40
0.1149
  0
LWPOLYLINE
  5
87
330
1F
100
AcDbEntity
  8
37
370
    -1
100
AcDbPolyline
 90
        2
 70
     0
 43
0.0
 10
111.4506400205952
 20
206.9694014611621
 10
112.4809692794673
 20
206.6109770054118
  0
MTEXT
  5
88
330
1F
100
AcDbEntity
  8
37
370
    -1
100
AcDbMText
 10
110.9752501846049
 20
207.1020732782137
 30
0.0
 40
0.12
 41
0.4852
 46
0.0
 71
     1
 72
     5
  1
37
 73
     1
 44
1.0
  0
LWPOLYLINE
  5
89
330
1F
100
AcDbEntity
  8
27
 62
     2
370
    -1
100
AcDbPolyline
 90
       11
 70
     1
 43
0.0
 10
112.2477632129741
 20
207.0036737480864
 10
113.0505637246068
 20
207.1512776372585
 10
113.3739433163916
 20
207.1733585943565
 10
113.5357613408385
 20
207.1728424744243
 10
113.6360969790802
 20
207.0884264112332
 10
113.6816277330962
 20
206.9433005388782
 10
113.6827304986656
 20
206.8439137919403
 10
113.6163690159587
 20
206.7830757542219
 10
113.3674645686716
 20
206.7155890659486
 10
112.8386596267426
 20
206.6658011239207
 10
112.3328140075104
 20
206.6301375571793
  0
LWPOLYLINE
  5
8A
330
1F
100
AcDbEntity
  8
27
370
    -1
100
AcDbPolyline
 90
        2
 70
     0
 43
0.0
 10
112.3224659631561
 20
206.7294217212735
 10
113.5335237525612
 20
206.9578384512532
  0
CIRCLE
  5
8B
330
1F
100
AcDbEntity
  8
27
 62
     2
370
    -1
100
AcDbCircle
 10
112.0264756234367
 20
206.6981749898864
 30
0.0
 40
0.1149
  0
MTEXT
  5
8C
330
1F
100
AcDbEntity
  8
27
370
    -1
100
AcDbMText
 10
112.7219016026368
 20
207.0212936686193
 30
0.0
 40
0.12
 41
0.4043
 46
0.0
 71
     1
 72
     5
  1
27
 73
     1
 44
1.0
  0
LWPOLYLINE
  5
8D
330
1F
100
AcDbEntity
  8
58
370
    -1
100
AcDbPolyline
 90
        2
 70
     0
 43
0.0
 10
114.0855829428625
 20
207.8285039253952
 10
114.7728142639699
 20
207.7667811106502
  0
LWPOLYLINE
  5
8E
330
1F
100
AcDbEntity
  8
58
 62
     2
370
    -1
100
AcDbPolyline
 90
        8
 70
     1
 43
0.0
 10
114.0894286016213
 20
208.0293745676495
 10
114.9044068283824
 20
207.960380225044
 10
114.9458462443519
 20
207.8499893089227
 10
114.9182200214323
 20
207.6154085120167
 10
114.8077144770335
 20
207.5464141694113
 10
114.2551869182195
 20
207.6016096274719
 10
114.020362636372
 20
207.6430062811063
 10
114.0479890224717
 20
207.6706039700774
  0
MTEXT
  5
8F
330
1F
100
AcDbEntity
  8
58
370
    -1
100
AcDbMText
 10
114.393318848718
 20
207.8499893089227
 30
0.0
 40
0.12
 41
0.442
 46
0.0
 71
     1
 72
     5
  1
58
 73
     1
 44
1.0
  0
LWPOLYLINE
  5
90
330
1F
100
AcDbEntity
  8
84
370
    -1
100
AcDbPolyline
 90
        2
 70
     0
 43
0.0
 10
114.0436586169439
 20
208.6902671321358
 10
114.5166552862077
 20
208.5614423147812
  0
LWPOLYLINE
  5
91
330
1F
100
AcDbEntity
  8
84
 62
     2
370
    -1
100
AcDbPolyline
 90
        7
 70
     1
 43
0.0
 10
114.0894286016213
 20
208.9263010215205
 10
114.7110221256845
 20
208.7469157627937
 10
114.7386485117842
 20
208.6227258820091
 10
114.6833957395848
 20
208.4433406232823
 10
114.5452638090863
 20
208.3467485115872
 10
114.3380660765186
 20
208.3743462806768
 10
114.0618022155216
 20
208.4709383923719
  0
MTEXT
  5
92
330
1F
100
AcDbEntity
  8
84
370
    -1
100
AcDbMText
 10
114.2690001112693
 20
208.7883123363096
 30
0.0
 40
0.12
 41
0.2625
 46
0.0
 71
     1
 72
     5
  1
84
 73
     1
 44
1.0
  0
LWPOLYLINE
  5
93
330
1F
100
AcDbEntity
  8
85
370
    -1
100
AcDbPolyline
 90
        2
 70
     0
 43
0.0
 10
114.2032326416858
 20
208.0586581522895
 10
114.5431505112969
 20
208.0485601536166
  0
LWPOLYLINE
  5
94
330
1F
100
AcDbEntity
  8
85
 62
     2
370
    -1
100
AcDbPolyline
 90
        7
 70
     1
 43
0.0
 10
114.117054987721
 20
208.2363575954659
 10
114.669582546535
 20
208.2087598263763
 10
114.7524617048341
 20
208.1673632528604
 10
114.7524617048341
 20
208.0293745676495
 10
114.7110221256845
 20
207.863788113349
 10
114.2275605321198
 20
207.9189836515282
 10
114.0894286016213
 20
207.9189836515282
  0
MTEXT
  5
95
330
1F
100
AcDbEntity
  8
85
370
    -1
100
AcDbMText
 10
114.2690001112693
 20
208.1673632528604
 30
0.0
 40
0.12
 41
0.3039
 46
0.0
 71
     1
 72
     5
  1
85
 73
     1
 44
1.0
  0
CIRCLE
  5
97
330
1F
100
AcDbEntity
  8
28
370
    -1
100
AcDbCircle
 10
112.0326181383929
 20
202.8519569280221
 30
0.0
 40
0.1149
  0
LWPOLYLINE
  5
98
330
1F
100
AcDbEntity
  8
28
370
    -1
100
AcDbPolyline
 90
        2
 70
     0
 43
0.0
 10
112.1416092040685
 20
202.8208038006879
 10
112.2529885265731
 20
202.7827423599759
  0
LWPOLYLINE
  5
99
330
1F
100
AcDbEntity
  8
28
370
    -1
100
AcDbPolyline
 90
        7
 70
     1
 43
0.0
 10
112.3333750074366
 20
203.0379107721541
 10
112.1104624881621
 20
203.1279015717554
 10
111.946589601128
 20
203.1052788490143
 10
111.8666935944857
 20
203.0142397809794
 10
111.7992517862066
 20
202.842432752131
 10
111.7630913338162
 20
202.768060190477
 10
112.1827224843794
 20
202.6571360793412
  0
MTEXT
  5
9B
330
1F
100
AcDbEntity
  8
28
370
    -1
100
AcDbMText
 10
112.4089336481643
 20
202.8364480567103
 30
0.0
 40
0.12
 41
0.5023
 46
0.0
 71
     1
 72
     5
  1
28
 73
     1
 44
1.0
  0
LWPOLYLINE
  5
9C
330
1F
100
AcDbEntity
  8
44
370
    -1
100
AcDbPolyline
 90
        2
 70
     0
 43
0.0
 10
114.9322728830127
 20
202.978906402766
 10
115.5104618470227
 20
202.9529593547476
  0
CIRCLE
  5
9D
330
1F
100
AcDbEntity
  8
44
 62
     2
370
    -1
100
AcDbCircle
 10
114.1174317101053
 20
203.0831337776391
 30
0.0
 40
0.1149
  0
LWPOLYLINE
  5
9E
330
1F
100
AcDbEntity
  8
44
 62
     2
370
    -1
100
AcDbPolyline
 90
       10
 70
     1
 43
0.0
 10
114.016259636655
 20
203.3382167469529
 10
115.5231277304675
 20
203.177650756461
 10
115.6838604272247
 20
203.0973678012744
 10
115.6838604272247
 20
202.8966603732484
 10
115.5834025325465
 20
202.695952865104
 10
115.3191516620508
 20
202.6785991239582
 10
113.9817628800062
 20
202.8083547548717
 10
113.8663048204383
 20
202.8708296971765
 10
113.8663048204383
 20
203.0053910743938
 10
113.9158017419768
 20
203.2378629928807
  0
MTEXT
  5
9F
330
1F
100
AcDbEntity
  8
44
370
    -1
100
AcDbMText
 10
114.3779079595884
 20
203.137509318927
 30
0.0
 40
0.12
 41
0.3416
 46
0.0
 71
     1
 72
     5
  1
44
 73
     1
 44
1.0
  0
LWPOLYLINE
  5
A0
330
1F
100
AcDbEntity
  8
43
370
    -1
100
AcDbPolyline
 90
       12
 70
     1
 43
0.0
 10
115.5885049510514
 20
202.794324604168
 10
115.4750194745379
 20
202.8138698415992
 10
115.3546769760686
 20
202.826404182809
 10
115.2763998549278
 20
202.7977963922831
 10
115.2262945472273
 20
202.7302039154524
 10
115.2178442854807
 20
202.6584504220256
 10
115.2301189638675
 20
202.5938616990858
 10
115.2515876296173
 20
202.5339981983821
 10
115.3006895488783
 20
202.4836877249942
 10
115.3888787372878
 20
202.4523037862618
 10
115.5023385680903
 20
202.4350698685269
 10
115.5947400645177
 20
202.4407183363559
  0
CIRCLE
  5
A1
330
1F
100
AcDbEntity
  8
43
 62
     2
370
    -1
100
AcDbCircle
 10
115.4628530915687
 20
202.6357406286844
 30
0.0
 40
0.1149
  0
MTEXT
  5
A2
330
1F
100
AcDbEntity
  8
43
370
    -1
100
AcDbMText
 10
115.663768880925
 20
202.7360943827566
 30
0.0
 40
0.12
 41
0.4621
 46
0.0
 71
     1
 72
     5
  1
43
 73
     1
 44
1.0
  0
LWPOLYLINE
  5
A4
330
1F
100
AcDbEntity
  8
45
370
    -1
100
AcDbPolyline
 90
       15
 70
     1
 43
0.0
 10
115.9938225892101
 20
203.7650724651564
 10
115.8436637460879
 20
203.7564715348582
 10
115.7419913251648
 20
203.7530318038817
 10
115.6794318191011
 20
203.7662072878644
 10
115.6283776200968
 20
203.7841336397941
 10
115.5791218265703
 20
203.8483120313593
 10
115.5572428294458
 20
203.9451566472027
 10
115.5626636915905
 20
204.0816014464129
 10
115.593714236081
 20
204.1998377908734
 10
115.6506252743156
 20
204.2790638033181
 10
115.7059174270487
 20
204.2958585382536
 10
115.7753339550683
 20
204.2896939504924
 10
115.8563070815691
 20
204.2836575912857
 10
116.0571578780289
 20
204.0986462270299
 10
116.0561544895894
 20
203.9807432768113
  0
CIRCLE
  5
A5
330
1F
100
AcDbEntity
  8
45
 62
     2
370
    -1
100
AcDbCircle
 10
115.708184375038
 20
204.0659781748547
 30
0.0
 40
0.1149
  0
LWPOLYLINE
  5
A6
330
1F
100
AcDbEntity
  8
45
 62
     2
370
    -1
100
AcDbPolyline
 90
        2
 70
     0
 43
0.0
 10
115.8821030006502
 20
204.0659781748547
 10
116.006330683619
 20
204.0659781748547
  0
MTEXT
  5
A7
330
1F
100
AcDbEntity
  8
45
370
    -1
100
AcDbMText
 10
116.1275046147303
 20
204.1628443718423
 30
0.0
 40
0.12
 41
0.3245
 46
0.0
 71
     1
 72
     5
  1
45
 73
     1
 44
1.0
  0
CIRCLE
  5
A8
330
1F
100
AcDbEntity
  8
46
370
    -1
100
AcDbCircle
 10
115.5921338191459
 20
204.9672728671541
 30
0.0
 40
0.1149
  0
LWPOLYLINE
  5
A9
330
1F
100
AcDbEntity
  8
46
370
    -1
100
AcDbPolyline
 90
        2
 70
     0
 43
0.0
 10
115.6981724223524
 20
204.9938770865147
 10
116.2633429823591
 20
205.0995470326268
  0
LWPOLYLINE
  5
AA
330
1F
100
AcDbEntity
  8
46
 62
     2
370
    -1
100
AcDbPolyline
 90
       19
 70
     1
 43
0.0
 10
115.4577182368118
 20
204.9981438916683
 10
115.5701265934668
 20
205.0756740814786
 10
115.7726251268529
 20
205.1588270934072
 10
115.9616147820145
 20
205.209467755323
 10
116.1555604708104
 20
205.2301125526097
 10
116.2229221362429
 20
205.2008091221753
 10
116.2746431237311
 20
205.1227884581437
 10
116.2729473010968
 20
205.0672911397233
 10
116.2413581966771
 20
204.9975925088836
 10
116.2001904192305
 20
204.9578384512512
 10
116.1171624301427
 20
204.9407359677847
 10
115.8083944821519
 20
204.8517806137616
 10
115.6677886663456
 20
204.8155464299523
 10
115.5867129570012
 20
204.8308280679439
 10
115.5518379958704
 20
204.84893393985
 10
115.5146517150435
 20
204.8670141660452
 10
115.4912051238393
 20
204.896804864987
 10
115.4701467894641
 20
204.919687250551
 10
115.4676815955024
 20
204.9335295230175
  0
MTEXT
  5
AB
330
1F
100
AcDbEntity
  8
46
370
    -1
100
AcDbMText
 10
115.7910439517285
 20
205.1647050329462
 30
0.0
 40
0.12
 41
0.2848
 46
0.0
 71
     1
 72
     5
  1
46
 73
     1
 44
1.0
  0
LWPOLYLINE
  5
AC
330
1F
100
AcDbEntity
  8
8
370
    -1
100
AcDbPolyline
 90
       25
 70
     1
 43
0.0
 10
115.9013345385084
 20
203.1422247013015
 10
115.9028508411663
 20
203.2139012575955
 10
115.9969225145169
 20
203.2773583635412
 10
116.1631067212472
 20
203.3000067319931
 10
116.4797062282087
 20
203.308142833781
 10
116.8933811624118
 20
203.3173560554272
 10
117.2496321441621
 20
203.2935696585535
 10
117.5389317918544
 20
203.2621055769744
 10
117.8027043400446
 20
203.2396046713602
 10
117.9187319476525
 20
203.1992832023739
 10
117.9840643962089
 20
203.14452960957
 10
117.9777202884712
 20
203.091292319424
 10
117.969475192412
 20
203.0010482684274
 10
117.930823900349
 20
202.9428292989361
 10
117.7906540616283
 20
202.8673026802909
 10
117.5973751613162
 20
202.7865635709023
 10
117.4219969672229
 20
202.7591899802142
 10
117.2094581380135
 20
202.7475852960251
 10
116.890470374223
 20
202.7463575076151
 10
116.6521992798241
 20
202.7622065569606
 10
116.2846481567018
 20
202.7627515283176
 10
116.1613019043415
 20
202.8376658556146
 10
116.0103223984701
 20
202.9030271555958
 10
115.9376456594504
 20
202.9946849264066
 10
115.9275027807835
 20
203.0754785329309
  0
CIRCLE
  5
AD
330
1F
100
AcDbEntity
  8
8
370
    -1
100
AcDbCircle
 10
116.167367114973
 20
203.1243720807907
 30
0.0
 40
0.1149
  0
LWPOLYLINE
  5
AE
330
1F
100
AcDbEntity
  8
8
370
    -1
100
AcDbPolyline
 90
        3
 70
     0
 43
0.0
 10
116.2968779550945
 20
203.1188742815132
 10
116.9722192834789
 20
203.0870703942646
 10
117.8666230687867
 20
203.1039292434774
  0
MTEXT
  5
AF
330
1F
100
AcDbEntity
  8
8
370
    -1
100
AcDbMText
 10
116.4602140942492
 20
203.1023838585671
 30
0.0
 40
0.12
 41
0.4983
 46
0.0
 71
     1
 72
     5
  1
8
 73
     1
 44
1.0
  0
LWPOLYLINE
  5
B0
330
1F
100
AcDbEntity
  8
7
370
    -1
100
AcDbPolyline
 90
       34
 70
     1
 43
0.0
 10
118.7054782442523
 20
204.7937732213854
 10
118.5560887724577
 20
204.7158327002003
 10
118.4898298725945
 20
204.6457493836969
 10
118.4674347555378
 20
204.5807759750933
 10
118.4615009791748
 20
204.4905575698077
 10
118.5181523545864
 20
204.3848523608431
 10
118.6094478797305
 20
204.2818431572385
 10
118.6728793399653
 20
204.190082803584
 10
118.7221351334917
 20
204.1259044120189
 10
118.8402688951086
 20
204.1040991463132
 10
119.0481337935037
 20
204.120275178473
 10
119.2402297853998
 20
204.0992905755166
 10
119.5291447474284
 20
204.102496289381
 10
119.7672363218509
 20
204.1028264779091
 10
120.0033243251082
 20
204.0753951843714
 10
120.2233869647573
 20
204.03391645268
 10
120.3253927799223
 20
204.0073090276055
 10
120.387952285986
 20
203.9941335436229
 10
120.4383909879284
 20
204.0316788644027
 10
120.5114299726148
 20
204.1157070362162
 10
120.5374219006273
 20
204.2731845240908
 10
120.5243522052021
 20
204.4094241576137
 10
120.4053464894142
 20
204.5098142929911
 10
120.2561910347316
 20
204.6191163129115
 10
120.1753461367855
 20
204.613596073637
 10
119.7707882528127
 20
204.6160420333156
 10
119.5882709339433
 20
204.6070820630646
 10
119.5070926417552
 20
204.631608979841
 10
119.4139217740005
 20
204.6953001028988
 10
119.3555232845328
 20
204.7501306328355
 10
119.2325873635471
 20
204.7880638449928
 10
119.0982230726348
 20
204.8143122301145
 10
118.9363024653442
 20
204.8240736288316
 10
118.8369413641173
 20
204.820659543566
  0
CIRCLE
  5
B1
330
1F
100
AcDbEntity
  8
7
 62
     2
370
    -1
100
AcDbCircle
 10
118.7064752212642
 20
204.4955873348609
 30
0.0
 40
0.1149
  0
LWPOLYLINE
  5
B2
330
1F
100
AcDbEntity
  8
7
370
    -1
100
AcDbPolyline
 90
        2
 70
     0
 43
0.0
 10
119.8083047221677
 20
204.3598702326979
 10
120.389394857225
 20
204.2807884773771
  0
MTEXT
  5
B3
330
1F
100
AcDbEntity
  8
7
370
    -1
100
AcDbMText
 10
119.1511327782878
 20
204.5246742932663
 30
0.0
 40
0.12
 41
0.3844
 46
0.0
 71
     1
 72
     5
  1
7
 73
     1
 44
1.0
  0
LWPOLYLINE
  5
B4
330
1F
100
AcDbEntity
  8
6
370
    -1
100
AcDbPolyline
 90
       28
 70
     1
 43
0.0
 10
118.6260374489787
 20
205.9117082287436
 10
118.6367445332858
 20
205.7800655889022
 10
118.6702314203133
 20
205.6787265622209
 10
118.7814568685524
 20
205.6545330396863
 10
119.2281057755647
 20
205.6086336285759
 10
119.5060283447523
 20
205.5608620805687
 10
119.748793849989
 20
205.5566209211261
 10
120.0378113948613
 20
205.5505813562056
 10
120.2043802872553
 20
205.5385599292141
 10
120.303792679904
 20
205.5373513750872
 10
120.3728501679708
 20
205.5635452630732
 10
120.4785297312245
 20
205.622507958181
 10
120.5888832252924
 20
205.6768993053182
 10
120.6388859501493
 20
205.7537370609339
 10
120.6351641163527
 20
205.8808339985156
 10
120.5969520070891
 20
205.9913670125599
 10
120.4871915700861
 20
206.091859730781
 10
120.3292268137042
 20
206.1617667330219
 10
120.090724907907
 20
206.1984176596335
 10
119.7252799387937
 20
206.2174788342712
 10
119.4455333184173
 20
206.2213096623391
 10
119.1660688008609
 20
206.1997159737486
 10
119.0209429285059
 20
206.1541852197326
 10
118.9127725255796
 20
206.1113761167874
 10
118.7767637034549
 20
206.0775045440962
 10
118.6708276830921
 20
206.0416550459507
 10
118.6368503218434
 20
205.9788647284888
 10
118.6400848871325
 20
205.8956828651355
  0
CIRCLE
  5
B5
330
1F
100
AcDbEntity
  8
6
370
    -1
100
AcDbCircle
 10
118.9014435327828
 20
205.8824015925953
 30
0.0
 40
0.1149
  0
LWPOLYLINE
  5
B6
330
1F
100
AcDbEntity
  8
6
370
    -1
100
AcDbPolyline
 90
        3
 70
     0
 43
0.0
 10
119.018551465963
 20
205.9530491147388
 10
119.6753252996448
 20
205.9279740208915
 10
120.4278377778868
 20
205.816120252735
  0
MTEXT
  5
B7
330
1F
100
AcDbEntity
  8
6
370
    -1
100
AcDbMText
 10
119.4643614945146
 20
206.1176396666575
 30
0.0
 40
0.12
 41
0.5268
 46
0.0
 71
     1
 72
     5
  1
6
 73
     1
 44
1.0
  0
LWPOLYLINE
  5
B8
330
1F
100
AcDbEntity
  8
80
370
    -1
100
AcDbPolyline
 90
       24
 70
     1
 43
0.0
 10
112.5639010971392
 20
205.386746937738
 10
112.3977425361198
 20
205.3617872495898
 10
112.337314829776
 20
205.391167617157
 10
112.2240345189498
 20
205.3922222970183
 10
112.1271642573956
 20
205.3726546195901
 10
112.049733444715
 20
205.2677732790887
 10
112.0415396400776
 20
205.1729065886996
 10
112.0611586089277
 20
205.0714136877529
 10
112.122355686599
 20
204.9726937292988
 10
112.1903841405153
 20
204.8832959867624
 10
112.2840935681993
 20
204.7710671500838
 10
112.414168613961
 20
204.7147203174894
 10
112.5065188189665
 20
204.7249914247109
 10
112.5775029410658
 20
204.7858807538512
 10
112.6459192863597
 20
204.8698576342429
 10
112.6660030837201
 20
204.9348053971355
 10
112.6839550813608
 20
204.9835482764437
 10
112.7296942067779
 20
205.0279762648903
 10
112.7750999379532
 20
205.102451409388
 10
112.8112347446327
 20
205.1791352907381
 10
112.8285968909223
 20
205.2810385230595
 10
112.8049451340308
 20
205.3293197795712
 10
112.6982653880514
 20
205.3604985526163
 10
112.6194240612705
 20
205.3827397954075
  0
LWPOLYLINE
  5
B9
330
1F
100
AcDbEntity
  8
80
 62
     4
370
    -1
100
AcDbPolyline
 90
        5
 70
     0
 43
0.0
 10
112.1482482374817
 20
205.3474609143298
 10
112.1644787667771
 20
205.3430177949137
 10
112.1649371838597
 20
205.0933696220101
 10
112.146420980579
 20
205.095475776019
 10
112.1482482374817
 20
205.3474609143298
  0
CIRCLE
  5
BA
330
1F
100
AcDbEntity
  8
80
370
    -1
100
AcDbCircle
 10
112.2329175520681
 20
205.2166389372377
 30
0.0
 40
0.0643778333311019
  0
LWPOLYLINE
  5
BB
330
1F
100
AcDbEntity
  8
80
370
    -1
100
AcDbPolyline
 90
        2
 70
     0
 43
0.0
 10
112.2976601492734
 20
205.2150456974471
 10
112.7465434388492
 20
205.1761058911363
  0
MTEXT
  5
BC
330
1F
100
AcDbEntity
  8
80
370
    -1
100
AcDbMText
 10
112.264639711807
 20
205.0582287854834
 30
0.0
 40
0.12
 41
0.3896
 46
0.0
 71
     1
 72
     5
  1
80
 73
     1
 44
1.0
  0
LWPOLYLINE
  5
BD
330
1F
100
AcDbEntity
  8
57
370
    -1
100
AcDbPolyline
 90
       12
 70
     1
 43
0.0
 10
116.4574457511343
 20
206.981034996776
 10
116.4027690954632
 20
206.9087685891309
 10
116.3878721431354
 20
206.7930230843431
 10
116.4508419805737
 20
206.7428664852208
 10
116.6154329475133
 20
206.7007722564674
 10
116.7637164480248
 20
206.6700551062187
 10
116.8471034770654
 20
206.6547991139381
 10
116.9164687136632
 20
206.6532571655693
 10
116.9752070088005
 20
206.9844683163248
 10
116.8154182012297
 20
207.0104345986263
 10
116.6485672060157
 20
207.0478805422763
 10
116.5011556596754
 20
207.0000128228532
  0
LWPOLYLINE
  5
BE
330
1F
100
AcDbEntity
  8
57
 62
     4
370
    -1
100
AcDbPolyline
 90
       12
 70
     0
 43
0.0
 10
116.8860400776624
 20
206.8956379851424
 10
116.7379104514164
 20
206.9124872172136
 10
116.6707539516712
 20
206.9233000900782
 10
116.5624040287685
 20
206.8966702250067
 10
116.50724010459
 20
206.86831889159
 10
116.51291421813
 20
206.7736060754664
 10
116.6146635761859
 20
206.7701118473543
 10
116.688677097887
 20
206.7663098707111
 10
116.7581192716175
 20
206.7578339632536
 10
116.8159022640233
 20
206.7584751060265
 10
116.8667256516294
 20
206.7613506313629
 10
116.8977249046981
 20
206.8842096152158
  0
CIRCLE
  5
BF
330
1F
100
AcDbEntity
  8
57
370
    -1
100
AcDbCircle
 10
116.5642361680484
 20
206.8190325030666
 30
0.0
 40
0.0484592086430151
  0
LWPOLYLINE
  5
C0
330
1F
100
AcDbEntity
  8
57
370
    -1
100
AcDbPolyline
 90
        2
 70
     0
 43
0.0
 10
116.620551242513
 20
206.8256509297985
 10
116.8789382371404
 20
206.8256509297985
  0
MTEXT
  5
C1
330
1F
100
AcDbEntity
  8
57
370
    -1
100
AcDbMText
 10
116.6636157688143
 20
206.8852168505048
 30
0.0
 40
0.12
 41
0.1325
 46
0.0
 71
     1
 72
     5
  1
57
 73
     1
 44
1.0
  0
LWPOLYLINE
  5
C2
330
1F
100
AcDbEntity
  8
88
370
    -1
100
AcDbPolyline
 90
       22
 70
     1
 43
0.0
 10
118.7217472421141
 20
207.2858631224275
 10
118.8531334248464
 20
207.3196834036968
 10
119.1951061570446
 20
207.3327242476972
 10
119.691988600312
 20
207.3428607149364
 10
120.0921033648687
 20
207.3241842259624
 10
120.311806964565
 20
207.3150639700182
 10
120.5199539657802
 20
207.3058154855194
 10
120.6126888564494
 20
207.2814167972975
 10
120.6320257224795
 20
207.2053484130093
 10
120.6044405546763
 20
206.9831283279294
 10
120.605132988871
 20
206.9207226961313
 10
120.225922684424
 20
206.9303847177185
 10
119.8883930716419
 20
206.9335744030136
 10
119.6968869310968
 20
206.9013986529567
 10
119.3571229357511
 20
206.8976287334522
 10
119.1789717991651
 20
206.9118332515853
 10
118.9616821020087
 20
206.9117338744555
 10
118.7837874225318
 20
206.9028251956263
 10
118.7302423838548
 20
206.9369051397187
 10
118.7270078185656
 20
207.020087003072
 10
118.7111651806478
 20
207.1979047454162
 10
118.7198975452144
 20
207.2442337221844
  0
CIRCLE
  5
C3
330
1F
100
AcDbEntity
  8
88
 62
     2
370
    -1
100
AcDbCircle
 10
118.8860002458661
 20
207.1110455055335
 30
0.0
 40
0.1149
  0
MTEXT
  5
C4
330
1F
100
AcDbEntity
  8
88
370
    -1
100
AcDbMText
 10
119.1076412097395
 20
207.2753181771307
 30
0.0
 40
0.12
 41
0.2431
 46
0.0
 71
     1
 72
     5
  1
88
 73
     1
 44
1.0
  0
MTEXT
  5
C5
330
1F
100
AcDbEntity
  8
88
 62
     3
370
    -1
100
AcDbMText
 10
119.4079287672184
 20
207.2967450612727
 30
0.0
 40
0.12
 41
1.1797
 46
0.0
 71
     1
 72
     5
  1
unexcavated
 73
     1
 44
1.0
  0
LWPOLYLINE
  5
C6
330
1F
100
AcDbEntity
  8
88
 62
     4
370
    -1
100
AcDbPolyline
 90
        7
 70
     0
 43
0.0
 10
118.8073534890806
 20
206.9896265221017
 10
118.7859044477665
 20
207.2538912929888
 10
119.5723718524406
 20
207.2538912929888
 10
120.5590310164939
 20
207.2396067302669
 10
120.5447315468311
 20
206.9753419593799
 10
119.7725636118198
 20
206.9753419593799
 10
118.8073534890806
 20
206.9753419593799
  0
LWPOLYLINE
  5
C7
330
1F
100
AcDbEntity
  8
38
370
    -1
100
AcDbPolyline
 90
       22
 70
     1
 43
0.0
 10
121.479061879727
 20
206.4912147411519
 10
121.3435948232454
 20
206.6168498732114
 10
121.1654180409484
 20
206.6333657110407
 10
120.9080921833396
 20
206.699858628016
 10
120.7058789584874
 20
206.7993255178005
 10
120.4394616963591
 20
206.8518479337547
 10
120.1083531284473
 20
206.9013409501071
 10
119.9857506017035
 20
206.9092270062135
 10
119.8796607070752
 20
206.8872454262454
 10
119.8017169801763
 20
206.8285904796685
 10
119.8187168807992
 20
206.7548077693656
 10
119.8860785462318
 20
206.7255043389312
 10
119.9513340576554
 20
206.677684705216
 10
120.1359799705307
 20
206.49480514068
 10
120.3097392791225
 20
206.459747453859
 10
120.4030127297209
 20
206.3868110520162
 10
120.5950574301953
 20
206.3704490884524
 10
120.8428046147773
 20
206.3339007446844
 10
121.113870162009
 20
206.2791183004558
 10
121.3500351023989
 20
206.2447530478294
 10
121.3990087931053
 20
206.2059991729228
 10
121.4097703745481
 20
206.2777783120604
  0
CIRCLE
  5
C8
330
1F
100
AcDbEntity
  8
38
370
    -1
100
AcDbCircle
 10
119.9965910842385
 20
206.7810722108132
 30
0.0
 40
0.1149
  0
LWPOLYLINE
  5
C9
330
1F
100
AcDbEntity
  8
38
370
    -1
100
AcDbPolyline
 90
        2
 70
     0
 43
0.0
 10
120.1101739739223
 20
206.7372372516749
 10
121.4065871006807
 20
206.3563375360213
  0
MTEXT
  5
CA
330
1F
100
AcDbEntity
  8
38
370
    -1
100
AcDbMText
 10
120.507117398097
 20
206.7261493959126
 30
0.0
 40
0.12
 41
0.3377
 46
0.0
 71
     1
 72
     5
  1
38
 73
     1
 44
1.0
  0
LWPOLYLINE
  5
CB
330
1F
100
AcDbEntity
  8
38
 62
     4
370
    -1
100
AcDbPolyline
 90
        5
 70
     0
 43
0.0
 10
120.8874185346281
 20
206.6880712181367
 10
120.8807923240704
 20
206.6602584446491
 10
120.9065502349708
 20
206.6304933914182
 10
120.9343630084583
 20
206.6238671808605
 10
120.9571941026005
 20
206.6495481546282
  0
LWPOLYLINE
  5
CC
330
1F
100
AcDbEntity
  8
38
 62
     4
370
    -1
100
AcDbPolyline
 90
        8
 70
     0
 43
0.0
 10
121.17029713745
 20
206.6103038055003
 10
121.1429972781808
 20
206.5707036221334
 10
121.1362941304904
 20
206.5498248077346
 10
121.2497796070039
 20
206.5302795703034
 10
121.3306757963719
 20
206.5311771701854
 10
121.3537120562014
 20
206.5383675863833
 10
121.358001301352
 20
206.5684660338561
 10
121.3575140328446
 20
206.6123811080844
  0
LWPOLYLINE
  5
CD
330
1F
100
AcDbEntity
  8
38
 62
     4
370
    -1
100
AcDbPolyline
 90
       10
 70
     0
 43
0.0
 10
121.1450489350541
 20
206.3857980464351
 10
121.1291774457114
 20
206.357882690104
 10
121.1666971207803
 20
206.3097553078578
 10
121.2569924631987
 20
206.2968875724061
 10
121.2871934935152
 20
206.2833530484706
 10
121.2938966412057
 20
206.3042318628694
 10
121.3004459146306
 20
206.3389785954456
 10
121.2771531976919
 20
206.3549013762101
 10
121.2353699231834
 20
206.3706189912872
 10
121.1449719979213
 20
206.3927320055238
  0
LWPOLYLINE
  5
CE
330
1F
100
AcDbEntity
  8
60
370
    -1
100
AcDbPolyline
 90
       24
 70
     1
 43
0.0
 10
125.0915038963811
 20
206.7532113238612
 10
124.2341100776377
 20
206.9424959046982
 10
123.8103179104785
 20
207.0117649698801
 10
123.6665544665159
 20
207.0517786903355
 10
123.56480510846
 20
207.0552729184477
 10
123.5055058133964
 20
206.9829552193808
 10
123.3888082115908
 20
206.8753265820976
 10
123.3805374698207
 20
206.7873938507972
 10
123.3574467128554
 20
206.5767816556203
 10
123.4941992605967
 20
206.5436249571209
 10
123.5731688159322
 20
206.5098271158485
 10
123.5832604031773
 20
206.4336561487167
 10
123.6715008830086
 20
206.3976495705918
 10
124.0314993442663
 20
206.24445491644
 10
124.2745469523232
 20
206.2147892403389
 10
124.5614583431865
 20
206.1902334721377
 10
124.9037901153376
 20
206.1709158403908
 10
125.2557774976482
 20
206.114719676348
 10
125.4529321060223
 20
206.0544939299776
 10
125.5642088456832
 20
206.0256777680505
 10
125.5919222420409
 20
206.2363412546493
 10
125.4385801250514
 20
206.306299548312
 10
125.3029848400152
 20
206.4434912788526
 10
125.2039346930332
 20
206.6203857756038
  0
LWPOLYLINE
  5
CF
330
1F
100
AcDbEntity
  8
60
 62
     4
370
    -1
100
AcDbPolyline
 90
        8
 70
     0
 43
0.0
 10
125.1715249258641
 20
206.6246493750434
 10
124.4274883550796
 20
206.8059453169305
 10
123.8575444871288
 20
206.9221364159455
 10
123.7190191796206
 20
206.9067297551132
 10
123.6288520657567
 20
206.9080408920837
 10
123.5954389101481
 20
206.7944015413048
 10
123.4429431016189
 20
206.7880862849919
 10
123.4129440312758
 20
206.575085832986
  0
LWPOLYLINE
  5
D0
330
1F
100
AcDbEntity
  8
60
 62
     4
370
    -1
100
AcDbPolyline
 90
        9
 70
     0
 43
0.0
 10
124.0546638326505
 20
206.2400887341568
 10
124.0231035796555
 20
206.3761232019924
 10
124.2545945892312
 20
206.3463292973367
 10
124.54165985436
 20
206.307905610958
 10
124.8588748583835
 20
206.2605700400364
 10
125.1805073361122
 20
206.2317763181064
 10
125.4141557911186
 20
206.215875977339
 10
125.527359164812
 20
206.2217552565663
 10
125.5758199413
 20
206.2292277755842
  0
CIRCLE
  5
D1
330
1F
100
AcDbEntity
  8
60
 62
     2
370
    -1
100
AcDbCircle
 10
123.5908534305203
 20
206.6210047975724
 30
0.0
 40
0.1149
  0
MTEXT
  5
D2
330
1F
100
AcDbEntity
  8
60
370
    -1
100
AcDbMText
 10
123.7899070089011
 20
206.7104859942883
 30
0.0
 40
0.12
 41
0.2488
 46
0.0
 71
     1
 72
     5
  1
60
 73
     1
 44
1.0
  0
MTEXT
  5
D3
330
1F
100
AcDbEntity
  8
60
 62
     3
370
    -1
100
AcDbMText
 10
123.9989132662009
 20
206.6408894812475
 30
0.0
 40
0.12
 41
1.1844
 46
0.0
 71
     1
 72
     5
  1
unexcavated
 73
     1
 44
1.0
  0
LWPOLYLINE
  5
D4
330
1F
100
AcDbEntity
  8
62
370
    -1
100
AcDbPolyline
 90
       16
 70
     1
 43
0.0
 10
126.8641001719845
 20
204.7063053185953
 10
126.6442939894445
 20
204.7246708533244
 10
126.5633978000765
 20
204.7237732534424
 10
126.4826811306849
 20
204.7066964156868
 10
126.4206345388396
 20
204.6736455057449
 10
126.372635385148
 20
204.6245692321948
 10
126.3685513056847
 20
204.5759802271522
 10
126.3761776989681
 20
204.5136515324868
 10
126.3676248543779
 20
204.4511433178449
 10
126.3963608734583
 20
204.361309598223
 10
126.4473894267518
 20
204.3456945659895
 10
126.5377617063029
 20
204.3258928714491
 10
126.6372510360845
 20
204.3177503582336
 10
126.7504544097778
 20
204.3236296374609
 10
126.8985840360238
 20
204.3067804053896
 10
127.0164356948206
 20
204.3103996563425
  0
CIRCLE
  5
D5
330
1F
100
AcDbEntity
  8
62
370
    -1
100
AcDbCircle
 10
126.5409063107336
 20
204.5258429012984
 30
0.0
 40
0.1149
  0
LWPOLYLINE
  5
D6
330
1F
100
AcDbEntity
  8
62
370
    -1
100
AcDbPolyline
 90
        2
 70
     0
 43
0.0
 10
126.656584663398
 20
204.5258429012984
 10
126.9050787030125
 20
204.5130030348631
  0
MTEXT
  5
D7
330
1F
100
AcDbEntity
  8
62
370
    -1
100
AcDbMText
 10
126.7551253554165
 20
204.5986018506645
 30
0.0
 40
0.12
 41
0.4156
 46
0.0
 71
     1
 72
     5
  1
62
 73
     1
 44
1.0
  0
LWPOLYLINE
  5
D8
330
1F
100
AcDbEntity
  8
87
370
    -1
100
AcDbPolyline
 90
       10
 70
     1
 43
0.0
 10
121.2472342701955
 20
203.0096780501503
 10
121.3421266062955
 20
202.9991729258167
 10
121.4303670861268
 20
202.9631663476918
 10
121.4837582505383
 20
202.9429543217768
 10
121.5071022588988
 20
202.9224089016199
 10
121.4960842203469
 20
202.8737429594445
 10
121.4760004229865
 20
202.8087951965519
 10
121.4692716295851
 20
202.7902277018493
 10
121.2238870561211
 20
202.8221790519357
 10
121.250674001172
 20
202.9080056292272
  0
CIRCLE
  5
D9
330
1F
100
AcDbEntity
  8
87
370
    -1
100
AcDbCircle
 10
121.2845950494538
 20
202.9075869304548
 30
0.0
 40
0.0386780468117304
  0
LWPOLYLINE
  5
DA
330
1F
100
AcDbEntity
  8
87
370
    -1
100
AcDbPolyline
 90
        2
 70
     0
 43
0.0
 10
121.3233605967722
 20
202.9062447858125
 10
121.4791115691274
 20
202.866236024468
  0
MTEXT
  5
DB
330
1F
100
AcDbEntity
  8
87
370
    -1
100
AcDbMText
 10
121.000733197969
 20
203.0262710698461
 30
0.0
 40
0.12
 41
0.2158
 46
0.0
 71
     1
 72
     5
  1
87
 73
     1
 44
1.0
  0
LWPOLYLINE
  5
DD
330
1F
100
AcDbEntity
  8
31
370
    -1
100
AcDbPolyline
 90
       21
 70
     1
 43
0.0
 10
121.5583616235905
 20
206.2193253254571
 10
121.673927608402
 20
206.2206076110028
 10
121.7707209328235
 20
206.2471092475198
 10
121.8513093736605
 20
206.2757426837566
 10
121.9319234602085
 20
206.3020648002971
 10
121.98531462462
 20
206.2818527743821
 10
122.0575553865541
 20
206.2294874384072
 10
122.0834158802982
 20
206.1904771063914
 10
122.1000823866792
 20
206.1467415521394
 10
122.0333618640195
 20
206.1182619901682
 10
121.9900622868532
 20
206.0623030489513
 10
121.967821044062
 20
205.9834617221703
 10
121.9643011702389
 20
205.8840236838107
 10
121.9743414660622
 20
205.8124753560712
 10
121.9864622701834
 20
205.7617545513088
 10
122.0032313594081
 20
205.7087737182719
 10
121.917609947804
 20
205.717070105753
 10
121.8065127281195
 20
205.7297070298064
 10
121.6929503144733
 20
205.7561862263263
 10
121.5971603784913
 20
205.8475875400279
 10
121.5036561164946
 20
205.9413258191367
  0
CIRCLE
  5
DF
330
1F
100
AcDbEntity
  8
31
 62
     2
370
    -1
100
AcDbCircle
 10
121.6292543687864
 20
206.0413242583209
 30
0.0
 40
0.0936175710429495
  0
LWPOLYLINE
  5
E0
330
1F
100
AcDbEntity
  8
31
370
    -1
100
AcDbPolyline
 90
        2
 70
     0
 43
0.0
 10
121.7256595232096
 20
206.0092225492114
 10
121.918469995236
 20
205.9610699054287
  0
MTEXT
  5
E1
330
1F
100
AcDbEntity
  8
31
370
    -1
100
AcDbMText
 10
122.079145252608
 20
206.0413242583209
 30
0.0
 40
0.12
 41
0.4338
 46
0.0
 71
     1
 72
     5
  1
31
 73
     1
 44
1.0
  0
LWPOLYLINE
  5
E3
330
1F
100
AcDbEntity
  8
61
370
    -1
100
AcDbPolyline
 90
        9
 70
     1
 43
0.0
 10
114.881250741147
 20
213.4106102717525
 10
114.8005597174663
 20
213.3912221143007
 10
114.7272642756707
 20
213.3303071394495
 10
114.6726389114214
 20
213.2534180924119
 10
114.6710713173418
 20
213.1863641755104
 10
114.678749002047
 20
213.1194128414525
 10
114.7300083667387
 20
213.082995931953
 10
114.8132928129356
 20
213.0769852184572
 10
114.8642187833854
 20
213.0706154650087
  0
LWPOLYLINE
  5
E4
330
1F
100
AcDbEntity
  8
61
 62
     4
370
    -1
100
AcDbPolyline
 90
       14
 70
     0
 43
0.0
 10
114.8615772751612
 20
213.3086813937202
 10
114.7342495261813
 20
213.3257614371898
 10
114.7392824969484
 20
213.2888316134719
 10
114.7044331815285
 20
213.3046261656818
 10
114.6874044294808
 20
213.1726757773094
 10
114.7106202092868
 20
213.1636869556337
 10
114.7154736600775
 20
213.1429363697894
 10
114.8567719100784
 20
213.1167649218005
 10
114.8541271961403
 20
213.1467864321406
 10
114.7268763842931
 20
213.1569325165214
 10
114.7232314876293
 20
213.2770954950144
 10
114.7323741835706
 20
213.2864433566429
 10
114.8527423277509
 20
213.2715976957369
 10
114.8501745509455
 20
213.2946852469883
  0
CIRCLE
  5
E5
330
1F
100
AcDbEntity
  8
61
370
    -1
100
AcDbCircle
 10
114.8144802491567
 20
213.208410378275
 30
0.0
 40
0.0783807951530052
  0
MTEXT
  5
E6
330
1F
100
AcDbEntity
  8
61
370
    -1
100
AcDbMText
 10
115.0102103390219
 20
213.361431612262
 30
0.0
 40
0.12
 41
0.5872
 46
0.0
 71
     1
 72
     5
  1
61
 73
     1
 44
1.0
  0
LWPOLYLINE
  5
EC
330
1F
100
AcDbEntity
  8
94
370
    -1
100
AcDbPolyline
 90
       23
 70
     1
 43
0.0
 10
112.9826817477711
 20
199.3760817296302
 10
112.9421152340266
 20
199.2974556809568
 10
112.9043106281671
 20
199.1751606000301
 10
112.8874461710973
 20
199.0300879769793
 10
112.8818123444427
 20
198.9104331572862
 10
112.9384393895609
 20
198.7753376752429
 10
113.0424345829314
 20
198.7281398323025
 10
113.5331360186789
 20
198.6505345577037
 10
114.2239557161274
 20
198.5704466336198
 10
114.5028216731532
 20
198.5158992173418
 10
114.583285115161
 20
198.5190503945111
 10
114.6267838421023
 20
198.5379098566637
 10
114.672119962378
 20
198.60048700973
 10
114.7103381668523
 20
198.6836880302925
 10
114.7367661663149
 20
198.7943632115195
 10
114.7453322061663
 20
198.8542514446918
 10
114.6985119967437
 20
198.9319529788146
 10
114.6168077588918
 20
199.046083982738
 10
114.5403597141766
 20
199.098173078861
 10
114.0837637682896
 20
199.2129377031684
 10
113.2631904634891
 20
199.3836492091433
 10
113.0744974668456
 20
199.3931524571089
 10
112.9895320409395
 20
199.3807540188403
  0
LWPOLYLINE
  5
ED
330
1F
100
AcDbEntity
  8
94
 62
     4
370
    -1
100
AcDbPolyline
 90
       14
 70
     0
 43
0.0
 10
113.0024646666772
 20
198.8105136556356
 10
112.9588326573178
 20
199.0216435837793
 10
112.98201216229
 20
199.2219808094527
 10
113.0293316518818
 20
199.3144777497749
 10
113.4783717540224
 20
199.2617307039374
 10
114.0016575675896
 20
199.147671630208
 10
114.4719784291437
 20
199.0399519337112
 10
114.5952466832815
 20
198.9101613034653
 10
114.6474690618226
 20
198.7566199578841
 10
114.6281833074917
 20
198.6230212585514
 10
114.5687573315947
 20
198.5878939368193
 10
114.124365189334
 20
198.636090340098
 10
113.6129425687693
 20
198.7157763013339
 10
113.0001893453978
 20
198.8081896756956
  0
CIRCLE
  5
EE
330
1F
100
AcDbEntity
  8
94
 62
     2
370
    -1
100
AcDbCircle
 10
113.1470051767903
 20
199.0365052096181
 30
0.0
 40
0.1149
  0
MTEXT
  5
EF
330
1F
100
AcDbEntity
  8
94
370
    -1
100
AcDbMText
 10
113.3000730429067
 20
199.0976689108868
 30
0.0
 40
0.12
 41
0.3367
 46
0.0
 71
     1
 72
     5
  1
94
 73
     1
 44
1.0
  0
MTEXT
  5
F0
330
1F
100
AcDbEntity
  8
94
 62
     3
370
    -1
100
AcDbMText
 10
113.5143680378128
 20
199.0670870385794
 30
0.0
 40
0.12
 41
0.9949
 46
0.0
 71
     1
 72
     5
  1
unexcavated
 73
     1
 44
1.0
  0
LWPOLYLINE
  5
FD
330
1F
100
AcDbEntity
  8
precinct
370
    -1
100
AcDbPolyline
 90
        2
 70
     0
 43
0.0
 10
-15.45071026816855
 20
173.6587257711208
 10
-8.052140122509293
 20
173.4746062950542
  0
LWPOLYLINE
  5
FE
330
1F
100
AcDbEntity
  8
precinct
370
    -1
100
AcDbPolyline
 90
       15
 70
     0
 43
0.0
 10
2.361111797368999
 20
173.2083990658029
 10
6.382102802417087
 20
173.1509260001927
 10
6.518477624146065
 20
199.1724561091459
 10
7.958684371275204
 20
214.4952427443193
 10
10.96443620871256
 20
235.0983518445738
 10
11.70975011158554
 20
238.9098887712093
 10
73.15688666009171
 20
242.6983846798985
 10
133.0535389703059
 20
246.2170043707571
 10
143.8072557589504
 20
243.8088783107461
 10
146.3242797503055
 20
235.0016853971671
 10
146.3677182166508
 20
232.1396330579807
 10
146.0836552694753
 20
212.155958334002
 10
146.229704466211
 20
200.3270540848447
 10
145.9624709842085
 20
191.7863992619504
 10
145.2549700695939
 20
180.4488788953399
  0
LWPOLYLINE
  5
FF
330
1F
100
AcDbEntity
  8
precinct
370
    -1
100
AcDbPolyline
 90
       15
 70
     0
 43
0.0
 10
2.352807111162965
 20
172.627377883451
 10
6.960102350676149
 20
172.561524619603
 10
7.09941536903566
 20
199.1436888039532
 10
8.535824050313796
 20
214.4260666903291
 10
11.53740640735706
 20
235.0005958331896
 10
12.19383060844501
 20
238.3575506308117
 10
73.19180428421154
 20
242.1183536021031
 10
133.0061721695985
 20
245.6321395069941
 10
143.3434057750887
 20
243.3172783177829
 10
145.7444333438934
 20
234.9159626919035
 10
145.7865750082629
 20
232.1393534044784
 10
145.5025237501351
 20
212.1565009986899
 10
145.6485117139081
 20
200.3325561664265
 10
145.3819567912153
 20
191.8135877759288
 10
144.675017666817
 20
180.4850699531841
  0
LWPOLYLINE
  5
100
330
1F
100
AcDbEntity
  8
precinct
370
    -1
100
AcDbPolyline
 90
        2
 70
     0
 43
0.0
 10
-15.46516645725076
 20
173.0778250904948
 10
-8.066596311591502
 20
172.8937056144281
  0
LWPOLYLINE
  5
102
330
1F
100
AcDbEntity
  8
hillslope
370
    -1
100
AcDbPolyline
 90
       38
 70
     0
 43
0.0
 10
9.252761284129754
 20
218.0837739847908
 10
19.92062739283507
 20
219.5271555061687
 10
25.47053096058395
 20
219.5840986111777
 10
31.08926578892876
 20
219.6218288840777
 10
35.84218451981513
 20
219.7004733491239
 10
41.8022450389608
 20
219.5381849175406
 10
46.87513018486116
 20
217.995626808913
 10
51.29160634262801
 20
214.6330503284133
 10
55.25816729404911
 20
209.3928169797146
 10
57.15910625909151
 20
205.9773666589404
 10
58.95561891149885
 20
202.5474211930218
 10
59.4715705125324
 20
199.8458886722618
 10
61.51630499182067
 20
196.6172475324699
 10
63.10105169142081
 20
194.9616058439543
 10
66.18640483193391
 20
192.3808348866719
 10
67.98073529439267
 20
192.0545588250702
 10
70.70992551471022
 20
190.4024319172342
 10
72.30140666050684
 20
189.630875620893
 10
74.79961809590819
 20
189.684221229864
 10
76.74070436923765
 20
190.2902336828343
 10
77.70494347072315
 20
190.6801045802832
 10
80.27923935070109
 20
194.164421907924
 10
81.24716988639997
 20
196.6001474755878
 10
83.68676354181085
 20
200.8683698010362
 10
86.72015063317173
 20
205.2938095640359
 10
90.16463821332232
 20
209.5346693050894
 10
94.58807243990708
 20
212.7952498089777
 10
99.59560535962049
 20
214.5834830246531
 10
105.2952250348649
 20
216.3181939778238
 10
110.7417755118177
 20
217.0368182419857
 10
116.7500391533609
 20
216.7345084457282
 10
121.4335251705089
 20
216.1735151959093
 10
126.0186708989881
 20
213.274488244865
 10
129.6857638891476
 20
209.1347412127542
 10
133.5672410444886
 20
204.5903687691582
 10
136.5679351885304
 20
200.1740110730203
 10
138.9910884321064
 20
194.9237878663375
 10
144.3342276263584
 20
186.7505244741785
  0
LWPOLYLINE
  5
107
330
1F
100
AcDbEntity
  8
hillslope
  6
ACAD_ISO02W100
370
    -1
100
AcDbPolyline
 90
       11
 70
     0
 43
0.0
 10
52.07786810609836
 20
240.3247895950852
 10
57.27675124022503
 20
238.9521866788133
 10
62.28950936187019
 20
236.4749812121314
 10
65.23119667258348
 20
234.3489258635178
 10
70.78863731665871
 20
227.6782856715037
 10
73.36905496687365
 20
224.3830424301521
 10
74.74336830439759
 20
226.4609304026388
 10
76.64282047080928
 20
231.9055468357181
 10
79.58404723564314
 20
236.766961143974
 10
84.07691417596638
 20
240.6671793627275
 10
87.40114770760653
 20
243.0387443876723
  0
LWPOLYLINE
  5
17A
330
1F
100
AcDbEntity
  8
38
  6
ACAD_ISO02W100
 62
     4
370
    -1
100
AcDbPolyline
 90
        4
 70
     0
 43
0.0
 10
120.0031024898151
 20
206.899777961802
 10
120.1204391954489
 20
206.8357780299623
 10
120.1631072596777
 20
206.8891112139952
 10
119.9924357563553
 20
206.899777961802
  0
LWPOLYLINE
  5
17B
330
1F
100
AcDbEntity
  8
38
  6
ACAD_ISO02W100
 62
     4
370
    -1
100
AcDbPolyline
 90
        5
 70
     0
 43
0.0
 10
119.8964328944379
 20
206.7451112286058
 10
119.8804322290533
 20
206.6651113600563
 10
120.0137696000715
 20
206.5957778693129
 10
120.0671043977602
 20
206.6597779861529
 10
119.8857657841815
 20
206.7291112918959
  0
LWPOLYLINE
  5
17D
330
1F
100
AcDbEntity
  8
59
370
    -1
100
AcDbPolyline
 90
        5
 70
     1
 43
0.0
 10
107.6155143295522
 20
203.6301437385676
 10
108.4699502378824
 20
203.5479888014205
 10
108.6014021189775
 20
203.4658338642734
 10
108.6671278711268
 20
203.3508169522674
 10
108.6014021189775
 20
202.7757327622382
  0
LWPOLYLINE
  5
17E
330
1F
100
AcDbEntity
  8
59
370
    -1
100
AcDbPolyline
 90
        2
 70
     0
 43
0.0
 10
108.1084584126631
 20
203.2193692378324
 10
108.4699502378824
 20
203.1700762755441
  0
MTEXT
  5
17F
330
1F
100
AcDbEntity
  8
59
370
    -1
100
AcDbMText
 10
108.0920266920284
 20
203.4658338642734
 30
0.0
 40
0.12
 41
0.3286
 46
0.0
 71
     1
 72
     5
  1
59
 73
     1
 44
1.0
  0
LWPOLYLINE
  5
180
330
1F
100
AcDbEntity
  8
precinct
370
    -1
100
AcDbPolyline
 90
        9
 70
     0
 43
0.0
 10
113.2672658524663
 20
204.6652953916204
 10
114.368173802352
 20
204.5009855173261
 10
114.3353107378791
 20
204.2380899034557
 10
114.2038592335805
 20
204.2052279285968
 10
114.0888390731201
 20
204.1230729914497
 10
114.0559760086472
 20
204.008056264444
 10
113.4315804212378
 20
204.1559349663085
 10
113.3001289169392
 20
204.3202448406028
 10
113.2179714441552
 20
204.6652953916204
  0
MTEXT
  5
181
330
1F
100
AcDbEntity
  8
precinct
370
    -1
100
AcDbMText
 10
113.2672658524663
 20
203.9916252770146
 30
0.0
 40
0.12
 41
1.429570862457081
 46
0.0
 71
     1
 72
     5
  1
upstanding wall\P?retained as monument
 73
     1
 44
1.0
  0
ENDSEC
  0
SECTION
  2
OBJECTS
  0
DICTIONARY
  5
C
330
0
100
AcDbDictionary
281
     1
  3
ACAD_COLOR
350
215
  3
ACAD_DETAILVIEWSTYLE
350
295
  3
ACAD_GROUP
350
D
  3
ACAD_LAYOUT
350
1A
  3
ACAD_MATERIAL
350
214
  3
ACAD_MLEADERSTYLE
350
25A
  3
ACAD_MLINESTYLE
350
17
  3
ACAD_PLOTSETTINGS
350
19
  3
ACAD_PLOTSTYLENAME
350
E
  3
ACAD_SCALELIST
350
233
  3
ACAD_SECTIONVIEWSTYLE
350
296
  3
ACAD_TABLESTYLE
350
258
  3
ACAD_VISUALSTYLE
350
21A
  3
ACDB_RECOMPOSE_DATA
350
290
  3
AcDbVariableDictionary
350
25C
  0
DICTIONARY
  5
215
102
{ACAD_REACTORS
330
C
102
}
330
C
100
AcDbDictionary
281
     1
  0
DICTIONARY
  5
295
102
{ACAD_REACTORS
330
C
102
}
330
C
100
AcDbDictionary
281
     1
  0
DICTIONARY
  5
D
102
{ACAD_REACTORS
330
C
102
}
330
C
100
AcDbDictionary
281
     1
  0
DICTIONARY
  5
1A
102
{ACAD_REACTORS
330
C
102
}
330
C
100
AcDbDictionary
281
     1
  3
Layout1
350
1E
  3
Layout2
350
26
  3
Model
350
22
  0
DICTIONARY
  5
214
102
{ACAD_REACTORS
330
C
102
}
330
C
100
AcDbDictionary
281
     1
  3
ByBlock
350
256
  3
ByLayer
350
255
  3
Global
350
257
  0
DICTIONARY
  5
25A
102
{ACAD_REACTORS
330
C
102
}
330
C
100
AcDbDictionary
281
     1
  3
Standard
350
25B
  0
DICTIONARY
  5
17
102
{ACAD_REACTORS
330
C
102
}
330
C
100
AcDbDictionary
281
     1
  3
Standard
350
18
  0
DICTIONARY
  5
19
102
{ACAD_REACTORS
330
C
102
}
330
C
100
AcDbDictionary
281
     1
  0
ACDBDICTIONARYWDFLT
  5
E
102
{ACAD_REACTORS
330
C
102
}
330
C
100
AcDbDictionary
281
     1
  3
Normal
350
F
100
AcDbDictionaryWithDefault
340
F
  0
DICTIONARY
  5
233
102
{ACAD_REACTORS
330
C
102
}
330
C
100
AcDbDictionary
281
     1
  3
A0
350
234
  3
A1
350
235
  3
A2
350
236
  3
A3
350
237
  3
A4
350
238
  3
A5
350
239
  3
A6
350
23A
  3
A7
350
23B
  3
A8
350
23C
  3
A9
350
23D
  3
B0
350
23E
  3
B1
350
23F
  3
B2
350
240
  3
B3
350
241
  3
B4
350
242
  3
B5
350
243
  3
B6
350
244
  3
B7
350
245
  3
B8
350
246
  3
B9
350
247
  3
C0
350
248
  3
C1
350
249
  3
C2
350
24A
  3
C3
350
24B
  3
C4
350
24C
  3
C5
350
24D
  3
C6
350
24E
  3
C7
350
24F
  3
C8
350
250
  3
C9
350
251
  3
D0
350
252
  3
D1
350
253
  3
D2
350
254
  0
DICTIONARY
  5
296
102
{ACAD_REACTORS
330
C
102
}
330
C
100
AcDbDictionary
281
     1
  0
DICTIONARY
  5
258
102
{ACAD_REACTORS
330
C
102
}
330
C
100
AcDbDictionary
281
     1
  3
Standard
350
259
  0
DICTIONARY
  5
21A
102
{ACAD_REACTORS
330
C
102
}
330
C
100
AcDbDictionary
281
     1
  3
2dWireframe
350
21F
  3
Basic
350
222
  3
Brighten
350
226
  3
ColorChange
350
22A
  3
Conceptual
350
224
  3
Dim
350
225
  3
EdgeColorOff
350
22D
  3
Facepattern
350
229
  3
Flat
350
21B
  3
FlatWithEdges
350
21C
  3
Gouraud
350
21D
  3
GouraudWithEdges
350
21E
  3
Hidden
350
221
  3
JitterOff
350
22B
  3
Linepattern
350
228
  3
OverhangOff
350
22C
  3
Realistic
350
223
  3
Shaded
350
232
  3
Shaded with edges
350
231
  3
Shades of Gray
350
22E
  3
Sketchy
350
22F
  3
Thicken
350
227
  3
Wireframe
350
220
  3
X-Ray
350
230
  0
XRECORD
  5
290
102
{ACAD_REACTORS
330
C
102
}
330
C
100
AcDbXrecord
280
     1
 90
        1
330
259
  0
DICTIONARY
  5
25C
102
{ACAD_REACTORS
330
C
102
}
330
C
100
AcDbDictionary
281
     1
  3
CANNOSCALE
350
25D
  3
CMLEADERSTYLE
350
292
  3
CTABLESTYLE
350
291
  3
MSLTSCALE
350
293
  3
XCLIPFRAME
350
294
  0
LAYOUT
  5
1E
102
{ACAD_REACTORS
330
1A
102
}
330
1A
100
AcDbPlotSettings
  1

  2
D:\Programs\AutoCAD LT 2000\plotters\DWF Classic.pc3
  4

  6

 40
0.0
 41
0.0
 42
0.0
 43
0.0
 44
0.0
 45
0.0
 46
0.0
 47
0.0
 48
0.0
 49
0.0
140
0.0
141
0.0
142
1.0
143
1.0
 70
   688
 72
     0
 73
     0
 74
     5
  7

 75
    16
 76
     0
 77
     2
 78
   300
147
1.0
148
0.0
149
0.0
100
AcDbLayout
  1
Layout1
 70
     1
 71
     1
 10
0.0
 20
0.0
 11
420.0
 21
297.0
 12
0.0
 22
0.0
 32
0.0
 14
24.38124809265136
 24
20.4312497138977
 34
0.0
 15
219.4312328338623
 25
183.8812474250794
 35
0.0
146
0.0
 13
0.0
 23
0.0
 33
0.0
 16
1.0
 26
0.0
 36
0.0
 17
0.0
 27
1.0
 37
0.0
 76
     0
330
1B
  0
LAYOUT
  5
26
102
{ACAD_REACTORS
330
1A
102
}
330
1A
100
AcDbPlotSettings
  1

  2
D:\Programs\AutoCAD LT 2000\plotters\DWF Classic.pc3
  4

  6

 40
0.0
 41
0.0
 42
0.0
 43
0.0
 44
0.0
 45
0.0
 46
0.0
 47
0.0
 48
0.0
 49
0.0
140
0.0
141
0.0
142
1.0
143
1.0
 70
   688
 72
     0
 73
     0
 74
     5
  7

 75
    16
 76
     0
 77
     2
 78
   300
147
1.0
148
0.0
149
0.0
100
AcDbLayout
  1
Layout2
 70
     1
 71
     2
 10
0.0
 20
0.0
 11
12.0
 21
9.0
 12
0.0
 22
0.0
 32
0.0
 14
0.0
 24
0.0
 34
0.0
 15
0.0
 25
0.0
 35
0.0
146
0.0
 13
0.0
 23
0.0
 33
0.0
 16
1.0
 26
0.0
 36
0.0
 17
0.0
 27
1.0
 37
0.0
 76
     0
330
23
  0
LAYOUT
  5
22
102
{ACAD_REACTORS
330
1A
102
}
330
1A
100
AcDbPlotSettings
  1

  2
D:\Programs\AutoCAD LT 2000\plotters\DWF Classic.pc3
  4

  6

 40
0.0
 41
0.0
 42
0.0
 43
0.0
 44
0.0
 45
0.0
 46
0.0
 47
0.0
 48
0.0
 49
0.0
140
0.0
141
0.0
142
1.0
143
1.0
 70
  1712
 72
     0
 73
     0
 74
     0
  7

 75
     0
 76
     0
 77
     2
 78
   300
147
1.0
148
0.0
149
0.0
100
AcDbLayout
  1
Model
 70
     1
 71
     0
 10
0.0
 20
0.0
 11
12.0
 21
9.0
 12
0.0
 22
0.0
 32
0.0
 14
0.0
 24
0.0
 34
0.0
 15
0.0
 25
0.0
 35
0.0
146
0.0
 13
0.0
 23
0.0
 33
0.0
 16
1.0
 26
0.0
 36
0.0
 17
0.0
 27
1.0
 37
0.0
 76
     0
330
1F
331
219
  0
MATERIAL
  5
256
102
{ACAD_REACTORS
330
214
102
}
330
214
100
AcDbMaterial
  1
ByBlock
 72
     1
 94
      127
  0
MATERIAL
  5
255
102
{ACAD_REACTORS
330
214
102
}
330
214
100
AcDbMaterial
  1
ByLayer
 72
     1
 94
      127
  0
MATERIAL
  5
257
102
{ACAD_REACTORS
330
214
102
}
330
214
100
AcDbMaterial
  1
Global
 72
     1
 94
      127
  0
MLEADERSTYLE
  5
25B
102
{ACAD_REACTORS
330
25A
102
}
330
25A
100
AcDbMLeaderStyle
179
     2
170
     2
171
     1
172
     0
 90
        2
 40
0.0
 41
0.0
173
     1
 91
-1056964608
340
14
 92
       -2
290
     1
 42
2.0
291
     1
 43
8.0
  3
Standard
341
0
 44
4.0
300

342
11
174
     1
178
     6
175
     1
176
     0
 93
-1056964608
 45
4.0
292
     0
297
     0
 46
4.0
343
0
 94
-1056964608
 47
1.0
 49
1.0
140
1.0
293
     1
141
0.0
294
     1
177
     0
142
1.0
295
     0
296
     0
143
3.75
271
     0
272
     9
273
     9
  0
MLINESTYLE
  5
18
102
{ACAD_REACTORS
330
17
102
}
330
17
100
AcDbMlineStyle
  2
STANDARD
 70
     0
  3

 62
   256
 51
90.0
 52
90.0
 71
     2
 49
0.5
 62
   256
  6
BYLAYER
 49
-0.5
 62
   256
  6
BYLAYER
  0
ACDBPLACEHOLDER
  5
F
102
{ACAD_REACTORS
330
E
102
}
330
E
  0
SCALE
  5
234
102
{ACAD_REACTORS
330
233
102
}
330
233
100
AcDbScale
 70
     0
300
1:1
140
1.0
141
1.0
290
     1
  0
SCALE
  5
235
102
{ACAD_REACTORS
330
233
102
}
330
233
100
AcDbScale
 70
     0
300
1:2
140
1.0
141
2.0
290
     0
  0
SCALE
  5
236
102
{ACAD_REACTORS
330
233
102
}
330
233
100
AcDbScale
 70
     0
300
1:4
140
1.0
141
4.0
290
     0
  0
SCALE
  5
237
102
{ACAD_REACTORS
330
233
102
}
330
233
100
AcDbScale
 70
     0
300
1:5
140
1.0
141
5.0
290
     0
  0
SCALE
  5
238
102
{ACAD_REACTORS
330
233
102
}
330
233
100
AcDbScale
 70
     0
300
1:8
140
1.0
141
8.0
290
     0
  0
SCALE
  5
239
102
{ACAD_REACTORS
330
233
102
}
330
233
100
AcDbScale
 70
     0
300
1:10
140
1.0
141
10.0
290
     0
  0
SCALE
  5
23A
102
{ACAD_REACTORS
330
233
102
}
330
233
100
AcDbScale
 70
     0
300
1:16
140
1.0
141
16.0
290
     0
  0
SCALE
  5
23B
102
{ACAD_REACTORS
330
233
102
}
330
233
100
AcDbScale
 70
     0
300
1:20
140
1.0
141
20.0
290
     0
  0
SCALE
  5
23C
102
{ACAD_REACTORS
330
233
102
}
330
233
100
AcDbScale
 70
     0
300
1:30
140
1.0
141
30.0
290
     0
  0
SCALE
  5
23D
102
{ACAD_REACTORS
330
233
102
}
330
233
100
AcDbScale
 70
     0
300
1:40
140
1.0
141
40.0
290
     0
  0
SCALE
  5
23E
102
{ACAD_REACTORS
330
233
102
}
330
233
100
AcDbScale
 70
     0
300
1:50
140
1.0
141
50.0
290
     0
  0
SCALE
  5
23F
102
{ACAD_REACTORS
330
233
102
}
330
233
100
AcDbScale
 70
     0
300
1:100
140
1.0
141
100.0
290
     0
  0
SCALE
  5
240
102
{ACAD_REACTORS
330
233
102
}
330
233
100
AcDbScale
 70
     0
300
2:1
140
2.0
141
1.0
290
     0
  0
SCALE
  5
241
102
{ACAD_REACTORS
330
233
102
}
330
233
100
AcDbScale
 70
     0
300
4:1
140
4.0
141
1.0
290
     0
  0
SCALE
  5
242
102
{ACAD_REACTORS
330
233
102
}
330
233
100
AcDbScale
 70
     0
300
8:1
140
8.0
141
1.0
290
     0
  0
SCALE
  5
243
102
{ACAD_REACTORS
330
233
102
}
330
233
100
AcDbScale
 70
     0
300
10:1
140
10.0
141
1.0
290
     0
  0
SCALE
  5
244
102
{ACAD_REACTORS
330
233
102
}
330
233
100
AcDbScale
 70
     0
300
100:1
140
100.0
141
1.0
290
     0
  0
SCALE
  5
245
102
{ACAD_REACTORS
330
233
102
}
330
233
100
AcDbScale
 70
     0
300
1/128" = 1'-0"
140
0.0078125
141
12.0
290
     0
  0
SCALE
  5
246
102
{ACAD_REACTORS
330
233
102
}
330
233
100
AcDbScale
 70
     0
300
1/64" = 1'-0"
140
0.015625
141
12.0
290
     0
  0
SCALE
  5
247
102
{ACAD_REACTORS
330
233
102
}
330
233
100
AcDbScale
 70
     0
300
1/32" = 1'-0"
140
0.03125
141
12.0
290
     0
  0
SCALE
  5
248
102
{ACAD_REACTORS
330
233
102
}
330
233
100
AcDbScale
 70
     0
300
1/16" = 1'-0"
140
0.0625
141
12.0
290
     0
  0
SCALE
  5
249
102
{ACAD_REACTORS
330
233
102
}
330
233
100
AcDbScale
 70
     0
300
3/32" = 1'-0"
140
0.09375
141
12.0
290
     0
  0
SCALE
  5
24A
102
{ACAD_REACTORS
330
233
102
}
330
233
100
AcDbScale
 70
     0
300
1/8" = 1'-0"
140
0.125
141
12.0
290
     0
  0
SCALE
  5
24B
102
{ACAD_REACTORS
330
233
102
}
330
233
100
AcDbScale
 70
     0
300
3/16" = 1'-0"
140
0.1875
141
12.0
290
     0
  0
SCALE
  5
24C
102
{ACAD_REACTORS
330
233
102
}
330
233
100
AcDbScale
 70
     0
300
1/4" = 1'-0"
140
0.25
141
12.0
290
     0
  0
SCALE
  5
24D
102
{ACAD_REACTORS
330
233
102
}
330
233
100
AcDbScale
 70
     0
300
3/8" = 1'-0"
140
0.375
141
12.0
290
     0
  0
SCALE
  5
24E
102
{ACAD_REACTORS
330
233
102
}
330
233
100
AcDbScale
 70
     0
300
1/2" = 1'-0"
140
0.5
141
12.0
290
     0
  0
SCALE
  5
24F
102
{ACAD_REACTORS
330
233
102
}
330
233
100
AcDbScale
 70
     0
300
3/4" = 1'-0"
140
0.75
141
12.0
290
     0
  0
SCALE
  5
250
102
{ACAD_REACTORS
330
233
102
}
330
233
100
AcDbScale
 70
     0
300
1" = 1'-0"
140
1.0
141
12.0
290
     0
  0
SCALE
  5
251
102
{ACAD_REACTORS
330
233
102
}
330
233
100
AcDbScale
 70
     0
300
1-1/2" = 1'-0"
140
1.5
141
12.0
290
     0
  0
SCALE
  5
252
102
{ACAD_REACTORS
330
233
102
}
330
233
100
AcDbScale
 70
     0
300
3" = 1'-0"
140
3.0
141
12.0
290
     0
  0
SCALE
  5
253
102
{ACAD_REACTORS
330
233
102
}
330
233
100
AcDbScale
 70
     0
300
6" = 1'-0"
140
6.0
141
12.0
290
     0
  0
SCALE
  5
254
102
{ACAD_REACTORS
330
233
102
}
330
233
100
AcDbScale
 70
     0
300
1'-0" = 1'-0"
140
12.0
141
12.0
290
     0
  0
TABLESTYLE
  5
259
102
{ACAD_REACTORS
330
258
102
}
102
{ACAD_XDICTIONARY
360
28E
102
}
330
258
100
AcDbTableStyle
  3
Standard
 70
     0
 71
     0
 40
0.06
 41
0.06
280
     0
281
     0
  7
Standard
140
4.5
170
     2
 62
     0
 63
   257
283
     0
 90
        4
 91
        0
  1

274
    -2
284
     1
 64
     0
275
    -2
285
     1
 65
     0
276
    -2
286
     1
 66
     0
277
    -2
287
     1
 67
     0
278
    -2
288
     1
 68
     0
279
    -2
289
     1
 69
     0
  7
Standard
140
6.0
170
     5
 62
     0
 63
   257
283
     0
 90
        4
 91
        0
  1

274
    -2
284
     1
 64
     0
275
    -2
285
     1
 65
     0
276
    -2
286
     1
 66
     0
277
    -2
287
     1
 67
     0
278
    -2
288
     1
 68
     0
279
    -2
289
     1
 69
     0
  7
Standard
140
4.5
170
     5
 62
     0
 63
   257
283
     0
 90
        4
 91
        0
  1

274
    -2
284
     1
 64
     0
275
    -2
285
     1
 65
     0
276
    -2
286
     1
 66
     0
277
    -2
287
     1
 67
     0
278
    -2
288
     1
 68
     0
279
    -2
289
     1
 69
     0
  0
VISUALSTYLE
  5
21F
102
{ACAD_REACTORS
330
21A
102
}
102
{ACAD_XDICTIONARY
360
266
102
}
330
21A
100
AcDbVisualStyle
  2
2dWireframe
 70
     4
177
     2
291
     0
 71
     0
176
     1
 72
     2
176
     1
 73
     0
176
     1
 90
        0
176
     1
 40
0.6
176
     1
 41
30.0
176
     1
 62
     5
 63
     7
421
 16777215
176
     1
 74
     1
176
     1
 91
        4
176
     1
 64
     7
176
     1
 65
   257
176
     1
 75
     1
176
     1
175
     1
176
     1
 42
1.0
176
     1
 92
        0
176
     1
 66
   257
176
     1
 43
1.0
176
     1
 76
     1
176
     1
 77
     6
176
     1
 78
     2
176
     1
 67
     7
176
     1
 79
     5
176
     1
170
     0
176
     1
171
     0
176
     1
290
     0
176
     1
 93
        1
176
     1
 44
0.0
176
     1
173
     0
176
     1
  0
VISUALSTYLE
  5
222
102
{ACAD_REACTORS
330
21A
102
}
102
{ACAD_XDICTIONARY
360
26C
102
}
330
21A
100
AcDbVisualStyle
  2
Basic
 70
     7
177
     2
291
     1
 71
     1
176
     1
 72
     0
176
     1
 73
     1
176
     1
 90
        0
176
     1
 40
0.6
176
     1
 41
30.0
176
     1
 62
     5
 63
     7
421
 16777215
176
     1
 74
     0
176
     1
 91
        4
176
     1
 64
     7
176
     1
 65
   257
176
     1
 75
     1
176
     1
175
     1
176
     1
 42
1.0
176
     1
 92
        8
176
     1
 66
     7
176
     1
 43
1.0
176
     1
 76
     1
176
     1
 77
     6
176
     1
 78
     2
176
     1
 67
     7
176
     1
 79
     5
176
     1
170
     0
176
     1
171
     0
176
     1
290
     0
176
     1
 93
        1
176
     1
 44
0.0
176
     1
173
     0
176
     1
  0
VISUALSTYLE
  5
226
102
{ACAD_REACTORS
330
21A
102
}
102
{ACAD_XDICTIONARY
360
274
102
}
330
21A
100
AcDbVisualStyle
  2
Brighten
 70
    12
177
     2
291
     1
 71
     2
176
     1
 72
     2
176
     1
 73
     0
176
     1
 90
        0
176
     1
 40
0.6
176
     1
 41
30.0
176
     1
 62
     5
 63
     7
421
 16777215
176
     1
 74
     1
176
     1
 91
        4
176
     1
 64
     7
176
     1
 65
   257
176
     1
 75
     1
176
     1
175
     1
176
     1
 42
1.0
176
     1
 92
        8
176
     1
 66
     7
176
     1
 43
1.0
176
     1
 76
     1
176
     1
 77
     6
176
     1
 78
     2
176
     1
 67
     7
176
     1
 79
     5
176
     1
170
     0
176
     1
171
     0
176
     1
290
     0
176
     1
 93
        1
176
     1
 44
50.0
176
     1
173
     0
176
     1
  0
VISUALSTYLE
  5
22A
102
{ACAD_REACTORS
330
21A
102
}
102
{ACAD_XDICTIONARY
360
27C
102
}
330
21A
100
AcDbVisualStyle
  2
ColorChange
 70
    16
177
     2
291
     1
 71
     2
176
     1
 72
     2
176
     1
 73
     3
176
     1
 90
        0
176
     1
 40
0.6
176
     1
 41
30.0
176
     1
 62
     5
 63
     8
421
  8421504
176
     1
 74
     1
176
     1
 91
        4
176
     1
 64
     7
176
     1
 65
   257
176
     1
 75
     1
176
     1
175
     1
176
     1
 42
1.0
176
     1
 92
        8
176
     1
 66
     8
424
  8421504
176
     1
 43
1.0
176
     1
 76
     1
176
     1
 77
     6
176
     1
 78
     2
176
     1
 67
     7
176
     1
 79
     5
176
     1
170
     0
176
     1
171
     0
176
     1
290
     0
176
     1
 93
        1
176
     1
 44
0.0
176
     1
173
     0
176
     1
  0
VISUALSTYLE
  5
224
102
{ACAD_REACTORS
330
21A
102
}
102
{ACAD_XDICTIONARY
360
270
102
}
330
21A
100
AcDbVisualStyle
  2
Conceptual
 70
     9
177
     2
291
     0
 71
     3
176
     1
 72
     2
176
     1
 73
     0
176
     1
 90
        0
176
     1
 40
0.6
176
     1
 41
30.0
176
     1
 62
     5
 63
     7
421
 16777215
176
     1
 74
     2
176
     1
 91
        2
176
     1
 64
     7
176
     1
 65
   257
176
     1
 75
     1
176
     1
175
     1
176
     1
 42
179.0
176
     1
 92
        8
176
     1
 66
     7
176
     1
 43
1.0
176
     1
 76
     1
176
     1
 77
     6
176
     1
 78
     2
176
     1
 67
     7
176
     1
 79
     3
176
     1
170
     0
176
     1
171
     0
176
     1
290
     0
176
     1
 93
        1
176
     1
 44
0.0
176
     1
173
     0
176
     1
  0
VISUALSTYLE
  5
225
102
{ACAD_REACTORS
330
21A
102
}
102
{ACAD_XDICTIONARY
360
272
102
}
330
21A
100
AcDbVisualStyle
  2
Dim
 70
    11
177
     2
291
     1
 71
     2
176
     1
 72
     2
176
     1
 73
     0
176
     1
 90
        0
176
     1
 40
0.6
176
     1
 41
30.0
176
     1
 62
     5
 63
     7
421
 16777215
176
     1
 74
     1
176
     1
 91
        4
176
     1
 64
     7
176
     1
 65
   257
176
     1
 75
     1
176
     1
175
     1
176
     1
 42
1.0
176
     1
 92
        8
176
     1
 66
     7
176
     1
 43
1.0
176
     1
 76
     1
176
     1
 77
     6
176
     1
 78
     2
176
     1
 67
     7
176
     1
 79
     5
176
     1
170
     0
176
     1
171
     0
176
     1
290
     0
176
     1
 93
        1
176
     1
 44
-50.0
176
     1
173
     0
176
     1
  0
VISUALSTYLE
  5
22D
102
{ACAD_REACTORS
330
21A
102
}
102
{ACAD_XDICTIONARY
360
282
102
}
330
21A
100
AcDbVisualStyle
  2
EdgeColorOff
 70
    22
177
     2
291
     1
 71
     2
176
     0
 72
     2
176
     0
 73
     0
176
     0
 90
        0
176
     0
 40
0.6
176
     0
 41
30.0
176
     0
 62
     5
 63
     7
421
 16777215
176
     0
 74
     1
176
     0
 91
        4
176
     0
 64
     7
176
     0
 65
   257
176
     0
 75
     1
176
     0
175
     1
176
     0
 42
1.0
176
     0
 92
        8
176
     2
 66
     7
176
     0
 43
1.0
176
     0
 76
     1
176
     0
 77
     6
176
     0
 78
     2
176
     0
 67
     7
176
     0
 79
     5
176
     0
170
     0
176
     0
171
     0
176
     0
290
     0
176
     0
 93
        1
176
     0
 44
0.0
176
     0
173
     0
176
     0
  0
VISUALSTYLE
  5
229
102
{ACAD_REACTORS
330
21A
102
}
102
{ACAD_XDICTIONARY
360
27A
102
}
330
21A
100
AcDbVisualStyle
  2
Facepattern
 70
    15
177
     2
291
     1
 71
     2
176
     1
 72
     2
176
     1
 73
     0
176
     1
 90
        0
176
     1
 40
0.6
176
     1
 41
30.0
176
     1
 62
     5
 63
     7
421
 16777215
176
     1
 74
     1
176
     1
 91
        4
176
     1
 64
     7
176
     1
 65
   257
176
     1
 75
     1
176
     1
175
     1
176
     1
 42
1.0
176
     1
 92
        8
176
     1
 66
     7
176
     1
 43
1.0
176
     1
 76
     1
176
     1
 77
     6
176
     1
 78
     2
176
     1
 67
     7
176
     1
 79
     5
176
     1
170
     0
176
     1
171
     0
176
     1
290
     0
176
     1
 93
        1
176
     1
 44
0.0
176
     1
173
     0
176
     1
  0
VISUALSTYLE
  5
21B
102
{ACAD_REACTORS
330
21A
102
}
102
{ACAD_XDICTIONARY
360
25E
102
}
330
21A
100
AcDbVisualStyle
  2
Flat
 70
     0
177
     2
291
     1
 71
     2
176
     1
 72
     1
176
     1
 73
     1
176
     1
 90
        2
176
     1
 40
0.6
176
     1
 41
30.0
176
     1
 62
     5
 63
     7
421
 16777215
176
     1
 74
     0
176
     1
 91
        0
176
     1
 64
     7
176
     1
 65
   257
176
     1
 75
     1
176
     1
175
     1
176
     1
 42
1.0
176
     1
 92
        8
176
     1
 66
     7
176
     1
 43
1.0
176
     1
 76
     1
176
     1
 77
     6
176
     1
 78
     2
176
     1
 67
     7
176
     1
 79
     5
176
     1
170
     0
176
     1
171
     0
176
     1
290
     0
176
     1
 93
       13
176
     1
 44
0.0
176
     1
173
     0
176
     1
  0
VISUALSTYLE
  5
21C
102
{ACAD_REACTORS
330
21A
102
}
102
{ACAD_XDICTIONARY
360
260
102
}
330
21A
100
AcDbVisualStyle
  2
FlatWithEdges
 70
     1
177
     2
291
     1
 71
     2
176
     1
 72
     1
176
     1
 73
     1
176
     1
 90
        2
176
     1
 40
0.6
176
     1
 41
30.0
176
     1
 62
     5
 63
     7
421
 16777215
176
     1
 74
     1
176
     1
 91
        0
176
     1
 64
     7
176
     1
 65
   257
176
     1
 75
     1
176
     1
175
     1
176
     1
 42
1.0
176
     1
 92
        0
176
     1
 66
   257
176
     1
 43
1.0
176
     1
 76
     1
176
     1
 77
     6
176
     1
 78
     2
176
     1
 67
     7
176
     1
 79
     5
176
     1
170
     0
176
     1
171
     0
176
     1
290
     0
176
     1
 93
       13
176
     1
 44
0.0
176
     1
173
     0
176
     1
  0
VISUALSTYLE
  5
21D
102
{ACAD_REACTORS
330
21A
102
}
102
{ACAD_XDICTIONARY
360
262
102
}
330
21A
100
AcDbVisualStyle
  2
Gouraud
 70
     2
177
     2
291
     1
 71
     2
176
     1
 72
     2
176
     1
 73
     1
176
     1
 90
        2
176
     1
 40
0.6
176
     1
 41
30.0
176
     1
 62
     5
 63
     7
421
 16777215
176
     1
 74
     0
176
     1
 91
        0
176
     1
 64
     7
176
     1
 65
   257
176
     1
 75
     1
176
     1
175
     1
176
     1
 42
1.0
176
     1
 92
        0
176
     1
 66
     7
176
     1
 43
1.0
176
     1
 76
     1
176
     1
 77
     6
176
     1
 78
     2
176
     1
 67
     7
176
     1
 79
     5
176
     1
170
     0
176
     1
171
     0
176
     1
290
     0
176
     1
 93
       13
176
     1
 44
0.0
176
     1
173
     0
176
     1
  0
VISUALSTYLE
  5
21E
102
{ACAD_REACTORS
330
21A
102
}
102
{ACAD_XDICTIONARY
360
264
102
}
330
21A
100
AcDbVisualStyle
  2
GouraudWithEdges
 70
     3
177
     2
291
     1
 71
     2
176
     1
 72
     2
176
     1
 73
     1
176
     1
 90
        2
176
     1
 40
0.6
176
     1
 41
30.0
176
     1
 62
     5
 63
     7
421
 16777215
176
     1
 74
     1
176
     1
 91
        0
176
     1
 64
     7
176
     1
 65
   257
176
     1
 75
     1
176
     1
175
     1
176
     1
 42
1.0
176
     1
 92
        0
176
     1
 66
   257
176
     1
 43
1.0
176
     1
 76
     1
176
     1
 77
     6
176
     1
 78
     2
176
     1
 67
     7
176
     1
 79
     5
176
     1
170
     0
176
     1
171
     0
176
     1
290
     0
176
     1
 93
       13
176
     1
 44
0.0
176
     1
173
     0
176
     1
  0
VISUALSTYLE
  5
221
102
{ACAD_REACTORS
330
21A
102
}
102
{ACAD_XDICTIONARY
360
26A
102
}
330
21A
100
AcDbVisualStyle
  2
Hidden
 70
     6
177
     2
291
     0
 71
     1
176
     1
 72
     2
176
     1
 73
     2
176
     1
 90
        0
176
     1
 40
0.6
176
     1
 41
30.0
176
     1
 62
     5
 63
     7
421
 16777215
176
     1
 74
     2
176
     1
 91
        2
176
     1
 64
     7
176
     1
 65
   257
176
     1
 75
     2
176
     1
175
     1
176
     1
 42
40.0
176
     1
 92
        0
176
     1
 66
   257
176
     1
 43
1.0
176
     1
 76
     1
176
     1
 77
     6
176
     1
 78
     2
176
     1
 67
     7
176
     1
 79
     3
176
     1
170
     0
176
     1
171
     0
176
     1
290
     0
176
     1
 93
        1
176
     1
 44
0.0
176
     1
173
     0
176
     1
  0
VISUALSTYLE
  5
22B
102
{ACAD_REACTORS
330
21A
102
}
102
{ACAD_XDICTIONARY
360
27E
102
}
330
21A
100
AcDbVisualStyle
  2
JitterOff
 70
    20
177
     2
291
     1
 71
     2
176
     0
 72
     2
176
     0
 73
     0
176
     0
 90
        0
176
     0
 40
0.6
176
     0
 41
30.0
176
     0
 62
     5
 63
     7
421
 16777215
176
     0
 74
     1
176
     0
 91
        4
176
     0
 64
     7
176
     0
 65
   257
176
     0
 75
     1
176
     0
175
     1
176
     0
 42
1.0
176
     0
 92
       10
176
     2
 66
     7
176
     0
 43
1.0
176
     0
 76
     1
176
     0
 77
     6
176
     0
 78
     2
176
     0
 67
     7
176
     0
 79
     5
176
     0
170
     0
176
     0
171
     0
176
     0
290
     0
176
     0
 93
        1
176
     0
 44
0.0
176
     0
173
     0
176
     0
  0
VISUALSTYLE
  5
228
102
{ACAD_REACTORS
330
21A
102
}
102
{ACAD_XDICTIONARY
360
278
102
}
330
21A
100
AcDbVisualStyle
  2
Linepattern
 70
    14
177
     2
291
     1
 71
     2
176
     1
 72
     2
176
     1
 73
     0
176
     1
 90
        0
176
     1
 40
0.6
176
     1
 41
30.0
176
     1
 62
     5
 63
     7
421
 16777215
176
     1
 74
     1
176
     1
 91
        4
176
     1
 64
     7
176
     1
 65
   257
176
     1
 75
     7
176
     1
175
     7
176
     1
 42
1.0
176
     1
 92
        8
176
     1
 66
     7
176
     1
 43
1.0
176
     1
 76
     1
176
     1
 77
     6
176
     1
 78
     2
176
     1
 67
     7
176
     1
 79
     5
176
     1
170
     0
176
     1
171
     0
176
     1
290
     0
176
     1
 93
        1
176
     1
 44
0.0
176
     1
173
     0
176
     1
  0
VISUALSTYLE
  5
22C
102
{ACAD_REACTORS
330
21A
102
}
102
{ACAD_XDICTIONARY
360
280
102
}
330
21A
100
AcDbVisualStyle
  2
OverhangOff
 70
    21
177
     2
291
     1
 71
     2
176
     0
 72
     2
176
     0
 73
     0
176
     0
 90
        0
176
     0
 40
0.6
176
     0
 41
30.0
176
     0
 62
     5
 63
     7
421
 16777215
176
     0
 74
     1
176
     0
 91
        4
176
     0
 64
     7
176
     0
 65
   257
176
     0
 75
     1
176
     0
175
     1
176
     0
 42
1.0
176
     0
 92
        9
176
     2
 66
     7
176
     0
 43
1.0
176
     0
 76
     1
176
     0
 77
     6
176
     0
 78
     2
176
     0
 67
     7
176
     0
 79
     5
176
     0
170
     0
176
     0
171
     0
176
     0
290
     0
176
     0
 93
        1
176
     0
 44
0.0
176
     0
173
     0
176
     0
  0
VISUALSTYLE
  5
223
102
{ACAD_REACTORS
330
21A
102
}
102
{ACAD_XDICTIONARY
360
26E
102
}
330
21A
100
AcDbVisualStyle
  2
Realistic
 70
     8
177
     2
291
     0
 71
     2
176
     1
 72
     3
176
     1
 73
     0
176
     1
 90
        2
176
     1
 40
0.6
176
     1
 41
30.0
176
     1
 62
     5
 63
     7
421
 16777215
176
     1
 74
     0
176
     1
 91
        0
176
     1
 64
     7
176
     1
 65
   257
176
     1
 75
     1
176
     1
175
     1
176
     1
 42
1.0
176
     1
 92
        8
176
     1
 66
   257
176
     1
 43
1.0
176
     1
 76
     1
176
     1
 77
     6
176
     1
 78
     2
176
     1
 67
     7
176
     1
 79
     3
176
     1
170
     0
176
     1
171
     0
176
     1
290
     0
176
     1
 93
       13
176
     1
 44
0.0
176
     1
173
     0
176
     1
  0
VISUALSTYLE
  5
232
102
{ACAD_REACTORS
330
21A
102
}
102
{ACAD_XDICTIONARY
360
28C
102
}
330
21A
100
AcDbVisualStyle
  2
Shaded
 70
    27
177
     2
291
     0
 71
     2
176
     1
 72
     2
176
     1
 73
     1
176
     1
 90
        2
176
     1
 40
0.6
176
     1
 41
30.0
176
     1
 62
     5
 63
     7
421
 16777215
176
     1
 74
     0
176
     1
 91
        4
176
     1
 64
     7
176
     1
 65
   257
176
     1
 75
     1
176
     1
175
     1
176
     1
 42
1.0
176
     1
 92
        8
176
     1
 66
   257
176
     1
 43
1.0
176
     1
 76
     1
176
     1
 77
     6
176
     1
 78
     2
176
     1
 67
     8
425
  7895160
176
     1
 79
     3
176
     1
170
     0
176
     1
171
     0
176
     1
290
     0
176
     1
 93
        5
176
     1
 44
0.0
176
     1
173
     0
176
     1
  0
VISUALSTYLE
  5
231
102
{ACAD_REACTORS
330
21A
102
}
102
{ACAD_XDICTIONARY
360
28A
102
}
330
21A
100
AcDbVisualStyle
  2
Shaded with edges
 70
    26
177
     2
291
     0
 71
     2
176
     1
 72
     2
176
     1
 73
     1
176
     1
 90
        2
176
     1
 40
0.6
176
     1
 41
30.0
176
     1
 62
     5
 63
     7
421
 16777215
176
     1
 74
     1
176
     1
 91
       10
176
     1
 64
     7
176
     1
 65
   257
176
     1
 75
     2
176
     1
175
     1
176
     1
 42
1.0
176
     1
 92
        8
176
     1
 66
   257
176
     1
 43
1.0
176
     1
 76
     1
176
     1
 77
     6
176
     1
 78
     2
176
     1
 67
     7
176
     1
 79
     3
176
     1
170
     0
176
     1
171
     0
176
     1
290
     0
176
     1
 93
        5
176
     1
 44
0.0
176
     1
173
     0
176
     1
  0
VISUALSTYLE
  5
22E
102
{ACAD_REACTORS
330
21A
102
}
102
{ACAD_XDICTIONARY
360
284
102
}
330
21A
100
AcDbVisualStyle
  2
Shades of Gray
 70
    23
177
     2
291
     0
 71
     2
176
     1
 72
     2
176
     1
 73
     3
176
     1
 90
        0
176
     1
 40
0.6
176
     1
 41
30.0
176
     1
 62
     5
 63
     7
421
 16777215
176
     1
 74
     2
176
     1
 91
        2
176
     1
 64
     7
176
     1
 65
     7
176
     1
 75
     1
176
     1
175
     1
176
     1
 42
40.0
176
     1
 92
        8
176
     1
 66
     7
176
     1
 43
1.0
176
     1
 76
     1
176
     1
 77
     6
176
     1
 78
     2
176
     1
 67
     7
176
     1
 79
     3
176
     1
170
     0
176
     1
171
     0
176
     1
290
     0
176
     1
 93
        1
176
     1
 44
0.0
176
     1
173
     0
176
     1
  0
VISUALSTYLE
  5
22F
102
{ACAD_REACTORS
330
21A
102
}
102
{ACAD_XDICTIONARY
360
286
102
}
330
21A
100
AcDbVisualStyle
  2
Sketchy
 70
    24
177
     2
291
     0
 71
     1
176
     1
 72
     2
176
     1
 73
     2
176
     1
 90
        0
176
     1
 40
0.6
176
     1
 41
30.0
176
     1
 62
     5
 63
     7
421
 16777215
176
     1
 74
     2
176
     1
 91
        2
176
     1
 64
     7
176
     1
 65
     7
176
     1
 75
     1
176
     1
175
     1
176
     1
 42
40.0
176
     1
 92
       11
176
     1
 66
     7
176
     1
 43
1.0
176
     1
 76
     1
176
     1
 77
     6
176
     1
 78
     2
176
     1
 67
     7
176
     1
 79
     6
176
     1
170
     0
176
     1
171
     0
176
     1
290
     0
176
     1
 93
        1
176
     1
 44
0.0
176
     1
173
     0
176
     1
  0
VISUALSTYLE
  5
227
102
{ACAD_REACTORS
330
21A
102
}
102
{ACAD_XDICTIONARY
360
276
102
}
330
21A
100
AcDbVisualStyle
  2
Thicken
 70
    13
177
     2
291
     1
 71
     2
176
     1
 72
     2
176
     1
 73
     0
176
     1
 90
        0
176
     1
 40
0.6
176
     1
 41
30.0
176
     1
 62
     5
 63
     7
421
 16777215
176
     1
 74
     1
176
     1
 91
        4
176
     1
 64
     7
176
     1
 65
   257
176
     1
 75
     1
176
     1
175
     1
176
     1
 42
1.0
176
     1
 92
       12
176
     1
 66
     7
176
     1
 43
1.0
176
     1
 76
     1
176
     1
 77
     6
176
     1
 78
     2
176
     1
 67
     7
176
     1
 79
     5
176
     1
170
     0
176
     1
171
     0
176
     1
290
     0
176
     1
 93
        1
176
     1
 44
0.0
176
     1
173
     0
176
     1
  0
VISUALSTYLE
  5
220
102
{ACAD_REACTORS
330
21A
102
}
102
{ACAD_XDICTIONARY
360
268
102
}
330
21A
100
AcDbVisualStyle
  2
Wireframe
 70
     5
177
     2
291
     0
 71
     0
176
     1
 72
     2
176
     1
 73
     0
176
     1
 90
        0
176
     1
 40
0.6
176
     1
 41
30.0
176
     1
 62
     5
 63
     7
421
 16777215
176
     1
 74
     1
176
     1
 91
        4
176
     1
 64
     7
176
     1
 65
   257
176
     1
 75
     1
176
     1
175
     1
176
     1
 42
1.0
176
     1
 92
        0
176
     1
 66
   257
176
     1
 43
1.0
176
     1
 76
     1
176
     1
 77
     6
176
     1
 78
     2
176
     1
 67
     7
176
     1
 79
     3
176
     1
170
     0
176
     1
171
     0
176
     1
290
     0
176
     1
 93
        1
176
     1
 44
0.0
176
     1
173
     0
176
     1
  0
VISUALSTYLE
  5
230
102
{ACAD_REACTORS
330
21A
102
}
102
{ACAD_XDICTIONARY
360
288
102
}
330
21A
100
AcDbVisualStyle
  2
X-Ray
 70
    25
177
     2
291
     0
 71
     2
176
     1
 72
     2
176
     1
 73
     1
176
     1
 90
        1
176
     1
 40
0.5
176
     1
 41
30.0
176
     1
 62
     5
 63
     7
421
 16777215
176
     1
 74
     1
176
     1
 91
        0
176
     1
 64
     7
176
     1
 65
   257
176
     1
 75
     1
176
     1
175
     1
176
     1
 42
1.0
176
     1
 92
        8
176
     1
 66
     7
176
     1
 43
1.0
176
     1
 76
     1
176
     1
 77
     6
176
     1
 78
     2
176
     1
 67
     7
176
     1
 79
     3
176
     1
170
     0
176
     1
171
     0
176
     1
290
     0
176
     1
 93
       13
176
     1
 44
0.0
176
     1
173
     0
176
     1
  0
DICTIONARYVAR
  5
25D
102
{ACAD_REACTORS
330
25C
102
}
330
25C
100
DictionaryVariables
280
     0
  1
1:1
  0
DICTIONARYVAR
  5
292
102
{ACAD_REACTORS
330
25C
102
}
330
25C
100
DictionaryVariables
280
     0
  1
Standard
  0
DICTIONARYVAR
  5
291
102
{ACAD_REACTORS
330
25C
102
}
330
25C
100
DictionaryVariables
280
     0
  1
Standard
  0
DICTIONARYVAR
  5
293
102
{ACAD_REACTORS
330
25C
102
}
330
25C
100
DictionaryVariables
280
     0
  1
0
  0
DICTIONARYVAR
  5
294
102
{ACAD_REACTORS
330
25C
102
}
330
25C
100
DictionaryVariables
280
     0
  1
0
  0
DICTIONARY
  5
28E
330
259
100
AcDbDictionary
280
     1
281
     1
  3
ACAD_ROUNDTRIP_2008_TABLESTYLE_CELLSTYLEMAP
360
28F
  0
DICTIONARY
  5
266
330
21F
100
AcDbDictionary
280
     1
281
     1
  3
ACAD_XREC_ROUNDTRIP
360
267
  0
DICTIONARY
  5
26C
330
222
100
AcDbDictionary
280
     1
281
     1
  3
ACAD_XREC_ROUNDTRIP
360
26D
  0
DICTIONARY
  5
274
330
226
100
AcDbDictionary
280
     1
281
     1
  3
ACAD_XREC_ROUNDTRIP
360
275
  0
DICTIONARY
  5
27C
330
22A
100
AcDbDictionary
280
     1
281
     1
  3
ACAD_XREC_ROUNDTRIP
360
27D
  0
DICTIONARY
  5
270
330
224
100
AcDbDictionary
280
     1
281
     1
  3
ACAD_XREC_ROUNDTRIP
360
271
  0
DICTIONARY
  5
272
330
225
100
AcDbDictionary
280
     1
281
     1
  3
ACAD_XREC_ROUNDTRIP
360
273
  0
DICTIONARY
  5
282
330
22D
100
AcDbDictionary
280
     1
281
     1
  3
ACAD_XREC_ROUNDTRIP
360
283
  0
DICTIONARY
  5
27A
330
229
100
AcDbDictionary
280
     1
281
     1
  3
ACAD_XREC_ROUNDTRIP
360
27B
  0
DICTIONARY
  5
25E
330
21B
100
AcDbDictionary
280
     1
281
     1
  3
ACAD_XREC_ROUNDTRIP
360
25F
  0
DICTIONARY
  5
260
330
21C
100
AcDbDictionary
280
     1
281
     1
  3
ACAD_XREC_ROUNDTRIP
360
261
  0
DICTIONARY
  5
262
330
21D
100
AcDbDictionary
280
     1
281
     1
  3
ACAD_XREC_ROUNDTRIP
360
263
  0
DICTIONARY
  5
264
330
21E
100
AcDbDictionary
280
     1
281
     1
  3
ACAD_XREC_ROUNDTRIP
360
265
  0
DICTIONARY
  5
26A
330
221
100
AcDbDictionary
280
     1
281
     1
  3
ACAD_XREC_ROUNDTRIP
360
26B
  0
DICTIONARY
  5
27E
330
22B
100
AcDbDictionary
280
     1
281
     1
  3
ACAD_XREC_ROUNDTRIP
360
27F
  0
DICTIONARY
  5
278
330
228
100
AcDbDictionary
280
     1
281
     1
  3
ACAD_XREC_ROUNDTRIP
360
279
  0
DICTIONARY
  5
280
330
22C
100
AcDbDictionary
280
     1
281
     1
  3
ACAD_XREC_ROUNDTRIP
360
281
  0
DICTIONARY
  5
26E
330
223
100
AcDbDictionary
280
     1
281
     1
  3
ACAD_XREC_ROUNDTRIP
360
26F
  0
DICTIONARY
  5
28C
330
232
100
AcDbDictionary
280
     1
281
     1
  3
ACAD_XREC_ROUNDTRIP
360
28D
  0
DICTIONARY
  5
28A
330
231
100
AcDbDictionary
280
     1
281
     1
  3
ACAD_XREC_ROUNDTRIP
360
28B
  0
DICTIONARY
  5
284
330
22E
100
AcDbDictionary
280
     1
281
     1
  3
ACAD_XREC_ROUNDTRIP
360
285
  0
DICTIONARY
  5
286
330
22F
100
AcDbDictionary
280
     1
281
     1
  3
ACAD_XREC_ROUNDTRIP
360
287
  0
DICTIONARY
  5
276
330
227
100
AcDbDictionary
280
     1
281
     1
  3
ACAD_XREC_ROUNDTRIP
360
277
  0
DICTIONARY
  5
268
330
220
100
AcDbDictionary
280
     1
281
     1
  3
ACAD_XREC_ROUNDTRIP
360
269
  0
DICTIONARY
  5
288
330
230
100
AcDbDictionary
280
     1
281
     1
  3
ACAD_XREC_ROUNDTRIP
360
289
  0
CELLSTYLEMAP
  5
28F
102
{ACAD_REACTORS
330
28E
102
}
330
28E
100
AcDbCellStyleMap
 90
        3
300
CELLSTYLE
  1
TABLEFORMAT_BEGIN
 90
        5
170
     1
 91
        0
 92
    32768
 62
   257
 93
        1
300
CONTENTFORMAT
  1
CONTENTFORMAT_BEGIN
 90
        0
 91
        0
 92
        4
 93
        0
300

 40
0.0
140
1.0
 94
        5
 62
     0
340
11
144
6.0
309
CONTENTFORMAT_END
171
     1
301
MARGIN
  1
CELLMARGIN_BEGIN
 40
1.5
 40
1.5
 40
1.5
 40
1.5
 40
1.5
 40
1.5
309
CELLMARGIN_END
 94
        6
 95
        1
302
GRIDFORMAT
  1
GRIDFORMAT_BEGIN
 90
        0
 91
        1
 62
     0
 92
       -2
340
14
 93
        0
 40
0.045
309
GRIDFORMAT_END
 95
        2
302
GRIDFORMAT
  1
GRIDFORMAT_BEGIN
 90
        0
 91
        1
 62
     0
 92
       -2
340
14
 93
        0
 40
0.045
309
GRIDFORMAT_END
 95
        4
302
GRIDFORMAT
  1
GRIDFORMAT_BEGIN
 90
        0
 91
        1
 62
     0
 92
       -2
340
14
 93
        0
 40
0.045
309
GRIDFORMAT_END
 95
        8
302
GRIDFORMAT
  1
GRIDFORMAT_BEGIN
 90
        0
 91
        1
 62
     0
 92
       -2
340
14
 93
        0
 40
0.045
309
GRIDFORMAT_END
 95
       16
302
GRIDFORMAT
  1
GRIDFORMAT_BEGIN
 90
        0
 91
        1
 62
     0
 92
       -2
340
14
 93
        0
 40
0.045
309
GRIDFORMAT_END
 95
       32
302
GRIDFORMAT
  1
GRIDFORMAT_BEGIN
 90
        0
 91
        1
 62
     0
 92
       -2
340
14
 93
        0
 40
0.045
309
GRIDFORMAT_END
309
TABLEFORMAT_END
  1
CELLSTYLE_BEGIN
 90
        1
 91
        1
300
_TITLE
309
CELLSTYLE_END
300
CELLSTYLE
  1
TABLEFORMAT_BEGIN
 90
        5
170
     1
 91
        0
 92
        0
 62
   257
 93
        1
300
CONTENTFORMAT
  1
CONTENTFORMAT_BEGIN
 90
        0
 91
        0
 92
        4
 93
        0
300

 40
0.0
140
1.0
 94
        5
 62
     0
340
11
144
4.5
309
CONTENTFORMAT_END
171
     1
301
MARGIN
  1
CELLMARGIN_BEGIN
 40
1.5
 40
1.5
 40
1.5
 40
1.5
 40
1.5
 40
1.5
309
CELLMARGIN_END
 94
        6
 95
        1
302
GRIDFORMAT
  1
GRIDFORMAT_BEGIN
 90
        0
 91
        1
 62
     0
 92
       -2
340
14
 93
        0
 40
0.045
309
GRIDFORMAT_END
 95
        2
302
GRIDFORMAT
  1
GRIDFORMAT_BEGIN
 90
        0
 91
        1
 62
     0
 92
       -2
340
14
 93
        0
 40
0.045
309
GRIDFORMAT_END
 95
        4
302
GRIDFORMAT
  1
GRIDFORMAT_BEGIN
 90
        0
 91
        1
 62
     0
 92
       -2
340
14
 93
        0
 40
0.045
309
GRIDFORMAT_END
 95
        8
302
GRIDFORMAT
  1
GRIDFORMAT_BEGIN
 90
        0
 91
        1
 62
     0
 92
       -2
340
14
 93
        0
 40
0.045
309
GRIDFORMAT_END
 95
       16
302
GRIDFORMAT
  1
GRIDFORMAT_BEGIN
 90
        0
 91
        1
 62
     0
 92
       -2
340
14
 93
        0
 40
0.045
309
GRIDFORMAT_END
 95
       32
302
GRIDFORMAT
  1
GRIDFORMAT_BEGIN
 90
        0
 91
        1
 62
     0
 92
       -2
340
14
 93
        0
 40
0.045
309
GRIDFORMAT_END
309
TABLEFORMAT_END
  1
CELLSTYLE_BEGIN
 90
        2
 91
        1
300
_HEADER
309
CELLSTYLE_END
300
CELLSTYLE
  1
TABLEFORMAT_BEGIN
 90
        5
170
     1
 91
        0
 92
        0
 62
   257
 93
        1
300
CONTENTFORMAT
  1
CONTENTFORMAT_BEGIN
 90
        0
 91
        0
 92
        4
 93
        0
300

 40
0.0
140
1.0
 94
        2
 62
     0
340
11
144
4.5
309
CONTENTFORMAT_END
171
     1
301
MARGIN
  1
CELLMARGIN_BEGIN
 40
1.5
 40
1.5
 40
1.5
 40
1.5
 40
1.5
 40
1.5
309
CELLMARGIN_END
 94
        6
 95
        1
302
GRIDFORMAT
  1
GRIDFORMAT_BEGIN
 90
        0
 91
        1
 62
     0
 92
       -2
340
14
 93
        0
 40
0.045
309
GRIDFORMAT_END
 95
        2
302
GRIDFORMAT
  1
GRIDFORMAT_BEGIN
 90
        0
 91
        1
 62
     0
 92
       -2
340
14
 93
        0
 40
0.045
309
GRIDFORMAT_END
 95
        4
302
GRIDFORMAT
  1
GRIDFORMAT_BEGIN
 90
        0
 91
        1
 62
     0
 92
       -2
340
14
 93
        0
 40
0.045
309
GRIDFORMAT_END
 95
        8
302
GRIDFORMAT
  1
GRIDFORMAT_BEGIN
 90
        0
 91
        1
 62
     0
 92
       -2
340
14
 93
        0
 40
0.045
309
GRIDFORMAT_END
 95
       16
302
GRIDFORMAT
  1
GRIDFORMAT_BEGIN
 90
        0
 91
        1
 62
     0
 92
       -2
340
14
 93
        0
 40
0.045
309
GRIDFORMAT_END
 95
       32
302
GRIDFORMAT
  1
GRIDFORMAT_BEGIN
 90
        0
 91
        1
 62
     0
 92
       -2
340
14
 93
        0
 40
0.045
309
GRIDFORMAT_END
309
TABLEFORMAT_END
  1
CELLSTYLE_BEGIN
 90
        3
 91
        2
300
_DATA
309
CELLSTYLE_END
  0
XRECORD
  5
267
102
{ACAD_REACTORS
330
266
102
}
330
266
100
AcDbXrecord
280
     1
102
RTVSPost2010Prop28
280
     1
102
RTVSPost2010PropOp28
 70
     1
102
RTVSPost2010Prop29
280
     1
102
RTVSPost2010PropOp29
 70
     1
102
RTVSPost2010Prop30
280
     0
102
RTVSPost2010PropOp30
 70
     1
102
RTVSPost2010Prop31
280
     0
102
RTVSPost2010PropOp31
 70
     1
102
RTVSPost2010Prop32
280
     0
102
RTVSPost2010PropOp32
 70
     1
102
RTVSPost2010Prop33
280
     0
102
RTVSPost2010PropOp33
 70
     1
102
RTVSPost2010Prop34
280
     0
102
RTVSPost2010PropOp34
 70
     1
102
RTVSPost2010Prop35
280
     0
102
RTVSPost2010PropOp35
 70
     1
102
RTVSPost2010Prop36
280
     0
102
RTVSPost2010PropOp36
 70
     1
102
RTVSPost2010Prop37
 90
       50
102
RTVSPost2010PropOp37
 70
     1
102
RTVSPost2010Prop38
140
0.0
102
RTVSPost2010PropOp38
 70
     1
102
RTVSPost2010Prop39
140
1.0
102
RTVSPost2010PropOp39
 70
     1
102
RTVSPost2010Prop40
 90
        0
102
RTVSPost2010PropOp40
 70
     1
102
RTVSPost2010Prop41ColorIndex
 90
       18
102
RTVSPost2010Prop41ColorRGB
 90
        0
102
RTVSPost2010PropOp41
 70
     1
102
RTVSPost2010Prop42
 90
       50
102
RTVSPost2010PropOp42
 70
     1
102
RTVSPost2010Prop43
 90
        3
102
RTVSPost2010PropOp43
 70
     1
102
RTVSPost2010Prop44ColorIndex
 90
        5
102
RTVSPost2010Prop44ColorRGB
 90
      255
102
RTVSPost2010PropOp44
 70
     1
102
RTVSPost2010Prop45
280
     0
102
RTVSPost2010PropOp45
 70
     1
102
RTVSPost2010Prop46
 90
       50
102
RTVSPost2010PropOp46
 70
     1
102
RTVSPost2010Prop47
 90
       50
102
RTVSPost2010PropOp47
 70
     1
102
RTVSPost2010Prop48
 90
       50
102
RTVSPost2010PropOp48
 70
     1
102
RTVSPost2010Prop49
280
     0
102
RTVSPost2010PropOp49
 70
     1
102
RTVSPost2010Prop50
 90
       50
102
RTVSPost2010PropOp50
 70
     1
102
RTVSPost2010Prop51ColorIndex
 90
      256
102
RTVSPost2010Prop51ColorRGB
 90
-16777216
102
RTVSPost2010PropOp51
 70
     0
102
RTVSPost2010Prop52
140
1.0
102
RTVSPost2010PropOp52
 70
     0
102
RTVSPost2010Prop53
 90
        2
102
RTVSPost2010PropOp53
 70
     1
102
RTVSPost2010Prop54
  1
strokes_ogs.tif
102
RTVSPost2010PropOp54
 70
     1
102
RTVSPost2010Prop55
280
     0
102
RTVSPost2010PropOp55
 70
     1
102
RTVSPost2010Prop56
140
1.0
102
RTVSPost2010PropOp56
 70
     1
102
RTVSPost2010Prop57
140
1.0
102
RTVSPost2010PropOp57
 70
     1
  0
XRECORD
  5
26D
102
{ACAD_REACTORS
330
26C
102
}
330
26C
100
AcDbXrecord
280
     1
102
RTVSPost2010Prop28
280
     0
102
RTVSPost2010PropOp28
 70
     1
102
RTVSPost2010Prop29
280
     1
102
RTVSPost2010PropOp29
 70
     1
102
RTVSPost2010Prop30
280
     1
102
RTVSPost2010PropOp30
 70
     1
102
RTVSPost2010Prop31
280
     0
102
RTVSPost2010PropOp31
 70
     1
102
RTVSPost2010Prop32
280
     0
102
RTVSPost2010PropOp32
 70
     1
102
RTVSPost2010Prop33
280
     0
102
RTVSPost2010PropOp33
 70
     1
102
RTVSPost2010Prop34
280
     0
102
RTVSPost2010PropOp34
 70
     1
102
RTVSPost2010Prop35
280
     0
102
RTVSPost2010PropOp35
 70
     1
102
RTVSPost2010Prop36
280
     0
102
RTVSPost2010PropOp36
 70
     1
102
RTVSPost2010Prop37
 90
       50
102
RTVSPost2010PropOp37
 70
     1
102
RTVSPost2010Prop38
140
0.0
102
RTVSPost2010PropOp38
 70
     1
102
RTVSPost2010Prop39
140
1.0
102
RTVSPost2010PropOp39
 70
     1
102
RTVSPost2010Prop40
 90
        0
102
RTVSPost2010PropOp40
 70
     1
102
RTVSPost2010Prop41ColorIndex
 90
       18
102
RTVSPost2010Prop41ColorRGB
 90
        0
102
RTVSPost2010PropOp41
 70
     1
102
RTVSPost2010Prop42
 90
       50
102
RTVSPost2010PropOp42
 70
     1
102
RTVSPost2010Prop43
 90
        3
102
RTVSPost2010PropOp43
 70
     1
102
RTVSPost2010Prop44ColorIndex
 90
        5
102
RTVSPost2010Prop44ColorRGB
 90
      255
102
RTVSPost2010PropOp44
 70
     1
102
RTVSPost2010Prop45
280
     0
102
RTVSPost2010PropOp45
 70
     1
102
RTVSPost2010Prop46
 90
       50
102
RTVSPost2010PropOp46
 70
     1
102
RTVSPost2010Prop47
 90
       50
102
RTVSPost2010PropOp47
 70
     1
102
RTVSPost2010Prop48
 90
       50
102
RTVSPost2010PropOp48
 70
     1
102
RTVSPost2010Prop49
280
     0
102
RTVSPost2010PropOp49
 70
     1
102
RTVSPost2010Prop50
 90
       50
102
RTVSPost2010PropOp50
 70
     1
102
RTVSPost2010Prop51ColorIndex
 90
      256
102
RTVSPost2010Prop51ColorRGB
 90
-16777216
102
RTVSPost2010PropOp51
 70
     0
102
RTVSPost2010Prop52
140
1.0
102
RTVSPost2010PropOp52
 70
     0
102
RTVSPost2010Prop53
 90
        2
102
RTVSPost2010PropOp53
 70
     1
102
RTVSPost2010Prop54
  1
strokes_ogs.tif
102
RTVSPost2010PropOp54
 70
     1
102
RTVSPost2010Prop55
280
     0
102
RTVSPost2010PropOp55
 70
     1
102
RTVSPost2010Prop56
140
1.0
102
RTVSPost2010PropOp56
 70
     1
102
RTVSPost2010Prop57
140
1.0
102
RTVSPost2010PropOp57
 70
     1
  0
XRECORD
  5
275
102
{ACAD_REACTORS
330
274
102
}
330
274
100
AcDbXrecord
280
     1
102
RTVSPost2010Prop28
280
     0
102
RTVSPost2010PropOp28
 70
     1
102
RTVSPost2010Prop29
280
     1
102
RTVSPost2010PropOp29
 70
     1
102
RTVSPost2010Prop30
280
     1
102
RTVSPost2010PropOp30
 70
     1
102
RTVSPost2010Prop31
280
     0
102
RTVSPost2010PropOp31
 70
     1
102
RTVSPost2010Prop32
280
     0
102
RTVSPost2010PropOp32
 70
     1
102
RTVSPost2010Prop33
280
     0
102
RTVSPost2010PropOp33
 70
     1
102
RTVSPost2010Prop34
280
     0
102
RTVSPost2010PropOp34
 70
     1
102
RTVSPost2010Prop35
280
     0
102
RTVSPost2010PropOp35
 70
     1
102
RTVSPost2010Prop36
280
     0
102
RTVSPost2010PropOp36
 70
     1
102
RTVSPost2010Prop37
 90
       50
102
RTVSPost2010PropOp37
 70
     1
102
RTVSPost2010Prop38
140
0.0
102
RTVSPost2010PropOp38
 70
     1
102
RTVSPost2010Prop39
140
1.0
102
RTVSPost2010PropOp39
 70
     1
102
RTVSPost2010Prop40
 90
        0
102
RTVSPost2010PropOp40
 70
     1
102
RTVSPost2010Prop41ColorIndex
 90
       18
102
RTVSPost2010Prop41ColorRGB
 90
        0
102
RTVSPost2010PropOp41
 70
     1
102
RTVSPost2010Prop42
 90
       50
102
RTVSPost2010PropOp42
 70
     1
102
RTVSPost2010Prop43
 90
        3
102
RTVSPost2010PropOp43
 70
     1
102
RTVSPost2010Prop44ColorIndex
 90
        5
102
RTVSPost2010Prop44ColorRGB
 90
      255
102
RTVSPost2010PropOp44
 70
     1
102
RTVSPost2010Prop45
280
     0
102
RTVSPost2010PropOp45
 70
     1
102
RTVSPost2010Prop46
 90
       50
102
RTVSPost2010PropOp46
 70
     1
102
RTVSPost2010Prop47
 90
       50
102
RTVSPost2010PropOp47
 70
     1
102
RTVSPost2010Prop48
 90
       50
102
RTVSPost2010PropOp48
 70
     1
102
RTVSPost2010Prop49
280
     0
102
RTVSPost2010PropOp49
 70
     1
102
RTVSPost2010Prop50
 90
       50
102
RTVSPost2010PropOp50
 70
     1
102
RTVSPost2010Prop51ColorIndex
 90
      256
102
RTVSPost2010Prop51ColorRGB
 90
-16777216
102
RTVSPost2010PropOp51
 70
     0
102
RTVSPost2010Prop52
140
1.0
102
RTVSPost2010PropOp52
 70
     0
102
RTVSPost2010Prop53
 90
        2
102
RTVSPost2010PropOp53
 70
     1
102
RTVSPost2010Prop54
  1
strokes_ogs.tif
102
RTVSPost2010PropOp54
 70
     1
102
RTVSPost2010Prop55
280
     0
102
RTVSPost2010PropOp55
 70
     1
102
RTVSPost2010Prop56
140
1.0
102
RTVSPost2010PropOp56
 70
     1
102
RTVSPost2010Prop57
140
1.0
102
RTVSPost2010PropOp57
 70
     1
  0
XRECORD
  5
27D
102
{ACAD_REACTORS
330
27C
102
}
330
27C
100
AcDbXrecord
280
     1
102
RTVSPost2010Prop28
280
     0
102
RTVSPost2010PropOp28
 70
     1
102
RTVSPost2010Prop29
280
     1
102
RTVSPost2010PropOp29
 70
     1
102
RTVSPost2010Prop30
280
     1
102
RTVSPost2010PropOp30
 70
     1
102
RTVSPost2010Prop31
280
     0
102
RTVSPost2010PropOp31
 70
     1
102
RTVSPost2010Prop32
280
     0
102
RTVSPost2010PropOp32
 70
     1
102
RTVSPost2010Prop33
280
     0
102
RTVSPost2010PropOp33
 70
     1
102
RTVSPost2010Prop34
280
     0
102
RTVSPost2010PropOp34
 70
     1
102
RTVSPost2010Prop35
280
     0
102
RTVSPost2010PropOp35
 70
     1
102
RTVSPost2010Prop36
280
     0
102
RTVSPost2010PropOp36
 70
     1
102
RTVSPost2010Prop37
 90
       50
102
RTVSPost2010PropOp37
 70
     1
102
RTVSPost2010Prop38
140
0.0
102
RTVSPost2010PropOp38
 70
     1
102
RTVSPost2010Prop39
140
1.0
102
RTVSPost2010PropOp39
 70
     1
102
RTVSPost2010Prop40
 90
        0
102
RTVSPost2010PropOp40
 70
     1
102
RTVSPost2010Prop41ColorIndex
 90
       18
102
RTVSPost2010Prop41ColorRGB
 90
        0
102
RTVSPost2010PropOp41
 70
     1
102
RTVSPost2010Prop42
 90
       50
102
RTVSPost2010PropOp42
 70
     1
102
RTVSPost2010Prop43
 90
        3
102
RTVSPost2010PropOp43
 70
     1
102
RTVSPost2010Prop44ColorIndex
 90
        5
102
RTVSPost2010Prop44ColorRGB
 90
      255
102
RTVSPost2010PropOp44
 70
     1
102
RTVSPost2010Prop45
280
     0
102
RTVSPost2010PropOp45
 70
     1
102
RTVSPost2010Prop46
 90
       50
102
RTVSPost2010PropOp46
 70
     1
102
RTVSPost2010Prop47
 90
       50
102
RTVSPost2010PropOp47
 70
     1
102
RTVSPost2010Prop48
 90
       50
102
RTVSPost2010PropOp48
 70
     1
102
RTVSPost2010Prop49
280
     0
102
RTVSPost2010PropOp49
 70
     1
102
RTVSPost2010Prop50
 90
       50
102
RTVSPost2010PropOp50
 70
     1
102
RTVSPost2010Prop51ColorIndex
 90
      256
102
RTVSPost2010Prop51ColorRGB
 90
-16777216
102
RTVSPost2010PropOp51
 70
     0
102
RTVSPost2010Prop52
140
1.0
102
RTVSPost2010PropOp52
 70
     0
102
RTVSPost2010Prop53
 90
        2
102
RTVSPost2010PropOp53
 70
     1
102
RTVSPost2010Prop54
  1
strokes_ogs.tif
102
RTVSPost2010PropOp54
 70
     1
102
RTVSPost2010Prop55
280
     0
102
RTVSPost2010PropOp55
 70
     1
102
RTVSPost2010Prop56
140
1.0
102
RTVSPost2010PropOp56
 70
     1
102
RTVSPost2010Prop57
140
1.0
102
RTVSPost2010PropOp57
 70
     1
  0
XRECORD
  5
271
102
{ACAD_REACTORS
330
270
102
}
330
270
100
AcDbXrecord
280
     1
102
RTVSPost2010Prop28
280
     0
102
RTVSPost2010PropOp28
 70
     1
102
RTVSPost2010Prop29
280
     1
102
RTVSPost2010PropOp29
 70
     1
102
RTVSPost2010Prop30
280
     1
102
RTVSPost2010PropOp30
 70
     1
102
RTVSPost2010Prop31
280
     0
102
RTVSPost2010PropOp31
 70
     1
102
RTVSPost2010Prop32
280
     0
102
RTVSPost2010PropOp32
 70
     1
102
RTVSPost2010Prop33
280
     0
102
RTVSPost2010PropOp33
 70
     1
102
RTVSPost2010Prop34
280
     0
102
RTVSPost2010PropOp34
 70
     1
102
RTVSPost2010Prop35
280
     0
102
RTVSPost2010PropOp35
 70
     1
102
RTVSPost2010Prop36
280
     0
102
RTVSPost2010PropOp36
 70
     1
102
RTVSPost2010Prop37
 90
       50
102
RTVSPost2010PropOp37
 70
     1
102
RTVSPost2010Prop38
140
0.0
102
RTVSPost2010PropOp38
 70
     1
102
RTVSPost2010Prop39
140
1.0
102
RTVSPost2010PropOp39
 70
     1
102
RTVSPost2010Prop40
 90
        0
102
RTVSPost2010PropOp40
 70
     1
102
RTVSPost2010Prop41ColorIndex
 90
       18
102
RTVSPost2010Prop41ColorRGB
 90
        0
102
RTVSPost2010PropOp41
 70
     1
102
RTVSPost2010Prop42
 90
       50
102
RTVSPost2010PropOp42
 70
     1
102
RTVSPost2010Prop43
 90
        3
102
RTVSPost2010PropOp43
 70
     1
102
RTVSPost2010Prop44ColorIndex
 90
        5
102
RTVSPost2010Prop44ColorRGB
 90
      255
102
RTVSPost2010PropOp44
 70
     1
102
RTVSPost2010Prop45
280
     0
102
RTVSPost2010PropOp45
 70
     1
102
RTVSPost2010Prop46
 90
       50
102
RTVSPost2010PropOp46
 70
     1
102
RTVSPost2010Prop47
 90
       50
102
RTVSPost2010PropOp47
 70
     1
102
RTVSPost2010Prop48
 90
       50
102
RTVSPost2010PropOp48
 70
     1
102
RTVSPost2010Prop49
280
     0
102
RTVSPost2010PropOp49
 70
     1
102
RTVSPost2010Prop50
 90
       50
102
RTVSPost2010PropOp50
 70
     1
102
RTVSPost2010Prop51ColorIndex
 90
      256
102
RTVSPost2010Prop51ColorRGB
 90
-16777216
102
RTVSPost2010PropOp51
 70
     0
102
RTVSPost2010Prop52
140
1.0
102
RTVSPost2010PropOp52
 70
     0
102
RTVSPost2010Prop53
 90
        2
102
RTVSPost2010PropOp53
 70
     1
102
RTVSPost2010Prop54
  1
strokes_ogs.tif
102
RTVSPost2010PropOp54
 70
     1
102
RTVSPost2010Prop55
280
     0
102
RTVSPost2010PropOp55
 70
     1
102
RTVSPost2010Prop56
140
1.0
102
RTVSPost2010PropOp56
 70
     1
102
RTVSPost2010Prop57
140
1.0
102
RTVSPost2010PropOp57
 70
     1
  0
XRECORD
  5
273
102
{ACAD_REACTORS
330
272
102
}
330
272
100
AcDbXrecord
280
     1
102
RTVSPost2010Prop28
280
     0
102
RTVSPost2010PropOp28
 70
     1
102
RTVSPost2010Prop29
280
     1
102
RTVSPost2010PropOp29
 70
     1
102
RTVSPost2010Prop30
280
     1
102
RTVSPost2010PropOp30
 70
     1
102
RTVSPost2010Prop31
280
     0
102
RTVSPost2010PropOp31
 70
     1
102
RTVSPost2010Prop32
280
     0
102
RTVSPost2010PropOp32
 70
     1
102
RTVSPost2010Prop33
280
     0
102
RTVSPost2010PropOp33
 70
     1
102
RTVSPost2010Prop34
280
     0
102
RTVSPost2010PropOp34
 70
     1
102
RTVSPost2010Prop35
280
     0
102
RTVSPost2010PropOp35
 70
     1
102
RTVSPost2010Prop36
280
     0
102
RTVSPost2010PropOp36
 70
     1
102
RTVSPost2010Prop37
 90
       50
102
RTVSPost2010PropOp37
 70
     1
102
RTVSPost2010Prop38
140
0.0
102
RTVSPost2010PropOp38
 70
     1
102
RTVSPost2010Prop39
140
1.0
102
RTVSPost2010PropOp39
 70
     1
102
RTVSPost2010Prop40
 90
        0
102
RTVSPost2010PropOp40
 70
     1
102
RTVSPost2010Prop41ColorIndex
 90
       18
102
RTVSPost2010Prop41ColorRGB
 90
        0
102
RTVSPost2010PropOp41
 70
     1
102
RTVSPost2010Prop42
 90
       50
102
RTVSPost2010PropOp42
 70
     1
102
RTVSPost2010Prop43
 90
        3
102
RTVSPost2010PropOp43
 70
     1
102
RTVSPost2010Prop44ColorIndex
 90
        5
102
RTVSPost2010Prop44ColorRGB
 90
      255
102
RTVSPost2010PropOp44
 70
     1
102
RTVSPost2010Prop45
280
     0
102
RTVSPost2010PropOp45
 70
     1
102
RTVSPost2010Prop46
 90
       50
102
RTVSPost2010PropOp46
 70
     1
102
RTVSPost2010Prop47
 90
       50
102
RTVSPost2010PropOp47
 70
     1
102
RTVSPost2010Prop48
 90
       50
102
RTVSPost2010PropOp48
 70
     1
102
RTVSPost2010Prop49
280
     0
102
RTVSPost2010PropOp49
 70
     1
102
RTVSPost2010Prop50
 90
       50
102
RTVSPost2010PropOp50
 70
     1
102
RTVSPost2010Prop51ColorIndex
 90
      256
102
RTVSPost2010Prop51ColorRGB
 90
-16777216
102
RTVSPost2010PropOp51
 70
     0
102
RTVSPost2010Prop52
140
1.0
102
RTVSPost2010PropOp52
 70
     0
102
RTVSPost2010Prop53
 90
        2
102
RTVSPost2010PropOp53
 70
     1
102
RTVSPost2010Prop54
  1
strokes_ogs.tif
102
RTVSPost2010PropOp54
 70
     1
102
RTVSPost2010Prop55
280
     0
102
RTVSPost2010PropOp55
 70
     1
102
RTVSPost2010Prop56
140
1.0
102
RTVSPost2010PropOp56
 70
     1
102
RTVSPost2010Prop57
140
1.0
102
RTVSPost2010PropOp57
 70
     1
  0
XRECORD
  5
283
102
{ACAD_REACTORS
330
282
102
}
330
282
100
AcDbXrecord
280
     1
102
RTVSPost2010Prop28
280
     0
102
RTVSPost2010PropOp28
 70
     0
102
RTVSPost2010Prop29
280
     1
102
RTVSPost2010PropOp29
 70
     0
102
RTVSPost2010Prop30
280
     1
102
RTVSPost2010PropOp30
 70
     0
102
RTVSPost2010Prop31
280
     0
102
RTVSPost2010PropOp31
 70
     0
102
RTVSPost2010Prop32
280
     0
102
RTVSPost2010PropOp32
 70
     0
102
RTVSPost2010Prop33
280
     0
102
RTVSPost2010PropOp33
 70
     0
102
RTVSPost2010Prop34
280
     0
102
RTVSPost2010PropOp34
 70
     0
102
RTVSPost2010Prop35
280
     0
102
RTVSPost2010PropOp35
 70
     0
102
RTVSPost2010Prop36
280
     0
102
RTVSPost2010PropOp36
 70
     0
102
RTVSPost2010Prop37
 90
       50
102
RTVSPost2010PropOp37
 70
     0
102
RTVSPost2010Prop38
140
0.0
102
RTVSPost2010PropOp38
 70
     0
102
RTVSPost2010Prop39
140
1.0
102
RTVSPost2010PropOp39
 70
     0
102
RTVSPost2010Prop40
 90
        0
102
RTVSPost2010PropOp40
 70
     0
102
RTVSPost2010Prop41ColorIndex
 90
       18
102
RTVSPost2010Prop41ColorRGB
 90
        0
102
RTVSPost2010PropOp41
 70
     0
102
RTVSPost2010Prop42
 90
       50
102
RTVSPost2010PropOp42
 70
     0
102
RTVSPost2010Prop43
 90
        3
102
RTVSPost2010PropOp43
 70
     0
102
RTVSPost2010Prop44ColorIndex
 90
        5
102
RTVSPost2010Prop44ColorRGB
 90
      255
102
RTVSPost2010PropOp44
 70
     0
102
RTVSPost2010Prop45
280
     0
102
RTVSPost2010PropOp45
 70
     0
102
RTVSPost2010Prop46
 90
       50
102
RTVSPost2010PropOp46
 70
     0
102
RTVSPost2010Prop47
 90
       50
102
RTVSPost2010PropOp47
 70
     0
102
RTVSPost2010Prop48
 90
       50
102
RTVSPost2010PropOp48
 70
     0
102
RTVSPost2010Prop49
280
     0
102
RTVSPost2010PropOp49
 70
     0
102
RTVSPost2010Prop50
 90
       50
102
RTVSPost2010PropOp50
 70
     0
102
RTVSPost2010Prop51ColorIndex
 90
      256
102
RTVSPost2010Prop51ColorRGB
 90
-16777216
102
RTVSPost2010PropOp51
 70
     0
102
RTVSPost2010Prop52
140
1.0
102
RTVSPost2010PropOp52
 70
     0
102
RTVSPost2010Prop53
 90
        2
102
RTVSPost2010PropOp53
 70
     0
102
RTVSPost2010Prop54
  1
strokes_ogs.tif
102
RTVSPost2010PropOp54
 70
     0
102
RTVSPost2010Prop55
280
     0
102
RTVSPost2010PropOp55
 70
     0
102
RTVSPost2010Prop56
140
1.0
102
RTVSPost2010PropOp56
 70
     0
102
RTVSPost2010Prop57
140
1.0
102
RTVSPost2010PropOp57
 70
     0
  0
XRECORD
  5
27B
102
{ACAD_REACTORS
330
27A
102
}
330
27A
100
AcDbXrecord
280
     1
102
RTVSPost2010Prop28
280
     0
102
RTVSPost2010PropOp28
 70
     1
102
RTVSPost2010Prop29
280
     1
102
RTVSPost2010PropOp29
 70
     1
102
RTVSPost2010Prop30
280
     1
102
RTVSPost2010PropOp30
 70
     1
102
RTVSPost2010Prop31
280
     0
102
RTVSPost2010PropOp31
 70
     1
102
RTVSPost2010Prop32
280
     0
102
RTVSPost2010PropOp32
 70
     1
102
RTVSPost2010Prop33
280
     0
102
RTVSPost2010PropOp33
 70
     1
102
RTVSPost2010Prop34
280
     0
102
RTVSPost2010PropOp34
 70
     1
102
RTVSPost2010Prop35
280
     0
102
RTVSPost2010PropOp35
 70
     1
102
RTVSPost2010Prop36
280
     0
102
RTVSPost2010PropOp36
 70
     1
102
RTVSPost2010Prop37
 90
       50
102
RTVSPost2010PropOp37
 70
     1
102
RTVSPost2010Prop38
140
0.0
102
RTVSPost2010PropOp38
 70
     1
102
RTVSPost2010Prop39
140
1.0
102
RTVSPost2010PropOp39
 70
     1
102
RTVSPost2010Prop40
 90
        0
102
RTVSPost2010PropOp40
 70
     1
102
RTVSPost2010Prop41ColorIndex
 90
       18
102
RTVSPost2010Prop41ColorRGB
 90
        0
102
RTVSPost2010PropOp41
 70
     1
102
RTVSPost2010Prop42
 90
       50
102
RTVSPost2010PropOp42
 70
     1
102
RTVSPost2010Prop43
 90
        3
102
RTVSPost2010PropOp43
 70
     1
102
RTVSPost2010Prop44ColorIndex
 90
        5
102
RTVSPost2010Prop44ColorRGB
 90
      255
102
RTVSPost2010PropOp44
 70
     1
102
RTVSPost2010Prop45
280
     0
102
RTVSPost2010PropOp45
 70
     1
102
RTVSPost2010Prop46
 90
       50
102
RTVSPost2010PropOp46
 70
     1
102
RTVSPost2010Prop47
 90
       50
102
RTVSPost2010PropOp47
 70
     1
102
RTVSPost2010Prop48
 90
       50
102
RTVSPost2010PropOp48
 70
     1
102
RTVSPost2010Prop49
280
     0
102
RTVSPost2010PropOp49
 70
     1
102
RTVSPost2010Prop50
 90
       50
102
RTVSPost2010PropOp50
 70
     1
102
RTVSPost2010Prop51ColorIndex
 90
      256
102
RTVSPost2010Prop51ColorRGB
 90
-16777216
102
RTVSPost2010PropOp51
 70
     0
102
RTVSPost2010Prop52
140
1.0
102
RTVSPost2010PropOp52
 70
     0
102
RTVSPost2010Prop53
 90
        2
102
RTVSPost2010PropOp53
 70
     1
102
RTVSPost2010Prop54
  1
strokes_ogs.tif
102
RTVSPost2010PropOp54
 70
     1
102
RTVSPost2010Prop55
280
     0
102
RTVSPost2010PropOp55
 70
     1
102
RTVSPost2010Prop56
140
1.0
102
RTVSPost2010PropOp56
 70
     1
102
RTVSPost2010Prop57
140
1.0
102
RTVSPost2010PropOp57
 70
     1
  0
XRECORD
  5
25F
102
{ACAD_REACTORS
330
25E
102
}
330
25E
100
AcDbXrecord
280
     1
102
RTVSPost2010Prop28
280
     0
102
RTVSPost2010PropOp28
 70
     1
102
RTVSPost2010Prop29
280
     1
102
RTVSPost2010PropOp29
 70
     1
102
RTVSPost2010Prop30
280
     1
102
RTVSPost2010PropOp30
 70
     1
102
RTVSPost2010Prop31
280
     0
102
RTVSPost2010PropOp31
 70
     1
102
RTVSPost2010Prop32
280
     0
102
RTVSPost2010PropOp32
 70
     1
102
RTVSPost2010Prop33
280
     0
102
RTVSPost2010PropOp33
 70
     1
102
RTVSPost2010Prop34
280
     0
102
RTVSPost2010PropOp34
 70
     1
102
RTVSPost2010Prop35
280
     0
102
RTVSPost2010PropOp35
 70
     1
102
RTVSPost2010Prop36
280
     0
102
RTVSPost2010PropOp36
 70
     1
102
RTVSPost2010Prop37
 90
       50
102
RTVSPost2010PropOp37
 70
     1
102
RTVSPost2010Prop38
140
0.0
102
RTVSPost2010PropOp38
 70
     1
102
RTVSPost2010Prop39
140
1.0
102
RTVSPost2010PropOp39
 70
     1
102
RTVSPost2010Prop40
 90
        0
102
RTVSPost2010PropOp40
 70
     1
102
RTVSPost2010Prop41ColorIndex
 90
       18
102
RTVSPost2010Prop41ColorRGB
 90
        0
102
RTVSPost2010PropOp41
 70
     1
102
RTVSPost2010Prop42
 90
       50
102
RTVSPost2010PropOp42
 70
     1
102
RTVSPost2010Prop43
 90
        3
102
RTVSPost2010PropOp43
 70
     1
102
RTVSPost2010Prop44ColorIndex
 90
        5
102
RTVSPost2010Prop44ColorRGB
 90
      255
102
RTVSPost2010PropOp44
 70
     1
102
RTVSPost2010Prop45
280
     0
102
RTVSPost2010PropOp45
 70
     1
102
RTVSPost2010Prop46
 90
       50
102
RTVSPost2010PropOp46
 70
     1
102
RTVSPost2010Prop47
 90
       50
102
RTVSPost2010PropOp47
 70
     1
102
RTVSPost2010Prop48
 90
       50
102
RTVSPost2010PropOp48
 70
     1
102
RTVSPost2010Prop49
280
     0
102
RTVSPost2010PropOp49
 70
     1
102
RTVSPost2010Prop50
 90
       50
102
RTVSPost2010PropOp50
 70
     1
102
RTVSPost2010Prop51ColorIndex
 90
      256
102
RTVSPost2010Prop51ColorRGB
 90
-16777216
102
RTVSPost2010PropOp51
 70
     0
102
RTVSPost2010Prop52
140
1.0
102
RTVSPost2010PropOp52
 70
     0
102
RTVSPost2010Prop53
 90
        2
102
RTVSPost2010PropOp53
 70
     1
102
RTVSPost2010Prop54
  1
strokes_ogs.tif
102
RTVSPost2010PropOp54
 70
     1
102
RTVSPost2010Prop55
280
     0
102
RTVSPost2010PropOp55
 70
     1
102
RTVSPost2010Prop56
140
1.0
102
RTVSPost2010PropOp56
 70
     1
102
RTVSPost2010Prop57
140
1.0
102
RTVSPost2010PropOp57
 70
     1
  0
XRECORD
  5
261
102
{ACAD_REACTORS
330
260
102
}
330
260
100
AcDbXrecord
280
     1
102
RTVSPost2010Prop28
280
     0
102
RTVSPost2010PropOp28
 70
     1
102
RTVSPost2010Prop29
280
     1
102
RTVSPost2010PropOp29
 70
     1
102
RTVSPost2010Prop30
280
     1
102
RTVSPost2010PropOp30
 70
     1
102
RTVSPost2010Prop31
280
     0
102
RTVSPost2010PropOp31
 70
     1
102
RTVSPost2010Prop32
280
     0
102
RTVSPost2010PropOp32
 70
     1
102
RTVSPost2010Prop33
280
     0
102
RTVSPost2010PropOp33
 70
     1
102
RTVSPost2010Prop34
280
     0
102
RTVSPost2010PropOp34
 70
     1
102
RTVSPost2010Prop35
280
     0
102
RTVSPost2010PropOp35
 70
     1
102
RTVSPost2010Prop36
280
     0
102
RTVSPost2010PropOp36
 70
     1
102
RTVSPost2010Prop37
 90
       50
102
RTVSPost2010PropOp37
 70
     1
102
RTVSPost2010Prop38
140
0.0
102
RTVSPost2010PropOp38
 70
     1
102
RTVSPost2010Prop39
140
1.0
102
RTVSPost2010PropOp39
 70
     1
102
RTVSPost2010Prop40
 90
        0
102
RTVSPost2010PropOp40
 70
     1
102
RTVSPost2010Prop41ColorIndex
 90
       18
102
RTVSPost2010Prop41ColorRGB
 90
        0
102
RTVSPost2010PropOp41
 70
     1
102
RTVSPost2010Prop42
 90
       50
102
RTVSPost2010PropOp42
 70
     1
102
RTVSPost2010Prop43
 90
        3
102
RTVSPost2010PropOp43
 70
     1
102
RTVSPost2010Prop44ColorIndex
 90
        5
102
RTVSPost2010Prop44ColorRGB
 90
      255
102
RTVSPost2010PropOp44
 70
     1
102
RTVSPost2010Prop45
280
     0
102
RTVSPost2010PropOp45
 70
     1
102
RTVSPost2010Prop46
 90
       50
102
RTVSPost2010PropOp46
 70
     1
102
RTVSPost2010Prop47
 90
       50
102
RTVSPost2010PropOp47
 70
     1
102
RTVSPost2010Prop48
 90
       50
102
RTVSPost2010PropOp48
 70
     1
102
RTVSPost2010Prop49
280
     0
102
RTVSPost2010PropOp49
 70
     1
102
RTVSPost2010Prop50
 90
       50
102
RTVSPost2010PropOp50
 70
     1
102
RTVSPost2010Prop51ColorIndex
 90
      256
102
RTVSPost2010Prop51ColorRGB
 90
-16777216
102
RTVSPost2010PropOp51
 70
     0
102
RTVSPost2010Prop52
140
1.0
102
RTVSPost2010PropOp52
 70
     0
102
RTVSPost2010Prop53
 90
        2
102
RTVSPost2010PropOp53
 70
     1
102
RTVSPost2010Prop54
  1
strokes_ogs.tif
102
RTVSPost2010PropOp54
 70
     1
102
RTVSPost2010Prop55
280
     0
102
RTVSPost2010PropOp55
 70
     1
102
RTVSPost2010Prop56
140
1.0
102
RTVSPost2010PropOp56
 70
     1
102
RTVSPost2010Prop57
140
1.0
102
RTVSPost2010PropOp57
 70
     1
  0
XRECORD
  5
263
102
{ACAD_REACTORS
330
262
102
}
330
262
100
AcDbXrecord
280
     1
102
RTVSPost2010Prop28
280
     0
102
RTVSPost2010PropOp28
 70
     1
102
RTVSPost2010Prop29
280
     1
102
RTVSPost2010PropOp29
 70
     1
102
RTVSPost2010Prop30
280
     1
102
RTVSPost2010PropOp30
 70
     1
102
RTVSPost2010Prop31
280
     0
102
RTVSPost2010PropOp31
 70
     1
102
RTVSPost2010Prop32
280
     0
102
RTVSPost2010PropOp32
 70
     1
102
RTVSPost2010Prop33
280
     0
102
RTVSPost2010PropOp33
 70
     1
102
RTVSPost2010Prop34
280
     0
102
RTVSPost2010PropOp34
 70
     1
102
RTVSPost2010Prop35
280
     0
102
RTVSPost2010PropOp35
 70
     1
102
RTVSPost2010Prop36
280
     0
102
RTVSPost2010PropOp36
 70
     1
102
RTVSPost2010Prop37
 90
       50
102
RTVSPost2010PropOp37
 70
     1
102
RTVSPost2010Prop38
140
0.0
102
RTVSPost2010PropOp38
 70
     1
102
RTVSPost2010Prop39
140
1.0
102
RTVSPost2010PropOp39
 70
     1
102
RTVSPost2010Prop40
 90
        0
102
RTVSPost2010PropOp40
 70
     1
102
RTVSPost2010Prop41ColorIndex
 90
       18
102
RTVSPost2010Prop41ColorRGB
 90
        0
102
RTVSPost2010PropOp41
 70
     1
102
RTVSPost2010Prop42
 90
       50
102
RTVSPost2010PropOp42
 70
     1
102
RTVSPost2010Prop43
 90
        3
102
RTVSPost2010PropOp43
 70
     1
102
RTVSPost2010Prop44ColorIndex
 90
        5
102
RTVSPost2010Prop44ColorRGB
 90
      255
102
RTVSPost2010PropOp44
 70
     1
102
RTVSPost2010Prop45
280
     0
102
RTVSPost2010PropOp45
 70
     1
102
RTVSPost2010Prop46
 90
       50
102
RTVSPost2010PropOp46
 70
     1
102
RTVSPost2010Prop47
 90
       50
102
RTVSPost2010PropOp47
 70
     1
102
RTVSPost2010Prop48
 90
       50
102
RTVSPost2010PropOp48
 70
     1
102
RTVSPost2010Prop49
280
     0
102
RTVSPost2010PropOp49
 70
     1
102
RTVSPost2010Prop50
 90
       50
102
RTVSPost2010PropOp50
 70
     1
102
RTVSPost2010Prop51ColorIndex
 90
      256
102
RTVSPost2010Prop51ColorRGB
 90
-16777216
102
RTVSPost2010PropOp51
 70
     0
102
RTVSPost2010Prop52
140
1.0
102
RTVSPost2010PropOp52
 70
     0
102
RTVSPost2010Prop53
 90
        2
102
RTVSPost2010PropOp53
 70
     1
102
RTVSPost2010Prop54
  1
strokes_ogs.tif
102
RTVSPost2010PropOp54
 70
     1
102
RTVSPost2010Prop55
280
     0
102
RTVSPost2010PropOp55
 70
     1
102
RTVSPost2010Prop56
140
1.0
102
RTVSPost2010PropOp56
 70
     1
102
RTVSPost2010Prop57
140
1.0
102
RTVSPost2010PropOp57
 70
     1
  0
XRECORD
  5
265
102
{ACAD_REACTORS
330
264
102
}
330
264
100
AcDbXrecord
280
     1
102
RTVSPost2010Prop28
280
     0
102
RTVSPost2010PropOp28
 70
     1
102
RTVSPost2010Prop29
280
     1
102
RTVSPost2010PropOp29
 70
     1
102
RTVSPost2010Prop30
280
     1
102
RTVSPost2010PropOp30
 70
     1
102
RTVSPost2010Prop31
280
     0
102
RTVSPost2010PropOp31
 70
     1
102
RTVSPost2010Prop32
280
     0
102
RTVSPost2010PropOp32
 70
     1
102
RTVSPost2010Prop33
280
     0
102
RTVSPost2010PropOp33
 70
     1
102
RTVSPost2010Prop34
280
     0
102
RTVSPost2010PropOp34
 70
     1
102
RTVSPost2010Prop35
280
     0
102
RTVSPost2010PropOp35
 70
     1
102
RTVSPost2010Prop36
280
     0
102
RTVSPost2010PropOp36
 70
     1
102
RTVSPost2010Prop37
 90
       50
102
RTVSPost2010PropOp37
 70
     1
102
RTVSPost2010Prop38
140
0.0
102
RTVSPost2010PropOp38
 70
     1
102
RTVSPost2010Prop39
140
1.0
102
RTVSPost2010PropOp39
 70
     1
102
RTVSPost2010Prop40
 90
        0
102
RTVSPost2010PropOp40
 70
     1
102
RTVSPost2010Prop41ColorIndex
 90
       18
102
RTVSPost2010Prop41ColorRGB
 90
        0
102
RTVSPost2010PropOp41
 70
     1
102
RTVSPost2010Prop42
 90
       50
102
RTVSPost2010PropOp42
 70
     1
102
RTVSPost2010Prop43
 90
        3
102
RTVSPost2010PropOp43
 70
     1
102
RTVSPost2010Prop44ColorIndex
 90
        5
102
RTVSPost2010Prop44ColorRGB
 90
      255
102
RTVSPost2010PropOp44
 70
     1
102
RTVSPost2010Prop45
280
     0
102
RTVSPost2010PropOp45
 70
     1
102
RTVSPost2010Prop46
 90
       50
102
RTVSPost2010PropOp46
 70
     1
102
RTVSPost2010Prop47
 90
       50
102
RTVSPost2010PropOp47
 70
     1
102
RTVSPost2010Prop48
 90
       50
102
RTVSPost2010PropOp48
 70
     1
102
RTVSPost2010Prop49
280
     0
102
RTVSPost2010PropOp49
 70
     1
102
RTVSPost2010Prop50
 90
       50
102
RTVSPost2010PropOp50
 70
     1
102
RTVSPost2010Prop51ColorIndex
 90
      256
102
RTVSPost2010Prop51ColorRGB
 90
-16777216
102
RTVSPost2010PropOp51
 70
     0
102
RTVSPost2010Prop52
140
1.0
102
RTVSPost2010PropOp52
 70
     0
102
RTVSPost2010Prop53
 90
        2
102
RTVSPost2010PropOp53
 70
     1
102
RTVSPost2010Prop54
  1
strokes_ogs.tif
102
RTVSPost2010PropOp54
 70
     1
102
RTVSPost2010Prop55
280
     0
102
RTVSPost2010PropOp55
 70
     1
102
RTVSPost2010Prop56
140
1.0
102
RTVSPost2010PropOp56
 70
     1
102
RTVSPost2010Prop57
140
1.0
102
RTVSPost2010PropOp57
 70
     1
  0
XRECORD
  5
26B
102
{ACAD_REACTORS
330
26A
102
}
330
26A
100
AcDbXrecord
280
     1
102
RTVSPost2010Prop28
280
     0
102
RTVSPost2010PropOp28
 70
     1
102
RTVSPost2010Prop29
280
     1
102
RTVSPost2010PropOp29
 70
     1
102
RTVSPost2010Prop30
280
     1
102
RTVSPost2010PropOp30
 70
     1
102
RTVSPost2010Prop31
280
     0
102
RTVSPost2010PropOp31
 70
     1
102
RTVSPost2010Prop32
280
     0
102
RTVSPost2010PropOp32
 70
     1
102
RTVSPost2010Prop33
280
     0
102
RTVSPost2010PropOp33
 70
     1
102
RTVSPost2010Prop34
280
     0
102
RTVSPost2010PropOp34
 70
     1
102
RTVSPost2010Prop35
280
     0
102
RTVSPost2010PropOp35
 70
     1
102
RTVSPost2010Prop36
280
     0
102
RTVSPost2010PropOp36
 70
     1
102
RTVSPost2010Prop37
 90
       50
102
RTVSPost2010PropOp37
 70
     1
102
RTVSPost2010Prop38
140
0.0
102
RTVSPost2010PropOp38
 70
     1
102
RTVSPost2010Prop39
140
1.0
102
RTVSPost2010PropOp39
 70
     1
102
RTVSPost2010Prop40
 90
        0
102
RTVSPost2010PropOp40
 70
     1
102
RTVSPost2010Prop41ColorIndex
 90
       18
102
RTVSPost2010Prop41ColorRGB
 90
        0
102
RTVSPost2010PropOp41
 70
     1
102
RTVSPost2010Prop42
 90
       50
102
RTVSPost2010PropOp42
 70
     1
102
RTVSPost2010Prop43
 90
        3
102
RTVSPost2010PropOp43
 70
     1
102
RTVSPost2010Prop44ColorIndex
 90
        5
102
RTVSPost2010Prop44ColorRGB
 90
      255
102
RTVSPost2010PropOp44
 70
     1
102
RTVSPost2010Prop45
280
     0
102
RTVSPost2010PropOp45
 70
     1
102
RTVSPost2010Prop46
 90
       50
102
RTVSPost2010PropOp46
 70
     1
102
RTVSPost2010Prop47
 90
       50
102
RTVSPost2010PropOp47
 70
     1
102
RTVSPost2010Prop48
 90
       50
102
RTVSPost2010PropOp48
 70
     1
102
RTVSPost2010Prop49
280
     0
102
RTVSPost2010PropOp49
 70
     1
102
RTVSPost2010Prop50
 90
       50
102
RTVSPost2010PropOp50
 70
     1
102
RTVSPost2010Prop51ColorIndex
 90
      256
102
RTVSPost2010Prop51ColorRGB
 90
-16777216
102
RTVSPost2010PropOp51
 70
     0
102
RTVSPost2010Prop52
140
1.0
102
RTVSPost2010PropOp52
 70
     0
102
RTVSPost2010Prop53
 90
        2
102
RTVSPost2010PropOp53
 70
     1
102
RTVSPost2010Prop54
  1
strokes_ogs.tif
102
RTVSPost2010PropOp54
 70
     1
102
RTVSPost2010Prop55
280
     0
102
RTVSPost2010PropOp55
 70
     1
102
RTVSPost2010Prop56
140
1.0
102
RTVSPost2010PropOp56
 70
     1
102
RTVSPost2010Prop57
140
1.0
102
RTVSPost2010PropOp57
 70
     1
  0
XRECORD
  5
27F
102
{ACAD_REACTORS
330
27E
102
}
330
27E
100
AcDbXrecord
280
     1
102
RTVSPost2010Prop28
280
     0
102
RTVSPost2010PropOp28
 70
     0
102
RTVSPost2010Prop29
280
     1
102
RTVSPost2010PropOp29
 70
     0
102
RTVSPost2010Prop30
280
     1
102
RTVSPost2010PropOp30
 70
     0
102
RTVSPost2010Prop31
280
     0
102
RTVSPost2010PropOp31
 70
     0
102
RTVSPost2010Prop32
280
     0
102
RTVSPost2010PropOp32
 70
     0
102
RTVSPost2010Prop33
280
     0
102
RTVSPost2010PropOp33
 70
     0
102
RTVSPost2010Prop34
280
     0
102
RTVSPost2010PropOp34
 70
     0
102
RTVSPost2010Prop35
280
     0
102
RTVSPost2010PropOp35
 70
     0
102
RTVSPost2010Prop36
280
     0
102
RTVSPost2010PropOp36
 70
     0
102
RTVSPost2010Prop37
 90
       50
102
RTVSPost2010PropOp37
 70
     0
102
RTVSPost2010Prop38
140
0.0
102
RTVSPost2010PropOp38
 70
     0
102
RTVSPost2010Prop39
140
1.0
102
RTVSPost2010PropOp39
 70
     0
102
RTVSPost2010Prop40
 90
        0
102
RTVSPost2010PropOp40
 70
     0
102
RTVSPost2010Prop41ColorIndex
 90
       18
102
RTVSPost2010Prop41ColorRGB
 90
        0
102
RTVSPost2010PropOp41
 70
     0
102
RTVSPost2010Prop42
 90
       50
102
RTVSPost2010PropOp42
 70
     0
102
RTVSPost2010Prop43
 90
        3
102
RTVSPost2010PropOp43
 70
     0
102
RTVSPost2010Prop44ColorIndex
 90
        5
102
RTVSPost2010Prop44ColorRGB
 90
      255
102
RTVSPost2010PropOp44
 70
     0
102
RTVSPost2010Prop45
280
     0
102
RTVSPost2010PropOp45
 70
     0
102
RTVSPost2010Prop46
 90
       50
102
RTVSPost2010PropOp46
 70
     0
102
RTVSPost2010Prop47
 90
       50
102
RTVSPost2010PropOp47
 70
     0
102
RTVSPost2010Prop48
 90
       50
102
RTVSPost2010PropOp48
 70
     0
102
RTVSPost2010Prop49
280
     0
102
RTVSPost2010PropOp49
 70
     0
102
RTVSPost2010Prop50
 90
       50
102
RTVSPost2010PropOp50
 70
     0
102
RTVSPost2010Prop51ColorIndex
 90
      256
102
RTVSPost2010Prop51ColorRGB
 90
-16777216
102
RTVSPost2010PropOp51
 70
     0
102
RTVSPost2010Prop52
140
1.0
102
RTVSPost2010PropOp52
 70
     0
102
RTVSPost2010Prop53
 90
        2
102
RTVSPost2010PropOp53
 70
     0
102
RTVSPost2010Prop54
  1
strokes_ogs.tif
102
RTVSPost2010PropOp54
 70
     0
102
RTVSPost2010Prop55
280
     0
102
RTVSPost2010PropOp55
 70
     0
102
RTVSPost2010Prop56
140
1.0
102
RTVSPost2010PropOp56
 70
     0
102
RTVSPost2010Prop57
140
1.0
102
RTVSPost2010PropOp57
 70
     0
  0
XRECORD
  5
279
102
{ACAD_REACTORS
330
278
102
}
330
278
100
AcDbXrecord
280
     1
102
RTVSPost2010Prop28
280
     0
102
RTVSPost2010PropOp28
 70
     1
102
RTVSPost2010Prop29
280
     1
102
RTVSPost2010PropOp29
 70
     1
102
RTVSPost2010Prop30
280
     1
102
RTVSPost2010PropOp30
 70
     1
102
RTVSPost2010Prop31
280
     0
102
RTVSPost2010PropOp31
 70
     1
102
RTVSPost2010Prop32
280
     0
102
RTVSPost2010PropOp32
 70
     1
102
RTVSPost2010Prop33
280
     0
102
RTVSPost2010PropOp33
 70
     1
102
RTVSPost2010Prop34
280
     0
102
RTVSPost2010PropOp34
 70
     1
102
RTVSPost2010Prop35
280
     0
102
RTVSPost2010PropOp35
 70
     1
102
RTVSPost2010Prop36
280
     0
102
RTVSPost2010PropOp36
 70
     1
102
RTVSPost2010Prop37
 90
       50
102
RTVSPost2010PropOp37
 70
     1
102
RTVSPost2010Prop38
140
0.0
102
RTVSPost2010PropOp38
 70
     1
102
RTVSPost2010Prop39
140
1.0
102
RTVSPost2010PropOp39
 70
     1
102
RTVSPost2010Prop40
 90
        0
102
RTVSPost2010PropOp40
 70
     1
102
RTVSPost2010Prop41ColorIndex
 90
       18
102
RTVSPost2010Prop41ColorRGB
 90
        0
102
RTVSPost2010PropOp41
 70
     1
102
RTVSPost2010Prop42
 90
       50
102
RTVSPost2010PropOp42
 70
     1
102
RTVSPost2010Prop43
 90
        3
102
RTVSPost2010PropOp43
 70
     1
102
RTVSPost2010Prop44ColorIndex
 90
        5
102
RTVSPost2010Prop44ColorRGB
 90
      255
102
RTVSPost2010PropOp44
 70
     1
102
RTVSPost2010Prop45
280
     0
102
RTVSPost2010PropOp45
 70
     1
102
RTVSPost2010Prop46
 90
       50
102
RTVSPost2010PropOp46
 70
     1
102
RTVSPost2010Prop47
 90
       50
102
RTVSPost2010PropOp47
 70
     1
102
RTVSPost2010Prop48
 90
       50
102
RTVSPost2010PropOp48
 70
     1
102
RTVSPost2010Prop49
280
     0
102
RTVSPost2010PropOp49
 70
     1
102
RTVSPost2010Prop50
 90
       50
102
RTVSPost2010PropOp50
 70
     1
102
RTVSPost2010Prop51ColorIndex
 90
      256
102
RTVSPost2010Prop51ColorRGB
 90
-16777216
102
RTVSPost2010PropOp51
 70
     0
102
RTVSPost2010Prop52
140
1.0
102
RTVSPost2010PropOp52
 70
     0
102
RTVSPost2010Prop53
 90
        2
102
RTVSPost2010PropOp53
 70
     1
102
RTVSPost2010Prop54
  1
strokes_ogs.tif
102
RTVSPost2010PropOp54
 70
     1
102
RTVSPost2010Prop55
280
     0
102
RTVSPost2010PropOp55
 70
     1
102
RTVSPost2010Prop56
140
1.0
102
RTVSPost2010PropOp56
 70
     1
102
RTVSPost2010Prop57
140
1.0
102
RTVSPost2010PropOp57
 70
     1
  0
XRECORD
  5
281
102
{ACAD_REACTORS
330
280
102
}
330
280
100
AcDbXrecord
280
     1
102
RTVSPost2010Prop28
280
     0
102
RTVSPost2010PropOp28
 70
     0
102
RTVSPost2010Prop29
280
     1
102
RTVSPost2010PropOp29
 70
     0
102
RTVSPost2010Prop30
280
     1
102
RTVSPost2010PropOp30
 70
     0
102
RTVSPost2010Prop31
280
     0
102
RTVSPost2010PropOp31
 70
     0
102
RTVSPost2010Prop32
280
     0
102
RTVSPost2010PropOp32
 70
     0
102
RTVSPost2010Prop33
280
     0
102
RTVSPost2010PropOp33
 70
     0
102
RTVSPost2010Prop34
280
     0
102
RTVSPost2010PropOp34
 70
     0
102
RTVSPost2010Prop35
280
     0
102
RTVSPost2010PropOp35
 70
     0
102
RTVSPost2010Prop36
280
     0
102
RTVSPost2010PropOp36
 70
     0
102
RTVSPost2010Prop37
 90
       50
102
RTVSPost2010PropOp37
 70
     0
102
RTVSPost2010Prop38
140
0.0
102
RTVSPost2010PropOp38
 70
     0
102
RTVSPost2010Prop39
140
1.0
102
RTVSPost2010PropOp39
 70
     0
102
RTVSPost2010Prop40
 90
        0
102
RTVSPost2010PropOp40
 70
     0
102
RTVSPost2010Prop41ColorIndex
 90
       18
102
RTVSPost2010Prop41ColorRGB
 90
        0
102
RTVSPost2010PropOp41
 70
     0
102
RTVSPost2010Prop42
 90
       50
102
RTVSPost2010PropOp42
 70
     0
102
RTVSPost2010Prop43
 90
        3
102
RTVSPost2010PropOp43
 70
     0
102
RTVSPost2010Prop44ColorIndex
 90
        5
102
RTVSPost2010Prop44ColorRGB
 90
      255
102
RTVSPost2010PropOp44
 70
     0
102
RTVSPost2010Prop45
280
     0
102
RTVSPost2010PropOp45
 70
     0
102
RTVSPost2010Prop46
 90
       50
102
RTVSPost2010PropOp46
 70
     0
102
RTVSPost2010Prop47
 90
       50
102
RTVSPost2010PropOp47
 70
     0
102
RTVSPost2010Prop48
 90
       50
102
RTVSPost2010PropOp48
 70
     0
102
RTVSPost2010Prop49
280
     0
102
RTVSPost2010PropOp49
 70
     0
102
RTVSPost2010Prop50
 90
       50
102
RTVSPost2010PropOp50
 70
     0
102
RTVSPost2010Prop51ColorIndex
 90
      256
102
RTVSPost2010Prop51ColorRGB
 90
-16777216
102
RTVSPost2010PropOp51
 70
     0
102
RTVSPost2010Prop52
140
1.0
102
RTVSPost2010PropOp52
 70
     0
102
RTVSPost2010Prop53
 90
        2
102
RTVSPost2010PropOp53
 70
     0
102
RTVSPost2010Prop54
  1
strokes_ogs.tif
102
RTVSPost2010PropOp54
 70
     0
102
RTVSPost2010Prop55
280
     0
102
RTVSPost2010PropOp55
 70
     0
102
RTVSPost2010Prop56
140
1.0
102
RTVSPost2010PropOp56
 70
     0
102
RTVSPost2010Prop57
140
1.0
102
RTVSPost2010PropOp57
 70
     0
  0
XRECORD
  5
26F
102
{ACAD_REACTORS
330
26E
102
}
330
26E
100
AcDbXrecord
280
     1
102
RTVSPost2010Prop28
280
     0
102
RTVSPost2010PropOp28
 70
     1
102
RTVSPost2010Prop29
280
     1
102
RTVSPost2010PropOp29
 70
     1
102
RTVSPost2010Prop30
280
     1
102
RTVSPost2010PropOp30
 70
     1
102
RTVSPost2010Prop31
280
     0
102
RTVSPost2010PropOp31
 70
     1
102
RTVSPost2010Prop32
280
     0
102
RTVSPost2010PropOp32
 70
     1
102
RTVSPost2010Prop33
280
     0
102
RTVSPost2010PropOp33
 70
     1
102
RTVSPost2010Prop34
280
     0
102
RTVSPost2010PropOp34
 70
     1
102
RTVSPost2010Prop35
280
     0
102
RTVSPost2010PropOp35
 70
     1
102
RTVSPost2010Prop36
280
     0
102
RTVSPost2010PropOp36
 70
     1
102
RTVSPost2010Prop37
 90
       50
102
RTVSPost2010PropOp37
 70
     1
102
RTVSPost2010Prop38
140
0.0
102
RTVSPost2010PropOp38
 70
     1
102
RTVSPost2010Prop39
140
1.0
102
RTVSPost2010PropOp39
 70
     1
102
RTVSPost2010Prop40
 90
        0
102
RTVSPost2010PropOp40
 70
     1
102
RTVSPost2010Prop41ColorIndex
 90
       18
102
RTVSPost2010Prop41ColorRGB
 90
        0
102
RTVSPost2010PropOp41
 70
     1
102
RTVSPost2010Prop42
 90
       50
102
RTVSPost2010PropOp42
 70
     1
102
RTVSPost2010Prop43
 90
        3
102
RTVSPost2010PropOp43
 70
     1
102
RTVSPost2010Prop44ColorIndex
 90
        5
102
RTVSPost2010Prop44ColorRGB
 90
      255
102
RTVSPost2010PropOp44
 70
     1
102
RTVSPost2010Prop45
280
     0
102
RTVSPost2010PropOp45
 70
     1
102
RTVSPost2010Prop46
 90
       50
102
RTVSPost2010PropOp46
 70
     1
102
RTVSPost2010Prop47
 90
       50
102
RTVSPost2010PropOp47
 70
     1
102
RTVSPost2010Prop48
 90
       50
102
RTVSPost2010PropOp48
 70
     1
102
RTVSPost2010Prop49
280
     0
102
RTVSPost2010PropOp49
 70
     1
102
RTVSPost2010Prop50
 90
       50
102
RTVSPost2010PropOp50
 70
     1
102
RTVSPost2010Prop51ColorIndex
 90
      256
102
RTVSPost2010Prop51ColorRGB
 90
-16777216
102
RTVSPost2010PropOp51
 70
     0
102
RTVSPost2010Prop52
140
1.0
102
RTVSPost2010PropOp52
 70
     0
102
RTVSPost2010Prop53
 90
        2
102
RTVSPost2010PropOp53
 70
     1
102
RTVSPost2010Prop54
  1
strokes_ogs.tif
102
RTVSPost2010PropOp54
 70
     1
102
RTVSPost2010Prop55
280
     0
102
RTVSPost2010PropOp55
 70
     1
102
RTVSPost2010Prop56
140
1.0
102
RTVSPost2010PropOp56
 70
     1
102
RTVSPost2010Prop57
140
1.0
102
RTVSPost2010PropOp57
 70
     1
  0
XRECORD
  5
28D
102
{ACAD_REACTORS
330
28C
102
}
330
28C
100
AcDbXrecord
280
     1
102
RTVSPost2010Prop28
280
     0
102
RTVSPost2010PropOp28
 70
     1
102
RTVSPost2010Prop29
280
     1
102
RTVSPost2010PropOp29
 70
     1
102
RTVSPost2010Prop30
280
     1
102
RTVSPost2010PropOp30
 70
     1
102
RTVSPost2010Prop31
280
     0
102
RTVSPost2010PropOp31
 70
     1
102
RTVSPost2010Prop32
280
     0
102
RTVSPost2010PropOp32
 70
     1
102
RTVSPost2010Prop33
280
     0
102
RTVSPost2010PropOp33
 70
     1
102
RTVSPost2010Prop34
280
     0
102
RTVSPost2010PropOp34
 70
     1
102
RTVSPost2010Prop35
280
     0
102
RTVSPost2010PropOp35
 70
     1
102
RTVSPost2010Prop36
280
     0
102
RTVSPost2010PropOp36
 70
     1
102
RTVSPost2010Prop37
 90
       50
102
RTVSPost2010PropOp37
 70
     1
102
RTVSPost2010Prop38
140
0.0
102
RTVSPost2010PropOp38
 70
     1
102
RTVSPost2010Prop39
140
1.0
102
RTVSPost2010PropOp39
 70
     1
102
RTVSPost2010Prop40
 90
        0
102
RTVSPost2010PropOp40
 70
     1
102
RTVSPost2010Prop41ColorIndex
 90
       18
102
RTVSPost2010Prop41ColorRGB
 90
        0
102
RTVSPost2010PropOp41
 70
     1
102
RTVSPost2010Prop42
 90
       50
102
RTVSPost2010PropOp42
 70
     1
102
RTVSPost2010Prop43
 90
        3
102
RTVSPost2010PropOp43
 70
     1
102
RTVSPost2010Prop44ColorIndex
 90
        5
102
RTVSPost2010Prop44ColorRGB
 90
      255
102
RTVSPost2010PropOp44
 70
     1
102
RTVSPost2010Prop45
280
     0
102
RTVSPost2010PropOp45
 70
     1
102
RTVSPost2010Prop46
 90
       50
102
RTVSPost2010PropOp46
 70
     1
102
RTVSPost2010Prop47
 90
       50
102
RTVSPost2010PropOp47
 70
     1
102
RTVSPost2010Prop48
 90
       50
102
RTVSPost2010PropOp48
 70
     1
102
RTVSPost2010Prop49
280
     0
102
RTVSPost2010PropOp49
 70
     1
102
RTVSPost2010Prop50
 90
       50
102
RTVSPost2010PropOp50
 70
     1
102
RTVSPost2010Prop51ColorIndex
 90
      256
102
RTVSPost2010Prop51ColorRGB
 90
-16777216
102
RTVSPost2010PropOp51
 70
     0
102
RTVSPost2010Prop52
140
1.0
102
RTVSPost2010PropOp52
 70
     0
102
RTVSPost2010Prop53
 90
        2
102
RTVSPost2010PropOp53
 70
     1
102
RTVSPost2010Prop54
  1
strokes_ogs.tif
102
RTVSPost2010PropOp54
 70
     1
102
RTVSPost2010Prop55
280
     0
102
RTVSPost2010PropOp55
 70
     1
102
RTVSPost2010Prop56
140
1.0
102
RTVSPost2010PropOp56
 70
     1
102
RTVSPost2010Prop57
140
1.0
102
RTVSPost2010PropOp57
 70
     1
  0
XRECORD
  5
28B
102
{ACAD_REACTORS
330
28A
102
}
330
28A
100
AcDbXrecord
280
     1
102
RTVSPost2010Prop28
280
     0
102
RTVSPost2010PropOp28
 70
     1
102
RTVSPost2010Prop29
280
     1
102
RTVSPost2010PropOp29
 70
     1
102
RTVSPost2010Prop30
280
     1
102
RTVSPost2010PropOp30
 70
     1
102
RTVSPost2010Prop31
280
     0
102
RTVSPost2010PropOp31
 70
     1
102
RTVSPost2010Prop32
280
     0
102
RTVSPost2010PropOp32
 70
     1
102
RTVSPost2010Prop33
280
     0
102
RTVSPost2010PropOp33
 70
     1
102
RTVSPost2010Prop34
280
     0
102
RTVSPost2010PropOp34
 70
     1
102
RTVSPost2010Prop35
280
     0
102
RTVSPost2010PropOp35
 70
     1
102
RTVSPost2010Prop36
280
     0
102
RTVSPost2010PropOp36
 70
     1
102
RTVSPost2010Prop37
 90
       50
102
RTVSPost2010PropOp37
 70
     1
102
RTVSPost2010Prop38
140
0.0
102
RTVSPost2010PropOp38
 70
     1
102
RTVSPost2010Prop39
140
1.0
102
RTVSPost2010PropOp39
 70
     1
102
RTVSPost2010Prop40
 90
        0
102
RTVSPost2010PropOp40
 70
     1
102
RTVSPost2010Prop41ColorIndex
 90
       18
102
RTVSPost2010Prop41ColorRGB
 90
        0
102
RTVSPost2010PropOp41
 70
     1
102
RTVSPost2010Prop42
 90
       50
102
RTVSPost2010PropOp42
 70
     1
102
RTVSPost2010Prop43
 90
        3
102
RTVSPost2010PropOp43
 70
     1
102
RTVSPost2010Prop44ColorIndex
 90
        5
102
RTVSPost2010Prop44ColorRGB
 90
      255
102
RTVSPost2010PropOp44
 70
     1
102
RTVSPost2010Prop45
280
     0
102
RTVSPost2010PropOp45
 70
     1
102
RTVSPost2010Prop46
 90
       50
102
RTVSPost2010PropOp46
 70
     1
102
RTVSPost2010Prop47
 90
       50
102
RTVSPost2010PropOp47
 70
     1
102
RTVSPost2010Prop48
 90
       50
102
RTVSPost2010PropOp48
 70
     1
102
RTVSPost2010Prop49
280
     0
102
RTVSPost2010PropOp49
 70
     1
102
RTVSPost2010Prop50
 90
       50
102
RTVSPost2010PropOp50
 70
     1
102
RTVSPost2010Prop51ColorIndex
 90
      256
102
RTVSPost2010Prop51ColorRGB
 90
-16777216
102
RTVSPost2010PropOp51
 70
     0
102
RTVSPost2010Prop52
140
1.0
102
RTVSPost2010PropOp52
 70
     0
102
RTVSPost2010Prop53
 90
        2
102
RTVSPost2010PropOp53
 70
     1
102
RTVSPost2010Prop54
  1
strokes_ogs.tif
102
RTVSPost2010PropOp54
 70
     1
102
RTVSPost2010Prop55
280
     0
102
RTVSPost2010PropOp55
 70
     1
102
RTVSPost2010Prop56
140
1.0
102
RTVSPost2010PropOp56
 70
     1
102
RTVSPost2010Prop57
140
1.0
102
RTVSPost2010PropOp57
 70
     1
  0
XRECORD
  5
285
102
{ACAD_REACTORS
330
284
102
}
330
284
100
AcDbXrecord
280
     1
102
RTVSPost2010Prop28
280
     0
102
RTVSPost2010PropOp28
 70
     1
102
RTVSPost2010Prop29
280
     1
102
RTVSPost2010PropOp29
 70
     1
102
RTVSPost2010Prop30
280
     1
102
RTVSPost2010PropOp30
 70
     1
102
RTVSPost2010Prop31
280
     0
102
RTVSPost2010PropOp31
 70
     1
102
RTVSPost2010Prop32
280
     0
102
RTVSPost2010PropOp32
 70
     1
102
RTVSPost2010Prop33
280
     0
102
RTVSPost2010PropOp33
 70
     1
102
RTVSPost2010Prop34
280
     0
102
RTVSPost2010PropOp34
 70
     1
102
RTVSPost2010Prop35
280
     0
102
RTVSPost2010PropOp35
 70
     1
102
RTVSPost2010Prop36
280
     0
102
RTVSPost2010PropOp36
 70
     1
102
RTVSPost2010Prop37
 90
       50
102
RTVSPost2010PropOp37
 70
     1
102
RTVSPost2010Prop38
140
0.0
102
RTVSPost2010PropOp38
 70
     1
102
RTVSPost2010Prop39
140
1.0
102
RTVSPost2010PropOp39
 70
     1
102
RTVSPost2010Prop40
 90
        0
102
RTVSPost2010PropOp40
 70
     1
102
RTVSPost2010Prop41ColorIndex
 90
       18
102
RTVSPost2010Prop41ColorRGB
 90
        0
102
RTVSPost2010PropOp41
 70
     1
102
RTVSPost2010Prop42
 90
       50
102
RTVSPost2010PropOp42
 70
     1
102
RTVSPost2010Prop43
 90
        3
102
RTVSPost2010PropOp43
 70
     1
102
RTVSPost2010Prop44ColorIndex
 90
        5
102
RTVSPost2010Prop44ColorRGB
 90
      255
102
RTVSPost2010PropOp44
 70
     1
102
RTVSPost2010Prop45
280
     0
102
RTVSPost2010PropOp45
 70
     1
102
RTVSPost2010Prop46
 90
       50
102
RTVSPost2010PropOp46
 70
     1
102
RTVSPost2010Prop47
 90
       50
102
RTVSPost2010PropOp47
 70
     1
102
RTVSPost2010Prop48
 90
       50
102
RTVSPost2010PropOp48
 70
     1
102
RTVSPost2010Prop49
280
     0
102
RTVSPost2010PropOp49
 70
     1
102
RTVSPost2010Prop50
 90
       50
102
RTVSPost2010PropOp50
 70
     1
102
RTVSPost2010Prop51ColorIndex
 90
      256
102
RTVSPost2010Prop51ColorRGB
 90
-16777216
102
RTVSPost2010PropOp51
 70
     0
102
RTVSPost2010Prop52
140
1.0
102
RTVSPost2010PropOp52
 70
     0
102
RTVSPost2010Prop53
 90
        2
102
RTVSPost2010PropOp53
 70
     1
102
RTVSPost2010Prop54
  1
strokes_ogs.tif
102
RTVSPost2010PropOp54
 70
     1
102
RTVSPost2010Prop55
280
     0
102
RTVSPost2010PropOp55
 70
     1
102
RTVSPost2010Prop56
140
1.0
102
RTVSPost2010PropOp56
 70
     1
102
RTVSPost2010Prop57
140
1.0
102
RTVSPost2010PropOp57
 70
     1
  0
XRECORD
  5
287
102
{ACAD_REACTORS
330
286
102
}
330
286
100
AcDbXrecord
280
     1
102
RTVSPost2010Prop28
280
     0
102
RTVSPost2010PropOp28
 70
     1
102
RTVSPost2010Prop29
280
     1
102
RTVSPost2010PropOp29
 70
     1
102
RTVSPost2010Prop30
280
     1
102
RTVSPost2010PropOp30
 70
     1
102
RTVSPost2010Prop31
280
     0
102
RTVSPost2010PropOp31
 70
     1
102
RTVSPost2010Prop32
280
     0
102
RTVSPost2010PropOp32
 70
     1
102
RTVSPost2010Prop33
280
     0
102
RTVSPost2010PropOp33
 70
     1
102
RTVSPost2010Prop34
280
     0
102
RTVSPost2010PropOp34
 70
     1
102
RTVSPost2010Prop35
280
     0
102
RTVSPost2010PropOp35
 70
     1
102
RTVSPost2010Prop36
280
     0
102
RTVSPost2010PropOp36
 70
     1
102
RTVSPost2010Prop37
 90
       50
102
RTVSPost2010PropOp37
 70
     1
102
RTVSPost2010Prop38
140
0.0
102
RTVSPost2010PropOp38
 70
     1
102
RTVSPost2010Prop39
140
1.0
102
RTVSPost2010PropOp39
 70
     1
102
RTVSPost2010Prop40
 90
        0
102
RTVSPost2010PropOp40
 70
     1
102
RTVSPost2010Prop41ColorIndex
 90
       18
102
RTVSPost2010Prop41ColorRGB
 90
        0
102
RTVSPost2010PropOp41
 70
     1
102
RTVSPost2010Prop42
 90
       50
102
RTVSPost2010PropOp42
 70
     1
102
RTVSPost2010Prop43
 90
        3
102
RTVSPost2010PropOp43
 70
     1
102
RTVSPost2010Prop44ColorIndex
 90
        5
102
RTVSPost2010Prop44ColorRGB
 90
      255
102
RTVSPost2010PropOp44
 70
     1
102
RTVSPost2010Prop45
280
     0
102
RTVSPost2010PropOp45
 70
     1
102
RTVSPost2010Prop46
 90
       50
102
RTVSPost2010PropOp46
 70
     1
102
RTVSPost2010Prop47
 90
       50
102
RTVSPost2010PropOp47
 70
     1
102
RTVSPost2010Prop48
 90
       50
102
RTVSPost2010PropOp48
 70
     1
102
RTVSPost2010Prop49
280
     0
102
RTVSPost2010PropOp49
 70
     1
102
RTVSPost2010Prop50
 90
       50
102
RTVSPost2010PropOp50
 70
     1
102
RTVSPost2010Prop51ColorIndex
 90
      256
102
RTVSPost2010Prop51ColorRGB
 90
-16777216
102
RTVSPost2010PropOp51
 70
     0
102
RTVSPost2010Prop52
140
1.0
102
RTVSPost2010PropOp52
 70
     0
102
RTVSPost2010Prop53
 90
        2
102
RTVSPost2010PropOp53
 70
     1
102
RTVSPost2010Prop54
  1
strokes_ogs.tif
102
RTVSPost2010PropOp54
 70
     1
102
RTVSPost2010Prop55
280
     0
102
RTVSPost2010PropOp55
 70
     1
102
RTVSPost2010Prop56
140
1.0
102
RTVSPost2010PropOp56
 70
     1
102
RTVSPost2010Prop57
140
1.0
102
RTVSPost2010PropOp57
 70
     1
  0
XRECORD
  5
277
102
{ACAD_REACTORS
330
276
102
}
330
276
100
AcDbXrecord
280
     1
102
RTVSPost2010Prop28
280
     0
102
RTVSPost2010PropOp28
 70
     1
102
RTVSPost2010Prop29
280
     1
102
RTVSPost2010PropOp29
 70
     1
102
RTVSPost2010Prop30
280
     1
102
RTVSPost2010PropOp30
 70
     1
102
RTVSPost2010Prop31
280
     0
102
RTVSPost2010PropOp31
 70
     1
102
RTVSPost2010Prop32
280
     0
102
RTVSPost2010PropOp32
 70
     1
102
RTVSPost2010Prop33
280
     0
102
RTVSPost2010PropOp33
 70
     1
102
RTVSPost2010Prop34
280
     0
102
RTVSPost2010PropOp34
 70
     1
102
RTVSPost2010Prop35
280
     0
102
RTVSPost2010PropOp35
 70
     1
102
RTVSPost2010Prop36
280
     0
102
RTVSPost2010PropOp36
 70
     1
102
RTVSPost2010Prop37
 90
       50
102
RTVSPost2010PropOp37
 70
     1
102
RTVSPost2010Prop38
140
0.0
102
RTVSPost2010PropOp38
 70
     1
102
RTVSPost2010Prop39
140
1.0
102
RTVSPost2010PropOp39
 70
     1
102
RTVSPost2010Prop40
 90
        0
102
RTVSPost2010PropOp40
 70
     1
102
RTVSPost2010Prop41ColorIndex
 90
       18
102
RTVSPost2010Prop41ColorRGB
 90
        0
102
RTVSPost2010PropOp41
 70
     1
102
RTVSPost2010Prop42
 90
       50
102
RTVSPost2010PropOp42
 70
     1
102
RTVSPost2010Prop43
 90
        3
102
RTVSPost2010PropOp43
 70
     1
102
RTVSPost2010Prop44ColorIndex
 90
        5
102
RTVSPost2010Prop44ColorRGB
 90
      255
102
RTVSPost2010PropOp44
 70
     1
102
RTVSPost2010Prop45
280
     0
102
RTVSPost2010PropOp45
 70
     1
102
RTVSPost2010Prop46
 90
       50
102
RTVSPost2010PropOp46
 70
     1
102
RTVSPost2010Prop47
 90
       50
102
RTVSPost2010PropOp47
 70
     1
102
RTVSPost2010Prop48
 90
       50
102
RTVSPost2010PropOp48
 70
     1
102
RTVSPost2010Prop49
280
     0
102
RTVSPost2010PropOp49
 70
     1
102
RTVSPost2010Prop50
 90
       50
102
RTVSPost2010PropOp50
 70
     1
102
RTVSPost2010Prop51ColorIndex
 90
      256
102
RTVSPost2010Prop51ColorRGB
 90
-16777216
102
RTVSPost2010PropOp51
 70
     0
102
RTVSPost2010Prop52
140
1.0
102
RTVSPost2010PropOp52
 70
     0
102
RTVSPost2010Prop53
 90
        2
102
RTVSPost2010PropOp53
 70
     1
102
RTVSPost2010Prop54
  1
strokes_ogs.tif
102
RTVSPost2010PropOp54
 70
     1
102
RTVSPost2010Prop55
280
     0
102
RTVSPost2010PropOp55
 70
     1
102
RTVSPost2010Prop56
140
1.0
102
RTVSPost2010PropOp56
 70
     1
102
RTVSPost2010Prop57
140
1.0
102
RTVSPost2010PropOp57
 70
     1
  0
XRECORD
  5
269
102
{ACAD_REACTORS
330
268
102
}
330
268
100
AcDbXrecord
280
     1
102
RTVSPost2010Prop28
280
     0
102
RTVSPost2010PropOp28
 70
     1
102
RTVSPost2010Prop29
280
     1
102
RTVSPost2010PropOp29
 70
     1
102
RTVSPost2010Prop30
280
     1
102
RTVSPost2010PropOp30
 70
     1
102
RTVSPost2010Prop31
280
     0
102
RTVSPost2010PropOp31
 70
     1
102
RTVSPost2010Prop32
280
     0
102
RTVSPost2010PropOp32
 70
     1
102
RTVSPost2010Prop33
280
     0
102
RTVSPost2010PropOp33
 70
     1
102
RTVSPost2010Prop34
280
     0
102
RTVSPost2010PropOp34
 70
     1
102
RTVSPost2010Prop35
280
     0
102
RTVSPost2010PropOp35
 70
     1
102
RTVSPost2010Prop36
280
     0
102
RTVSPost2010PropOp36
 70
     1
102
RTVSPost2010Prop37
 90
       50
102
RTVSPost2010PropOp37
 70
     1
102
RTVSPost2010Prop38
140
0.0
102
RTVSPost2010PropOp38
 70
     1
102
RTVSPost2010Prop39
140
1.0
102
RTVSPost2010PropOp39
 70
     1
102
RTVSPost2010Prop40
 90
        0
102
RTVSPost2010PropOp40
 70
     1
102
RTVSPost2010Prop41ColorIndex
 90
       18
102
RTVSPost2010Prop41ColorRGB
 90
        0
102
RTVSPost2010PropOp41
 70
     1
102
RTVSPost2010Prop42
 90
       50
102
RTVSPost2010PropOp42
 70
     1
102
RTVSPost2010Prop43
 90
        3
102
RTVSPost2010PropOp43
 70
     1
102
RTVSPost2010Prop44ColorIndex
 90
        5
102
RTVSPost2010Prop44ColorRGB
 90
      255
102
RTVSPost2010PropOp44
 70
     1
102
RTVSPost2010Prop45
280
     0
102
RTVSPost2010PropOp45
 70
     1
102
RTVSPost2010Prop46
 90
       50
102
RTVSPost2010PropOp46
 70
     1
102
RTVSPost2010Prop47
 90
       50
102
RTVSPost2010PropOp47
 70
     1
102
RTVSPost2010Prop48
 90
       50
102
RTVSPost2010PropOp48
 70
     1
102
RTVSPost2010Prop49
280
     0
102
RTVSPost2010PropOp49
 70
     1
102
RTVSPost2010Prop50
 90
       50
102
RTVSPost2010PropOp50
 70
     1
102
RTVSPost2010Prop51ColorIndex
 90
      256
102
RTVSPost2010Prop51ColorRGB
 90
-16777216
102
RTVSPost2010PropOp51
 70
     0
102
RTVSPost2010Prop52
140
1.0
102
RTVSPost2010PropOp52
 70
     0
102
RTVSPost2010Prop53
 90
        2
102
RTVSPost2010PropOp53
 70
     1
102
RTVSPost2010Prop54
  1
strokes_ogs.tif
102
RTVSPost2010PropOp54
 70
     1
102
RTVSPost2010Prop55
280
     0
102
RTVSPost2010PropOp55
 70
     1
102
RTVSPost2010Prop56
140
1.0
102
RTVSPost2010PropOp56
 70
     1
102
RTVSPost2010Prop57
140
1.0
102
RTVSPost2010PropOp57
 70
     1
  0
XRECORD
  5
289
102
{ACAD_REACTORS
330
288
102
}
330
288
100
AcDbXrecord
280
     1
102
RTVSPost2010Prop28
280
     0
102
RTVSPost2010PropOp28
 70
     1
102
RTVSPost2010Prop29
280
     1
102
RTVSPost2010PropOp29
 70
     1
102
RTVSPost2010Prop30
280
     1
102
RTVSPost2010PropOp30
 70
     1
102
RTVSPost2010Prop31
280
     0
102
RTVSPost2010PropOp31
 70
     1
102
RTVSPost2010Prop32
280
     0
102
RTVSPost2010PropOp32
 70
     1
102
RTVSPost2010Prop33
280
     0
102
RTVSPost2010PropOp33
 70
     1
102
RTVSPost2010Prop34
280
     0
102
RTVSPost2010PropOp34
 70
     1
102
RTVSPost2010Prop35
280
     0
102
RTVSPost2010PropOp35
 70
     1
102
RTVSPost2010Prop36
280
     0
102
RTVSPost2010PropOp36
 70
     1
102
RTVSPost2010Prop37
 90
       50
102
RTVSPost2010PropOp37
 70
     1
102
RTVSPost2010Prop38
140
0.0
102
RTVSPost2010PropOp38
 70
     1
102
RTVSPost2010Prop39
140
1.0
102
RTVSPost2010PropOp39
 70
     1
102
RTVSPost2010Prop40
 90
        0
102
RTVSPost2010PropOp40
 70
     1
102
RTVSPost2010Prop41ColorIndex
 90
       18
102
RTVSPost2010Prop41ColorRGB
 90
        0
102
RTVSPost2010PropOp41
 70
     1
102
RTVSPost2010Prop42
 90
       50
102
RTVSPost2010PropOp42
 70
     1
102
RTVSPost2010Prop43
 90
        3
102
RTVSPost2010PropOp43
 70
     1
102
RTVSPost2010Prop44ColorIndex
 90
        5
102
RTVSPost2010Prop44ColorRGB
 90
      255
102
RTVSPost2010PropOp44
 70
     1
102
RTVSPost2010Prop45
280
     0
102
RTVSPost2010PropOp45
 70
     1
102
RTVSPost2010Prop46
 90
       50
102
RTVSPost2010PropOp46
 70
     1
102
RTVSPost2010Prop47
 90
       50
102
RTVSPost2010PropOp47
 70
     1
102
RTVSPost2010Prop48
 90
       50
102
RTVSPost2010PropOp48
 70
     1
102
RTVSPost2010Prop49
280
     0
102
RTVSPost2010PropOp49
 70
     1
102
RTVSPost2010Prop50
 90
       50
102
RTVSPost2010PropOp50
 70
     1
102
RTVSPost2010Prop51ColorIndex
 90
      256
102
RTVSPost2010Prop51ColorRGB
 90
-16777216
102
RTVSPost2010PropOp51
 70
     0
102
RTVSPost2010Prop52
140
1.0
102
RTVSPost2010PropOp52
 70
     0
102
RTVSPost2010Prop53
 90
        2
102
RTVSPost2010PropOp53
 70
     1
102
RTVSPost2010Prop54
  1
strokes_ogs.tif
102
RTVSPost2010PropOp54
 70
     1
102
RTVSPost2010Prop55
280
     0
102
RTVSPost2010PropOp55
 70
     1
102
RTVSPost2010Prop56
140
1.0
102
RTVSPost2010PropOp56
 70
     1
102
RTVSPost2010Prop57
140
1.0
102
RTVSPost2010PropOp57
 70
     1
  0
ENDSEC
  0
EOF
