  0
SECTION
  2
HEADER
  9
$ACADVER
  1
AC1024
  9
$ACADMAINTVER
 70
     6
  9
$DWGCODEPAGE
  3
ANSI_1252
  9
$INSBASE
 10
0.0
 20
0.0
 30
0.0
  9
$EXTMIN
 10
518136.2139147082
 20
260284.1164996169
 30
0.0
  9
$EXTMAX
 10
518234.209461318
 20
260358.8797825198
 30
0.0
  9
$LIMMIN
 10
0.0
 20
0.0
  9
$LIMMAX
 10
420.0
 20
297.0
  9
$ORTHOMODE
 70
     0
  9
$REGENMODE
 70
     1
  9
$FILLMODE
 70
     1
  9
$QTEXTMODE
 70
     0
  9
$MIRRTEXT
 70
     1
  9
$LTSCALE
 40
1.0
  9
$ATTMODE
 70
     1
  9
$TEXTSIZE
 40
0.12
  9
$TRACEWID
 40
1.0
  9
$TEXTSTYLE
  7
Standard
  9
$CLAYER
  8
priory
  9
$CELTYPE
  6
ByLayer
  9
$CECOLOR
 62
   256
  9
$CELTSCALE
 40
1.0
  9
$DISPSILH
 70
     0
  9
$DIMSCALE
 40
1.0
  9
$DIMASZ
 40
2.5
  9
$DIMEXO
 40
0.625
  9
$DIMDLI
 40
3.75
  9
$DIMRND
 40
0.0
  9
$DIMDLE
 40
0.0
  9
$DIMEXE
 40
1.25
  9
$DIMTP
 40
0.0
  9
$DIMTM
 40
0.0
  9
$DIMTXT
 40
2.5
  9
$DIMCEN
 40
2.5
  9
$DIMTSZ
 40
0.0
  9
$DIMTOL
 70
     0
  9
$DIMLIM
 70
     0
  9
$DIMTIH
 70
     0
  9
$DIMTOH
 70
     0
  9
$DIMSE1
 70
     0
  9
$DIMSE2
 70
     0
  9
$DIMTAD
 70
     1
  9
$DIMZIN
 70
     8
  9
$DIMBLK
  1

  9
$DIMASO
 70
     1
  9
$DIMSHO
 70
     1
  9
$DIMPOST
  1

  9
$DIMAPOST
  1

  9
$DIMALT
 70
     0
  9
$DIMALTD
 70
     3
  9
$DIMALTF
 40
0.03937007874016
  9
$DIMLFAC
 40
1.0
  9
$DIMTOFL
 70
     1
  9
$DIMTVP
 40
0.0
  9
$DIMTIX
 70
     0
  9
$DIMSOXD
 70
     0
  9
$DIMSAH
 70
     0
  9
$DIMBLK1
  1

  9
$DIMBLK2
  1

  9
$DIMSTYLE
  2
ISO-25
  9
$DIMCLRD
 70
     0
  9
$DIMCLRE
 70
     0
  9
$DIMCLRT
 70
     0
  9
$DIMTFAC
 40
1.0
  9
$DIMGAP
 40
0.625
  9
$DIMJUST
 70
     0
  9
$DIMSD1
 70
     0
  9
$DIMSD2
 70
     0
  9
$DIMTOLJ
 70
     0
  9
$DIMTZIN
 70
     8
  9
$DIMALTZ
 70
     0
  9
$DIMALTTZ
 70
     0
  9
$DIMUPT
 70
     0
  9
$DIMDEC
 70
     2
  9
$DIMTDEC
 70
     2
  9
$DIMALTU
 70
     2
  9
$DIMALTTD
 70
     3
  9
$DIMTXSTY
  7
Standard
  9
$DIMAUNIT
 70
     0
  9
$DIMADEC
 70
     0
  9
$DIMALTRND
 40
0.0
  9
$DIMAZIN
 70
     0
  9
$DIMDSEP
 70
    44
  9
$DIMATFIT
 70
     3
  9
$DIMFRAC
 70
     0
  9
$DIMLDRBLK
  1

  9
$DIMLUNIT
 70
     2
  9
$DIMLWD
 70
    -2
  9
$DIMLWE
 70
    -2
  9
$DIMTMOVE
 70
     0
  9
$DIMFXL
 40
1.0
  9
$DIMFXLON
 70
     0
  9
$DIMJOGANG
 40
0.7853981633974483
  9
$DIMTFILL
 70
     0
  9
$DIMTFILLCLR
 70
     0
  9
$DIMARCSYM
 70
     0
  9
$DIMLTYPE
  6

  9
$DIMLTEX1
  6

  9
$DIMLTEX2
  6

  9
$DIMTXTDIRECTION
 70
     0
  9
$LUNITS
 70
     2
  9
$LUPREC
 70
     4
  9
$SKETCHINC
 40
1.0
  9
$FILLETRAD
 40
10.0
  9
$AUNITS
 70
     0
  9
$AUPREC
 70
     0
  9
$MENU
  1
.
  9
$ELEVATION
 40
0.0
  9
$PELEVATION
 40
0.0
  9
$THICKNESS
 40
0.0
  9
$LIMCHECK
 70
     0
  9
$CHAMFERA
 40
10.0
  9
$CHAMFERB
 40
10.0
  9
$CHAMFERC
 40
20.0
  9
$CHAMFERD
 40
0.0
  9
$SKPOLY
 70
     0
  9
$TDCREATE
 40
2452669.48257125
  9
$TDUCREATE
 40
2452669.440904583
  9
$TDUPDATE
 40
2457231.701117604
  9
$TDUUPDATE
 40
2457231.659450938
  9
$TDINDWG
 40
0.4092135301
  9
$TDUSRTIMER
 40
0.4092133449
  9
$USRTIMER
 70
     1
  9
$ANGBASE
 50
0.0
  9
$ANGDIR
 70
     0
  9
$PDMODE
 70
     0
  9
$PDSIZE
 40
0.0
  9
$PLINEWID
 40
0.0
  9
$SPLFRAME
 70
     0
  9
$SPLINETYPE
 70
     6
  9
$SPLINESEGS
 70
     8
  9
$HANDSEED
  5
3BD
  9
$SURFTAB1
 70
     6
  9
$SURFTAB2
 70
     6
  9
$SURFTYPE
 70
     6
  9
$SURFU
 70
     6
  9
$SURFV
 70
     6
  9
$UCSBASE
  2

  9
$UCSNAME
  2

  9
$UCSORG
 10
0.0
 20
0.0
 30
0.0
  9
$UCSXDIR
 10
1.0
 20
0.0
 30
0.0
  9
$UCSYDIR
 10
0.0
 20
1.0
 30
0.0
  9
$UCSORTHOREF
  2

  9
$UCSORTHOVIEW
 70
     0
  9
$UCSORGTOP
 10
0.0
 20
0.0
 30
0.0
  9
$UCSORGBOTTOM
 10
0.0
 20
0.0
 30
0.0
  9
$UCSORGLEFT
 10
0.0
 20
0.0
 30
0.0
  9
$UCSORGRIGHT
 10
0.0
 20
0.0
 30
0.0
  9
$UCSORGFRONT
 10
0.0
 20
0.0
 30
0.0
  9
$UCSORGBACK
 10
0.0
 20
0.0
 30
0.0
  9
$PUCSBASE
  2

  9
$PUCSNAME
  2

  9
$PUCSORG
 10
0.0
 20
0.0
 30
0.0
  9
$PUCSXDIR
 10
1.0
 20
0.0
 30
0.0
  9
$PUCSYDIR
 10
0.0
 20
1.0
 30
0.0
  9
$PUCSORTHOREF
  2

  9
$PUCSORTHOVIEW
 70
     0
  9
$PUCSORGTOP
 10
0.0
 20
0.0
 30
0.0
  9
$PUCSORGBOTTOM
 10
0.0
 20
0.0
 30
0.0
  9
$PUCSORGLEFT
 10
0.0
 20
0.0
 30
0.0
  9
$PUCSORGRIGHT
 10
0.0
 20
0.0
 30
0.0
  9
$PUCSORGFRONT
 10
0.0
 20
0.0
 30
0.0
  9
$PUCSORGBACK
 10
0.0
 20
0.0
 30
0.0
  9
$USERI1
 70
     0
  9
$USERI2
 70
     0
  9
$USERI3
 70
     0
  9
$USERI4
 70
     0
  9
$USERI5
 70
     0
  9
$USERR1
 40
0.0
  9
$USERR2
 40
0.0
  9
$USERR3
 40
0.0
  9
$USERR4
 40
0.0
  9
$USERR5
 40
0.0
  9
$WORLDVIEW
 70
     1
  9
$SHADEDGE
 70
     3
  9
$SHADEDIF
 70
    70
  9
$TILEMODE
 70
     1
  9
$MAXACTVP
 70
    48
  9
$PINSBASE
 10
0.0
 20
0.0
 30
0.0
  9
$PLIMCHECK
 70
     0
  9
$PEXTMIN
 10
1.000000000000000E+20
 20
1.000000000000000E+20
 30
1.000000000000000E+20
  9
$PEXTMAX
 10
-1.000000000000000E+20
 20
-1.000000000000000E+20
 30
-1.000000000000000E+20
  9
$PLIMMIN
 10
0.0
 20
0.0
  9
$PLIMMAX
 10
420.0
 20
297.0
  9
$UNITMODE
 70
     0
  9
$VISRETAIN
 70
     1
  9
$PLINEGEN
 70
     0
  9
$PSLTSCALE
 70
     1
  9
$TREEDEPTH
 70
  3020
  9
$CMLSTYLE
  2
Standard
  9
$CMLJUST
 70
     0
  9
$CMLSCALE
 40
20.0
  9
$PROXYGRAPHICS
 70
     1
  9
$MEASUREMENT
 70
     1
  9
$CELWEIGHT
370
    -1
  9
$ENDCAPS
280
     0
  9
$JOINSTYLE
280
     0
  9
$LWDISPLAY
290
     0
  9
$INSUNITS
 70
     4
  9
$HYPERLINKBASE
  1

  9
$STYLESHEET
  1

  9
$XEDIT
290
     1
  9
$CEPSNTYPE
380
     0
  9
$PSTYLEMODE
290
     1
  9
$FINGERPRINTGUID
  2
{74C5961D-336A-11D7-818F-00D0B7A04F89}
  9
$VERSIONGUID
  2
{4901E687-B62D-43E8-AAFC-7596C6AEFABE}
  9
$EXTNAMES
290
     1
  9
$PSVPSCALE
 40
0.0
  9
$OLESTARTUP
290
     0
  9
$SORTENTS
280
   127
  9
$INDEXCTL
280
     0
  9
$HIDETEXT
280
     0
  9
$XCLIPFRAME
280
     0
  9
$HALOGAP
280
     0
  9
$OBSCOLOR
 70
   257
  9
$OBSLTYPE
280
     0
  9
$INTERSECTIONDISPLAY
280
     0
  9
$INTERSECTIONCOLOR
 70
   257
  9
$DIMASSOC
280
     1
  9
$PROJECTNAME
  1

  9
$CAMERADISPLAY
290
     0
  9
$LENSLENGTH
 40
50.0
  9
$CAMERAHEIGHT
 40
0.0
  9
$STEPSPERSEC
 40
2.0
  9
$STEPSIZE
 40
6.0
  9
$3DDWFPREC
 40
2.0
  9
$PSOLWIDTH
 40
0.25
  9
$PSOLHEIGHT
 40
4.0
  9
$LOFTANG1
 40
1.570796326794897
  9
$LOFTANG2
 40
1.570796326794897
  9
$LOFTMAG1
 40
0.0
  9
$LOFTMAG2
 40
0.0
  9
$LOFTPARAM
 70
     7
  9
$LOFTNORMALS
280
     1
  9
$LATITUDE
 40
37.795
  9
$LONGITUDE
 40
-122.394
  9
$NORTHDIRECTION
 40
0.0
  9
$TIMEZONE
 70
 -8000
  9
$LIGHTGLYPHDISPLAY
280
     1
  9
$TILEMODELIGHTSYNCH
280
     1
  9
$SOLIDHIST
280
     0
  9
$SHOWHIST
280
     1
  9
$DWFFRAME
280
     2
  9
$DGNFRAME
280
     2
  9
$REALWORLDSCALE
290
     1
  9
$INTERFERECOLOR
 62
   256
  9
$CSHADOW
280
     0
  9
$SHADOWPLANELOCATION
 40
0.0
  0
ENDSEC
  0
SECTION
  2
CLASSES
  0
CLASS
  1
ACDBDICTIONARYWDFLT
  2
AcDbDictionaryWithDefault
  3
ObjectDBX Classes
 90
        0
 91
        4
280
     0
281
     0
  0
CLASS
  1
ACDBPLACEHOLDER
  2
AcDbPlaceHolder
  3
ObjectDBX Classes
 90
        0
 91
        1
280
     0
281
     0
  0
CLASS
  1
LAYOUT
  2
AcDbLayout
  3
ObjectDBX Classes
 90
        0
 91
        1
280
     0
281
     0
  0
CLASS
  1
LONG_TRANSACTION
  2
AcDbLongTransaction
  3
ObjectDBX Classes
 90
        0
 91
        1
280
     0
281
     0
  0
CLASS
  1
LWPOLYLINE
  2
AcDbPolyline
  3
ObjectDBX Classes
 90
        0
 91
        1
280
     0
281
     1
  0
CLASS
  1
HATCH
  2
AcDbHatch
  3
ObjectDBX Classes
 90
        0
 91
        1
280
     0
281
     1
  0
CLASS
  1
XRECORD
  2
AcDbXrecord
  3
ObjectDBX Classes
 90
        0
 91
        1
280
     0
281
     0
  0
CLASS
  1
LONG_TRANSACTION
  2
AcDbLongTransaction
  3
ObjectDBX Classes
 90
        0
 91
        1
280
     0
281
     0
  0
CLASS
  1
LWPOLYLINE
  2
AcDbPolyline
  3
ObjectDBX Classes
 90
        0
 91
        1
280
     0
281
     1
  0
CLASS
  1
HATCH
  2
AcDbHatch
  3
ObjectDBX Classes
 90
        0
 91
        1
280
     0
281
     1
  0
CLASS
  1
XRECORD
  2
AcDbXrecord
  3
ObjectDBX Classes
 90
        0
 91
        1
280
     0
281
     0
  0
CLASS
  1
LONG_TRANSACTION
  2
AcDbLongTransaction
  3
ObjectDBX Classes
 90
        0
 91
        1
280
     0
281
     0
  0
CLASS
  1
LWPOLYLINE
  2
AcDbPolyline
  3
ObjectDBX Classes
 90
        0
 91
        1
280
     0
281
     1
  0
CLASS
  1
HATCH
  2
AcDbHatch
  3
ObjectDBX Classes
 90
        0
 91
        1
280
     0
281
     1
  0
CLASS
  1
XRECORD
  2
AcDbXrecord
  3
ObjectDBX Classes
 90
        0
 91
        1
280
     0
281
     0
  0
CLASS
  1
LONG_TRANSACTION
  2
AcDbLongTransaction
  3
ObjectDBX Classes
 90
        0
 91
        1
280
     0
281
     0
  0
CLASS
  1
LWPOLYLINE
  2
AcDbPolyline
  3
ObjectDBX Classes
 90
        0
 91
        1
280
     0
281
     1
  0
CLASS
  1
HATCH
  2
AcDbHatch
  3
ObjectDBX Classes
 90
        0
 91
        1
280
     0
281
     1
  0
CLASS
  1
XRECORD
  2
AcDbXrecord
  3
ObjectDBX Classes
 90
        0
 91
        1
280
     0
281
     0
  0
CLASS
  1
VISUALSTYLE
  2
AcDbVisualStyle
  3
ObjectDBX Classes
 90
     4095
 91
        4
280
     0
281
     0
  0
CLASS
  1
SCALE
  2
AcDbScale
  3
ObjectDBX Classes
 90
     1153
 91
        4
280
     0
281
     0
  0
CLASS
  1
MATERIAL
  2
AcDbMaterial
  3
ObjectDBX Classes
 90
     1153
 91
        4
280
     0
281
     0
  0
CLASS
  1
TABLESTYLE
  2
AcDbTableStyle
  3
ObjectDBX Classes
 90
     4095
 91
        4
280
     0
281
     0
  0
CLASS
  1
MLEADERSTYLE
  2
AcDbMLeaderStyle
  3
ACDB_MLEADERSTYLE_CLASS
 90
     4095
 91
        4
280
     0
281
     0
  0
CLASS
  1
DICTIONARYVAR
  2
AcDbDictionaryVar
  3
ObjectDBX Classes
 90
        0
 91
        4
280
     0
281
     0
  0
CLASS
  1
CELLSTYLEMAP
  2
AcDbCellStyleMap
  3
ObjectDBX Classes
 90
     1152
 91
        4
280
     0
281
     0
  0
ENDSEC
  0
SECTION
  2
TABLES
  0
TABLE
  2
VPORT
  5
8
330
0
100
AcDbSymbolTable
 70
     2
  0
VPORT
  5
33F
330
8
100
AcDbSymbolTableRecord
100
AcDbViewportTableRecord
  2
*Active
 70
     0
 10
0.0
 20
0.0
 11
1.0
 21
1.0
 12
518185.2116880131
 22
260321.4981410684
 13
0.0
 23
0.0
 14
10.0
 24
10.0
 15
10.0
 25
10.0
 16
0.0
 26
0.0
 36
1.0
 17
0.0
 27
0.0
 37
0.0
 40
75.6064778228174
 41
1.789077212806026
 42
50.0
 43
0.0
 44
0.0
 50
0.0
 51
0.0
 71
     0
 72
   100
 73
     1
 74
     3
 75
     0
 76
     0
 77
     0
 78
     0
281
     0
 65
     1
110
0.0
120
0.0
130
0.0
111
1.0
121
0.0
131
0.0
112
0.0
122
1.0
132
0.0
 79
     0
146
0.0
348
345
 60
     3
 61
     5
292
     1
282
     1
141
0.0
142
0.0
 63
   256
  0
ENDTAB
  0
TABLE
  2
LTYPE
  5
5
330
0
100
AcDbSymbolTable
 70
     1
  0
LTYPE
  5
14
330
5
100
AcDbSymbolTableRecord
100
AcDbLinetypeTableRecord
  2
ByBlock
 70
     0
  3

 72
    65
 73
     0
 40
0.0
  0
LTYPE
  5
15
330
5
100
AcDbSymbolTableRecord
100
AcDbLinetypeTableRecord
  2
ByLayer
 70
     0
  3

 72
    65
 73
     0
 40
0.0
  0
LTYPE
  5
16
330
5
100
AcDbSymbolTableRecord
100
AcDbLinetypeTableRecord
  2
Continuous
 70
     0
  3
Solid line
 72
    65
 73
     0
 40
0.0
  0
ENDTAB
  0
TABLE
  2
LAYER
  5
2
330
0
100
AcDbSymbolTable
 70
    50
  0
LAYER
  5
10
330
2
100
AcDbSymbolTableRecord
100
AcDbLayerTableRecord
  2
0
 70
     0
 62
     7
  6
Continuous
370
    -3
390
F
347
37D
  0
LAYER
  5
2B
330
2
100
AcDbSymbolTableRecord
100
AcDbLayerTableRecord
  2
roads
 70
     0
 62
     3
  6
Continuous
370
    -3
390
F
347
37D
  0
LAYER
  5
2D
330
2
100
AcDbSymbolTableRecord
100
AcDbLayerTableRecord
  2
LOExc
 70
     0
 62
     1
  6
Continuous
370
    -3
390
F
347
37D
  0
LAYER
  5
2E
330
2
100
AcDbSymbolTableRecord
100
AcDbLayerTableRecord
  2
priory
 70
     0
 62
     6
  6
Continuous
370
    -3
390
F
347
37D
  0
LAYER
  5
2F
330
2
100
AcDbSymbolTableRecord
100
AcDbLayerTableRecord
  2
101
 70
     0
 62
     7
  6
Continuous
370
    -3
390
F
347
37D
  0
LAYER
  5
30
330
2
100
AcDbSymbolTableRecord
100
AcDbLayerTableRecord
  2
102
 70
     0
 62
     7
  6
Continuous
370
    -3
390
F
347
37D
  0
LAYER
  5
31
330
2
100
AcDbSymbolTableRecord
100
AcDbLayerTableRecord
  2
103
 70
     0
 62
     7
  6
Continuous
370
    -3
390
F
347
37D
  0
LAYER
  5
32
330
2
100
AcDbSymbolTableRecord
100
AcDbLayerTableRecord
  2
104
 70
     0
 62
     7
  6
Continuous
370
    -3
390
F
347
37D
  0
LAYER
  5
33
330
2
100
AcDbSymbolTableRecord
100
AcDbLayerTableRecord
  2
105
 70
     0
 62
     7
  6
Continuous
370
    -3
390
F
347
37D
  0
LAYER
  5
34
330
2
100
AcDbSymbolTableRecord
100
AcDbLayerTableRecord
  2
106
 70
     0
 62
     7
  6
Continuous
370
    -3
390
F
347
37D
  0
LAYER
  5
35
330
2
100
AcDbSymbolTableRecord
100
AcDbLayerTableRecord
  2
107
 70
     0
 62
     7
  6
Continuous
370
    -3
390
F
347
37D
  0
LAYER
  5
36
330
2
100
AcDbSymbolTableRecord
100
AcDbLayerTableRecord
  2
road2
 70
     0
 62
    21
  6
Continuous
370
    -3
390
F
347
37D
  0
LAYER
  5
92
330
2
100
AcDbSymbolTableRecord
100
AcDbLayerTableRecord
  2
21
 70
     0
 62
     7
  6
Continuous
370
    -3
390
F
347
37D
  0
LAYER
  5
93
330
2
100
AcDbSymbolTableRecord
100
AcDbLayerTableRecord
  2
22
 70
     0
 62
     7
  6
Continuous
370
    -3
390
F
347
37D
  0
LAYER
  5
94
330
2
100
AcDbSymbolTableRecord
100
AcDbLayerTableRecord
  2
23
 70
     0
 62
     7
  6
Continuous
370
    -3
390
F
347
37D
  0
LAYER
  5
95
330
2
100
AcDbSymbolTableRecord
100
AcDbLayerTableRecord
  2
35
 70
     0
 62
     7
  6
Continuous
370
    -3
390
F
347
37D
  0
LAYER
  5
97
330
2
100
AcDbSymbolTableRecord
100
AcDbLayerTableRecord
  2
8
 70
     0
 62
     7
  6
Continuous
370
    -3
390
F
347
37D
  0
LAYER
  5
98
330
2
100
AcDbSymbolTableRecord
100
AcDbLayerTableRecord
  2
9
 70
     0
 62
     7
  6
Continuous
370
    -3
390
F
347
37D
  0
LAYER
  5
99
330
2
100
AcDbSymbolTableRecord
100
AcDbLayerTableRecord
  2
18
 70
     0
 62
     7
  6
Continuous
370
    -3
390
F
347
37D
  0
LAYER
  5
9A
330
2
100
AcDbSymbolTableRecord
100
AcDbLayerTableRecord
  2
19
 70
     0
 62
     7
  6
Continuous
370
    -3
390
F
347
37D
  0
LAYER
  5
9B
330
2
100
AcDbSymbolTableRecord
100
AcDbLayerTableRecord
  2
11
 70
     0
 62
     7
  6
Continuous
370
    -3
390
F
347
37D
  0
LAYER
  5
9C
330
2
100
AcDbSymbolTableRecord
100
AcDbLayerTableRecord
  2
20
 70
     0
 62
     7
  6
Continuous
370
    -3
390
F
347
37D
  0
LAYER
  5
9D
330
2
100
AcDbSymbolTableRecord
100
AcDbLayerTableRecord
  2
24
 70
     0
 62
     7
  6
Continuous
370
    -3
390
F
347
37D
  0
LAYER
  5
9E
330
2
100
AcDbSymbolTableRecord
100
AcDbLayerTableRecord
  2
25
 70
     0
 62
     7
  6
Continuous
370
    -3
390
F
347
37D
  0
LAYER
  5
9F
330
2
100
AcDbSymbolTableRecord
100
AcDbLayerTableRecord
  2
3
 70
     0
 62
     7
  6
Continuous
370
    -3
390
F
347
37D
  0
LAYER
  5
A0
330
2
100
AcDbSymbolTableRecord
100
AcDbLayerTableRecord
  2
1
 70
     0
 62
     7
  6
Continuous
370
    -3
390
F
347
37D
  0
LAYER
  5
A1
330
2
100
AcDbSymbolTableRecord
100
AcDbLayerTableRecord
  2
4
 70
     0
 62
     7
  6
Continuous
370
    -3
390
F
347
37D
  0
LAYER
  5
A2
330
2
100
AcDbSymbolTableRecord
100
AcDbLayerTableRecord
  2
5
 70
     0
 62
     7
  6
Continuous
370
    -3
390
F
347
37D
  0
LAYER
  5
A3
330
2
100
AcDbSymbolTableRecord
100
AcDbLayerTableRecord
  2
10
 70
     0
 62
     7
  6
Continuous
370
    -3
390
F
347
37D
  0
LAYER
  5
A4
330
2
100
AcDbSymbolTableRecord
100
AcDbLayerTableRecord
  2
6
 70
     0
 62
     7
  6
Continuous
370
    -3
390
F
347
37D
  0
LAYER
  5
A5
330
2
100
AcDbSymbolTableRecord
100
AcDbLayerTableRecord
  2
27
 70
     0
 62
     7
  6
Continuous
370
    -3
390
F
347
37D
  0
LAYER
  5
A6
330
2
100
AcDbSymbolTableRecord
100
AcDbLayerTableRecord
  2
17
 70
     0
 62
     7
  6
Continuous
370
    -3
390
F
347
37D
  0
LAYER
  5
A7
330
2
100
AcDbSymbolTableRecord
100
AcDbLayerTableRecord
  2
29
 70
     0
 62
     7
  6
Continuous
370
    -3
390
F
347
37D
  0
LAYER
  5
A8
330
2
100
AcDbSymbolTableRecord
100
AcDbLayerTableRecord
  2
30
 70
     0
 62
     7
  6
Continuous
370
    -3
390
F
347
37D
  0
LAYER
  5
A9
330
2
100
AcDbSymbolTableRecord
100
AcDbLayerTableRecord
  2
2
 70
     0
 62
     7
  6
Continuous
370
    -3
390
F
347
37D
  0
LAYER
  5
AA
330
2
100
AcDbSymbolTableRecord
100
AcDbLayerTableRecord
  2
34
 70
     0
 62
     7
  6
Continuous
370
    -3
390
F
347
37D
  0
LAYER
  5
AB
330
2
100
AcDbSymbolTableRecord
100
AcDbLayerTableRecord
  2
40
 70
     0
 62
     7
  6
Continuous
370
    -3
390
F
347
37D
  0
LAYER
  5
AC
330
2
100
AcDbSymbolTableRecord
100
AcDbLayerTableRecord
  2
41
 70
     0
 62
     7
  6
Continuous
370
    -3
390
F
347
37D
  0
LAYER
  5
AD
330
2
100
AcDbSymbolTableRecord
100
AcDbLayerTableRecord
  2
7
 70
     0
 62
     7
  6
Continuous
370
    -3
390
F
347
37D
  0
LAYER
  5
AE
330
2
100
AcDbSymbolTableRecord
100
AcDbLayerTableRecord
  2
12
 70
     0
 62
     7
  6
Continuous
370
    -3
390
F
347
37D
  0
LAYER
  5
AF
330
2
100
AcDbSymbolTableRecord
100
AcDbLayerTableRecord
  2
13
 70
     0
 62
     7
  6
Continuous
370
    -3
390
F
347
37D
  0
LAYER
  5
B0
330
2
100
AcDbSymbolTableRecord
100
AcDbLayerTableRecord
  2
16
 70
     0
 62
     7
  6
Continuous
370
    -3
390
F
347
37D
  0
LAYER
  5
B1
330
2
100
AcDbSymbolTableRecord
100
AcDbLayerTableRecord
  2
42
 70
     0
 62
     7
  6
Continuous
370
    -3
390
F
347
37D
  0
LAYER
  5
B2
330
2
100
AcDbSymbolTableRecord
100
AcDbLayerTableRecord
  2
43
 70
     0
 62
     7
  6
Continuous
370
    -3
390
F
347
37D
  0
LAYER
  5
B3
330
2
100
AcDbSymbolTableRecord
100
AcDbLayerTableRecord
  2
32
 70
     0
 62
     7
  6
Continuous
370
    -3
390
F
347
37D
  0
LAYER
  5
B4
330
2
100
AcDbSymbolTableRecord
100
AcDbLayerTableRecord
  2
37
 70
     0
 62
     7
  6
Continuous
370
    -3
390
F
347
37D
  0
LAYER
  5
B5
330
2
100
AcDbSymbolTableRecord
100
AcDbLayerTableRecord
  2
38
 70
     0
 62
     7
  6
Continuous
370
    -3
390
F
347
37D
  0
LAYER
  5
B6
330
2
100
AcDbSymbolTableRecord
100
AcDbLayerTableRecord
  2
31
 70
     0
 62
     7
  6
Continuous
370
    -3
390
F
347
37D
  0
LAYER
  5
D5
330
2
100
AcDbSymbolTableRecord
100
AcDbLayerTableRecord
  2
14
 70
     0
 62
     7
  6
Continuous
370
    -3
390
F
347
37D
  0
LAYER
  5
122
330
2
100
AcDbSymbolTableRecord
100
AcDbLayerTableRecord
  2
15
 70
     0
 62
     7
  6
Continuous
370
    -3
390
F
347
37D
  0
ENDTAB
  0
TABLE
  2
STYLE
  5
3
330
0
100
AcDbSymbolTable
 70
     1
  0
STYLE
  5
11
330
3
100
AcDbSymbolTableRecord
100
AcDbTextStyleTableRecord
  2
Standard
 70
     0
 40
0.12
 41
1.0
 50
0.0
 71
     0
 42
0.12
  3
TIMES.TTF
  4

1001
ACAD
1000
Times New Roman
1071
       18
  0
ENDTAB
  0
TABLE
  2
VIEW
  5
6
330
0
100
AcDbSymbolTable
 70
     0
  0
ENDTAB
  0
TABLE
  2
UCS
  5
7
330
0
100
AcDbSymbolTable
 70
     0
  0
ENDTAB
  0
TABLE
  2
APPID
  5
9
330
0
100
AcDbSymbolTable
 70
     1
  0
APPID
  5
12
330
9
100
AcDbSymbolTableRecord
100
AcDbRegAppTableRecord
  2
ACAD
 70
     0
  0
ENDTAB
  0
TABLE
  2
DIMSTYLE
  5
A
330
0
100
AcDbSymbolTable
 70
     1
100
AcDbDimStyleTable
  0
DIMSTYLE
105
27
330
A
100
AcDbSymbolTableRecord
100
AcDbDimStyleTableRecord
  2
ISO-25
 70
     0
 41
2.5
 42
0.625
 43
3.75
 44
1.25
 73
     0
 74
     0
 77
     1
 78
     8
140
2.5
141
2.5
143
0.03937007874016
147
0.625
171
     3
172
     1
178
     0
271
     2
272
     2
274
     3
278
    44
283
     0
284
     8
340
11
  0
ENDTAB
  0
TABLE
  2
BLOCK_RECORD
  5
1
330
0
100
AcDbSymbolTable
 70
     1
  0
BLOCK_RECORD
  5
1F
330
1
100
AcDbSymbolTableRecord
100
AcDbBlockTableRecord
  2
*Model_Space
340
22
 70
     0
280
     1
281
     0
  0
BLOCK_RECORD
  5
1B
330
1
100
AcDbSymbolTableRecord
100
AcDbBlockTableRecord
  2
*Paper_Space
340
1E
 70
     0
280
     1
281
     0
  0
BLOCK_RECORD
  5
23
330
1
100
AcDbSymbolTableRecord
100
AcDbBlockTableRecord
  2
*Paper_Space0
340
26
 70
     0
280
     1
281
     0
  0
ENDTAB
  0
ENDSEC
  0
SECTION
  2
BLOCKS
  0
BLOCK
  5
20
330
1F
100
AcDbEntity
  8
0
370
    -1
100
AcDbBlockBegin
  2
*Model_Space
 70
     0
 10
0.0
 20
0.0
 30
0.0
  3
*Model_Space
  1

  0
ENDBLK
  5
21
330
1F
100
AcDbEntity
  8
0
370
    -1
100
AcDbBlockEnd
  0
BLOCK
  5
1C
330
1B
100
AcDbEntity
 67
     1
  8
0
370
    -1
100
AcDbBlockBegin
  2
*Paper_Space
 70
     0
 10
0.0
 20
0.0
 30
0.0
  3
*Paper_Space
  1

  0
ENDBLK
  5
1D
330
1B
100
AcDbEntity
 67
     1
  8
0
370
    -1
100
AcDbBlockEnd
  0
BLOCK
  5
24
330
23
100
AcDbEntity
  8
0
370
    -1
100
AcDbBlockBegin
  2
*Paper_Space0
 70
     0
 10
0.0
 20
0.0
 30
0.0
  3
*Paper_Space0
  1

  0
ENDBLK
  5
25
330
23
100
AcDbEntity
  8
0
370
    -1
100
AcDbBlockEnd
  0
ENDSEC
  0
SECTION
  2
ENTITIES
  0
LWPOLYLINE
  5
6B
330
1F
100
AcDbEntity
  8
priory
370
    -1
100
AcDbPolyline
 90
       20
 70
     0
 43
0.0
 10
518137.7447370381
 20
260294.1587659121
 10
518136.3136311155
 20
260300.1851224969
 10
518146.1420212559
 20
260302.4048989686
 10
518136.2139147082
 20
260342.9522131011
 10
518146.0906545544
 20
260345.4747099325
 10
518143.3284410484
 20
260356.4645105588
 10
518151.5368600382
 20
260358.2600507683
 10
518155.2085178992
 20
260342.4683563372
 10
518159.3053842015
 20
260343.3469599315
 10
518161.1263047659
 20
260336.3698349
 10
518165.6054124352
 20
260337.4164731655
 10
518165.2940299601
 20
260338.898524512
 10
518172.3395866764
 20
260340.5714923843
 10
518174.8752273687
 20
260341.1791917995
 10
518171.9853602697
 20
260354.8013811386
 10
518190.7666025606
 20
260358.8797825198
 10
518193.1515263316
 20
260349.1470515594
 10
518183.4184324244
 20
260346.8670939626
 10
518187.0932919952
 20
260331.5780193515
 10
518188.9217599098
 20
260332.0610173574
  0
LWPOLYLINE
  5
71
330
1F
100
AcDbEntity
  8
priory
370
    -1
100
AcDbPolyline
 90
        4
 70
     0
 43
0.0
 10
518137.7447370381
 20
260294.1587659121
 10
518139.896098028
 20
260284.1164996169
 10
518210.2716889028
 20
260300.7963289818
 10
518206.3927223179
 20
260317.3320024479
  0
LWPOLYLINE
  5
73
330
1F
100
AcDbEntity
  8
priory
370
    -1
100
AcDbPolyline
 90
        5
 70
     0
 43
0.0
 10
518154.4162308439
 20
260323.0305885575
 10
518157.5869864012
 20
260308.8882380473
 10
518177.5497049541
 20
260313.420232258
 10
518174.5641624721
 20
260327.5693977435
 10
518154.35317855
 20
260323.0513640243
  0
LWPOLYLINE
  5
74
330
1F
100
AcDbEntity
  8
priory
370
    -1
100
AcDbPolyline
 90
        5
 70
     0
 43
0.0
 10
518155.5964043859
 20
260304.575220691
 10
518150.6767894175
 20
260324.4970817982
 10
518177.2924436879
 20
260330.3215686396
 10
518181.8197681984
 20
260310.6379238106
 10
518155.5706124752
 20
260304.5343794483
  0
LWPOLYLINE
  5
77
330
1F
100
AcDbEntity
  8
LOExc
370
    -1
100
AcDbPolyline
 90
        6
 70
     0
 43
0.0
 10
518190.2785654266
 20
260313.2370218715
 10
518188.2705943683
 20
260313.2387231849
 10
518188.4091590513
 20
260314.9507888588
 10
518190.2079074517
 20
260315.1002581503
 10
518190.2519828102
 20
260314.8534283655
 10
518195.8334780684
 20
260315.1535160399
  0
LWPOLYLINE
  5
78
330
1F
100
AcDbEntity
  8
priory
370
    -1
100
AcDbPolyline
 90
        2
 70
     0
 43
0.0
 10
518191.2994182626
 20
260316.5723414207
 10
518193.3684259634
 20
260313.5613732154
  0
LWPOLYLINE
  5
7A
330
1F
100
AcDbEntity
  8
priory
370
    -1
100
AcDbPolyline
 90
        3
 70
     0
 43
0.0
 10
518191.5198177391
 20
260322.8316321107
 10
518189.4864339199
 20
260322.32569716
 10
518190.3202686681
 20
260317.9619352969
  0
LWPOLYLINE
  5
7B
330
1F
100
AcDbEntity
  8
106
 62
     2
370
    -1
100
AcDbPolyline
 90
       15
 70
     1
 43
0.0
 10
518213.958633588
 20
260316.2807498826
 10
518213.7589221614
 20
260316.3339601076
 10
518213.6061279444
 20
260316.2190108349
 10
518213.3817506764
 20
260315.7482580411
 10
518213.1390005826
 20
260315.1214131527
 10
518212.9236707651
 20
260314.7688951018
 10
518212.8657978524
 20
260314.5502549993
 10
518212.9258817576
 20
260314.4029448376
 10
518213.1124264885
 20
260314.3288852767
 10
518213.4188486974
 20
260314.3176516485
 10
518213.5968770132
 20
260314.5187402926
 10
518213.8593771504
 20
260315.1768591849
 10
518214.129559928
 20
260315.8009620456
 10
518214.2420202832
 20
260316.0944954839
 10
518214.1254282755
 20
260316.1754163177
  0
LWPOLYLINE
  5
7C
330
1F
100
AcDbEntity
  8
105
 62
     2
370
    -1
100
AcDbPolyline
 90
       17
 70
     1
 43
0.0
 10
518214.4077934047
 20
260314.7745913736
 10
518214.5003017719
 20
260314.5825579549
 10
518214.6815327708
 20
260314.541594706
 10
518215.0867178729
 20
260314.633107186
 10
518215.8719521582
 20
260314.8186446011
 10
518216.1896651717
 20
260314.8985906931
 10
518216.4113614759
 20
260314.9322826015
 10
518216.6086744609
 20
260315.0014149051
 10
518216.6021329829
 20
260315.1391588316
 10
518216.547832122
 20
260315.3070635871
 10
518216.3857048763
 20
260315.3359625043
 10
518216.1152419334
 20
260315.3731513863
 10
518215.6545054272
 20
260315.31003988
 10
518215.0673367265
 20
260315.2265627086
 10
518214.5598480931
 20
260315.15289207
 10
518214.4371902655
 20
260315.0432944611
 10
518214.4281477011
 20
260314.9020308239
  0
LWPOLYLINE
  5
7D
330
1F
100
AcDbEntity
  8
102
 62
     2
370
    -1
100
AcDbPolyline
 90
       15
 70
     1
 43
0.0
 10
518218.7882737986
 20
260314.439016806
 10
518218.9110145439
 20
260314.2952319975
 10
518219.1825298237
 20
260314.212128373
 10
518219.8645829854
 20
260314.4304868879
 10
518220.4960214336
 20
260314.6197099109
 10
518220.9370814107
 20
260314.7167197471
 10
518221.3044490526
 20
260314.8087176649
 10
518221.3307635296
 20
260314.9320072549
 10
518221.2728516311
 20
260315.1084871746
 10
518221.1595289624
 20
260315.2905056651
 10
518220.8664082439
 20
260315.2694365405
 10
518220.222267439
 20
260315.1239550748
 10
518219.2046590458
 20
260314.9934177259
 10
518218.8048769805
 20
260314.8850722526
 10
518218.7511378062
 20
260314.6833755455
  0
MTEXT
  5
7F
330
1F
100
AcDbEntity
  8
107
370
    -1
100
AcDbMText
 10
518214.1455588658
 20
260324.5030017337
 30
0.0
 40
1.0
 41
17.87917637503939
 46
0.0
 71
     1
 72
     5
  1
Graves 101 - 107 represent graves 1-7 from 1989 watching brief (Horton and Wait 1989)
 73
     1
 44
1.0
  0
LWPOLYLINE
  5
80
330
1F
100
AcDbEntity
  8
103
 62
     2
370
    -1
100
AcDbPolyline
 90
       15
 70
     1
 43
0.0
 10
518220.9592004392
 20
260316.2541515724
 10
518221.0619453787
 20
260316.0993989186
 10
518221.2161827785
 20
260316.0918630349
 10
518221.5844764489
 20
260316.1496208897
 10
518222.3637145857
 20
260316.3764596942
 10
518223.4475219441
 20
260316.6805607168
 10
518223.5458342875
 20
260316.7705584137
 10
518223.5767801127
 20
260316.896186277
 10
518223.5224125822
 20
260317.0618651386
 10
518223.3294182008
 20
260317.1284411302
 10
518222.9832286913
 20
260317.1604174634
 10
518221.4923706809
 20
260316.8575986939
 10
518220.9979338932
 20
260316.7205058412
 10
518220.9167896245
 20
260316.5920146716
 10
518220.9209587115
 20
260316.4234725034
  0
MTEXT
  5
81
330
1F
100
AcDbEntity
  8
107
370
    -1
100
AcDbMText
 10
518210.9655181505
 20
260316.2281523128
 30
0.0
 40
0.12
 41
1.002
 46
0.0
 71
     1
 72
     5
  1
107
 73
     1
 44
1.0
  0
LWPOLYLINE
  5
82
330
1F
100
AcDbEntity
  8
107
 62
     2
370
    -1
100
AcDbPolyline
 90
       13
 70
     1
 43
0.0
 10
518211.5718662528
 20
260316.2811727734
 10
518210.9754529364
 20
260316.1751031677
 10
518210.8172719899
 20
260316.0725684206
 10
518210.5343057658
 20
260315.8464090168
 10
518210.6511972323
 20
260315.6246615616
 10
518210.8917001066
 20
260315.573994372
 10
518211.1925446596
 20
260315.5942204407
 10
518211.6342853897
 20
260315.7512540156
 10
518211.8841527244
 20
260315.9126730411
 10
518212.4641583613
 20
260316.0913900851
 10
518212.5036936612
 20
260316.3389229292
 10
518212.2784245965
 20
260316.3643982893
 10
518211.8908726654
 20
260316.3055007619
  0
MTEXT
  5
83
330
1F
100
AcDbEntity
  8
106
370
    -1
100
AcDbMText
 10
518213.5359120347
 20
260315.7929714079
 30
0.0
 40
0.12
 41
0.7406
 46
0.0
 71
     1
 72
     5
  1
106
 73
     1
 44
1.0
  0
LWPOLYLINE
  5
84
330
1F
100
AcDbEntity
  8
104
 62
     2
370
    -1
100
AcDbPolyline
 90
       16
 70
     1
 43
0.0
 10
518215.654877257
 20
260315.6777079775
 10
518215.7731290015
 20
260315.5086759879
 10
518216.0473057657
 20
260315.437140982
 10
518216.5729802345
 20
260315.5914554203
 10
518216.899308214
 20
260315.6829522476
 10
518217.3946681832
 20
260315.8927008194
 10
518217.6945055587
 20
260316.0227009146
 10
518217.9012231746
 20
260316.1316695847
 10
518217.9880537625
 20
260316.3381228874
 10
518217.8990222115
 20
260316.4959598548
 10
518217.7247953561
 20
260316.5188908766
 10
518217.4689204276
 20
260316.4699978771
 10
518216.8178997519
 20
260316.3585515796
 10
518216.1032561744
 20
260316.1348660451
 10
518215.8495698578
 20
260315.9974948232
 10
518215.6485880852
 20
260315.863129855
  0
MTEXT
  5
85
330
1F
100
AcDbEntity
  8
105
370
    -1
100
AcDbMText
 10
518214.7993264329
 20
260315.2272365015
 30
0.0
 40
0.12
 41
1.0891
 46
0.0
 71
     1
 72
     5
  1
105
 73
     1
 44
1.0
  0
MTEXT
  5
86
330
1F
100
AcDbEntity
  8
104
370
    -1
100
AcDbMText
 10
518216.3677021416
 20
260316.0975979256
 30
0.0
 40
0.12
 41
1.0456
 46
0.0
 71
     1
 72
     5
  1
104
 73
     1
 44
1.0
  0
MTEXT
  5
87
330
1F
100
AcDbEntity
  8
103
370
    -1
100
AcDbMText
 10
518221.2006877165
 20
260316.7122845553
 30
0.0
 40
0.12
 41
1.1023
 46
0.0
 71
     1
 72
     5
  1
103
 73
     1
 44
1.0
  0
MTEXT
  5
88
330
1F
100
AcDbEntity
  8
102
370
    -1
100
AcDbMText
 10
518219.0369908094
 20
260314.9179837524
 30
0.0
 40
0.12
 41
1.0818
 46
0.0
 71
     1
 72
     5
  1
102
 73
     1
 44
1.0
  0
MTEXT
  5
89
330
1F
100
AcDbEntity
  8
101
370
    -1
100
AcDbMText
 10
518222.711193043
 20
260315.3461691844
 30
0.0
 40
0.12
 41
0.7553
 46
0.0
 71
     1
 72
     5
  1
101
 73
     1
 44
1.0
  0
LWPOLYLINE
  5
8A
330
1F
100
AcDbEntity
  8
101
 62
     2
370
    -1
100
AcDbPolyline
 90
       10
 70
     1
 43
0.0
 10
518222.6238614301
 20
260315.1548235959
 10
518222.678437204
 20
260314.8775651756
 10
518222.8105272372
 20
260314.8269580211
 10
518223.120378809
 20
260314.8084549198
 10
518224.6399892728
 20
260315.1677523169
 10
518224.6691140699
 20
260315.3593426066
 10
518224.6700922664
 20
260315.5687079334
 10
518224.5076267739
 20
260315.7894230202
 10
518222.7764221244
 20
260315.5834367147
 10
518222.6643359872
 20
260315.5098575747
  0
LWPOLYLINE
  5
8B
330
1F
100
AcDbEntity
  8
LOExc
370
    -1
100
AcDbPolyline
 90
       17
 70
     0
 43
0.0
 10
518220.5232038181
 20
260284.8163865069
 10
518220.4379483335
 20
260285.4383126748
 10
518220.5061279071
 20
260285.490847341
 10
518217.8909808929
 20
260300.3466783678
 10
518217.7952815327
 20
260300.3294973395
 10
518216.6322601213
 20
260306.5016747362
 10
518224.6404636443
 20
260308.2602437471
 10
518225.8940455278
 20
260302.2455068511
 10
518226.0949801029
 20
260301.0518438389
 10
518226.9832001604
 20
260298.2622142582
 10
518227.9203672156
 20
260295.1678838614
 10
518229.9850033478
 20
260288.2159051435
 10
518226.2491520276
 20
260287.3118401036
 10
518226.3723458396
 20
260286.7325201529
 10
518221.851168112
 20
260285.7791687305
 10
518222.0557587404
 20
260284.8371247889
 10
518220.5283390048
 20
260284.839010454
  0
LWPOLYLINE
  5
8C
330
1F
100
AcDbEntity
  8
LOExc
370
    -1
100
AcDbPolyline
 90
        5
 70
     0
 43
0.0
 10
518220.2209294289
 20
260287.5253550282
 10
518222.1449134675
 20
260287.8538321753
 10
518222.3883263475
 20
260286.0384367526
 10
518220.4871600133
 20
260285.7476015982
 10
518220.2310060451
 20
260287.5278257429
  0
LWPOLYLINE
  5
8D
330
1F
100
AcDbEntity
  8
LOExc
370
    -1
100
AcDbPolyline
 90
       20
 70
     0
 43
0.0
 10
518219.5706236471
 20
260291.1745008431
 10
518219.8301677487
 20
260291.2538486517
 10
518219.9721977644
 20
260291.4998082511
 10
518220.4447843498
 20
260291.391980727
 10
518221.7894370402
 20
260291.5947477575
 10
518221.8757069011
 20
260291.1967727061
 10
518226.6148938767
 20
260292.5039429044
 10
518226.3975393652
 20
260293.4057829586
 10
518228.2643778353
 20
260293.8955657475
 10
518228.921613289
 20
260291.7763331778
 10
518226.9288570075
 20
260291.2644735211
 10
518226.7693977587
 20
260291.6149693108
 10
518223.1840118323
 20
260290.5969867111
 10
518223.3083339956
 20
260290.2667809237
 10
518222.3579205208
 20
260289.8810505508
 10
518222.2133539453
 20
260290.1861844713
 10
518221.9084251796
 20
260290.08691138
 10
518221.9841625248
 20
260289.5858134266
 10
518219.8789019719
 20
260289.2355101564
 10
518219.5730943618
 20
260291.1644242269
  0
LWPOLYLINE
  5
8E
330
1F
100
AcDbEntity
  8
LOExc
370
    -1
100
AcDbPolyline
 90
        5
 70
     0
 43
0.0
 10
518219.0762666882
 20
260293.6981290271
 10
518220.594931916
 20
260293.9856639901
 10
518220.2836243996
 20
260295.8114323638
 10
518218.712105376
 20
260295.5216204433
 10
518219.0787601979
 20
260293.6930850203
  0
LWPOLYLINE
  5
8F
330
1F
100
AcDbEntity
  8
LOExc
370
    -1
100
AcDbPolyline
 90
       36
 70
     0
 43
0.0
 10
518221.5172113777
 20
260292.0489249259
 10
518221.1243626554
 20
260292.5388774392
 10
518220.8992654725
 20
260293.3979745063
 10
518220.5111011173
 20
260294.922128243
 10
518220.3957322989
 20
260296.1179200453
 10
518220.3171937119
 20
260296.5561217791
 10
518220.0990527737
 20
260297.2843368104
 10
518219.8123472873
 20
260298.4305775482
 10
518219.7701513796
 20
260298.5591028441
 10
518218.5118526114
 20
260298.3939573138
 10
518218.3412997256
 20
260299.6329784316
 10
518219.6298930541
 20
260299.8153999335
 10
518221.5576357234
 20
260300.4181428934
 10
518222.0606231196
 20
260300.3554720837
 10
518222.5284506353
 20
260300.3080586669
 10
518223.1608979215
 20
260300.4939207487
 10
518223.6829355338
 20
260300.7482245463
 10
518224.0832331327
 20
260300.7917058301
 10
518224.3575787276
 20
260300.8055613321
 10
518224.820373634
 20
260300.7581707104
 10
518225.4551434675
 20
260300.9012442151
 10
518225.6237472785
 20
260300.9029968882
 10
518225.8398961964
 20
260300.2905432696
 10
518226.1082720482
 20
260299.5419698512
 10
518224.739855662
 20
260299.0927075394
 10
518225.0944418474
 20
260297.3774628144
 10
518225.3922839163
 20
260296.4677091266
 10
518226.7888583484
 20
260297.0225308625
 10
518227.3642182914
 20
260295.1603374873
 10
518225.9324497862
 20
260294.6132242302
 10
518226.2823364292
 20
260293.5270898676
 10
518226.2415398725
 20
260293.4090059074
 10
518226.0775241688
 20
260293.3090945569
 10
518223.8777698494
 20
260292.6522238227
 10
518221.6656619563
 20
260292.0457361695
 10
518221.5197960673
 20
260292.0640113565
  0
LWPOLYLINE
  5
90
330
1F
100
AcDbEntity
  8
LOExc
370
    -1
100
AcDbPolyline
 90
       12
 70
     0
 43
0.0
 10
518220.1822124868
 20
260303.9774679114
 10
518220.5858849796
 20
260302.5438327582
 10
518220.8906035108
 20
260301.4855829019
 10
518221.3519420787
 20
260301.6722200128
 10
518222.2961604004
 20
260301.8013101032
 10
518223.6340620008
 20
260302.1802526538
 10
518223.5128057615
 20
260303.1873444
 10
518223.3853087793
 20
260303.9277306452
 10
518223.1169329275
 20
260304.6763040636
 10
518221.7974774764
 20
260304.4809719723
 10
518220.9004534793
 20
260304.2157848769
 10
518220.1898639782
 20
260304.000080461
  0
LWPOLYLINE
  5
91
330
1F
100
AcDbEntity
  8
LOExc
370
    -1
100
AcDbPolyline
 90
       13
 70
     0
 43
0.0
 10
518216.7584868262
 20
260305.8726936791
 10
518217.1594011273
 20
260303.8301127935
 10
518219.0057444403
 20
260304.2394650125
 10
518219.0165846882
 20
260304.4105281408
 10
518219.4471235331
 20
260304.4639378735
 10
518220.3589946135
 20
260304.6736978811
 10
518221.2055101572
 20
260304.8988520514
 10
518221.349338436
 20
260304.9862730584
 10
518221.064978292
 20
260306.0947578285
 10
518218.7497360995
 20
260305.4962863863
 10
518218.586805697
 20
260306.1915387121
 10
518216.7659673553
 20
260305.8575616586
 10
518217.1470019636
 20
260303.8704306558
  0
LWPOLYLINE
  5
B8
330
1F
100
AcDbEntity
  8
31
370
    -1
100
AcDbPolyline
 90
        8
 70
     1
 43
0.0
 10
518217.9239985766
 20
260306.0305061973
 10
518217.9688554342
 20
260305.8644518973
 10
518217.97335566
 20
260305.6456941027
 10
518217.9151072674
 20
260305.47234587
 10
518217.8092265314
 20
260305.3569423462
 10
518217.7034733425
 20
260305.2943394959
 10
518217.5651190539
 20
260305.2670160524
 10
518217.5266088194
 20
260305.9786651645
  0
LWPOLYLINE
  5
B9
330
1F
100
AcDbEntity
  8
31
 62
     2
370
    -1
100
AcDbPolyline
 90
       10
 70
     0
 43
0.0
 10
518217.5651190539
 20
260305.2670160524
 10
518216.5035815288
 20
260305.1213477003
 10
518216.2657898367
 20
260305.1688537214
 10
518216.0279981446
 20
260305.2876187743
 10
518216.0279981446
 20
260305.5964080607
 10
518216.123114947
 20
260305.8339381664
 10
518216.6700357761
 20
260306.0002092405
 10
518217.2645150064
 20
260306.0714682722
 10
518217.8589945507
 20
260306.1189742933
 10
518217.9239985766
 20
260306.0305061973
  0
MTEXT
  5
BB
330
1F
100
AcDbEntity
  8
31
370
    -1
100
AcDbMText
 10
518217.0267238149
 20
260305.8339380485
 30
0.0
 40
0.12
 41
0.5231
 46
0.0
 71
     1
 72
     5
  1
31
 73
     1
 44
1.0
  0
LWPOLYLINE
  5
BC
330
1F
100
AcDbEntity
  8
38
370
    -1
100
AcDbPolyline
 90
       28
 70
     1
 43
0.0
 10
518218.6998841739
 20
260305.5986810904
 10
518218.5967121132
 20
260305.5637296621
 10
518218.4583213825
 20
260305.5213203118
 10
518218.3802985734
 20
260305.4888224646
 10
518218.3349436745
 20
260305.4487027062
 10
518218.2996096046
 20
260305.3934727463
 10
518218.286770774
 20
260305.2828731322
 10
518218.3066970324
 20
260305.2048806914
 10
518218.3616597505
 20
260305.058916639
 10
518218.3990708335
 20
260304.9331096446
 10
518218.4240196538
 20
260304.8525907387
 10
518218.4817396366
 20
260304.8071933241
 10
518218.5822212429
 20
260304.7692356103
 10
518218.6828607648
 20
260304.7966501589
 10
518218.8968267972
 20
260304.8992209257
 10
518219.3499081136
 20
260305.1068160404
 10
518219.8908751527
 20
260305.2664265385
 10
518220.0770439949
 20
260305.3112348066
 10
518220.2958928947
 20
260305.3534497993
 10
518220.3890501999
 20
260305.4060257468
 10
518220.4696541373
 20
260305.466175016
 10
518220.4898962267
 20
260305.5189271001
 10
518220.5026439522
 20
260305.5918119475
 10
518220.500512276
 20
260305.7502200416
 10
518220.437903352
 20
260305.8534589127
 10
518220.3978078883
 20
260305.9088710828
 10
518220.3752519123
 20
260305.9390975593
 10
518218.7423299661
 20
260305.4753762664
  0
MTEXT
  5
BD
330
1F
100
AcDbEntity
  8
38
370
    -1
100
AcDbMText
 10
518218.6912652176
 20
260305.358877779
 30
0.0
 40
0.12
 41
0.6658
 46
0.0
 71
     1
 72
     5
  1
38
 73
     1
 44
1.0
  0
LWPOLYLINE
  5
BE
330
1F
100
AcDbEntity
  8
37
370
    -1
100
AcDbPolyline
 90
       19
 70
     1
 43
0.0
 10
518218.6008416611
 20
260304.1506648457
 10
518218.5384817579
 20
260304.356990746
 10
518218.5463891317
 20
260304.5078315921
 10
518218.5691941284
 20
260304.5806921448
 10
518218.7252397466
 20
260304.6456878393
 10
518219.1403694229
 20
260304.7553156655
 10
518219.3817803724
 20
260304.7698184994
 10
518219.6936833248
 20
260304.8218660371
 10
518220.0058899612
 20
260304.9996294642
 10
518220.2752803111
 20
260305.1473243303
 10
518220.4513979558
 20
260305.1946712109
 10
518220.5744051697
 20
260305.1139154317
 10
518220.6596611748
 20
260305.0181648509
 10
518220.6820349405
 20
260304.9125088408
 10
518220.6918188962
 20
260304.7993402458
 10
518220.6715768068
 20
260304.7465881617
 10
518219.4513613242
 20
260304.4302155355
 10
518218.9685697937
 20
260304.4137814566
 10
518218.9882652524
 20
260304.24024494
  0
MTEXT
  5
BF
330
1F
100
AcDbEntity
  8
37
370
    -1
100
AcDbMText
 10
518220.0704573248
 20
260305.0500887496
 30
0.0
 40
0.12
 41
0.4518
 46
0.0
 71
     1
 72
     5
  1
37
 73
     1
 44
1.0
  0
LWPOLYLINE
  5
C0
330
1F
100
AcDbEntity
  8
32
370
    -1
100
AcDbPolyline
 90
       18
 70
     1
 43
0.0
 10
518220.018425108
 20
260304.9845131891
 10
518220.0487852054
 20
260305.0623841563
 10
518220.0364808582
 20
260305.1730445073
 10
518220.0014443984
 20
260305.2410161189
 10
518219.96132464
 20
260305.2863710179
 10
518219.2391566575
 20
260305.0567969264
 10
518218.8490061699
 20
260304.8792217833
 10
518218.5540596322
 20
260304.5606140445
 10
518218.4129784472
 20
260304.4452955522
 10
518218.3197664789
 20
260304.3700907447
 10
518218.2340488745
 20
260304.2747531738
 10
518218.193613285
 20
260304.1893635479
 10
518218.2035551564
 20
260304.1415672153
 10
518218.2134484383
 20
260304.0736563404
 10
518219.0008064729
 20
260304.2276429827
 10
518218.9937251189
 20
260304.4187493554
 10
518219.1622329999
 20
260304.4384569615
 10
518219.2954979162
 20
260304.4406493745
  0
MTEXT
  5
C1
330
1F
100
AcDbEntity
  8
32
370
    -1
100
AcDbMText
 10
518219.3266746092
 20
260305.0621720729
 30
0.0
 40
0.12
 41
0.3513
 46
0.0
 71
     1
 72
     5
  1
32
 73
     1
 44
1.0
  0
LWPOLYLINE
  5
C2
330
1F
100
AcDbEntity
  8
42
 62
     2
370
    -1
100
AcDbPolyline
 90
       12
 70
     1
 43
0.0
 10
518221.0717872427
 20
260306.0913259998
 10
518220.7978152158
 20
260306.0034494443
 10
518220.6996171277
 20
260305.9458570085
 10
518220.6667123442
 20
260305.8554205261
 10
518220.6815370828
 20
260305.7472684192
 10
518220.7315744178
 20
260305.6440599166
 10
518220.7892275904
 20
260305.5710050062
 10
518220.8947317585
 20
260305.5305208273
 10
518220.9952983963
 20
260305.5277635625
 10
518221.0783194726
 20
260305.5476776735
 10
518221.1538036692
 20
260305.5701243233
 10
518221.2004250906
 20
260305.5651884984
  0
MTEXT
  5
C3
330
1F
100
AcDbEntity
  8
42
370
    -1
100
AcDbMText
 10
518220.7912366098
 20
260305.8865334911
 30
0.0
 40
0.12
 41
0.2518
 46
0.0
 71
     1
 72
     5
  1
42
 73
     1
 44
1.0
  0
LWPOLYLINE
  5
C4
330
1F
100
AcDbEntity
  8
42
 62
     2
370
    -1
100
AcDbPolyline
 90
       10
 70
     0
 43
0.0
 10
518221.064978292
 20
260306.0947578285
 10
518221.6270453539
 20
260306.2496823406
 10
518222.2391098169
 20
260306.341390946
 10
518222.3717241172
 20
260306.341390946
 10
518222.4941365483
 20
260306.2496823406
 10
518222.5247398484
 20
260306.1681635802
 10
518222.5043376483
 20
260306.0458854396
 10
518222.4023266481
 20
260305.9439869892
 10
518221.9942841855
 20
260305.7911393135
 10
518221.2004250906
 20
260305.5651884984
  0
LWPOLYLINE
  5
C5
330
1F
100
AcDbEntity
  8
43
 62
     2
370
    -1
100
AcDbPolyline
 90
        5
 70
     1
 43
0.0
 10
518221.3086041841
 20
260305.1196848719
 10
518221.0972192799
 20
260305.0447655271
 10
518220.9838320325
 20
260304.944466131
 10
518220.9685153261
 20
260304.8489584973
 10
518221.3610525844
 20
260304.9737268932
  0
LWPOLYLINE
  5
C6
330
1F
100
AcDbEntity
  8
43
 62
     2
370
    -1
100
AcDbPolyline
 90
       12
 70
     0
 43
0.0
 10
518221.3086041841
 20
260305.1196848719
 10
518222.0538479032
 20
260305.2965636727
 10
518222.5165446647
 20
260305.3625903384
 10
518222.6781216901
 20
260305.3625903384
 10
518222.7735980793
 20
260305.3112363056
 10
518222.8470424614
 20
260305.2011913765
 10
518222.8470424614
 20
260305.0911468121
 10
518222.5532664713
 20
260304.9664292502
 10
518221.6719392698
 20
260304.7463397567
 10
518221.1211090959
 20
260304.6142860606
 10
518221.0329764527
 20
260304.6876492251
 10
518220.9685153261
 20
260304.8489584973
  0
MTEXT
  5
C7
330
1F
100
AcDbEntity
  8
43
370
    -1
100
AcDbMText
 10
518221.1183871105
 20
260305.0451854725
 30
0.0
 40
0.12
 41
0.2001
 46
0.0
 71
     1
 72
     5
  1
43
 73
     1
 44
1.0
  0
LWPOLYLINE
  5
C8
330
1F
100
AcDbEntity
  8
16
370
    -1
100
AcDbPolyline
 90
       11
 70
     1
 43
0.0
 10
518221.9030094487
 20
260304.5022375535
 10
518221.9203545789
 20
260304.3965936908
 10
518221.9754509178
 20
260304.3059446297
 10
518222.0458153738
 20
260304.2906886601
 10
518222.1816189025
 20
260304.3029322705
 10
518222.2848213316
 20
260304.3504552878
 10
518222.3881087921
 20
260304.433178754
 10
518222.5392351009
 20
260304.543444316
 10
518222.780895071
 20
260304.6610341791
 10
518222.4941474437
 20
260304.6139545402
 10
518222.0942008529
 20
260304.5445193565
  0
LWPOLYLINE
  5
C9
330
1F
100
AcDbEntity
  8
16
 62
     2
370
    -1
100
AcDbPolyline
 90
       12
 70
     0
 43
0.0
 10
518221.9030094487
 20
260304.5022375535
 10
518221.9339313305
 20
260304.6251531378
 10
518222.0637528845
 20
260304.71160508
 10
518222.4423972889
 20
260304.8953158675
 10
518222.5505814045
 20
260304.9493485593
 10
518223.2537781557
 20
260305.2735436161
 10
518223.3403256019
 20
260305.2735436161
 10
518223.4376909983
 20
260305.2519309041
 10
518223.4701463868
 20
260305.1330589821
 10
518223.4701463868
 20
260305.0358005016
 10
518223.2862335442
 20
260304.8953158675
 10
518222.780895071
 20
260304.6610341791
  0
MTEXT
  5
CA
330
1F
100
AcDbEntity
  8
16
370
    -1
100
AcDbMText
 10
518221.9542727685
 20
260304.5008385599
 30
0.0
 40
0.12
 41
0.3683
 46
0.0
 71
     1
 72
     5
  1
16
 73
     1
 44
1.0
  0
LWPOLYLINE
  5
CB
330
1F
100
AcDbEntity
  8
13
370
    -1
100
AcDbPolyline
 90
       20
 70
     1
 43
0.0
 10
518223.1452160555
 20
260304.5545521492
 10
518222.8757224532
 20
260304.3641138808
 10
518222.4377391909
 20
260304.1615109597
 10
518222.1986421279
 20
260304.0640295652
 10
518221.8790808222
 20
260303.9642282105
 10
518221.7230412776
 20
260303.9017468338
 10
518221.6600800805
 20
260303.8591552733
 10
518221.6373175996
 20
260303.8038949451
 10
518221.6271449286
 20
260303.7561472019
 10
518221.6445568692
 20
260303.6781608348
 10
518221.7070625406
 20
260303.5321785614
 10
518221.7220391212
 20
260303.4868843992
 10
518221.7596324145
 20
260303.4365069384
 10
518221.8224478434
 20
260303.418754872
 10
518221.9633346708
 20
260303.4536151952
 10
518222.2577770934
 20
260303.5635345577
 10
518222.6380646675
 20
260303.8215921647
 10
518222.9351793234
 20
260303.996877716
 10
518223.1189310267
 20
260304.0819211424
 10
518223.2925707958
 20
260304.1443600034
  0
MTEXT
  5
CC
330
1F
100
AcDbEntity
  8
13
370
    -1
100
AcDbMText
 10
518222.2350295307
 20
260304.0814772576
 30
0.0
 40
0.12
 41
0.4442
 46
0.0
 71
     1
 72
     5
  1
13
 73
     1
 44
1.0
  0
LWPOLYLINE
  5
CD
330
1F
100
AcDbEntity
  8
37
 62
     2
370
    -1
100
AcDbPolyline
 90
        7
 70
     0
 43
0.0
 10
518220.6715768068
 20
260304.7465881617
 10
518220.5880614322
 20
260304.63122671
 10
518220.0795516328
 20
260304.4280465023
 10
518219.0286306628
 20
260304.0894125799
 10
518218.7235244755
 20
260304.0386176191
 10
518218.6726735724
 20
260304.0724806832
 10
518218.6008416611
 20
260304.1506648457
  0
LWPOLYLINE
  5
CE
330
1F
100
AcDbEntity
  8
32
 62
     2
370
    -1
100
AcDbPolyline
 90
        6
 70
     0
 43
0.0
 10
518218.2134484383
 20
260304.0736563404
 10
518218.3845176862
 20
260303.9200954363
 10
518218.6387729704
 20
260303.8693004755
 10
518218.8082759805
 20
260303.953958865
 10
518219.1472827698
 20
260304.2925927875
 10
518219.2954979162
 20
260304.4406493745
  0
LWPOLYLINE
  5
CF
330
1F
100
AcDbEntity
  8
38
 62
     2
370
    -1
100
AcDbPolyline
 90
        7
 70
     0
 43
0.0
 10
518218.6998841739
 20
260305.5986810904
 10
518219.5710410642
 20
260305.867240217
 10
518220.1982037398
 20
260306.0196250992
 10
518220.2490546429
 20
260306.0365569959
 10
518220.3338061479
 20
260306.0365569959
 10
518220.3677075191
 20
260306.0196250992
 10
518220.3978078883
 20
260305.9088710828
  0
LWPOLYLINE
  5
D1
330
1F
100
AcDbEntity
  8
13
 62
     2
370
    -1
100
AcDbPolyline
 90
        9
 70
     0
 43
0.0
 10
518223.1452160555
 20
260304.5545521492
 10
518223.2498847704
 20
260304.5728020385
 10
518223.3608131765
 20
260304.5728020385
 10
518223.4495565167
 20
260304.4841564769
 10
518223.4495565167
 20
260304.3844304937
 10
518223.4495565167
 20
260304.2957849321
 10
518223.4273706816
 20
260304.240381365
 10
518223.3719064786
 20
260304.2182197922
 10
518223.2925707958
 20
260304.1443600034
  0
LWPOLYLINE
  5
D2
330
1F
100
AcDbEntity
  8
12
370
    -1
100
AcDbPolyline
 90
       16
 70
     1
 43
0.0
 10
518223.4371196819
 20
260303.6134866776
 10
518223.2130599362
 20
260303.4958542987
 10
518222.9186418084
 20
260303.3959922073
 10
518222.6190674977
 20
260303.2433415898
 10
518222.3271150982
 20
260303.1233588824
 10
518222.110580085
 20
260302.9981653292
 10
518221.7884619457
 20
260302.8807698237
 10
518221.7030115831
 20
260302.8960622354
 10
518221.597859688
 20
260303.0823768459
 10
518221.5780974189
 20
260303.2282558668
 10
518221.7395057249
 20
260303.4315268922
 10
518222.1170967709
 20
260303.6141610392
 10
518222.4973600503
 20
260303.862161375
 10
518222.8448400198
 20
260304.070011584
 10
518223.0639622349
 20
260304.225370877
 10
518223.1949497068
 20
260304.3256277573
  0
LWPOLYLINE
  5
D3
330
1F
100
AcDbEntity
  8
12
 62
     2
370
    -1
100
AcDbPolyline
 90
       10
 70
     0
 43
0.0
 10
518223.1949497068
 20
260304.3256277573
 10
518223.3232191656
 20
260304.381927616
 10
518223.4305433829
 20
260304.381927616
 10
518223.5441814682
 20
260304.3188651627
 10
518223.607313225
 20
260304.1675145456
 10
518223.638879488
 20
260304.0224705385
 10
518223.638879488
 20
260303.9152643681
 10
518223.607313225
 20
260303.8332828142
 10
518223.5441814682
 20
260303.726076279
 10
518223.4371196819
 20
260303.6134866776
  0
MTEXT
  5
D4
330
1F
100
AcDbEntity
  8
12
370
    -1
100
AcDbMText
 10
518222.830789001
 20
260303.8648140408
 30
0.0
 40
0.12
 41
0.4293
 46
0.0
 71
     1
 72
     5
  1
12
 73
     1
 44
1.0
  0
LWPOLYLINE
  5
D6
330
1F
100
AcDbEntity
  8
14
370
    -1
100
AcDbPolyline
 90
       34
 70
     1
 43
0.0
 10
518221.0197548813
 20
260303.1617176425
 10
518220.8836537425
 20
260303.0262724605
 10
518220.7854374333
 20
260302.9611370715
 10
518220.7048274223
 20
260302.8984734844
 10
518220.6796417287
 20
260302.8809339967
 10
518220.6745341354
 20
260302.8482600128
 10
518220.7045298122
 20
260302.7752719129
 10
518220.7647155235
 20
260302.7097538823
 10
518220.8424164279
 20
260302.608992887
 10
518220.9101633135
 20
260302.5509995887
 10
518220.9604132271
 20
260302.5357922085
 10
518221.0032112926
 20
260302.5583178161
 10
518221.1113937678
 20
260302.5857141437
 10
518221.3454986372
 20
260302.6982935922
 10
518221.5342971971
 20
260302.7908678246
 10
518221.7080766606
 20
260302.9111359947
 10
518221.8240389625
 20
260303.036572495
 10
518221.9852164689
 20
260303.1442994445
 10
518222.1817401923
 20
260303.3122849895
 10
518222.2976478311
 20
260303.4150926296
 10
518222.3228638931
 20
260303.4452037063
 10
518222.3557626029
 20
260303.533125871
 10
518222.3232404609
 20
260303.601091409
 10
518222.2857929359
 20
260303.7118124966
 10
518222.2357313061
 20
260303.8049637282
 10
518222.1930668616
 20
260303.8377531119
 10
518222.1251559867
 20
260303.82785983
 10
518222.0597290612
 20
260303.8053888854
 10
518221.7879397934
 20
260303.705472131
 10
518221.6141542561
 20
260303.5826896431
 10
518221.4328682812
 20
260303.4775256007
 10
518221.2616577985
 20
260303.379880217
 10
518221.1684579775
 20
260303.309704045
 10
518221.0727256177
 20
260303.2319909933
  0
MTEXT
  5
D7
330
1F
100
AcDbEntity
  8
14
370
    -1
100
AcDbMText
 10
518221.1697479531
 20
260303.190305087
 30
0.0
 40
0.12
 41
0.3679
 46
0.0
 71
     1
 72
     5
  1
14
 73
     1
 44
1.0
  0
LWPOLYLINE
  5
D8
330
1F
100
AcDbEntity
  8
7
370
    -1
100
AcDbPolyline
 90
       38
 70
     1
 43
0.0
 10
518220.8919617952
 20
260302.3021246437
 10
518220.854180218
 20
260302.2745582531
 10
518220.8565669886
 20
260302.221751506
 10
518220.9141776453
 20
260302.1310963712
 10
518220.9792219293
 20
260301.9951652952
 10
518221.0242731445
 20
260301.9095691644
 10
518221.0694640542
 20
260301.8818023426
 10
518221.1121710145
 20
260301.8666131834
 10
518221.170085355
 20
260301.9016739379
 10
518221.2708099083
 20
260301.9642889355
 10
518221.5703417032
 20
260302.0993393286
 10
518221.7189172521
 20
260302.1945250576
 10
518221.8725275104
 20
260302.292212957
 10
518222.0991258685
 20
260302.4198965333
 10
518222.3182602311
 20
260302.5802844618
 10
518222.5021273341
 20
260302.7130999261
 10
518222.6884297972
 20
260302.8132231856
 10
518222.8974643729
 20
260302.9560351843
 10
518222.9655270897
 20
260303.0287864108
 10
518222.9983103997
 20
260303.0689365376
 10
518222.9983832838
 20
260303.099108351
 10
518222.9533988791
 20
260303.2123619776
 10
518222.8783823554
 20
260303.3835177972
 10
518222.777997928
 20
260303.4617045955
 10
518222.7478625566
 20
260303.4768633864
 10
518222.5339815556
 20
260303.4094930686
 10
518222.3224569568
 20
260303.2767444146
 10
518222.0831594627
 20
260303.0962905333
 10
518221.9195283753
 20
260303.0137128352
 10
518221.7230653886
 20
260302.8708704681
 10
518221.650016552
 20
260302.8157316134
 10
518221.4989327589
 20
260302.7230662759
 10
518221.3327752064
 20
260302.635466016
 10
518221.1817217817
 20
260302.5553722674
 10
518221.0935566699
 20
260302.4876982658
 10
518221.0054158529
 20
260302.4300815353
 10
518220.9676039073
 20
260302.3899435559
 10
518220.9348388184
 20
260302.3573363825
  0
MTEXT
  5
D9
330
1F
100
AcDbEntity
  8
7
370
    -1
100
AcDbMText
 10
518221.4600051292
 20
260302.6168722043
 30
0.0
 40
0.12
 41
0.4838
 46
0.0
 71
     1
 72
     5
  1
7
 73
     1
 44
1.0
  0
LWPOLYLINE
  5
DA
330
1F
100
AcDbEntity
  8
30
370
    -1
100
AcDbPolyline
 90
       13
 70
     1
 43
0.0
 10
518218.3602801075
 20
260299.2834983179
 10
518218.5715982013
 20
260299.3307601671
 10
518218.7930950397
 20
260299.4282840773
 10
518218.9466810033
 20
260299.5159147056
 10
518219.0147558674
 20
260299.5936945677
 10
518219.0450855964
 20
260299.658993946
 10
518219.0502539265
 20
260299.7168111077
 10
518218.8766870415
 20
260299.6845440601
 10
518218.6905303466
 20
260299.6447644275
 10
518218.5245732254
 20
260299.6401366545
 10
518218.3384894146
 20
260299.6305288353
 10
518218.3459048208
 20
260299.5777099408
 10
518218.3431414823
 20
260299.4746289853
  0
MTEXT
  5
DB
330
1F
100
AcDbEntity
  8
30
370
    -1
100
AcDbMText
 10
518218.4064620113
 20
260299.6169805098
 30
0.0
 40
0.12
 41
0.2933
 46
0.0
 71
     1
 72
     5
  1
30
 73
     1
 44
1.0
  0
LWPOLYLINE
  5
DC
330
1F
100
AcDbEntity
  8
30
 62
     2
370
    -1
100
AcDbPolyline
 90
       11
 70
     0
 43
0.0
 10
518218.3602801075
 20
260299.2834983179
 10
518217.4891190736
 20
260299.1131114356
 10
518217.1299808215
 20
260299.1131114356
 10
518217.0555373268
 20
260299.2003241243
 10
518216.9596409873
 20
260299.487697375
 10
518217.247330775
 20
260299.6792796637
 10
518218.086426053
 20
260299.8469141207
 10
518218.7337278829
 20
260299.9666529144
 10
518218.9068281594
 20
260299.9411442032
 10
518218.9851981123
 20
260299.8315467506
 10
518219.0502539265
 20
260299.7168111077
  0
LWPOLYLINE
  5
DD
330
1F
100
AcDbEntity
  8
6
370
    -1
100
AcDbPolyline
 90
       26
 70
     1
 43
0.0
 10
518219.6408392169
 20
260299.5997251759
 10
518219.8247913515
 20
260299.7677410893
 10
518220.1041964568
 20
260299.8978114362
 10
518220.3482431975
 20
260299.9625945521
 10
518220.5293348148
 20
260299.9873004253
 10
518220.8185481706
 20
260300.0142594483
 10
518220.9870196095
 20
260300.0188811476
 10
518221.0875255105
 20
260299.990980705
 10
518221.1301231447
 20
260299.9305338257
 10
518221.2028257818
 20
260299.8423565666
 10
518221.2377589891
 20
260299.7316415526
 10
518221.2777876424
 20
260299.6485718869
 10
518221.2599991339
 20
260299.5706705513
 10
518221.2824882995
 20
260299.5127865791
 10
518221.2319772178
 20
260299.4198782946
 10
518221.0154482782
 20
260299.2971990592
 10
518220.6378147164
 20
260299.0969646876
 10
518220.4742747342
 20
260299.0521017564
 10
518220.2629991561
 20
260299.0224401317
 10
518219.9285402276
 20
260299.0006190704
 10
518219.7551251845
 20
260299.0312099674
 10
518219.6771934805
 20
260299.0364268869
 10
518219.5188947125
 20
260299.0795529308
 10
518219.4587575906
 20
260299.1651855037
 10
518219.4868098751
 20
260299.3285493493
 10
518219.6004400695
 20
260299.5294214567
  0
MTEXT
  5
DE
330
1F
100
AcDbEntity
  8
6
370
    -1
100
AcDbMText
 10
518220.4841375815
 20
260299.7958233952
 30
0.0
 40
0.12
 41
0.5996
 46
0.0
 71
     1
 72
     5
  1
6
 73
     1
 44
1.0
  0
LWPOLYLINE
  5
DF
330
1F
100
AcDbEntity
  8
17
370
    -1
100
AcDbPolyline
 90
       26
 70
     1
 43
0.0
 10
518219.7218986799
 20
260299.8484482791
 10
518219.5807689055
 20
260299.7130152445
 10
518219.4246139611
 20
260299.6027618298
 10
518219.2809880899
 20
260299.4748778222
 10
518219.2230190863
 20
260299.4171882077
 10
518219.1523691677
 20
260299.3142712414
 10
518219.1220455124
 20
260299.2514861809
 10
518219.1218936705
 20
260299.1886282362
 10
518219.1444192781
 20
260299.1458301708
 10
518219.1794861062
 20
260299.0904301481
 10
518219.1995945748
 20
260299.0878672409
 10
518219.2423683456
 20
260299.1003355773
 10
518219.3153564454
 20
260299.1303312542
 10
518219.370683584
 20
260299.1352262689
 10
518219.4712320007
 20
260299.1249260507
 10
518219.5994318394
 20
260299.1120447044
 10
518219.6623201524
 20
260299.1244644514
 10
518219.768079415
 20
260299.1895816195
 10
518219.9142803407
 20
260299.3426027312
 10
518220.0830493897
 20
260299.4704260021
 10
518220.2391982605
 20
260299.578165099
 10
518220.3903731587
 20
260299.7085452033
 10
518220.4812165774
 20
260299.8440997114
 10
518220.4964846944
 20
260299.9194928029
 10
518220.4968005255
 20
260300.0502373277
 10
518220.4592801163
 20
260300.130786602
  0
LWPOLYLINE
  5
E0
330
1F
100
AcDbEntity
  8
17
 62
     2
370
    -1
100
AcDbPolyline
 90
        5
 70
     0
 43
0.0
 10
518219.7218986799
 20
260299.8484482791
 10
518220.177439275
 20
260300.186367505
 10
518220.3273453743
 20
260300.2013417378
 10
518220.4172885725
 20
260300.186367505
 10
518220.4592801163
 20
260300.130786602
  0
MTEXT
  5
E1
330
1F
100
AcDbEntity
  8
17
370
    -1
100
AcDbMText
 10
518219.2538332326
 20
260299.3211365697
 30
0.0
 40
0.12
 41
0.3748
 46
0.0
 71
     1
 72
     5
  1
17
 73
     1
 44
1.0
  0
LWPOLYLINE
  5
E2
330
1F
100
AcDbEntity
  8
27
370
    -1
100
AcDbPolyline
 90
       14
 70
     1
 43
0.0
 10
518218.4372643182
 20
260298.8860478238
 10
518218.7668707477
 20
260298.9807962482
 10
518218.9781888415
 20
260299.0280580975
 10
518219.141704529
 20
260299.0628637576
 10
518219.199533838
 20
260299.062724063
 10
518219.2823909252
 20
260299.0147515938
 10
518219.370234132
 20
260298.9491667528
 10
518219.4656142187
 20
260298.8810493729
 10
518219.417745002
 20
260298.8409356882
 10
518219.3596059355
 20
260298.7128451757
 10
518219.3493907488
 20
260298.6474972079
 10
518219.4020152857
 20
260298.574454445
 10
518219.4470907956
 20
260298.4989155853
 10
518218.5064808495
 20
260298.3955857928
  0
LWPOLYLINE
  5
E3
330
1F
100
AcDbEntity
  8
27
 62
     2
370
    -1
100
AcDbPolyline
 90
       12
 70
     0
 43
0.0
 10
518218.4372643182
 20
260298.8860478238
 10
518217.9921925936
 20
260298.74129314
 10
518217.7556136782
 20
260298.6169147411
 10
518217.6560016247
 20
260298.554725724
 10
518217.6310991882
 20
260298.4303473252
 10
518217.6310991882
 20
260298.305969291
 10
518217.6809048304
 20
260298.2064664989
 10
518217.8676781036
 20
260298.0572128579
 10
518218.2785779202
 20
260297.9950234761
 10
518219.1128299255
 20
260298.3308448978
 10
518219.4241176887
 20
260298.455222932
 10
518219.4614724971
 20
260298.4925367069
  0
MTEXT
  5
E4
330
1F
100
AcDbEntity
  8
27
370
    -1
100
AcDbMText
 10
518218.6521236976
 20
260298.8532333708
 30
0.0
 40
0.12
 41
0.4607
 46
0.0
 71
     1
 72
     5
  1
27
 73
     1
 44
1.0
  0
LWPOLYLINE
  5
E5
330
1F
100
AcDbEntity
  8
10
370
    -1
100
AcDbPolyline
 90
       31
 70
     1
 43
0.0
 10
518220.9972649809
 20
260299.0558670675
 10
518221.0276979623
 20
260299.1639098482
 10
518221.0656374551
 20
260299.2568485011
 10
518221.0557077311
 20
260299.3096734693
 10
518221.0207988185
 20
260299.4304457544
 10
518220.9858109481
 20
260299.5185319084
 10
518220.9356703606
 20
260299.5789970087
 10
518220.8829304239
 20
260299.6042677338
 10
518220.7873924217
 20
260299.6070128512
 10
518220.6968405394
 20
260299.5921455968
 10
518220.5181660611
 20
260299.5272045653
 10
518220.3519720666
 20
260299.4245183987
 10
518220.1203450729
 20
260299.2968469698
 10
518219.9063729668
 20
260299.1917618852
 10
518219.7578095652
 20
260299.1016047917
 10
518219.6721648449
 20
260299.0364390342
 10
518219.5185849551
 20
260298.9513227237
 10
518219.4152914209
 20
260298.8660849397
 10
518219.3647742656
 20
260298.7706623374
 10
518219.3520083191
 20
260298.6902345366
 10
518219.3443378185
 20
260298.6374520842
 10
518219.3718373986
 20
260298.5720130113
 10
518219.4144775484
 20
260298.5291663565
 10
518219.4470968692
 20
260298.5014299031
 10
518219.7765878989
 20
260298.5484062895
 10
518219.8139503925
 20
260298.4024847529
 10
518219.9171406742
 20
260298.4449791345
 10
518220.0329389869
 20
260298.5025290546
 10
518220.2016290781
 20
260298.5976661941
 10
518220.4232777585
 20
260298.758048049
 10
518220.7556171581
 20
260298.94330584
  0
MTEXT
  5
E6
330
1F
100
AcDbEntity
  8
10
370
    -1
100
AcDbMText
 10
518219.5859877563
 20
260298.890546781
 30
0.0
 40
0.12
 41
0.4981
 46
0.0
 71
     1
 72
     5
  1
10
 73
     1
 44
1.0
  0
LWPOLYLINE
  5
E7
330
1F
100
AcDbEntity
  8
10
 62
     2
370
    -1
100
AcDbPolyline
 90
        5
 70
     0
 43
0.0
 10
518219.4470907956
 20
260298.4989155853
 10
518219.557271925
 20
260298.4403183553
 10
518219.6605273933
 20
260298.4021180153
 10
518219.7484854418
 20
260298.4021180153
 10
518219.8139503925
 20
260298.4024847529
  0
LWPOLYLINE
  5
E9
330
1F
100
AcDbEntity
  8
5
370
    -1
100
AcDbPolyline
 90
       24
 70
     1
 43
0.0
 10
518219.8189304387
 20
260298.3823580632
 10
518220.0178166381
 20
260298.4874795899
 10
518220.2141945934
 20
260298.595121508
 10
518220.4383879598
 20
260298.7680688781
 10
518220.6750800312
 20
260298.9108140664
 10
518220.8487319476
 20
260298.978281563
 10
518220.9645241866
 20
260299.0333171652
 10
518221.0098669382
 20
260299.0684082881
 10
518221.0551550267
 20
260299.0808705508
 10
518221.1028724015
 20
260299.0581262909
 10
518221.168038159
 20
260298.9724815707
 10
518221.2080182228
 20
260298.8692973627
 10
518221.2855672853
 20
260298.7056784227
 10
518221.3354588521
 20
260298.5421262931
 10
518221.3705196066
 20
260298.4842119526
 10
518221.3980920708
 20
260298.4489446932
 10
518221.4005335044
 20
260298.4187668061
 10
518221.3702766596
 20
260298.3836392412
 10
518221.1562438167
 20
260298.2534109788
 10
518220.7481711998
 20
260297.9426195088
 10
518220.5342233884
 20
260297.8475916953
 10
518220.3755237578
 20
260297.7247727654
 10
518220.191595918
 20
260297.5668141232
 10
518220.0404939039
 20
260297.4666058323
  0
MTEXT
  5
EA
330
1F
100
AcDbEntity
  8
5
370
    -1
100
AcDbMText
 10
518220.2518396978
 20
260298.4795894295
 30
0.0
 40
0.12
 41
0.4612
 46
0.0
 71
     1
 72
     5
  1
5
 73
     1
 44
1.0
  0
LWPOLYLINE
  5
EB
330
1F
100
AcDbEntity
  8
5
 62
     2
370
    -1
100
AcDbPolyline
 90
        8
 70
     0
 43
0.0
 10
518219.8189304387
 20
260298.3823580632
 10
518219.4563292599
 20
260298.1916782589
 10
518219.3986837767
 20
260298.13409566
 10
518219.4793872994
 20
260297.9383161369
 10
518219.733028041
 20
260297.4431084857
 10
518219.8022029286
 20
260297.408559437
 10
518219.8829072205
 20
260297.3624934309
 10
518220.0404939039
 20
260297.4666058323
  0
LWPOLYLINE
  5
EC
330
1F
100
AcDbEntity
  8
2
370
    -1
100
AcDbPolyline
 90
       24
 70
     1
 43
0.0
 10
518223.1630767131
 20
260300.4988907512
 10
518223.140186685
 20
260300.3908297495
 10
518223.1776585047
 20
260300.2901659329
 10
518223.2251936694
 20
260300.1919921395
 10
518223.3004592137
 20
260300.123923349
 10
518223.4285618736
 20
260300.0708129181
 10
518223.5290677745
 20
260300.0429124754
 10
518223.6422485169
 20
260300.0577250668
 10
518223.8386446933
 20
260300.1729099382
 10
518224.0073044162
 20
260300.2554754889
 10
518224.1835617555
 20
260300.3606516786
 10
518224.3069698319
 20
260300.4458408733
 10
518224.4504074192
 20
260300.4957810295
 10
518224.6089066184
 20
260300.5356274725
 10
518224.717101241
 20
260300.5680524357
 10
518224.7674726282
 20
260300.6031314112
 10
518224.8080965016
 20
260300.7664648884
 10
518224.5223118249
 20
260300.7838700263
 10
518224.3028218792
 20
260300.8104290995
 10
518224.2564756039
 20
260300.8015728808
 10
518224.0832331327
 20
260300.7917058301
 10
518223.6829355338
 20
260300.7482245463
 10
518223.5180449728
 20
260300.6840938791
 10
518223.2864362001
 20
260300.5639654035
  0
MTEXT
  5
ED
330
1F
100
AcDbEntity
  8
2
370
    -1
100
AcDbMText
 10
518223.6532439413
 20
260300.620603844
 30
0.0
 40
0.12
 41
0.2763
 46
0.0
 71
     1
 72
     5
  1
2
 73
     1
 44
1.0
  0
LWPOLYLINE
  5
EE
330
1F
100
AcDbEntity
  8
2
 62
     2
370
    -1
100
AcDbPolyline
 90
        8
 70
     0
 43
0.0
 10
518223.6829355338
 20
260300.7482245463
 10
518224.20584006
 20
260300.9297170841
 10
518224.4158259698
 20
260300.9738761184
 10
518224.5595012683
 20
260301.0069952117
 10
518224.614760111
 20
260300.9849156946
 10
518224.747383641
 20
260300.8965979907
 10
518224.7805389466
 20
260300.8193194983
 10
518224.8080965016
 20
260300.7664648884
  0
LWPOLYLINE
  5
EF
330
1F
100
AcDbEntity
  8
34
370
    -1
100
AcDbPolyline
 90
       11
 70
     1
 43
0.0
 10
518224.544493813
 20
260299.8921139613
 10
518225.0328545361
 20
260300.1323101757
 10
518225.4405627325
 20
260300.2922425786
 10
518225.6897292139
 20
260300.394728314
 10
518225.7959225853
 20
260300.4174560939
 10
518225.9019807987
 20
260300.1143453112
 10
518225.6080137941
 20
260299.87445889
 10
518225.408915016
 20
260299.6813362409
 10
518225.0514142176
 20
260299.4885962333
 10
518224.8348306149
 20
260299.3432881378
 10
518224.7064060502
 20
260299.2631397261
  0
MTEXT
  5
F0
330
1F
100
AcDbEntity
  8
34
370
    -1
100
AcDbMText
 10
518225.0375116015
 20
260300.0253656922
 30
0.0
 40
0.12
 41
0.2366
 46
0.0
 71
     1
 72
     5
  1
34
 73
     1
 44
1.0
  0
LWPOLYLINE
  5
F1
330
1F
100
AcDbEntity
  8
34
 62
     2
370
    -1
100
AcDbPolyline
 90
       13
 70
     0
 43
0.0
 10
518224.544493813
 20
260299.8921139613
 10
518224.427106942
 20
260299.8126681306
 10
518224.3324712224
 20
260299.7417688219
 10
518224.3088117157
 20
260299.6708698779
 10
518224.3088117157
 20
260299.5857909991
 10
518224.3419347175
 20
260299.4912585875
 10
518224.3892529618
 20
260299.3636402694
 10
518224.4460347012
 20
260299.2691078577
 10
518224.5075481881
 20
260299.2312951848
 10
518224.5643299274
 20
260299.2218420166
 10
518224.6116481717
 20
260299.2312951848
 10
518224.6589664161
 20
260299.2312951848
 10
518224.7064060502
 20
260299.2631397261
  0
LWPOLYLINE
  5
F2
330
1F
100
AcDbEntity
  8
34
 62
     2
370
    -1
100
AcDbPolyline
 90
        7
 70
     0
 43
0.0
 10
518225.7959225853
 20
260300.4174560939
 10
518225.8561154593
 20
260300.4034942448
 10
518225.9128971987
 20
260300.3420484689
 10
518225.9507519479
 20
260300.2616959919
 10
518225.9507519479
 20
260300.2002502161
 10
518225.9412884529
 20
260300.167163945
 10
518225.9019807987
 20
260300.1143453112
  0
LWPOLYLINE
  5
F3
330
1F
100
AcDbEntity
  8
40
370
    -1
100
AcDbPolyline
 90
       20
 70
     1
 43
0.0
 10
518224.6193827894
 20
260299.6681574682
 10
518224.8735839801
 20
260299.773145374
 10
518225.1127296324
 20
260299.8907413108
 10
518225.3417329821
 20
260299.9731610932
 10
518225.4978393372
 20
260300.0632999656
 10
518225.5808786345
 20
260300.09075703
 10
518225.6563263891
 20
260300.0981177731
 10
518225.7165546161
 20
260300.050199967
 10
518225.7289682894
 20
260299.9847973362
 10
518225.7237756647
 20
260299.9169229033
 10
518225.7009463733
 20
260299.8340050795
 10
518225.6454977612
 20
260299.7788237091
 10
518225.5523343823
 20
260299.7237334438
 10
518225.3760891903
 20
260299.6235858896
 10
518225.2678095363
 20
260299.5559604774
 10
518225.094005778
 20
260299.4256350362
 10
518224.9327614613
 20
260299.290250591
 10
518224.8646623025
 20
260299.2024134578
 10
518224.753844036
 20
260299.1247368481
 10
518224.7286158267
 20
260299.0895971359
  0
LWPOLYLINE
  5
F4
330
1F
100
AcDbEntity
  8
40
 62
     2
370
    -1
100
AcDbPolyline
 90
       13
 70
     0
 43
0.0
 10
518224.6193827894
 20
260299.6681574682
 10
518224.3100292639
 20
260299.5012711924
 10
518224.1794601061
 20
260299.417798415
 10
518224.1376773603
 20
260299.3708451145
 10
518224.1272316739
 20
260299.2925896136
 10
518224.1272316739
 20
260299.1986826479
 10
518224.1481230467
 20
260299.1099929587
 10
518224.1899057925
 20
260299.0578223816
 10
518224.2264653106
 20
260299.0317374578
 10
518224.3465887819
 20
260298.9900010691
 10
518224.5137182269
 20
260298.9900010691
 10
518224.6181743222
 20
260299.0160863576
 10
518224.739855662
 20
260299.0927075394
  0
MTEXT
  5
F5
330
1F
100
AcDbEntity
  8
40
370
    -1
100
AcDbMText
 10
518224.7423580821
 20
260299.6740149773
 30
0.0
 40
0.12
 41
0.2967
 46
0.0
 71
     1
 72
     5
  1
40
 73
     1
 44
1.0
  0
LWPOLYLINE
  5
F6
330
1F
100
AcDbEntity
  8
41
370
    -1
100
AcDbPolyline
 90
        9
 70
     1
 43
0.0
 10
518225.9503011387
 20
260300.0144346662
 10
518225.8041791708
 20
260299.8940996857
 10
518225.6681023266
 20
260299.7687117748
 10
518225.6025600013
 20
260299.6984687924
 10
518225.579803594
 20
260299.645722782
 10
518225.5595432835
 20
260299.5854277445
 10
518225.5694244181
 20
260299.5124882341
 10
518225.604327257
 20
260299.3892016312
 10
518226.106558118
 20
260299.5496008387
  0
MTEXT
  5
F7
330
1F
100
AcDbEntity
  8
41
370
    -1
100
AcDbMText
 10
518225.7553443123
 20
260299.773404715
 30
0.0
 40
0.12
 41
0.2725
 46
0.0
 71
     1
 72
     5
  1
41
 73
     1
 44
1.0
  0
LWPOLYLINE
  5
F8
330
1F
100
AcDbEntity
  8
41
 62
     2
370
    -1
100
AcDbPolyline
 90
       16
 70
     0
 43
0.0
 10
518225.9503011387
 20
260300.0144346662
 10
518226.0529006242
 20
260300.0720472976
 10
518226.4337616893
 20
260300.3003128096
 10
518226.8823308926
 20
260300.5116694005
 10
518226.9838942535
 20
260300.5539407916
 10
518227.0939204587
 20
260300.5201236788
 10
518227.1531657525
 20
260300.4355812612
 10
518227.1531657525
 20
260300.3256756443
 10
518227.0939204587
 20
260300.1143186887
 10
518226.7384502338
 20
260299.7761479244
 10
518226.2052448964
 20
260299.3534343779
 10
518226.0613642376
 20
260299.2519834039
 10
518225.9090191962
 20
260299.2266205692
 10
518225.7651385374
 20
260299.2266205692
 10
518225.6381851054
 20
260299.3534343779
 10
518225.604327257
 20
260299.3892016312
  0
LWPOLYLINE
  5
F9
330
1F
100
AcDbEntity
  8
4
370
    -1
100
AcDbPolyline
 90
       41
 70
     1
 43
0.0
 10
518222.1154438126
 20
260297.7255984177
 10
518222.0048927878
 20
260297.7585517907
 10
518221.8992549988
 20
260297.7437209783
 10
518221.7859831513
 20
260297.6911936202
 10
518221.6701483966
 20
260297.6185577935
 10
518221.5770457544
 20
260297.588610706
 10
518221.4084832103
 20
260297.5462742399
 10
518221.2197453872
 20
260297.4788431854
 10
518221.093804772
 20
260297.3861171111
 10
518220.9854036444
 20
260297.2682053432
 10
518220.8619894944
 20
260297.1805018308
 10
518220.7965200531
 20
260297.1404306618
 10
518220.7309716541
 20
260297.0676733616
 10
518220.6779341073
 20
260296.9697425151
 10
518220.5417357896
 20
260296.7940682486
 10
518220.4736609255
 20
260296.7162883865
 10
518220.4458333669
 20
260296.6459542989
 10
518220.4230465913
 20
260296.5806366996
 10
518220.420392579
 20
260296.5228134642
 10
518220.4278079852
 20
260296.4699945697
 10
518220.4377741512
 20
260296.4322555082
 10
518220.4829529136
 20
260296.3994600509
 10
518220.5257206106
 20
260296.4094140695
 10
518220.5735412379
 20
260296.429413212
 10
518220.6264087218
 20
260296.4569431604
 10
518220.7095026823
 20
260296.5070290848
 10
518220.7698706038
 20
260296.5169405878
 10
518220.8755569822
 20
260296.5518859424
 10
518221.0139294919
 20
260296.5867523393
 10
518221.1699447418
 20
260296.6391764449
 10
518221.3461352707
 20
260296.716695139
 10
518221.4796674286
 20
260296.8295175346
 10
518221.6258258387
 20
260296.9649384218
 10
518221.7568922683
 20
260297.0978814333
 10
518221.877804248
 20
260297.190619655
 10
518222.0138021343
 20
260297.2833214345
 10
518222.1272865605
 20
260297.4238499151
 10
518222.1904664099
 20
260297.5569569159
 10
518222.2207536232
 20
260297.6046560697
 10
518222.2158039454
 20
260297.6373543483
 10
518222.1806642331
 20
260297.6625825576
  0
MTEXT
  5
FA
330
1F
100
AcDbEntity
  8
4
370
    -1
100
AcDbMText
 10
518221.2254736637
 20
260297.3022726538
 30
0.0
 40
0.12
 41
0.3733
 46
0.0
 71
     1
 72
     5
  1
4
 73
     1
 44
1.0
  0
LWPOLYLINE
  5
FB
330
1F
100
AcDbEntity
  8
1
370
    -1
100
AcDbPolyline
 90
       47
 70
     1
 43
0.0
 10
518222.9727105938
 20
260296.6348216198
 10
518223.0329691892
 20
260296.5994754026
 10
518223.1209520907
 20
260296.5917198706
 10
518223.2567677668
 20
260296.6089921167
 10
518223.4027621876
 20
260296.6765264237
 10
518223.443124893
 20
260296.7317442362
 10
518223.481003649
 20
260296.7995397112
 10
518223.5339136486
 20
260296.8446698842
 10
518223.6370917829
 20
260296.8821356303
 10
518223.9290624035
 20
260297.009661291
 10
518224.130475068
 20
260297.1198053796
 10
518224.2790809853
 20
260297.2275626975
 10
518224.4151639032
 20
260297.3554649261
 10
518224.5513075578
 20
260297.5085103325
 10
518224.7151815922
 20
260297.691660742
 10
518224.7782642628
 20
260297.7845386581
 10
518224.8313018096
 20
260297.8824695046
 10
518224.8540764378
 20
260297.9427584684
 10
518224.8291033229
 20
260298.0132201031
 10
518224.7815013479
 20
260298.0837364009
 10
518224.7514388606
 20
260298.1290670052
 10
518224.7061993615
 20
260298.1367192847
 10
518224.6432260171
 20
260298.0890990886
 10
518224.5274459254
 20
260298.039092122
 10
518224.4040682174
 20
260297.9664745163
 10
518224.293359277
 20
260297.9340556268
 10
518224.2052852705
 20
260297.904096392
 10
518224.1297524844
 20
260297.8615351999
 10
518224.04159952
 20
260297.7988898339
 10
518223.925752618
 20
260297.7212253716
 10
518223.8174608166
 20
260297.6485713239
 10
518223.6813778988
 20
260297.5206690953
 10
518223.5628648371
 20
260297.3801527621
 10
518223.4822669734
 20
260297.3225178106
 10
518223.3916847227
 20
260297.2950789673
 10
518223.3739873194
 20
260297.2548923984
 10
518223.3361875212
 20
260297.2197830545
 10
518223.2907354435
 20
260297.1394342116
 10
518223.2478523466
 20
260297.081708155
 10
518223.2125790135
 20
260297.051621373
 10
518223.129466832
 20
260296.9939924952
 10
518223.0412652783
 20
260296.911232587
 10
518222.9958678636
 20
260296.8535126041
 10
518222.9630906273
 20
260296.815876795
 10
518222.9554322741
 20
260296.7681229782
 10
518222.9351537426
 20
260296.7002849873
 10
518222.9426481065
 20
260296.6801522241
  0
MTEXT
  5
FC
330
1F
100
AcDbEntity
  8
1
370
    -1
100
AcDbMText
 10
518223.7761586207
 20
260297.5384173256
 30
0.0
 40
0.12
 41
0.5101
 46
0.0
 71
     1
 72
     5
  1
1
 73
     1
 44
1.0
  0
LWPOLYLINE
  5
FD
330
1F
100
AcDbEntity
  8
24
370
    -1
100
AcDbPolyline
 90
       16
 70
     1
 43
0.0
 10
518219.2144732416
 20
260294.838609447
 10
518219.3427398907
 20
260294.8533855963
 10
518219.596928934
 20
260294.9533448665
 10
518219.8261570098
 20
260295.128794407
 10
518219.9344305901
 20
260295.1939055014
 10
518219.9647117297
 20
260295.2390903374
 10
518220.0152410323
 20
260295.3395415754
 10
518220.0256019873
 20
260295.4652331699
 10
518219.9881301675
 20
260295.5658969865
 10
518219.9305316581
 20
260295.6615807568
 10
518219.8703459468
 20
260295.7270987875
 10
518219.0200813781
 20
260295.5531494447
 10
518219.0549113329
 20
260295.3996910283
 10
518219.1073536596
 20
260295.2512187318
 10
518219.1574335103
 20
260295.1656104536
 10
518219.1747725668
 20
260295.0574522731
  0
MTEXT
  5
FE
330
1F
100
AcDbEntity
  8
24
370
    -1
100
AcDbMText
 10
518219.1825978198
 20
260295.4745738195
 30
0.0
 40
0.12
 41
0.5984
 46
0.0
 71
     1
 72
     5
  1
24
 73
     1
 44
1.0
  0
LWPOLYLINE
  5
FF
330
1F
100
AcDbEntity
  8
24
 62
     2
370
    -1
100
AcDbPolyline
 90
       12
 70
     0
 43
0.0
 10
518219.8703459468
 20
260295.7270987875
 10
518219.6127238218
 20
260295.8051797881
 10
518219.2494460598
 20
260295.8051797881
 10
518218.4017964098
 20
260295.5632605912
 10
518217.7963327038
 20
260295.3939171898
 10
518217.7236766898
 20
260295.2003819781
 10
518217.7236766898
 20
260294.9584627812
 10
518217.8447692772
 20
260294.7165435843
 10
518218.1353925637
 20
260294.6681599637
 10
518218.4502337524
 20
260294.6681599637
 10
518218.934604871
 20
260294.7649275695
 10
518219.2144732416
 20
260294.838609447
  0
LWPOLYLINE
  5
100
330
1F
100
AcDbEntity
  8
25
370
    -1
100
AcDbPolyline
 90
       23
 70
     1
 43
0.0
 10
518219.223497988
 20
260294.4111511288
 10
518219.3166249248
 20
260294.4511554874
 10
518219.434998292
 20
260294.5338425116
 10
518219.5785330581
 20
260294.6240117524
 10
518219.7320036218
 20
260294.6638703427
 10
518219.9307683477
 20
260294.7187055137
 10
518220.091739349
 20
260294.7409456585
 10
518220.2627554741
 20
260294.7581328731
 10
518220.3431772012
 20
260294.7428526088
 10
518220.4210360211
 20
260294.7074638759
 10
518220.4762052442
 20
260294.6469866282
 10
518220.550675137
 20
260294.2495422079
 10
518220.4926150283
 20
260294.1541378266
 10
518220.4120414593
 20
260294.1065601462
 10
518220.2384199114
 20
260294.0516642385
 10
518219.9994261009
 20
260293.9969262464
 10
518219.8459008741
 20
260293.934438796
 10
518219.7225717555
 20
260293.8819357326
 10
518219.5465087737
 20
260293.8572177119
 10
518219.3805091368
 20
260293.8349897145
 10
518219.3783288712
 20
260293.9732832663
 10
518219.3107095327
 20
260294.0840772381
 10
518219.2355836829
 20
260294.2099753376
  0
MTEXT
  5
101
330
1F
100
AcDbEntity
  8
25
370
    -1
100
AcDbMText
 10
518219.6154719581
 20
260294.3678784576
 30
0.0
 40
0.12
 41
0.5367
 46
0.0
 71
     1
 72
     5
  1
25
 73
     1
 44
1.0
  0
LWPOLYLINE
  5
103
330
1F
100
AcDbEntity
  8
25
 62
     2
370
    -1
100
AcDbPolyline
 90
       14
 70
     0
 43
0.0
 10
518219.223497988
 20
260294.4111511288
 10
518218.9356139824
 20
260294.3678784576
 10
518218.7209217066
 20
260294.308307196
 10
518218.5181572497
 20
260294.272564512
 10
518218.3988836777
 20
260294.2129936152
 10
518218.3631017599
 20
260294.1534223536
 10
518218.3392468917
 20
260294.0342801953
 10
518218.3631017599
 20
260293.8913094593
 10
518218.4227385459
 20
260293.7959958785
 10
518218.5420113487
 20
260293.7721673009
 10
518218.7805584926
 20
260293.712596404
 10
518219.0191056366
 20
260293.712596404
 10
518219.2576520114
 20
260293.7959958785
 10
518219.3805091368
 20
260293.8349897145
  0
LWPOLYLINE
  5
104
330
1F
100
AcDbEntity
  8
3
370
    -1
100
AcDbPolyline
 90
       49
 70
     1
 43
0.0
 10
518220.9975071929
 20
260294.9927052318
 10
518220.9650275666
 20
260295.0782709943
 10
518220.9476034787
 20
260295.1512287258
 10
518220.9502757121
 20
260295.2165949145
 10
518220.9830711694
 20
260295.2617736769
 10
518221.048570979
 20
260295.3144164348
 10
518221.189615722
 20
260295.4146490204
 10
518221.401079584
 20
260295.5222544965
 10
518221.5572709704
 20
260295.6475938178
 10
518221.6882645159
 20
260295.7503650159
 10
518221.748753911
 20
260295.8105628746
 10
518221.8042268179
 20
260295.8758015161
 10
518221.8822739217
 20
260295.9183566346
 10
518222.1566443177
 20
260296.045924811
 10
518222.3303994866
 20
260296.15613571
 10
518222.6324152309
 20
260296.2786084405
 10
518222.8010567328
 20
260296.3536310378
 10
518222.8841142511
 20
260296.3886310555
 10
518222.9293719713
 20
260296.3885217293
 10
518222.9618941133
 20
260296.3205561913
 10
518222.9991715754
 20
260296.1394342057
 10
518223.0516381968
 20
260296.0010191803
 10
518223.0640640175
 20
260295.9406451851
 10
518223.1191603565
 20
260295.849996124
 10
518223.1442488712
 20
260295.8273065271
 10
518223.149180328
 20
260295.7870652952
 10
518223.1214074325
 20
260295.7393600677
 10
518222.9450103987
 20
260295.576354569
 10
518222.816549392
 20
260295.4811202505
 10
518222.708269738
 20
260295.4134948384
 10
518222.6024740334
 20
260295.3332917636
 10
518222.4741041318
 20
260295.275772212
 10
518222.3734403153
 20
260295.2383003922
 10
518222.2803012311
 20
260295.193267398
 10
518222.1922332981
 20
260295.165822481
 10
518222.1142347837
 20
260295.1433819049
 10
518222.0161581691
 20
260295.1360758249
 10
518221.935718221
 20
260295.1438131359
 10
518221.8929565976
 20
260295.136373435
 10
518221.7695971106
 20
260295.0712987826
 10
518221.6688664836
 20
260295.0061694672
 10
518221.5429805315
 20
260294.936072253
 10
518221.4649516487
 20
260294.9010600879
 10
518221.3089121041
 20
260294.8385787112
 10
518221.1982274585
 20
260294.8162170928
 10
518221.1277901184
 20
260294.801301249
 10
518221.097618305
 20
260294.8013741331
 10
518221.0524213216
 20
260294.8266266371
 10
518221.0449694734
 20
260294.8643596249
  0
MTEXT
  5
105
330
1F
100
AcDbEntity
  8
3
370
    -1
100
AcDbMText
 10
518221.9598705673
 20
260295.685018317
 30
0.0
 40
0.12
 41
0.5343
 46
0.0
 71
     1
 72
     5
  1
3
 73
     1
 44
1.0
  0
LWPOLYLINE
  5
106
330
1F
100
AcDbEntity
  8
18
370
    -1
100
AcDbPolyline
 90
       43
 70
     1
 43
0.0
 10
518221.6875172702
 20
260294.4001702916
 10
518221.911498058
 20
260294.4851165392
 10
518222.2739606817
 20
260294.6501869038
 10
518222.6918172544
 20
260294.8478097787
 10
518222.9537010929
 20
260295.0106087726
 10
518223.0418176152
 20
260295.0581682319
 10
518223.1525204819
 20
260295.0880728036
 10
518223.2607454728
 20
260295.1330693557
 10
518223.3916053975
 20
260295.1805255625
 10
518223.4469264624
 20
260295.1829062594
 10
518223.5147583795
 20
260295.1601134101
 10
518223.6051644937
 20
260295.1146370377
 10
518223.6703849142
 20
260295.0516211775
 10
518223.7154361294
 20
260294.9660250466
 10
518223.7629955887
 20
260294.8779085243
 10
518223.780450045
 20
260294.8175223818
 10
518223.7953719624
 20
260294.7495993595
 10
518223.7876893146
 20
260294.6917882715
 10
518223.7498591479
 20
260294.6441073387
 10
518223.6415005362
 20
260294.5437957953
 10
518223.4625891845
 20
260294.3807963702
 10
518223.2736023407
 20
260294.2102782864
 10
518223.1828864692
 20
260294.1275244518
 10
518223.0646406492
 20
260294.0976381011
 10
518222.9010034882
 20
260294.0125460853
 10
518222.7877194933
 20
260293.9549900916
 10
518222.7046680486
 20
260293.9225043917
 10
518222.5512035586
 20
260293.8851601191
 10
518222.4580948427
 20
260293.8526987139
 10
518222.3724804909
 20
260293.8001045453
 10
518222.3045088792
 20
260293.7650680856
 10
518222.2390515853
 20
260293.7300255522
 10
518222.1333530596
 20
260293.6900515619
 10
518222.0302235147
 20
260293.6727003581
 10
518221.9522978843
 20
260293.6804315954
 10
518221.8844538198
 20
260293.6981958091
 10
518221.8067468418
 20
260293.7964424867
 10
518221.73158455
 20
260293.9072546795
 10
518221.6614448201
 20
260294.0155404072
 10
518221.6214465351
 20
260294.1111816618
 10
518221.6015384978
 20
260294.1967170559
 10
518221.586604433
 20
260294.2596114426
 10
518221.5967710303
 20
260294.304844868
  0
MTEXT
  5
107
330
1F
100
AcDbEntity
  8
18
370
    -1
100
AcDbMText
 10
518222.2025987547
 20
260294.4846862257
 30
0.0
 40
0.12
 41
0.6737
 46
0.0
 71
     1
 72
     5
  1
18/19
 73
     1
 44
1.0
  0
CIRCLE
  5
108
330
1F
100
AcDbEntity
  8
19
370
    -1
100
AcDbCircle
 10
518222.0937624354
 20
260293.9033167068
 30
0.0
 40
0.1149
  0
LWPOLYLINE
  5
109
330
1F
100
AcDbEntity
  8
11
370
    -1
100
AcDbPolyline
 90
       35
 70
     1
 43
0.0
 10
518223.6003022263
 20
260295.1170828709
 10
518223.5828150227
 20
260295.2303503189
 10
518223.5956295586
 20
260295.3308926619
 10
518223.6967428271
 20
260295.5544239978
 10
518223.822707737
 20
260295.6572073432
 10
518224.1978512757
 20
260295.8675050596
 10
518224.5828516543
 20
260295.9948059943
 10
518225.0107533508
 20
260296.187375939
 10
518225.3001428432
 20
260296.2872501778
 10
518225.4737704648
 20
260296.3446604033
 10
518225.5391305799
 20
260296.3394738521
 10
518225.6194247598
 20
260296.2713929143
 10
518225.7070979038
 20
260296.1354071753
 10
518225.7997207257
 20
260295.9667231577
 10
518225.8598457002
 20
260295.8760619492
 10
518225.8897502719
 20
260295.7653590826
 10
518225.8768932202
 20
260295.647216515
 10
518225.8540092658
 20
260295.5416698311
 10
518225.7758953516
 20
260295.4714572171
 10
518225.7255300381
 20
260295.4388925594
 10
518225.5870967917
 20
260295.3788829847
 10
518225.4360737354
 20
260295.311360825
 10
518225.0183629309
 20
260295.1740815769
 10
518224.7566552289
 20
260295.0841977988
 10
518224.5427256385
 20
260294.9967129387
 10
518224.296146359
 20
260294.9243929431
 10
518224.1954886161
 20
260294.8894354411
 10
518224.0797449665
 20
260294.8545143812
 10
518223.9816683519
 20
260294.8472083012
 10
518223.8635683001
 20
260294.8776655773
 10
518223.7680910347
 20
260294.9055538726
 10
518223.7379738843
 20
260294.9282556168
 10
518223.7154361294
 20
260294.9660250466
 10
518223.6703849142
 20
260295.0516211775
 10
518223.6051644937
 20
260295.1146370377
  0
MTEXT
  5
10A
330
1F
100
AcDbEntity
  8
11
370
    -1
100
AcDbMText
 10
518224.4907670978
 20
260295.7940249693
 30
0.0
 40
0.12
 41
0.4547
 46
0.0
 71
     1
 72
     5
  1
11
 73
     1
 44
1.0
  0
LWPOLYLINE
  5
10B
330
1F
100
AcDbEntity
  8
20
370
    -1
100
AcDbPolyline
 90
       27
 70
     1
 43
0.0
 10
518226.0944482435
 20
260294.1129481826
 10
518225.8880798275
 20
260294.0329880549
 10
518225.6993723728
 20
260293.9781285892
 10
518225.530821976
 20
260293.9408207587
 10
518225.3950548893
 20
260293.9436630549
 10
518225.2467951714
 20
260293.9792218507
 10
518225.0834738415
 20
260294.0248743597
 10
518224.962914135
 20
260294.0779665697
 10
518224.8902297189
 20
260294.1736867821
 10
518224.8527457517
 20
260294.269321963
 10
518224.8453546403
 20
260294.3321981287
 10
518224.8556973742
 20
260294.4503467699
 10
518224.9237843857
 20
260294.5331552676
 10
518225.1427243905
 20
260294.613085027
 10
518225.507701332
 20
260294.7781493179
 10
518225.7871611004
 20
260294.9308485249
 10
518225.9609527113
 20
260295.0561453305
 10
518226.084336493
 20
260295.131277254
 10
518226.2101191927
 20
260295.1586310659
 10
518226.2981324625
 20
260295.1634471228
 10
518226.3483216395
 20
260295.1230965648
 10
518226.4184613694
 20
260295.0148108371
 10
518226.4534127977
 20
260294.9116387765
 10
518226.4733694245
 20
260294.8462179246
 10
518226.4788586582
 20
260294.8208566571
 10
518226.0581999968
 20
260294.6640232681
 10
518225.9308173849
 20
260294.613718088
  0
MTEXT
  5
10C
330
1F
100
AcDbEntity
  8
20
370
    -1
100
AcDbMText
 10
518225.1094030906
 20
260294.5292099515
 30
0.0
 40
0.12
 41
0.6505
 46
0.0
 71
     1
 72
     5
  1
20
 73
     1
 44
1.0
  0
LWPOLYLINE
  5
10D
330
1F
100
AcDbEntity
  8
8
370
    -1
100
AcDbPolyline
 90
       50
 70
     1
 43
0.0
 10
518222.6556873493
 20
260293.4222705523
 10
518222.7892863178
 20
260293.5627504435
 10
518222.9026917861
 20
260293.6705927929
 10
518222.9733052627
 20
260293.7584238524
 10
518223.0388232933
 20
260293.8186095637
 10
518223.1596077259
 20
260293.8585471119
 10
518223.4061930791
 20
260293.9333814253
 10
518223.5571796934
 20
260293.9858176782
 10
518223.6478166071
 20
260294.0358853816
 10
518223.7737815171
 20
260294.1386687271
 10
518223.8620073656
 20
260294.2314859065
 10
518223.9653130471
 20
260294.3217523261
 10
518224.0811174334
 20
260294.3818165639
 10
518224.1515972891
 20
260294.4143326322
 10
518224.1944135756
 20
260294.4444011931
 10
518224.2296322456
 20
260294.451859115
 10
518224.2571743414
 20
260294.4040202667
 10
518224.3222246991
 20
260294.2706035085
 10
518224.4099646535
 20
260294.1622752651
 10
518224.4726707563
 20
260294.0992654786
 10
518224.5203516891
 20
260294.061435312
 10
518224.5755512805
 20
260294.0135296532
 10
518224.5225744704
 20
260293.9407419846
 10
518224.4645082881
 20
260293.8428232855
 10
518224.4139364696
 20
260293.7247718231
 10
518224.3835399302
 20
260293.6318149492
 10
518224.3179186471
 20
260293.5288858355
 10
518224.2901457516
 20
260293.481180608
 10
518224.2321463797
 20
260293.4109194046
 10
518224.1892632828
 20
260293.353193348
 10
518224.1011346132
 20
260293.3006052531
 10
518223.8644729102
 20
260293.1704316538
 10
518223.6102049091
 20
260293.0377862523
 10
518223.4617022442
 20
260292.9727723368
 10
518223.3281640125
 20
260292.8574356234
 10
518223.2098574558
 20
260292.8024060949
 10
518223.1443819409
 20
260292.7598206081
 10
518223.1016081701
 20
260292.7473522716
 10
518223.0563261553
 20
260292.7374043266
 10
518223.013600974
 20
260292.7450505325
 10
518222.9634057235
 20
260292.7828867728
 10
518222.9433822863
 20
260292.8206501289
 10
518222.858187018
 20
260292.9415438876
 10
518222.8133666025
 20
260293.1226840943
 10
518222.7884906663
 20
260293.2333748136
 10
518222.7459173269
 20
260293.303878964
 10
518222.6957402973
 20
260293.3492581577
 10
518222.6606076097
 20
260293.3836089363
 10
518222.6528308381
 20
260293.4043252366
 10
518222.6528308381
 20
260293.4120938948
  0
MTEXT
  5
10E
330
1F
100
AcDbEntity
  8
8
370
    -1
100
AcDbMText
 10
518223.3877807531
 20
260293.726143599
 30
0.0
 40
0.12
 41
0.6544
 46
0.0
 71
     1
 72
     5
  1
8
 73
     1
 44
1.0
  0
LWPOLYLINE
  5
10F
330
1F
100
AcDbEntity
  8
9
370
    -1
100
AcDbPolyline
 90
       17
 70
     1
 43
0.0
 10
518221.1400090667
 20
260292.5735731755
 10
518221.477000534
 20
260292.6029311165
 10
518221.6857617943
 20
260292.6325988148
 10
518221.7737872115
 20
260292.6424435074
 10
518221.849162082
 20
260292.619632437
 10
518221.9244458473
 20
260292.5591065999
 10
518221.9620026986
 20
260292.4936432324
 10
518221.9668309028
 20
260292.4106585981
 10
518221.9591239603
 20
260292.3427902389
 10
518221.9413840412
 20
260292.2850034456
 10
518221.9161011688
 20
260292.2272348733
 10
518221.8933022459
 20
260292.1568886384
 10
518221.8755926953
 20
260292.111673434
 10
518221.8629360748
 20
260292.0765033534
 10
518221.5786238075
 20
260291.9967315095
 10
518221.4883027248
 20
260292.077408331
 10
518221.3102781298
 20
260292.2814993025
  0
MTEXT
  5
111
330
1F
100
AcDbEntity
  8
9
370
    -1
100
AcDbMText
 10
518221.4805673102
 20
260292.5475121104
 30
0.0
 40
0.12
 41
0.3666
 46
0.0
 71
     1
 72
     5
  1
9
 73
     1
 44
1.0
  0
LWPOLYLINE
  5
113
330
1F
100
AcDbEntity
  8
9
370
    -1
100
AcDbPolyline
 90
        9
 70
     1
 43
0.0
 10
518221.6681674598
 20
260291.5942220116
 10
518221.5900596192
 20
260291.5265237153
 10
518221.4541953537
 20
260291.489136927
 10
518221.1749785323
 20
260291.4370104315
 10
518221.0517283714
 20
260291.4171934992
 10
518220.9762623958
 20
260291.4022898028
 10
518220.9234799434
 20
260291.4099603033
 10
518220.8757564948
 20
260291.4301902454
 10
518220.8456454182
 20
260291.4554063074
  0
LWPOLYLINE
  5
114
330
1F
100
AcDbEntity
  8
9
 62
     2
370
    -1
100
AcDbPolyline
 90
       14
 70
     0
 43
0.0
 10
518221.1400090667
 20
260292.5735731755
 10
518220.9719921339
 20
260292.5253096923
 10
518220.8169743321
 20
260292.4134755867
 10
518220.153844376
 20
260291.9231274497
 10
518220.0074394007
 20
260291.7940882935
 10
518219.9816032285
 20
260291.6908568957
 10
518220.0246635154
 20
260291.5618181042
 10
518220.1534282714
 20
260291.5134833523
 10
518220.3092659762
 20
260291.4875391994
 10
518220.4824177851
 20
260291.5134833523
 10
518220.6988590845
 20
260291.5134833523
 10
518220.8169743321
 20
260291.467189414
 10
518220.8169743321
 20
260291.467189414
 10
518220.8456454182
 20
260291.4554063074
  0
LWPOLYLINE
  5
115
330
1F
100
AcDbEntity
  8
9
 62
     2
370
    -1
100
AcDbPolyline
 90
        3
 70
     0
 43
0.0
 10
518221.6681674598
 20
260291.5942220116
 10
518221.772915008
 20
260291.7768828782
 10
518221.8629360748
 20
260292.0765033534
  0
LWPOLYLINE
  5
116
330
1F
100
AcDbEntity
  8
22
370
    -1
100
AcDbPolyline
 90
       42
 70
     1
 43
0.0
 10
518221.6661874417
 20
260290.7745544136
 10
518221.6637703027
 20
260290.8147895718
 10
518221.6613167216
 20
260290.8399388233
 10
518221.6563548965
 20
260290.8676084663
 10
518221.6337928469
 20
260290.895320625
 10
518221.4226508896
 20
260290.9209739916
 10
518221.1838392894
 20
260290.9416655331
 10
518221.1034175624
 20
260290.9569457974
 10
518221.0683142922
 20
260290.9972599134
 10
518221.0383125417
 20
260291.0677336955
 10
518220.9780478726
 20
260291.1005655949
 10
518220.6039125639
 20
260291.3076446309
 10
518220.380363007
 20
260291.401214946
 10
518220.2120191152
 20
260291.4493939202
 10
518220.0662797889
 20
260291.4874609601
 10
518219.9303730075
 20
260291.4324739473
 10
518219.8697682127
 20
260291.3245040507
 10
518219.8089933549
 20
260291.1461332562
 10
518219.7809653651
 20
260290.9928266817
 10
518219.7832063675
 20
260290.8796763077
 10
518219.7855141803
 20
260290.7941834293
 10
518219.8079790511
 20
260290.726242186
 10
518219.8278142044
 20
260290.6105349785
 10
518219.8677699735
 20
260290.4972934994
 10
518219.9354743435
 20
260290.4216999766
 10
518220.0209186325
 20
260290.4038932471
 10
518220.1340507854
 20
260290.3985912962
 10
518220.3552864559
 20
260290.3879995416
 10
518220.5614301459
 20
260290.3749299113
 10
518220.7901905486
 20
260290.3567769824
 10
518220.9058795351
 20
260290.3690691823
 10
518220.9562144802
 20
260290.3890622511
 10
518220.996571112
 20
260290.4417657457
 10
518221.039545314
 20
260290.5372065691
 10
518221.0673789462
 20
260290.6100549744
 10
518221.1076991359
 20
260290.6476725624
 10
518221.1780818129
 20
260290.6399595462
 10
518221.414439832
 20
260290.6444172563
 10
518221.5879338329
 20
260290.6465124905
 10
518221.6130284213
 20
260290.6263372114
 10
518221.6432791925
 20
260290.6589504585
 10
518221.6534883055
 20
260290.7217841085
  0
LWPOLYLINE
  5
119
330
1F
100
AcDbEntity
  8
23
370
    -1
100
AcDbPolyline
 90
       26
 70
     1
 43
0.0
 10
518221.592185038
 20
260290.3246676666
 10
518221.6174861314
 20
260290.3899791923
 10
518221.7283651347
 20
260290.4927989797
 10
518221.8894272411
 20
260290.5527538914
 10
518222.1509952486
 20
260290.5848083604
 10
518222.3521528188
 20
260290.5893511019
 10
518222.5684388113
 20
260290.6114576259
 10
518222.7419449596
 20
260290.6185814957
 10
518222.8374343723
 20
260290.595721836
 10
518222.8824734401
 20
260290.5050970695
 10
518222.9074344077
 20
260290.4296067992
 10
518222.9097725889
 20
260290.3566855098
 10
518222.9096632628
 20
260290.3114277897
 10
518222.8919658595
 20
260290.2712412208
 10
518222.8566743054
 20
260290.2336114855
 10
518222.8214191933
 20
260290.2110676569
 10
518222.7711085429
 20
260290.2011318592
 10
518222.6202191074
 20
260290.1889246908
 10
518222.4140389753
 20
260290.1869084144
 10
518222.2581573463
 20
260290.1897993
 10
518222.0871776633
 20
260290.1876979922
 10
518221.9010695578
 20
260290.1680329019
 10
518221.8105541175
 20
260290.1682515542
 10
518221.7351549523
 20
260290.1810053533
 10
518221.6623369153
 20
260290.2214105745
 10
518221.607173766
 20
260290.28440214
  0
MTEXT
  5
11A
330
1F
100
AcDbEntity
  8
23
370
    -1
100
AcDbMText
 10
518222.1318502073
 20
260290.5033119823
 30
0.0
 40
0.12
 41
0.5156
 46
0.0
 71
     1
 72
     5
  1
23
 73
     1
 44
1.0
  0
LWPOLYLINE
  5
11B
330
1F
100
AcDbEntity
  8
35
370
    -1
100
AcDbPolyline
 90
       30
 70
     1
 43
0.0
 10
518223.8961870697
 20
260291.7271282136
 10
518223.6470266619
 20
260291.627156796
 10
518223.5388016709
 20
260291.5821602439
 10
518223.4607484935
 20
260291.5370908077
 10
518223.4078992306
 20
260291.5171038126
 10
518223.3323300025
 20
260291.4594567138
 10
518223.2793957082
 20
260291.4042692697
 10
518223.2390512238
 20
260291.3565944106
 10
518223.2138047934
 20
260291.313911745
 10
518223.2136286569
 20
260291.2409965292
 10
518223.2109321288
 20
260291.1655730693
 10
518223.2258236779
 20
260291.0850784581
 10
518223.2734135056
 20
260291.0095335247
 10
518223.3411907596
 20
260290.9641118154
 10
518223.3964510878
 20
260290.9413493345
 10
518223.4869543808
 20
260290.9361020466
 10
518223.5624203564
 20
260290.951005743
 10
518223.6404006497
 20
260290.9659033658
 10
518223.7963916049
 20
260291.0082702003
 10
518223.9524615179
 20
260291.083323166
 10
518224.1009884775
 20
260291.1583943527
 10
518224.2446386433
 20
260291.2963356314
 10
518224.6197518137
 20
260291.4940617589
 10
518224.8288896419
 20
260291.6796171599
 10
518224.9800523927
 20
260291.8049686287
 10
518225.1539047404
 20
260291.9554086122
 10
518225.21940455
 20
260292.0080513702
 10
518225.2522121547
 20
260292.0582587681
 10
518225.2573258217
 20
260292.0934470697
 10
518225.2197203811
 20
260292.138795895
  0
LWPOLYLINE
  5
11D
330
1F
100
AcDbEntity
  8
35
 62
     2
370
    -1
100
AcDbPolyline
 90
        7
 70
     0
 43
0.0
 10
518223.8961870697
 20
260291.7271282136
 10
518224.5572853768
 20
260292.0859928361
 10
518224.8375106635
 20
260292.2539431159
 10
518225.0196567922
 20
260292.2959307771
 10
518225.1177359502
 20
260292.2679388814
 10
518225.1877922719
 20
260292.1979596893
 10
518225.2197203811
 20
260292.138795895
  0
MTEXT
  5
11E
330
1F
100
AcDbEntity
  8
35
370
    -1
100
AcDbMText
 10
518223.6185311278
 20
260291.4281882115
 30
0.0
 40
0.12
 41
0.4904
 46
0.0
 71
     1
 72
     5
  1
35
 73
     1
 44
1.0
  0
LWPOLYLINE
  5
11F
330
1F
100
AcDbEntity
  8
21
370
    -1
100
AcDbPolyline
 90
       16
 70
     1
 43
0.0
 10
518220.6976034339
 20
260286.3768123596
 10
518220.8737392997
 20
260286.4317021936
 10
518221.0095974916
 20
260286.4665746641
 10
518221.1076984009
 20
260286.4839380153
 10
518221.1957359654
 20
260286.4988113434
 10
518221.2611203752
 20
260286.5036820634
 10
518221.333999149
 20
260286.4884200201
 10
518221.3540590281
 20
260286.4657425706
 10
518221.3590147796
 20
260286.4355586099
 10
518221.3438620625
 20
260286.4079375563
 10
518221.3035540201
 20
260286.3753486039
 10
518221.2456639743
 20
260286.3503451206
 10
518221.1928025641
 20
260286.3253294899
 10
518221.1374207624
 20
260286.2978056151
 10
518220.9335362958
 20
260286.2052678247
 10
518220.7170559456
 20
260286.1027031316
  0
LWPOLYLINE
  5
120
330
1F
100
AcDbEntity
  8
21
 62
     2
370
    -1
100
AcDbPolyline
 90
       11
 70
     0
 43
0.0
 10
518220.6976034339
 20
260286.3768123596
 10
518220.2391196652
 20
260286.2745386876
 10
518219.7968566385
 20
260286.1567316647
 10
518219.7673724366
 20
260286.0831022754
 10
518219.723146134
 20
260285.9800211305
 10
518219.7526303357
 20
260285.8622141076
 10
518219.8705671429
 20
260285.8327623519
 10
518220.0916986563
 20
260285.8180364741
 10
518220.3128301697
 20
260285.8916658633
 10
518220.5339609139
 20
260286.0389246419
 10
518220.7170559456
 20
260286.1027031316
  0
MTEXT
  5
121
330
1F
100
AcDbEntity
  8
21
370
    -1
100
AcDbMText
 10
518220.8108150613
 20
260286.3867790594
 30
0.0
 40
0.12
 41
0.2408
 46
0.0
 71
     1
 72
     5
  1
21
 73
     1
 44
1.0
  0
LWPOLYLINE
  5
123
330
1F
100
AcDbEntity
  8
15
 62
     2
370
    -1
100
AcDbPolyline
 90
       11
 70
     1
 43
0.0
 10
518222.7823216619
 20
260304.6232370487
 10
518222.502089453
 20
260304.4832750176
 10
518222.256886174
 20
260304.3223187912
 10
518222.2218564749
 20
260304.2523377756
 10
518222.2498800803
 20
260304.2033509553
 10
518222.3409554521
 20
260304.0983796143
 10
518222.7262752202
 20
260304.3013245959
 10
518222.9714784991
 20
260304.4272901322
 10
518223.146623149
 20
260304.5672521633
 10
518223.1606353364
 20
260304.5672521633
 10
518223.1256064064
 20
260304.672223869
  0
MTEXT
  5
124
330
1F
100
AcDbEntity
  8
15
370
    -1
100
AcDbMText
 10
518222.5438245121
 20
260304.4916523459
 30
0.0
 40
0.12
 41
0.2272
 46
0.0
 71
     1
 72
     5
  1
15
 73
     1
 44
1.0
  0
MTEXT
  5
1AB
330
1F
100
AcDbEntity
  8
22
370
    -1
100
AcDbMText
 10
518220.3372680128
 20
260290.9287501171
 30
0.0
 40
0.12
 41
0.4122
 46
0.0
 71
     1
 72
     5
  1
22
 73
     1
 44
1.0
  0
LWPOLYLINE
  5
1EC
330
1F
100
AcDbEntity
  8
29
370
    -1
100
AcDbPolyline
 90
        9
 70
     1
 43
0.0
 10
518219.2643581496
 20
260299.7636076684
 10
518219.2716941015
 20
260299.7013142307
 10
518219.290034269
 20
260299.6829925512
 10
518219.3633932139
 20
260299.6536781367
 10
518219.4257485184
 20
260299.6719995435
 10
518219.5357872233
 20
260299.6793282153
 10
518219.6568295687
 20
260299.7819290752
 10
518219.7008452807
 20
260299.8368938411
 10
518219.6384899762
 20
260299.8185724342
  0
MTEXT
  5
1ED
330
1F
100
AcDbEntity
  8
29
370
    -1
100
AcDbMText
 10
518219.4110766144
 20
260299.8735372001
 30
0.0
 40
0.12
 41
0.1614
 46
0.0
 71
     1
 72
     5
  1
29
 73
     1
 44
1.0
  0
LWPOLYLINE
  5
1EE
330
1F
100
AcDbEntity
  8
29
 62
     2
370
    -1
100
AcDbPolyline
 90
        6
 70
     0
 43
0.0
 10
518219.273573375
 20
260299.7588605824
 10
518219.2606191545
 20
260299.8559176312
 10
518219.2865270204
 20
260299.9335634338
 10
518219.5974179609
 20
260300.017679561
 10
518220.0831854148
 20
260300.1147366097
 10
518219.7140024949
 20
260299.8429767095
  0
LWPOLYLINE
  5
1EF
330
1F
100
AcDbEntity
  8
29
 62
     2
370
    -1
100
AcDbPolyline
 90
        6
 70
     0
 43
0.0
 10
518220.4394152644
 20
260300.1794412181
 10
518220.840982873
 20
260300.2570870207
 10
518220.9251827183
 20
260300.244146099
 10
518220.9381363638
 20
260300.1470890502
 10
518220.9251827183
 20
260300.0500317288
 10
518220.8280292276
 20
260300.0047386393
  0
MTEXT
  5
230
330
1F
100
AcDbEntity
  8
priory
370
    -1
100
AcDbMText
 10
518150.9258552567
 20
260329.4129447429
 30
0.0
 40
2.0
 41
25.2021
 46
0.0
 71
     1
 72
     5
  1
Claustral ranges found in 1955
 73
     1
 44
1.0
  0
LWPOLYLINE
  5
275
330
1F
100
AcDbEntity
  8
LOExc
370
    -1
100
AcDbPolyline
 90
       20
 70
     0
 43
0.0
 10
518195.8541242096
 20
260315.1546260745
 10
518204.5631749002
 20
260315.6228659721
 10
518204.5774821356
 20
260316.1279940141
 10
518207.3126917475
 20
260316.1621499055
 10
518207.3571300528
 20
260315.8103539464
 10
518219.3891811765
 20
260316.0767115681
 10
518219.3543966093
 20
260316.8508804462
 10
518222.1358268549
 20
260316.7320672014
 10
518222.1827733822
 20
260316.3691657168
 10
518234.209461318
 20
260316.4008717168
 10
518234.2059128644
 20
260315.641389224
 10
518222.2705773552
 20
260315.6186434743
 10
518222.2602139263
 20
260315.0443740567
 10
518219.46553288
 20
260315.0668184309
 10
518219.39028622
 20
260315.3999841984
 10
518207.3786638192
 20
260314.9398161977
 10
518207.3733168343
 20
260314.343335729
 10
518204.611589418
 20
260314.4782709434
 10
518204.6029759114
 20
260314.8264860428
 10
518195.8866012797
 20
260314.2585029827
  0
LWPOLYLINE
  5
276
330
1F
100
AcDbEntity
  8
LOExc
370
    -1
100
AcDbPolyline
 90
        3
 70
     0
 43
0.0
 10
518195.8698427522
 20
260314.2574109507
 10
518190.2935823526
 20
260313.8940464121
 10
518190.2785654266
 20
260313.2370218715
  0
ENDSEC
  0
SECTION
  2
OBJECTS
  0
DICTIONARY
  5
C
330
0
100
AcDbDictionary
281
     1
  3
ACAD_COLOR
350
33C
  3
ACAD_DETAILVIEWSTYLE
350
3BB
  3
ACAD_GROUP
350
D
  3
ACAD_LAYOUT
350
1A
  3
ACAD_MATERIAL
350
33B
  3
ACAD_MLEADERSTYLE
350
380
  3
ACAD_MLINESTYLE
350
17
  3
ACAD_PLOTSETTINGS
350
19
  3
ACAD_PLOTSTYLENAME
350
E
  3
ACAD_SCALELIST
350
359
  3
ACAD_SECTIONVIEWSTYLE
350
3BC
  3
ACAD_TABLESTYLE
350
37E
  3
ACAD_VISUALSTYLE
350
340
  3
ACDB_RECOMPOSE_DATA
350
3B6
  3
AcDbVariableDictionary
350
382
  0
DICTIONARY
  5
33C
102
{ACAD_REACTORS
330
C
102
}
330
C
100
AcDbDictionary
281
     1
  0
DICTIONARY
  5
3BB
102
{ACAD_REACTORS
330
C
102
}
330
C
100
AcDbDictionary
281
     1
  0
DICTIONARY
  5
D
102
{ACAD_REACTORS
330
C
102
}
330
C
100
AcDbDictionary
281
     1
  0
DICTIONARY
  5
1A
102
{ACAD_REACTORS
330
C
102
}
330
C
100
AcDbDictionary
281
     1
  3
Layout1
350
1E
  3
Layout2
350
26
  3
Model
350
22
  0
DICTIONARY
  5
33B
102
{ACAD_REACTORS
330
C
102
}
330
C
100
AcDbDictionary
281
     1
  3
ByBlock
350
37C
  3
ByLayer
350
37B
  3
Global
350
37D
  0
DICTIONARY
  5
380
102
{ACAD_REACTORS
330
C
102
}
330
C
100
AcDbDictionary
281
     1
  3
Standard
350
381
  0
DICTIONARY
  5
17
102
{ACAD_REACTORS
330
C
102
}
330
C
100
AcDbDictionary
281
     1
  3
Standard
350
18
  0
DICTIONARY
  5
19
102
{ACAD_REACTORS
330
C
102
}
330
C
100
AcDbDictionary
281
     1
  0
ACDBDICTIONARYWDFLT
  5
E
102
{ACAD_REACTORS
330
C
102
}
330
C
100
AcDbDictionary
281
     1
  3
Normal
350
F
100
AcDbDictionaryWithDefault
340
F
  0
DICTIONARY
  5
359
102
{ACAD_REACTORS
330
C
102
}
330
C
100
AcDbDictionary
281
     1
  3
A0
350
35A
  3
A1
350
35B
  3
A2
350
35C
  3
A3
350
35D
  3
A4
350
35E
  3
A5
350
35F
  3
A6
350
360
  3
A7
350
361
  3
A8
350
362
  3
A9
350
363
  3
B0
350
364
  3
B1
350
365
  3
B2
350
366
  3
B3
350
367
  3
B4
350
368
  3
B5
350
369
  3
B6
350
36A
  3
B7
350
36B
  3
B8
350
36C
  3
B9
350
36D
  3
C0
350
36E
  3
C1
350
36F
  3
C2
350
370
  3
C3
350
371
  3
C4
350
372
  3
C5
350
373
  3
C6
350
374
  3
C7
350
375
  3
C8
350
376
  3
C9
350
377
  3
D0
350
378
  3
D1
350
379
  3
D2
350
37A
  0
DICTIONARY
  5
3BC
102
{ACAD_REACTORS
330
C
102
}
330
C
100
AcDbDictionary
281
     1
  0
DICTIONARY
  5
37E
102
{ACAD_REACTORS
330
C
102
}
330
C
100
AcDbDictionary
281
     1
  3
Standard
350
37F
  0
DICTIONARY
  5
340
102
{ACAD_REACTORS
330
C
102
}
330
C
100
AcDbDictionary
281
     1
  3
2dWireframe
350
345
  3
Basic
350
348
  3
Brighten
350
34C
  3
ColorChange
350
350
  3
Conceptual
350
34A
  3
Dim
350
34B
  3
EdgeColorOff
350
353
  3
Facepattern
350
34F
  3
Flat
350
341
  3
FlatWithEdges
350
342
  3
Gouraud
350
343
  3
GouraudWithEdges
350
344
  3
Hidden
350
347
  3
JitterOff
350
351
  3
Linepattern
350
34E
  3
OverhangOff
350
352
  3
Realistic
350
349
  3
Shaded
350
358
  3
Shaded with edges
350
357
  3
Shades of Gray
350
354
  3
Sketchy
350
355
  3
Thicken
350
34D
  3
Wireframe
350
346
  3
X-Ray
350
356
  0
XRECORD
  5
3B6
102
{ACAD_REACTORS
330
C
102
}
330
C
100
AcDbXrecord
280
     1
 90
        1
330
37F
  0
DICTIONARY
  5
382
102
{ACAD_REACTORS
330
C
102
}
330
C
100
AcDbDictionary
281
     1
  3
CANNOSCALE
350
383
  3
CMLEADERSTYLE
350
3B8
  3
CTABLESTYLE
350
3B7
  3
MSLTSCALE
350
3B9
  3
XCLIPFRAME
350
3BA
  0
LAYOUT
  5
1E
102
{ACAD_REACTORS
330
1A
102
}
330
1A
100
AcDbPlotSettings
  1

  2
D:\Programs\AutoCAD LT 2000\plotters\DWF Classic.pc3
  4

  6

 40
0.0
 41
0.0
 42
0.0
 43
0.0
 44
0.0
 45
0.0
 46
0.0
 47
0.0
 48
0.0
 49
0.0
140
0.0
141
0.0
142
1.0
143
1.0
 70
   688
 72
     0
 73
     0
 74
     5
  7

 75
    16
 76
     0
 77
     2
 78
   300
147
1.0
148
0.0
149
0.0
100
AcDbLayout
  1
Layout1
 70
     1
 71
     1
 10
0.0
 20
0.0
 11
420.0
 21
297.0
 12
0.0
 22
0.0
 32
0.0
 14
1.000000000000000E+20
 24
1.000000000000000E+20
 34
1.000000000000000E+20
 15
-1.000000000000000E+20
 25
-1.000000000000000E+20
 35
-1.000000000000000E+20
146
0.0
 13
0.0
 23
0.0
 33
0.0
 16
1.0
 26
0.0
 36
0.0
 17
0.0
 27
1.0
 37
0.0
 76
     0
330
1B
  0
LAYOUT
  5
26
102
{ACAD_REACTORS
330
1A
102
}
330
1A
100
AcDbPlotSettings
  1

  2
D:\Programs\AutoCAD LT 2000\plotters\DWF Classic.pc3
  4

  6

 40
0.0
 41
0.0
 42
0.0
 43
0.0
 44
0.0
 45
0.0
 46
0.0
 47
0.0
 48
0.0
 49
0.0
140
0.0
141
0.0
142
1.0
143
1.0
 70
   688
 72
     0
 73
     0
 74
     5
  7

 75
    16
 76
     0
 77
     2
 78
   300
147
1.0
148
0.0
149
0.0
100
AcDbLayout
  1
Layout2
 70
     1
 71
     2
 10
0.0
 20
0.0
 11
12.0
 21
9.0
 12
0.0
 22
0.0
 32
0.0
 14
0.0
 24
0.0
 34
0.0
 15
0.0
 25
0.0
 35
0.0
146
0.0
 13
0.0
 23
0.0
 33
0.0
 16
1.0
 26
0.0
 36
0.0
 17
0.0
 27
1.0
 37
0.0
 76
     0
330
23
  0
LAYOUT
  5
22
102
{ACAD_REACTORS
330
1A
102
}
330
1A
100
AcDbPlotSettings
  1

  2
D:\Programs\AutoCAD LT 2000\plotters\DWF Classic.pc3
  4

  6

 40
0.0
 41
0.0
 42
0.0
 43
0.0
 44
0.0
 45
0.0
 46
0.0
 47
0.0
 48
0.0
 49
0.0
140
0.0
141
0.0
142
1.0
143
1.0
 70
  1712
 72
     0
 73
     0
 74
     0
  7

 75
     0
 76
     0
 77
     2
 78
   300
147
1.0
148
0.0
149
0.0
100
AcDbLayout
  1
Model
 70
     1
 71
     0
 10
0.0
 20
0.0
 11
12.0
 21
9.0
 12
0.0
 22
0.0
 32
0.0
 14
0.0
 24
0.0
 34
0.0
 15
0.0
 25
0.0
 35
0.0
146
0.0
 13
0.0
 23
0.0
 33
0.0
 16
1.0
 26
0.0
 36
0.0
 17
0.0
 27
1.0
 37
0.0
 76
     0
330
1F
331
33F
  0
MATERIAL
  5
37C
102
{ACAD_REACTORS
330
33B
102
}
330
33B
100
AcDbMaterial
  1
ByBlock
 72
     1
 94
      127
  0
MATERIAL
  5
37B
102
{ACAD_REACTORS
330
33B
102
}
330
33B
100
AcDbMaterial
  1
ByLayer
 72
     1
 94
      127
  0
MATERIAL
  5
37D
102
{ACAD_REACTORS
330
33B
102
}
330
33B
100
AcDbMaterial
  1
Global
 72
     1
 94
      127
  0
MLEADERSTYLE
  5
381
102
{ACAD_REACTORS
330
380
102
}
330
380
100
AcDbMLeaderStyle
179
     2
170
     2
171
     1
172
     0
 90
        2
 40
0.0
 41
0.0
173
     1
 91
-1056964608
340
14
 92
       -2
290
     1
 42
2.0
291
     1
 43
8.0
  3
Standard
341
0
 44
4.0
300

342
11
174
     1
178
     6
175
     1
176
     0
 93
-1056964608
 45
4.0
292
     0
297
     0
 46
4.0
343
0
 94
-1056964608
 47
1.0
 49
1.0
140
1.0
293
     1
141
0.0
294
     1
177
     0
142
1.0
295
     0
296
     0
143
3.75
271
     0
272
     9
273
     9
  0
MLINESTYLE
  5
18
102
{ACAD_REACTORS
330
17
102
}
330
17
100
AcDbMlineStyle
  2
STANDARD
 70
     0
  3

 62
   256
 51
90.0
 52
90.0
 71
     2
 49
0.5
 62
   256
  6
BYLAYER
 49
-0.5
 62
   256
  6
BYLAYER
  0
ACDBPLACEHOLDER
  5
F
102
{ACAD_REACTORS
330
E
102
}
330
E
  0
SCALE
  5
35A
102
{ACAD_REACTORS
330
359
102
}
330
359
100
AcDbScale
 70
     0
300
1:1
140
1.0
141
1.0
290
     1
  0
SCALE
  5
35B
102
{ACAD_REACTORS
330
359
102
}
330
359
100
AcDbScale
 70
     0
300
1:2
140
1.0
141
2.0
290
     0
  0
SCALE
  5
35C
102
{ACAD_REACTORS
330
359
102
}
330
359
100
AcDbScale
 70
     0
300
1:4
140
1.0
141
4.0
290
     0
  0
SCALE
  5
35D
102
{ACAD_REACTORS
330
359
102
}
330
359
100
AcDbScale
 70
     0
300
1:5
140
1.0
141
5.0
290
     0
  0
SCALE
  5
35E
102
{ACAD_REACTORS
330
359
102
}
330
359
100
AcDbScale
 70
     0
300
1:8
140
1.0
141
8.0
290
     0
  0
SCALE
  5
35F
102
{ACAD_REACTORS
330
359
102
}
330
359
100
AcDbScale
 70
     0
300
1:10
140
1.0
141
10.0
290
     0
  0
SCALE
  5
360
102
{ACAD_REACTORS
330
359
102
}
330
359
100
AcDbScale
 70
     0
300
1:16
140
1.0
141
16.0
290
     0
  0
SCALE
  5
361
102
{ACAD_REACTORS
330
359
102
}
330
359
100
AcDbScale
 70
     0
300
1:20
140
1.0
141
20.0
290
     0
  0
SCALE
  5
362
102
{ACAD_REACTORS
330
359
102
}
330
359
100
AcDbScale
 70
     0
300
1:30
140
1.0
141
30.0
290
     0
  0
SCALE
  5
363
102
{ACAD_REACTORS
330
359
102
}
330
359
100
AcDbScale
 70
     0
300
1:40
140
1.0
141
40.0
290
     0
  0
SCALE
  5
364
102
{ACAD_REACTORS
330
359
102
}
330
359
100
AcDbScale
 70
     0
300
1:50
140
1.0
141
50.0
290
     0
  0
SCALE
  5
365
102
{ACAD_REACTORS
330
359
102
}
330
359
100
AcDbScale
 70
     0
300
1:100
140
1.0
141
100.0
290
     0
  0
SCALE
  5
366
102
{ACAD_REACTORS
330
359
102
}
330
359
100
AcDbScale
 70
     0
300
2:1
140
2.0
141
1.0
290
     0
  0
SCALE
  5
367
102
{ACAD_REACTORS
330
359
102
}
330
359
100
AcDbScale
 70
     0
300
4:1
140
4.0
141
1.0
290
     0
  0
SCALE
  5
368
102
{ACAD_REACTORS
330
359
102
}
330
359
100
AcDbScale
 70
     0
300
8:1
140
8.0
141
1.0
290
     0
  0
SCALE
  5
369
102
{ACAD_REACTORS
330
359
102
}
330
359
100
AcDbScale
 70
     0
300
10:1
140
10.0
141
1.0
290
     0
  0
SCALE
  5
36A
102
{ACAD_REACTORS
330
359
102
}
330
359
100
AcDbScale
 70
     0
300
100:1
140
100.0
141
1.0
290
     0
  0
SCALE
  5
36B
102
{ACAD_REACTORS
330
359
102
}
330
359
100
AcDbScale
 70
     0
300
1/128" = 1'-0"
140
0.0078125
141
12.0
290
     0
  0
SCALE
  5
36C
102
{ACAD_REACTORS
330
359
102
}
330
359
100
AcDbScale
 70
     0
300
1/64" = 1'-0"
140
0.015625
141
12.0
290
     0
  0
SCALE
  5
36D
102
{ACAD_REACTORS
330
359
102
}
330
359
100
AcDbScale
 70
     0
300
1/32" = 1'-0"
140
0.03125
141
12.0
290
     0
  0
SCALE
  5
36E
102
{ACAD_REACTORS
330
359
102
}
330
359
100
AcDbScale
 70
     0
300
1/16" = 1'-0"
140
0.0625
141
12.0
290
     0
  0
SCALE
  5
36F
102
{ACAD_REACTORS
330
359
102
}
330
359
100
AcDbScale
 70
     0
300
3/32" = 1'-0"
140
0.09375
141
12.0
290
     0
  0
SCALE
  5
370
102
{ACAD_REACTORS
330
359
102
}
330
359
100
AcDbScale
 70
     0
300
1/8" = 1'-0"
140
0.125
141
12.0
290
     0
  0
SCALE
  5
371
102
{ACAD_REACTORS
330
359
102
}
330
359
100
AcDbScale
 70
     0
300
3/16" = 1'-0"
140
0.1875
141
12.0
290
     0
  0
SCALE
  5
372
102
{ACAD_REACTORS
330
359
102
}
330
359
100
AcDbScale
 70
     0
300
1/4" = 1'-0"
140
0.25
141
12.0
290
     0
  0
SCALE
  5
373
102
{ACAD_REACTORS
330
359
102
}
330
359
100
AcDbScale
 70
     0
300
3/8" = 1'-0"
140
0.375
141
12.0
290
     0
  0
SCALE
  5
374
102
{ACAD_REACTORS
330
359
102
}
330
359
100
AcDbScale
 70
     0
300
1/2" = 1'-0"
140
0.5
141
12.0
290
     0
  0
SCALE
  5
375
102
{ACAD_REACTORS
330
359
102
}
330
359
100
AcDbScale
 70
     0
300
3/4" = 1'-0"
140
0.75
141
12.0
290
     0
  0
SCALE
  5
376
102
{ACAD_REACTORS
330
359
102
}
330
359
100
AcDbScale
 70
     0
300
1" = 1'-0"
140
1.0
141
12.0
290
     0
  0
SCALE
  5
377
102
{ACAD_REACTORS
330
359
102
}
330
359
100
AcDbScale
 70
     0
300
1-1/2" = 1'-0"
140
1.5
141
12.0
290
     0
  0
SCALE
  5
378
102
{ACAD_REACTORS
330
359
102
}
330
359
100
AcDbScale
 70
     0
300
3" = 1'-0"
140
3.0
141
12.0
290
     0
  0
SCALE
  5
379
102
{ACAD_REACTORS
330
359
102
}
330
359
100
AcDbScale
 70
     0
300
6" = 1'-0"
140
6.0
141
12.0
290
     0
  0
SCALE
  5
37A
102
{ACAD_REACTORS
330
359
102
}
330
359
100
AcDbScale
 70
     0
300
1'-0" = 1'-0"
140
12.0
141
12.0
290
     0
  0
TABLESTYLE
  5
37F
102
{ACAD_REACTORS
330
37E
102
}
102
{ACAD_XDICTIONARY
360
3B4
102
}
330
37E
100
AcDbTableStyle
  3
Standard
 70
     0
 71
     0
 40
0.06
 41
0.06
280
     0
281
     0
  7
Standard
140
4.5
170
     2
 62
     0
 63
   257
283
     0
 90
        4
 91
        0
  1

274
    -2
284
     1
 64
     0
275
    -2
285
     1
 65
     0
276
    -2
286
     1
 66
     0
277
    -2
287
     1
 67
     0
278
    -2
288
     1
 68
     0
279
    -2
289
     1
 69
     0
  7
Standard
140
6.0
170
     5
 62
     0
 63
   257
283
     0
 90
        4
 91
        0
  1

274
    -2
284
     1
 64
     0
275
    -2
285
     1
 65
     0
276
    -2
286
     1
 66
     0
277
    -2
287
     1
 67
     0
278
    -2
288
     1
 68
     0
279
    -2
289
     1
 69
     0
  7
Standard
140
4.5
170
     5
 62
     0
 63
   257
283
     0
 90
        4
 91
        0
  1

274
    -2
284
     1
 64
     0
275
    -2
285
     1
 65
     0
276
    -2
286
     1
 66
     0
277
    -2
287
     1
 67
     0
278
    -2
288
     1
 68
     0
279
    -2
289
     1
 69
     0
  0
VISUALSTYLE
  5
345
102
{ACAD_REACTORS
330
340
102
}
102
{ACAD_XDICTIONARY
360
38C
102
}
330
340
100
AcDbVisualStyle
  2
2dWireframe
 70
     4
177
     2
291
     0
 71
     0
176
     1
 72
     2
176
     1
 73
     0
176
     1
 90
        0
176
     1
 40
0.6
176
     1
 41
30.0
176
     1
 62
     5
 63
     7
421
 16777215
176
     1
 74
     1
176
     1
 91
        4
176
     1
 64
     7
176
     1
 65
   257
176
     1
 75
     1
176
     1
175
     1
176
     1
 42
1.0
176
     1
 92
        0
176
     1
 66
   257
176
     1
 43
1.0
176
     1
 76
     1
176
     1
 77
     6
176
     1
 78
     2
176
     1
 67
     7
176
     1
 79
     5
176
     1
170
     0
176
     1
171
     0
176
     1
290
     0
176
     1
 93
        1
176
     1
 44
0.0
176
     1
173
     0
176
     1
  0
VISUALSTYLE
  5
348
102
{ACAD_REACTORS
330
340
102
}
102
{ACAD_XDICTIONARY
360
392
102
}
330
340
100
AcDbVisualStyle
  2
Basic
 70
     7
177
     2
291
     1
 71
     1
176
     1
 72
     0
176
     1
 73
     1
176
     1
 90
        0
176
     1
 40
0.6
176
     1
 41
30.0
176
     1
 62
     5
 63
     7
421
 16777215
176
     1
 74
     0
176
     1
 91
        4
176
     1
 64
     7
176
     1
 65
   257
176
     1
 75
     1
176
     1
175
     1
176
     1
 42
1.0
176
     1
 92
        8
176
     1
 66
     7
176
     1
 43
1.0
176
     1
 76
     1
176
     1
 77
     6
176
     1
 78
     2
176
     1
 67
     7
176
     1
 79
     5
176
     1
170
     0
176
     1
171
     0
176
     1
290
     0
176
     1
 93
        1
176
     1
 44
0.0
176
     1
173
     0
176
     1
  0
VISUALSTYLE
  5
34C
102
{ACAD_REACTORS
330
340
102
}
102
{ACAD_XDICTIONARY
360
39A
102
}
330
340
100
AcDbVisualStyle
  2
Brighten
 70
    12
177
     2
291
     1
 71
     2
176
     1
 72
     2
176
     1
 73
     0
176
     1
 90
        0
176
     1
 40
0.6
176
     1
 41
30.0
176
     1
 62
     5
 63
     7
421
 16777215
176
     1
 74
     1
176
     1
 91
        4
176
     1
 64
     7
176
     1
 65
   257
176
     1
 75
     1
176
     1
175
     1
176
     1
 42
1.0
176
     1
 92
        8
176
     1
 66
     7
176
     1
 43
1.0
176
     1
 76
     1
176
     1
 77
     6
176
     1
 78
     2
176
     1
 67
     7
176
     1
 79
     5
176
     1
170
     0
176
     1
171
     0
176
     1
290
     0
176
     1
 93
        1
176
     1
 44
50.0
176
     1
173
     0
176
     1
  0
VISUALSTYLE
  5
350
102
{ACAD_REACTORS
330
340
102
}
102
{ACAD_XDICTIONARY
360
3A2
102
}
330
340
100
AcDbVisualStyle
  2
ColorChange
 70
    16
177
     2
291
     1
 71
     2
176
     1
 72
     2
176
     1
 73
     3
176
     1
 90
        0
176
     1
 40
0.6
176
     1
 41
30.0
176
     1
 62
     5
 63
     8
421
  8421504
176
     1
 74
     1
176
     1
 91
        4
176
     1
 64
     7
176
     1
 65
   257
176
     1
 75
     1
176
     1
175
     1
176
     1
 42
1.0
176
     1
 92
        8
176
     1
 66
     8
424
  8421504
176
     1
 43
1.0
176
     1
 76
     1
176
     1
 77
     6
176
     1
 78
     2
176
     1
 67
     7
176
     1
 79
     5
176
     1
170
     0
176
     1
171
     0
176
     1
290
     0
176
     1
 93
        1
176
     1
 44
0.0
176
     1
173
     0
176
     1
  0
VISUALSTYLE
  5
34A
102
{ACAD_REACTORS
330
340
102
}
102
{ACAD_XDICTIONARY
360
396
102
}
330
340
100
AcDbVisualStyle
  2
Conceptual
 70
     9
177
     2
291
     0
 71
     3
176
     1
 72
     2
176
     1
 73
     0
176
     1
 90
        0
176
     1
 40
0.6
176
     1
 41
30.0
176
     1
 62
     5
 63
     7
421
 16777215
176
     1
 74
     2
176
     1
 91
        2
176
     1
 64
     7
176
     1
 65
   257
176
     1
 75
     1
176
     1
175
     1
176
     1
 42
179.0
176
     1
 92
        8
176
     1
 66
     7
176
     1
 43
1.0
176
     1
 76
     1
176
     1
 77
     6
176
     1
 78
     2
176
     1
 67
     7
176
     1
 79
     3
176
     1
170
     0
176
     1
171
     0
176
     1
290
     0
176
     1
 93
        1
176
     1
 44
0.0
176
     1
173
     0
176
     1
  0
VISUALSTYLE
  5
34B
102
{ACAD_REACTORS
330
340
102
}
102
{ACAD_XDICTIONARY
360
398
102
}
330
340
100
AcDbVisualStyle
  2
Dim
 70
    11
177
     2
291
     1
 71
     2
176
     1
 72
     2
176
     1
 73
     0
176
     1
 90
        0
176
     1
 40
0.6
176
     1
 41
30.0
176
     1
 62
     5
 63
     7
421
 16777215
176
     1
 74
     1
176
     1
 91
        4
176
     1
 64
     7
176
     1
 65
   257
176
     1
 75
     1
176
     1
175
     1
176
     1
 42
1.0
176
     1
 92
        8
176
     1
 66
     7
176
     1
 43
1.0
176
     1
 76
     1
176
     1
 77
     6
176
     1
 78
     2
176
     1
 67
     7
176
     1
 79
     5
176
     1
170
     0
176
     1
171
     0
176
     1
290
     0
176
     1
 93
        1
176
     1
 44
-50.0
176
     1
173
     0
176
     1
  0
VISUALSTYLE
  5
353
102
{ACAD_REACTORS
330
340
102
}
102
{ACAD_XDICTIONARY
360
3A8
102
}
330
340
100
AcDbVisualStyle
  2
EdgeColorOff
 70
    22
177
     2
291
     1
 71
     2
176
     0
 72
     2
176
     0
 73
     0
176
     0
 90
        0
176
     0
 40
0.6
176
     0
 41
30.0
176
     0
 62
     5
 63
     7
421
 16777215
176
     0
 74
     1
176
     0
 91
        4
176
     0
 64
     7
176
     0
 65
   257
176
     0
 75
     1
176
     0
175
     1
176
     0
 42
1.0
176
     0
 92
        8
176
     2
 66
     7
176
     0
 43
1.0
176
     0
 76
     1
176
     0
 77
     6
176
     0
 78
     2
176
     0
 67
     7
176
     0
 79
     5
176
     0
170
     0
176
     0
171
     0
176
     0
290
     0
176
     0
 93
        1
176
     0
 44
0.0
176
     0
173
     0
176
     0
  0
VISUALSTYLE
  5
34F
102
{ACAD_REACTORS
330
340
102
}
102
{ACAD_XDICTIONARY
360
3A0
102
}
330
340
100
AcDbVisualStyle
  2
Facepattern
 70
    15
177
     2
291
     1
 71
     2
176
     1
 72
     2
176
     1
 73
     0
176
     1
 90
        0
176
     1
 40
0.6
176
     1
 41
30.0
176
     1
 62
     5
 63
     7
421
 16777215
176
     1
 74
     1
176
     1
 91
        4
176
     1
 64
     7
176
     1
 65
   257
176
     1
 75
     1
176
     1
175
     1
176
     1
 42
1.0
176
     1
 92
        8
176
     1
 66
     7
176
     1
 43
1.0
176
     1
 76
     1
176
     1
 77
     6
176
     1
 78
     2
176
     1
 67
     7
176
     1
 79
     5
176
     1
170
     0
176
     1
171
     0
176
     1
290
     0
176
     1
 93
        1
176
     1
 44
0.0
176
     1
173
     0
176
     1
  0
VISUALSTYLE
  5
341
102
{ACAD_REACTORS
330
340
102
}
102
{ACAD_XDICTIONARY
360
384
102
}
330
340
100
AcDbVisualStyle
  2
Flat
 70
     0
177
     2
291
     1
 71
     2
176
     1
 72
     1
176
     1
 73
     1
176
     1
 90
        2
176
     1
 40
0.6
176
     1
 41
30.0
176
     1
 62
     5
 63
     7
421
 16777215
176
     1
 74
     0
176
     1
 91
        0
176
     1
 64
     7
176
     1
 65
   257
176
     1
 75
     1
176
     1
175
     1
176
     1
 42
1.0
176
     1
 92
        8
176
     1
 66
     7
176
     1
 43
1.0
176
     1
 76
     1
176
     1
 77
     6
176
     1
 78
     2
176
     1
 67
     7
176
     1
 79
     5
176
     1
170
     0
176
     1
171
     0
176
     1
290
     0
176
     1
 93
       13
176
     1
 44
0.0
176
     1
173
     0
176
     1
  0
VISUALSTYLE
  5
342
102
{ACAD_REACTORS
330
340
102
}
102
{ACAD_XDICTIONARY
360
386
102
}
330
340
100
AcDbVisualStyle
  2
FlatWithEdges
 70
     1
177
     2
291
     1
 71
     2
176
     1
 72
     1
176
     1
 73
     1
176
     1
 90
        2
176
     1
 40
0.6
176
     1
 41
30.0
176
     1
 62
     5
 63
     7
421
 16777215
176
     1
 74
     1
176
     1
 91
        0
176
     1
 64
     7
176
     1
 65
   257
176
     1
 75
     1
176
     1
175
     1
176
     1
 42
1.0
176
     1
 92
        0
176
     1
 66
   257
176
     1
 43
1.0
176
     1
 76
     1
176
     1
 77
     6
176
     1
 78
     2
176
     1
 67
     7
176
     1
 79
     5
176
     1
170
     0
176
     1
171
     0
176
     1
290
     0
176
     1
 93
       13
176
     1
 44
0.0
176
     1
173
     0
176
     1
  0
VISUALSTYLE
  5
343
102
{ACAD_REACTORS
330
340
102
}
102
{ACAD_XDICTIONARY
360
388
102
}
330
340
100
AcDbVisualStyle
  2
Gouraud
 70
     2
177
     2
291
     1
 71
     2
176
     1
 72
     2
176
     1
 73
     1
176
     1
 90
        2
176
     1
 40
0.6
176
     1
 41
30.0
176
     1
 62
     5
 63
     7
421
 16777215
176
     1
 74
     0
176
     1
 91
        0
176
     1
 64
     7
176
     1
 65
   257
176
     1
 75
     1
176
     1
175
     1
176
     1
 42
1.0
176
     1
 92
        0
176
     1
 66
     7
176
     1
 43
1.0
176
     1
 76
     1
176
     1
 77
     6
176
     1
 78
     2
176
     1
 67
     7
176
     1
 79
     5
176
     1
170
     0
176
     1
171
     0
176
     1
290
     0
176
     1
 93
       13
176
     1
 44
0.0
176
     1
173
     0
176
     1
  0
VISUALSTYLE
  5
344
102
{ACAD_REACTORS
330
340
102
}
102
{ACAD_XDICTIONARY
360
38A
102
}
330
340
100
AcDbVisualStyle
  2
GouraudWithEdges
 70
     3
177
     2
291
     1
 71
     2
176
     1
 72
     2
176
     1
 73
     1
176
     1
 90
        2
176
     1
 40
0.6
176
     1
 41
30.0
176
     1
 62
     5
 63
     7
421
 16777215
176
     1
 74
     1
176
     1
 91
        0
176
     1
 64
     7
176
     1
 65
   257
176
     1
 75
     1
176
     1
175
     1
176
     1
 42
1.0
176
     1
 92
        0
176
     1
 66
   257
176
     1
 43
1.0
176
     1
 76
     1
176
     1
 77
     6
176
     1
 78
     2
176
     1
 67
     7
176
     1
 79
     5
176
     1
170
     0
176
     1
171
     0
176
     1
290
     0
176
     1
 93
       13
176
     1
 44
0.0
176
     1
173
     0
176
     1
  0
VISUALSTYLE
  5
347
102
{ACAD_REACTORS
330
340
102
}
102
{ACAD_XDICTIONARY
360
390
102
}
330
340
100
AcDbVisualStyle
  2
Hidden
 70
     6
177
     2
291
     0
 71
     1
176
     1
 72
     2
176
     1
 73
     2
176
     1
 90
        0
176
     1
 40
0.6
176
     1
 41
30.0
176
     1
 62
     5
 63
     7
421
 16777215
176
     1
 74
     2
176
     1
 91
        2
176
     1
 64
     7
176
     1
 65
   257
176
     1
 75
     2
176
     1
175
     1
176
     1
 42
40.0
176
     1
 92
        0
176
     1
 66
   257
176
     1
 43
1.0
176
     1
 76
     1
176
     1
 77
     6
176
     1
 78
     2
176
     1
 67
     7
176
     1
 79
     3
176
     1
170
     0
176
     1
171
     0
176
     1
290
     0
176
     1
 93
        1
176
     1
 44
0.0
176
     1
173
     0
176
     1
  0
VISUALSTYLE
  5
351
102
{ACAD_REACTORS
330
340
102
}
102
{ACAD_XDICTIONARY
360
3A4
102
}
330
340
100
AcDbVisualStyle
  2
JitterOff
 70
    20
177
     2
291
     1
 71
     2
176
     0
 72
     2
176
     0
 73
     0
176
     0
 90
        0
176
     0
 40
0.6
176
     0
 41
30.0
176
     0
 62
     5
 63
     7
421
 16777215
176
     0
 74
     1
176
     0
 91
        4
176
     0
 64
     7
176
     0
 65
   257
176
     0
 75
     1
176
     0
175
     1
176
     0
 42
1.0
176
     0
 92
       10
176
     2
 66
     7
176
     0
 43
1.0
176
     0
 76
     1
176
     0
 77
     6
176
     0
 78
     2
176
     0
 67
     7
176
     0
 79
     5
176
     0
170
     0
176
     0
171
     0
176
     0
290
     0
176
     0
 93
        1
176
     0
 44
0.0
176
     0
173
     0
176
     0
  0
VISUALSTYLE
  5
34E
102
{ACAD_REACTORS
330
340
102
}
102
{ACAD_XDICTIONARY
360
39E
102
}
330
340
100
AcDbVisualStyle
  2
Linepattern
 70
    14
177
     2
291
     1
 71
     2
176
     1
 72
     2
176
     1
 73
     0
176
     1
 90
        0
176
     1
 40
0.6
176
     1
 41
30.0
176
     1
 62
     5
 63
     7
421
 16777215
176
     1
 74
     1
176
     1
 91
        4
176
     1
 64
     7
176
     1
 65
   257
176
     1
 75
     7
176
     1
175
     7
176
     1
 42
1.0
176
     1
 92
        8
176
     1
 66
     7
176
     1
 43
1.0
176
     1
 76
     1
176
     1
 77
     6
176
     1
 78
     2
176
     1
 67
     7
176
     1
 79
     5
176
     1
170
     0
176
     1
171
     0
176
     1
290
     0
176
     1
 93
        1
176
     1
 44
0.0
176
     1
173
     0
176
     1
  0
VISUALSTYLE
  5
352
102
{ACAD_REACTORS
330
340
102
}
102
{ACAD_XDICTIONARY
360
3A6
102
}
330
340
100
AcDbVisualStyle
  2
OverhangOff
 70
    21
177
     2
291
     1
 71
     2
176
     0
 72
     2
176
     0
 73
     0
176
     0
 90
        0
176
     0
 40
0.6
176
     0
 41
30.0
176
     0
 62
     5
 63
     7
421
 16777215
176
     0
 74
     1
176
     0
 91
        4
176
     0
 64
     7
176
     0
 65
   257
176
     0
 75
     1
176
     0
175
     1
176
     0
 42
1.0
176
     0
 92
        9
176
     2
 66
     7
176
     0
 43
1.0
176
     0
 76
     1
176
     0
 77
     6
176
     0
 78
     2
176
     0
 67
     7
176
     0
 79
     5
176
     0
170
     0
176
     0
171
     0
176
     0
290
     0
176
     0
 93
        1
176
     0
 44
0.0
176
     0
173
     0
176
     0
  0
VISUALSTYLE
  5
349
102
{ACAD_REACTORS
330
340
102
}
102
{ACAD_XDICTIONARY
360
394
102
}
330
340
100
AcDbVisualStyle
  2
Realistic
 70
     8
177
     2
291
     0
 71
     2
176
     1
 72
     3
176
     1
 73
     0
176
     1
 90
        2
176
     1
 40
0.6
176
     1
 41
30.0
176
     1
 62
     5
 63
     7
421
 16777215
176
     1
 74
     0
176
     1
 91
        0
176
     1
 64
     7
176
     1
 65
   257
176
     1
 75
     1
176
     1
175
     1
176
     1
 42
1.0
176
     1
 92
        8
176
     1
 66
   257
176
     1
 43
1.0
176
     1
 76
     1
176
     1
 77
     6
176
     1
 78
     2
176
     1
 67
     7
176
     1
 79
     3
176
     1
170
     0
176
     1
171
     0
176
     1
290
     0
176
     1
 93
       13
176
     1
 44
0.0
176
     1
173
     0
176
     1
  0
VISUALSTYLE
  5
358
102
{ACAD_REACTORS
330
340
102
}
102
{ACAD_XDICTIONARY
360
3B2
102
}
330
340
100
AcDbVisualStyle
  2
Shaded
 70
    27
177
     2
291
     0
 71
     2
176
     1
 72
     2
176
     1
 73
     1
176
     1
 90
        2
176
     1
 40
0.6
176
     1
 41
30.0
176
     1
 62
     5
 63
     7
421
 16777215
176
     1
 74
     0
176
     1
 91
        4
176
     1
 64
     7
176
     1
 65
   257
176
     1
 75
     1
176
     1
175
     1
176
     1
 42
1.0
176
     1
 92
        8
176
     1
 66
   257
176
     1
 43
1.0
176
     1
 76
     1
176
     1
 77
     6
176
     1
 78
     2
176
     1
 67
     8
425
  7895160
176
     1
 79
     3
176
     1
170
     0
176
     1
171
     0
176
     1
290
     0
176
     1
 93
        5
176
     1
 44
0.0
176
     1
173
     0
176
     1
  0
VISUALSTYLE
  5
357
102
{ACAD_REACTORS
330
340
102
}
102
{ACAD_XDICTIONARY
360
3B0
102
}
330
340
100
AcDbVisualStyle
  2
Shaded with edges
 70
    26
177
     2
291
     0
 71
     2
176
     1
 72
     2
176
     1
 73
     1
176
     1
 90
        2
176
     1
 40
0.6
176
     1
 41
30.0
176
     1
 62
     5
 63
     7
421
 16777215
176
     1
 74
     1
176
     1
 91
       10
176
     1
 64
     7
176
     1
 65
   257
176
     1
 75
     2
176
     1
175
     1
176
     1
 42
1.0
176
     1
 92
        8
176
     1
 66
   257
176
     1
 43
1.0
176
     1
 76
     1
176
     1
 77
     6
176
     1
 78
     2
176
     1
 67
     7
176
     1
 79
     3
176
     1
170
     0
176
     1
171
     0
176
     1
290
     0
176
     1
 93
        5
176
     1
 44
0.0
176
     1
173
     0
176
     1
  0
VISUALSTYLE
  5
354
102
{ACAD_REACTORS
330
340
102
}
102
{ACAD_XDICTIONARY
360
3AA
102
}
330
340
100
AcDbVisualStyle
  2
Shades of Gray
 70
    23
177
     2
291
     0
 71
     2
176
     1
 72
     2
176
     1
 73
     3
176
     1
 90
        0
176
     1
 40
0.6
176
     1
 41
30.0
176
     1
 62
     5
 63
     7
421
 16777215
176
     1
 74
     2
176
     1
 91
        2
176
     1
 64
     7
176
     1
 65
     7
176
     1
 75
     1
176
     1
175
     1
176
     1
 42
40.0
176
     1
 92
        8
176
     1
 66
     7
176
     1
 43
1.0
176
     1
 76
     1
176
     1
 77
     6
176
     1
 78
     2
176
     1
 67
     7
176
     1
 79
     3
176
     1
170
     0
176
     1
171
     0
176
     1
290
     0
176
     1
 93
        1
176
     1
 44
0.0
176
     1
173
     0
176
     1
  0
VISUALSTYLE
  5
355
102
{ACAD_REACTORS
330
340
102
}
102
{ACAD_XDICTIONARY
360
3AC
102
}
330
340
100
AcDbVisualStyle
  2
Sketchy
 70
    24
177
     2
291
     0
 71
     1
176
     1
 72
     2
176
     1
 73
     2
176
     1
 90
        0
176
     1
 40
0.6
176
     1
 41
30.0
176
     1
 62
     5
 63
     7
421
 16777215
176
     1
 74
     2
176
     1
 91
        2
176
     1
 64
     7
176
     1
 65
     7
176
     1
 75
     1
176
     1
175
     1
176
     1
 42
40.0
176
     1
 92
       11
176
     1
 66
     7
176
     1
 43
1.0
176
     1
 76
     1
176
     1
 77
     6
176
     1
 78
     2
176
     1
 67
     7
176
     1
 79
     6
176
     1
170
     0
176
     1
171
     0
176
     1
290
     0
176
     1
 93
        1
176
     1
 44
0.0
176
     1
173
     0
176
     1
  0
VISUALSTYLE
  5
34D
102
{ACAD_REACTORS
330
340
102
}
102
{ACAD_XDICTIONARY
360
39C
102
}
330
340
100
AcDbVisualStyle
  2
Thicken
 70
    13
177
     2
291
     1
 71
     2
176
     1
 72
     2
176
     1
 73
     0
176
     1
 90
        0
176
     1
 40
0.6
176
     1
 41
30.0
176
     1
 62
     5
 63
     7
421
 16777215
176
     1
 74
     1
176
     1
 91
        4
176
     1
 64
     7
176
     1
 65
   257
176
     1
 75
     1
176
     1
175
     1
176
     1
 42
1.0
176
     1
 92
       12
176
     1
 66
     7
176
     1
 43
1.0
176
     1
 76
     1
176
     1
 77
     6
176
     1
 78
     2
176
     1
 67
     7
176
     1
 79
     5
176
     1
170
     0
176
     1
171
     0
176
     1
290
     0
176
     1
 93
        1
176
     1
 44
0.0
176
     1
173
     0
176
     1
  0
VISUALSTYLE
  5
346
102
{ACAD_REACTORS
330
340
102
}
102
{ACAD_XDICTIONARY
360
38E
102
}
330
340
100
AcDbVisualStyle
  2
Wireframe
 70
     5
177
     2
291
     0
 71
     0
176
     1
 72
     2
176
     1
 73
     0
176
     1
 90
        0
176
     1
 40
0.6
176
     1
 41
30.0
176
     1
 62
     5
 63
     7
421
 16777215
176
     1
 74
     1
176
     1
 91
        4
176
     1
 64
     7
176
     1
 65
   257
176
     1
 75
     1
176
     1
175
     1
176
     1
 42
1.0
176
     1
 92
        0
176
     1
 66
   257
176
     1
 43
1.0
176
     1
 76
     1
176
     1
 77
     6
176
     1
 78
     2
176
     1
 67
     7
176
     1
 79
     3
176
     1
170
     0
176
     1
171
     0
176
     1
290
     0
176
     1
 93
        1
176
     1
 44
0.0
176
     1
173
     0
176
     1
  0
VISUALSTYLE
  5
356
102
{ACAD_REACTORS
330
340
102
}
102
{ACAD_XDICTIONARY
360
3AE
102
}
330
340
100
AcDbVisualStyle
  2
X-Ray
 70
    25
177
     2
291
     0
 71
     2
176
     1
 72
     2
176
     1
 73
     1
176
     1
 90
        1
176
     1
 40
0.5
176
     1
 41
30.0
176
     1
 62
     5
 63
     7
421
 16777215
176
     1
 74
     1
176
     1
 91
        0
176
     1
 64
     7
176
     1
 65
   257
176
     1
 75
     1
176
     1
175
     1
176
     1
 42
1.0
176
     1
 92
        8
176
     1
 66
     7
176
     1
 43
1.0
176
     1
 76
     1
176
     1
 77
     6
176
     1
 78
     2
176
     1
 67
     7
176
     1
 79
     3
176
     1
170
     0
176
     1
171
     0
176
     1
290
     0
176
     1
 93
       13
176
     1
 44
0.0
176
     1
173
     0
176
     1
  0
DICTIONARYVAR
  5
383
102
{ACAD_REACTORS
330
382
102
}
330
382
100
DictionaryVariables
280
     0
  1
1:1
  0
DICTIONARYVAR
  5
3B8
102
{ACAD_REACTORS
330
382
102
}
330
382
100
DictionaryVariables
280
     0
  1
Standard
  0
DICTIONARYVAR
  5
3B7
102
{ACAD_REACTORS
330
382
102
}
330
382
100
DictionaryVariables
280
     0
  1
Standard
  0
DICTIONARYVAR
  5
3B9
102
{ACAD_REACTORS
330
382
102
}
330
382
100
DictionaryVariables
280
     0
  1
0
  0
DICTIONARYVAR
  5
3BA
102
{ACAD_REACTORS
330
382
102
}
330
382
100
DictionaryVariables
280
     0
  1
0
  0
DICTIONARY
  5
3B4
330
37F
100
AcDbDictionary
280
     1
281
     1
  3
ACAD_ROUNDTRIP_2008_TABLESTYLE_CELLSTYLEMAP
360
3B5
  0
DICTIONARY
  5
38C
330
345
100
AcDbDictionary
280
     1
281
     1
  3
ACAD_XREC_ROUNDTRIP
360
38D
  0
DICTIONARY
  5
392
330
348
100
AcDbDictionary
280
     1
281
     1
  3
ACAD_XREC_ROUNDTRIP
360
393
  0
DICTIONARY
  5
39A
330
34C
100
AcDbDictionary
280
     1
281
     1
  3
ACAD_XREC_ROUNDTRIP
360
39B
  0
DICTIONARY
  5
3A2
330
350
100
AcDbDictionary
280
     1
281
     1
  3
ACAD_XREC_ROUNDTRIP
360
3A3
  0
DICTIONARY
  5
396
330
34A
100
AcDbDictionary
280
     1
281
     1
  3
ACAD_XREC_ROUNDTRIP
360
397
  0
DICTIONARY
  5
398
330
34B
100
AcDbDictionary
280
     1
281
     1
  3
ACAD_XREC_ROUNDTRIP
360
399
  0
DICTIONARY
  5
3A8
330
353
100
AcDbDictionary
280
     1
281
     1
  3
ACAD_XREC_ROUNDTRIP
360
3A9
  0
DICTIONARY
  5
3A0
330
34F
100
AcDbDictionary
280
     1
281
     1
  3
ACAD_XREC_ROUNDTRIP
360
3A1
  0
DICTIONARY
  5
384
330
341
100
AcDbDictionary
280
     1
281
     1
  3
ACAD_XREC_ROUNDTRIP
360
385
  0
DICTIONARY
  5
386
330
342
100
AcDbDictionary
280
     1
281
     1
  3
ACAD_XREC_ROUNDTRIP
360
387
  0
DICTIONARY
  5
388
330
343
100
AcDbDictionary
280
     1
281
     1
  3
ACAD_XREC_ROUNDTRIP
360
389
  0
DICTIONARY
  5
38A
330
344
100
AcDbDictionary
280
     1
281
     1
  3
ACAD_XREC_ROUNDTRIP
360
38B
  0
DICTIONARY
  5
390
330
347
100
AcDbDictionary
280
     1
281
     1
  3
ACAD_XREC_ROUNDTRIP
360
391
  0
DICTIONARY
  5
3A4
330
351
100
AcDbDictionary
280
     1
281
     1
  3
ACAD_XREC_ROUNDTRIP
360
3A5
  0
DICTIONARY
  5
39E
330
34E
100
AcDbDictionary
280
     1
281
     1
  3
ACAD_XREC_ROUNDTRIP
360
39F
  0
DICTIONARY
  5
3A6
330
352
100
AcDbDictionary
280
     1
281
     1
  3
ACAD_XREC_ROUNDTRIP
360
3A7
  0
DICTIONARY
  5
394
330
349
100
AcDbDictionary
280
     1
281
     1
  3
ACAD_XREC_ROUNDTRIP
360
395
  0
DICTIONARY
  5
3B2
330
358
100
AcDbDictionary
280
     1
281
     1
  3
ACAD_XREC_ROUNDTRIP
360
3B3
  0
DICTIONARY
  5
3B0
330
357
100
AcDbDictionary
280
     1
281
     1
  3
ACAD_XREC_ROUNDTRIP
360
3B1
  0
DICTIONARY
  5
3AA
330
354
100
AcDbDictionary
280
     1
281
     1
  3
ACAD_XREC_ROUNDTRIP
360
3AB
  0
DICTIONARY
  5
3AC
330
355
100
AcDbDictionary
280
     1
281
     1
  3
ACAD_XREC_ROUNDTRIP
360
3AD
  0
DICTIONARY
  5
39C
330
34D
100
AcDbDictionary
280
     1
281
     1
  3
ACAD_XREC_ROUNDTRIP
360
39D
  0
DICTIONARY
  5
38E
330
346
100
AcDbDictionary
280
     1
281
     1
  3
ACAD_XREC_ROUNDTRIP
360
38F
  0
DICTIONARY
  5
3AE
330
356
100
AcDbDictionary
280
     1
281
     1
  3
ACAD_XREC_ROUNDTRIP
360
3AF
  0
CELLSTYLEMAP
  5
3B5
102
{ACAD_REACTORS
330
3B4
102
}
330
3B4
100
AcDbCellStyleMap
 90
        3
300
CELLSTYLE
  1
TABLEFORMAT_BEGIN
 90
        5
170
     1
 91
        0
 92
    32768
 62
   257
 93
        1
300
CONTENTFORMAT
  1
CONTENTFORMAT_BEGIN
 90
        0
 91
        0
 92
        4
 93
        0
300

 40
0.0
140
1.0
 94
        5
 62
     0
340
11
144
6.0
309
CONTENTFORMAT_END
171
     1
301
MARGIN
  1
CELLMARGIN_BEGIN
 40
1.5
 40
1.5
 40
1.5
 40
1.5
 40
1.5
 40
1.5
309
CELLMARGIN_END
 94
        6
 95
        1
302
GRIDFORMAT
  1
GRIDFORMAT_BEGIN
 90
        0
 91
        1
 62
     0
 92
       -2
340
14
 93
        0
 40
0.045
309
GRIDFORMAT_END
 95
        2
302
GRIDFORMAT
  1
GRIDFORMAT_BEGIN
 90
        0
 91
        1
 62
     0
 92
       -2
340
14
 93
        0
 40
0.045
309
GRIDFORMAT_END
 95
        4
302
GRIDFORMAT
  1
GRIDFORMAT_BEGIN
 90
        0
 91
        1
 62
     0
 92
       -2
340
14
 93
        0
 40
0.045
309
GRIDFORMAT_END
 95
        8
302
GRIDFORMAT
  1
GRIDFORMAT_BEGIN
 90
        0
 91
        1
 62
     0
 92
       -2
340
14
 93
        0
 40
0.045
309
GRIDFORMAT_END
 95
       16
302
GRIDFORMAT
  1
GRIDFORMAT_BEGIN
 90
        0
 91
        1
 62
     0
 92
       -2
340
14
 93
        0
 40
0.045
309
GRIDFORMAT_END
 95
       32
302
GRIDFORMAT
  1
GRIDFORMAT_BEGIN
 90
        0
 91
        1
 62
     0
 92
       -2
340
14
 93
        0
 40
0.045
309
GRIDFORMAT_END
309
TABLEFORMAT_END
  1
CELLSTYLE_BEGIN
 90
        1
 91
        1
300
_TITLE
309
CELLSTYLE_END
300
CELLSTYLE
  1
TABLEFORMAT_BEGIN
 90
        5
170
     1
 91
        0
 92
        0
 62
   257
 93
        1
300
CONTENTFORMAT
  1
CONTENTFORMAT_BEGIN
 90
        0
 91
        0
 92
        4
 93
        0
300

 40
0.0
140
1.0
 94
        5
 62
     0
340
11
144
4.5
309
CONTENTFORMAT_END
171
     1
301
MARGIN
  1
CELLMARGIN_BEGIN
 40
1.5
 40
1.5
 40
1.5
 40
1.5
 40
1.5
 40
1.5
309
CELLMARGIN_END
 94
        6
 95
        1
302
GRIDFORMAT
  1
GRIDFORMAT_BEGIN
 90
        0
 91
        1
 62
     0
 92
       -2
340
14
 93
        0
 40
0.045
309
GRIDFORMAT_END
 95
        2
302
GRIDFORMAT
  1
GRIDFORMAT_BEGIN
 90
        0
 91
        1
 62
     0
 92
       -2
340
14
 93
        0
 40
0.045
309
GRIDFORMAT_END
 95
        4
302
GRIDFORMAT
  1
GRIDFORMAT_BEGIN
 90
        0
 91
        1
 62
     0
 92
       -2
340
14
 93
        0
 40
0.045
309
GRIDFORMAT_END
 95
        8
302
GRIDFORMAT
  1
GRIDFORMAT_BEGIN
 90
        0
 91
        1
 62
     0
 92
       -2
340
14
 93
        0
 40
0.045
309
GRIDFORMAT_END
 95
       16
302
GRIDFORMAT
  1
GRIDFORMAT_BEGIN
 90
        0
 91
        1
 62
     0
 92
       -2
340
14
 93
        0
 40
0.045
309
GRIDFORMAT_END
 95
       32
302
GRIDFORMAT
  1
GRIDFORMAT_BEGIN
 90
        0
 91
        1
 62
     0
 92
       -2
340
14
 93
        0
 40
0.045
309
GRIDFORMAT_END
309
TABLEFORMAT_END
  1
CELLSTYLE_BEGIN
 90
        2
 91
        1
300
_HEADER
309
CELLSTYLE_END
300
CELLSTYLE
  1
TABLEFORMAT_BEGIN
 90
        5
170
     1
 91
        0
 92
        0
 62
   257
 93
        1
300
CONTENTFORMAT
  1
CONTENTFORMAT_BEGIN
 90
        0
 91
        0
 92
        4
 93
        0
300

 40
0.0
140
1.0
 94
        2
 62
     0
340
11
144
4.5
309
CONTENTFORMAT_END
171
     1
301
MARGIN
  1
CELLMARGIN_BEGIN
 40
1.5
 40
1.5
 40
1.5
 40
1.5
 40
1.5
 40
1.5
309
CELLMARGIN_END
 94
        6
 95
        1
302
GRIDFORMAT
  1
GRIDFORMAT_BEGIN
 90
        0
 91
        1
 62
     0
 92
       -2
340
14
 93
        0
 40
0.045
309
GRIDFORMAT_END
 95
        2
302
GRIDFORMAT
  1
GRIDFORMAT_BEGIN
 90
        0
 91
        1
 62
     0
 92
       -2
340
14
 93
        0
 40
0.045
309
GRIDFORMAT_END
 95
        4
302
GRIDFORMAT
  1
GRIDFORMAT_BEGIN
 90
        0
 91
        1
 62
     0
 92
       -2
340
14
 93
        0
 40
0.045
309
GRIDFORMAT_END
 95
        8
302
GRIDFORMAT
  1
GRIDFORMAT_BEGIN
 90
        0
 91
        1
 62
     0
 92
       -2
340
14
 93
        0
 40
0.045
309
GRIDFORMAT_END
 95
       16
302
GRIDFORMAT
  1
GRIDFORMAT_BEGIN
 90
        0
 91
        1
 62
     0
 92
       -2
340
14
 93
        0
 40
0.045
309
GRIDFORMAT_END
 95
       32
302
GRIDFORMAT
  1
GRIDFORMAT_BEGIN
 90
        0
 91
        1
 62
     0
 92
       -2
340
14
 93
        0
 40
0.045
309
GRIDFORMAT_END
309
TABLEFORMAT_END
  1
CELLSTYLE_BEGIN
 90
        3
 91
        2
300
_DATA
309
CELLSTYLE_END
  0
XRECORD
  5
38D
102
{ACAD_REACTORS
330
38C
102
}
330
38C
100
AcDbXrecord
280
     1
102
RTVSPost2010Prop28
280
     1
102
RTVSPost2010PropOp28
 70
     1
102
RTVSPost2010Prop29
280
     1
102
RTVSPost2010PropOp29
 70
     1
102
RTVSPost2010Prop30
280
     0
102
RTVSPost2010PropOp30
 70
     1
102
RTVSPost2010Prop31
280
     0
102
RTVSPost2010PropOp31
 70
     1
102
RTVSPost2010Prop32
280
     0
102
RTVSPost2010PropOp32
 70
     1
102
RTVSPost2010Prop33
280
     0
102
RTVSPost2010PropOp33
 70
     1
102
RTVSPost2010Prop34
280
     0
102
RTVSPost2010PropOp34
 70
     1
102
RTVSPost2010Prop35
280
     0
102
RTVSPost2010PropOp35
 70
     1
102
RTVSPost2010Prop36
280
     0
102
RTVSPost2010PropOp36
 70
     1
102
RTVSPost2010Prop37
 90
       50
102
RTVSPost2010PropOp37
 70
     1
102
RTVSPost2010Prop38
140
0.0
102
RTVSPost2010PropOp38
 70
     1
102
RTVSPost2010Prop39
140
1.0
102
RTVSPost2010PropOp39
 70
     1
102
RTVSPost2010Prop40
 90
        0
102
RTVSPost2010PropOp40
 70
     1
102
RTVSPost2010Prop41ColorIndex
 90
       18
102
RTVSPost2010Prop41ColorRGB
 90
        0
102
RTVSPost2010PropOp41
 70
     1
102
RTVSPost2010Prop42
 90
       50
102
RTVSPost2010PropOp42
 70
     1
102
RTVSPost2010Prop43
 90
        3
102
RTVSPost2010PropOp43
 70
     1
102
RTVSPost2010Prop44ColorIndex
 90
        5
102
RTVSPost2010Prop44ColorRGB
 90
      255
102
RTVSPost2010PropOp44
 70
     1
102
RTVSPost2010Prop45
280
     0
102
RTVSPost2010PropOp45
 70
     1
102
RTVSPost2010Prop46
 90
       50
102
RTVSPost2010PropOp46
 70
     1
102
RTVSPost2010Prop47
 90
       50
102
RTVSPost2010PropOp47
 70
     1
102
RTVSPost2010Prop48
 90
       50
102
RTVSPost2010PropOp48
 70
     1
102
RTVSPost2010Prop49
280
     0
102
RTVSPost2010PropOp49
 70
     1
102
RTVSPost2010Prop50
 90
       50
102
RTVSPost2010PropOp50
 70
     1
102
RTVSPost2010Prop51ColorIndex
 90
      256
102
RTVSPost2010Prop51ColorRGB
 90
-16777216
102
RTVSPost2010PropOp51
 70
     0
102
RTVSPost2010Prop52
140
1.0
102
RTVSPost2010PropOp52
 70
     0
102
RTVSPost2010Prop53
 90
        2
102
RTVSPost2010PropOp53
 70
     1
102
RTVSPost2010Prop54
  1
strokes_ogs.tif
102
RTVSPost2010PropOp54
 70
     1
102
RTVSPost2010Prop55
280
     0
102
RTVSPost2010PropOp55
 70
     1
102
RTVSPost2010Prop56
140
1.0
102
RTVSPost2010PropOp56
 70
     1
102
RTVSPost2010Prop57
140
1.0
102
RTVSPost2010PropOp57
 70
     1
  0
XRECORD
  5
393
102
{ACAD_REACTORS
330
392
102
}
330
392
100
AcDbXrecord
280
     1
102
RTVSPost2010Prop28
280
     0
102
RTVSPost2010PropOp28
 70
     1
102
RTVSPost2010Prop29
280
     1
102
RTVSPost2010PropOp29
 70
     1
102
RTVSPost2010Prop30
280
     1
102
RTVSPost2010PropOp30
 70
     1
102
RTVSPost2010Prop31
280
     0
102
RTVSPost2010PropOp31
 70
     1
102
RTVSPost2010Prop32
280
     0
102
RTVSPost2010PropOp32
 70
     1
102
RTVSPost2010Prop33
280
     0
102
RTVSPost2010PropOp33
 70
     1
102
RTVSPost2010Prop34
280
     0
102
RTVSPost2010PropOp34
 70
     1
102
RTVSPost2010Prop35
280
     0
102
RTVSPost2010PropOp35
 70
     1
102
RTVSPost2010Prop36
280
     0
102
RTVSPost2010PropOp36
 70
     1
102
RTVSPost2010Prop37
 90
       50
102
RTVSPost2010PropOp37
 70
     1
102
RTVSPost2010Prop38
140
0.0
102
RTVSPost2010PropOp38
 70
     1
102
RTVSPost2010Prop39
140
1.0
102
RTVSPost2010PropOp39
 70
     1
102
RTVSPost2010Prop40
 90
        0
102
RTVSPost2010PropOp40
 70
     1
102
RTVSPost2010Prop41ColorIndex
 90
       18
102
RTVSPost2010Prop41ColorRGB
 90
        0
102
RTVSPost2010PropOp41
 70
     1
102
RTVSPost2010Prop42
 90
       50
102
RTVSPost2010PropOp42
 70
     1
102
RTVSPost2010Prop43
 90
        3
102
RTVSPost2010PropOp43
 70
     1
102
RTVSPost2010Prop44ColorIndex
 90
        5
102
RTVSPost2010Prop44ColorRGB
 90
      255
102
RTVSPost2010PropOp44
 70
     1
102
RTVSPost2010Prop45
280
     0
102
RTVSPost2010PropOp45
 70
     1
102
RTVSPost2010Prop46
 90
       50
102
RTVSPost2010PropOp46
 70
     1
102
RTVSPost2010Prop47
 90
       50
102
RTVSPost2010PropOp47
 70
     1
102
RTVSPost2010Prop48
 90
       50
102
RTVSPost2010PropOp48
 70
     1
102
RTVSPost2010Prop49
280
     0
102
RTVSPost2010PropOp49
 70
     1
102
RTVSPost2010Prop50
 90
       50
102
RTVSPost2010PropOp50
 70
     1
102
RTVSPost2010Prop51ColorIndex
 90
      256
102
RTVSPost2010Prop51ColorRGB
 90
-16777216
102
RTVSPost2010PropOp51
 70
     0
102
RTVSPost2010Prop52
140
1.0
102
RTVSPost2010PropOp52
 70
     0
102
RTVSPost2010Prop53
 90
        2
102
RTVSPost2010PropOp53
 70
     1
102
RTVSPost2010Prop54
  1
strokes_ogs.tif
102
RTVSPost2010PropOp54
 70
     1
102
RTVSPost2010Prop55
280
     0
102
RTVSPost2010PropOp55
 70
     1
102
RTVSPost2010Prop56
140
1.0
102
RTVSPost2010PropOp56
 70
     1
102
RTVSPost2010Prop57
140
1.0
102
RTVSPost2010PropOp57
 70
     1
  0
XRECORD
  5
39B
102
{ACAD_REACTORS
330
39A
102
}
330
39A
100
AcDbXrecord
280
     1
102
RTVSPost2010Prop28
280
     0
102
RTVSPost2010PropOp28
 70
     1
102
RTVSPost2010Prop29
280
     1
102
RTVSPost2010PropOp29
 70
     1
102
RTVSPost2010Prop30
280
     1
102
RTVSPost2010PropOp30
 70
     1
102
RTVSPost2010Prop31
280
     0
102
RTVSPost2010PropOp31
 70
     1
102
RTVSPost2010Prop32
280
     0
102
RTVSPost2010PropOp32
 70
     1
102
RTVSPost2010Prop33
280
     0
102
RTVSPost2010PropOp33
 70
     1
102
RTVSPost2010Prop34
280
     0
102
RTVSPost2010PropOp34
 70
     1
102
RTVSPost2010Prop35
280
     0
102
RTVSPost2010PropOp35
 70
     1
102
RTVSPost2010Prop36
280
     0
102
RTVSPost2010PropOp36
 70
     1
102
RTVSPost2010Prop37
 90
       50
102
RTVSPost2010PropOp37
 70
     1
102
RTVSPost2010Prop38
140
0.0
102
RTVSPost2010PropOp38
 70
     1
102
RTVSPost2010Prop39
140
1.0
102
RTVSPost2010PropOp39
 70
     1
102
RTVSPost2010Prop40
 90
        0
102
RTVSPost2010PropOp40
 70
     1
102
RTVSPost2010Prop41ColorIndex
 90
       18
102
RTVSPost2010Prop41ColorRGB
 90
        0
102
RTVSPost2010PropOp41
 70
     1
102
RTVSPost2010Prop42
 90
       50
102
RTVSPost2010PropOp42
 70
     1
102
RTVSPost2010Prop43
 90
        3
102
RTVSPost2010PropOp43
 70
     1
102
RTVSPost2010Prop44ColorIndex
 90
        5
102
RTVSPost2010Prop44ColorRGB
 90
      255
102
RTVSPost2010PropOp44
 70
     1
102
RTVSPost2010Prop45
280
     0
102
RTVSPost2010PropOp45
 70
     1
102
RTVSPost2010Prop46
 90
       50
102
RTVSPost2010PropOp46
 70
     1
102
RTVSPost2010Prop47
 90
       50
102
RTVSPost2010PropOp47
 70
     1
102
RTVSPost2010Prop48
 90
       50
102
RTVSPost2010PropOp48
 70
     1
102
RTVSPost2010Prop49
280
     0
102
RTVSPost2010PropOp49
 70
     1
102
RTVSPost2010Prop50
 90
       50
102
RTVSPost2010PropOp50
 70
     1
102
RTVSPost2010Prop51ColorIndex
 90
      256
102
RTVSPost2010Prop51ColorRGB
 90
-16777216
102
RTVSPost2010PropOp51
 70
     0
102
RTVSPost2010Prop52
140
1.0
102
RTVSPost2010PropOp52
 70
     0
102
RTVSPost2010Prop53
 90
        2
102
RTVSPost2010PropOp53
 70
     1
102
RTVSPost2010Prop54
  1
strokes_ogs.tif
102
RTVSPost2010PropOp54
 70
     1
102
RTVSPost2010Prop55
280
     0
102
RTVSPost2010PropOp55
 70
     1
102
RTVSPost2010Prop56
140
1.0
102
RTVSPost2010PropOp56
 70
     1
102
RTVSPost2010Prop57
140
1.0
102
RTVSPost2010PropOp57
 70
     1
  0
XRECORD
  5
3A3
102
{ACAD_REACTORS
330
3A2
102
}
330
3A2
100
AcDbXrecord
280
     1
102
RTVSPost2010Prop28
280
     0
102
RTVSPost2010PropOp28
 70
     1
102
RTVSPost2010Prop29
280
     1
102
RTVSPost2010PropOp29
 70
     1
102
RTVSPost2010Prop30
280
     1
102
RTVSPost2010PropOp30
 70
     1
102
RTVSPost2010Prop31
280
     0
102
RTVSPost2010PropOp31
 70
     1
102
RTVSPost2010Prop32
280
     0
102
RTVSPost2010PropOp32
 70
     1
102
RTVSPost2010Prop33
280
     0
102
RTVSPost2010PropOp33
 70
     1
102
RTVSPost2010Prop34
280
     0
102
RTVSPost2010PropOp34
 70
     1
102
RTVSPost2010Prop35
280
     0
102
RTVSPost2010PropOp35
 70
     1
102
RTVSPost2010Prop36
280
     0
102
RTVSPost2010PropOp36
 70
     1
102
RTVSPost2010Prop37
 90
       50
102
RTVSPost2010PropOp37
 70
     1
102
RTVSPost2010Prop38
140
0.0
102
RTVSPost2010PropOp38
 70
     1
102
RTVSPost2010Prop39
140
1.0
102
RTVSPost2010PropOp39
 70
     1
102
RTVSPost2010Prop40
 90
        0
102
RTVSPost2010PropOp40
 70
     1
102
RTVSPost2010Prop41ColorIndex
 90
       18
102
RTVSPost2010Prop41ColorRGB
 90
        0
102
RTVSPost2010PropOp41
 70
     1
102
RTVSPost2010Prop42
 90
       50
102
RTVSPost2010PropOp42
 70
     1
102
RTVSPost2010Prop43
 90
        3
102
RTVSPost2010PropOp43
 70
     1
102
RTVSPost2010Prop44ColorIndex
 90
        5
102
RTVSPost2010Prop44ColorRGB
 90
      255
102
RTVSPost2010PropOp44
 70
     1
102
RTVSPost2010Prop45
280
     0
102
RTVSPost2010PropOp45
 70
     1
102
RTVSPost2010Prop46
 90
       50
102
RTVSPost2010PropOp46
 70
     1
102
RTVSPost2010Prop47
 90
       50
102
RTVSPost2010PropOp47
 70
     1
102
RTVSPost2010Prop48
 90
       50
102
RTVSPost2010PropOp48
 70
     1
102
RTVSPost2010Prop49
280
     0
102
RTVSPost2010PropOp49
 70
     1
102
RTVSPost2010Prop50
 90
       50
102
RTVSPost2010PropOp50
 70
     1
102
RTVSPost2010Prop51ColorIndex
 90
      256
102
RTVSPost2010Prop51ColorRGB
 90
-16777216
102
RTVSPost2010PropOp51
 70
     0
102
RTVSPost2010Prop52
140
1.0
102
RTVSPost2010PropOp52
 70
     0
102
RTVSPost2010Prop53
 90
        2
102
RTVSPost2010PropOp53
 70
     1
102
RTVSPost2010Prop54
  1
strokes_ogs.tif
102
RTVSPost2010PropOp54
 70
     1
102
RTVSPost2010Prop55
280
     0
102
RTVSPost2010PropOp55
 70
     1
102
RTVSPost2010Prop56
140
1.0
102
RTVSPost2010PropOp56
 70
     1
102
RTVSPost2010Prop57
140
1.0
102
RTVSPost2010PropOp57
 70
     1
  0
XRECORD
  5
397
102
{ACAD_REACTORS
330
396
102
}
330
396
100
AcDbXrecord
280
     1
102
RTVSPost2010Prop28
280
     0
102
RTVSPost2010PropOp28
 70
     1
102
RTVSPost2010Prop29
280
     1
102
RTVSPost2010PropOp29
 70
     1
102
RTVSPost2010Prop30
280
     1
102
RTVSPost2010PropOp30
 70
     1
102
RTVSPost2010Prop31
280
     0
102
RTVSPost2010PropOp31
 70
     1
102
RTVSPost2010Prop32
280
     0
102
RTVSPost2010PropOp32
 70
     1
102
RTVSPost2010Prop33
280
     0
102
RTVSPost2010PropOp33
 70
     1
102
RTVSPost2010Prop34
280
     0
102
RTVSPost2010PropOp34
 70
     1
102
RTVSPost2010Prop35
280
     0
102
RTVSPost2010PropOp35
 70
     1
102
RTVSPost2010Prop36
280
     0
102
RTVSPost2010PropOp36
 70
     1
102
RTVSPost2010Prop37
 90
       50
102
RTVSPost2010PropOp37
 70
     1
102
RTVSPost2010Prop38
140
0.0
102
RTVSPost2010PropOp38
 70
     1
102
RTVSPost2010Prop39
140
1.0
102
RTVSPost2010PropOp39
 70
     1
102
RTVSPost2010Prop40
 90
        0
102
RTVSPost2010PropOp40
 70
     1
102
RTVSPost2010Prop41ColorIndex
 90
       18
102
RTVSPost2010Prop41ColorRGB
 90
        0
102
RTVSPost2010PropOp41
 70
     1
102
RTVSPost2010Prop42
 90
       50
102
RTVSPost2010PropOp42
 70
     1
102
RTVSPost2010Prop43
 90
        3
102
RTVSPost2010PropOp43
 70
     1
102
RTVSPost2010Prop44ColorIndex
 90
        5
102
RTVSPost2010Prop44ColorRGB
 90
      255
102
RTVSPost2010PropOp44
 70
     1
102
RTVSPost2010Prop45
280
     0
102
RTVSPost2010PropOp45
 70
     1
102
RTVSPost2010Prop46
 90
       50
102
RTVSPost2010PropOp46
 70
     1
102
RTVSPost2010Prop47
 90
       50
102
RTVSPost2010PropOp47
 70
     1
102
RTVSPost2010Prop48
 90
       50
102
RTVSPost2010PropOp48
 70
     1
102
RTVSPost2010Prop49
280
     0
102
RTVSPost2010PropOp49
 70
     1
102
RTVSPost2010Prop50
 90
       50
102
RTVSPost2010PropOp50
 70
     1
102
RTVSPost2010Prop51ColorIndex
 90
      256
102
RTVSPost2010Prop51ColorRGB
 90
-16777216
102
RTVSPost2010PropOp51
 70
     0
102
RTVSPost2010Prop52
140
1.0
102
RTVSPost2010PropOp52
 70
     0
102
RTVSPost2010Prop53
 90
        2
102
RTVSPost2010PropOp53
 70
     1
102
RTVSPost2010Prop54
  1
strokes_ogs.tif
102
RTVSPost2010PropOp54
 70
     1
102
RTVSPost2010Prop55
280
     0
102
RTVSPost2010PropOp55
 70
     1
102
RTVSPost2010Prop56
140
1.0
102
RTVSPost2010PropOp56
 70
     1
102
RTVSPost2010Prop57
140
1.0
102
RTVSPost2010PropOp57
 70
     1
  0
XRECORD
  5
399
102
{ACAD_REACTORS
330
398
102
}
330
398
100
AcDbXrecord
280
     1
102
RTVSPost2010Prop28
280
     0
102
RTVSPost2010PropOp28
 70
     1
102
RTVSPost2010Prop29
280
     1
102
RTVSPost2010PropOp29
 70
     1
102
RTVSPost2010Prop30
280
     1
102
RTVSPost2010PropOp30
 70
     1
102
RTVSPost2010Prop31
280
     0
102
RTVSPost2010PropOp31
 70
     1
102
RTVSPost2010Prop32
280
     0
102
RTVSPost2010PropOp32
 70
     1
102
RTVSPost2010Prop33
280
     0
102
RTVSPost2010PropOp33
 70
     1
102
RTVSPost2010Prop34
280
     0
102
RTVSPost2010PropOp34
 70
     1
102
RTVSPost2010Prop35
280
     0
102
RTVSPost2010PropOp35
 70
     1
102
RTVSPost2010Prop36
280
     0
102
RTVSPost2010PropOp36
 70
     1
102
RTVSPost2010Prop37
 90
       50
102
RTVSPost2010PropOp37
 70
     1
102
RTVSPost2010Prop38
140
0.0
102
RTVSPost2010PropOp38
 70
     1
102
RTVSPost2010Prop39
140
1.0
102
RTVSPost2010PropOp39
 70
     1
102
RTVSPost2010Prop40
 90
        0
102
RTVSPost2010PropOp40
 70
     1
102
RTVSPost2010Prop41ColorIndex
 90
       18
102
RTVSPost2010Prop41ColorRGB
 90
        0
102
RTVSPost2010PropOp41
 70
     1
102
RTVSPost2010Prop42
 90
       50
102
RTVSPost2010PropOp42
 70
     1
102
RTVSPost2010Prop43
 90
        3
102
RTVSPost2010PropOp43
 70
     1
102
RTVSPost2010Prop44ColorIndex
 90
        5
102
RTVSPost2010Prop44ColorRGB
 90
      255
102
RTVSPost2010PropOp44
 70
     1
102
RTVSPost2010Prop45
280
     0
102
RTVSPost2010PropOp45
 70
     1
102
RTVSPost2010Prop46
 90
       50
102
RTVSPost2010PropOp46
 70
     1
102
RTVSPost2010Prop47
 90
       50
102
RTVSPost2010PropOp47
 70
     1
102
RTVSPost2010Prop48
 90
       50
102
RTVSPost2010PropOp48
 70
     1
102
RTVSPost2010Prop49
280
     0
102
RTVSPost2010PropOp49
 70
     1
102
RTVSPost2010Prop50
 90
       50
102
RTVSPost2010PropOp50
 70
     1
102
RTVSPost2010Prop51ColorIndex
 90
      256
102
RTVSPost2010Prop51ColorRGB
 90
-16777216
102
RTVSPost2010PropOp51
 70
     0
102
RTVSPost2010Prop52
140
1.0
102
RTVSPost2010PropOp52
 70
     0
102
RTVSPost2010Prop53
 90
        2
102
RTVSPost2010PropOp53
 70
     1
102
RTVSPost2010Prop54
  1
strokes_ogs.tif
102
RTVSPost2010PropOp54
 70
     1
102
RTVSPost2010Prop55
280
     0
102
RTVSPost2010PropOp55
 70
     1
102
RTVSPost2010Prop56
140
1.0
102
RTVSPost2010PropOp56
 70
     1
102
RTVSPost2010Prop57
140
1.0
102
RTVSPost2010PropOp57
 70
     1
  0
XRECORD
  5
3A9
102
{ACAD_REACTORS
330
3A8
102
}
330
3A8
100
AcDbXrecord
280
     1
102
RTVSPost2010Prop28
280
     0
102
RTVSPost2010PropOp28
 70
     0
102
RTVSPost2010Prop29
280
     1
102
RTVSPost2010PropOp29
 70
     0
102
RTVSPost2010Prop30
280
     1
102
RTVSPost2010PropOp30
 70
     0
102
RTVSPost2010Prop31
280
     0
102
RTVSPost2010PropOp31
 70
     0
102
RTVSPost2010Prop32
280
     0
102
RTVSPost2010PropOp32
 70
     0
102
RTVSPost2010Prop33
280
     0
102
RTVSPost2010PropOp33
 70
     0
102
RTVSPost2010Prop34
280
     0
102
RTVSPost2010PropOp34
 70
     0
102
RTVSPost2010Prop35
280
     0
102
RTVSPost2010PropOp35
 70
     0
102
RTVSPost2010Prop36
280
     0
102
RTVSPost2010PropOp36
 70
     0
102
RTVSPost2010Prop37
 90
       50
102
RTVSPost2010PropOp37
 70
     0
102
RTVSPost2010Prop38
140
0.0
102
RTVSPost2010PropOp38
 70
     0
102
RTVSPost2010Prop39
140
1.0
102
RTVSPost2010PropOp39
 70
     0
102
RTVSPost2010Prop40
 90
        0
102
RTVSPost2010PropOp40
 70
     0
102
RTVSPost2010Prop41ColorIndex
 90
       18
102
RTVSPost2010Prop41ColorRGB
 90
        0
102
RTVSPost2010PropOp41
 70
     0
102
RTVSPost2010Prop42
 90
       50
102
RTVSPost2010PropOp42
 70
     0
102
RTVSPost2010Prop43
 90
        3
102
RTVSPost2010PropOp43
 70
     0
102
RTVSPost2010Prop44ColorIndex
 90
        5
102
RTVSPost2010Prop44ColorRGB
 90
      255
102
RTVSPost2010PropOp44
 70
     0
102
RTVSPost2010Prop45
280
     0
102
RTVSPost2010PropOp45
 70
     0
102
RTVSPost2010Prop46
 90
       50
102
RTVSPost2010PropOp46
 70
     0
102
RTVSPost2010Prop47
 90
       50
102
RTVSPost2010PropOp47
 70
     0
102
RTVSPost2010Prop48
 90
       50
102
RTVSPost2010PropOp48
 70
     0
102
RTVSPost2010Prop49
280
     0
102
RTVSPost2010PropOp49
 70
     0
102
RTVSPost2010Prop50
 90
       50
102
RTVSPost2010PropOp50
 70
     0
102
RTVSPost2010Prop51ColorIndex
 90
      256
102
RTVSPost2010Prop51ColorRGB
 90
-16777216
102
RTVSPost2010PropOp51
 70
     0
102
RTVSPost2010Prop52
140
1.0
102
RTVSPost2010PropOp52
 70
     0
102
RTVSPost2010Prop53
 90
        2
102
RTVSPost2010PropOp53
 70
     0
102
RTVSPost2010Prop54
  1
strokes_ogs.tif
102
RTVSPost2010PropOp54
 70
     0
102
RTVSPost2010Prop55
280
     0
102
RTVSPost2010PropOp55
 70
     0
102
RTVSPost2010Prop56
140
1.0
102
RTVSPost2010PropOp56
 70
     0
102
RTVSPost2010Prop57
140
1.0
102
RTVSPost2010PropOp57
 70
     0
  0
XRECORD
  5
3A1
102
{ACAD_REACTORS
330
3A0
102
}
330
3A0
100
AcDbXrecord
280
     1
102
RTVSPost2010Prop28
280
     0
102
RTVSPost2010PropOp28
 70
     1
102
RTVSPost2010Prop29
280
     1
102
RTVSPost2010PropOp29
 70
     1
102
RTVSPost2010Prop30
280
     1
102
RTVSPost2010PropOp30
 70
     1
102
RTVSPost2010Prop31
280
     0
102
RTVSPost2010PropOp31
 70
     1
102
RTVSPost2010Prop32
280
     0
102
RTVSPost2010PropOp32
 70
     1
102
RTVSPost2010Prop33
280
     0
102
RTVSPost2010PropOp33
 70
     1
102
RTVSPost2010Prop34
280
     0
102
RTVSPost2010PropOp34
 70
     1
102
RTVSPost2010Prop35
280
     0
102
RTVSPost2010PropOp35
 70
     1
102
RTVSPost2010Prop36
280
     0
102
RTVSPost2010PropOp36
 70
     1
102
RTVSPost2010Prop37
 90
       50
102
RTVSPost2010PropOp37
 70
     1
102
RTVSPost2010Prop38
140
0.0
102
RTVSPost2010PropOp38
 70
     1
102
RTVSPost2010Prop39
140
1.0
102
RTVSPost2010PropOp39
 70
     1
102
RTVSPost2010Prop40
 90
        0
102
RTVSPost2010PropOp40
 70
     1
102
RTVSPost2010Prop41ColorIndex
 90
       18
102
RTVSPost2010Prop41ColorRGB
 90
        0
102
RTVSPost2010PropOp41
 70
     1
102
RTVSPost2010Prop42
 90
       50
102
RTVSPost2010PropOp42
 70
     1
102
RTVSPost2010Prop43
 90
        3
102
RTVSPost2010PropOp43
 70
     1
102
RTVSPost2010Prop44ColorIndex
 90
        5
102
RTVSPost2010Prop44ColorRGB
 90
      255
102
RTVSPost2010PropOp44
 70
     1
102
RTVSPost2010Prop45
280
     0
102
RTVSPost2010PropOp45
 70
     1
102
RTVSPost2010Prop46
 90
       50
102
RTVSPost2010PropOp46
 70
     1
102
RTVSPost2010Prop47
 90
       50
102
RTVSPost2010PropOp47
 70
     1
102
RTVSPost2010Prop48
 90
       50
102
RTVSPost2010PropOp48
 70
     1
102
RTVSPost2010Prop49
280
     0
102
RTVSPost2010PropOp49
 70
     1
102
RTVSPost2010Prop50
 90
       50
102
RTVSPost2010PropOp50
 70
     1
102
RTVSPost2010Prop51ColorIndex
 90
      256
102
RTVSPost2010Prop51ColorRGB
 90
-16777216
102
RTVSPost2010PropOp51
 70
     0
102
RTVSPost2010Prop52
140
1.0
102
RTVSPost2010PropOp52
 70
     0
102
RTVSPost2010Prop53
 90
        2
102
RTVSPost2010PropOp53
 70
     1
102
RTVSPost2010Prop54
  1
strokes_ogs.tif
102
RTVSPost2010PropOp54
 70
     1
102
RTVSPost2010Prop55
280
     0
102
RTVSPost2010PropOp55
 70
     1
102
RTVSPost2010Prop56
140
1.0
102
RTVSPost2010PropOp56
 70
     1
102
RTVSPost2010Prop57
140
1.0
102
RTVSPost2010PropOp57
 70
     1
  0
XRECORD
  5
385
102
{ACAD_REACTORS
330
384
102
}
330
384
100
AcDbXrecord
280
     1
102
RTVSPost2010Prop28
280
     0
102
RTVSPost2010PropOp28
 70
     1
102
RTVSPost2010Prop29
280
     1
102
RTVSPost2010PropOp29
 70
     1
102
RTVSPost2010Prop30
280
     1
102
RTVSPost2010PropOp30
 70
     1
102
RTVSPost2010Prop31
280
     0
102
RTVSPost2010PropOp31
 70
     1
102
RTVSPost2010Prop32
280
     0
102
RTVSPost2010PropOp32
 70
     1
102
RTVSPost2010Prop33
280
     0
102
RTVSPost2010PropOp33
 70
     1
102
RTVSPost2010Prop34
280
     0
102
RTVSPost2010PropOp34
 70
     1
102
RTVSPost2010Prop35
280
     0
102
RTVSPost2010PropOp35
 70
     1
102
RTVSPost2010Prop36
280
     0
102
RTVSPost2010PropOp36
 70
     1
102
RTVSPost2010Prop37
 90
       50
102
RTVSPost2010PropOp37
 70
     1
102
RTVSPost2010Prop38
140
0.0
102
RTVSPost2010PropOp38
 70
     1
102
RTVSPost2010Prop39
140
1.0
102
RTVSPost2010PropOp39
 70
     1
102
RTVSPost2010Prop40
 90
        0
102
RTVSPost2010PropOp40
 70
     1
102
RTVSPost2010Prop41ColorIndex
 90
       18
102
RTVSPost2010Prop41ColorRGB
 90
        0
102
RTVSPost2010PropOp41
 70
     1
102
RTVSPost2010Prop42
 90
       50
102
RTVSPost2010PropOp42
 70
     1
102
RTVSPost2010Prop43
 90
        3
102
RTVSPost2010PropOp43
 70
     1
102
RTVSPost2010Prop44ColorIndex
 90
        5
102
RTVSPost2010Prop44ColorRGB
 90
      255
102
RTVSPost2010PropOp44
 70
     1
102
RTVSPost2010Prop45
280
     0
102
RTVSPost2010PropOp45
 70
     1
102
RTVSPost2010Prop46
 90
       50
102
RTVSPost2010PropOp46
 70
     1
102
RTVSPost2010Prop47
 90
       50
102
RTVSPost2010PropOp47
 70
     1
102
RTVSPost2010Prop48
 90
       50
102
RTVSPost2010PropOp48
 70
     1
102
RTVSPost2010Prop49
280
     0
102
RTVSPost2010PropOp49
 70
     1
102
RTVSPost2010Prop50
 90
       50
102
RTVSPost2010PropOp50
 70
     1
102
RTVSPost2010Prop51ColorIndex
 90
      256
102
RTVSPost2010Prop51ColorRGB
 90
-16777216
102
RTVSPost2010PropOp51
 70
     0
102
RTVSPost2010Prop52
140
1.0
102
RTVSPost2010PropOp52
 70
     0
102
RTVSPost2010Prop53
 90
        2
102
RTVSPost2010PropOp53
 70
     1
102
RTVSPost2010Prop54
  1
strokes_ogs.tif
102
RTVSPost2010PropOp54
 70
     1
102
RTVSPost2010Prop55
280
     0
102
RTVSPost2010PropOp55
 70
     1
102
RTVSPost2010Prop56
140
1.0
102
RTVSPost2010PropOp56
 70
     1
102
RTVSPost2010Prop57
140
1.0
102
RTVSPost2010PropOp57
 70
     1
  0
XRECORD
  5
387
102
{ACAD_REACTORS
330
386
102
}
330
386
100
AcDbXrecord
280
     1
102
RTVSPost2010Prop28
280
     0
102
RTVSPost2010PropOp28
 70
     1
102
RTVSPost2010Prop29
280
     1
102
RTVSPost2010PropOp29
 70
     1
102
RTVSPost2010Prop30
280
     1
102
RTVSPost2010PropOp30
 70
     1
102
RTVSPost2010Prop31
280
     0
102
RTVSPost2010PropOp31
 70
     1
102
RTVSPost2010Prop32
280
     0
102
RTVSPost2010PropOp32
 70
     1
102
RTVSPost2010Prop33
280
     0
102
RTVSPost2010PropOp33
 70
     1
102
RTVSPost2010Prop34
280
     0
102
RTVSPost2010PropOp34
 70
     1
102
RTVSPost2010Prop35
280
     0
102
RTVSPost2010PropOp35
 70
     1
102
RTVSPost2010Prop36
280
     0
102
RTVSPost2010PropOp36
 70
     1
102
RTVSPost2010Prop37
 90
       50
102
RTVSPost2010PropOp37
 70
     1
102
RTVSPost2010Prop38
140
0.0
102
RTVSPost2010PropOp38
 70
     1
102
RTVSPost2010Prop39
140
1.0
102
RTVSPost2010PropOp39
 70
     1
102
RTVSPost2010Prop40
 90
        0
102
RTVSPost2010PropOp40
 70
     1
102
RTVSPost2010Prop41ColorIndex
 90
       18
102
RTVSPost2010Prop41ColorRGB
 90
        0
102
RTVSPost2010PropOp41
 70
     1
102
RTVSPost2010Prop42
 90
       50
102
RTVSPost2010PropOp42
 70
     1
102
RTVSPost2010Prop43
 90
        3
102
RTVSPost2010PropOp43
 70
     1
102
RTVSPost2010Prop44ColorIndex
 90
        5
102
RTVSPost2010Prop44ColorRGB
 90
      255
102
RTVSPost2010PropOp44
 70
     1
102
RTVSPost2010Prop45
280
     0
102
RTVSPost2010PropOp45
 70
     1
102
RTVSPost2010Prop46
 90
       50
102
RTVSPost2010PropOp46
 70
     1
102
RTVSPost2010Prop47
 90
       50
102
RTVSPost2010PropOp47
 70
     1
102
RTVSPost2010Prop48
 90
       50
102
RTVSPost2010PropOp48
 70
     1
102
RTVSPost2010Prop49
280
     0
102
RTVSPost2010PropOp49
 70
     1
102
RTVSPost2010Prop50
 90
       50
102
RTVSPost2010PropOp50
 70
     1
102
RTVSPost2010Prop51ColorIndex
 90
      256
102
RTVSPost2010Prop51ColorRGB
 90
-16777216
102
RTVSPost2010PropOp51
 70
     0
102
RTVSPost2010Prop52
140
1.0
102
RTVSPost2010PropOp52
 70
     0
102
RTVSPost2010Prop53
 90
        2
102
RTVSPost2010PropOp53
 70
     1
102
RTVSPost2010Prop54
  1
strokes_ogs.tif
102
RTVSPost2010PropOp54
 70
     1
102
RTVSPost2010Prop55
280
     0
102
RTVSPost2010PropOp55
 70
     1
102
RTVSPost2010Prop56
140
1.0
102
RTVSPost2010PropOp56
 70
     1
102
RTVSPost2010Prop57
140
1.0
102
RTVSPost2010PropOp57
 70
     1
  0
XRECORD
  5
389
102
{ACAD_REACTORS
330
388
102
}
330
388
100
AcDbXrecord
280
     1
102
RTVSPost2010Prop28
280
     0
102
RTVSPost2010PropOp28
 70
     1
102
RTVSPost2010Prop29
280
     1
102
RTVSPost2010PropOp29
 70
     1
102
RTVSPost2010Prop30
280
     1
102
RTVSPost2010PropOp30
 70
     1
102
RTVSPost2010Prop31
280
     0
102
RTVSPost2010PropOp31
 70
     1
102
RTVSPost2010Prop32
280
     0
102
RTVSPost2010PropOp32
 70
     1
102
RTVSPost2010Prop33
280
     0
102
RTVSPost2010PropOp33
 70
     1
102
RTVSPost2010Prop34
280
     0
102
RTVSPost2010PropOp34
 70
     1
102
RTVSPost2010Prop35
280
     0
102
RTVSPost2010PropOp35
 70
     1
102
RTVSPost2010Prop36
280
     0
102
RTVSPost2010PropOp36
 70
     1
102
RTVSPost2010Prop37
 90
       50
102
RTVSPost2010PropOp37
 70
     1
102
RTVSPost2010Prop38
140
0.0
102
RTVSPost2010PropOp38
 70
     1
102
RTVSPost2010Prop39
140
1.0
102
RTVSPost2010PropOp39
 70
     1
102
RTVSPost2010Prop40
 90
        0
102
RTVSPost2010PropOp40
 70
     1
102
RTVSPost2010Prop41ColorIndex
 90
       18
102
RTVSPost2010Prop41ColorRGB
 90
        0
102
RTVSPost2010PropOp41
 70
     1
102
RTVSPost2010Prop42
 90
       50
102
RTVSPost2010PropOp42
 70
     1
102
RTVSPost2010Prop43
 90
        3
102
RTVSPost2010PropOp43
 70
     1
102
RTVSPost2010Prop44ColorIndex
 90
        5
102
RTVSPost2010Prop44ColorRGB
 90
      255
102
RTVSPost2010PropOp44
 70
     1
102
RTVSPost2010Prop45
280
     0
102
RTVSPost2010PropOp45
 70
     1
102
RTVSPost2010Prop46
 90
       50
102
RTVSPost2010PropOp46
 70
     1
102
RTVSPost2010Prop47
 90
       50
102
RTVSPost2010PropOp47
 70
     1
102
RTVSPost2010Prop48
 90
       50
102
RTVSPost2010PropOp48
 70
     1
102
RTVSPost2010Prop49
280
     0
102
RTVSPost2010PropOp49
 70
     1
102
RTVSPost2010Prop50
 90
       50
102
RTVSPost2010PropOp50
 70
     1
102
RTVSPost2010Prop51ColorIndex
 90
      256
102
RTVSPost2010Prop51ColorRGB
 90
-16777216
102
RTVSPost2010PropOp51
 70
     0
102
RTVSPost2010Prop52
140
1.0
102
RTVSPost2010PropOp52
 70
     0
102
RTVSPost2010Prop53
 90
        2
102
RTVSPost2010PropOp53
 70
     1
102
RTVSPost2010Prop54
  1
strokes_ogs.tif
102
RTVSPost2010PropOp54
 70
     1
102
RTVSPost2010Prop55
280
     0
102
RTVSPost2010PropOp55
 70
     1
102
RTVSPost2010Prop56
140
1.0
102
RTVSPost2010PropOp56
 70
     1
102
RTVSPost2010Prop57
140
1.0
102
RTVSPost2010PropOp57
 70
     1
  0
XRECORD
  5
38B
102
{ACAD_REACTORS
330
38A
102
}
330
38A
100
AcDbXrecord
280
     1
102
RTVSPost2010Prop28
280
     0
102
RTVSPost2010PropOp28
 70
     1
102
RTVSPost2010Prop29
280
     1
102
RTVSPost2010PropOp29
 70
     1
102
RTVSPost2010Prop30
280
     1
102
RTVSPost2010PropOp30
 70
     1
102
RTVSPost2010Prop31
280
     0
102
RTVSPost2010PropOp31
 70
     1
102
RTVSPost2010Prop32
280
     0
102
RTVSPost2010PropOp32
 70
     1
102
RTVSPost2010Prop33
280
     0
102
RTVSPost2010PropOp33
 70
     1
102
RTVSPost2010Prop34
280
     0
102
RTVSPost2010PropOp34
 70
     1
102
RTVSPost2010Prop35
280
     0
102
RTVSPost2010PropOp35
 70
     1
102
RTVSPost2010Prop36
280
     0
102
RTVSPost2010PropOp36
 70
     1
102
RTVSPost2010Prop37
 90
       50
102
RTVSPost2010PropOp37
 70
     1
102
RTVSPost2010Prop38
140
0.0
102
RTVSPost2010PropOp38
 70
     1
102
RTVSPost2010Prop39
140
1.0
102
RTVSPost2010PropOp39
 70
     1
102
RTVSPost2010Prop40
 90
        0
102
RTVSPost2010PropOp40
 70
     1
102
RTVSPost2010Prop41ColorIndex
 90
       18
102
RTVSPost2010Prop41ColorRGB
 90
        0
102
RTVSPost2010PropOp41
 70
     1
102
RTVSPost2010Prop42
 90
       50
102
RTVSPost2010PropOp42
 70
     1
102
RTVSPost2010Prop43
 90
        3
102
RTVSPost2010PropOp43
 70
     1
102
RTVSPost2010Prop44ColorIndex
 90
        5
102
RTVSPost2010Prop44ColorRGB
 90
      255
102
RTVSPost2010PropOp44
 70
     1
102
RTVSPost2010Prop45
280
     0
102
RTVSPost2010PropOp45
 70
     1
102
RTVSPost2010Prop46
 90
       50
102
RTVSPost2010PropOp46
 70
     1
102
RTVSPost2010Prop47
 90
       50
102
RTVSPost2010PropOp47
 70
     1
102
RTVSPost2010Prop48
 90
       50
102
RTVSPost2010PropOp48
 70
     1
102
RTVSPost2010Prop49
280
     0
102
RTVSPost2010PropOp49
 70
     1
102
RTVSPost2010Prop50
 90
       50
102
RTVSPost2010PropOp50
 70
     1
102
RTVSPost2010Prop51ColorIndex
 90
      256
102
RTVSPost2010Prop51ColorRGB
 90
-16777216
102
RTVSPost2010PropOp51
 70
     0
102
RTVSPost2010Prop52
140
1.0
102
RTVSPost2010PropOp52
 70
     0
102
RTVSPost2010Prop53
 90
        2
102
RTVSPost2010PropOp53
 70
     1
102
RTVSPost2010Prop54
  1
strokes_ogs.tif
102
RTVSPost2010PropOp54
 70
     1
102
RTVSPost2010Prop55
280
     0
102
RTVSPost2010PropOp55
 70
     1
102
RTVSPost2010Prop56
140
1.0
102
RTVSPost2010PropOp56
 70
     1
102
RTVSPost2010Prop57
140
1.0
102
RTVSPost2010PropOp57
 70
     1
  0
XRECORD
  5
391
102
{ACAD_REACTORS
330
390
102
}
330
390
100
AcDbXrecord
280
     1
102
RTVSPost2010Prop28
280
     0
102
RTVSPost2010PropOp28
 70
     1
102
RTVSPost2010Prop29
280
     1
102
RTVSPost2010PropOp29
 70
     1
102
RTVSPost2010Prop30
280
     1
102
RTVSPost2010PropOp30
 70
     1
102
RTVSPost2010Prop31
280
     0
102
RTVSPost2010PropOp31
 70
     1
102
RTVSPost2010Prop32
280
     0
102
RTVSPost2010PropOp32
 70
     1
102
RTVSPost2010Prop33
280
     0
102
RTVSPost2010PropOp33
 70
     1
102
RTVSPost2010Prop34
280
     0
102
RTVSPost2010PropOp34
 70
     1
102
RTVSPost2010Prop35
280
     0
102
RTVSPost2010PropOp35
 70
     1
102
RTVSPost2010Prop36
280
     0
102
RTVSPost2010PropOp36
 70
     1
102
RTVSPost2010Prop37
 90
       50
102
RTVSPost2010PropOp37
 70
     1
102
RTVSPost2010Prop38
140
0.0
102
RTVSPost2010PropOp38
 70
     1
102
RTVSPost2010Prop39
140
1.0
102
RTVSPost2010PropOp39
 70
     1
102
RTVSPost2010Prop40
 90
        0
102
RTVSPost2010PropOp40
 70
     1
102
RTVSPost2010Prop41ColorIndex
 90
       18
102
RTVSPost2010Prop41ColorRGB
 90
        0
102
RTVSPost2010PropOp41
 70
     1
102
RTVSPost2010Prop42
 90
       50
102
RTVSPost2010PropOp42
 70
     1
102
RTVSPost2010Prop43
 90
        3
102
RTVSPost2010PropOp43
 70
     1
102
RTVSPost2010Prop44ColorIndex
 90
        5
102
RTVSPost2010Prop44ColorRGB
 90
      255
102
RTVSPost2010PropOp44
 70
     1
102
RTVSPost2010Prop45
280
     0
102
RTVSPost2010PropOp45
 70
     1
102
RTVSPost2010Prop46
 90
       50
102
RTVSPost2010PropOp46
 70
     1
102
RTVSPost2010Prop47
 90
       50
102
RTVSPost2010PropOp47
 70
     1
102
RTVSPost2010Prop48
 90
       50
102
RTVSPost2010PropOp48
 70
     1
102
RTVSPost2010Prop49
280
     0
102
RTVSPost2010PropOp49
 70
     1
102
RTVSPost2010Prop50
 90
       50
102
RTVSPost2010PropOp50
 70
     1
102
RTVSPost2010Prop51ColorIndex
 90
      256
102
RTVSPost2010Prop51ColorRGB
 90
-16777216
102
RTVSPost2010PropOp51
 70
     0
102
RTVSPost2010Prop52
140
1.0
102
RTVSPost2010PropOp52
 70
     0
102
RTVSPost2010Prop53
 90
        2
102
RTVSPost2010PropOp53
 70
     1
102
RTVSPost2010Prop54
  1
strokes_ogs.tif
102
RTVSPost2010PropOp54
 70
     1
102
RTVSPost2010Prop55
280
     0
102
RTVSPost2010PropOp55
 70
     1
102
RTVSPost2010Prop56
140
1.0
102
RTVSPost2010PropOp56
 70
     1
102
RTVSPost2010Prop57
140
1.0
102
RTVSPost2010PropOp57
 70
     1
  0
XRECORD
  5
3A5
102
{ACAD_REACTORS
330
3A4
102
}
330
3A4
100
AcDbXrecord
280
     1
102
RTVSPost2010Prop28
280
     0
102
RTVSPost2010PropOp28
 70
     0
102
RTVSPost2010Prop29
280
     1
102
RTVSPost2010PropOp29
 70
     0
102
RTVSPost2010Prop30
280
     1
102
RTVSPost2010PropOp30
 70
     0
102
RTVSPost2010Prop31
280
     0
102
RTVSPost2010PropOp31
 70
     0
102
RTVSPost2010Prop32
280
     0
102
RTVSPost2010PropOp32
 70
     0
102
RTVSPost2010Prop33
280
     0
102
RTVSPost2010PropOp33
 70
     0
102
RTVSPost2010Prop34
280
     0
102
RTVSPost2010PropOp34
 70
     0
102
RTVSPost2010Prop35
280
     0
102
RTVSPost2010PropOp35
 70
     0
102
RTVSPost2010Prop36
280
     0
102
RTVSPost2010PropOp36
 70
     0
102
RTVSPost2010Prop37
 90
       50
102
RTVSPost2010PropOp37
 70
     0
102
RTVSPost2010Prop38
140
0.0
102
RTVSPost2010PropOp38
 70
     0
102
RTVSPost2010Prop39
140
1.0
102
RTVSPost2010PropOp39
 70
     0
102
RTVSPost2010Prop40
 90
        0
102
RTVSPost2010PropOp40
 70
     0
102
RTVSPost2010Prop41ColorIndex
 90
       18
102
RTVSPost2010Prop41ColorRGB
 90
        0
102
RTVSPost2010PropOp41
 70
     0
102
RTVSPost2010Prop42
 90
       50
102
RTVSPost2010PropOp42
 70
     0
102
RTVSPost2010Prop43
 90
        3
102
RTVSPost2010PropOp43
 70
     0
102
RTVSPost2010Prop44ColorIndex
 90
        5
102
RTVSPost2010Prop44ColorRGB
 90
      255
102
RTVSPost2010PropOp44
 70
     0
102
RTVSPost2010Prop45
280
     0
102
RTVSPost2010PropOp45
 70
     0
102
RTVSPost2010Prop46
 90
       50
102
RTVSPost2010PropOp46
 70
     0
102
RTVSPost2010Prop47
 90
       50
102
RTVSPost2010PropOp47
 70
     0
102
RTVSPost2010Prop48
 90
       50
102
RTVSPost2010PropOp48
 70
     0
102
RTVSPost2010Prop49
280
     0
102
RTVSPost2010PropOp49
 70
     0
102
RTVSPost2010Prop50
 90
       50
102
RTVSPost2010PropOp50
 70
     0
102
RTVSPost2010Prop51ColorIndex
 90
      256
102
RTVSPost2010Prop51ColorRGB
 90
-16777216
102
RTVSPost2010PropOp51
 70
     0
102
RTVSPost2010Prop52
140
1.0
102
RTVSPost2010PropOp52
 70
     0
102
RTVSPost2010Prop53
 90
        2
102
RTVSPost2010PropOp53
 70
     0
102
RTVSPost2010Prop54
  1
strokes_ogs.tif
102
RTVSPost2010PropOp54
 70
     0
102
RTVSPost2010Prop55
280
     0
102
RTVSPost2010PropOp55
 70
     0
102
RTVSPost2010Prop56
140
1.0
102
RTVSPost2010PropOp56
 70
     0
102
RTVSPost2010Prop57
140
1.0
102
RTVSPost2010PropOp57
 70
     0
  0
XRECORD
  5
39F
102
{ACAD_REACTORS
330
39E
102
}
330
39E
100
AcDbXrecord
280
     1
102
RTVSPost2010Prop28
280
     0
102
RTVSPost2010PropOp28
 70
     1
102
RTVSPost2010Prop29
280
     1
102
RTVSPost2010PropOp29
 70
     1
102
RTVSPost2010Prop30
280
     1
102
RTVSPost2010PropOp30
 70
     1
102
RTVSPost2010Prop31
280
     0
102
RTVSPost2010PropOp31
 70
     1
102
RTVSPost2010Prop32
280
     0
102
RTVSPost2010PropOp32
 70
     1
102
RTVSPost2010Prop33
280
     0
102
RTVSPost2010PropOp33
 70
     1
102
RTVSPost2010Prop34
280
     0
102
RTVSPost2010PropOp34
 70
     1
102
RTVSPost2010Prop35
280
     0
102
RTVSPost2010PropOp35
 70
     1
102
RTVSPost2010Prop36
280
     0
102
RTVSPost2010PropOp36
 70
     1
102
RTVSPost2010Prop37
 90
       50
102
RTVSPost2010PropOp37
 70
     1
102
RTVSPost2010Prop38
140
0.0
102
RTVSPost2010PropOp38
 70
     1
102
RTVSPost2010Prop39
140
1.0
102
RTVSPost2010PropOp39
 70
     1
102
RTVSPost2010Prop40
 90
        0
102
RTVSPost2010PropOp40
 70
     1
102
RTVSPost2010Prop41ColorIndex
 90
       18
102
RTVSPost2010Prop41ColorRGB
 90
        0
102
RTVSPost2010PropOp41
 70
     1
102
RTVSPost2010Prop42
 90
       50
102
RTVSPost2010PropOp42
 70
     1
102
RTVSPost2010Prop43
 90
        3
102
RTVSPost2010PropOp43
 70
     1
102
RTVSPost2010Prop44ColorIndex
 90
        5
102
RTVSPost2010Prop44ColorRGB
 90
      255
102
RTVSPost2010PropOp44
 70
     1
102
RTVSPost2010Prop45
280
     0
102
RTVSPost2010PropOp45
 70
     1
102
RTVSPost2010Prop46
 90
       50
102
RTVSPost2010PropOp46
 70
     1
102
RTVSPost2010Prop47
 90
       50
102
RTVSPost2010PropOp47
 70
     1
102
RTVSPost2010Prop48
 90
       50
102
RTVSPost2010PropOp48
 70
     1
102
RTVSPost2010Prop49
280
     0
102
RTVSPost2010PropOp49
 70
     1
102
RTVSPost2010Prop50
 90
       50
102
RTVSPost2010PropOp50
 70
     1
102
RTVSPost2010Prop51ColorIndex
 90
      256
102
RTVSPost2010Prop51ColorRGB
 90
-16777216
102
RTVSPost2010PropOp51
 70
     0
102
RTVSPost2010Prop52
140
1.0
102
RTVSPost2010PropOp52
 70
     0
102
RTVSPost2010Prop53
 90
        2
102
RTVSPost2010PropOp53
 70
     1
102
RTVSPost2010Prop54
  1
strokes_ogs.tif
102
RTVSPost2010PropOp54
 70
     1
102
RTVSPost2010Prop55
280
     0
102
RTVSPost2010PropOp55
 70
     1
102
RTVSPost2010Prop56
140
1.0
102
RTVSPost2010PropOp56
 70
     1
102
RTVSPost2010Prop57
140
1.0
102
RTVSPost2010PropOp57
 70
     1
  0
XRECORD
  5
3A7
102
{ACAD_REACTORS
330
3A6
102
}
330
3A6
100
AcDbXrecord
280
     1
102
RTVSPost2010Prop28
280
     0
102
RTVSPost2010PropOp28
 70
     0
102
RTVSPost2010Prop29
280
     1
102
RTVSPost2010PropOp29
 70
     0
102
RTVSPost2010Prop30
280
     1
102
RTVSPost2010PropOp30
 70
     0
102
RTVSPost2010Prop31
280
     0
102
RTVSPost2010PropOp31
 70
     0
102
RTVSPost2010Prop32
280
     0
102
RTVSPost2010PropOp32
 70
     0
102
RTVSPost2010Prop33
280
     0
102
RTVSPost2010PropOp33
 70
     0
102
RTVSPost2010Prop34
280
     0
102
RTVSPost2010PropOp34
 70
     0
102
RTVSPost2010Prop35
280
     0
102
RTVSPost2010PropOp35
 70
     0
102
RTVSPost2010Prop36
280
     0
102
RTVSPost2010PropOp36
 70
     0
102
RTVSPost2010Prop37
 90
       50
102
RTVSPost2010PropOp37
 70
     0
102
RTVSPost2010Prop38
140
0.0
102
RTVSPost2010PropOp38
 70
     0
102
RTVSPost2010Prop39
140
1.0
102
RTVSPost2010PropOp39
 70
     0
102
RTVSPost2010Prop40
 90
        0
102
RTVSPost2010PropOp40
 70
     0
102
RTVSPost2010Prop41ColorIndex
 90
       18
102
RTVSPost2010Prop41ColorRGB
 90
        0
102
RTVSPost2010PropOp41
 70
     0
102
RTVSPost2010Prop42
 90
       50
102
RTVSPost2010PropOp42
 70
     0
102
RTVSPost2010Prop43
 90
        3
102
RTVSPost2010PropOp43
 70
     0
102
RTVSPost2010Prop44ColorIndex
 90
        5
102
RTVSPost2010Prop44ColorRGB
 90
      255
102
RTVSPost2010PropOp44
 70
     0
102
RTVSPost2010Prop45
280
     0
102
RTVSPost2010PropOp45
 70
     0
102
RTVSPost2010Prop46
 90
       50
102
RTVSPost2010PropOp46
 70
     0
102
RTVSPost2010Prop47
 90
       50
102
RTVSPost2010PropOp47
 70
     0
102
RTVSPost2010Prop48
 90
       50
102
RTVSPost2010PropOp48
 70
     0
102
RTVSPost2010Prop49
280
     0
102
RTVSPost2010PropOp49
 70
     0
102
RTVSPost2010Prop50
 90
       50
102
RTVSPost2010PropOp50
 70
     0
102
RTVSPost2010Prop51ColorIndex
 90
      256
102
RTVSPost2010Prop51ColorRGB
 90
-16777216
102
RTVSPost2010PropOp51
 70
     0
102
RTVSPost2010Prop52
140
1.0
102
RTVSPost2010PropOp52
 70
     0
102
RTVSPost2010Prop53
 90
        2
102
RTVSPost2010PropOp53
 70
     0
102
RTVSPost2010Prop54
  1
strokes_ogs.tif
102
RTVSPost2010PropOp54
 70
     0
102
RTVSPost2010Prop55
280
     0
102
RTVSPost2010PropOp55
 70
     0
102
RTVSPost2010Prop56
140
1.0
102
RTVSPost2010PropOp56
 70
     0
102
RTVSPost2010Prop57
140
1.0
102
RTVSPost2010PropOp57
 70
     0
  0
XRECORD
  5
395
102
{ACAD_REACTORS
330
394
102
}
330
394
100
AcDbXrecord
280
     1
102
RTVSPost2010Prop28
280
     0
102
RTVSPost2010PropOp28
 70
     1
102
RTVSPost2010Prop29
280
     1
102
RTVSPost2010PropOp29
 70
     1
102
RTVSPost2010Prop30
280
     1
102
RTVSPost2010PropOp30
 70
     1
102
RTVSPost2010Prop31
280
     0
102
RTVSPost2010PropOp31
 70
     1
102
RTVSPost2010Prop32
280
     0
102
RTVSPost2010PropOp32
 70
     1
102
RTVSPost2010Prop33
280
     0
102
RTVSPost2010PropOp33
 70
     1
102
RTVSPost2010Prop34
280
     0
102
RTVSPost2010PropOp34
 70
     1
102
RTVSPost2010Prop35
280
     0
102
RTVSPost2010PropOp35
 70
     1
102
RTVSPost2010Prop36
280
     0
102
RTVSPost2010PropOp36
 70
     1
102
RTVSPost2010Prop37
 90
       50
102
RTVSPost2010PropOp37
 70
     1
102
RTVSPost2010Prop38
140
0.0
102
RTVSPost2010PropOp38
 70
     1
102
RTVSPost2010Prop39
140
1.0
102
RTVSPost2010PropOp39
 70
     1
102
RTVSPost2010Prop40
 90
        0
102
RTVSPost2010PropOp40
 70
     1
102
RTVSPost2010Prop41ColorIndex
 90
       18
102
RTVSPost2010Prop41ColorRGB
 90
        0
102
RTVSPost2010PropOp41
 70
     1
102
RTVSPost2010Prop42
 90
       50
102
RTVSPost2010PropOp42
 70
     1
102
RTVSPost2010Prop43
 90
        3
102
RTVSPost2010PropOp43
 70
     1
102
RTVSPost2010Prop44ColorIndex
 90
        5
102
RTVSPost2010Prop44ColorRGB
 90
      255
102
RTVSPost2010PropOp44
 70
     1
102
RTVSPost2010Prop45
280
     0
102
RTVSPost2010PropOp45
 70
     1
102
RTVSPost2010Prop46
 90
       50
102
RTVSPost2010PropOp46
 70
     1
102
RTVSPost2010Prop47
 90
       50
102
RTVSPost2010PropOp47
 70
     1
102
RTVSPost2010Prop48
 90
       50
102
RTVSPost2010PropOp48
 70
     1
102
RTVSPost2010Prop49
280
     0
102
RTVSPost2010PropOp49
 70
     1
102
RTVSPost2010Prop50
 90
       50
102
RTVSPost2010PropOp50
 70
     1
102
RTVSPost2010Prop51ColorIndex
 90
      256
102
RTVSPost2010Prop51ColorRGB
 90
-16777216
102
RTVSPost2010PropOp51
 70
     0
102
RTVSPost2010Prop52
140
1.0
102
RTVSPost2010PropOp52
 70
     0
102
RTVSPost2010Prop53
 90
        2
102
RTVSPost2010PropOp53
 70
     1
102
RTVSPost2010Prop54
  1
strokes_ogs.tif
102
RTVSPost2010PropOp54
 70
     1
102
RTVSPost2010Prop55
280
     0
102
RTVSPost2010PropOp55
 70
     1
102
RTVSPost2010Prop56
140
1.0
102
RTVSPost2010PropOp56
 70
     1
102
RTVSPost2010Prop57
140
1.0
102
RTVSPost2010PropOp57
 70
     1
  0
XRECORD
  5
3B3
102
{ACAD_REACTORS
330
3B2
102
}
330
3B2
100
AcDbXrecord
280
     1
102
RTVSPost2010Prop28
280
     0
102
RTVSPost2010PropOp28
 70
     1
102
RTVSPost2010Prop29
280
     1
102
RTVSPost2010PropOp29
 70
     1
102
RTVSPost2010Prop30
280
     1
102
RTVSPost2010PropOp30
 70
     1
102
RTVSPost2010Prop31
280
     0
102
RTVSPost2010PropOp31
 70
     1
102
RTVSPost2010Prop32
280
     0
102
RTVSPost2010PropOp32
 70
     1
102
RTVSPost2010Prop33
280
     0
102
RTVSPost2010PropOp33
 70
     1
102
RTVSPost2010Prop34
280
     0
102
RTVSPost2010PropOp34
 70
     1
102
RTVSPost2010Prop35
280
     0
102
RTVSPost2010PropOp35
 70
     1
102
RTVSPost2010Prop36
280
     0
102
RTVSPost2010PropOp36
 70
     1
102
RTVSPost2010Prop37
 90
       50
102
RTVSPost2010PropOp37
 70
     1
102
RTVSPost2010Prop38
140
0.0
102
RTVSPost2010PropOp38
 70
     1
102
RTVSPost2010Prop39
140
1.0
102
RTVSPost2010PropOp39
 70
     1
102
RTVSPost2010Prop40
 90
        0
102
RTVSPost2010PropOp40
 70
     1
102
RTVSPost2010Prop41ColorIndex
 90
       18
102
RTVSPost2010Prop41ColorRGB
 90
        0
102
RTVSPost2010PropOp41
 70
     1
102
RTVSPost2010Prop42
 90
       50
102
RTVSPost2010PropOp42
 70
     1
102
RTVSPost2010Prop43
 90
        3
102
RTVSPost2010PropOp43
 70
     1
102
RTVSPost2010Prop44ColorIndex
 90
        5
102
RTVSPost2010Prop44ColorRGB
 90
      255
102
RTVSPost2010PropOp44
 70
     1
102
RTVSPost2010Prop45
280
     0
102
RTVSPost2010PropOp45
 70
     1
102
RTVSPost2010Prop46
 90
       50
102
RTVSPost2010PropOp46
 70
     1
102
RTVSPost2010Prop47
 90
       50
102
RTVSPost2010PropOp47
 70
     1
102
RTVSPost2010Prop48
 90
       50
102
RTVSPost2010PropOp48
 70
     1
102
RTVSPost2010Prop49
280
     0
102
RTVSPost2010PropOp49
 70
     1
102
RTVSPost2010Prop50
 90
       50
102
RTVSPost2010PropOp50
 70
     1
102
RTVSPost2010Prop51ColorIndex
 90
      256
102
RTVSPost2010Prop51ColorRGB
 90
-16777216
102
RTVSPost2010PropOp51
 70
     0
102
RTVSPost2010Prop52
140
1.0
102
RTVSPost2010PropOp52
 70
     0
102
RTVSPost2010Prop53
 90
        2
102
RTVSPost2010PropOp53
 70
     1
102
RTVSPost2010Prop54
  1
strokes_ogs.tif
102
RTVSPost2010PropOp54
 70
     1
102
RTVSPost2010Prop55
280
     0
102
RTVSPost2010PropOp55
 70
     1
102
RTVSPost2010Prop56
140
1.0
102
RTVSPost2010PropOp56
 70
     1
102
RTVSPost2010Prop57
140
1.0
102
RTVSPost2010PropOp57
 70
     1
  0
XRECORD
  5
3B1
102
{ACAD_REACTORS
330
3B0
102
}
330
3B0
100
AcDbXrecord
280
     1
102
RTVSPost2010Prop28
280
     0
102
RTVSPost2010PropOp28
 70
     1
102
RTVSPost2010Prop29
280
     1
102
RTVSPost2010PropOp29
 70
     1
102
RTVSPost2010Prop30
280
     1
102
RTVSPost2010PropOp30
 70
     1
102
RTVSPost2010Prop31
280
     0
102
RTVSPost2010PropOp31
 70
     1
102
RTVSPost2010Prop32
280
     0
102
RTVSPost2010PropOp32
 70
     1
102
RTVSPost2010Prop33
280
     0
102
RTVSPost2010PropOp33
 70
     1
102
RTVSPost2010Prop34
280
     0
102
RTVSPost2010PropOp34
 70
     1
102
RTVSPost2010Prop35
280
     0
102
RTVSPost2010PropOp35
 70
     1
102
RTVSPost2010Prop36
280
     0
102
RTVSPost2010PropOp36
 70
     1
102
RTVSPost2010Prop37
 90
       50
102
RTVSPost2010PropOp37
 70
     1
102
RTVSPost2010Prop38
140
0.0
102
RTVSPost2010PropOp38
 70
     1
102
RTVSPost2010Prop39
140
1.0
102
RTVSPost2010PropOp39
 70
     1
102
RTVSPost2010Prop40
 90
        0
102
RTVSPost2010PropOp40
 70
     1
102
RTVSPost2010Prop41ColorIndex
 90
       18
102
RTVSPost2010Prop41ColorRGB
 90
        0
102
RTVSPost2010PropOp41
 70
     1
102
RTVSPost2010Prop42
 90
       50
102
RTVSPost2010PropOp42
 70
     1
102
RTVSPost2010Prop43
 90
        3
102
RTVSPost2010PropOp43
 70
     1
102
RTVSPost2010Prop44ColorIndex
 90
        5
102
RTVSPost2010Prop44ColorRGB
 90
      255
102
RTVSPost2010PropOp44
 70
     1
102
RTVSPost2010Prop45
280
     0
102
RTVSPost2010PropOp45
 70
     1
102
RTVSPost2010Prop46
 90
       50
102
RTVSPost2010PropOp46
 70
     1
102
RTVSPost2010Prop47
 90
       50
102
RTVSPost2010PropOp47
 70
     1
102
RTVSPost2010Prop48
 90
       50
102
RTVSPost2010PropOp48
 70
     1
102
RTVSPost2010Prop49
280
     0
102
RTVSPost2010PropOp49
 70
     1
102
RTVSPost2010Prop50
 90
       50
102
RTVSPost2010PropOp50
 70
     1
102
RTVSPost2010Prop51ColorIndex
 90
      256
102
RTVSPost2010Prop51ColorRGB
 90
-16777216
102
RTVSPost2010PropOp51
 70
     0
102
RTVSPost2010Prop52
140
1.0
102
RTVSPost2010PropOp52
 70
     0
102
RTVSPost2010Prop53
 90
        2
102
RTVSPost2010PropOp53
 70
     1
102
RTVSPost2010Prop54
  1
strokes_ogs.tif
102
RTVSPost2010PropOp54
 70
     1
102
RTVSPost2010Prop55
280
     0
102
RTVSPost2010PropOp55
 70
     1
102
RTVSPost2010Prop56
140
1.0
102
RTVSPost2010PropOp56
 70
     1
102
RTVSPost2010Prop57
140
1.0
102
RTVSPost2010PropOp57
 70
     1
  0
XRECORD
  5
3AB
102
{ACAD_REACTORS
330
3AA
102
}
330
3AA
100
AcDbXrecord
280
     1
102
RTVSPost2010Prop28
280
     0
102
RTVSPost2010PropOp28
 70
     1
102
RTVSPost2010Prop29
280
     1
102
RTVSPost2010PropOp29
 70
     1
102
RTVSPost2010Prop30
280
     1
102
RTVSPost2010PropOp30
 70
     1
102
RTVSPost2010Prop31
280
     0
102
RTVSPost2010PropOp31
 70
     1
102
RTVSPost2010Prop32
280
     0
102
RTVSPost2010PropOp32
 70
     1
102
RTVSPost2010Prop33
280
     0
102
RTVSPost2010PropOp33
 70
     1
102
RTVSPost2010Prop34
280
     0
102
RTVSPost2010PropOp34
 70
     1
102
RTVSPost2010Prop35
280
     0
102
RTVSPost2010PropOp35
 70
     1
102
RTVSPost2010Prop36
280
     0
102
RTVSPost2010PropOp36
 70
     1
102
RTVSPost2010Prop37
 90
       50
102
RTVSPost2010PropOp37
 70
     1
102
RTVSPost2010Prop38
140
0.0
102
RTVSPost2010PropOp38
 70
     1
102
RTVSPost2010Prop39
140
1.0
102
RTVSPost2010PropOp39
 70
     1
102
RTVSPost2010Prop40
 90
        0
102
RTVSPost2010PropOp40
 70
     1
102
RTVSPost2010Prop41ColorIndex
 90
       18
102
RTVSPost2010Prop41ColorRGB
 90
        0
102
RTVSPost2010PropOp41
 70
     1
102
RTVSPost2010Prop42
 90
       50
102
RTVSPost2010PropOp42
 70
     1
102
RTVSPost2010Prop43
 90
        3
102
RTVSPost2010PropOp43
 70
     1
102
RTVSPost2010Prop44ColorIndex
 90
        5
102
RTVSPost2010Prop44ColorRGB
 90
      255
102
RTVSPost2010PropOp44
 70
     1
102
RTVSPost2010Prop45
280
     0
102
RTVSPost2010PropOp45
 70
     1
102
RTVSPost2010Prop46
 90
       50
102
RTVSPost2010PropOp46
 70
     1
102
RTVSPost2010Prop47
 90
       50
102
RTVSPost2010PropOp47
 70
     1
102
RTVSPost2010Prop48
 90
       50
102
RTVSPost2010PropOp48
 70
     1
102
RTVSPost2010Prop49
280
     0
102
RTVSPost2010PropOp49
 70
     1
102
RTVSPost2010Prop50
 90
       50
102
RTVSPost2010PropOp50
 70
     1
102
RTVSPost2010Prop51ColorIndex
 90
      256
102
RTVSPost2010Prop51ColorRGB
 90
-16777216
102
RTVSPost2010PropOp51
 70
     0
102
RTVSPost2010Prop52
140
1.0
102
RTVSPost2010PropOp52
 70
     0
102
RTVSPost2010Prop53
 90
        2
102
RTVSPost2010PropOp53
 70
     1
102
RTVSPost2010Prop54
  1
strokes_ogs.tif
102
RTVSPost2010PropOp54
 70
     1
102
RTVSPost2010Prop55
280
     0
102
RTVSPost2010PropOp55
 70
     1
102
RTVSPost2010Prop56
140
1.0
102
RTVSPost2010PropOp56
 70
     1
102
RTVSPost2010Prop57
140
1.0
102
RTVSPost2010PropOp57
 70
     1
  0
XRECORD
  5
3AD
102
{ACAD_REACTORS
330
3AC
102
}
330
3AC
100
AcDbXrecord
280
     1
102
RTVSPost2010Prop28
280
     0
102
RTVSPost2010PropOp28
 70
     1
102
RTVSPost2010Prop29
280
     1
102
RTVSPost2010PropOp29
 70
     1
102
RTVSPost2010Prop30
280
     1
102
RTVSPost2010PropOp30
 70
     1
102
RTVSPost2010Prop31
280
     0
102
RTVSPost2010PropOp31
 70
     1
102
RTVSPost2010Prop32
280
     0
102
RTVSPost2010PropOp32
 70
     1
102
RTVSPost2010Prop33
280
     0
102
RTVSPost2010PropOp33
 70
     1
102
RTVSPost2010Prop34
280
     0
102
RTVSPost2010PropOp34
 70
     1
102
RTVSPost2010Prop35
280
     0
102
RTVSPost2010PropOp35
 70
     1
102
RTVSPost2010Prop36
280
     0
102
RTVSPost2010PropOp36
 70
     1
102
RTVSPost2010Prop37
 90
       50
102
RTVSPost2010PropOp37
 70
     1
102
RTVSPost2010Prop38
140
0.0
102
RTVSPost2010PropOp38
 70
     1
102
RTVSPost2010Prop39
140
1.0
102
RTVSPost2010PropOp39
 70
     1
102
RTVSPost2010Prop40
 90
        0
102
RTVSPost2010PropOp40
 70
     1
102
RTVSPost2010Prop41ColorIndex
 90
       18
102
RTVSPost2010Prop41ColorRGB
 90
        0
102
RTVSPost2010PropOp41
 70
     1
102
RTVSPost2010Prop42
 90
       50
102
RTVSPost2010PropOp42
 70
     1
102
RTVSPost2010Prop43
 90
        3
102
RTVSPost2010PropOp43
 70
     1
102
RTVSPost2010Prop44ColorIndex
 90
        5
102
RTVSPost2010Prop44ColorRGB
 90
      255
102
RTVSPost2010PropOp44
 70
     1
102
RTVSPost2010Prop45
280
     0
102
RTVSPost2010PropOp45
 70
     1
102
RTVSPost2010Prop46
 90
       50
102
RTVSPost2010PropOp46
 70
     1
102
RTVSPost2010Prop47
 90
       50
102
RTVSPost2010PropOp47
 70
     1
102
RTVSPost2010Prop48
 90
       50
102
RTVSPost2010PropOp48
 70
     1
102
RTVSPost2010Prop49
280
     0
102
RTVSPost2010PropOp49
 70
     1
102
RTVSPost2010Prop50
 90
       50
102
RTVSPost2010PropOp50
 70
     1
102
RTVSPost2010Prop51ColorIndex
 90
      256
102
RTVSPost2010Prop51ColorRGB
 90
-16777216
102
RTVSPost2010PropOp51
 70
     0
102
RTVSPost2010Prop52
140
1.0
102
RTVSPost2010PropOp52
 70
     0
102
RTVSPost2010Prop53
 90
        2
102
RTVSPost2010PropOp53
 70
     1
102
RTVSPost2010Prop54
  1
strokes_ogs.tif
102
RTVSPost2010PropOp54
 70
     1
102
RTVSPost2010Prop55
280
     0
102
RTVSPost2010PropOp55
 70
     1
102
RTVSPost2010Prop56
140
1.0
102
RTVSPost2010PropOp56
 70
     1
102
RTVSPost2010Prop57
140
1.0
102
RTVSPost2010PropOp57
 70
     1
  0
XRECORD
  5
39D
102
{ACAD_REACTORS
330
39C
102
}
330
39C
100
AcDbXrecord
280
     1
102
RTVSPost2010Prop28
280
     0
102
RTVSPost2010PropOp28
 70
     1
102
RTVSPost2010Prop29
280
     1
102
RTVSPost2010PropOp29
 70
     1
102
RTVSPost2010Prop30
280
     1
102
RTVSPost2010PropOp30
 70
     1
102
RTVSPost2010Prop31
280
     0
102
RTVSPost2010PropOp31
 70
     1
102
RTVSPost2010Prop32
280
     0
102
RTVSPost2010PropOp32
 70
     1
102
RTVSPost2010Prop33
280
     0
102
RTVSPost2010PropOp33
 70
     1
102
RTVSPost2010Prop34
280
     0
102
RTVSPost2010PropOp34
 70
     1
102
RTVSPost2010Prop35
280
     0
102
RTVSPost2010PropOp35
 70
     1
102
RTVSPost2010Prop36
280
     0
102
RTVSPost2010PropOp36
 70
     1
102
RTVSPost2010Prop37
 90
       50
102
RTVSPost2010PropOp37
 70
     1
102
RTVSPost2010Prop38
140
0.0
102
RTVSPost2010PropOp38
 70
     1
102
RTVSPost2010Prop39
140
1.0
102
RTVSPost2010PropOp39
 70
     1
102
RTVSPost2010Prop40
 90
        0
102
RTVSPost2010PropOp40
 70
     1
102
RTVSPost2010Prop41ColorIndex
 90
       18
102
RTVSPost2010Prop41ColorRGB
 90
        0
102
RTVSPost2010PropOp41
 70
     1
102
RTVSPost2010Prop42
 90
       50
102
RTVSPost2010PropOp42
 70
     1
102
RTVSPost2010Prop43
 90
        3
102
RTVSPost2010PropOp43
 70
     1
102
RTVSPost2010Prop44ColorIndex
 90
        5
102
RTVSPost2010Prop44ColorRGB
 90
      255
102
RTVSPost2010PropOp44
 70
     1
102
RTVSPost2010Prop45
280
     0
102
RTVSPost2010PropOp45
 70
     1
102
RTVSPost2010Prop46
 90
       50
102
RTVSPost2010PropOp46
 70
     1
102
RTVSPost2010Prop47
 90
       50
102
RTVSPost2010PropOp47
 70
     1
102
RTVSPost2010Prop48
 90
       50
102
RTVSPost2010PropOp48
 70
     1
102
RTVSPost2010Prop49
280
     0
102
RTVSPost2010PropOp49
 70
     1
102
RTVSPost2010Prop50
 90
       50
102
RTVSPost2010PropOp50
 70
     1
102
RTVSPost2010Prop51ColorIndex
 90
      256
102
RTVSPost2010Prop51ColorRGB
 90
-16777216
102
RTVSPost2010PropOp51
 70
     0
102
RTVSPost2010Prop52
140
1.0
102
RTVSPost2010PropOp52
 70
     0
102
RTVSPost2010Prop53
 90
        2
102
RTVSPost2010PropOp53
 70
     1
102
RTVSPost2010Prop54
  1
strokes_ogs.tif
102
RTVSPost2010PropOp54
 70
     1
102
RTVSPost2010Prop55
280
     0
102
RTVSPost2010PropOp55
 70
     1
102
RTVSPost2010Prop56
140
1.0
102
RTVSPost2010PropOp56
 70
     1
102
RTVSPost2010Prop57
140
1.0
102
RTVSPost2010PropOp57
 70
     1
  0
XRECORD
  5
38F
102
{ACAD_REACTORS
330
38E
102
}
330
38E
100
AcDbXrecord
280
     1
102
RTVSPost2010Prop28
280
     0
102
RTVSPost2010PropOp28
 70
     1
102
RTVSPost2010Prop29
280
     1
102
RTVSPost2010PropOp29
 70
     1
102
RTVSPost2010Prop30
280
     1
102
RTVSPost2010PropOp30
 70
     1
102
RTVSPost2010Prop31
280
     0
102
RTVSPost2010PropOp31
 70
     1
102
RTVSPost2010Prop32
280
     0
102
RTVSPost2010PropOp32
 70
     1
102
RTVSPost2010Prop33
280
     0
102
RTVSPost2010PropOp33
 70
     1
102
RTVSPost2010Prop34
280
     0
102
RTVSPost2010PropOp34
 70
     1
102
RTVSPost2010Prop35
280
     0
102
RTVSPost2010PropOp35
 70
     1
102
RTVSPost2010Prop36
280
     0
102
RTVSPost2010PropOp36
 70
     1
102
RTVSPost2010Prop37
 90
       50
102
RTVSPost2010PropOp37
 70
     1
102
RTVSPost2010Prop38
140
0.0
102
RTVSPost2010PropOp38
 70
     1
102
RTVSPost2010Prop39
140
1.0
102
RTVSPost2010PropOp39
 70
     1
102
RTVSPost2010Prop40
 90
        0
102
RTVSPost2010PropOp40
 70
     1
102
RTVSPost2010Prop41ColorIndex
 90
       18
102
RTVSPost2010Prop41ColorRGB
 90
        0
102
RTVSPost2010PropOp41
 70
     1
102
RTVSPost2010Prop42
 90
       50
102
RTVSPost2010PropOp42
 70
     1
102
RTVSPost2010Prop43
 90
        3
102
RTVSPost2010PropOp43
 70
     1
102
RTVSPost2010Prop44ColorIndex
 90
        5
102
RTVSPost2010Prop44ColorRGB
 90
      255
102
RTVSPost2010PropOp44
 70
     1
102
RTVSPost2010Prop45
280
     0
102
RTVSPost2010PropOp45
 70
     1
102
RTVSPost2010Prop46
 90
       50
102
RTVSPost2010PropOp46
 70
     1
102
RTVSPost2010Prop47
 90
       50
102
RTVSPost2010PropOp47
 70
     1
102
RTVSPost2010Prop48
 90
       50
102
RTVSPost2010PropOp48
 70
     1
102
RTVSPost2010Prop49
280
     0
102
RTVSPost2010PropOp49
 70
     1
102
RTVSPost2010Prop50
 90
       50
102
RTVSPost2010PropOp50
 70
     1
102
RTVSPost2010Prop51ColorIndex
 90
      256
102
RTVSPost2010Prop51ColorRGB
 90
-16777216
102
RTVSPost2010PropOp51
 70
     0
102
RTVSPost2010Prop52
140
1.0
102
RTVSPost2010PropOp52
 70
     0
102
RTVSPost2010Prop53
 90
        2
102
RTVSPost2010PropOp53
 70
     1
102
RTVSPost2010Prop54
  1
strokes_ogs.tif
102
RTVSPost2010PropOp54
 70
     1
102
RTVSPost2010Prop55
280
     0
102
RTVSPost2010PropOp55
 70
     1
102
RTVSPost2010Prop56
140
1.0
102
RTVSPost2010PropOp56
 70
     1
102
RTVSPost2010Prop57
140
1.0
102
RTVSPost2010PropOp57
 70
     1
  0
XRECORD
  5
3AF
102
{ACAD_REACTORS
330
3AE
102
}
330
3AE
100
AcDbXrecord
280
     1
102
RTVSPost2010Prop28
280
     0
102
RTVSPost2010PropOp28
 70
     1
102
RTVSPost2010Prop29
280
     1
102
RTVSPost2010PropOp29
 70
     1
102
RTVSPost2010Prop30
280
     1
102
RTVSPost2010PropOp30
 70
     1
102
RTVSPost2010Prop31
280
     0
102
RTVSPost2010PropOp31
 70
     1
102
RTVSPost2010Prop32
280
     0
102
RTVSPost2010PropOp32
 70
     1
102
RTVSPost2010Prop33
280
     0
102
RTVSPost2010PropOp33
 70
     1
102
RTVSPost2010Prop34
280
     0
102
RTVSPost2010PropOp34
 70
     1
102
RTVSPost2010Prop35
280
     0
102
RTVSPost2010PropOp35
 70
     1
102
RTVSPost2010Prop36
280
     0
102
RTVSPost2010PropOp36
 70
     1
102
RTVSPost2010Prop37
 90
       50
102
RTVSPost2010PropOp37
 70
     1
102
RTVSPost2010Prop38
140
0.0
102
RTVSPost2010PropOp38
 70
     1
102
RTVSPost2010Prop39
140
1.0
102
RTVSPost2010PropOp39
 70
     1
102
RTVSPost2010Prop40
 90
        0
102
RTVSPost2010PropOp40
 70
     1
102
RTVSPost2010Prop41ColorIndex
 90
       18
102
RTVSPost2010Prop41ColorRGB
 90
        0
102
RTVSPost2010PropOp41
 70
     1
102
RTVSPost2010Prop42
 90
       50
102
RTVSPost2010PropOp42
 70
     1
102
RTVSPost2010Prop43
 90
        3
102
RTVSPost2010PropOp43
 70
     1
102
RTVSPost2010Prop44ColorIndex
 90
        5
102
RTVSPost2010Prop44ColorRGB
 90
      255
102
RTVSPost2010PropOp44
 70
     1
102
RTVSPost2010Prop45
280
     0
102
RTVSPost2010PropOp45
 70
     1
102
RTVSPost2010Prop46
 90
       50
102
RTVSPost2010PropOp46
 70
     1
102
RTVSPost2010Prop47
 90
       50
102
RTVSPost2010PropOp47
 70
     1
102
RTVSPost2010Prop48
 90
       50
102
RTVSPost2010PropOp48
 70
     1
102
RTVSPost2010Prop49
280
     0
102
RTVSPost2010PropOp49
 70
     1
102
RTVSPost2010Prop50
 90
       50
102
RTVSPost2010PropOp50
 70
     1
102
RTVSPost2010Prop51ColorIndex
 90
      256
102
RTVSPost2010Prop51ColorRGB
 90
-16777216
102
RTVSPost2010PropOp51
 70
     0
102
RTVSPost2010Prop52
140
1.0
102
RTVSPost2010PropOp52
 70
     0
102
RTVSPost2010Prop53
 90
        2
102
RTVSPost2010PropOp53
 70
     1
102
RTVSPost2010Prop54
  1
strokes_ogs.tif
102
RTVSPost2010PropOp54
 70
     1
102
RTVSPost2010Prop55
280
     0
102
RTVSPost2010PropOp55
 70
     1
102
RTVSPost2010Prop56
140
1.0
102
RTVSPost2010PropOp56
 70
     1
102
RTVSPost2010Prop57
140
1.0
102
RTVSPost2010PropOp57
 70
     1
  0
ENDSEC
  0
EOF
