  0
SECTION
  2
HEADER
  9
$ACADVER
  1
AC1032
  9
$ACADMAINTVER
 90
       55
  9
$DWGCODEPAGE
  3
ANSI_1252
  9
$LASTSAVEDBY
  1
tfj513
  9
$REQUIREDVERSIONS
160
                 0
  9
$INSBASE
 10
0.0
 20
0.0
 30
0.0
  9
$EXTMIN
 10
1.000000000000000E+20
 20
1.000000000000000E+20
 30
1.000000000000000E+20
  9
$EXTMAX
 10
-1.000000000000000E+20
 20
-1.000000000000000E+20
 30
-1.000000000000000E+20
  9
$LIMMIN
 10
0.0
 20
0.0
  9
$LIMMAX
 10
12.0
 20
9.0
  9
$ORTHOMODE
 70
     0
  9
$REGENMODE
 70
     1
  9
$FILLMODE
 70
     1
  9
$QTEXTMODE
 70
     0
  9
$MIRRTEXT
 70
     1
  9
$LTSCALE
 40
1.0
  9
$ATTMODE
 70
     1
  9
$TEXTSIZE
 40
0.2
  9
$TRACEWID
 40
0.05
  9
$TEXTSTYLE
  7
Standard
  9
$CLAYER
  8
0
  9
$CELTYPE
  6
ByBlock
  9
$CECOLOR
 62
   256
  9
$CELTSCALE
 40
1.0
  9
$DISPSILH
 70
     0
  9
$DIMSCALE
 40
1.0
  9
$DIMASZ
 40
0.18
  9
$DIMEXO
 40
0.0625
  9
$DIMDLI
 40
0.38
  9
$DIMRND
 40
0.0
  9
$DIMDLE
 40
0.0
  9
$DIMEXE
 40
0.18
  9
$DIMTP
 40
0.0
  9
$DIMTM
 40
0.0
  9
$DIMTXT
 40
0.18
  9
$DIMCEN
 40
0.09
  9
$DIMTSZ
 40
0.0
  9
$DIMTOL
 70
     0
  9
$DIMLIM
 70
     0
  9
$DIMTIH
 70
     1
  9
$DIMTOH
 70
     1
  9
$DIMSE1
 70
     0
  9
$DIMSE2
 70
     0
  9
$DIMTAD
 70
     0
  9
$DIMZIN
 70
     0
  9
$DIMBLK
  1

  9
$DIMASO
 70
     1
  9
$DIMSHO
 70
     1
  9
$DIMPOST
  1

  9
$DIMAPOST
  1

  9
$DIMALT
 70
     0
  9
$DIMALTD
 70
     2
  9
$DIMALTF
 40
25.4
  9
$DIMLFAC
 40
1.0
  9
$DIMTOFL
 70
     0
  9
$DIMTVP
 40
0.0
  9
$DIMTIX
 70
     0
  9
$DIMSOXD
 70
     0
  9
$DIMSAH
 70
     0
  9
$DIMBLK1
  1

  9
$DIMBLK2
  1

  9
$DIMSTYLE
  2
Standard
  9
$DIMCLRD
 70
     0
  9
$DIMCLRE
 70
     0
  9
$DIMCLRT
 70
     0
  9
$DIMTFAC
 40
1.0
  9
$DIMGAP
 40
0.09
  9
$DIMJUST
 70
     0
  9
$DIMSD1
 70
     0
  9
$DIMSD2
 70
     0
  9
$DIMTOLJ
 70
     1
  9
$DIMTZIN
 70
     0
  9
$DIMALTZ
 70
     0
  9
$DIMALTTZ
 70
     0
  9
$DIMUPT
 70
     0
  9
$DIMDEC
 70
     4
  9
$DIMTDEC
 70
     4
  9
$DIMALTU
 70
     2
  9
$DIMALTTD
 70
     2
  9
$DIMTXSTY
  7
Standard
  9
$DIMAUNIT
 70
     0
  9
$DIMADEC
 70
     0
  9
$DIMALTRND
 40
0.0
  9
$DIMAZIN
 70
     0
  9
$DIMDSEP
 70
    46
  9
$DIMATFIT
 70
     3
  9
$DIMFRAC
 70
     0
  9
$DIMLDRBLK
  1

  9
$DIMLUNIT
 70
     2
  9
$DIMLWD
 70
    -2
  9
$DIMLWE
 70
    -2
  9
$DIMTMOVE
 70
     2
  9
$DIMFXL
 40
1.0
  9
$DIMFXLON
 70
     0
  9
$DIMJOGANG
 40
0.7853981633974483
  9
$DIMTFILL
 70
     0
  9
$DIMTFILLCLR
 70
     0
  9
$DIMARCSYM
 70
     0
  9
$DIMLTYPE
  6

  9
$DIMLTEX1
  6

  9
$DIMLTEX2
  6

  9
$DIMTXTDIRECTION
 70
     0
  9
$LUNITS
 70
     2
  9
$LUPREC
 70
     4
  9
$SKETCHINC
 40
0.1
  9
$FILLETRAD
 40
0.0
  9
$AUNITS
 70
     0
  9
$AUPREC
 70
     0
  9
$MENU
  1
.
  9
$ELEVATION
 40
0.0
  9
$PELEVATION
 40
0.0
  9
$THICKNESS
 40
0.0
  9
$LIMCHECK
 70
     0
  9
$CHAMFERA
 40
0.0
  9
$CHAMFERB
 40
0.0
  9
$CHAMFERC
 40
0.0
  9
$CHAMFERD
 40
0.0
  9
$SKPOLY
 70
     0
  9
$TDCREATE
 40
2460586.457342882
  9
$TDUCREATE
 40
2460586.415676215
  9
$TDUPDATE
 40
2460586.457343496
  9
$TDUUPDATE
 40
2460586.415676829
  9
$TDINDWG
 40
0.0000000116
  9
$TDUSRTIMER
 40
0.0000000116
  9
$USRTIMER
 70
     1
  9
$ANGBASE
 50
0.0
  9
$ANGDIR
 70
     0
  9
$PDMODE
 70
     0
  9
$PDSIZE
 40
0.0
  9
$PLINEWID
 40
0.0
  9
$SPLFRAME
 70
     0
  9
$SPLINETYPE
 70
     6
  9
$SPLINESEGS
 70
     8
  9
$HANDSEED
  5
3D5
  9
$SURFTAB1
 70
     6
  9
$SURFTAB2
 70
     6
  9
$SURFTYPE
 70
     6
  9
$SURFU
 70
     6
  9
$SURFV
 70
     6
  9
$UCSBASE
  2

  9
$UCSNAME
  2

  9
$UCSORG
 10
0.0
 20
0.0
 30
0.0
  9
$UCSXDIR
 10
1.0
 20
0.0
 30
0.0
  9
$UCSYDIR
 10
0.0
 20
1.0
 30
0.0
  9
$UCSORTHOREF
  2

  9
$UCSORTHOVIEW
 70
     0
  9
$UCSORGTOP
 10
0.0
 20
0.0
 30
0.0
  9
$UCSORGBOTTOM
 10
0.0
 20
0.0
 30
0.0
  9
$UCSORGLEFT
 10
0.0
 20
0.0
 30
0.0
  9
$UCSORGRIGHT
 10
0.0
 20
0.0
 30
0.0
  9
$UCSORGFRONT
 10
0.0
 20
0.0
 30
0.0
  9
$UCSORGBACK
 10
0.0
 20
0.0
 30
0.0
  9
$PUCSBASE
  2

  9
$PUCSNAME
  2

  9
$PUCSORG
 10
0.0
 20
0.0
 30
0.0
  9
$PUCSXDIR
 10
1.0
 20
0.0
 30
0.0
  9
$PUCSYDIR
 10
0.0
 20
1.0
 30
0.0
  9
$PUCSORTHOREF
  2

  9
$PUCSORTHOVIEW
 70
     0
  9
$PUCSORGTOP
 10
0.0
 20
0.0
 30
0.0
  9
$PUCSORGBOTTOM
 10
0.0
 20
0.0
 30
0.0
  9
$PUCSORGLEFT
 10
0.0
 20
0.0
 30
0.0
  9
$PUCSORGRIGHT
 10
0.0
 20
0.0
 30
0.0
  9
$PUCSORGFRONT
 10
0.0
 20
0.0
 30
0.0
  9
$PUCSORGBACK
 10
0.0
 20
0.0
 30
0.0
  9
$USERI1
 70
     0
  9
$USERI2
 70
     0
  9
$USERI3
 70
     0
  9
$USERI4
 70
     0
  9
$USERI5
 70
     0
  9
$USERR1
 40
0.0
  9
$USERR2
 40
0.0
  9
$USERR3
 40
0.0
  9
$USERR4
 40
0.0
  9
$USERR5
 40
0.0
  9
$WORLDVIEW
 70
     1
  9
$SHADEDGE
 70
     3
  9
$SHADEDIF
 70
    70
  9
$TILEMODE
 70
     1
  9
$MAXACTVP
 70
    64
  9
$PINSBASE
 10
0.0
 20
0.0
 30
0.0
  9
$PLIMCHECK
 70
     0
  9
$PEXTMIN
 10
1.000000000000000E+20
 20
1.000000000000000E+20
 30
1.000000000000000E+20
  9
$PEXTMAX
 10
-1.000000000000000E+20
 20
-1.000000000000000E+20
 30
-1.000000000000000E+20
  9
$PLIMMIN
 10
0.0
 20
0.0
  9
$PLIMMAX
 10
12.0
 20
9.0
  9
$UNITMODE
 70
     0
  9
$VISRETAIN
 70
     1
  9
$PLINEGEN
 70
     0
  9
$PSLTSCALE
 70
     1
  9
$TREEDEPTH
 70
  3020
  9
$CMLSTYLE
  2
Standard
  9
$CMLJUST
 70
     0
  9
$CMLSCALE
 40
1.0
  9
$PROXYGRAPHICS
 70
     1
  9
$MEASUREMENT
 70
     0
  9
$CELWEIGHT
370
    -1
  9
$ENDCAPS
280
     0
  9
$JOINSTYLE
280
     0
  9
$LWDISPLAY
290
     0
  9
$INSUNITS
 70
     0
  9
$HYPERLINKBASE
  1

  9
$STYLESHEET
  1

  9
$XEDIT
290
     1
  9
$CEPSNTYPE
380
     0
  9
$PSTYLEMODE
290
     1
  9
$FINGERPRINTGUID
  2
{ecefffa9-2521-4255-b037-70f631dbc579}
  9
$VERSIONGUID
  2
{FAEB1C32-E019-11D5-929B-00C0DF256EC4}
  9
$EXTNAMES
290
     1
  9
$PSVPSCALE
 40
0.0
  9
$OLESTARTUP
290
     0
  9
$SORTENTS
280
   127
  9
$INDEXCTL
280
     0
  9
$HIDETEXT
280
     1
  9
$XCLIPFRAME
280
     2
  9
$HALOGAP
280
     0
  9
$OBSCOLOR
 70
   257
  9
$OBSLTYPE
280
     0
  9
$INTERSECTIONDISPLAY
280
     0
  9
$INTERSECTIONCOLOR
 70
   257
  9
$DIMASSOC
280
     2
  9
$PROJECTNAME
  1

  9
$CAMERADISPLAY
290
     0
  9
$LENSLENGTH
 40
50.0
  9
$CAMERAHEIGHT
 40
0.0
  9
$STEPSPERSEC
 40
2.0
  9
$STEPSIZE
 40
6.0
  9
$3DDWFPREC
 40
2.0
  9
$PSOLWIDTH
 40
0.25
  9
$PSOLHEIGHT
 40
4.0
  9
$LOFTANG1
 40
1.570796326794897
  9
$LOFTANG2
 40
1.570796326794897
  9
$LOFTMAG1
 40
0.0
  9
$LOFTMAG2
 40
0.0
  9
$LOFTPARAM
 70
     7
  9
$LOFTNORMALS
280
     1
  9
$LATITUDE
 40
37.795
  9
$LONGITUDE
 40
-122.394
  9
$NORTHDIRECTION
 40
0.0
  9
$TIMEZONE
 70
 -8000
  9
$LIGHTGLYPHDISPLAY
280
     1
  9
$TILEMODELIGHTSYNCH
280
     1
  9
$CMATERIAL
347
3C4
  9
$SOLIDHIST
280
     0
  9
$SHOWHIST
280
     1
  9
$DWFFRAME
280
     2
  9
$DGNFRAME
280
     2
  9
$REALWORLDSCALE
290
     1
  9
$INTERFERECOLOR
 62
   256
  9
$CSHADOW
280
     0
  9
$SHADOWPLANELOCATION
 40
0.0
  0
ENDSEC
  0
SECTION
  2
CLASSES
  0
CLASS
  1
ACDBDICTIONARYWDFLT
  2
AcDbDictionaryWithDefault
  3
ObjectDBX Classes
 90
        0
 91
        3
280
     0
281
     0
  0
CLASS
  1
SCALE
  2
AcDbScale
  3
ObjectDBX Classes
 90
     1153
 91
        3
280
     0
281
     0
  0
CLASS
  1
VISUALSTYLE
  2
AcDbVisualStyle
  3
ObjectDBX Classes
 90
     4095
 91
        3
280
     0
281
     0
  0
CLASS
  1
MATERIAL
  2
AcDbMaterial
  3
ObjectDBX Classes
 90
     1153
 91
        3
280
     0
281
     0
  0
CLASS
  1
TABLESTYLE
  2
AcDbTableStyle
  3
ObjectDBX Classes
 90
     4095
 91
        3
280
     0
281
     0
  0
CLASS
  1
MLEADERSTYLE
  2
AcDbMLeaderStyle
  3
ACDB_MLEADERSTYLE_CLASS
 90
     4095
 91
        3
280
     0
281
     0
  0
CLASS
  1
DICTIONARYVAR
  2
AcDbDictionaryVar
  3
ObjectDBX Classes
 90
        0
 91
        3
280
     0
281
     0
  0
CLASS
  1
CELLSTYLEMAP
  2
AcDbCellStyleMap
  3
ObjectDBX Classes
 90
     1152
 91
        3
280
     0
281
     0
  0
ENDSEC
  0
SECTION
  2
TABLES
  0
TABLE
  2
VPORT
  5
8
330
0
100
AcDbSymbolTable
 70
     1
  0
VPORT
  5
21
330
8
100
AcDbSymbolTableRecord
100
AcDbViewportTableRecord
  2
*Active
 70
     0
 10
0.0
 20
0.0
 11
1.0
 21
1.0
 12
10.42990654205607
 22
4.5
 13
0.0
 23
0.0
 14
0.5
 24
0.5
 15
0.5
 25
0.5
 16
0.0
 26
0.0
 36
1.0
 17
0.0
 27
0.0
 37
0.0
 40
9.0
 41
1.972972972850329
 42
50.0
 43
0.0
 44
0.0
 50
0.0
 51
0.0
 71
     0
 72
   100
 73
     1
 74
     3
 75
     0
 76
     0
 77
     0
 78
     0
281
     0
 65
     1
110
0.0
120
0.0
130
0.0
111
1.0
121
0.0
131
0.0
112
0.0
122
1.0
132
0.0
 79
     0
146
0.0
348
3AF
 60
     3
 61
     5
292
     1
282
     1
141
0.0
142
0.0
 63
   250
  0
ENDTAB
  0
TABLE
  2
LTYPE
  5
5
330
0
100
AcDbSymbolTable
 70
     1
  0
LTYPE
  5
14
330
5
100
AcDbSymbolTableRecord
100
AcDbLinetypeTableRecord
  2
ByBlock
 70
     0
  3

 72
    65
 73
     0
 40
0.0
  0
LTYPE
  5
15
330
5
100
AcDbSymbolTableRecord
100
AcDbLinetypeTableRecord
  2
ByLayer
 70
     0
  3

 72
    65
 73
     0
 40
0.0
  0
LTYPE
  5
16
330
5
100
AcDbSymbolTableRecord
100
AcDbLinetypeTableRecord
  2
Continuous
 70
     0
  3
Solid line
 72
    65
 73
     0
 40
0.0
  0
ENDTAB
  0
TABLE
  2
LAYER
  5
2
330
0
100
AcDbSymbolTable
 70
     4
  0
LAYER
  5
10
330
2
100
AcDbSymbolTableRecord
100
AcDbLayerTableRecord
  2
0
 70
     0
 62
     7
  6
Continuous
370
    -3
390
F
347
3C6
348
0
  0
LAYER
  5
391
330
2
100
AcDbSymbolTableRecord
100
AcDbLayerTableRecord
  2
RelationBox
 70
     0
 62
     7
  6
Continuous
370
    -3
390
F
347
3C6
348
0
  0
LAYER
  5
392
330
2
100
AcDbSymbolTableRecord
100
AcDbLayerTableRecord
  2
Relation
 70
     0
 62
     7
  6
Continuous
370
    -3
390
F
347
3C6
348
0
  0
LAYER
  5
393
330
2
100
AcDbSymbolTableRecord
100
AcDbLayerTableRecord
  2
Stratum
 70
     0
 62
     7
  6
Continuous
370
    -3
390
F
347
3C6
348
0
  0
ENDTAB
  0
TABLE
  2
STYLE
  5
3
330
0
100
AcDbSymbolTable
 70
     1
  0
STYLE
  5
11
330
3
100
AcDbSymbolTableRecord
100
AcDbTextStyleTableRecord
  2
Standard
 70
     0
 40
0.0
 41
1.0
 50
0.0
 71
     0
 42
0.2
  3
txt
  4

  0
ENDTAB
  0
TABLE
  2
VIEW
  5
6
330
0
100
AcDbSymbolTable
 70
     0
  0
ENDTAB
  0
TABLE
  2
UCS
  5
7
330
0
100
AcDbSymbolTable
 70
     0
  0
ENDTAB
  0
TABLE
  2
APPID
  5
9
330
0
100
AcDbSymbolTable
 70
     1
  0
APPID
  5
12
330
9
100
AcDbSymbolTableRecord
100
AcDbRegAppTableRecord
  2
ACAD
 70
     0
  0
ENDTAB
  0
TABLE
  2
DIMSTYLE
  5
A
330
0
100
AcDbSymbolTable
 70
     1
100
AcDbDimStyleTable
  0
DIMSTYLE
105
20
330
A
100
AcDbSymbolTableRecord
100
AcDbDimStyleTableRecord
  2
Standard
 70
     0
178
     0
340
11
  0
ENDTAB
  0
TABLE
  2
BLOCK_RECORD
  5
1
330
0
100
AcDbSymbolTable
 70
     0
  0
BLOCK_RECORD
  5
1D
330
1
100
AcDbSymbolTableRecord
100
AcDbBlockTableRecord
  2
*Model_Space
340
1E
 70
     0
280
     1
281
     0
  0
BLOCK_RECORD
  5
1B
330
1
100
AcDbSymbolTableRecord
100
AcDbBlockTableRecord
  2
*Paper_Space
340
1C
 70
     0
280
     1
281
     0
  0
ENDTAB
  0
ENDSEC
  0
SECTION
  2
BLOCKS
  0
BLOCK
  5
3A6
330
1D
100
AcDbEntity
  8
0
100
AcDbBlockBegin
  2
*Model_Space
 70
     0
 10
0.0
 20
0.0
 30
0.0
  3
*Model_Space
  1

  0
ENDBLK
  5
3A7
330
1D
100
AcDbEntity
  8
0
100
AcDbBlockEnd
  0
BLOCK
  5
3A8
330
1B
100
AcDbEntity
 67
     1
  8
0
100
AcDbBlockBegin
  2
*Paper_Space
 70
     0
 10
0.0
 20
0.0
 30
0.0
  3
*Paper_Space
  1

  0
ENDBLK
  5
3A9
330
1B
100
AcDbEntity
 67
     1
  8
0
100
AcDbBlockEnd
  0
ENDSEC
  0
SECTION
  2
ENTITIES
  0
LINE
  5
22
330
1D
100
AcDbEntity
  8
Stratum
100
AcDbLine
 10
1364.0
 20
-555.0
 30
0.0
 11
1674.0
 21
-555.0
 31
0.0
  0
LINE
  5
23
330
1D
100
AcDbEntity
  8
Stratum
100
AcDbLine
 10
1364.0
 20
-555.0
 30
0.0
 11
1364.0
 21
-333.0
 31
0.0
  0
LINE
  5
24
330
1D
100
AcDbEntity
  8
Stratum
100
AcDbLine
 10
1674.0
 20
-555.0
 30
0.0
 11
1674.0
 21
-333.0
 31
0.0
  0
LINE
  5
25
330
1D
100
AcDbEntity
  8
Stratum
100
AcDbLine
 10
1364.0
 20
-333.0
 30
0.0
 11
1674.0
 21
-333.0
 31
0.0
  0
TEXT
  5
26
330
1D
100
AcDbEntity
  8
Stratum
100
AcDbText
 10
1402.0
 20
-528.0
 30
0.0
 40
166.0
  1
+
 41
0.4
100
AcDbText
  0
LINE
  5
27
330
1D
100
AcDbEntity
  8
Stratum
100
AcDbLine
 10
62.0
 20
-1221.0
 30
0.0
 11
372.0
 21
-1221.0
 31
0.0
  0
LINE
  5
28
330
1D
100
AcDbEntity
  8
Stratum
100
AcDbLine
 10
62.0
 20
-1221.0
 30
0.0
 11
62.0
 21
-999.0
 31
0.0
  0
LINE
  5
29
330
1D
100
AcDbEntity
  8
Stratum
100
AcDbLine
 10
372.0
 20
-1221.0
 30
0.0
 11
372.0
 21
-999.0
 31
0.0
  0
LINE
  5
2A
330
1D
100
AcDbEntity
  8
Stratum
100
AcDbLine
 10
62.0
 20
-999.0
 30
0.0
 11
372.0
 21
-999.0
 31
0.0
  0
TEXT
  5
2B
330
1D
100
AcDbEntity
  8
Stratum
100
AcDbText
 10
100.0
 20
-1194.0
 30
0.0
 40
166.0
  1
1
 41
0.4
100
AcDbText
  0
LINE
  5
2C
330
1D
100
AcDbEntity
  8
Stratum
100
AcDbLine
 10
434.0
 20
-1221.0
 30
0.0
 11
806.0
 21
-1221.0
 31
0.0
  0
LINE
  5
2D
330
1D
100
AcDbEntity
  8
Stratum
100
AcDbLine
 10
434.0
 20
-1221.0
 30
0.0
 11
434.0
 21
-999.0
 31
0.0
  0
LINE
  5
2E
330
1D
100
AcDbEntity
  8
Stratum
100
AcDbLine
 10
806.0
 20
-1221.0
 30
0.0
 11
806.0
 21
-999.0
 31
0.0
  0
LINE
  5
2F
330
1D
100
AcDbEntity
  8
Stratum
100
AcDbLine
 10
434.0
 20
-999.0
 30
0.0
 11
806.0
 21
-999.0
 31
0.0
  0
TEXT
  5
30
330
1D
100
AcDbEntity
  8
Stratum
100
AcDbText
 10
480.0
 20
-1194.0
 30
0.0
 40
166.0
  1
10
 41
0.4
100
AcDbText
  0
LINE
  5
31
330
1D
100
AcDbEntity
  8
Stratum
100
AcDbLine
 10
868.0
 20
-1221.0
 30
0.0
 11
1240.0
 21
-1221.0
 31
0.0
  0
LINE
  5
32
330
1D
100
AcDbEntity
  8
Stratum
100
AcDbLine
 10
868.0
 20
-1221.0
 30
0.0
 11
868.0
 21
-999.0
 31
0.0
  0
LINE
  5
33
330
1D
100
AcDbEntity
  8
Stratum
100
AcDbLine
 10
1240.0
 20
-1221.0
 30
0.0
 11
1240.0
 21
-999.0
 31
0.0
  0
LINE
  5
34
330
1D
100
AcDbEntity
  8
Stratum
100
AcDbLine
 10
868.0
 20
-999.0
 30
0.0
 11
1240.0
 21
-999.0
 31
0.0
  0
TEXT
  5
35
330
1D
100
AcDbEntity
  8
Stratum
100
AcDbText
 10
914.0
 20
-1194.0
 30
0.0
 40
166.0
  1
20
 41
0.4
100
AcDbText
  0
LINE
  5
36
330
1D
100
AcDbEntity
  8
Stratum
100
AcDbLine
 10
1302.0
 20
-1221.0
 30
0.0
 11
1674.0
 21
-1221.0
 31
0.0
  0
LINE
  5
37
330
1D
100
AcDbEntity
  8
Stratum
100
AcDbLine
 10
1302.0
 20
-1221.0
 30
0.0
 11
1302.0
 21
-999.0
 31
0.0
  0
LINE
  5
38
330
1D
100
AcDbEntity
  8
Stratum
100
AcDbLine
 10
1674.0
 20
-1221.0
 30
0.0
 11
1674.0
 21
-999.0
 31
0.0
  0
LINE
  5
39
330
1D
100
AcDbEntity
  8
Stratum
100
AcDbLine
 10
1302.0
 20
-999.0
 30
0.0
 11
1674.0
 21
-999.0
 31
0.0
  0
TEXT
  5
3A
330
1D
100
AcDbEntity
  8
Stratum
100
AcDbText
 10
1348.0
 20
-1194.0
 30
0.0
 40
166.0
  1
30
 41
0.4
100
AcDbText
  0
LINE
  5
3B
330
1D
100
AcDbEntity
  8
Stratum
100
AcDbLine
 10
1736.0
 20
-1221.0
 30
0.0
 11
2108.0
 21
-1221.0
 31
0.0
  0
LINE
  5
3C
330
1D
100
AcDbEntity
  8
Stratum
100
AcDbLine
 10
1736.0
 20
-1221.0
 30
0.0
 11
1736.0
 21
-999.0
 31
0.0
  0
LINE
  5
3D
330
1D
100
AcDbEntity
  8
Stratum
100
AcDbLine
 10
2108.0
 20
-1221.0
 30
0.0
 11
2108.0
 21
-999.0
 31
0.0
  0
LINE
  5
3E
330
1D
100
AcDbEntity
  8
Stratum
100
AcDbLine
 10
1736.0
 20
-999.0
 30
0.0
 11
2108.0
 21
-999.0
 31
0.0
  0
TEXT
  5
3F
330
1D
100
AcDbEntity
  8
Stratum
100
AcDbText
 10
1782.0
 20
-1194.0
 30
0.0
 40
166.0
  1
61
 41
0.4
100
AcDbText
  0
LINE
  5
40
330
1D
100
AcDbEntity
  8
Stratum
100
AcDbLine
 10
2170.0
 20
-1221.0
 30
0.0
 11
2542.0
 21
-1221.0
 31
0.0
  0
LINE
  5
41
330
1D
100
AcDbEntity
  8
Stratum
100
AcDbLine
 10
2170.0
 20
-1221.0
 30
0.0
 11
2170.0
 21
-999.0
 31
0.0
  0
LINE
  5
42
330
1D
100
AcDbEntity
  8
Stratum
100
AcDbLine
 10
2542.0
 20
-1221.0
 30
0.0
 11
2542.0
 21
-999.0
 31
0.0
  0
LINE
  5
43
330
1D
100
AcDbEntity
  8
Stratum
100
AcDbLine
 10
2170.0
 20
-999.0
 30
0.0
 11
2542.0
 21
-999.0
 31
0.0
  0
TEXT
  5
44
330
1D
100
AcDbEntity
  8
Stratum
100
AcDbText
 10
2216.0
 20
-1194.0
 30
0.0
 40
166.0
  1
27
 41
0.4
100
AcDbText
  0
LINE
  5
45
330
1D
100
AcDbEntity
  8
Stratum
100
AcDbLine
 10
2604.0
 20
-1221.0
 30
0.0
 11
2976.0
 21
-1221.0
 31
0.0
  0
LINE
  5
46
330
1D
100
AcDbEntity
  8
Stratum
100
AcDbLine
 10
2604.0
 20
-1221.0
 30
0.0
 11
2604.0
 21
-999.0
 31
0.0
  0
LINE
  5
47
330
1D
100
AcDbEntity
  8
Stratum
100
AcDbLine
 10
2976.0
 20
-1221.0
 30
0.0
 11
2976.0
 21
-999.0
 31
0.0
  0
LINE
  5
48
330
1D
100
AcDbEntity
  8
Stratum
100
AcDbLine
 10
2604.0
 20
-999.0
 30
0.0
 11
2976.0
 21
-999.0
 31
0.0
  0
TEXT
  5
49
330
1D
100
AcDbEntity
  8
Stratum
100
AcDbText
 10
2650.0
 20
-1194.0
 30
0.0
 40
166.0
  1
29
 41
0.4
100
AcDbText
  0
LINE
  5
4A
330
1D
100
AcDbEntity
  8
Stratum
100
AcDbLine
 10
62.0
 20
-1887.0
 30
0.0
 11
372.0
 21
-1887.0
 31
0.0
  0
LINE
  5
4B
330
1D
100
AcDbEntity
  8
Stratum
100
AcDbLine
 10
62.0
 20
-1887.0
 30
0.0
 11
62.0
 21
-1665.0
 31
0.0
  0
LINE
  5
4C
330
1D
100
AcDbEntity
  8
Stratum
100
AcDbLine
 10
372.0
 20
-1887.0
 30
0.0
 11
372.0
 21
-1665.0
 31
0.0
  0
LINE
  5
4D
330
1D
100
AcDbEntity
  8
Stratum
100
AcDbLine
 10
62.0
 20
-1665.0
 30
0.0
 11
372.0
 21
-1665.0
 31
0.0
  0
TEXT
  5
4E
330
1D
100
AcDbEntity
  8
Stratum
100
AcDbText
 10
100.0
 20
-1860.0
 30
0.0
 40
166.0
  1
2
 41
0.4
100
AcDbText
  0
LINE
  5
4F
330
1D
100
AcDbEntity
  8
Stratum
100
AcDbLine
 10
434.0
 20
-1887.0
 30
0.0
 11
806.0
 21
-1887.0
 31
0.0
  0
LINE
  5
50
330
1D
100
AcDbEntity
  8
Stratum
100
AcDbLine
 10
434.0
 20
-1887.0
 30
0.0
 11
434.0
 21
-1665.0
 31
0.0
  0
LINE
  5
51
330
1D
100
AcDbEntity
  8
Stratum
100
AcDbLine
 10
806.0
 20
-1887.0
 30
0.0
 11
806.0
 21
-1665.0
 31
0.0
  0
LINE
  5
52
330
1D
100
AcDbEntity
  8
Stratum
100
AcDbLine
 10
434.0
 20
-1665.0
 30
0.0
 11
806.0
 21
-1665.0
 31
0.0
  0
TEXT
  5
53
330
1D
100
AcDbEntity
  8
Stratum
100
AcDbText
 10
480.0
 20
-1860.0
 30
0.0
 40
166.0
  1
12
 41
0.4
100
AcDbText
  0
LINE
  5
54
330
1D
100
AcDbEntity
  8
Stratum
100
AcDbLine
 10
868.0
 20
-1887.0
 30
0.0
 11
1240.0
 21
-1887.0
 31
0.0
  0
LINE
  5
55
330
1D
100
AcDbEntity
  8
Stratum
100
AcDbLine
 10
868.0
 20
-1887.0
 30
0.0
 11
868.0
 21
-1665.0
 31
0.0
  0
LINE
  5
56
330
1D
100
AcDbEntity
  8
Stratum
100
AcDbLine
 10
1240.0
 20
-1887.0
 30
0.0
 11
1240.0
 21
-1665.0
 31
0.0
  0
LINE
  5
57
330
1D
100
AcDbEntity
  8
Stratum
100
AcDbLine
 10
868.0
 20
-1665.0
 30
0.0
 11
1240.0
 21
-1665.0
 31
0.0
  0
TEXT
  5
58
330
1D
100
AcDbEntity
  8
Stratum
100
AcDbText
 10
914.0
 20
-1860.0
 30
0.0
 40
166.0
  1
21
 41
0.4
100
AcDbText
  0
LINE
  5
59
330
1D
100
AcDbEntity
  8
Stratum
100
AcDbLine
 10
1302.0
 20
-1887.0
 30
0.0
 11
1674.0
 21
-1887.0
 31
0.0
  0
LINE
  5
5A
330
1D
100
AcDbEntity
  8
Stratum
100
AcDbLine
 10
1302.0
 20
-1887.0
 30
0.0
 11
1302.0
 21
-1665.0
 31
0.0
  0
LINE
  5
5B
330
1D
100
AcDbEntity
  8
Stratum
100
AcDbLine
 10
1674.0
 20
-1887.0
 30
0.0
 11
1674.0
 21
-1665.0
 31
0.0
  0
LINE
  5
5C
330
1D
100
AcDbEntity
  8
Stratum
100
AcDbLine
 10
1302.0
 20
-1665.0
 30
0.0
 11
1674.0
 21
-1665.0
 31
0.0
  0
TEXT
  5
5D
330
1D
100
AcDbEntity
  8
Stratum
100
AcDbText
 10
1348.0
 20
-1860.0
 30
0.0
 40
166.0
  1
31
 41
0.4
100
AcDbText
  0
LINE
  5
5E
330
1D
100
AcDbEntity
  8
Stratum
100
AcDbLine
 10
1736.0
 20
-1887.0
 30
0.0
 11
2108.0
 21
-1887.0
 31
0.0
  0
LINE
  5
5F
330
1D
100
AcDbEntity
  8
Stratum
100
AcDbLine
 10
1736.0
 20
-1887.0
 30
0.0
 11
1736.0
 21
-1665.0
 31
0.0
  0
LINE
  5
60
330
1D
100
AcDbEntity
  8
Stratum
100
AcDbLine
 10
2108.0
 20
-1887.0
 30
0.0
 11
2108.0
 21
-1665.0
 31
0.0
  0
LINE
  5
61
330
1D
100
AcDbEntity
  8
Stratum
100
AcDbLine
 10
1736.0
 20
-1665.0
 30
0.0
 11
2108.0
 21
-1665.0
 31
0.0
  0
TEXT
  5
62
330
1D
100
AcDbEntity
  8
Stratum
100
AcDbText
 10
1782.0
 20
-1860.0
 30
0.0
 40
166.0
  1
62
 41
0.4
100
AcDbText
  0
LINE
  5
63
330
1D
100
AcDbEntity
  8
Stratum
100
AcDbLine
 10
2170.0
 20
-1887.0
 30
0.0
 11
2542.0
 21
-1887.0
 31
0.0
  0
LINE
  5
64
330
1D
100
AcDbEntity
  8
Stratum
100
AcDbLine
 10
2170.0
 20
-1887.0
 30
0.0
 11
2170.0
 21
-1665.0
 31
0.0
  0
LINE
  5
65
330
1D
100
AcDbEntity
  8
Stratum
100
AcDbLine
 10
2542.0
 20
-1887.0
 30
0.0
 11
2542.0
 21
-1665.0
 31
0.0
  0
LINE
  5
66
330
1D
100
AcDbEntity
  8
Stratum
100
AcDbLine
 10
2170.0
 20
-1665.0
 30
0.0
 11
2542.0
 21
-1665.0
 31
0.0
  0
TEXT
  5
67
330
1D
100
AcDbEntity
  8
Stratum
100
AcDbText
 10
2216.0
 20
-1860.0
 30
0.0
 40
166.0
  1
66
 41
0.4
100
AcDbText
  0
LINE
  5
68
330
1D
100
AcDbEntity
  8
Stratum
100
AcDbLine
 10
2604.0
 20
-1887.0
 30
0.0
 11
2976.0
 21
-1887.0
 31
0.0
  0
LINE
  5
69
330
1D
100
AcDbEntity
  8
Stratum
100
AcDbLine
 10
2604.0
 20
-1887.0
 30
0.0
 11
2604.0
 21
-1665.0
 31
0.0
  0
LINE
  5
6A
330
1D
100
AcDbEntity
  8
Stratum
100
AcDbLine
 10
2976.0
 20
-1887.0
 30
0.0
 11
2976.0
 21
-1665.0
 31
0.0
  0
LINE
  5
6B
330
1D
100
AcDbEntity
  8
Stratum
100
AcDbLine
 10
2604.0
 20
-1665.0
 30
0.0
 11
2976.0
 21
-1665.0
 31
0.0
  0
TEXT
  5
6C
330
1D
100
AcDbEntity
  8
Stratum
100
AcDbText
 10
2650.0
 20
-1860.0
 30
0.0
 40
166.0
  1
28
 41
0.4
100
AcDbText
  0
LINE
  5
6D
330
1D
100
AcDbEntity
  8
Stratum
100
AcDbLine
 10
62.0
 20
-2775.0
 30
0.0
 11
372.0
 21
-2775.0
 31
0.0
  0
LINE
  5
6E
330
1D
100
AcDbEntity
  8
Stratum
100
AcDbLine
 10
62.0
 20
-2775.0
 30
0.0
 11
62.0
 21
-2553.0
 31
0.0
  0
LINE
  5
6F
330
1D
100
AcDbEntity
  8
Stratum
100
AcDbLine
 10
372.0
 20
-2775.0
 30
0.0
 11
372.0
 21
-2553.0
 31
0.0
  0
LINE
  5
70
330
1D
100
AcDbEntity
  8
Stratum
100
AcDbLine
 10
62.0
 20
-2553.0
 30
0.0
 11
372.0
 21
-2553.0
 31
0.0
  0
TEXT
  5
71
330
1D
100
AcDbEntity
  8
Stratum
100
AcDbText
 10
100.0
 20
-2748.0
 30
0.0
 40
166.0
  1
3
 41
0.4
100
AcDbText
  0
LINE
  5
72
330
1D
100
AcDbEntity
  8
Stratum
100
AcDbLine
 10
434.0
 20
-2775.0
 30
0.0
 11
806.0
 21
-2775.0
 31
0.0
  0
LINE
  5
73
330
1D
100
AcDbEntity
  8
Stratum
100
AcDbLine
 10
434.0
 20
-2775.0
 30
0.0
 11
434.0
 21
-2553.0
 31
0.0
  0
LINE
  5
74
330
1D
100
AcDbEntity
  8
Stratum
100
AcDbLine
 10
806.0
 20
-2775.0
 30
0.0
 11
806.0
 21
-2553.0
 31
0.0
  0
LINE
  5
75
330
1D
100
AcDbEntity
  8
Stratum
100
AcDbLine
 10
434.0
 20
-2553.0
 30
0.0
 11
806.0
 21
-2553.0
 31
0.0
  0
TEXT
  5
76
330
1D
100
AcDbEntity
  8
Stratum
100
AcDbText
 10
480.0
 20
-2748.0
 30
0.0
 40
166.0
  1
16
 41
0.4
100
AcDbText
  0
LINE
  5
77
330
1D
100
AcDbEntity
  8
Stratum
100
AcDbLine
 10
868.0
 20
-2775.0
 30
0.0
 11
1240.0
 21
-2775.0
 31
0.0
  0
LINE
  5
78
330
1D
100
AcDbEntity
  8
Stratum
100
AcDbLine
 10
868.0
 20
-2775.0
 30
0.0
 11
868.0
 21
-2553.0
 31
0.0
  0
LINE
  5
79
330
1D
100
AcDbEntity
  8
Stratum
100
AcDbLine
 10
1240.0
 20
-2775.0
 30
0.0
 11
1240.0
 21
-2553.0
 31
0.0
  0
LINE
  5
7A
330
1D
100
AcDbEntity
  8
Stratum
100
AcDbLine
 10
868.0
 20
-2553.0
 30
0.0
 11
1240.0
 21
-2553.0
 31
0.0
  0
TEXT
  5
7B
330
1D
100
AcDbEntity
  8
Stratum
100
AcDbText
 10
914.0
 20
-2748.0
 30
0.0
 40
166.0
  1
11
 41
0.4
100
AcDbText
  0
LINE
  5
7C
330
1D
100
AcDbEntity
  8
Stratum
100
AcDbLine
 10
1302.0
 20
-2775.0
 30
0.0
 11
1674.0
 21
-2775.0
 31
0.0
  0
LINE
  5
7D
330
1D
100
AcDbEntity
  8
Stratum
100
AcDbLine
 10
1302.0
 20
-2775.0
 30
0.0
 11
1302.0
 21
-2553.0
 31
0.0
  0
LINE
  5
7E
330
1D
100
AcDbEntity
  8
Stratum
100
AcDbLine
 10
1674.0
 20
-2775.0
 30
0.0
 11
1674.0
 21
-2553.0
 31
0.0
  0
LINE
  5
7F
330
1D
100
AcDbEntity
  8
Stratum
100
AcDbLine
 10
1302.0
 20
-2553.0
 30
0.0
 11
1674.0
 21
-2553.0
 31
0.0
  0
TEXT
  5
80
330
1D
100
AcDbEntity
  8
Stratum
100
AcDbText
 10
1348.0
 20
-2748.0
 30
0.0
 40
166.0
  1
22
 41
0.4
100
AcDbText
  0
LINE
  5
81
330
1D
100
AcDbEntity
  8
Stratum
100
AcDbLine
 10
1736.0
 20
-2775.0
 30
0.0
 11
2108.0
 21
-2775.0
 31
0.0
  0
LINE
  5
82
330
1D
100
AcDbEntity
  8
Stratum
100
AcDbLine
 10
1736.0
 20
-2775.0
 30
0.0
 11
1736.0
 21
-2553.0
 31
0.0
  0
LINE
  5
83
330
1D
100
AcDbEntity
  8
Stratum
100
AcDbLine
 10
2108.0
 20
-2775.0
 30
0.0
 11
2108.0
 21
-2553.0
 31
0.0
  0
LINE
  5
84
330
1D
100
AcDbEntity
  8
Stratum
100
AcDbLine
 10
1736.0
 20
-2553.0
 30
0.0
 11
2108.0
 21
-2553.0
 31
0.0
  0
TEXT
  5
85
330
1D
100
AcDbEntity
  8
Stratum
100
AcDbText
 10
1782.0
 20
-2748.0
 30
0.0
 40
166.0
  1
33
 41
0.4
100
AcDbText
  0
LINE
  5
86
330
1D
100
AcDbEntity
  8
Stratum
100
AcDbLine
 10
2170.0
 20
-2775.0
 30
0.0
 11
2542.0
 21
-2775.0
 31
0.0
  0
LINE
  5
87
330
1D
100
AcDbEntity
  8
Stratum
100
AcDbLine
 10
2170.0
 20
-2775.0
 30
0.0
 11
2170.0
 21
-2553.0
 31
0.0
  0
LINE
  5
88
330
1D
100
AcDbEntity
  8
Stratum
100
AcDbLine
 10
2542.0
 20
-2775.0
 30
0.0
 11
2542.0
 21
-2553.0
 31
0.0
  0
LINE
  5
89
330
1D
100
AcDbEntity
  8
Stratum
100
AcDbLine
 10
2170.0
 20
-2553.0
 30
0.0
 11
2542.0
 21
-2553.0
 31
0.0
  0
TEXT
  5
8A
330
1D
100
AcDbEntity
  8
Stratum
100
AcDbText
 10
2216.0
 20
-2748.0
 30
0.0
 40
166.0
  1
35
 41
0.4
100
AcDbText
  0
LINE
  5
8B
330
1D
100
AcDbEntity
  8
Stratum
100
AcDbLine
 10
2604.0
 20
-2775.0
 30
0.0
 11
2976.0
 21
-2775.0
 31
0.0
  0
LINE
  5
8C
330
1D
100
AcDbEntity
  8
Stratum
100
AcDbLine
 10
2604.0
 20
-2775.0
 30
0.0
 11
2604.0
 21
-2553.0
 31
0.0
  0
LINE
  5
8D
330
1D
100
AcDbEntity
  8
Stratum
100
AcDbLine
 10
2976.0
 20
-2775.0
 30
0.0
 11
2976.0
 21
-2553.0
 31
0.0
  0
LINE
  5
8E
330
1D
100
AcDbEntity
  8
Stratum
100
AcDbLine
 10
2604.0
 20
-2553.0
 30
0.0
 11
2976.0
 21
-2553.0
 31
0.0
  0
TEXT
  5
8F
330
1D
100
AcDbEntity
  8
Stratum
100
AcDbText
 10
2650.0
 20
-2748.0
 30
0.0
 40
166.0
  1
37
 41
0.4
100
AcDbText
  0
LINE
  5
90
330
1D
100
AcDbEntity
  8
Stratum
100
AcDbLine
 10
3038.0
 20
-2775.0
 30
0.0
 11
3410.0
 21
-2775.0
 31
0.0
  0
LINE
  5
91
330
1D
100
AcDbEntity
  8
Stratum
100
AcDbLine
 10
3038.0
 20
-2775.0
 30
0.0
 11
3038.0
 21
-2553.0
 31
0.0
  0
LINE
  5
92
330
1D
100
AcDbEntity
  8
Stratum
100
AcDbLine
 10
3410.0
 20
-2775.0
 30
0.0
 11
3410.0
 21
-2553.0
 31
0.0
  0
LINE
  5
93
330
1D
100
AcDbEntity
  8
Stratum
100
AcDbLine
 10
3038.0
 20
-2553.0
 30
0.0
 11
3410.0
 21
-2553.0
 31
0.0
  0
TEXT
  5
94
330
1D
100
AcDbEntity
  8
Stratum
100
AcDbText
 10
3084.0
 20
-2748.0
 30
0.0
 40
166.0
  1
39
 41
0.4
100
AcDbText
  0
LINE
  5
95
330
1D
100
AcDbEntity
  8
Stratum
100
AcDbLine
 10
3472.0
 20
-2775.0
 30
0.0
 11
3844.0
 21
-2775.0
 31
0.0
  0
LINE
  5
96
330
1D
100
AcDbEntity
  8
Stratum
100
AcDbLine
 10
3472.0
 20
-2775.0
 30
0.0
 11
3472.0
 21
-2553.0
 31
0.0
  0
LINE
  5
97
330
1D
100
AcDbEntity
  8
Stratum
100
AcDbLine
 10
3844.0
 20
-2775.0
 30
0.0
 11
3844.0
 21
-2553.0
 31
0.0
  0
LINE
  5
98
330
1D
100
AcDbEntity
  8
Stratum
100
AcDbLine
 10
3472.0
 20
-2553.0
 30
0.0
 11
3844.0
 21
-2553.0
 31
0.0
  0
TEXT
  5
99
330
1D
100
AcDbEntity
  8
Stratum
100
AcDbText
 10
3518.0
 20
-2748.0
 30
0.0
 40
166.0
  1
41
 41
0.4
100
AcDbText
  0
LINE
  5
9A
330
1D
100
AcDbEntity
  8
Stratum
100
AcDbLine
 10
3906.0
 20
-2775.0
 30
0.0
 11
4278.0
 21
-2775.0
 31
0.0
  0
LINE
  5
9B
330
1D
100
AcDbEntity
  8
Stratum
100
AcDbLine
 10
3906.0
 20
-2775.0
 30
0.0
 11
3906.0
 21
-2553.0
 31
0.0
  0
LINE
  5
9C
330
1D
100
AcDbEntity
  8
Stratum
100
AcDbLine
 10
4278.0
 20
-2775.0
 30
0.0
 11
4278.0
 21
-2553.0
 31
0.0
  0
LINE
  5
9D
330
1D
100
AcDbEntity
  8
Stratum
100
AcDbLine
 10
3906.0
 20
-2553.0
 30
0.0
 11
4278.0
 21
-2553.0
 31
0.0
  0
TEXT
  5
9E
330
1D
100
AcDbEntity
  8
Stratum
100
AcDbText
 10
3952.0
 20
-2748.0
 30
0.0
 40
166.0
  1
43
 41
0.4
100
AcDbText
  0
LINE
  5
9F
330
1D
100
AcDbEntity
  8
Stratum
100
AcDbLine
 10
4340.0
 20
-2775.0
 30
0.0
 11
4712.0
 21
-2775.0
 31
0.0
  0
LINE
  5
A0
330
1D
100
AcDbEntity
  8
Stratum
100
AcDbLine
 10
4340.0
 20
-2775.0
 30
0.0
 11
4340.0
 21
-2553.0
 31
0.0
  0
LINE
  5
A1
330
1D
100
AcDbEntity
  8
Stratum
100
AcDbLine
 10
4712.0
 20
-2775.0
 30
0.0
 11
4712.0
 21
-2553.0
 31
0.0
  0
LINE
  5
A2
330
1D
100
AcDbEntity
  8
Stratum
100
AcDbLine
 10
4340.0
 20
-2553.0
 30
0.0
 11
4712.0
 21
-2553.0
 31
0.0
  0
TEXT
  5
A3
330
1D
100
AcDbEntity
  8
Stratum
100
AcDbText
 10
4386.0
 20
-2748.0
 30
0.0
 40
166.0
  1
45
 41
0.4
100
AcDbText
  0
LINE
  5
A4
330
1D
100
AcDbEntity
  8
Stratum
100
AcDbLine
 10
4774.0
 20
-2775.0
 30
0.0
 11
5146.0
 21
-2775.0
 31
0.0
  0
LINE
  5
A5
330
1D
100
AcDbEntity
  8
Stratum
100
AcDbLine
 10
4774.0
 20
-2775.0
 30
0.0
 11
4774.0
 21
-2553.0
 31
0.0
  0
LINE
  5
A6
330
1D
100
AcDbEntity
  8
Stratum
100
AcDbLine
 10
5146.0
 20
-2775.0
 30
0.0
 11
5146.0
 21
-2553.0
 31
0.0
  0
LINE
  5
A7
330
1D
100
AcDbEntity
  8
Stratum
100
AcDbLine
 10
4774.0
 20
-2553.0
 30
0.0
 11
5146.0
 21
-2553.0
 31
0.0
  0
TEXT
  5
A8
330
1D
100
AcDbEntity
  8
Stratum
100
AcDbText
 10
4820.0
 20
-2748.0
 30
0.0
 40
166.0
  1
47
 41
0.4
100
AcDbText
  0
LINE
  5
A9
330
1D
100
AcDbEntity
  8
Stratum
100
AcDbLine
 10
5208.0
 20
-2775.0
 30
0.0
 11
5580.0
 21
-2775.0
 31
0.0
  0
LINE
  5
AA
330
1D
100
AcDbEntity
  8
Stratum
100
AcDbLine
 10
5208.0
 20
-2775.0
 30
0.0
 11
5208.0
 21
-2553.0
 31
0.0
  0
LINE
  5
AB
330
1D
100
AcDbEntity
  8
Stratum
100
AcDbLine
 10
5580.0
 20
-2775.0
 30
0.0
 11
5580.0
 21
-2553.0
 31
0.0
  0
LINE
  5
AC
330
1D
100
AcDbEntity
  8
Stratum
100
AcDbLine
 10
5208.0
 20
-2553.0
 30
0.0
 11
5580.0
 21
-2553.0
 31
0.0
  0
TEXT
  5
AD
330
1D
100
AcDbEntity
  8
Stratum
100
AcDbText
 10
5254.0
 20
-2748.0
 30
0.0
 40
166.0
  1
49
 41
0.4
100
AcDbText
  0
LINE
  5
AE
330
1D
100
AcDbEntity
  8
Stratum
100
AcDbLine
 10
5642.0
 20
-2775.0
 30
0.0
 11
6014.0
 21
-2775.0
 31
0.0
  0
LINE
  5
AF
330
1D
100
AcDbEntity
  8
Stratum
100
AcDbLine
 10
5642.0
 20
-2775.0
 30
0.0
 11
5642.0
 21
-2553.0
 31
0.0
  0
LINE
  5
B0
330
1D
100
AcDbEntity
  8
Stratum
100
AcDbLine
 10
6014.0
 20
-2775.0
 30
0.0
 11
6014.0
 21
-2553.0
 31
0.0
  0
LINE
  5
B1
330
1D
100
AcDbEntity
  8
Stratum
100
AcDbLine
 10
5642.0
 20
-2553.0
 30
0.0
 11
6014.0
 21
-2553.0
 31
0.0
  0
TEXT
  5
B2
330
1D
100
AcDbEntity
  8
Stratum
100
AcDbText
 10
5688.0
 20
-2748.0
 30
0.0
 40
166.0
  1
51
 41
0.4
100
AcDbText
  0
LINE
  5
B3
330
1D
100
AcDbEntity
  8
Stratum
100
AcDbLine
 10
6076.0
 20
-2775.0
 30
0.0
 11
6448.0
 21
-2775.0
 31
0.0
  0
LINE
  5
B4
330
1D
100
AcDbEntity
  8
Stratum
100
AcDbLine
 10
6076.0
 20
-2775.0
 30
0.0
 11
6076.0
 21
-2553.0
 31
0.0
  0
LINE
  5
B5
330
1D
100
AcDbEntity
  8
Stratum
100
AcDbLine
 10
6448.0
 20
-2775.0
 30
0.0
 11
6448.0
 21
-2553.0
 31
0.0
  0
LINE
  5
B6
330
1D
100
AcDbEntity
  8
Stratum
100
AcDbLine
 10
6076.0
 20
-2553.0
 30
0.0
 11
6448.0
 21
-2553.0
 31
0.0
  0
TEXT
  5
B7
330
1D
100
AcDbEntity
  8
Stratum
100
AcDbText
 10
6122.0
 20
-2748.0
 30
0.0
 40
166.0
  1
53
 41
0.4
100
AcDbText
  0
LINE
  5
B8
330
1D
100
AcDbEntity
  8
Stratum
100
AcDbLine
 10
6510.0
 20
-2775.0
 30
0.0
 11
6882.0
 21
-2775.0
 31
0.0
  0
LINE
  5
B9
330
1D
100
AcDbEntity
  8
Stratum
100
AcDbLine
 10
6510.0
 20
-2775.0
 30
0.0
 11
6510.0
 21
-2553.0
 31
0.0
  0
LINE
  5
BA
330
1D
100
AcDbEntity
  8
Stratum
100
AcDbLine
 10
6882.0
 20
-2775.0
 30
0.0
 11
6882.0
 21
-2553.0
 31
0.0
  0
LINE
  5
BB
330
1D
100
AcDbEntity
  8
Stratum
100
AcDbLine
 10
6510.0
 20
-2553.0
 30
0.0
 11
6882.0
 21
-2553.0
 31
0.0
  0
TEXT
  5
BC
330
1D
100
AcDbEntity
  8
Stratum
100
AcDbText
 10
6556.0
 20
-2748.0
 30
0.0
 40
166.0
  1
55
 41
0.4
100
AcDbText
  0
LINE
  5
BD
330
1D
100
AcDbEntity
  8
Stratum
100
AcDbLine
 10
6944.0
 20
-2775.0
 30
0.0
 11
7316.0
 21
-2775.0
 31
0.0
  0
LINE
  5
BE
330
1D
100
AcDbEntity
  8
Stratum
100
AcDbLine
 10
6944.0
 20
-2775.0
 30
0.0
 11
6944.0
 21
-2553.0
 31
0.0
  0
LINE
  5
BF
330
1D
100
AcDbEntity
  8
Stratum
100
AcDbLine
 10
7316.0
 20
-2775.0
 30
0.0
 11
7316.0
 21
-2553.0
 31
0.0
  0
LINE
  5
C0
330
1D
100
AcDbEntity
  8
Stratum
100
AcDbLine
 10
6944.0
 20
-2553.0
 30
0.0
 11
7316.0
 21
-2553.0
 31
0.0
  0
TEXT
  5
C1
330
1D
100
AcDbEntity
  8
Stratum
100
AcDbText
 10
6990.0
 20
-2748.0
 30
0.0
 40
166.0
  1
57
 41
0.4
100
AcDbText
  0
LINE
  5
C2
330
1D
100
AcDbEntity
  8
Stratum
100
AcDbLine
 10
7378.0
 20
-2775.0
 30
0.0
 11
7750.0
 21
-2775.0
 31
0.0
  0
LINE
  5
C3
330
1D
100
AcDbEntity
  8
Stratum
100
AcDbLine
 10
7378.0
 20
-2775.0
 30
0.0
 11
7378.0
 21
-2553.0
 31
0.0
  0
LINE
  5
C4
330
1D
100
AcDbEntity
  8
Stratum
100
AcDbLine
 10
7750.0
 20
-2775.0
 30
0.0
 11
7750.0
 21
-2553.0
 31
0.0
  0
LINE
  5
C5
330
1D
100
AcDbEntity
  8
Stratum
100
AcDbLine
 10
7378.0
 20
-2553.0
 30
0.0
 11
7750.0
 21
-2553.0
 31
0.0
  0
TEXT
  5
C6
330
1D
100
AcDbEntity
  8
Stratum
100
AcDbText
 10
7424.0
 20
-2748.0
 30
0.0
 40
166.0
  1
59
 41
0.4
100
AcDbText
  0
LINE
  5
C7
330
1D
100
AcDbEntity
  8
Stratum
100
AcDbLine
 10
7812.0
 20
-2775.0
 30
0.0
 11
8184.0
 21
-2775.0
 31
0.0
  0
LINE
  5
C8
330
1D
100
AcDbEntity
  8
Stratum
100
AcDbLine
 10
7812.0
 20
-2775.0
 30
0.0
 11
7812.0
 21
-2553.0
 31
0.0
  0
LINE
  5
C9
330
1D
100
AcDbEntity
  8
Stratum
100
AcDbLine
 10
8184.0
 20
-2775.0
 30
0.0
 11
8184.0
 21
-2553.0
 31
0.0
  0
LINE
  5
CA
330
1D
100
AcDbEntity
  8
Stratum
100
AcDbLine
 10
7812.0
 20
-2553.0
 30
0.0
 11
8184.0
 21
-2553.0
 31
0.0
  0
TEXT
  5
CB
330
1D
100
AcDbEntity
  8
Stratum
100
AcDbText
 10
7858.0
 20
-2748.0
 30
0.0
 40
166.0
  1
68
 41
0.4
100
AcDbText
  0
LINE
  5
CC
330
1D
100
AcDbEntity
  8
Stratum
100
AcDbLine
 10
8246.0
 20
-2775.0
 30
0.0
 11
8618.0
 21
-2775.0
 31
0.0
  0
LINE
  5
CD
330
1D
100
AcDbEntity
  8
Stratum
100
AcDbLine
 10
8246.0
 20
-2775.0
 30
0.0
 11
8246.0
 21
-2553.0
 31
0.0
  0
LINE
  5
CE
330
1D
100
AcDbEntity
  8
Stratum
100
AcDbLine
 10
8618.0
 20
-2775.0
 30
0.0
 11
8618.0
 21
-2553.0
 31
0.0
  0
LINE
  5
CF
330
1D
100
AcDbEntity
  8
Stratum
100
AcDbLine
 10
8246.0
 20
-2553.0
 30
0.0
 11
8618.0
 21
-2553.0
 31
0.0
  0
TEXT
  5
D0
330
1D
100
AcDbEntity
  8
Stratum
100
AcDbText
 10
8292.0
 20
-2748.0
 30
0.0
 40
166.0
  1
64
 41
0.4
100
AcDbText
  0
LINE
  5
D1
330
1D
100
AcDbEntity
  8
Stratum
100
AcDbLine
 10
8680.0
 20
-2775.0
 30
0.0
 11
9052.0
 21
-2775.0
 31
0.0
  0
LINE
  5
D2
330
1D
100
AcDbEntity
  8
Stratum
100
AcDbLine
 10
8680.0
 20
-2775.0
 30
0.0
 11
8680.0
 21
-2553.0
 31
0.0
  0
LINE
  5
D3
330
1D
100
AcDbEntity
  8
Stratum
100
AcDbLine
 10
9052.0
 20
-2775.0
 30
0.0
 11
9052.0
 21
-2553.0
 31
0.0
  0
LINE
  5
D4
330
1D
100
AcDbEntity
  8
Stratum
100
AcDbLine
 10
8680.0
 20
-2553.0
 30
0.0
 11
9052.0
 21
-2553.0
 31
0.0
  0
TEXT
  5
D5
330
1D
100
AcDbEntity
  8
Stratum
100
AcDbText
 10
8726.0
 20
-2748.0
 30
0.0
 40
166.0
  1
67
 41
0.4
100
AcDbText
  0
LINE
  5
D6
330
1D
100
AcDbEntity
  8
Stratum
100
AcDbLine
 10
62.0
 20
-3552.0
 30
0.0
 11
372.0
 21
-3552.0
 31
0.0
  0
LINE
  5
D7
330
1D
100
AcDbEntity
  8
Stratum
100
AcDbLine
 10
62.0
 20
-3552.0
 30
0.0
 11
62.0
 21
-3330.0
 31
0.0
  0
LINE
  5
D8
330
1D
100
AcDbEntity
  8
Stratum
100
AcDbLine
 10
372.0
 20
-3552.0
 30
0.0
 11
372.0
 21
-3330.0
 31
0.0
  0
LINE
  5
D9
330
1D
100
AcDbEntity
  8
Stratum
100
AcDbLine
 10
62.0
 20
-3330.0
 30
0.0
 11
372.0
 21
-3330.0
 31
0.0
  0
TEXT
  5
DA
330
1D
100
AcDbEntity
  8
Stratum
100
AcDbText
 10
100.0
 20
-3525.0
 30
0.0
 40
166.0
  1
4
 41
0.4
100
AcDbText
  0
LINE
  5
DB
330
1D
100
AcDbEntity
  8
Stratum
100
AcDbLine
 10
434.0
 20
-3552.0
 30
0.0
 11
806.0
 21
-3552.0
 31
0.0
  0
LINE
  5
DC
330
1D
100
AcDbEntity
  8
Stratum
100
AcDbLine
 10
434.0
 20
-3552.0
 30
0.0
 11
434.0
 21
-3330.0
 31
0.0
  0
LINE
  5
DD
330
1D
100
AcDbEntity
  8
Stratum
100
AcDbLine
 10
806.0
 20
-3552.0
 30
0.0
 11
806.0
 21
-3330.0
 31
0.0
  0
LINE
  5
DE
330
1D
100
AcDbEntity
  8
Stratum
100
AcDbLine
 10
434.0
 20
-3330.0
 30
0.0
 11
806.0
 21
-3330.0
 31
0.0
  0
TEXT
  5
DF
330
1D
100
AcDbEntity
  8
Stratum
100
AcDbText
 10
480.0
 20
-3525.0
 30
0.0
 40
166.0
  1
17
 41
0.4
100
AcDbText
  0
LINE
  5
E0
330
1D
100
AcDbEntity
  8
Stratum
100
AcDbLine
 10
868.0
 20
-3552.0
 30
0.0
 11
1240.0
 21
-3552.0
 31
0.0
  0
LINE
  5
E1
330
1D
100
AcDbEntity
  8
Stratum
100
AcDbLine
 10
868.0
 20
-3552.0
 30
0.0
 11
868.0
 21
-3330.0
 31
0.0
  0
LINE
  5
E2
330
1D
100
AcDbEntity
  8
Stratum
100
AcDbLine
 10
1240.0
 20
-3552.0
 30
0.0
 11
1240.0
 21
-3330.0
 31
0.0
  0
LINE
  5
E3
330
1D
100
AcDbEntity
  8
Stratum
100
AcDbLine
 10
868.0
 20
-3330.0
 30
0.0
 11
1240.0
 21
-3330.0
 31
0.0
  0
TEXT
  5
E4
330
1D
100
AcDbEntity
  8
Stratum
100
AcDbText
 10
914.0
 20
-3525.0
 30
0.0
 40
166.0
  1
13
 41
0.4
100
AcDbText
  0
LINE
  5
E5
330
1D
100
AcDbEntity
  8
Stratum
100
AcDbLine
 10
1302.0
 20
-3552.0
 30
0.0
 11
1674.0
 21
-3552.0
 31
0.0
  0
LINE
  5
E6
330
1D
100
AcDbEntity
  8
Stratum
100
AcDbLine
 10
1302.0
 20
-3552.0
 30
0.0
 11
1302.0
 21
-3330.0
 31
0.0
  0
LINE
  5
E7
330
1D
100
AcDbEntity
  8
Stratum
100
AcDbLine
 10
1674.0
 20
-3552.0
 30
0.0
 11
1674.0
 21
-3330.0
 31
0.0
  0
LINE
  5
E8
330
1D
100
AcDbEntity
  8
Stratum
100
AcDbLine
 10
1302.0
 20
-3330.0
 30
0.0
 11
1674.0
 21
-3330.0
 31
0.0
  0
TEXT
  5
E9
330
1D
100
AcDbEntity
  8
Stratum
100
AcDbText
 10
1348.0
 20
-3525.0
 30
0.0
 40
166.0
  1
23
 41
0.4
100
AcDbText
  0
LINE
  5
EA
330
1D
100
AcDbEntity
  8
Stratum
100
AcDbLine
 10
1736.0
 20
-3552.0
 30
0.0
 11
2108.0
 21
-3552.0
 31
0.0
  0
LINE
  5
EB
330
1D
100
AcDbEntity
  8
Stratum
100
AcDbLine
 10
1736.0
 20
-3552.0
 30
0.0
 11
1736.0
 21
-3330.0
 31
0.0
  0
LINE
  5
EC
330
1D
100
AcDbEntity
  8
Stratum
100
AcDbLine
 10
2108.0
 20
-3552.0
 30
0.0
 11
2108.0
 21
-3330.0
 31
0.0
  0
LINE
  5
ED
330
1D
100
AcDbEntity
  8
Stratum
100
AcDbLine
 10
1736.0
 20
-3330.0
 30
0.0
 11
2108.0
 21
-3330.0
 31
0.0
  0
TEXT
  5
EE
330
1D
100
AcDbEntity
  8
Stratum
100
AcDbText
 10
1782.0
 20
-3525.0
 30
0.0
 40
166.0
  1
34
 41
0.4
100
AcDbText
  0
LINE
  5
EF
330
1D
100
AcDbEntity
  8
Stratum
100
AcDbLine
 10
2170.0
 20
-3552.0
 30
0.0
 11
2542.0
 21
-3552.0
 31
0.0
  0
LINE
  5
F0
330
1D
100
AcDbEntity
  8
Stratum
100
AcDbLine
 10
2170.0
 20
-3552.0
 30
0.0
 11
2170.0
 21
-3330.0
 31
0.0
  0
LINE
  5
F1
330
1D
100
AcDbEntity
  8
Stratum
100
AcDbLine
 10
2542.0
 20
-3552.0
 30
0.0
 11
2542.0
 21
-3330.0
 31
0.0
  0
LINE
  5
F2
330
1D
100
AcDbEntity
  8
Stratum
100
AcDbLine
 10
2170.0
 20
-3330.0
 30
0.0
 11
2542.0
 21
-3330.0
 31
0.0
  0
TEXT
  5
F3
330
1D
100
AcDbEntity
  8
Stratum
100
AcDbText
 10
2216.0
 20
-3525.0
 30
0.0
 40
166.0
  1
36
 41
0.4
100
AcDbText
  0
LINE
  5
F4
330
1D
100
AcDbEntity
  8
Stratum
100
AcDbLine
 10
2604.0
 20
-3552.0
 30
0.0
 11
2976.0
 21
-3552.0
 31
0.0
  0
LINE
  5
F5
330
1D
100
AcDbEntity
  8
Stratum
100
AcDbLine
 10
2604.0
 20
-3552.0
 30
0.0
 11
2604.0
 21
-3330.0
 31
0.0
  0
LINE
  5
F6
330
1D
100
AcDbEntity
  8
Stratum
100
AcDbLine
 10
2976.0
 20
-3552.0
 30
0.0
 11
2976.0
 21
-3330.0
 31
0.0
  0
LINE
  5
F7
330
1D
100
AcDbEntity
  8
Stratum
100
AcDbLine
 10
2604.0
 20
-3330.0
 30
0.0
 11
2976.0
 21
-3330.0
 31
0.0
  0
TEXT
  5
F8
330
1D
100
AcDbEntity
  8
Stratum
100
AcDbText
 10
2650.0
 20
-3525.0
 30
0.0
 40
166.0
  1
38
 41
0.4
100
AcDbText
  0
LINE
  5
F9
330
1D
100
AcDbEntity
  8
Stratum
100
AcDbLine
 10
3038.0
 20
-3552.0
 30
0.0
 11
3410.0
 21
-3552.0
 31
0.0
  0
LINE
  5
FA
330
1D
100
AcDbEntity
  8
Stratum
100
AcDbLine
 10
3038.0
 20
-3552.0
 30
0.0
 11
3038.0
 21
-3330.0
 31
0.0
  0
LINE
  5
FB
330
1D
100
AcDbEntity
  8
Stratum
100
AcDbLine
 10
3410.0
 20
-3552.0
 30
0.0
 11
3410.0
 21
-3330.0
 31
0.0
  0
LINE
  5
FC
330
1D
100
AcDbEntity
  8
Stratum
100
AcDbLine
 10
3038.0
 20
-3330.0
 30
0.0
 11
3410.0
 21
-3330.0
 31
0.0
  0
TEXT
  5
FD
330
1D
100
AcDbEntity
  8
Stratum
100
AcDbText
 10
3084.0
 20
-3525.0
 30
0.0
 40
166.0
  1
40
 41
0.4
100
AcDbText
  0
LINE
  5
FE
330
1D
100
AcDbEntity
  8
Stratum
100
AcDbLine
 10
3472.0
 20
-3552.0
 30
0.0
 11
3844.0
 21
-3552.0
 31
0.0
  0
LINE
  5
FF
330
1D
100
AcDbEntity
  8
Stratum
100
AcDbLine
 10
3472.0
 20
-3552.0
 30
0.0
 11
3472.0
 21
-3330.0
 31
0.0
  0
LINE
  5
100
330
1D
100
AcDbEntity
  8
Stratum
100
AcDbLine
 10
3844.0
 20
-3552.0
 30
0.0
 11
3844.0
 21
-3330.0
 31
0.0
  0
LINE
  5
101
330
1D
100
AcDbEntity
  8
Stratum
100
AcDbLine
 10
3472.0
 20
-3330.0
 30
0.0
 11
3844.0
 21
-3330.0
 31
0.0
  0
TEXT
  5
102
330
1D
100
AcDbEntity
  8
Stratum
100
AcDbText
 10
3518.0
 20
-3525.0
 30
0.0
 40
166.0
  1
42
 41
0.4
100
AcDbText
  0
LINE
  5
103
330
1D
100
AcDbEntity
  8
Stratum
100
AcDbLine
 10
3906.0
 20
-3552.0
 30
0.0
 11
4278.0
 21
-3552.0
 31
0.0
  0
LINE
  5
104
330
1D
100
AcDbEntity
  8
Stratum
100
AcDbLine
 10
3906.0
 20
-3552.0
 30
0.0
 11
3906.0
 21
-3330.0
 31
0.0
  0
LINE
  5
105
330
1D
100
AcDbEntity
  8
Stratum
100
AcDbLine
 10
4278.0
 20
-3552.0
 30
0.0
 11
4278.0
 21
-3330.0
 31
0.0
  0
LINE
  5
106
330
1D
100
AcDbEntity
  8
Stratum
100
AcDbLine
 10
3906.0
 20
-3330.0
 30
0.0
 11
4278.0
 21
-3330.0
 31
0.0
  0
TEXT
  5
107
330
1D
100
AcDbEntity
  8
Stratum
100
AcDbText
 10
3952.0
 20
-3525.0
 30
0.0
 40
166.0
  1
44
 41
0.4
100
AcDbText
  0
LINE
  5
108
330
1D
100
AcDbEntity
  8
Stratum
100
AcDbLine
 10
4340.0
 20
-3552.0
 30
0.0
 11
4712.0
 21
-3552.0
 31
0.0
  0
LINE
  5
109
330
1D
100
AcDbEntity
  8
Stratum
100
AcDbLine
 10
4340.0
 20
-3552.0
 30
0.0
 11
4340.0
 21
-3330.0
 31
0.0
  0
LINE
  5
10A
330
1D
100
AcDbEntity
  8
Stratum
100
AcDbLine
 10
4712.0
 20
-3552.0
 30
0.0
 11
4712.0
 21
-3330.0
 31
0.0
  0
LINE
  5
10B
330
1D
100
AcDbEntity
  8
Stratum
100
AcDbLine
 10
4340.0
 20
-3330.0
 30
0.0
 11
4712.0
 21
-3330.0
 31
0.0
  0
TEXT
  5
10C
330
1D
100
AcDbEntity
  8
Stratum
100
AcDbText
 10
4386.0
 20
-3525.0
 30
0.0
 40
166.0
  1
46
 41
0.4
100
AcDbText
  0
LINE
  5
10D
330
1D
100
AcDbEntity
  8
Stratum
100
AcDbLine
 10
4774.0
 20
-3552.0
 30
0.0
 11
5146.0
 21
-3552.0
 31
0.0
  0
LINE
  5
10E
330
1D
100
AcDbEntity
  8
Stratum
100
AcDbLine
 10
4774.0
 20
-3552.0
 30
0.0
 11
4774.0
 21
-3330.0
 31
0.0
  0
LINE
  5
10F
330
1D
100
AcDbEntity
  8
Stratum
100
AcDbLine
 10
5146.0
 20
-3552.0
 30
0.0
 11
5146.0
 21
-3330.0
 31
0.0
  0
LINE
  5
110
330
1D
100
AcDbEntity
  8
Stratum
100
AcDbLine
 10
4774.0
 20
-3330.0
 30
0.0
 11
5146.0
 21
-3330.0
 31
0.0
  0
TEXT
  5
111
330
1D
100
AcDbEntity
  8
Stratum
100
AcDbText
 10
4820.0
 20
-3525.0
 30
0.0
 40
166.0
  1
48
 41
0.4
100
AcDbText
  0
LINE
  5
112
330
1D
100
AcDbEntity
  8
Stratum
100
AcDbLine
 10
5208.0
 20
-3552.0
 30
0.0
 11
5580.0
 21
-3552.0
 31
0.0
  0
LINE
  5
113
330
1D
100
AcDbEntity
  8
Stratum
100
AcDbLine
 10
5208.0
 20
-3552.0
 30
0.0
 11
5208.0
 21
-3330.0
 31
0.0
  0
LINE
  5
114
330
1D
100
AcDbEntity
  8
Stratum
100
AcDbLine
 10
5580.0
 20
-3552.0
 30
0.0
 11
5580.0
 21
-3330.0
 31
0.0
  0
LINE
  5
115
330
1D
100
AcDbEntity
  8
Stratum
100
AcDbLine
 10
5208.0
 20
-3330.0
 30
0.0
 11
5580.0
 21
-3330.0
 31
0.0
  0
TEXT
  5
116
330
1D
100
AcDbEntity
  8
Stratum
100
AcDbText
 10
5254.0
 20
-3525.0
 30
0.0
 40
166.0
  1
50
 41
0.4
100
AcDbText
  0
LINE
  5
117
330
1D
100
AcDbEntity
  8
Stratum
100
AcDbLine
 10
5642.0
 20
-3552.0
 30
0.0
 11
6014.0
 21
-3552.0
 31
0.0
  0
LINE
  5
118
330
1D
100
AcDbEntity
  8
Stratum
100
AcDbLine
 10
5642.0
 20
-3552.0
 30
0.0
 11
5642.0
 21
-3330.0
 31
0.0
  0
LINE
  5
119
330
1D
100
AcDbEntity
  8
Stratum
100
AcDbLine
 10
6014.0
 20
-3552.0
 30
0.0
 11
6014.0
 21
-3330.0
 31
0.0
  0
LINE
  5
11A
330
1D
100
AcDbEntity
  8
Stratum
100
AcDbLine
 10
5642.0
 20
-3330.0
 30
0.0
 11
6014.0
 21
-3330.0
 31
0.0
  0
TEXT
  5
11B
330
1D
100
AcDbEntity
  8
Stratum
100
AcDbText
 10
5688.0
 20
-3525.0
 30
0.0
 40
166.0
  1
52
 41
0.4
100
AcDbText
  0
LINE
  5
11C
330
1D
100
AcDbEntity
  8
Stratum
100
AcDbLine
 10
6076.0
 20
-3552.0
 30
0.0
 11
6448.0
 21
-3552.0
 31
0.0
  0
LINE
  5
11D
330
1D
100
AcDbEntity
  8
Stratum
100
AcDbLine
 10
6076.0
 20
-3552.0
 30
0.0
 11
6076.0
 21
-3330.0
 31
0.0
  0
LINE
  5
11E
330
1D
100
AcDbEntity
  8
Stratum
100
AcDbLine
 10
6448.0
 20
-3552.0
 30
0.0
 11
6448.0
 21
-3330.0
 31
0.0
  0
LINE
  5
11F
330
1D
100
AcDbEntity
  8
Stratum
100
AcDbLine
 10
6076.0
 20
-3330.0
 30
0.0
 11
6448.0
 21
-3330.0
 31
0.0
  0
TEXT
  5
120
330
1D
100
AcDbEntity
  8
Stratum
100
AcDbText
 10
6122.0
 20
-3525.0
 30
0.0
 40
166.0
  1
54
 41
0.4
100
AcDbText
  0
LINE
  5
121
330
1D
100
AcDbEntity
  8
Stratum
100
AcDbLine
 10
6510.0
 20
-3552.0
 30
0.0
 11
6882.0
 21
-3552.0
 31
0.0
  0
LINE
  5
122
330
1D
100
AcDbEntity
  8
Stratum
100
AcDbLine
 10
6510.0
 20
-3552.0
 30
0.0
 11
6510.0
 21
-3330.0
 31
0.0
  0
LINE
  5
123
330
1D
100
AcDbEntity
  8
Stratum
100
AcDbLine
 10
6882.0
 20
-3552.0
 30
0.0
 11
6882.0
 21
-3330.0
 31
0.0
  0
LINE
  5
124
330
1D
100
AcDbEntity
  8
Stratum
100
AcDbLine
 10
6510.0
 20
-3330.0
 30
0.0
 11
6882.0
 21
-3330.0
 31
0.0
  0
TEXT
  5
125
330
1D
100
AcDbEntity
  8
Stratum
100
AcDbText
 10
6556.0
 20
-3525.0
 30
0.0
 40
166.0
  1
56
 41
0.4
100
AcDbText
  0
LINE
  5
126
330
1D
100
AcDbEntity
  8
Stratum
100
AcDbLine
 10
6944.0
 20
-3552.0
 30
0.0
 11
7316.0
 21
-3552.0
 31
0.0
  0
LINE
  5
127
330
1D
100
AcDbEntity
  8
Stratum
100
AcDbLine
 10
6944.0
 20
-3552.0
 30
0.0
 11
6944.0
 21
-3330.0
 31
0.0
  0
LINE
  5
128
330
1D
100
AcDbEntity
  8
Stratum
100
AcDbLine
 10
7316.0
 20
-3552.0
 30
0.0
 11
7316.0
 21
-3330.0
 31
0.0
  0
LINE
  5
129
330
1D
100
AcDbEntity
  8
Stratum
100
AcDbLine
 10
6944.0
 20
-3330.0
 30
0.0
 11
7316.0
 21
-3330.0
 31
0.0
  0
TEXT
  5
12A
330
1D
100
AcDbEntity
  8
Stratum
100
AcDbText
 10
6990.0
 20
-3525.0
 30
0.0
 40
166.0
  1
58
 41
0.4
100
AcDbText
  0
LINE
  5
12B
330
1D
100
AcDbEntity
  8
Stratum
100
AcDbLine
 10
7378.0
 20
-3552.0
 30
0.0
 11
7750.0
 21
-3552.0
 31
0.0
  0
LINE
  5
12C
330
1D
100
AcDbEntity
  8
Stratum
100
AcDbLine
 10
7378.0
 20
-3552.0
 30
0.0
 11
7378.0
 21
-3330.0
 31
0.0
  0
LINE
  5
12D
330
1D
100
AcDbEntity
  8
Stratum
100
AcDbLine
 10
7750.0
 20
-3552.0
 30
0.0
 11
7750.0
 21
-3330.0
 31
0.0
  0
LINE
  5
12E
330
1D
100
AcDbEntity
  8
Stratum
100
AcDbLine
 10
7378.0
 20
-3330.0
 30
0.0
 11
7750.0
 21
-3330.0
 31
0.0
  0
TEXT
  5
12F
330
1D
100
AcDbEntity
  8
Stratum
100
AcDbText
 10
7424.0
 20
-3525.0
 30
0.0
 40
166.0
  1
60
 41
0.4
100
AcDbText
  0
LINE
  5
130
330
1D
100
AcDbEntity
  8
Stratum
100
AcDbLine
 10
7812.0
 20
-3552.0
 30
0.0
 11
8184.0
 21
-3552.0
 31
0.0
  0
LINE
  5
131
330
1D
100
AcDbEntity
  8
Stratum
100
AcDbLine
 10
7812.0
 20
-3552.0
 30
0.0
 11
7812.0
 21
-3330.0
 31
0.0
  0
LINE
  5
132
330
1D
100
AcDbEntity
  8
Stratum
100
AcDbLine
 10
8184.0
 20
-3552.0
 30
0.0
 11
8184.0
 21
-3330.0
 31
0.0
  0
LINE
  5
133
330
1D
100
AcDbEntity
  8
Stratum
100
AcDbLine
 10
7812.0
 20
-3330.0
 30
0.0
 11
8184.0
 21
-3330.0
 31
0.0
  0
TEXT
  5
134
330
1D
100
AcDbEntity
  8
Stratum
100
AcDbText
 10
7858.0
 20
-3525.0
 30
0.0
 40
166.0
  1
69
 41
0.4
100
AcDbText
  0
LINE
  5
135
330
1D
100
AcDbEntity
  8
Stratum
100
AcDbLine
 10
8246.0
 20
-3552.0
 30
0.0
 11
8618.0
 21
-3552.0
 31
0.0
  0
LINE
  5
136
330
1D
100
AcDbEntity
  8
Stratum
100
AcDbLine
 10
8246.0
 20
-3552.0
 30
0.0
 11
8246.0
 21
-3330.0
 31
0.0
  0
LINE
  5
137
330
1D
100
AcDbEntity
  8
Stratum
100
AcDbLine
 10
8618.0
 20
-3552.0
 30
0.0
 11
8618.0
 21
-3330.0
 31
0.0
  0
LINE
  5
138
330
1D
100
AcDbEntity
  8
Stratum
100
AcDbLine
 10
8246.0
 20
-3330.0
 30
0.0
 11
8618.0
 21
-3330.0
 31
0.0
  0
TEXT
  5
139
330
1D
100
AcDbEntity
  8
Stratum
100
AcDbText
 10
8292.0
 20
-3525.0
 30
0.0
 40
166.0
  1
65
 41
0.4
100
AcDbText
  0
LINE
  5
13A
330
1D
100
AcDbEntity
  8
Stratum
100
AcDbLine
 10
62.0
 20
-4329.0
 30
0.0
 11
372.0
 21
-4329.0
 31
0.0
  0
LINE
  5
13B
330
1D
100
AcDbEntity
  8
Stratum
100
AcDbLine
 10
62.0
 20
-4329.0
 30
0.0
 11
62.0
 21
-4107.0
 31
0.0
  0
LINE
  5
13C
330
1D
100
AcDbEntity
  8
Stratum
100
AcDbLine
 10
372.0
 20
-4329.0
 30
0.0
 11
372.0
 21
-4107.0
 31
0.0
  0
LINE
  5
13D
330
1D
100
AcDbEntity
  8
Stratum
100
AcDbLine
 10
62.0
 20
-4107.0
 30
0.0
 11
372.0
 21
-4107.0
 31
0.0
  0
TEXT
  5
13E
330
1D
100
AcDbEntity
  8
Stratum
100
AcDbText
 10
100.0
 20
-4302.0
 30
0.0
 40
166.0
  1
5
 41
0.4
100
AcDbText
  0
LINE
  5
13F
330
1D
100
AcDbEntity
  8
Stratum
100
AcDbLine
 10
434.0
 20
-4329.0
 30
0.0
 11
806.0
 21
-4329.0
 31
0.0
  0
LINE
  5
140
330
1D
100
AcDbEntity
  8
Stratum
100
AcDbLine
 10
434.0
 20
-4329.0
 30
0.0
 11
434.0
 21
-4107.0
 31
0.0
  0
LINE
  5
141
330
1D
100
AcDbEntity
  8
Stratum
100
AcDbLine
 10
806.0
 20
-4329.0
 30
0.0
 11
806.0
 21
-4107.0
 31
0.0
  0
LINE
  5
142
330
1D
100
AcDbEntity
  8
Stratum
100
AcDbLine
 10
434.0
 20
-4107.0
 30
0.0
 11
806.0
 21
-4107.0
 31
0.0
  0
TEXT
  5
143
330
1D
100
AcDbEntity
  8
Stratum
100
AcDbText
 10
480.0
 20
-4302.0
 30
0.0
 40
166.0
  1
18
 41
0.4
100
AcDbText
  0
LINE
  5
144
330
1D
100
AcDbEntity
  8
Stratum
100
AcDbLine
 10
868.0
 20
-4329.0
 30
0.0
 11
1240.0
 21
-4329.0
 31
0.0
  0
LINE
  5
145
330
1D
100
AcDbEntity
  8
Stratum
100
AcDbLine
 10
868.0
 20
-4329.0
 30
0.0
 11
868.0
 21
-4107.0
 31
0.0
  0
LINE
  5
146
330
1D
100
AcDbEntity
  8
Stratum
100
AcDbLine
 10
1240.0
 20
-4329.0
 30
0.0
 11
1240.0
 21
-4107.0
 31
0.0
  0
LINE
  5
147
330
1D
100
AcDbEntity
  8
Stratum
100
AcDbLine
 10
868.0
 20
-4107.0
 30
0.0
 11
1240.0
 21
-4107.0
 31
0.0
  0
TEXT
  5
148
330
1D
100
AcDbEntity
  8
Stratum
100
AcDbText
 10
914.0
 20
-4302.0
 30
0.0
 40
166.0
  1
15
 41
0.4
100
AcDbText
  0
LINE
  5
149
330
1D
100
AcDbEntity
  8
Stratum
100
AcDbLine
 10
1302.0
 20
-4329.0
 30
0.0
 11
1674.0
 21
-4329.0
 31
0.0
  0
LINE
  5
14A
330
1D
100
AcDbEntity
  8
Stratum
100
AcDbLine
 10
1302.0
 20
-4329.0
 30
0.0
 11
1302.0
 21
-4107.0
 31
0.0
  0
LINE
  5
14B
330
1D
100
AcDbEntity
  8
Stratum
100
AcDbLine
 10
1674.0
 20
-4329.0
 30
0.0
 11
1674.0
 21
-4107.0
 31
0.0
  0
LINE
  5
14C
330
1D
100
AcDbEntity
  8
Stratum
100
AcDbLine
 10
1302.0
 20
-4107.0
 30
0.0
 11
1674.0
 21
-4107.0
 31
0.0
  0
TEXT
  5
14D
330
1D
100
AcDbEntity
  8
Stratum
100
AcDbText
 10
1348.0
 20
-4302.0
 30
0.0
 40
166.0
  1
24
 41
0.4
100
AcDbText
  0
LINE
  5
14E
330
1D
100
AcDbEntity
  8
Stratum
100
AcDbLine
 10
4526.0
 20
-4329.0
 30
0.0
 11
4898.0
 21
-4329.0
 31
0.0
  0
LINE
  5
14F
330
1D
100
AcDbEntity
  8
Stratum
100
AcDbLine
 10
4526.0
 20
-4329.0
 30
0.0
 11
4526.0
 21
-4107.0
 31
0.0
  0
LINE
  5
150
330
1D
100
AcDbEntity
  8
Stratum
100
AcDbLine
 10
4898.0
 20
-4329.0
 30
0.0
 11
4898.0
 21
-4107.0
 31
0.0
  0
LINE
  5
151
330
1D
100
AcDbEntity
  8
Stratum
100
AcDbLine
 10
4526.0
 20
-4107.0
 30
0.0
 11
4898.0
 21
-4107.0
 31
0.0
  0
TEXT
  5
152
330
1D
100
AcDbEntity
  8
Stratum
100
AcDbText
 10
4572.0
 20
-4302.0
 30
0.0
 40
166.0
  1
32
 41
0.4
100
AcDbText
  0
LINE
  5
153
330
1D
100
AcDbEntity
  8
Stratum
100
AcDbLine
 10
8246.0
 20
-4329.0
 30
0.0
 11
8618.0
 21
-4329.0
 31
0.0
  0
LINE
  5
154
330
1D
100
AcDbEntity
  8
Stratum
100
AcDbLine
 10
8246.0
 20
-4329.0
 30
0.0
 11
8246.0
 21
-4107.0
 31
0.0
  0
LINE
  5
155
330
1D
100
AcDbEntity
  8
Stratum
100
AcDbLine
 10
8618.0
 20
-4329.0
 30
0.0
 11
8618.0
 21
-4107.0
 31
0.0
  0
LINE
  5
156
330
1D
100
AcDbEntity
  8
Stratum
100
AcDbLine
 10
8246.0
 20
-4107.0
 30
0.0
 11
8618.0
 21
-4107.0
 31
0.0
  0
TEXT
  5
157
330
1D
100
AcDbEntity
  8
Stratum
100
AcDbText
 10
8292.0
 20
-4302.0
 30
0.0
 40
166.0
  1
63
 41
0.4
100
AcDbText
  0
LINE
  5
158
330
1D
100
AcDbEntity
  8
Stratum
100
AcDbLine
 10
62.0
 20
-4995.0
 30
0.0
 11
372.0
 21
-4995.0
 31
0.0
  0
LINE
  5
159
330
1D
100
AcDbEntity
  8
Stratum
100
AcDbLine
 10
62.0
 20
-4995.0
 30
0.0
 11
62.0
 21
-4773.0
 31
0.0
  0
LINE
  5
15A
330
1D
100
AcDbEntity
  8
Stratum
100
AcDbLine
 10
372.0
 20
-4995.0
 30
0.0
 11
372.0
 21
-4773.0
 31
0.0
  0
LINE
  5
15B
330
1D
100
AcDbEntity
  8
Stratum
100
AcDbLine
 10
62.0
 20
-4773.0
 30
0.0
 11
372.0
 21
-4773.0
 31
0.0
  0
TEXT
  5
15C
330
1D
100
AcDbEntity
  8
Stratum
100
AcDbText
 10
100.0
 20
-4968.0
 30
0.0
 40
166.0
  1
6
 41
0.4
100
AcDbText
  0
LINE
  5
15D
330
1D
100
AcDbEntity
  8
Stratum
100
AcDbLine
 10
868.0
 20
-4995.0
 30
0.0
 11
1240.0
 21
-4995.0
 31
0.0
  0
LINE
  5
15E
330
1D
100
AcDbEntity
  8
Stratum
100
AcDbLine
 10
868.0
 20
-4995.0
 30
0.0
 11
868.0
 21
-4773.0
 31
0.0
  0
LINE
  5
15F
330
1D
100
AcDbEntity
  8
Stratum
100
AcDbLine
 10
1240.0
 20
-4995.0
 30
0.0
 11
1240.0
 21
-4773.0
 31
0.0
  0
LINE
  5
160
330
1D
100
AcDbEntity
  8
Stratum
100
AcDbLine
 10
868.0
 20
-4773.0
 30
0.0
 11
1240.0
 21
-4773.0
 31
0.0
  0
TEXT
  5
161
330
1D
100
AcDbEntity
  8
Stratum
100
AcDbText
 10
914.0
 20
-4968.0
 30
0.0
 40
166.0
  1
14
 41
0.4
100
AcDbText
  0
LINE
  5
162
330
1D
100
AcDbEntity
  8
Stratum
100
AcDbLine
 10
1302.0
 20
-4995.0
 30
0.0
 11
1674.0
 21
-4995.0
 31
0.0
  0
LINE
  5
163
330
1D
100
AcDbEntity
  8
Stratum
100
AcDbLine
 10
1302.0
 20
-4995.0
 30
0.0
 11
1302.0
 21
-4773.0
 31
0.0
  0
LINE
  5
164
330
1D
100
AcDbEntity
  8
Stratum
100
AcDbLine
 10
1674.0
 20
-4995.0
 30
0.0
 11
1674.0
 21
-4773.0
 31
0.0
  0
LINE
  5
165
330
1D
100
AcDbEntity
  8
Stratum
100
AcDbLine
 10
1302.0
 20
-4773.0
 30
0.0
 11
1674.0
 21
-4773.0
 31
0.0
  0
TEXT
  5
166
330
1D
100
AcDbEntity
  8
Stratum
100
AcDbText
 10
1348.0
 20
-4968.0
 30
0.0
 40
166.0
  1
25
 41
0.4
100
AcDbText
  0
LINE
  5
167
330
1D
100
AcDbEntity
  8
Stratum
100
AcDbLine
 10
62.0
 20
-5439.0
 30
0.0
 11
372.0
 21
-5439.0
 31
0.0
  0
LINE
  5
168
330
1D
100
AcDbEntity
  8
Stratum
100
AcDbLine
 10
62.0
 20
-5439.0
 30
0.0
 11
62.0
 21
-5217.0
 31
0.0
  0
LINE
  5
169
330
1D
100
AcDbEntity
  8
Stratum
100
AcDbLine
 10
372.0
 20
-5439.0
 30
0.0
 11
372.0
 21
-5217.0
 31
0.0
  0
LINE
  5
16A
330
1D
100
AcDbEntity
  8
Stratum
100
AcDbLine
 10
62.0
 20
-5217.0
 30
0.0
 11
372.0
 21
-5217.0
 31
0.0
  0
TEXT
  5
16B
330
1D
100
AcDbEntity
  8
Stratum
100
AcDbText
 10
100.0
 20
-5412.0
 30
0.0
 40
166.0
  1
7
 41
0.4
100
AcDbText
  0
LINE
  5
16C
330
1D
100
AcDbEntity
  8
Stratum
100
AcDbLine
 10
868.0
 20
-5439.0
 30
0.0
 11
1240.0
 21
-5439.0
 31
0.0
  0
LINE
  5
16D
330
1D
100
AcDbEntity
  8
Stratum
100
AcDbLine
 10
868.0
 20
-5439.0
 30
0.0
 11
868.0
 21
-5217.0
 31
0.0
  0
LINE
  5
16E
330
1D
100
AcDbEntity
  8
Stratum
100
AcDbLine
 10
1240.0
 20
-5439.0
 30
0.0
 11
1240.0
 21
-5217.0
 31
0.0
  0
LINE
  5
16F
330
1D
100
AcDbEntity
  8
Stratum
100
AcDbLine
 10
868.0
 20
-5217.0
 30
0.0
 11
1240.0
 21
-5217.0
 31
0.0
  0
TEXT
  5
170
330
1D
100
AcDbEntity
  8
Stratum
100
AcDbText
 10
914.0
 20
-5412.0
 30
0.0
 40
166.0
  1
19
 41
0.4
100
AcDbText
  0
LINE
  5
171
330
1D
100
AcDbEntity
  8
Stratum
100
AcDbLine
 10
1302.0
 20
-5439.0
 30
0.0
 11
1674.0
 21
-5439.0
 31
0.0
  0
LINE
  5
172
330
1D
100
AcDbEntity
  8
Stratum
100
AcDbLine
 10
1302.0
 20
-5439.0
 30
0.0
 11
1302.0
 21
-5217.0
 31
0.0
  0
LINE
  5
173
330
1D
100
AcDbEntity
  8
Stratum
100
AcDbLine
 10
1674.0
 20
-5439.0
 30
0.0
 11
1674.0
 21
-5217.0
 31
0.0
  0
LINE
  5
174
330
1D
100
AcDbEntity
  8
Stratum
100
AcDbLine
 10
1302.0
 20
-5217.0
 30
0.0
 11
1674.0
 21
-5217.0
 31
0.0
  0
TEXT
  5
175
330
1D
100
AcDbEntity
  8
Stratum
100
AcDbText
 10
1348.0
 20
-5412.0
 30
0.0
 40
166.0
  1
26
 41
0.4
100
AcDbText
  0
LINE
  5
176
330
1D
100
AcDbEntity
  8
Stratum
100
AcDbLine
 10
62.0
 20
-5883.0
 30
0.0
 11
372.0
 21
-5883.0
 31
0.0
  0
LINE
  5
177
330
1D
100
AcDbEntity
  8
Stratum
100
AcDbLine
 10
62.0
 20
-5883.0
 30
0.0
 11
62.0
 21
-5661.0
 31
0.0
  0
LINE
  5
178
330
1D
100
AcDbEntity
  8
Stratum
100
AcDbLine
 10
372.0
 20
-5883.0
 30
0.0
 11
372.0
 21
-5661.0
 31
0.0
  0
LINE
  5
179
330
1D
100
AcDbEntity
  8
Stratum
100
AcDbLine
 10
62.0
 20
-5661.0
 30
0.0
 11
372.0
 21
-5661.0
 31
0.0
  0
TEXT
  5
17A
330
1D
100
AcDbEntity
  8
Stratum
100
AcDbText
 10
100.0
 20
-5856.0
 30
0.0
 40
166.0
  1
8
 41
0.4
100
AcDbText
  0
LINE
  5
17B
330
1D
100
AcDbEntity
  8
Stratum
100
AcDbLine
 10
62.0
 20
-6549.0
 30
0.0
 11
372.0
 21
-6549.0
 31
0.0
  0
LINE
  5
17C
330
1D
100
AcDbEntity
  8
Stratum
100
AcDbLine
 10
62.0
 20
-6549.0
 30
0.0
 11
62.0
 21
-6327.0
 31
0.0
  0
LINE
  5
17D
330
1D
100
AcDbEntity
  8
Stratum
100
AcDbLine
 10
372.0
 20
-6549.0
 30
0.0
 11
372.0
 21
-6327.0
 31
0.0
  0
LINE
  5
17E
330
1D
100
AcDbEntity
  8
Stratum
100
AcDbLine
 10
62.0
 20
-6327.0
 30
0.0
 11
372.0
 21
-6327.0
 31
0.0
  0
TEXT
  5
17F
330
1D
100
AcDbEntity
  8
Stratum
100
AcDbText
 10
100.0
 20
-6522.0
 30
0.0
 40
166.0
  1
9
 41
0.4
100
AcDbText
  0
LINE
  5
180
330
1D
100
AcDbEntity
  8
Stratum
100
AcDbLine
 10
4154.0
 20
-7437.0
 30
0.0
 11
4588.0
 21
-7437.0
 31
0.0
  0
LINE
  5
181
330
1D
100
AcDbEntity
  8
Stratum
100
AcDbLine
 10
4154.0
 20
-7437.0
 30
0.0
 11
4154.0
 21
-7215.0
 31
0.0
  0
LINE
  5
182
330
1D
100
AcDbEntity
  8
Stratum
100
AcDbLine
 10
4588.0
 20
-7437.0
 30
0.0
 11
4588.0
 21
-7215.0
 31
0.0
  0
LINE
  5
183
330
1D
100
AcDbEntity
  8
Stratum
100
AcDbLine
 10
4154.0
 20
-7215.0
 30
0.0
 11
4588.0
 21
-7215.0
 31
0.0
  0
TEXT
  5
184
330
1D
100
AcDbEntity
  8
Stratum
100
AcDbText
 10
4208.0
 20
-7410.0
 30
0.0
 40
166.0
  1
NFE
 41
0.4
100
AcDbText
  0
LINE
  5
185
330
1D
100
AcDbEntity
  8
Relation
100
AcDbLine
 10
3038.0
 20
-1665.0
 30
0.0
 11
3038.0
 21
-1887.0
 31
0.0
  0
LINE
  5
186
330
1D
100
AcDbEntity
  8
Relation
100
AcDbLine
 10
9114.0
 20
-2553.0
 30
0.0
 11
9114.0
 21
-2775.0
 31
0.0
  0
LINE
  5
187
330
1D
100
AcDbEntity
  8
Relation
100
AcDbLine
 10
9176.0
 20
-2553.0
 30
0.0
 11
9176.0
 21
-2775.0
 31
0.0
  0
LINE
  5
188
330
1D
100
AcDbEntity
  8
Relation
100
AcDbLine
 10
8866.0
 20
-3330.0
 30
0.0
 11
8866.0
 21
-3552.0
 31
0.0
  0
LINE
  5
189
330
1D
100
AcDbEntity
  8
Relation
100
AcDbLine
 10
9114.0
 20
-3330.0
 30
0.0
 11
9114.0
 21
-3552.0
 31
0.0
  0
LINE
  5
18A
330
1D
100
AcDbEntity
  8
Relation
100
AcDbLine
 10
9176.0
 20
-3330.0
 30
0.0
 11
9176.0
 21
-3552.0
 31
0.0
  0
LINE
  5
18B
330
1D
100
AcDbEntity
  8
Relation
100
AcDbLine
 10
9114.0
 20
-4107.0
 30
0.0
 11
9114.0
 21
-4329.0
 31
0.0
  0
LINE
  5
18C
330
1D
100
AcDbEntity
  8
Relation
100
AcDbLine
 10
9176.0
 20
-4107.0
 30
0.0
 11
9176.0
 21
-4329.0
 31
0.0
  0
LINE
  5
18D
330
1D
100
AcDbEntity
  8
Relation
100
AcDbLine
 10
620.0
 20
-4773.0
 30
0.0
 11
620.0
 21
-4995.0
 31
0.0
  0
LINE
  5
18E
330
1D
100
AcDbEntity
  8
Relation
100
AcDbLine
 10
4712.0
 20
-4773.0
 30
0.0
 11
4712.0
 21
-4995.0
 31
0.0
  0
LINE
  5
18F
330
1D
100
AcDbEntity
  8
Relation
100
AcDbLine
 10
8432.0
 20
-4773.0
 30
0.0
 11
8432.0
 21
-4995.0
 31
0.0
  0
LINE
  5
190
330
1D
100
AcDbEntity
  8
Relation
100
AcDbLine
 10
9114.0
 20
-4773.0
 30
0.0
 11
9114.0
 21
-4995.0
 31
0.0
  0
LINE
  5
191
330
1D
100
AcDbEntity
  8
Relation
100
AcDbLine
 10
9176.0
 20
-4773.0
 30
0.0
 11
9176.0
 21
-4995.0
 31
0.0
  0
LINE
  5
192
330
1D
100
AcDbEntity
  8
Relation
100
AcDbLine
 10
620.0
 20
-5217.0
 30
0.0
 11
620.0
 21
-5439.0
 31
0.0
  0
LINE
  5
193
330
1D
100
AcDbEntity
  8
Relation
100
AcDbLine
 10
4712.0
 20
-5217.0
 30
0.0
 11
4712.0
 21
-5439.0
 31
0.0
  0
LINE
  5
194
330
1D
100
AcDbEntity
  8
Relation
100
AcDbLine
 10
8432.0
 20
-5217.0
 30
0.0
 11
8432.0
 21
-5439.0
 31
0.0
  0
LINE
  5
195
330
1D
100
AcDbEntity
  8
Relation
100
AcDbLine
 10
9114.0
 20
-5217.0
 30
0.0
 11
9114.0
 21
-5439.0
 31
0.0
  0
LINE
  5
196
330
1D
100
AcDbEntity
  8
Relation
100
AcDbLine
 10
9176.0
 20
-5217.0
 30
0.0
 11
9176.0
 21
-5439.0
 31
0.0
  0
LINE
  5
197
330
1D
100
AcDbEntity
  8
Relation
100
AcDbLine
 10
620.0
 20
-5661.0
 30
0.0
 11
620.0
 21
-5883.0
 31
0.0
  0
LINE
  5
198
330
1D
100
AcDbEntity
  8
Relation
100
AcDbLine
 10
1054.0
 20
-5661.0
 30
0.0
 11
1054.0
 21
-5883.0
 31
0.0
  0
LINE
  5
199
330
1D
100
AcDbEntity
  8
Relation
100
AcDbLine
 10
1488.0
 20
-5661.0
 30
0.0
 11
1488.0
 21
-5883.0
 31
0.0
  0
LINE
  5
19A
330
1D
100
AcDbEntity
  8
Relation
100
AcDbLine
 10
4712.0
 20
-5661.0
 30
0.0
 11
4712.0
 21
-5883.0
 31
0.0
  0
LINE
  5
19B
330
1D
100
AcDbEntity
  8
Relation
100
AcDbLine
 10
8432.0
 20
-5661.0
 30
0.0
 11
8432.0
 21
-5883.0
 31
0.0
  0
LINE
  5
19C
330
1D
100
AcDbEntity
  8
Relation
100
AcDbLine
 10
9114.0
 20
-5661.0
 30
0.0
 11
9114.0
 21
-5883.0
 31
0.0
  0
LINE
  5
19D
330
1D
100
AcDbEntity
  8
Relation
100
AcDbLine
 10
9176.0
 20
-5661.0
 30
0.0
 11
9176.0
 21
-5883.0
 31
0.0
  0
LINE
  5
19E
330
1D
100
AcDbEntity
  8
Relation
100
AcDbLine
 10
620.0
 20
-6327.0
 30
0.0
 11
620.0
 21
-6549.0
 31
0.0
  0
LINE
  5
19F
330
1D
100
AcDbEntity
  8
Relation
100
AcDbLine
 10
1054.0
 20
-6327.0
 30
0.0
 11
1054.0
 21
-6549.0
 31
0.0
  0
LINE
  5
1A0
330
1D
100
AcDbEntity
  8
Relation
100
AcDbLine
 10
1488.0
 20
-6327.0
 30
0.0
 11
1488.0
 21
-6549.0
 31
0.0
  0
LINE
  5
1A1
330
1D
100
AcDbEntity
  8
Relation
100
AcDbLine
 10
4712.0
 20
-6327.0
 30
0.0
 11
4712.0
 21
-6549.0
 31
0.0
  0
LINE
  5
1A2
330
1D
100
AcDbEntity
  8
Relation
100
AcDbLine
 10
8432.0
 20
-6327.0
 30
0.0
 11
8432.0
 21
-6549.0
 31
0.0
  0
LINE
  5
1A3
330
1D
100
AcDbEntity
  8
Relation
100
AcDbLine
 10
9114.0
 20
-6327.0
 30
0.0
 11
9114.0
 21
-6549.0
 31
0.0
  0
LINE
  5
1A4
330
1D
100
AcDbEntity
  8
Relation
100
AcDbLine
 10
9176.0
 20
-6327.0
 30
0.0
 11
9176.0
 21
-6549.0
 31
0.0
  0
LINE
  5
1A5
330
1D
100
AcDbEntity
  8
Relation
100
AcDbLine
 10
1488.0
 20
-555.0
 30
0.0
 11
186.0
 21
-999.0
 31
0.0
  0
LINE
  5
1A6
330
1D
100
AcDbEntity
  8
Relation
100
AcDbLine
 10
1488.0
 20
-555.0
 30
0.0
 11
620.0
 21
-999.0
 31
0.0
  0
LINE
  5
1A7
330
1D
100
AcDbEntity
  8
Relation
100
AcDbLine
 10
1488.0
 20
-555.0
 30
0.0
 11
1054.0
 21
-999.0
 31
0.0
  0
LINE
  5
1A8
330
1D
100
AcDbEntity
  8
Relation
100
AcDbLine
 10
1488.0
 20
-555.0
 30
0.0
 11
2356.0
 21
-999.0
 31
0.0
  0
LINE
  5
1A9
330
1D
100
AcDbEntity
  8
Relation
100
AcDbLine
 10
1488.0
 20
-555.0
 30
0.0
 11
2790.0
 21
-999.0
 31
0.0
  0
LINE
  5
1AA
330
1D
100
AcDbEntity
  8
Relation
100
AcDbLine
 10
1488.0
 20
-555.0
 30
0.0
 11
1488.0
 21
-999.0
 31
0.0
  0
LINE
  5
1AB
330
1D
100
AcDbEntity
  8
Relation
100
AcDbLine
 10
1488.0
 20
-555.0
 30
0.0
 11
1922.0
 21
-999.0
 31
0.0
  0
LINE
  5
1AC
330
1D
100
AcDbEntity
  8
Relation
100
AcDbLine
 10
186.0
 20
-1221.0
 30
0.0
 11
186.0
 21
-1665.0
 31
0.0
  0
LINE
  5
1AD
330
1D
100
AcDbEntity
  8
Relation
100
AcDbLine
 10
620.0
 20
-1221.0
 30
0.0
 11
620.0
 21
-1665.0
 31
0.0
  0
LINE
  5
1AE
330
1D
100
AcDbEntity
  8
Relation
100
AcDbLine
 10
1054.0
 20
-1221.0
 30
0.0
 11
1054.0
 21
-1665.0
 31
0.0
  0
LINE
  5
1AF
330
1D
100
AcDbEntity
  8
Relation
100
AcDbLine
 10
1488.0
 20
-1221.0
 30
0.0
 11
1488.0
 21
-1665.0
 31
0.0
  0
LINE
  5
1B0
330
1D
100
AcDbEntity
  8
Relation
100
AcDbLine
 10
1922.0
 20
-1221.0
 30
0.0
 11
1922.0
 21
-1665.0
 31
0.0
  0
LINE
  5
1B1
330
1D
100
AcDbEntity
  8
Relation
100
AcDbLine
 10
1922.0
 20
-1221.0
 30
0.0
 11
2356.0
 21
-1665.0
 31
0.0
  0
LINE
  5
1B2
330
1D
100
AcDbEntity
  8
Relation
100
AcDbLine
 10
2356.0
 20
-1221.0
 30
0.0
 11
2790.0
 21
-1665.0
 31
0.0
  0
LINE
  5
1B3
330
1D
100
AcDbEntity
  8
Relation
100
AcDbLine
 10
2790.0
 20
-1221.0
 30
0.0
 11
3038.0
 21
-1665.0
 31
0.0
  0
LINE
  5
1B4
330
1D
100
AcDbEntity
  8
Relation
100
AcDbLine
 10
3038.0
 20
-1887.0
 30
0.0
 11
9176.0
 21
-2553.0
 31
0.0
  0
LINE
  5
1B5
330
1D
100
AcDbEntity
  8
Relation
100
AcDbLine
 10
9176.0
 20
-2775.0
 30
0.0
 11
9176.0
 21
-3330.0
 31
0.0
  0
LINE
  5
1B6
330
1D
100
AcDbEntity
  8
Relation
100
AcDbLine
 10
9176.0
 20
-3552.0
 30
0.0
 11
9176.0
 21
-4107.0
 31
0.0
  0
LINE
  5
1B7
330
1D
100
AcDbEntity
  8
Relation
100
AcDbLine
 10
9176.0
 20
-4329.0
 30
0.0
 11
9176.0
 21
-4773.0
 31
0.0
  0
LINE
  5
1B8
330
1D
100
AcDbEntity
  8
Relation
100
AcDbLine
 10
9176.0
 20
-4995.0
 30
0.0
 11
9176.0
 21
-5217.0
 31
0.0
  0
LINE
  5
1B9
330
1D
100
AcDbEntity
  8
Relation
100
AcDbLine
 10
9176.0
 20
-5439.0
 30
0.0
 11
9176.0
 21
-5661.0
 31
0.0
  0
LINE
  5
1BA
330
1D
100
AcDbEntity
  8
Relation
100
AcDbLine
 10
9176.0
 20
-5883.0
 30
0.0
 11
9176.0
 21
-6327.0
 31
0.0
  0
LINE
  5
1BB
330
1D
100
AcDbEntity
  8
Relation
100
AcDbLine
 10
9176.0
 20
-6549.0
 30
0.0
 11
4340.0
 21
-7215.0
 31
0.0
  0
LINE
  5
1BC
330
1D
100
AcDbEntity
  8
Relation
100
AcDbLine
 10
186.0
 20
-1887.0
 30
0.0
 11
186.0
 21
-2553.0
 31
0.0
  0
LINE
  5
1BD
330
1D
100
AcDbEntity
  8
Relation
100
AcDbLine
 10
186.0
 20
-1887.0
 30
0.0
 11
620.0
 21
-2553.0
 31
0.0
  0
LINE
  5
1BE
330
1D
100
AcDbEntity
  8
Relation
100
AcDbLine
 10
620.0
 20
-1887.0
 30
0.0
 11
1054.0
 21
-2553.0
 31
0.0
  0
LINE
  5
1BF
330
1D
100
AcDbEntity
  8
Relation
100
AcDbLine
 10
1054.0
 20
-1887.0
 30
0.0
 11
1488.0
 21
-2553.0
 31
0.0
  0
LINE
  5
1C0
330
1D
100
AcDbEntity
  8
Relation
100
AcDbLine
 10
1488.0
 20
-1887.0
 30
0.0
 11
1922.0
 21
-2553.0
 31
0.0
  0
LINE
  5
1C1
330
1D
100
AcDbEntity
  8
Relation
100
AcDbLine
 10
1488.0
 20
-1887.0
 30
0.0
 11
2356.0
 21
-2553.0
 31
0.0
  0
LINE
  5
1C2
330
1D
100
AcDbEntity
  8
Relation
100
AcDbLine
 10
1488.0
 20
-1887.0
 30
0.0
 11
2790.0
 21
-2553.0
 31
0.0
  0
LINE
  5
1C3
330
1D
100
AcDbEntity
  8
Relation
100
AcDbLine
 10
1488.0
 20
-1887.0
 30
0.0
 11
3224.0
 21
-2553.0
 31
0.0
  0
LINE
  5
1C4
330
1D
100
AcDbEntity
  8
Relation
100
AcDbLine
 10
1488.0
 20
-1887.0
 30
0.0
 11
3658.0
 21
-2553.0
 31
0.0
  0
LINE
  5
1C5
330
1D
100
AcDbEntity
  8
Relation
100
AcDbLine
 10
1488.0
 20
-1887.0
 30
0.0
 11
4092.0
 21
-2553.0
 31
0.0
  0
LINE
  5
1C6
330
1D
100
AcDbEntity
  8
Relation
100
AcDbLine
 10
1488.0
 20
-1887.0
 30
0.0
 11
4526.0
 21
-2553.0
 31
0.0
  0
LINE
  5
1C7
330
1D
100
AcDbEntity
  8
Relation
100
AcDbLine
 10
1488.0
 20
-1887.0
 30
0.0
 11
4960.0
 21
-2553.0
 31
0.0
  0
LINE
  5
1C8
330
1D
100
AcDbEntity
  8
Relation
100
AcDbLine
 10
1488.0
 20
-1887.0
 30
0.0
 11
5394.0
 21
-2553.0
 31
0.0
  0
LINE
  5
1C9
330
1D
100
AcDbEntity
  8
Relation
100
AcDbLine
 10
1488.0
 20
-1887.0
 30
0.0
 11
5828.0
 21
-2553.0
 31
0.0
  0
LINE
  5
1CA
330
1D
100
AcDbEntity
  8
Relation
100
AcDbLine
 10
1488.0
 20
-1887.0
 30
0.0
 11
6262.0
 21
-2553.0
 31
0.0
  0
LINE
  5
1CB
330
1D
100
AcDbEntity
  8
Relation
100
AcDbLine
 10
1488.0
 20
-1887.0
 30
0.0
 11
6696.0
 21
-2553.0
 31
0.0
  0
LINE
  5
1CC
330
1D
100
AcDbEntity
  8
Relation
100
AcDbLine
 10
1488.0
 20
-1887.0
 30
0.0
 11
7130.0
 21
-2553.0
 31
0.0
  0
LINE
  5
1CD
330
1D
100
AcDbEntity
  8
Relation
100
AcDbLine
 10
1488.0
 20
-1887.0
 30
0.0
 11
7564.0
 21
-2553.0
 31
0.0
  0
LINE
  5
1CE
330
1D
100
AcDbEntity
  8
Relation
100
AcDbLine
 10
1922.0
 20
-1887.0
 30
0.0
 11
7998.0
 21
-2553.0
 31
0.0
  0
LINE
  5
1CF
330
1D
100
AcDbEntity
  8
Relation
100
AcDbLine
 10
1922.0
 20
-1887.0
 30
0.0
 11
8432.0
 21
-2553.0
 31
0.0
  0
LINE
  5
1D0
330
1D
100
AcDbEntity
  8
Relation
100
AcDbLine
 10
2356.0
 20
-1887.0
 30
0.0
 11
8866.0
 21
-2553.0
 31
0.0
  0
LINE
  5
1D1
330
1D
100
AcDbEntity
  8
Relation
100
AcDbLine
 10
2790.0
 20
-1887.0
 30
0.0
 11
9114.0
 21
-2553.0
 31
0.0
  0
LINE
  5
1D2
330
1D
100
AcDbEntity
  8
Relation
100
AcDbLine
 10
9114.0
 20
-2775.0
 30
0.0
 11
9114.0
 21
-3330.0
 31
0.0
  0
LINE
  5
1D3
330
1D
100
AcDbEntity
  8
Relation
100
AcDbLine
 10
9114.0
 20
-3552.0
 30
0.0
 11
9114.0
 21
-4107.0
 31
0.0
  0
LINE
  5
1D4
330
1D
100
AcDbEntity
  8
Relation
100
AcDbLine
 10
9114.0
 20
-4329.0
 30
0.0
 11
9114.0
 21
-4773.0
 31
0.0
  0
LINE
  5
1D5
330
1D
100
AcDbEntity
  8
Relation
100
AcDbLine
 10
9114.0
 20
-4995.0
 30
0.0
 11
9114.0
 21
-5217.0
 31
0.0
  0
LINE
  5
1D6
330
1D
100
AcDbEntity
  8
Relation
100
AcDbLine
 10
9114.0
 20
-5439.0
 30
0.0
 11
9114.0
 21
-5661.0
 31
0.0
  0
LINE
  5
1D7
330
1D
100
AcDbEntity
  8
Relation
100
AcDbLine
 10
9114.0
 20
-5883.0
 30
0.0
 11
9114.0
 21
-6327.0
 31
0.0
  0
LINE
  5
1D8
330
1D
100
AcDbEntity
  8
Relation
100
AcDbLine
 10
9114.0
 20
-6549.0
 30
0.0
 11
4340.0
 21
-7215.0
 31
0.0
  0
LINE
  5
1D9
330
1D
100
AcDbEntity
  8
Relation
100
AcDbLine
 10
186.0
 20
-2775.0
 30
0.0
 11
186.0
 21
-3330.0
 31
0.0
  0
LINE
  5
1DA
330
1D
100
AcDbEntity
  8
Relation
100
AcDbLine
 10
620.0
 20
-2775.0
 30
0.0
 11
620.0
 21
-3330.0
 31
0.0
  0
LINE
  5
1DB
330
1D
100
AcDbEntity
  8
Relation
100
AcDbLine
 10
1054.0
 20
-2775.0
 30
0.0
 11
1054.0
 21
-3330.0
 31
0.0
  0
LINE
  5
1DC
330
1D
100
AcDbEntity
  8
Relation
100
AcDbLine
 10
1488.0
 20
-2775.0
 30
0.0
 11
1488.0
 21
-3330.0
 31
0.0
  0
LINE
  5
1DD
330
1D
100
AcDbEntity
  8
Relation
100
AcDbLine
 10
1922.0
 20
-2775.0
 30
0.0
 11
1922.0
 21
-3330.0
 31
0.0
  0
LINE
  5
1DE
330
1D
100
AcDbEntity
  8
Relation
100
AcDbLine
 10
2356.0
 20
-2775.0
 30
0.0
 11
2356.0
 21
-3330.0
 31
0.0
  0
LINE
  5
1DF
330
1D
100
AcDbEntity
  8
Relation
100
AcDbLine
 10
2790.0
 20
-2775.0
 30
0.0
 11
2790.0
 21
-3330.0
 31
0.0
  0
LINE
  5
1E0
330
1D
100
AcDbEntity
  8
Relation
100
AcDbLine
 10
3224.0
 20
-2775.0
 30
0.0
 11
3224.0
 21
-3330.0
 31
0.0
  0
LINE
  5
1E1
330
1D
100
AcDbEntity
  8
Relation
100
AcDbLine
 10
3658.0
 20
-2775.0
 30
0.0
 11
3658.0
 21
-3330.0
 31
0.0
  0
LINE
  5
1E2
330
1D
100
AcDbEntity
  8
Relation
100
AcDbLine
 10
4092.0
 20
-2775.0
 30
0.0
 11
4092.0
 21
-3330.0
 31
0.0
  0
LINE
  5
1E3
330
1D
100
AcDbEntity
  8
Relation
100
AcDbLine
 10
4526.0
 20
-2775.0
 30
0.0
 11
4526.0
 21
-3330.0
 31
0.0
  0
LINE
  5
1E4
330
1D
100
AcDbEntity
  8
Relation
100
AcDbLine
 10
4960.0
 20
-2775.0
 30
0.0
 11
4960.0
 21
-3330.0
 31
0.0
  0
LINE
  5
1E5
330
1D
100
AcDbEntity
  8
Relation
100
AcDbLine
 10
5394.0
 20
-2775.0
 30
0.0
 11
5394.0
 21
-3330.0
 31
0.0
  0
LINE
  5
1E6
330
1D
100
AcDbEntity
  8
Relation
100
AcDbLine
 10
5828.0
 20
-2775.0
 30
0.0
 11
5828.0
 21
-3330.0
 31
0.0
  0
LINE
  5
1E7
330
1D
100
AcDbEntity
  8
Relation
100
AcDbLine
 10
6262.0
 20
-2775.0
 30
0.0
 11
6262.0
 21
-3330.0
 31
0.0
  0
LINE
  5
1E8
330
1D
100
AcDbEntity
  8
Relation
100
AcDbLine
 10
6696.0
 20
-2775.0
 30
0.0
 11
6696.0
 21
-3330.0
 31
0.0
  0
LINE
  5
1E9
330
1D
100
AcDbEntity
  8
Relation
100
AcDbLine
 10
7130.0
 20
-2775.0
 30
0.0
 11
7130.0
 21
-3330.0
 31
0.0
  0
LINE
  5
1EA
330
1D
100
AcDbEntity
  8
Relation
100
AcDbLine
 10
7564.0
 20
-2775.0
 30
0.0
 11
7564.0
 21
-3330.0
 31
0.0
  0
LINE
  5
1EB
330
1D
100
AcDbEntity
  8
Relation
100
AcDbLine
 10
7998.0
 20
-2775.0
 30
0.0
 11
7998.0
 21
-3330.0
 31
0.0
  0
LINE
  5
1EC
330
1D
100
AcDbEntity
  8
Relation
100
AcDbLine
 10
8432.0
 20
-2775.0
 30
0.0
 11
8432.0
 21
-3330.0
 31
0.0
  0
LINE
  5
1ED
330
1D
100
AcDbEntity
  8
Relation
100
AcDbLine
 10
8866.0
 20
-2775.0
 30
0.0
 11
8866.0
 21
-3330.0
 31
0.0
  0
LINE
  5
1EE
330
1D
100
AcDbEntity
  8
Relation
100
AcDbLine
 10
8866.0
 20
-3552.0
 30
0.0
 11
8432.0
 21
-4107.0
 31
0.0
  0
LINE
  5
1EF
330
1D
100
AcDbEntity
  8
Relation
100
AcDbLine
 10
186.0
 20
-3552.0
 30
0.0
 11
186.0
 21
-4107.0
 31
0.0
  0
LINE
  5
1F0
330
1D
100
AcDbEntity
  8
Relation
100
AcDbLine
 10
620.0
 20
-3552.0
 30
0.0
 11
620.0
 21
-4107.0
 31
0.0
  0
LINE
  5
1F1
330
1D
100
AcDbEntity
  8
Relation
100
AcDbLine
 10
1054.0
 20
-3552.0
 30
0.0
 11
1054.0
 21
-4107.0
 31
0.0
  0
LINE
  5
1F2
330
1D
100
AcDbEntity
  8
Relation
100
AcDbLine
 10
1488.0
 20
-3552.0
 30
0.0
 11
1488.0
 21
-4107.0
 31
0.0
  0
LINE
  5
1F3
330
1D
100
AcDbEntity
  8
Relation
100
AcDbLine
 10
1922.0
 20
-3552.0
 30
0.0
 11
4712.0
 21
-4107.0
 31
0.0
  0
LINE
  5
1F4
330
1D
100
AcDbEntity
  8
Relation
100
AcDbLine
 10
2356.0
 20
-3552.0
 30
0.0
 11
4712.0
 21
-4107.0
 31
0.0
  0
LINE
  5
1F5
330
1D
100
AcDbEntity
  8
Relation
100
AcDbLine
 10
2790.0
 20
-3552.0
 30
0.0
 11
4712.0
 21
-4107.0
 31
0.0
  0
LINE
  5
1F6
330
1D
100
AcDbEntity
  8
Relation
100
AcDbLine
 10
3224.0
 20
-3552.0
 30
0.0
 11
4712.0
 21
-4107.0
 31
0.0
  0
LINE
  5
1F7
330
1D
100
AcDbEntity
  8
Relation
100
AcDbLine
 10
3658.0
 20
-3552.0
 30
0.0
 11
4712.0
 21
-4107.0
 31
0.0
  0
LINE
  5
1F8
330
1D
100
AcDbEntity
  8
Relation
100
AcDbLine
 10
4092.0
 20
-3552.0
 30
0.0
 11
4712.0
 21
-4107.0
 31
0.0
  0
LINE
  5
1F9
330
1D
100
AcDbEntity
  8
Relation
100
AcDbLine
 10
4526.0
 20
-3552.0
 30
0.0
 11
4712.0
 21
-4107.0
 31
0.0
  0
LINE
  5
1FA
330
1D
100
AcDbEntity
  8
Relation
100
AcDbLine
 10
4960.0
 20
-3552.0
 30
0.0
 11
4712.0
 21
-4107.0
 31
0.0
  0
LINE
  5
1FB
330
1D
100
AcDbEntity
  8
Relation
100
AcDbLine
 10
5394.0
 20
-3552.0
 30
0.0
 11
4712.0
 21
-4107.0
 31
0.0
  0
LINE
  5
1FC
330
1D
100
AcDbEntity
  8
Relation
100
AcDbLine
 10
5828.0
 20
-3552.0
 30
0.0
 11
4712.0
 21
-4107.0
 31
0.0
  0
LINE
  5
1FD
330
1D
100
AcDbEntity
  8
Relation
100
AcDbLine
 10
6262.0
 20
-3552.0
 30
0.0
 11
4712.0
 21
-4107.0
 31
0.0
  0
LINE
  5
1FE
330
1D
100
AcDbEntity
  8
Relation
100
AcDbLine
 10
6696.0
 20
-3552.0
 30
0.0
 11
4712.0
 21
-4107.0
 31
0.0
  0
LINE
  5
1FF
330
1D
100
AcDbEntity
  8
Relation
100
AcDbLine
 10
7130.0
 20
-3552.0
 30
0.0
 11
4712.0
 21
-4107.0
 31
0.0
  0
LINE
  5
200
330
1D
100
AcDbEntity
  8
Relation
100
AcDbLine
 10
7564.0
 20
-3552.0
 30
0.0
 11
4712.0
 21
-4107.0
 31
0.0
  0
LINE
  5
201
330
1D
100
AcDbEntity
  8
Relation
100
AcDbLine
 10
7998.0
 20
-3552.0
 30
0.0
 11
8432.0
 21
-4107.0
 31
0.0
  0
LINE
  5
202
330
1D
100
AcDbEntity
  8
Relation
100
AcDbLine
 10
8432.0
 20
-3552.0
 30
0.0
 11
8432.0
 21
-4107.0
 31
0.0
  0
LINE
  5
203
330
1D
100
AcDbEntity
  8
Relation
100
AcDbLine
 10
186.0
 20
-4329.0
 30
0.0
 11
186.0
 21
-4773.0
 31
0.0
  0
LINE
  5
204
330
1D
100
AcDbEntity
  8
Relation
100
AcDbLine
 10
620.0
 20
-4329.0
 30
0.0
 11
620.0
 21
-4773.0
 31
0.0
  0
LINE
  5
205
330
1D
100
AcDbEntity
  8
Relation
100
AcDbLine
 10
620.0
 20
-4995.0
 30
0.0
 11
620.0
 21
-5217.0
 31
0.0
  0
LINE
  5
206
330
1D
100
AcDbEntity
  8
Relation
100
AcDbLine
 10
620.0
 20
-5439.0
 30
0.0
 11
620.0
 21
-5661.0
 31
0.0
  0
LINE
  5
207
330
1D
100
AcDbEntity
  8
Relation
100
AcDbLine
 10
620.0
 20
-5883.0
 30
0.0
 11
620.0
 21
-6327.0
 31
0.0
  0
LINE
  5
208
330
1D
100
AcDbEntity
  8
Relation
100
AcDbLine
 10
620.0
 20
-6549.0
 30
0.0
 11
4340.0
 21
-7215.0
 31
0.0
  0
LINE
  5
209
330
1D
100
AcDbEntity
  8
Relation
100
AcDbLine
 10
1054.0
 20
-4329.0
 30
0.0
 11
1054.0
 21
-4773.0
 31
0.0
  0
LINE
  5
20A
330
1D
100
AcDbEntity
  8
Relation
100
AcDbLine
 10
1488.0
 20
-4329.0
 30
0.0
 11
1488.0
 21
-4773.0
 31
0.0
  0
LINE
  5
20B
330
1D
100
AcDbEntity
  8
Relation
100
AcDbLine
 10
4712.0
 20
-4329.0
 30
0.0
 11
4712.0
 21
-4773.0
 31
0.0
  0
LINE
  5
20C
330
1D
100
AcDbEntity
  8
Relation
100
AcDbLine
 10
4712.0
 20
-4995.0
 30
0.0
 11
4712.0
 21
-5217.0
 31
0.0
  0
LINE
  5
20D
330
1D
100
AcDbEntity
  8
Relation
100
AcDbLine
 10
4712.0
 20
-5439.0
 30
0.0
 11
4712.0
 21
-5661.0
 31
0.0
  0
LINE
  5
20E
330
1D
100
AcDbEntity
  8
Relation
100
AcDbLine
 10
4712.0
 20
-5883.0
 30
0.0
 11
4712.0
 21
-6327.0
 31
0.0
  0
LINE
  5
20F
330
1D
100
AcDbEntity
  8
Relation
100
AcDbLine
 10
4712.0
 20
-6549.0
 30
0.0
 11
4340.0
 21
-7215.0
 31
0.0
  0
LINE
  5
210
330
1D
100
AcDbEntity
  8
Relation
100
AcDbLine
 10
8432.0
 20
-4329.0
 30
0.0
 11
8432.0
 21
-4773.0
 31
0.0
  0
LINE
  5
211
330
1D
100
AcDbEntity
  8
Relation
100
AcDbLine
 10
8432.0
 20
-4995.0
 30
0.0
 11
8432.0
 21
-5217.0
 31
0.0
  0
LINE
  5
212
330
1D
100
AcDbEntity
  8
Relation
100
AcDbLine
 10
8432.0
 20
-5439.0
 30
0.0
 11
8432.0
 21
-5661.0
 31
0.0
  0
LINE
  5
213
330
1D
100
AcDbEntity
  8
Relation
100
AcDbLine
 10
8432.0
 20
-5883.0
 30
0.0
 11
8432.0
 21
-6327.0
 31
0.0
  0
LINE
  5
214
330
1D
100
AcDbEntity
  8
Relation
100
AcDbLine
 10
8432.0
 20
-6549.0
 30
0.0
 11
4340.0
 21
-7215.0
 31
0.0
  0
LINE
  5
215
330
1D
100
AcDbEntity
  8
Relation
100
AcDbLine
 10
186.0
 20
-4995.0
 30
0.0
 11
186.0
 21
-5217.0
 31
0.0
  0
LINE
  5
216
330
1D
100
AcDbEntity
  8
Relation
100
AcDbLine
 10
1054.0
 20
-4995.0
 30
0.0
 11
1054.0
 21
-5217.0
 31
0.0
  0
LINE
  5
217
330
1D
100
AcDbEntity
  8
Relation
100
AcDbLine
 10
1488.0
 20
-4995.0
 30
0.0
 11
1488.0
 21
-5217.0
 31
0.0
  0
LINE
  5
218
330
1D
100
AcDbEntity
  8
Relation
100
AcDbLine
 10
186.0
 20
-5439.0
 30
0.0
 11
186.0
 21
-5661.0
 31
0.0
  0
LINE
  5
219
330
1D
100
AcDbEntity
  8
Relation
100
AcDbLine
 10
1054.0
 20
-5439.0
 30
0.0
 11
1054.0
 21
-5661.0
 31
0.0
  0
LINE
  5
21A
330
1D
100
AcDbEntity
  8
Relation
100
AcDbLine
 10
1054.0
 20
-5883.0
 30
0.0
 11
1054.0
 21
-6327.0
 31
0.0
  0
LINE
  5
21B
330
1D
100
AcDbEntity
  8
Relation
100
AcDbLine
 10
1054.0
 20
-6549.0
 30
0.0
 11
4340.0
 21
-7215.0
 31
0.0
  0
LINE
  5
21C
330
1D
100
AcDbEntity
  8
Relation
100
AcDbLine
 10
1488.0
 20
-5439.0
 30
0.0
 11
1488.0
 21
-5661.0
 31
0.0
  0
LINE
  5
21D
330
1D
100
AcDbEntity
  8
Relation
100
AcDbLine
 10
1488.0
 20
-5883.0
 30
0.0
 11
1488.0
 21
-6327.0
 31
0.0
  0
LINE
  5
21E
330
1D
100
AcDbEntity
  8
Relation
100
AcDbLine
 10
1488.0
 20
-6549.0
 30
0.0
 11
4340.0
 21
-7215.0
 31
0.0
  0
LINE
  5
21F
330
1D
100
AcDbEntity
  8
Relation
100
AcDbLine
 10
186.0
 20
-5883.0
 30
0.0
 11
186.0
 21
-6327.0
 31
0.0
  0
LINE
  5
220
330
1D
100
AcDbEntity
  8
Relation
100
AcDbLine
 10
186.0
 20
-6549.0
 30
0.0
 11
4340.0
 21
-7215.0
 31
0.0
  0
LINE
  5
221
330
1D
100
AcDbEntity
  8
RelationBox
100
AcDbLine
 10
166.0
 20
-968.0
 30
0.0
 11
206.0
 21
-968.0
 31
0.0
  0
LINE
  5
222
330
1D
100
AcDbEntity
  8
RelationBox
100
AcDbLine
 10
166.0
 20
-999.0
 30
0.0
 11
206.0
 21
-999.0
 31
0.0
  0
LINE
  5
223
330
1D
100
AcDbEntity
  8
RelationBox
100
AcDbLine
 10
166.0
 20
-968.0
 30
0.0
 11
166.0
 21
-999.0
 31
0.0
  0
LINE
  5
224
330
1D
100
AcDbEntity
  8
RelationBox
100
AcDbLine
 10
206.0
 20
-968.0
 30
0.0
 11
206.0
 21
-999.0
 31
0.0
  0
LINE
  5
225
330
1D
100
AcDbEntity
  8
RelationBox
100
AcDbLine
 10
600.0
 20
-968.0
 30
0.0
 11
640.0
 21
-968.0
 31
0.0
  0
LINE
  5
226
330
1D
100
AcDbEntity
  8
RelationBox
100
AcDbLine
 10
600.0
 20
-999.0
 30
0.0
 11
640.0
 21
-999.0
 31
0.0
  0
LINE
  5
227
330
1D
100
AcDbEntity
  8
RelationBox
100
AcDbLine
 10
600.0
 20
-968.0
 30
0.0
 11
600.0
 21
-999.0
 31
0.0
  0
LINE
  5
228
330
1D
100
AcDbEntity
  8
RelationBox
100
AcDbLine
 10
640.0
 20
-968.0
 30
0.0
 11
640.0
 21
-999.0
 31
0.0
  0
LINE
  5
229
330
1D
100
AcDbEntity
  8
RelationBox
100
AcDbLine
 10
1034.0
 20
-968.0
 30
0.0
 11
1074.0
 21
-968.0
 31
0.0
  0
LINE
  5
22A
330
1D
100
AcDbEntity
  8
RelationBox
100
AcDbLine
 10
1034.0
 20
-999.0
 30
0.0
 11
1074.0
 21
-999.0
 31
0.0
  0
LINE
  5
22B
330
1D
100
AcDbEntity
  8
RelationBox
100
AcDbLine
 10
1034.0
 20
-968.0
 30
0.0
 11
1034.0
 21
-999.0
 31
0.0
  0
LINE
  5
22C
330
1D
100
AcDbEntity
  8
RelationBox
100
AcDbLine
 10
1074.0
 20
-968.0
 30
0.0
 11
1074.0
 21
-999.0
 31
0.0
  0
LINE
  5
22D
330
1D
100
AcDbEntity
  8
RelationBox
100
AcDbLine
 10
2336.0
 20
-968.0
 30
0.0
 11
2376.0
 21
-968.0
 31
0.0
  0
LINE
  5
22E
330
1D
100
AcDbEntity
  8
RelationBox
100
AcDbLine
 10
2336.0
 20
-999.0
 30
0.0
 11
2376.0
 21
-999.0
 31
0.0
  0
LINE
  5
22F
330
1D
100
AcDbEntity
  8
RelationBox
100
AcDbLine
 10
2336.0
 20
-968.0
 30
0.0
 11
2336.0
 21
-999.0
 31
0.0
  0
LINE
  5
230
330
1D
100
AcDbEntity
  8
RelationBox
100
AcDbLine
 10
2376.0
 20
-968.0
 30
0.0
 11
2376.0
 21
-999.0
 31
0.0
  0
LINE
  5
231
330
1D
100
AcDbEntity
  8
RelationBox
100
AcDbLine
 10
2770.0
 20
-968.0
 30
0.0
 11
2810.0
 21
-968.0
 31
0.0
  0
LINE
  5
232
330
1D
100
AcDbEntity
  8
RelationBox
100
AcDbLine
 10
2770.0
 20
-999.0
 30
0.0
 11
2810.0
 21
-999.0
 31
0.0
  0
LINE
  5
233
330
1D
100
AcDbEntity
  8
RelationBox
100
AcDbLine
 10
2770.0
 20
-968.0
 30
0.0
 11
2770.0
 21
-999.0
 31
0.0
  0
LINE
  5
234
330
1D
100
AcDbEntity
  8
RelationBox
100
AcDbLine
 10
2810.0
 20
-968.0
 30
0.0
 11
2810.0
 21
-999.0
 31
0.0
  0
LINE
  5
235
330
1D
100
AcDbEntity
  8
RelationBox
100
AcDbLine
 10
1468.0
 20
-968.0
 30
0.0
 11
1508.0
 21
-968.0
 31
0.0
  0
LINE
  5
236
330
1D
100
AcDbEntity
  8
RelationBox
100
AcDbLine
 10
1468.0
 20
-999.0
 30
0.0
 11
1508.0
 21
-999.0
 31
0.0
  0
LINE
  5
237
330
1D
100
AcDbEntity
  8
RelationBox
100
AcDbLine
 10
1468.0
 20
-968.0
 30
0.0
 11
1468.0
 21
-999.0
 31
0.0
  0
LINE
  5
238
330
1D
100
AcDbEntity
  8
RelationBox
100
AcDbLine
 10
1508.0
 20
-968.0
 30
0.0
 11
1508.0
 21
-999.0
 31
0.0
  0
LINE
  5
239
330
1D
100
AcDbEntity
  8
RelationBox
100
AcDbLine
 10
1902.0
 20
-968.0
 30
0.0
 11
1942.0
 21
-968.0
 31
0.0
  0
LINE
  5
23A
330
1D
100
AcDbEntity
  8
RelationBox
100
AcDbLine
 10
1902.0
 20
-999.0
 30
0.0
 11
1942.0
 21
-999.0
 31
0.0
  0
LINE
  5
23B
330
1D
100
AcDbEntity
  8
RelationBox
100
AcDbLine
 10
1902.0
 20
-968.0
 30
0.0
 11
1902.0
 21
-999.0
 31
0.0
  0
LINE
  5
23C
330
1D
100
AcDbEntity
  8
RelationBox
100
AcDbLine
 10
1942.0
 20
-968.0
 30
0.0
 11
1942.0
 21
-999.0
 31
0.0
  0
LINE
  5
23D
330
1D
100
AcDbEntity
  8
RelationBox
100
AcDbLine
 10
166.0
 20
-1634.0
 30
0.0
 11
206.0
 21
-1634.0
 31
0.0
  0
LINE
  5
23E
330
1D
100
AcDbEntity
  8
RelationBox
100
AcDbLine
 10
166.0
 20
-1665.0
 30
0.0
 11
206.0
 21
-1665.0
 31
0.0
  0
LINE
  5
23F
330
1D
100
AcDbEntity
  8
RelationBox
100
AcDbLine
 10
166.0
 20
-1634.0
 30
0.0
 11
166.0
 21
-1665.0
 31
0.0
  0
LINE
  5
240
330
1D
100
AcDbEntity
  8
RelationBox
100
AcDbLine
 10
206.0
 20
-1634.0
 30
0.0
 11
206.0
 21
-1665.0
 31
0.0
  0
LINE
  5
241
330
1D
100
AcDbEntity
  8
RelationBox
100
AcDbLine
 10
600.0
 20
-1634.0
 30
0.0
 11
640.0
 21
-1634.0
 31
0.0
  0
LINE
  5
242
330
1D
100
AcDbEntity
  8
RelationBox
100
AcDbLine
 10
600.0
 20
-1665.0
 30
0.0
 11
640.0
 21
-1665.0
 31
0.0
  0
LINE
  5
243
330
1D
100
AcDbEntity
  8
RelationBox
100
AcDbLine
 10
600.0
 20
-1634.0
 30
0.0
 11
600.0
 21
-1665.0
 31
0.0
  0
LINE
  5
244
330
1D
100
AcDbEntity
  8
RelationBox
100
AcDbLine
 10
640.0
 20
-1634.0
 30
0.0
 11
640.0
 21
-1665.0
 31
0.0
  0
LINE
  5
245
330
1D
100
AcDbEntity
  8
RelationBox
100
AcDbLine
 10
1034.0
 20
-1634.0
 30
0.0
 11
1074.0
 21
-1634.0
 31
0.0
  0
LINE
  5
246
330
1D
100
AcDbEntity
  8
RelationBox
100
AcDbLine
 10
1034.0
 20
-1665.0
 30
0.0
 11
1074.0
 21
-1665.0
 31
0.0
  0
LINE
  5
247
330
1D
100
AcDbEntity
  8
RelationBox
100
AcDbLine
 10
1034.0
 20
-1634.0
 30
0.0
 11
1034.0
 21
-1665.0
 31
0.0
  0
LINE
  5
248
330
1D
100
AcDbEntity
  8
RelationBox
100
AcDbLine
 10
1074.0
 20
-1634.0
 30
0.0
 11
1074.0
 21
-1665.0
 31
0.0
  0
LINE
  5
249
330
1D
100
AcDbEntity
  8
RelationBox
100
AcDbLine
 10
1468.0
 20
-1634.0
 30
0.0
 11
1508.0
 21
-1634.0
 31
0.0
  0
LINE
  5
24A
330
1D
100
AcDbEntity
  8
RelationBox
100
AcDbLine
 10
1468.0
 20
-1665.0
 30
0.0
 11
1508.0
 21
-1665.0
 31
0.0
  0
LINE
  5
24B
330
1D
100
AcDbEntity
  8
RelationBox
100
AcDbLine
 10
1468.0
 20
-1634.0
 30
0.0
 11
1468.0
 21
-1665.0
 31
0.0
  0
LINE
  5
24C
330
1D
100
AcDbEntity
  8
RelationBox
100
AcDbLine
 10
1508.0
 20
-1634.0
 30
0.0
 11
1508.0
 21
-1665.0
 31
0.0
  0
LINE
  5
24D
330
1D
100
AcDbEntity
  8
RelationBox
100
AcDbLine
 10
1902.0
 20
-1634.0
 30
0.0
 11
1942.0
 21
-1634.0
 31
0.0
  0
LINE
  5
24E
330
1D
100
AcDbEntity
  8
RelationBox
100
AcDbLine
 10
1902.0
 20
-1665.0
 30
0.0
 11
1942.0
 21
-1665.0
 31
0.0
  0
LINE
  5
24F
330
1D
100
AcDbEntity
  8
RelationBox
100
AcDbLine
 10
1902.0
 20
-1634.0
 30
0.0
 11
1902.0
 21
-1665.0
 31
0.0
  0
LINE
  5
250
330
1D
100
AcDbEntity
  8
RelationBox
100
AcDbLine
 10
1942.0
 20
-1634.0
 30
0.0
 11
1942.0
 21
-1665.0
 31
0.0
  0
LINE
  5
251
330
1D
100
AcDbEntity
  8
RelationBox
100
AcDbLine
 10
2336.0
 20
-1634.0
 30
0.0
 11
2376.0
 21
-1634.0
 31
0.0
  0
LINE
  5
252
330
1D
100
AcDbEntity
  8
RelationBox
100
AcDbLine
 10
2336.0
 20
-1665.0
 30
0.0
 11
2376.0
 21
-1665.0
 31
0.0
  0
LINE
  5
253
330
1D
100
AcDbEntity
  8
RelationBox
100
AcDbLine
 10
2336.0
 20
-1634.0
 30
0.0
 11
2336.0
 21
-1665.0
 31
0.0
  0
LINE
  5
254
330
1D
100
AcDbEntity
  8
RelationBox
100
AcDbLine
 10
2376.0
 20
-1634.0
 30
0.0
 11
2376.0
 21
-1665.0
 31
0.0
  0
LINE
  5
255
330
1D
100
AcDbEntity
  8
RelationBox
100
AcDbLine
 10
2770.0
 20
-1634.0
 30
0.0
 11
2810.0
 21
-1634.0
 31
0.0
  0
LINE
  5
256
330
1D
100
AcDbEntity
  8
RelationBox
100
AcDbLine
 10
2770.0
 20
-1665.0
 30
0.0
 11
2810.0
 21
-1665.0
 31
0.0
  0
LINE
  5
257
330
1D
100
AcDbEntity
  8
RelationBox
100
AcDbLine
 10
2770.0
 20
-1634.0
 30
0.0
 11
2770.0
 21
-1665.0
 31
0.0
  0
LINE
  5
258
330
1D
100
AcDbEntity
  8
RelationBox
100
AcDbLine
 10
2810.0
 20
-1634.0
 30
0.0
 11
2810.0
 21
-1665.0
 31
0.0
  0
LINE
  5
259
330
1D
100
AcDbEntity
  8
RelationBox
100
AcDbLine
 10
4320.0
 20
-7184.0
 30
0.0
 11
4360.0
 21
-7184.0
 31
0.0
  0
LINE
  5
25A
330
1D
100
AcDbEntity
  8
RelationBox
100
AcDbLine
 10
4320.0
 20
-7215.0
 30
0.0
 11
4360.0
 21
-7215.0
 31
0.0
  0
LINE
  5
25B
330
1D
100
AcDbEntity
  8
RelationBox
100
AcDbLine
 10
4320.0
 20
-7184.0
 30
0.0
 11
4320.0
 21
-7215.0
 31
0.0
  0
LINE
  5
25C
330
1D
100
AcDbEntity
  8
RelationBox
100
AcDbLine
 10
4360.0
 20
-7184.0
 30
0.0
 11
4360.0
 21
-7215.0
 31
0.0
  0
LINE
  5
25D
330
1D
100
AcDbEntity
  8
RelationBox
100
AcDbLine
 10
166.0
 20
-2522.0
 30
0.0
 11
206.0
 21
-2522.0
 31
0.0
  0
LINE
  5
25E
330
1D
100
AcDbEntity
  8
RelationBox
100
AcDbLine
 10
166.0
 20
-2553.0
 30
0.0
 11
206.0
 21
-2553.0
 31
0.0
  0
LINE
  5
25F
330
1D
100
AcDbEntity
  8
RelationBox
100
AcDbLine
 10
166.0
 20
-2522.0
 30
0.0
 11
166.0
 21
-2553.0
 31
0.0
  0
LINE
  5
260
330
1D
100
AcDbEntity
  8
RelationBox
100
AcDbLine
 10
206.0
 20
-2522.0
 30
0.0
 11
206.0
 21
-2553.0
 31
0.0
  0
LINE
  5
261
330
1D
100
AcDbEntity
  8
RelationBox
100
AcDbLine
 10
600.0
 20
-2522.0
 30
0.0
 11
640.0
 21
-2522.0
 31
0.0
  0
LINE
  5
262
330
1D
100
AcDbEntity
  8
RelationBox
100
AcDbLine
 10
600.0
 20
-2553.0
 30
0.0
 11
640.0
 21
-2553.0
 31
0.0
  0
LINE
  5
263
330
1D
100
AcDbEntity
  8
RelationBox
100
AcDbLine
 10
600.0
 20
-2522.0
 30
0.0
 11
600.0
 21
-2553.0
 31
0.0
  0
LINE
  5
264
330
1D
100
AcDbEntity
  8
RelationBox
100
AcDbLine
 10
640.0
 20
-2522.0
 30
0.0
 11
640.0
 21
-2553.0
 31
0.0
  0
LINE
  5
265
330
1D
100
AcDbEntity
  8
RelationBox
100
AcDbLine
 10
1034.0
 20
-2522.0
 30
0.0
 11
1074.0
 21
-2522.0
 31
0.0
  0
LINE
  5
266
330
1D
100
AcDbEntity
  8
RelationBox
100
AcDbLine
 10
1034.0
 20
-2553.0
 30
0.0
 11
1074.0
 21
-2553.0
 31
0.0
  0
LINE
  5
267
330
1D
100
AcDbEntity
  8
RelationBox
100
AcDbLine
 10
1034.0
 20
-2522.0
 30
0.0
 11
1034.0
 21
-2553.0
 31
0.0
  0
LINE
  5
268
330
1D
100
AcDbEntity
  8
RelationBox
100
AcDbLine
 10
1074.0
 20
-2522.0
 30
0.0
 11
1074.0
 21
-2553.0
 31
0.0
  0
LINE
  5
269
330
1D
100
AcDbEntity
  8
RelationBox
100
AcDbLine
 10
1468.0
 20
-2522.0
 30
0.0
 11
1508.0
 21
-2522.0
 31
0.0
  0
LINE
  5
26A
330
1D
100
AcDbEntity
  8
RelationBox
100
AcDbLine
 10
1468.0
 20
-2553.0
 30
0.0
 11
1508.0
 21
-2553.0
 31
0.0
  0
LINE
  5
26B
330
1D
100
AcDbEntity
  8
RelationBox
100
AcDbLine
 10
1468.0
 20
-2522.0
 30
0.0
 11
1468.0
 21
-2553.0
 31
0.0
  0
LINE
  5
26C
330
1D
100
AcDbEntity
  8
RelationBox
100
AcDbLine
 10
1508.0
 20
-2522.0
 30
0.0
 11
1508.0
 21
-2553.0
 31
0.0
  0
LINE
  5
26D
330
1D
100
AcDbEntity
  8
RelationBox
100
AcDbLine
 10
1902.0
 20
-2522.0
 30
0.0
 11
1942.0
 21
-2522.0
 31
0.0
  0
LINE
  5
26E
330
1D
100
AcDbEntity
  8
RelationBox
100
AcDbLine
 10
1902.0
 20
-2553.0
 30
0.0
 11
1942.0
 21
-2553.0
 31
0.0
  0
LINE
  5
26F
330
1D
100
AcDbEntity
  8
RelationBox
100
AcDbLine
 10
1902.0
 20
-2522.0
 30
0.0
 11
1902.0
 21
-2553.0
 31
0.0
  0
LINE
  5
270
330
1D
100
AcDbEntity
  8
RelationBox
100
AcDbLine
 10
1942.0
 20
-2522.0
 30
0.0
 11
1942.0
 21
-2553.0
 31
0.0
  0
LINE
  5
271
330
1D
100
AcDbEntity
  8
RelationBox
100
AcDbLine
 10
2336.0
 20
-2522.0
 30
0.0
 11
2376.0
 21
-2522.0
 31
0.0
  0
LINE
  5
272
330
1D
100
AcDbEntity
  8
RelationBox
100
AcDbLine
 10
2336.0
 20
-2553.0
 30
0.0
 11
2376.0
 21
-2553.0
 31
0.0
  0
LINE
  5
273
330
1D
100
AcDbEntity
  8
RelationBox
100
AcDbLine
 10
2336.0
 20
-2522.0
 30
0.0
 11
2336.0
 21
-2553.0
 31
0.0
  0
LINE
  5
274
330
1D
100
AcDbEntity
  8
RelationBox
100
AcDbLine
 10
2376.0
 20
-2522.0
 30
0.0
 11
2376.0
 21
-2553.0
 31
0.0
  0
LINE
  5
275
330
1D
100
AcDbEntity
  8
RelationBox
100
AcDbLine
 10
2770.0
 20
-2522.0
 30
0.0
 11
2810.0
 21
-2522.0
 31
0.0
  0
LINE
  5
276
330
1D
100
AcDbEntity
  8
RelationBox
100
AcDbLine
 10
2770.0
 20
-2553.0
 30
0.0
 11
2810.0
 21
-2553.0
 31
0.0
  0
LINE
  5
277
330
1D
100
AcDbEntity
  8
RelationBox
100
AcDbLine
 10
2770.0
 20
-2522.0
 30
0.0
 11
2770.0
 21
-2553.0
 31
0.0
  0
LINE
  5
278
330
1D
100
AcDbEntity
  8
RelationBox
100
AcDbLine
 10
2810.0
 20
-2522.0
 30
0.0
 11
2810.0
 21
-2553.0
 31
0.0
  0
LINE
  5
279
330
1D
100
AcDbEntity
  8
RelationBox
100
AcDbLine
 10
3204.0
 20
-2522.0
 30
0.0
 11
3244.0
 21
-2522.0
 31
0.0
  0
LINE
  5
27A
330
1D
100
AcDbEntity
  8
RelationBox
100
AcDbLine
 10
3204.0
 20
-2553.0
 30
0.0
 11
3244.0
 21
-2553.0
 31
0.0
  0
LINE
  5
27B
330
1D
100
AcDbEntity
  8
RelationBox
100
AcDbLine
 10
3204.0
 20
-2522.0
 30
0.0
 11
3204.0
 21
-2553.0
 31
0.0
  0
LINE
  5
27C
330
1D
100
AcDbEntity
  8
RelationBox
100
AcDbLine
 10
3244.0
 20
-2522.0
 30
0.0
 11
3244.0
 21
-2553.0
 31
0.0
  0
LINE
  5
27D
330
1D
100
AcDbEntity
  8
RelationBox
100
AcDbLine
 10
3638.0
 20
-2522.0
 30
0.0
 11
3678.0
 21
-2522.0
 31
0.0
  0
LINE
  5
27E
330
1D
100
AcDbEntity
  8
RelationBox
100
AcDbLine
 10
3638.0
 20
-2553.0
 30
0.0
 11
3678.0
 21
-2553.0
 31
0.0
  0
LINE
  5
27F
330
1D
100
AcDbEntity
  8
RelationBox
100
AcDbLine
 10
3638.0
 20
-2522.0
 30
0.0
 11
3638.0
 21
-2553.0
 31
0.0
  0
LINE
  5
280
330
1D
100
AcDbEntity
  8
RelationBox
100
AcDbLine
 10
3678.0
 20
-2522.0
 30
0.0
 11
3678.0
 21
-2553.0
 31
0.0
  0
LINE
  5
281
330
1D
100
AcDbEntity
  8
RelationBox
100
AcDbLine
 10
4072.0
 20
-2522.0
 30
0.0
 11
4112.0
 21
-2522.0
 31
0.0
  0
LINE
  5
282
330
1D
100
AcDbEntity
  8
RelationBox
100
AcDbLine
 10
4072.0
 20
-2553.0
 30
0.0
 11
4112.0
 21
-2553.0
 31
0.0
  0
LINE
  5
283
330
1D
100
AcDbEntity
  8
RelationBox
100
AcDbLine
 10
4072.0
 20
-2522.0
 30
0.0
 11
4072.0
 21
-2553.0
 31
0.0
  0
LINE
  5
284
330
1D
100
AcDbEntity
  8
RelationBox
100
AcDbLine
 10
4112.0
 20
-2522.0
 30
0.0
 11
4112.0
 21
-2553.0
 31
0.0
  0
LINE
  5
285
330
1D
100
AcDbEntity
  8
RelationBox
100
AcDbLine
 10
4506.0
 20
-2522.0
 30
0.0
 11
4546.0
 21
-2522.0
 31
0.0
  0
LINE
  5
286
330
1D
100
AcDbEntity
  8
RelationBox
100
AcDbLine
 10
4506.0
 20
-2553.0
 30
0.0
 11
4546.0
 21
-2553.0
 31
0.0
  0
LINE
  5
287
330
1D
100
AcDbEntity
  8
RelationBox
100
AcDbLine
 10
4506.0
 20
-2522.0
 30
0.0
 11
4506.0
 21
-2553.0
 31
0.0
  0
LINE
  5
288
330
1D
100
AcDbEntity
  8
RelationBox
100
AcDbLine
 10
4546.0
 20
-2522.0
 30
0.0
 11
4546.0
 21
-2553.0
 31
0.0
  0
LINE
  5
289
330
1D
100
AcDbEntity
  8
RelationBox
100
AcDbLine
 10
4940.0
 20
-2522.0
 30
0.0
 11
4980.0
 21
-2522.0
 31
0.0
  0
LINE
  5
28A
330
1D
100
AcDbEntity
  8
RelationBox
100
AcDbLine
 10
4940.0
 20
-2553.0
 30
0.0
 11
4980.0
 21
-2553.0
 31
0.0
  0
LINE
  5
28B
330
1D
100
AcDbEntity
  8
RelationBox
100
AcDbLine
 10
4940.0
 20
-2522.0
 30
0.0
 11
4940.0
 21
-2553.0
 31
0.0
  0
LINE
  5
28C
330
1D
100
AcDbEntity
  8
RelationBox
100
AcDbLine
 10
4980.0
 20
-2522.0
 30
0.0
 11
4980.0
 21
-2553.0
 31
0.0
  0
LINE
  5
28D
330
1D
100
AcDbEntity
  8
RelationBox
100
AcDbLine
 10
5374.0
 20
-2522.0
 30
0.0
 11
5414.0
 21
-2522.0
 31
0.0
  0
LINE
  5
28E
330
1D
100
AcDbEntity
  8
RelationBox
100
AcDbLine
 10
5374.0
 20
-2553.0
 30
0.0
 11
5414.0
 21
-2553.0
 31
0.0
  0
LINE
  5
28F
330
1D
100
AcDbEntity
  8
RelationBox
100
AcDbLine
 10
5374.0
 20
-2522.0
 30
0.0
 11
5374.0
 21
-2553.0
 31
0.0
  0
LINE
  5
290
330
1D
100
AcDbEntity
  8
RelationBox
100
AcDbLine
 10
5414.0
 20
-2522.0
 30
0.0
 11
5414.0
 21
-2553.0
 31
0.0
  0
LINE
  5
291
330
1D
100
AcDbEntity
  8
RelationBox
100
AcDbLine
 10
5808.0
 20
-2522.0
 30
0.0
 11
5848.0
 21
-2522.0
 31
0.0
  0
LINE
  5
292
330
1D
100
AcDbEntity
  8
RelationBox
100
AcDbLine
 10
5808.0
 20
-2553.0
 30
0.0
 11
5848.0
 21
-2553.0
 31
0.0
  0
LINE
  5
293
330
1D
100
AcDbEntity
  8
RelationBox
100
AcDbLine
 10
5808.0
 20
-2522.0
 30
0.0
 11
5808.0
 21
-2553.0
 31
0.0
  0
LINE
  5
294
330
1D
100
AcDbEntity
  8
RelationBox
100
AcDbLine
 10
5848.0
 20
-2522.0
 30
0.0
 11
5848.0
 21
-2553.0
 31
0.0
  0
LINE
  5
295
330
1D
100
AcDbEntity
  8
RelationBox
100
AcDbLine
 10
6242.0
 20
-2522.0
 30
0.0
 11
6282.0
 21
-2522.0
 31
0.0
  0
LINE
  5
296
330
1D
100
AcDbEntity
  8
RelationBox
100
AcDbLine
 10
6242.0
 20
-2553.0
 30
0.0
 11
6282.0
 21
-2553.0
 31
0.0
  0
LINE
  5
297
330
1D
100
AcDbEntity
  8
RelationBox
100
AcDbLine
 10
6242.0
 20
-2522.0
 30
0.0
 11
6242.0
 21
-2553.0
 31
0.0
  0
LINE
  5
298
330
1D
100
AcDbEntity
  8
RelationBox
100
AcDbLine
 10
6282.0
 20
-2522.0
 30
0.0
 11
6282.0
 21
-2553.0
 31
0.0
  0
LINE
  5
299
330
1D
100
AcDbEntity
  8
RelationBox
100
AcDbLine
 10
6676.0
 20
-2522.0
 30
0.0
 11
6716.0
 21
-2522.0
 31
0.0
  0
LINE
  5
29A
330
1D
100
AcDbEntity
  8
RelationBox
100
AcDbLine
 10
6676.0
 20
-2553.0
 30
0.0
 11
6716.0
 21
-2553.0
 31
0.0
  0
LINE
  5
29B
330
1D
100
AcDbEntity
  8
RelationBox
100
AcDbLine
 10
6676.0
 20
-2522.0
 30
0.0
 11
6676.0
 21
-2553.0
 31
0.0
  0
LINE
  5
29C
330
1D
100
AcDbEntity
  8
RelationBox
100
AcDbLine
 10
6716.0
 20
-2522.0
 30
0.0
 11
6716.0
 21
-2553.0
 31
0.0
  0
LINE
  5
29D
330
1D
100
AcDbEntity
  8
RelationBox
100
AcDbLine
 10
7110.0
 20
-2522.0
 30
0.0
 11
7150.0
 21
-2522.0
 31
0.0
  0
LINE
  5
29E
330
1D
100
AcDbEntity
  8
RelationBox
100
AcDbLine
 10
7110.0
 20
-2553.0
 30
0.0
 11
7150.0
 21
-2553.0
 31
0.0
  0
LINE
  5
29F
330
1D
100
AcDbEntity
  8
RelationBox
100
AcDbLine
 10
7110.0
 20
-2522.0
 30
0.0
 11
7110.0
 21
-2553.0
 31
0.0
  0
LINE
  5
2A0
330
1D
100
AcDbEntity
  8
RelationBox
100
AcDbLine
 10
7150.0
 20
-2522.0
 30
0.0
 11
7150.0
 21
-2553.0
 31
0.0
  0
LINE
  5
2A1
330
1D
100
AcDbEntity
  8
RelationBox
100
AcDbLine
 10
7544.0
 20
-2522.0
 30
0.0
 11
7584.0
 21
-2522.0
 31
0.0
  0
LINE
  5
2A2
330
1D
100
AcDbEntity
  8
RelationBox
100
AcDbLine
 10
7544.0
 20
-2553.0
 30
0.0
 11
7584.0
 21
-2553.0
 31
0.0
  0
LINE
  5
2A3
330
1D
100
AcDbEntity
  8
RelationBox
100
AcDbLine
 10
7544.0
 20
-2522.0
 30
0.0
 11
7544.0
 21
-2553.0
 31
0.0
  0
LINE
  5
2A4
330
1D
100
AcDbEntity
  8
RelationBox
100
AcDbLine
 10
7584.0
 20
-2522.0
 30
0.0
 11
7584.0
 21
-2553.0
 31
0.0
  0
LINE
  5
2A5
330
1D
100
AcDbEntity
  8
RelationBox
100
AcDbLine
 10
7978.0
 20
-2522.0
 30
0.0
 11
8018.0
 21
-2522.0
 31
0.0
  0
LINE
  5
2A6
330
1D
100
AcDbEntity
  8
RelationBox
100
AcDbLine
 10
7978.0
 20
-2553.0
 30
0.0
 11
8018.0
 21
-2553.0
 31
0.0
  0
LINE
  5
2A7
330
1D
100
AcDbEntity
  8
RelationBox
100
AcDbLine
 10
7978.0
 20
-2522.0
 30
0.0
 11
7978.0
 21
-2553.0
 31
0.0
  0
LINE
  5
2A8
330
1D
100
AcDbEntity
  8
RelationBox
100
AcDbLine
 10
8018.0
 20
-2522.0
 30
0.0
 11
8018.0
 21
-2553.0
 31
0.0
  0
LINE
  5
2A9
330
1D
100
AcDbEntity
  8
RelationBox
100
AcDbLine
 10
8412.0
 20
-2522.0
 30
0.0
 11
8452.0
 21
-2522.0
 31
0.0
  0
LINE
  5
2AA
330
1D
100
AcDbEntity
  8
RelationBox
100
AcDbLine
 10
8412.0
 20
-2553.0
 30
0.0
 11
8452.0
 21
-2553.0
 31
0.0
  0
LINE
  5
2AB
330
1D
100
AcDbEntity
  8
RelationBox
100
AcDbLine
 10
8412.0
 20
-2522.0
 30
0.0
 11
8412.0
 21
-2553.0
 31
0.0
  0
LINE
  5
2AC
330
1D
100
AcDbEntity
  8
RelationBox
100
AcDbLine
 10
8452.0
 20
-2522.0
 30
0.0
 11
8452.0
 21
-2553.0
 31
0.0
  0
LINE
  5
2AD
330
1D
100
AcDbEntity
  8
RelationBox
100
AcDbLine
 10
8846.0
 20
-2522.0
 30
0.0
 11
8886.0
 21
-2522.0
 31
0.0
  0
LINE
  5
2AE
330
1D
100
AcDbEntity
  8
RelationBox
100
AcDbLine
 10
8846.0
 20
-2553.0
 30
0.0
 11
8886.0
 21
-2553.0
 31
0.0
  0
LINE
  5
2AF
330
1D
100
AcDbEntity
  8
RelationBox
100
AcDbLine
 10
8846.0
 20
-2522.0
 30
0.0
 11
8846.0
 21
-2553.0
 31
0.0
  0
LINE
  5
2B0
330
1D
100
AcDbEntity
  8
RelationBox
100
AcDbLine
 10
8886.0
 20
-2522.0
 30
0.0
 11
8886.0
 21
-2553.0
 31
0.0
  0
LINE
  5
2B1
330
1D
100
AcDbEntity
  8
RelationBox
100
AcDbLine
 10
4320.0
 20
-7184.0
 30
0.0
 11
4360.0
 21
-7184.0
 31
0.0
  0
LINE
  5
2B2
330
1D
100
AcDbEntity
  8
RelationBox
100
AcDbLine
 10
4320.0
 20
-7215.0
 30
0.0
 11
4360.0
 21
-7215.0
 31
0.0
  0
LINE
  5
2B3
330
1D
100
AcDbEntity
  8
RelationBox
100
AcDbLine
 10
4320.0
 20
-7184.0
 30
0.0
 11
4320.0
 21
-7215.0
 31
0.0
  0
LINE
  5
2B4
330
1D
100
AcDbEntity
  8
RelationBox
100
AcDbLine
 10
4360.0
 20
-7184.0
 30
0.0
 11
4360.0
 21
-7215.0
 31
0.0
  0
LINE
  5
2B5
330
1D
100
AcDbEntity
  8
RelationBox
100
AcDbLine
 10
166.0
 20
-3299.0
 30
0.0
 11
206.0
 21
-3299.0
 31
0.0
  0
LINE
  5
2B6
330
1D
100
AcDbEntity
  8
RelationBox
100
AcDbLine
 10
166.0
 20
-3330.0
 30
0.0
 11
206.0
 21
-3330.0
 31
0.0
  0
LINE
  5
2B7
330
1D
100
AcDbEntity
  8
RelationBox
100
AcDbLine
 10
166.0
 20
-3299.0
 30
0.0
 11
166.0
 21
-3330.0
 31
0.0
  0
LINE
  5
2B8
330
1D
100
AcDbEntity
  8
RelationBox
100
AcDbLine
 10
206.0
 20
-3299.0
 30
0.0
 11
206.0
 21
-3330.0
 31
0.0
  0
LINE
  5
2B9
330
1D
100
AcDbEntity
  8
RelationBox
100
AcDbLine
 10
600.0
 20
-3299.0
 30
0.0
 11
640.0
 21
-3299.0
 31
0.0
  0
LINE
  5
2BA
330
1D
100
AcDbEntity
  8
RelationBox
100
AcDbLine
 10
600.0
 20
-3330.0
 30
0.0
 11
640.0
 21
-3330.0
 31
0.0
  0
LINE
  5
2BB
330
1D
100
AcDbEntity
  8
RelationBox
100
AcDbLine
 10
600.0
 20
-3299.0
 30
0.0
 11
600.0
 21
-3330.0
 31
0.0
  0
LINE
  5
2BC
330
1D
100
AcDbEntity
  8
RelationBox
100
AcDbLine
 10
640.0
 20
-3299.0
 30
0.0
 11
640.0
 21
-3330.0
 31
0.0
  0
LINE
  5
2BD
330
1D
100
AcDbEntity
  8
RelationBox
100
AcDbLine
 10
1034.0
 20
-3299.0
 30
0.0
 11
1074.0
 21
-3299.0
 31
0.0
  0
LINE
  5
2BE
330
1D
100
AcDbEntity
  8
RelationBox
100
AcDbLine
 10
1034.0
 20
-3330.0
 30
0.0
 11
1074.0
 21
-3330.0
 31
0.0
  0
LINE
  5
2BF
330
1D
100
AcDbEntity
  8
RelationBox
100
AcDbLine
 10
1034.0
 20
-3299.0
 30
0.0
 11
1034.0
 21
-3330.0
 31
0.0
  0
LINE
  5
2C0
330
1D
100
AcDbEntity
  8
RelationBox
100
AcDbLine
 10
1074.0
 20
-3299.0
 30
0.0
 11
1074.0
 21
-3330.0
 31
0.0
  0
LINE
  5
2C1
330
1D
100
AcDbEntity
  8
RelationBox
100
AcDbLine
 10
1468.0
 20
-3299.0
 30
0.0
 11
1508.0
 21
-3299.0
 31
0.0
  0
LINE
  5
2C2
330
1D
100
AcDbEntity
  8
RelationBox
100
AcDbLine
 10
1468.0
 20
-3330.0
 30
0.0
 11
1508.0
 21
-3330.0
 31
0.0
  0
LINE
  5
2C3
330
1D
100
AcDbEntity
  8
RelationBox
100
AcDbLine
 10
1468.0
 20
-3299.0
 30
0.0
 11
1468.0
 21
-3330.0
 31
0.0
  0
LINE
  5
2C4
330
1D
100
AcDbEntity
  8
RelationBox
100
AcDbLine
 10
1508.0
 20
-3299.0
 30
0.0
 11
1508.0
 21
-3330.0
 31
0.0
  0
LINE
  5
2C5
330
1D
100
AcDbEntity
  8
RelationBox
100
AcDbLine
 10
1902.0
 20
-3299.0
 30
0.0
 11
1942.0
 21
-3299.0
 31
0.0
  0
LINE
  5
2C6
330
1D
100
AcDbEntity
  8
RelationBox
100
AcDbLine
 10
1902.0
 20
-3330.0
 30
0.0
 11
1942.0
 21
-3330.0
 31
0.0
  0
LINE
  5
2C7
330
1D
100
AcDbEntity
  8
RelationBox
100
AcDbLine
 10
1902.0
 20
-3299.0
 30
0.0
 11
1902.0
 21
-3330.0
 31
0.0
  0
LINE
  5
2C8
330
1D
100
AcDbEntity
  8
RelationBox
100
AcDbLine
 10
1942.0
 20
-3299.0
 30
0.0
 11
1942.0
 21
-3330.0
 31
0.0
  0
LINE
  5
2C9
330
1D
100
AcDbEntity
  8
RelationBox
100
AcDbLine
 10
2336.0
 20
-3299.0
 30
0.0
 11
2376.0
 21
-3299.0
 31
0.0
  0
LINE
  5
2CA
330
1D
100
AcDbEntity
  8
RelationBox
100
AcDbLine
 10
2336.0
 20
-3330.0
 30
0.0
 11
2376.0
 21
-3330.0
 31
0.0
  0
LINE
  5
2CB
330
1D
100
AcDbEntity
  8
RelationBox
100
AcDbLine
 10
2336.0
 20
-3299.0
 30
0.0
 11
2336.0
 21
-3330.0
 31
0.0
  0
LINE
  5
2CC
330
1D
100
AcDbEntity
  8
RelationBox
100
AcDbLine
 10
2376.0
 20
-3299.0
 30
0.0
 11
2376.0
 21
-3330.0
 31
0.0
  0
LINE
  5
2CD
330
1D
100
AcDbEntity
  8
RelationBox
100
AcDbLine
 10
2770.0
 20
-3299.0
 30
0.0
 11
2810.0
 21
-3299.0
 31
0.0
  0
LINE
  5
2CE
330
1D
100
AcDbEntity
  8
RelationBox
100
AcDbLine
 10
2770.0
 20
-3330.0
 30
0.0
 11
2810.0
 21
-3330.0
 31
0.0
  0
LINE
  5
2CF
330
1D
100
AcDbEntity
  8
RelationBox
100
AcDbLine
 10
2770.0
 20
-3299.0
 30
0.0
 11
2770.0
 21
-3330.0
 31
0.0
  0
LINE
  5
2D0
330
1D
100
AcDbEntity
  8
RelationBox
100
AcDbLine
 10
2810.0
 20
-3299.0
 30
0.0
 11
2810.0
 21
-3330.0
 31
0.0
  0
LINE
  5
2D1
330
1D
100
AcDbEntity
  8
RelationBox
100
AcDbLine
 10
3204.0
 20
-3299.0
 30
0.0
 11
3244.0
 21
-3299.0
 31
0.0
  0
LINE
  5
2D2
330
1D
100
AcDbEntity
  8
RelationBox
100
AcDbLine
 10
3204.0
 20
-3330.0
 30
0.0
 11
3244.0
 21
-3330.0
 31
0.0
  0
LINE
  5
2D3
330
1D
100
AcDbEntity
  8
RelationBox
100
AcDbLine
 10
3204.0
 20
-3299.0
 30
0.0
 11
3204.0
 21
-3330.0
 31
0.0
  0
LINE
  5
2D4
330
1D
100
AcDbEntity
  8
RelationBox
100
AcDbLine
 10
3244.0
 20
-3299.0
 30
0.0
 11
3244.0
 21
-3330.0
 31
0.0
  0
LINE
  5
2D5
330
1D
100
AcDbEntity
  8
RelationBox
100
AcDbLine
 10
3638.0
 20
-3299.0
 30
0.0
 11
3678.0
 21
-3299.0
 31
0.0
  0
LINE
  5
2D6
330
1D
100
AcDbEntity
  8
RelationBox
100
AcDbLine
 10
3638.0
 20
-3330.0
 30
0.0
 11
3678.0
 21
-3330.0
 31
0.0
  0
LINE
  5
2D7
330
1D
100
AcDbEntity
  8
RelationBox
100
AcDbLine
 10
3638.0
 20
-3299.0
 30
0.0
 11
3638.0
 21
-3330.0
 31
0.0
  0
LINE
  5
2D8
330
1D
100
AcDbEntity
  8
RelationBox
100
AcDbLine
 10
3678.0
 20
-3299.0
 30
0.0
 11
3678.0
 21
-3330.0
 31
0.0
  0
LINE
  5
2D9
330
1D
100
AcDbEntity
  8
RelationBox
100
AcDbLine
 10
4072.0
 20
-3299.0
 30
0.0
 11
4112.0
 21
-3299.0
 31
0.0
  0
LINE
  5
2DA
330
1D
100
AcDbEntity
  8
RelationBox
100
AcDbLine
 10
4072.0
 20
-3330.0
 30
0.0
 11
4112.0
 21
-3330.0
 31
0.0
  0
LINE
  5
2DB
330
1D
100
AcDbEntity
  8
RelationBox
100
AcDbLine
 10
4072.0
 20
-3299.0
 30
0.0
 11
4072.0
 21
-3330.0
 31
0.0
  0
LINE
  5
2DC
330
1D
100
AcDbEntity
  8
RelationBox
100
AcDbLine
 10
4112.0
 20
-3299.0
 30
0.0
 11
4112.0
 21
-3330.0
 31
0.0
  0
LINE
  5
2DD
330
1D
100
AcDbEntity
  8
RelationBox
100
AcDbLine
 10
4506.0
 20
-3299.0
 30
0.0
 11
4546.0
 21
-3299.0
 31
0.0
  0
LINE
  5
2DE
330
1D
100
AcDbEntity
  8
RelationBox
100
AcDbLine
 10
4506.0
 20
-3330.0
 30
0.0
 11
4546.0
 21
-3330.0
 31
0.0
  0
LINE
  5
2DF
330
1D
100
AcDbEntity
  8
RelationBox
100
AcDbLine
 10
4506.0
 20
-3299.0
 30
0.0
 11
4506.0
 21
-3330.0
 31
0.0
  0
LINE
  5
2E0
330
1D
100
AcDbEntity
  8
RelationBox
100
AcDbLine
 10
4546.0
 20
-3299.0
 30
0.0
 11
4546.0
 21
-3330.0
 31
0.0
  0
LINE
  5
2E1
330
1D
100
AcDbEntity
  8
RelationBox
100
AcDbLine
 10
4940.0
 20
-3299.0
 30
0.0
 11
4980.0
 21
-3299.0
 31
0.0
  0
LINE
  5
2E2
330
1D
100
AcDbEntity
  8
RelationBox
100
AcDbLine
 10
4940.0
 20
-3330.0
 30
0.0
 11
4980.0
 21
-3330.0
 31
0.0
  0
LINE
  5
2E3
330
1D
100
AcDbEntity
  8
RelationBox
100
AcDbLine
 10
4940.0
 20
-3299.0
 30
0.0
 11
4940.0
 21
-3330.0
 31
0.0
  0
LINE
  5
2E4
330
1D
100
AcDbEntity
  8
RelationBox
100
AcDbLine
 10
4980.0
 20
-3299.0
 30
0.0
 11
4980.0
 21
-3330.0
 31
0.0
  0
LINE
  5
2E5
330
1D
100
AcDbEntity
  8
RelationBox
100
AcDbLine
 10
5374.0
 20
-3299.0
 30
0.0
 11
5414.0
 21
-3299.0
 31
0.0
  0
LINE
  5
2E6
330
1D
100
AcDbEntity
  8
RelationBox
100
AcDbLine
 10
5374.0
 20
-3330.0
 30
0.0
 11
5414.0
 21
-3330.0
 31
0.0
  0
LINE
  5
2E7
330
1D
100
AcDbEntity
  8
RelationBox
100
AcDbLine
 10
5374.0
 20
-3299.0
 30
0.0
 11
5374.0
 21
-3330.0
 31
0.0
  0
LINE
  5
2E8
330
1D
100
AcDbEntity
  8
RelationBox
100
AcDbLine
 10
5414.0
 20
-3299.0
 30
0.0
 11
5414.0
 21
-3330.0
 31
0.0
  0
LINE
  5
2E9
330
1D
100
AcDbEntity
  8
RelationBox
100
AcDbLine
 10
5808.0
 20
-3299.0
 30
0.0
 11
5848.0
 21
-3299.0
 31
0.0
  0
LINE
  5
2EA
330
1D
100
AcDbEntity
  8
RelationBox
100
AcDbLine
 10
5808.0
 20
-3330.0
 30
0.0
 11
5848.0
 21
-3330.0
 31
0.0
  0
LINE
  5
2EB
330
1D
100
AcDbEntity
  8
RelationBox
100
AcDbLine
 10
5808.0
 20
-3299.0
 30
0.0
 11
5808.0
 21
-3330.0
 31
0.0
  0
LINE
  5
2EC
330
1D
100
AcDbEntity
  8
RelationBox
100
AcDbLine
 10
5848.0
 20
-3299.0
 30
0.0
 11
5848.0
 21
-3330.0
 31
0.0
  0
LINE
  5
2ED
330
1D
100
AcDbEntity
  8
RelationBox
100
AcDbLine
 10
6242.0
 20
-3299.0
 30
0.0
 11
6282.0
 21
-3299.0
 31
0.0
  0
LINE
  5
2EE
330
1D
100
AcDbEntity
  8
RelationBox
100
AcDbLine
 10
6242.0
 20
-3330.0
 30
0.0
 11
6282.0
 21
-3330.0
 31
0.0
  0
LINE
  5
2EF
330
1D
100
AcDbEntity
  8
RelationBox
100
AcDbLine
 10
6242.0
 20
-3299.0
 30
0.0
 11
6242.0
 21
-3330.0
 31
0.0
  0
LINE
  5
2F0
330
1D
100
AcDbEntity
  8
RelationBox
100
AcDbLine
 10
6282.0
 20
-3299.0
 30
0.0
 11
6282.0
 21
-3330.0
 31
0.0
  0
LINE
  5
2F1
330
1D
100
AcDbEntity
  8
RelationBox
100
AcDbLine
 10
6676.0
 20
-3299.0
 30
0.0
 11
6716.0
 21
-3299.0
 31
0.0
  0
LINE
  5
2F2
330
1D
100
AcDbEntity
  8
RelationBox
100
AcDbLine
 10
6676.0
 20
-3330.0
 30
0.0
 11
6716.0
 21
-3330.0
 31
0.0
  0
LINE
  5
2F3
330
1D
100
AcDbEntity
  8
RelationBox
100
AcDbLine
 10
6676.0
 20
-3299.0
 30
0.0
 11
6676.0
 21
-3330.0
 31
0.0
  0
LINE
  5
2F4
330
1D
100
AcDbEntity
  8
RelationBox
100
AcDbLine
 10
6716.0
 20
-3299.0
 30
0.0
 11
6716.0
 21
-3330.0
 31
0.0
  0
LINE
  5
2F5
330
1D
100
AcDbEntity
  8
RelationBox
100
AcDbLine
 10
7110.0
 20
-3299.0
 30
0.0
 11
7150.0
 21
-3299.0
 31
0.0
  0
LINE
  5
2F6
330
1D
100
AcDbEntity
  8
RelationBox
100
AcDbLine
 10
7110.0
 20
-3330.0
 30
0.0
 11
7150.0
 21
-3330.0
 31
0.0
  0
LINE
  5
2F7
330
1D
100
AcDbEntity
  8
RelationBox
100
AcDbLine
 10
7110.0
 20
-3299.0
 30
0.0
 11
7110.0
 21
-3330.0
 31
0.0
  0
LINE
  5
2F8
330
1D
100
AcDbEntity
  8
RelationBox
100
AcDbLine
 10
7150.0
 20
-3299.0
 30
0.0
 11
7150.0
 21
-3330.0
 31
0.0
  0
LINE
  5
2F9
330
1D
100
AcDbEntity
  8
RelationBox
100
AcDbLine
 10
7544.0
 20
-3299.0
 30
0.0
 11
7584.0
 21
-3299.0
 31
0.0
  0
LINE
  5
2FA
330
1D
100
AcDbEntity
  8
RelationBox
100
AcDbLine
 10
7544.0
 20
-3330.0
 30
0.0
 11
7584.0
 21
-3330.0
 31
0.0
  0
LINE
  5
2FB
330
1D
100
AcDbEntity
  8
RelationBox
100
AcDbLine
 10
7544.0
 20
-3299.0
 30
0.0
 11
7544.0
 21
-3330.0
 31
0.0
  0
LINE
  5
2FC
330
1D
100
AcDbEntity
  8
RelationBox
100
AcDbLine
 10
7584.0
 20
-3299.0
 30
0.0
 11
7584.0
 21
-3330.0
 31
0.0
  0
LINE
  5
2FD
330
1D
100
AcDbEntity
  8
RelationBox
100
AcDbLine
 10
7978.0
 20
-3299.0
 30
0.0
 11
8018.0
 21
-3299.0
 31
0.0
  0
LINE
  5
2FE
330
1D
100
AcDbEntity
  8
RelationBox
100
AcDbLine
 10
7978.0
 20
-3330.0
 30
0.0
 11
8018.0
 21
-3330.0
 31
0.0
  0
LINE
  5
2FF
330
1D
100
AcDbEntity
  8
RelationBox
100
AcDbLine
 10
7978.0
 20
-3299.0
 30
0.0
 11
7978.0
 21
-3330.0
 31
0.0
  0
LINE
  5
300
330
1D
100
AcDbEntity
  8
RelationBox
100
AcDbLine
 10
8018.0
 20
-3299.0
 30
0.0
 11
8018.0
 21
-3330.0
 31
0.0
  0
LINE
  5
301
330
1D
100
AcDbEntity
  8
RelationBox
100
AcDbLine
 10
8412.0
 20
-3299.0
 30
0.0
 11
8452.0
 21
-3299.0
 31
0.0
  0
LINE
  5
302
330
1D
100
AcDbEntity
  8
RelationBox
100
AcDbLine
 10
8412.0
 20
-3330.0
 30
0.0
 11
8452.0
 21
-3330.0
 31
0.0
  0
LINE
  5
303
330
1D
100
AcDbEntity
  8
RelationBox
100
AcDbLine
 10
8412.0
 20
-3299.0
 30
0.0
 11
8412.0
 21
-3330.0
 31
0.0
  0
LINE
  5
304
330
1D
100
AcDbEntity
  8
RelationBox
100
AcDbLine
 10
8452.0
 20
-3299.0
 30
0.0
 11
8452.0
 21
-3330.0
 31
0.0
  0
LINE
  5
305
330
1D
100
AcDbEntity
  8
RelationBox
100
AcDbLine
 10
8412.0
 20
-4076.0
 30
0.0
 11
8452.0
 21
-4076.0
 31
0.0
  0
LINE
  5
306
330
1D
100
AcDbEntity
  8
RelationBox
100
AcDbLine
 10
8412.0
 20
-4107.0
 30
0.0
 11
8452.0
 21
-4107.0
 31
0.0
  0
LINE
  5
307
330
1D
100
AcDbEntity
  8
RelationBox
100
AcDbLine
 10
8412.0
 20
-4076.0
 30
0.0
 11
8412.0
 21
-4107.0
 31
0.0
  0
LINE
  5
308
330
1D
100
AcDbEntity
  8
RelationBox
100
AcDbLine
 10
8452.0
 20
-4076.0
 30
0.0
 11
8452.0
 21
-4107.0
 31
0.0
  0
LINE
  5
309
330
1D
100
AcDbEntity
  8
RelationBox
100
AcDbLine
 10
166.0
 20
-4076.0
 30
0.0
 11
206.0
 21
-4076.0
 31
0.0
  0
LINE
  5
30A
330
1D
100
AcDbEntity
  8
RelationBox
100
AcDbLine
 10
166.0
 20
-4107.0
 30
0.0
 11
206.0
 21
-4107.0
 31
0.0
  0
LINE
  5
30B
330
1D
100
AcDbEntity
  8
RelationBox
100
AcDbLine
 10
166.0
 20
-4076.0
 30
0.0
 11
166.0
 21
-4107.0
 31
0.0
  0
LINE
  5
30C
330
1D
100
AcDbEntity
  8
RelationBox
100
AcDbLine
 10
206.0
 20
-4076.0
 30
0.0
 11
206.0
 21
-4107.0
 31
0.0
  0
LINE
  5
30D
330
1D
100
AcDbEntity
  8
RelationBox
100
AcDbLine
 10
600.0
 20
-4076.0
 30
0.0
 11
640.0
 21
-4076.0
 31
0.0
  0
LINE
  5
30E
330
1D
100
AcDbEntity
  8
RelationBox
100
AcDbLine
 10
600.0
 20
-4107.0
 30
0.0
 11
640.0
 21
-4107.0
 31
0.0
  0
LINE
  5
30F
330
1D
100
AcDbEntity
  8
RelationBox
100
AcDbLine
 10
600.0
 20
-4076.0
 30
0.0
 11
600.0
 21
-4107.0
 31
0.0
  0
LINE
  5
310
330
1D
100
AcDbEntity
  8
RelationBox
100
AcDbLine
 10
640.0
 20
-4076.0
 30
0.0
 11
640.0
 21
-4107.0
 31
0.0
  0
LINE
  5
311
330
1D
100
AcDbEntity
  8
RelationBox
100
AcDbLine
 10
1034.0
 20
-4076.0
 30
0.0
 11
1074.0
 21
-4076.0
 31
0.0
  0
LINE
  5
312
330
1D
100
AcDbEntity
  8
RelationBox
100
AcDbLine
 10
1034.0
 20
-4107.0
 30
0.0
 11
1074.0
 21
-4107.0
 31
0.0
  0
LINE
  5
313
330
1D
100
AcDbEntity
  8
RelationBox
100
AcDbLine
 10
1034.0
 20
-4076.0
 30
0.0
 11
1034.0
 21
-4107.0
 31
0.0
  0
LINE
  5
314
330
1D
100
AcDbEntity
  8
RelationBox
100
AcDbLine
 10
1074.0
 20
-4076.0
 30
0.0
 11
1074.0
 21
-4107.0
 31
0.0
  0
LINE
  5
315
330
1D
100
AcDbEntity
  8
RelationBox
100
AcDbLine
 10
1468.0
 20
-4076.0
 30
0.0
 11
1508.0
 21
-4076.0
 31
0.0
  0
LINE
  5
316
330
1D
100
AcDbEntity
  8
RelationBox
100
AcDbLine
 10
1468.0
 20
-4107.0
 30
0.0
 11
1508.0
 21
-4107.0
 31
0.0
  0
LINE
  5
317
330
1D
100
AcDbEntity
  8
RelationBox
100
AcDbLine
 10
1468.0
 20
-4076.0
 30
0.0
 11
1468.0
 21
-4107.0
 31
0.0
  0
LINE
  5
318
330
1D
100
AcDbEntity
  8
RelationBox
100
AcDbLine
 10
1508.0
 20
-4076.0
 30
0.0
 11
1508.0
 21
-4107.0
 31
0.0
  0
LINE
  5
319
330
1D
100
AcDbEntity
  8
RelationBox
100
AcDbLine
 10
4692.0
 20
-4076.0
 30
0.0
 11
4732.0
 21
-4076.0
 31
0.0
  0
LINE
  5
31A
330
1D
100
AcDbEntity
  8
RelationBox
100
AcDbLine
 10
4692.0
 20
-4107.0
 30
0.0
 11
4732.0
 21
-4107.0
 31
0.0
  0
LINE
  5
31B
330
1D
100
AcDbEntity
  8
RelationBox
100
AcDbLine
 10
4692.0
 20
-4076.0
 30
0.0
 11
4692.0
 21
-4107.0
 31
0.0
  0
LINE
  5
31C
330
1D
100
AcDbEntity
  8
RelationBox
100
AcDbLine
 10
4732.0
 20
-4076.0
 30
0.0
 11
4732.0
 21
-4107.0
 31
0.0
  0
LINE
  5
31D
330
1D
100
AcDbEntity
  8
RelationBox
100
AcDbLine
 10
4692.0
 20
-4076.0
 30
0.0
 11
4732.0
 21
-4076.0
 31
0.0
  0
LINE
  5
31E
330
1D
100
AcDbEntity
  8
RelationBox
100
AcDbLine
 10
4692.0
 20
-4107.0
 30
0.0
 11
4732.0
 21
-4107.0
 31
0.0
  0
LINE
  5
31F
330
1D
100
AcDbEntity
  8
RelationBox
100
AcDbLine
 10
4692.0
 20
-4076.0
 30
0.0
 11
4692.0
 21
-4107.0
 31
0.0
  0
LINE
  5
320
330
1D
100
AcDbEntity
  8
RelationBox
100
AcDbLine
 10
4732.0
 20
-4076.0
 30
0.0
 11
4732.0
 21
-4107.0
 31
0.0
  0
LINE
  5
321
330
1D
100
AcDbEntity
  8
RelationBox
100
AcDbLine
 10
4692.0
 20
-4076.0
 30
0.0
 11
4732.0
 21
-4076.0
 31
0.0
  0
LINE
  5
322
330
1D
100
AcDbEntity
  8
RelationBox
100
AcDbLine
 10
4692.0
 20
-4107.0
 30
0.0
 11
4732.0
 21
-4107.0
 31
0.0
  0
LINE
  5
323
330
1D
100
AcDbEntity
  8
RelationBox
100
AcDbLine
 10
4692.0
 20
-4076.0
 30
0.0
 11
4692.0
 21
-4107.0
 31
0.0
  0
LINE
  5
324
330
1D
100
AcDbEntity
  8
RelationBox
100
AcDbLine
 10
4732.0
 20
-4076.0
 30
0.0
 11
4732.0
 21
-4107.0
 31
0.0
  0
LINE
  5
325
330
1D
100
AcDbEntity
  8
RelationBox
100
AcDbLine
 10
4692.0
 20
-4076.0
 30
0.0
 11
4732.0
 21
-4076.0
 31
0.0
  0
LINE
  5
326
330
1D
100
AcDbEntity
  8
RelationBox
100
AcDbLine
 10
4692.0
 20
-4107.0
 30
0.0
 11
4732.0
 21
-4107.0
 31
0.0
  0
LINE
  5
327
330
1D
100
AcDbEntity
  8
RelationBox
100
AcDbLine
 10
4692.0
 20
-4076.0
 30
0.0
 11
4692.0
 21
-4107.0
 31
0.0
  0
LINE
  5
328
330
1D
100
AcDbEntity
  8
RelationBox
100
AcDbLine
 10
4732.0
 20
-4076.0
 30
0.0
 11
4732.0
 21
-4107.0
 31
0.0
  0
LINE
  5
329
330
1D
100
AcDbEntity
  8
RelationBox
100
AcDbLine
 10
4692.0
 20
-4076.0
 30
0.0
 11
4732.0
 21
-4076.0
 31
0.0
  0
LINE
  5
32A
330
1D
100
AcDbEntity
  8
RelationBox
100
AcDbLine
 10
4692.0
 20
-4107.0
 30
0.0
 11
4732.0
 21
-4107.0
 31
0.0
  0
LINE
  5
32B
330
1D
100
AcDbEntity
  8
RelationBox
100
AcDbLine
 10
4692.0
 20
-4076.0
 30
0.0
 11
4692.0
 21
-4107.0
 31
0.0
  0
LINE
  5
32C
330
1D
100
AcDbEntity
  8
RelationBox
100
AcDbLine
 10
4732.0
 20
-4076.0
 30
0.0
 11
4732.0
 21
-4107.0
 31
0.0
  0
LINE
  5
32D
330
1D
100
AcDbEntity
  8
RelationBox
100
AcDbLine
 10
4692.0
 20
-4076.0
 30
0.0
 11
4732.0
 21
-4076.0
 31
0.0
  0
LINE
  5
32E
330
1D
100
AcDbEntity
  8
RelationBox
100
AcDbLine
 10
4692.0
 20
-4107.0
 30
0.0
 11
4732.0
 21
-4107.0
 31
0.0
  0
LINE
  5
32F
330
1D
100
AcDbEntity
  8
RelationBox
100
AcDbLine
 10
4692.0
 20
-4076.0
 30
0.0
 11
4692.0
 21
-4107.0
 31
0.0
  0
LINE
  5
330
330
1D
100
AcDbEntity
  8
RelationBox
100
AcDbLine
 10
4732.0
 20
-4076.0
 30
0.0
 11
4732.0
 21
-4107.0
 31
0.0
  0
LINE
  5
331
330
1D
100
AcDbEntity
  8
RelationBox
100
AcDbLine
 10
4692.0
 20
-4076.0
 30
0.0
 11
4732.0
 21
-4076.0
 31
0.0
  0
LINE
  5
332
330
1D
100
AcDbEntity
  8
RelationBox
100
AcDbLine
 10
4692.0
 20
-4107.0
 30
0.0
 11
4732.0
 21
-4107.0
 31
0.0
  0
LINE
  5
333
330
1D
100
AcDbEntity
  8
RelationBox
100
AcDbLine
 10
4692.0
 20
-4076.0
 30
0.0
 11
4692.0
 21
-4107.0
 31
0.0
  0
LINE
  5
334
330
1D
100
AcDbEntity
  8
RelationBox
100
AcDbLine
 10
4732.0
 20
-4076.0
 30
0.0
 11
4732.0
 21
-4107.0
 31
0.0
  0
LINE
  5
335
330
1D
100
AcDbEntity
  8
RelationBox
100
AcDbLine
 10
4692.0
 20
-4076.0
 30
0.0
 11
4732.0
 21
-4076.0
 31
0.0
  0
LINE
  5
336
330
1D
100
AcDbEntity
  8
RelationBox
100
AcDbLine
 10
4692.0
 20
-4107.0
 30
0.0
 11
4732.0
 21
-4107.0
 31
0.0
  0
LINE
  5
337
330
1D
100
AcDbEntity
  8
RelationBox
100
AcDbLine
 10
4692.0
 20
-4076.0
 30
0.0
 11
4692.0
 21
-4107.0
 31
0.0
  0
LINE
  5
338
330
1D
100
AcDbEntity
  8
RelationBox
100
AcDbLine
 10
4732.0
 20
-4076.0
 30
0.0
 11
4732.0
 21
-4107.0
 31
0.0
  0
LINE
  5
339
330
1D
100
AcDbEntity
  8
RelationBox
100
AcDbLine
 10
4692.0
 20
-4076.0
 30
0.0
 11
4732.0
 21
-4076.0
 31
0.0
  0
LINE
  5
33A
330
1D
100
AcDbEntity
  8
RelationBox
100
AcDbLine
 10
4692.0
 20
-4107.0
 30
0.0
 11
4732.0
 21
-4107.0
 31
0.0
  0
LINE
  5
33B
330
1D
100
AcDbEntity
  8
RelationBox
100
AcDbLine
 10
4692.0
 20
-4076.0
 30
0.0
 11
4692.0
 21
-4107.0
 31
0.0
  0
LINE
  5
33C
330
1D
100
AcDbEntity
  8
RelationBox
100
AcDbLine
 10
4732.0
 20
-4076.0
 30
0.0
 11
4732.0
 21
-4107.0
 31
0.0
  0
LINE
  5
33D
330
1D
100
AcDbEntity
  8
RelationBox
100
AcDbLine
 10
4692.0
 20
-4076.0
 30
0.0
 11
4732.0
 21
-4076.0
 31
0.0
  0
LINE
  5
33E
330
1D
100
AcDbEntity
  8
RelationBox
100
AcDbLine
 10
4692.0
 20
-4107.0
 30
0.0
 11
4732.0
 21
-4107.0
 31
0.0
  0
LINE
  5
33F
330
1D
100
AcDbEntity
  8
RelationBox
100
AcDbLine
 10
4692.0
 20
-4076.0
 30
0.0
 11
4692.0
 21
-4107.0
 31
0.0
  0
LINE
  5
340
330
1D
100
AcDbEntity
  8
RelationBox
100
AcDbLine
 10
4732.0
 20
-4076.0
 30
0.0
 11
4732.0
 21
-4107.0
 31
0.0
  0
LINE
  5
341
330
1D
100
AcDbEntity
  8
RelationBox
100
AcDbLine
 10
4692.0
 20
-4076.0
 30
0.0
 11
4732.0
 21
-4076.0
 31
0.0
  0
LINE
  5
342
330
1D
100
AcDbEntity
  8
RelationBox
100
AcDbLine
 10
4692.0
 20
-4107.0
 30
0.0
 11
4732.0
 21
-4107.0
 31
0.0
  0
LINE
  5
343
330
1D
100
AcDbEntity
  8
RelationBox
100
AcDbLine
 10
4692.0
 20
-4076.0
 30
0.0
 11
4692.0
 21
-4107.0
 31
0.0
  0
LINE
  5
344
330
1D
100
AcDbEntity
  8
RelationBox
100
AcDbLine
 10
4732.0
 20
-4076.0
 30
0.0
 11
4732.0
 21
-4107.0
 31
0.0
  0
LINE
  5
345
330
1D
100
AcDbEntity
  8
RelationBox
100
AcDbLine
 10
4692.0
 20
-4076.0
 30
0.0
 11
4732.0
 21
-4076.0
 31
0.0
  0
LINE
  5
346
330
1D
100
AcDbEntity
  8
RelationBox
100
AcDbLine
 10
4692.0
 20
-4107.0
 30
0.0
 11
4732.0
 21
-4107.0
 31
0.0
  0
LINE
  5
347
330
1D
100
AcDbEntity
  8
RelationBox
100
AcDbLine
 10
4692.0
 20
-4076.0
 30
0.0
 11
4692.0
 21
-4107.0
 31
0.0
  0
LINE
  5
348
330
1D
100
AcDbEntity
  8
RelationBox
100
AcDbLine
 10
4732.0
 20
-4076.0
 30
0.0
 11
4732.0
 21
-4107.0
 31
0.0
  0
LINE
  5
349
330
1D
100
AcDbEntity
  8
RelationBox
100
AcDbLine
 10
4692.0
 20
-4076.0
 30
0.0
 11
4732.0
 21
-4076.0
 31
0.0
  0
LINE
  5
34A
330
1D
100
AcDbEntity
  8
RelationBox
100
AcDbLine
 10
4692.0
 20
-4107.0
 30
0.0
 11
4732.0
 21
-4107.0
 31
0.0
  0
LINE
  5
34B
330
1D
100
AcDbEntity
  8
RelationBox
100
AcDbLine
 10
4692.0
 20
-4076.0
 30
0.0
 11
4692.0
 21
-4107.0
 31
0.0
  0
LINE
  5
34C
330
1D
100
AcDbEntity
  8
RelationBox
100
AcDbLine
 10
4732.0
 20
-4076.0
 30
0.0
 11
4732.0
 21
-4107.0
 31
0.0
  0
LINE
  5
34D
330
1D
100
AcDbEntity
  8
RelationBox
100
AcDbLine
 10
4692.0
 20
-4076.0
 30
0.0
 11
4732.0
 21
-4076.0
 31
0.0
  0
LINE
  5
34E
330
1D
100
AcDbEntity
  8
RelationBox
100
AcDbLine
 10
4692.0
 20
-4107.0
 30
0.0
 11
4732.0
 21
-4107.0
 31
0.0
  0
LINE
  5
34F
330
1D
100
AcDbEntity
  8
RelationBox
100
AcDbLine
 10
4692.0
 20
-4076.0
 30
0.0
 11
4692.0
 21
-4107.0
 31
0.0
  0
LINE
  5
350
330
1D
100
AcDbEntity
  8
RelationBox
100
AcDbLine
 10
4732.0
 20
-4076.0
 30
0.0
 11
4732.0
 21
-4107.0
 31
0.0
  0
LINE
  5
351
330
1D
100
AcDbEntity
  8
RelationBox
100
AcDbLine
 10
8412.0
 20
-4076.0
 30
0.0
 11
8452.0
 21
-4076.0
 31
0.0
  0
LINE
  5
352
330
1D
100
AcDbEntity
  8
RelationBox
100
AcDbLine
 10
8412.0
 20
-4107.0
 30
0.0
 11
8452.0
 21
-4107.0
 31
0.0
  0
LINE
  5
353
330
1D
100
AcDbEntity
  8
RelationBox
100
AcDbLine
 10
8412.0
 20
-4076.0
 30
0.0
 11
8412.0
 21
-4107.0
 31
0.0
  0
LINE
  5
354
330
1D
100
AcDbEntity
  8
RelationBox
100
AcDbLine
 10
8452.0
 20
-4076.0
 30
0.0
 11
8452.0
 21
-4107.0
 31
0.0
  0
LINE
  5
355
330
1D
100
AcDbEntity
  8
RelationBox
100
AcDbLine
 10
8412.0
 20
-4076.0
 30
0.0
 11
8452.0
 21
-4076.0
 31
0.0
  0
LINE
  5
356
330
1D
100
AcDbEntity
  8
RelationBox
100
AcDbLine
 10
8412.0
 20
-4107.0
 30
0.0
 11
8452.0
 21
-4107.0
 31
0.0
  0
LINE
  5
357
330
1D
100
AcDbEntity
  8
RelationBox
100
AcDbLine
 10
8412.0
 20
-4076.0
 30
0.0
 11
8412.0
 21
-4107.0
 31
0.0
  0
LINE
  5
358
330
1D
100
AcDbEntity
  8
RelationBox
100
AcDbLine
 10
8452.0
 20
-4076.0
 30
0.0
 11
8452.0
 21
-4107.0
 31
0.0
  0
LINE
  5
359
330
1D
100
AcDbEntity
  8
RelationBox
100
AcDbLine
 10
166.0
 20
-4742.0
 30
0.0
 11
206.0
 21
-4742.0
 31
0.0
  0
LINE
  5
35A
330
1D
100
AcDbEntity
  8
RelationBox
100
AcDbLine
 10
166.0
 20
-4773.0
 30
0.0
 11
206.0
 21
-4773.0
 31
0.0
  0
LINE
  5
35B
330
1D
100
AcDbEntity
  8
RelationBox
100
AcDbLine
 10
166.0
 20
-4742.0
 30
0.0
 11
166.0
 21
-4773.0
 31
0.0
  0
LINE
  5
35C
330
1D
100
AcDbEntity
  8
RelationBox
100
AcDbLine
 10
206.0
 20
-4742.0
 30
0.0
 11
206.0
 21
-4773.0
 31
0.0
  0
LINE
  5
35D
330
1D
100
AcDbEntity
  8
RelationBox
100
AcDbLine
 10
4320.0
 20
-7184.0
 30
0.0
 11
4360.0
 21
-7184.0
 31
0.0
  0
LINE
  5
35E
330
1D
100
AcDbEntity
  8
RelationBox
100
AcDbLine
 10
4320.0
 20
-7215.0
 30
0.0
 11
4360.0
 21
-7215.0
 31
0.0
  0
LINE
  5
35F
330
1D
100
AcDbEntity
  8
RelationBox
100
AcDbLine
 10
4320.0
 20
-7184.0
 30
0.0
 11
4320.0
 21
-7215.0
 31
0.0
  0
LINE
  5
360
330
1D
100
AcDbEntity
  8
RelationBox
100
AcDbLine
 10
4360.0
 20
-7184.0
 30
0.0
 11
4360.0
 21
-7215.0
 31
0.0
  0
LINE
  5
361
330
1D
100
AcDbEntity
  8
RelationBox
100
AcDbLine
 10
1034.0
 20
-4742.0
 30
0.0
 11
1074.0
 21
-4742.0
 31
0.0
  0
LINE
  5
362
330
1D
100
AcDbEntity
  8
RelationBox
100
AcDbLine
 10
1034.0
 20
-4773.0
 30
0.0
 11
1074.0
 21
-4773.0
 31
0.0
  0
LINE
  5
363
330
1D
100
AcDbEntity
  8
RelationBox
100
AcDbLine
 10
1034.0
 20
-4742.0
 30
0.0
 11
1034.0
 21
-4773.0
 31
0.0
  0
LINE
  5
364
330
1D
100
AcDbEntity
  8
RelationBox
100
AcDbLine
 10
1074.0
 20
-4742.0
 30
0.0
 11
1074.0
 21
-4773.0
 31
0.0
  0
LINE
  5
365
330
1D
100
AcDbEntity
  8
RelationBox
100
AcDbLine
 10
1468.0
 20
-4742.0
 30
0.0
 11
1508.0
 21
-4742.0
 31
0.0
  0
LINE
  5
366
330
1D
100
AcDbEntity
  8
RelationBox
100
AcDbLine
 10
1468.0
 20
-4773.0
 30
0.0
 11
1508.0
 21
-4773.0
 31
0.0
  0
LINE
  5
367
330
1D
100
AcDbEntity
  8
RelationBox
100
AcDbLine
 10
1468.0
 20
-4742.0
 30
0.0
 11
1468.0
 21
-4773.0
 31
0.0
  0
LINE
  5
368
330
1D
100
AcDbEntity
  8
RelationBox
100
AcDbLine
 10
1508.0
 20
-4742.0
 30
0.0
 11
1508.0
 21
-4773.0
 31
0.0
  0
LINE
  5
369
330
1D
100
AcDbEntity
  8
RelationBox
100
AcDbLine
 10
4320.0
 20
-7184.0
 30
0.0
 11
4360.0
 21
-7184.0
 31
0.0
  0
LINE
  5
36A
330
1D
100
AcDbEntity
  8
RelationBox
100
AcDbLine
 10
4320.0
 20
-7215.0
 30
0.0
 11
4360.0
 21
-7215.0
 31
0.0
  0
LINE
  5
36B
330
1D
100
AcDbEntity
  8
RelationBox
100
AcDbLine
 10
4320.0
 20
-7184.0
 30
0.0
 11
4320.0
 21
-7215.0
 31
0.0
  0
LINE
  5
36C
330
1D
100
AcDbEntity
  8
RelationBox
100
AcDbLine
 10
4360.0
 20
-7184.0
 30
0.0
 11
4360.0
 21
-7215.0
 31
0.0
  0
LINE
  5
36D
330
1D
100
AcDbEntity
  8
RelationBox
100
AcDbLine
 10
4320.0
 20
-7184.0
 30
0.0
 11
4360.0
 21
-7184.0
 31
0.0
  0
LINE
  5
36E
330
1D
100
AcDbEntity
  8
RelationBox
100
AcDbLine
 10
4320.0
 20
-7215.0
 30
0.0
 11
4360.0
 21
-7215.0
 31
0.0
  0
LINE
  5
36F
330
1D
100
AcDbEntity
  8
RelationBox
100
AcDbLine
 10
4320.0
 20
-7184.0
 30
0.0
 11
4320.0
 21
-7215.0
 31
0.0
  0
LINE
  5
370
330
1D
100
AcDbEntity
  8
RelationBox
100
AcDbLine
 10
4360.0
 20
-7184.0
 30
0.0
 11
4360.0
 21
-7215.0
 31
0.0
  0
LINE
  5
371
330
1D
100
AcDbEntity
  8
RelationBox
100
AcDbLine
 10
166.0
 20
-5186.0
 30
0.0
 11
206.0
 21
-5186.0
 31
0.0
  0
LINE
  5
372
330
1D
100
AcDbEntity
  8
RelationBox
100
AcDbLine
 10
166.0
 20
-5217.0
 30
0.0
 11
206.0
 21
-5217.0
 31
0.0
  0
LINE
  5
373
330
1D
100
AcDbEntity
  8
RelationBox
100
AcDbLine
 10
166.0
 20
-5186.0
 30
0.0
 11
166.0
 21
-5217.0
 31
0.0
  0
LINE
  5
374
330
1D
100
AcDbEntity
  8
RelationBox
100
AcDbLine
 10
206.0
 20
-5186.0
 30
0.0
 11
206.0
 21
-5217.0
 31
0.0
  0
LINE
  5
375
330
1D
100
AcDbEntity
  8
RelationBox
100
AcDbLine
 10
1034.0
 20
-5186.0
 30
0.0
 11
1074.0
 21
-5186.0
 31
0.0
  0
LINE
  5
376
330
1D
100
AcDbEntity
  8
RelationBox
100
AcDbLine
 10
1034.0
 20
-5217.0
 30
0.0
 11
1074.0
 21
-5217.0
 31
0.0
  0
LINE
  5
377
330
1D
100
AcDbEntity
  8
RelationBox
100
AcDbLine
 10
1034.0
 20
-5186.0
 30
0.0
 11
1034.0
 21
-5217.0
 31
0.0
  0
LINE
  5
378
330
1D
100
AcDbEntity
  8
RelationBox
100
AcDbLine
 10
1074.0
 20
-5186.0
 30
0.0
 11
1074.0
 21
-5217.0
 31
0.0
  0
LINE
  5
379
330
1D
100
AcDbEntity
  8
RelationBox
100
AcDbLine
 10
1468.0
 20
-5186.0
 30
0.0
 11
1508.0
 21
-5186.0
 31
0.0
  0
LINE
  5
37A
330
1D
100
AcDbEntity
  8
RelationBox
100
AcDbLine
 10
1468.0
 20
-5217.0
 30
0.0
 11
1508.0
 21
-5217.0
 31
0.0
  0
LINE
  5
37B
330
1D
100
AcDbEntity
  8
RelationBox
100
AcDbLine
 10
1468.0
 20
-5186.0
 30
0.0
 11
1468.0
 21
-5217.0
 31
0.0
  0
LINE
  5
37C
330
1D
100
AcDbEntity
  8
RelationBox
100
AcDbLine
 10
1508.0
 20
-5186.0
 30
0.0
 11
1508.0
 21
-5217.0
 31
0.0
  0
LINE
  5
37D
330
1D
100
AcDbEntity
  8
RelationBox
100
AcDbLine
 10
166.0
 20
-5630.0
 30
0.0
 11
206.0
 21
-5630.0
 31
0.0
  0
LINE
  5
37E
330
1D
100
AcDbEntity
  8
RelationBox
100
AcDbLine
 10
166.0
 20
-5661.0
 30
0.0
 11
206.0
 21
-5661.0
 31
0.0
  0
LINE
  5
37F
330
1D
100
AcDbEntity
  8
RelationBox
100
AcDbLine
 10
166.0
 20
-5630.0
 30
0.0
 11
166.0
 21
-5661.0
 31
0.0
  0
LINE
  5
380
330
1D
100
AcDbEntity
  8
RelationBox
100
AcDbLine
 10
206.0
 20
-5630.0
 30
0.0
 11
206.0
 21
-5661.0
 31
0.0
  0
LINE
  5
381
330
1D
100
AcDbEntity
  8
RelationBox
100
AcDbLine
 10
4320.0
 20
-7184.0
 30
0.0
 11
4360.0
 21
-7184.0
 31
0.0
  0
LINE
  5
382
330
1D
100
AcDbEntity
  8
RelationBox
100
AcDbLine
 10
4320.0
 20
-7215.0
 30
0.0
 11
4360.0
 21
-7215.0
 31
0.0
  0
LINE
  5
383
330
1D
100
AcDbEntity
  8
RelationBox
100
AcDbLine
 10
4320.0
 20
-7184.0
 30
0.0
 11
4320.0
 21
-7215.0
 31
0.0
  0
LINE
  5
384
330
1D
100
AcDbEntity
  8
RelationBox
100
AcDbLine
 10
4360.0
 20
-7184.0
 30
0.0
 11
4360.0
 21
-7215.0
 31
0.0
  0
LINE
  5
385
330
1D
100
AcDbEntity
  8
RelationBox
100
AcDbLine
 10
4320.0
 20
-7184.0
 30
0.0
 11
4360.0
 21
-7184.0
 31
0.0
  0
LINE
  5
386
330
1D
100
AcDbEntity
  8
RelationBox
100
AcDbLine
 10
4320.0
 20
-7215.0
 30
0.0
 11
4360.0
 21
-7215.0
 31
0.0
  0
LINE
  5
387
330
1D
100
AcDbEntity
  8
RelationBox
100
AcDbLine
 10
4320.0
 20
-7184.0
 30
0.0
 11
4320.0
 21
-7215.0
 31
0.0
  0
LINE
  5
388
330
1D
100
AcDbEntity
  8
RelationBox
100
AcDbLine
 10
4360.0
 20
-7184.0
 30
0.0
 11
4360.0
 21
-7215.0
 31
0.0
  0
LINE
  5
389
330
1D
100
AcDbEntity
  8
RelationBox
100
AcDbLine
 10
166.0
 20
-6296.0
 30
0.0
 11
206.0
 21
-6296.0
 31
0.0
  0
LINE
  5
38A
330
1D
100
AcDbEntity
  8
RelationBox
100
AcDbLine
 10
166.0
 20
-6327.0
 30
0.0
 11
206.0
 21
-6327.0
 31
0.0
  0
LINE
  5
38B
330
1D
100
AcDbEntity
  8
RelationBox
100
AcDbLine
 10
166.0
 20
-6296.0
 30
0.0
 11
166.0
 21
-6327.0
 31
0.0
  0
LINE
  5
38C
330
1D
100
AcDbEntity
  8
RelationBox
100
AcDbLine
 10
206.0
 20
-6296.0
 30
0.0
 11
206.0
 21
-6327.0
 31
0.0
  0
LINE
  5
38D
330
1D
100
AcDbEntity
  8
RelationBox
100
AcDbLine
 10
4320.0
 20
-7184.0
 30
0.0
 11
4360.0
 21
-7184.0
 31
0.0
  0
LINE
  5
38E
330
1D
100
AcDbEntity
  8
RelationBox
100
AcDbLine
 10
4320.0
 20
-7215.0
 30
0.0
 11
4360.0
 21
-7215.0
 31
0.0
  0
LINE
  5
38F
330
1D
100
AcDbEntity
  8
RelationBox
100
AcDbLine
 10
4320.0
 20
-7184.0
 30
0.0
 11
4320.0
 21
-7215.0
 31
0.0
  0
LINE
  5
390
330
1D
100
AcDbEntity
  8
RelationBox
100
AcDbLine
 10
4360.0
 20
-7184.0
 30
0.0
 11
4360.0
 21
-7215.0
 31
0.0
  0
ENDSEC
  0
SECTION
  2
OBJECTS
  0
DICTIONARY
  5
C
330
0
100
AcDbDictionary
281
     1
  3
ACAD_DETAILVIEWSTYLE
350
3D3
  3
ACAD_GROUP
350
D
  3
ACAD_LAYOUT
350
1A
  3
ACAD_MATERIAL
350
3C3
  3
ACAD_MLEADERSTYLE
350
3C9
  3
ACAD_MLINESTYLE
350
17
  3
ACAD_PLOTSETTINGS
350
19
  3
ACAD_PLOTSTYLENAME
350
E
  3
ACAD_SCALELIST
350
394
  3
ACAD_SECTIONVIEWSTYLE
350
3D4
  3
ACAD_TABLESTYLE
350
3C7
  3
ACAD_VISUALSTYLE
350
3AA
  3
ACDB_RECOMPOSE_DATA
350
3CF
  3
AcDbVariableDictionary
350
3CB
  0
DICTIONARY
  5
3D3
102
{ACAD_REACTORS
330
C
102
}
330
C
100
AcDbDictionary
281
     1
  0
DICTIONARY
  5
D
102
{ACAD_REACTORS
330
C
102
}
330
C
100
AcDbDictionary
281
     1
  0
DICTIONARY
  5
1A
102
{ACAD_REACTORS
330
C
102
}
330
C
100
AcDbDictionary
281
     1
  3
Layout1
350
1C
  3
Model
350
1E
  0
DICTIONARY
  5
3C3
102
{ACAD_REACTORS
330
C
102
}
330
C
100
AcDbDictionary
281
     1
  3
ByBlock
350
3C5
  3
ByLayer
350
3C4
  3
Global
350
3C6
  0
DICTIONARY
  5
3C9
102
{ACAD_REACTORS
330
C
102
}
330
C
100
AcDbDictionary
281
     1
  3
Standard
350
3CA
  0
DICTIONARY
  5
17
102
{ACAD_REACTORS
330
C
102
}
330
C
100
AcDbDictionary
281
     1
  3
Standard
350
18
  0
DICTIONARY
  5
19
102
{ACAD_REACTORS
330
C
102
}
330
C
100
AcDbDictionary
281
     1
  0
ACDBDICTIONARYWDFLT
  5
E
102
{ACAD_REACTORS
330
C
102
}
330
C
100
AcDbDictionary
281
     1
  3
Normal
350
F
100
AcDbDictionaryWithDefault
340
F
  0
DICTIONARY
  5
394
102
{ACAD_REACTORS
330
C
102
}
330
C
100
AcDbDictionary
281
     1
  3
A0
350
395
  3
A1
350
396
  3
A2
350
397
  3
A3
350
398
  3
A4
350
399
  3
A5
350
39A
  3
A6
350
39B
  3
A7
350
39C
  3
A8
350
39D
  3
A9
350
39E
  3
B1
350
39F
  3
B2
350
3A0
  3
B3
350
3A1
  3
B4
350
3A2
  3
B5
350
3A3
  3
B6
350
3A4
  3
B7
350
3A5
  0
DICTIONARY
  5
3D4
102
{ACAD_REACTORS
330
C
102
}
330
C
100
AcDbDictionary
281
     1
  0
DICTIONARY
  5
3C7
102
{ACAD_REACTORS
330
C
102
}
330
C
100
AcDbDictionary
281
     1
  3
Standard
350
3C8
  0
DICTIONARY
  5
3AA
102
{ACAD_REACTORS
330
C
102
}
330
C
100
AcDbDictionary
281
     1
  3
2dWireframe
350
3AF
  3
Basic
350
3B2
  3
Brighten
350
3B6
  3
ColorChange
350
3BA
  3
Conceptual
350
3B4
  3
Dim
350
3B5
  3
EdgeColorOff
350
3BD
  3
Facepattern
350
3B9
  3
Flat
350
3AB
  3
FlatWithEdges
350
3AC
  3
Gouraud
350
3AD
  3
GouraudWithEdges
350
3AE
  3
Hidden
350
3B1
  3
JitterOff
350
3BB
  3
Linepattern
350
3B8
  3
OverhangOff
350
3BC
  3
Realistic
350
3B3
  3
Shaded
350
3C2
  3
Shaded with edges
350
3C1
  3
Shades of Gray
350
3BE
  3
Sketchy
350
3BF
  3
Thicken
350
3B7
  3
Wireframe
350
3B0
  3
X-Ray
350
3C0
  0
XRECORD
  5
3CF
102
{ACAD_REACTORS
330
C
102
}
330
C
100
AcDbXrecord
280
     1
 90
        1
330
3C8
  0
DICTIONARY
  5
3CB
102
{ACAD_REACTORS
330
C
102
}
330
C
100
AcDbDictionary
281
     1
  3
CANNOSCALE
350
3CC
  3
CMLEADERSTYLE
350
3D1
  3
CTABLESTYLE
350
3D0
  3
MSLTSCALE
350
3D2
  0
LAYOUT
  5
1C
102
{ACAD_REACTORS
330
1A
102
}
330
1A
100
AcDbPlotSettings
  1

  2
none_device
  4

  6

 40
0.0
 41
0.0
 42
0.0
 43
0.0
 44
0.0
 45
0.0
 46
0.0
 47
0.0
 48
0.0
 49
0.0
140
0.0
141
0.0
142
1.0
143
1.0
 70
   688
 72
     0
 73
     0
 74
     5
  7

 75
    16
 76
     0
 77
     2
 78
   300
147
1.0
148
0.0
149
0.0
100
AcDbLayout
  1
Layout1
 70
     1
 71
     1
 10
0.0
 20
0.0
 11
12.0
 21
9.0
 12
0.0
 22
0.0
 32
0.0
 14
1.000000000000000E+20
 24
1.000000000000000E+20
 34
1.000000000000000E+20
 15
-1.000000000000000E+20
 25
-1.000000000000000E+20
 35
-1.000000000000000E+20
146
0.0
 13
0.0
 23
0.0
 33
0.0
 16
1.0
 26
0.0
 36
0.0
 17
0.0
 27
1.0
 37
0.0
 76
     0
330
1B
  0
LAYOUT
  5
1E
102
{ACAD_REACTORS
330
1A
102
}
330
1A
100
AcDbPlotSettings
  1

  2
none_device
  4
Letter_(8.50_x_11.00_Inches)
  6

 40
6.35
 41
6.35
 42
6.35000508
 43
6.35000508
 44
215.9
 45
279.4
 46
0.0
 47
0.0
 48
0.0
 49
0.0
140
0.0
141
0.0
142
1.0
143
1.0
 70
  1712
 72
     0
 73
     0
 74
     0
  7

 75
     0
 76
     0
 77
     2
 78
   300
147
1.0
148
0.0
149
0.0
100
AcDbLayout
  1
Model
 70
     1
 71
     0
 10
0.0
 20
0.0
 11
12.0
 21
9.0
 12
0.0
 22
0.0
 32
0.0
 14
1.000000000000000E+20
 24
1.000000000000000E+20
 34
1.000000000000000E+20
 15
-1.000000000000000E+20
 25
-1.000000000000000E+20
 35
-1.000000000000000E+20
146
0.0
 13
0.0
 23
0.0
 33
0.0
 16
1.0
 26
0.0
 36
0.0
 17
0.0
 27
1.0
 37
0.0
 76
     0
330
1D
331
21
  0
MATERIAL
  5
3C5
102
{ACAD_REACTORS
330
3C3
102
}
330
3C3
100
AcDbMaterial
  1
ByBlock
 72
     1
 94
      127
  0
MATERIAL
  5
3C4
102
{ACAD_REACTORS
330
3C3
102
}
330
3C3
100
AcDbMaterial
  1
ByLayer
 72
     1
 94
      127
  0
MATERIAL
  5
3C6
102
{ACAD_REACTORS
330
3C3
102
}
330
3C3
100
AcDbMaterial
  1
Global
 72
     1
 94
      127
  0
MLEADERSTYLE
  5
3CA
102
{ACAD_REACTORS
330
3C9
102
}
330
3C9
100
AcDbMLeaderStyle
179
     2
170
     2
171
     1
172
     0
 90
        2
 40
0.0
 41
0.0
173
     1
 91
-1056964608
340
14
 92
       -2
290
     1
 42
0.09
291
     1
 43
0.36
  3
Standard
341
0
 44
0.18
300

342
11
174
     1
178
     6
175
     1
176
     0
 93
-1056964608
 45
0.18
292
     0
297
     0
 46
0.18
343
0
 94
-1056964608
 47
1.0
 49
1.0
140
1.0
293
     1
141
0.0
294
     1
177
     0
142
1.0
295
     0
296
     0
143
0.125
271
     0
272
     9
273
     9
298
     0
  0
MLINESTYLE
  5
18
102
{ACAD_REACTORS
330
17
102
}
330
17
100
AcDbMlineStyle
  2
Standard
 70
     0
  3

 62
   256
 51
90.0
 52
90.0
 71
     2
 49
0.5
 62
   256
  6
BYLAYER
 49
-0.5
 62
   256
  6
BYLAYER
  0
ACDBPLACEHOLDER
  5
F
102
{ACAD_REACTORS
330
E
102
}
330
E
  0
SCALE
  5
395
102
{ACAD_REACTORS
330
394
102
}
330
394
100
AcDbScale
 70
     0
300
1:1
140
1.0
141
1.0
290
     1
  0
SCALE
  5
396
102
{ACAD_REACTORS
330
394
102
}
330
394
100
AcDbScale
 70
     0
300
1/128" = 1'-0"
140
0.0078125
141
12.0
290
     0
  0
SCALE
  5
397
102
{ACAD_REACTORS
330
394
102
}
330
394
100
AcDbScale
 70
     0
300
1/64" = 1'-0"
140
0.015625
141
12.0
290
     0
  0
SCALE
  5
398
102
{ACAD_REACTORS
330
394
102
}
330
394
100
AcDbScale
 70
     0
300
1/32" = 1'-0"
140
0.03125
141
12.0
290
     0
  0
SCALE
  5
399
102
{ACAD_REACTORS
330
394
102
}
330
394
100
AcDbScale
 70
     0
300
1/16" = 1'-0"
140
0.0625
141
12.0
290
     0
  0
SCALE
  5
39A
102
{ACAD_REACTORS
330
394
102
}
330
394
100
AcDbScale
 70
     0
300
3/32" = 1'-0"
140
0.09375
141
12.0
290
     0
  0
SCALE
  5
39B
102
{ACAD_REACTORS
330
394
102
}
330
394
100
AcDbScale
 70
     0
300
1/8" = 1'-0"
140
0.125
141
12.0
290
     0
  0
SCALE
  5
39C
102
{ACAD_REACTORS
330
394
102
}
330
394
100
AcDbScale
 70
     0
300
3/16" = 1'-0"
140
0.1875
141
12.0
290
     0
  0
SCALE
  5
39D
102
{ACAD_REACTORS
330
394
102
}
330
394
100
AcDbScale
 70
     0
300
1/4" = 1'-0"
140
0.25
141
12.0
290
     0
  0
SCALE
  5
39E
102
{ACAD_REACTORS
330
394
102
}
330
394
100
AcDbScale
 70
     0
300
3/8" = 1'-0"
140
0.375
141
12.0
290
     0
  0
SCALE
  5
39F
102
{ACAD_REACTORS
330
394
102
}
330
394
100
AcDbScale
 70
     0
300
1/2" = 1'-0"
140
0.5
141
12.0
290
     0
  0
SCALE
  5
3A0
102
{ACAD_REACTORS
330
394
102
}
330
394
100
AcDbScale
 70
     0
300
3/4" = 1'-0"
140
0.75
141
12.0
290
     0
  0
SCALE
  5
3A1
102
{ACAD_REACTORS
330
394
102
}
330
394
100
AcDbScale
 70
     0
300
1" = 1'-0"
140
1.0
141
12.0
290
     0
  0
SCALE
  5
3A2
102
{ACAD_REACTORS
330
394
102
}
330
394
100
AcDbScale
 70
     0
300
1-1/2" = 1'-0"
140
1.5
141
12.0
290
     0
  0
SCALE
  5
3A3
102
{ACAD_REACTORS
330
394
102
}
330
394
100
AcDbScale
 70
     0
300
3" = 1'-0"
140
3.0
141
12.0
290
     0
  0
SCALE
  5
3A4
102
{ACAD_REACTORS
330
394
102
}
330
394
100
AcDbScale
 70
     0
300
6" = 1'-0"
140
6.0
141
12.0
290
     0
  0
SCALE
  5
3A5
102
{ACAD_REACTORS
330
394
102
}
330
394
100
AcDbScale
 70
     0
300
1'-0" = 1'-0"
140
12.0
141
12.0
290
     0
  0
TABLESTYLE
  5
3C8
102
{ACAD_REACTORS
330
3C7
102
}
102
{ACAD_XDICTIONARY
360
3CD
102
}
330
3C7
100
AcDbTableStyle
  3
Standard
 70
     0
 71
     0
 40
0.06
 41
0.06
280
     0
281
     0
  7
Standard
140
0.18
170
     2
 62
     0
 63
   257
283
     0
 90
        4
 91
        0
  1

274
    -2
284
     1
 64
     0
275
    -2
285
     1
 65
     0
276
    -2
286
     1
 66
     0
277
    -2
287
     1
 67
     0
278
    -2
288
     1
 68
     0
279
    -2
289
     1
 69
     0
  7
Standard
140
0.25
170
     5
 62
     0
 63
   257
283
     0
 90
        4
 91
        0
  1

274
    -2
284
     1
 64
     0
275
    -2
285
     1
 65
     0
276
    -2
286
     1
 66
     0
277
    -2
287
     1
 67
     0
278
    -2
288
     1
 68
     0
279
    -2
289
     1
 69
     0
  7
Standard
140
0.18
170
     5
 62
     0
 63
   257
283
     0
 90
        4
 91
        0
  1

274
    -2
284
     1
 64
     0
275
    -2
285
     1
 65
     0
276
    -2
286
     1
 66
     0
277
    -2
287
     1
 67
     0
278
    -2
288
     1
 68
     0
279
    -2
289
     1
 69
     0
  0
VISUALSTYLE
  5
3AF
102
{ACAD_REACTORS
330
3AA
102
}
330
3AA
100
AcDbVisualStyle
  2
2dWireframe
 70
     4
177
     3
291
     0
 70
    58
 90
        0
176
     1
 90
        2
176
     1
 90
        0
176
     1
 90
        0
176
     1
 40
0.6
176
     1
 40
30.0
176
     1
 62
     7
420
 16777215
176
     1
 90
        1
176
     1
 90
        4
176
     1
 62
     7
176
     1
 62
   257
176
     1
 90
        1
176
     1
 90
        1
176
     1
 40
1.0
176
     1
 90
        0
176
     1
 62
   257
176
     1
 40
1.0
176
     1
 90
        1
176
     1
 90
        6
176
     1
 90
        2
176
     1
 62
     7
176
     1
 90
        5
176
     1
 90
        0
176
     1
 90
        0
176
     1
290
     0
176
     1
 90
        1
176
     1
 40
0.0
176
     1
 90
        0
176
     1
290
     1
176
     1
290
     1
176
     1
290
     0
176
     1
290
     0
176
     1
290
     0
176
     1
290
     0
176
     1
290
     0
176
     1
290
     0
176
     1
290
     0
176
     1
 90
       50
176
     1
 40
0.0
176
     1
 40
1.0
176
     1
 90
        0
176
     1
 62
    18
420
        0
176
     1
 90
       50
176
     1
 90
        3
176
     1
 62
     5
420
      255
176
     1
290
     0
176
     1
 90
       50
176
     1
 90
       50
176
     1
 90
       50
176
     1
290
     0
176
     1
 90
       50
176
     1
 62
   256
176
     0
 40
1.0
176
     0
 90
        2
176
     1
  1
strokes_ogs.tif
176
     1
290
     0
176
     1
 40
1.0
176
     1
 40
1.0
176
     1
  0
VISUALSTYLE
  5
3B2
102
{ACAD_REACTORS
330
3AA
102
}
330
3AA
100
AcDbVisualStyle
  2
Basic
 70
     7
177
     3
291
     1
 70
    58
 90
        1
176
     1
 90
        0
176
     1
 90
        1
176
     1
 90
        0
176
     1
 40
0.6
176
     1
 40
30.0
176
     1
 62
     7
420
 16777215
176
     1
 90
        0
176
     1
 90
        4
176
     1
 62
     7
176
     1
 62
   257
176
     1
 90
        1
176
     1
 90
        1
176
     1
 40
1.0
176
     1
 90
        8
176
     1
 62
     7
176
     1
 40
1.0
176
     1
 90
        1
176
     1
 90
        6
176
     1
 90
        2
176
     1
 62
     7
176
     1
 90
        5
176
     1
 90
        0
176
     1
 90
        0
176
     1
290
     0
176
     1
 90
        1
176
     1
 40
0.0
176
     1
 90
        0
176
     1
290
     0
176
     1
290
     1
176
     1
290
     1
176
     1
290
     0
176
     1
290
     0
176
     1
290
     0
176
     1
290
     0
176
     1
290
     0
176
     1
290
     0
176
     1
 90
       50
176
     1
 40
0.0
176
     1
 40
1.0
176
     1
 90
        0
176
     1
 62
    18
420
        0
176
     1
 90
       50
176
     1
 90
        3
176
     1
 62
     5
420
      255
176
     1
290
     0
176
     1
 90
       50
176
     1
 90
       50
176
     1
 90
       50
176
     1
290
     0
176
     1
 90
       50
176
     1
 62
   256
176
     0
 40
1.0
176
     0
 90
        2
176
     1
  1
strokes_ogs.tif
176
     1
290
     0
176
     1
 40
1.0
176
     1
 40
1.0
176
     1
  0
VISUALSTYLE
  5
3B6
102
{ACAD_REACTORS
330
3AA
102
}
330
3AA
100
AcDbVisualStyle
  2
Brighten
 70
    12
177
     3
291
     1
 70
    58
 90
        2
176
     1
 90
        2
176
     1
 90
        0
176
     1
 90
        0
176
     1
 40
0.6
176
     1
 40
30.0
176
     1
 62
     7
420
 16777215
176
     1
 90
        1
176
     1
 90
        4
176
     1
 62
     7
176
     1
 62
   257
176
     1
 90
        1
176
     1
 90
        1
176
     1
 40
1.0
176
     1
 90
        8
176
     1
 62
     7
176
     1
 40
1.0
176
     1
 90
        1
176
     1
 90
        6
176
     1
 90
        2
176
     1
 62
     7
176
     1
 90
        5
176
     1
 90
        0
176
     1
 90
        0
176
     1
290
     0
176
     1
 90
        1
176
     1
 40
50.0
176
     1
 90
        0
176
     1
290
     0
176
     1
290
     1
176
     1
290
     1
176
     1
290
     0
176
     1
290
     0
176
     1
290
     0
176
     1
290
     0
176
     1
290
     0
176
     1
290
     0
176
     1
 90
       50
176
     1
 40
0.0
176
     1
 40
1.0
176
     1
 90
        0
176
     1
 62
    18
420
        0
176
     1
 90
       50
176
     1
 90
        3
176
     1
 62
     5
420
      255
176
     1
290
     0
176
     1
 90
       50
176
     1
 90
       50
176
     1
 90
       50
176
     1
290
     0
176
     1
 90
       50
176
     1
 62
   256
176
     0
 40
1.0
176
     0
 90
        2
176
     1
  1
strokes_ogs.tif
176
     1
290
     0
176
     1
 40
1.0
176
     1
 40
1.0
176
     1
  0
VISUALSTYLE
  5
3BA
102
{ACAD_REACTORS
330
3AA
102
}
330
3AA
100
AcDbVisualStyle
  2
ColorChange
 70
    16
177
     3
291
     1
 70
    58
 90
        2
176
     1
 90
        2
176
     1
 90
        3
176
     1
 90
        0
176
     1
 40
0.6
176
     1
 40
30.0
176
     1
 62
     8
420
  8421504
176
     1
 90
        1
176
     1
 90
        4
176
     1
 62
     7
176
     1
 62
   257
176
     1
 90
        1
176
     1
 90
        1
176
     1
 40
1.0
176
     1
 90
        8
176
     1
 62
     8
420
  8421504
176
     1
 40
1.0
176
     1
 90
        1
176
     1
 90
        6
176
     1
 90
        2
176
     1
 62
     7
176
     1
 90
        5
176
     1
 90
        0
176
     1
 90
        0
176
     1
290
     0
176
     1
 90
        1
176
     1
 40
0.0
176
     1
 90
        0
176
     1
290
     0
176
     1
290
     1
176
     1
290
     1
176
     1
290
     0
176
     1
290
     0
176
     1
290
     0
176
     1
290
     0
176
     1
290
     0
176
     1
290
     0
176
     1
 90
       50
176
     1
 40
0.0
176
     1
 40
1.0
176
     1
 90
        0
176
     1
 62
    18
420
        0
176
     1
 90
       50
176
     1
 90
        3
176
     1
 62
     5
420
      255
176
     1
290
     0
176
     1
 90
       50
176
     1
 90
       50
176
     1
 90
       50
176
     1
290
     0
176
     1
 90
       50
176
     1
 62
   256
176
     0
 40
1.0
176
     0
 90
        2
176
     1
  1
strokes_ogs.tif
176
     1
290
     0
176
     1
 40
1.0
176
     1
 40
1.0
176
     1
  0
VISUALSTYLE
  5
3B4
102
{ACAD_REACTORS
330
3AA
102
}
330
3AA
100
AcDbVisualStyle
  2
Conceptual
 70
     9
177
     3
291
     0
 70
    58
 90
        3
176
     1
 90
        2
176
     1
 90
        0
176
     1
 90
        0
176
     1
 40
0.6
176
     1
 40
30.0
176
     1
 62
     7
420
 16777215
176
     1
 90
        2
176
     1
 90
        2
176
     1
 62
     7
176
     1
 62
   257
176
     1
 90
        1
176
     1
 90
        1
176
     1
 40
179.0
176
     1
 90
        8
176
     1
 62
     7
176
     1
 40
1.0
176
     1
 90
        1
176
     1
 90
        6
176
     1
 90
        2
176
     1
 62
     7
176
     1
 90
        3
176
     1
 90
        0
176
     1
 90
        0
176
     1
290
     0
176
     1
 90
        1
176
     1
 40
0.0
176
     1
 90
        0
176
     1
290
     0
176
     1
290
     1
176
     1
290
     1
176
     1
290
     0
176
     1
290
     0
176
     1
290
     0
176
     1
290
     0
176
     1
290
     0
176
     1
290
     0
176
     1
 90
       50
176
     1
 40
0.0
176
     1
 40
1.0
176
     1
 90
        0
176
     1
 62
    18
420
        0
176
     1
 90
       50
176
     1
 90
        3
176
     1
 62
     5
420
      255
176
     1
290
     0
176
     1
 90
       50
176
     1
 90
       50
176
     1
 90
       50
176
     1
290
     0
176
     1
 90
       50
176
     1
 62
   256
176
     0
 40
1.0
176
     0
 90
        2
176
     1
  1
strokes_ogs.tif
176
     1
290
     0
176
     1
 40
1.0
176
     1
 40
1.0
176
     1
  0
VISUALSTYLE
  5
3B5
102
{ACAD_REACTORS
330
3AA
102
}
330
3AA
100
AcDbVisualStyle
  2
Dim
 70
    11
177
     3
291
     1
 70
    58
 90
        2
176
     1
 90
        2
176
     1
 90
        0
176
     1
 90
        0
176
     1
 40
0.6
176
     1
 40
30.0
176
     1
 62
     7
420
 16777215
176
     1
 90
        1
176
     1
 90
        4
176
     1
 62
     7
176
     1
 62
   257
176
     1
 90
        1
176
     1
 90
        1
176
     1
 40
1.0
176
     1
 90
        8
176
     1
 62
     7
176
     1
 40
1.0
176
     1
 90
        1
176
     1
 90
        6
176
     1
 90
        2
176
     1
 62
     7
176
     1
 90
        5
176
     1
 90
        0
176
     1
 90
        0
176
     1
290
     0
176
     1
 90
        1
176
     1
 40
-50.0
176
     1
 90
        0
176
     1
290
     0
176
     1
290
     1
176
     1
290
     1
176
     1
290
     0
176
     1
290
     0
176
     1
290
     0
176
     1
290
     0
176
     1
290
     0
176
     1
290
     0
176
     1
 90
       50
176
     1
 40
0.0
176
     1
 40
1.0
176
     1
 90
        0
176
     1
 62
    18
420
        0
176
     1
 90
       50
176
     1
 90
        3
176
     1
 62
     5
420
      255
176
     1
290
     0
176
     1
 90
       50
176
     1
 90
       50
176
     1
 90
       50
176
     1
290
     0
176
     1
 90
       50
176
     1
 62
   256
176
     0
 40
1.0
176
     0
 90
        2
176
     1
  1
strokes_ogs.tif
176
     1
290
     0
176
     1
 40
1.0
176
     1
 40
1.0
176
     1
  0
VISUALSTYLE
  5
3BD
102
{ACAD_REACTORS
330
3AA
102
}
330
3AA
100
AcDbVisualStyle
  2
EdgeColorOff
 70
    22
177
     3
291
     1
 70
    58
 90
        2
176
     0
 90
        2
176
     0
 90
        0
176
     0
 90
        0
176
     0
 40
0.6
176
     0
 40
30.0
176
     0
 62
     7
420
 16777215
176
     0
 90
        1
176
     0
 90
        4
176
     0
 62
     7
176
     0
 62
   257
176
     0
 90
        1
176
     0
 90
        1
176
     0
 40
1.0
176
     0
 90
        8
176
     2
 62
     7
176
     0
 40
1.0
176
     0
 90
        1
176
     0
 90
        6
176
     0
 90
        2
176
     0
 62
     7
176
     0
 90
        5
176
     0
 90
        0
176
     0
 90
        0
176
     0
290
     0
176
     0
 90
        1
176
     0
 40
0.0
176
     0
 90
        0
176
     0
290
     0
176
     0
290
     1
176
     0
290
     1
176
     0
290
     0
176
     0
290
     0
176
     0
290
     0
176
     0
290
     0
176
     0
290
     0
176
     0
290
     0
176
     0
 90
       50
176
     0
 40
0.0
176
     0
 40
1.0
176
     0
 90
        0
176
     0
 62
    18
420
        0
176
     0
 90
       50
176
     0
 90
        3
176
     0
 62
     5
420
      255
176
     0
290
     0
176
     0
 90
       50
176
     0
 90
       50
176
     0
 90
       50
176
     0
290
     0
176
     0
 90
       50
176
     0
 62
   256
176
     0
 40
1.0
176
     0
 90
        2
176
     0
  1
strokes_ogs.tif
176
     0
290
     0
176
     0
 40
1.0
176
     0
 40
1.0
176
     0
  0
VISUALSTYLE
  5
3B9
102
{ACAD_REACTORS
330
3AA
102
}
330
3AA
100
AcDbVisualStyle
  2
Facepattern
 70
    15
177
     3
291
     1
 70
    58
 90
        2
176
     1
 90
        2
176
     1
 90
        0
176
     1
 90
        0
176
     1
 40
0.6
176
     1
 40
30.0
176
     1
 62
     7
420
 16777215
176
     1
 90
        1
176
     1
 90
        4
176
     1
 62
     7
176
     1
 62
   257
176
     1
 90
        1
176
     1
 90
        1
176
     1
 40
1.0
176
     1
 90
        8
176
     1
 62
     7
176
     1
 40
1.0
176
     1
 90
        1
176
     1
 90
        6
176
     1
 90
        2
176
     1
 62
     7
176
     1
 90
        5
176
     1
 90
        0
176
     1
 90
        0
176
     1
290
     0
176
     1
 90
        1
176
     1
 40
0.0
176
     1
 90
        0
176
     1
290
     0
176
     1
290
     1
176
     1
290
     1
176
     1
290
     0
176
     1
290
     0
176
     1
290
     0
176
     1
290
     0
176
     1
290
     0
176
     1
290
     0
176
     1
 90
       50
176
     1
 40
0.0
176
     1
 40
1.0
176
     1
 90
        0
176
     1
 62
    18
420
        0
176
     1
 90
       50
176
     1
 90
        3
176
     1
 62
     5
420
      255
176
     1
290
     0
176
     1
 90
       50
176
     1
 90
       50
176
     1
 90
       50
176
     1
290
     0
176
     1
 90
       50
176
     1
 62
   256
176
     0
 40
1.0
176
     0
 90
        2
176
     1
  1
strokes_ogs.tif
176
     1
290
     0
176
     1
 40
1.0
176
     1
 40
1.0
176
     1
  0
VISUALSTYLE
  5
3AB
102
{ACAD_REACTORS
330
3AA
102
}
330
3AA
100
AcDbVisualStyle
  2
Flat
 70
     0
177
     3
291
     1
 70
    58
 90
        2
176
     1
 90
        1
176
     1
 90
        1
176
     1
 90
        2
176
     1
 40
0.6
176
     1
 40
30.0
176
     1
 62
     7
420
 16777215
176
     1
 90
        0
176
     1
 90
        0
176
     1
 62
     7
176
     1
 62
   257
176
     1
 90
        1
176
     1
 90
        1
176
     1
 40
1.0
176
     1
 90
        8
176
     1
 62
     7
176
     1
 40
1.0
176
     1
 90
        1
176
     1
 90
        6
176
     1
 90
        2
176
     1
 62
     7
176
     1
 90
        5
176
     1
 90
        0
176
     1
 90
        0
176
     1
290
     0
176
     1
 90
       13
176
     1
 40
0.0
176
     1
 90
        0
176
     1
290
     0
176
     1
290
     1
176
     1
290
     1
176
     1
290
     0
176
     1
290
     0
176
     1
290
     0
176
     1
290
     0
176
     1
290
     0
176
     1
290
     0
176
     1
 90
       50
176
     1
 40
0.0
176
     1
 40
1.0
176
     1
 90
        0
176
     1
 62
    18
420
        0
176
     1
 90
       50
176
     1
 90
        3
176
     1
 62
     5
420
      255
176
     1
290
     0
176
     1
 90
       50
176
     1
 90
       50
176
     1
 90
       50
176
     1
290
     0
176
     1
 90
       50
176
     1
 62
   256
176
     0
 40
1.0
176
     0
 90
        2
176
     1
  1
strokes_ogs.tif
176
     1
290
     0
176
     1
 40
1.0
176
     1
 40
1.0
176
     1
  0
VISUALSTYLE
  5
3AC
102
{ACAD_REACTORS
330
3AA
102
}
330
3AA
100
AcDbVisualStyle
  2
FlatWithEdges
 70
     1
177
     3
291
     1
 70
    58
 90
        2
176
     1
 90
        1
176
     1
 90
        1
176
     1
 90
        2
176
     1
 40
0.6
176
     1
 40
30.0
176
     1
 62
     7
420
 16777215
176
     1
 90
        1
176
     1
 90
        0
176
     1
 62
     7
176
     1
 62
   257
176
     1
 90
        1
176
     1
 90
        1
176
     1
 40
1.0
176
     1
 90
        0
176
     1
 62
   257
176
     1
 40
1.0
176
     1
 90
        1
176
     1
 90
        6
176
     1
 90
        2
176
     1
 62
     7
176
     1
 90
        5
176
     1
 90
        0
176
     1
 90
        0
176
     1
290
     0
176
     1
 90
       13
176
     1
 40
0.0
176
     1
 90
        0
176
     1
290
     0
176
     1
290
     1
176
     1
290
     1
176
     1
290
     0
176
     1
290
     0
176
     1
290
     0
176
     1
290
     0
176
     1
290
     0
176
     1
290
     0
176
     1
 90
       50
176
     1
 40
0.0
176
     1
 40
1.0
176
     1
 90
        0
176
     1
 62
    18
420
        0
176
     1
 90
       50
176
     1
 90
        3
176
     1
 62
     5
420
      255
176
     1
290
     0
176
     1
 90
       50
176
     1
 90
       50
176
     1
 90
       50
176
     1
290
     0
176
     1
 90
       50
176
     1
 62
   256
176
     0
 40
1.0
176
     0
 90
        2
176
     1
  1
strokes_ogs.tif
176
     1
290
     0
176
     1
 40
1.0
176
     1
 40
1.0
176
     1
  0
VISUALSTYLE
  5
3AD
102
{ACAD_REACTORS
330
3AA
102
}
330
3AA
100
AcDbVisualStyle
  2
Gouraud
 70
     2
177
     3
291
     1
 70
    58
 90
        2
176
     1
 90
        2
176
     1
 90
        1
176
     1
 90
        2
176
     1
 40
0.6
176
     1
 40
30.0
176
     1
 62
     7
420
 16777215
176
     1
 90
        0
176
     1
 90
        0
176
     1
 62
     7
176
     1
 62
   257
176
     1
 90
        1
176
     1
 90
        1
176
     1
 40
1.0
176
     1
 90
        0
176
     1
 62
     7
176
     1
 40
1.0
176
     1
 90
        1
176
     1
 90
        6
176
     1
 90
        2
176
     1
 62
     7
176
     1
 90
        5
176
     1
 90
        0
176
     1
 90
        0
176
     1
290
     0
176
     1
 90
       13
176
     1
 40
0.0
176
     1
 90
        0
176
     1
290
     0
176
     1
290
     1
176
     1
290
     1
176
     1
290
     0
176
     1
290
     0
176
     1
290
     0
176
     1
290
     0
176
     1
290
     0
176
     1
290
     0
176
     1
 90
       50
176
     1
 40
0.0
176
     1
 40
1.0
176
     1
 90
        0
176
     1
 62
    18
420
        0
176
     1
 90
       50
176
     1
 90
        3
176
     1
 62
     5
420
      255
176
     1
290
     0
176
     1
 90
       50
176
     1
 90
       50
176
     1
 90
       50
176
     1
290
     0
176
     1
 90
       50
176
     1
 62
   256
176
     0
 40
1.0
176
     0
 90
        2
176
     1
  1
strokes_ogs.tif
176
     1
290
     0
176
     1
 40
1.0
176
     1
 40
1.0
176
     1
  0
VISUALSTYLE
  5
3AE
102
{ACAD_REACTORS
330
3AA
102
}
330
3AA
100
AcDbVisualStyle
  2
GouraudWithEdges
 70
     3
177
     3
291
     1
 70
    58
 90
        2
176
     1
 90
        2
176
     1
 90
        1
176
     1
 90
        2
176
     1
 40
0.6
176
     1
 40
30.0
176
     1
 62
     7
420
 16777215
176
     1
 90
        1
176
     1
 90
        0
176
     1
 62
     7
176
     1
 62
   257
176
     1
 90
        1
176
     1
 90
        1
176
     1
 40
1.0
176
     1
 90
        0
176
     1
 62
   257
176
     1
 40
1.0
176
     1
 90
        1
176
     1
 90
        6
176
     1
 90
        2
176
     1
 62
     7
176
     1
 90
        5
176
     1
 90
        0
176
     1
 90
        0
176
     1
290
     0
176
     1
 90
       13
176
     1
 40
0.0
176
     1
 90
        0
176
     1
290
     0
176
     1
290
     1
176
     1
290
     1
176
     1
290
     0
176
     1
290
     0
176
     1
290
     0
176
     1
290
     0
176
     1
290
     0
176
     1
290
     0
176
     1
 90
       50
176
     1
 40
0.0
176
     1
 40
1.0
176
     1
 90
        0
176
     1
 62
    18
420
        0
176
     1
 90
       50
176
     1
 90
        3
176
     1
 62
     5
420
      255
176
     1
290
     0
176
     1
 90
       50
176
     1
 90
       50
176
     1
 90
       50
176
     1
290
     0
176
     1
 90
       50
176
     1
 62
   256
176
     0
 40
1.0
176
     0
 90
        2
176
     1
  1
strokes_ogs.tif
176
     1
290
     0
176
     1
 40
1.0
176
     1
 40
1.0
176
     1
  0
VISUALSTYLE
  5
3B1
102
{ACAD_REACTORS
330
3AA
102
}
330
3AA
100
AcDbVisualStyle
  2
Hidden
 70
     6
177
     3
291
     0
 70
    58
 90
        1
176
     1
 90
        2
176
     1
 90
        2
176
     1
 90
        0
176
     1
 40
0.6
176
     1
 40
30.0
176
     1
 62
     7
420
 16777215
176
     1
 90
        2
176
     1
 90
        2
176
     1
 62
     7
176
     1
 62
   257
176
     1
 90
        2
176
     1
 90
        1
176
     1
 40
40.0
176
     1
 90
        0
176
     1
 62
   257
176
     1
 40
1.0
176
     1
 90
        1
176
     1
 90
        6
176
     1
 90
        2
176
     1
 62
     7
176
     1
 90
        3
176
     1
 90
        0
176
     1
 90
        0
176
     1
290
     0
176
     1
 90
        1
176
     1
 40
0.0
176
     1
 90
        0
176
     1
290
     0
176
     1
290
     1
176
     1
290
     1
176
     1
290
     0
176
     1
290
     0
176
     1
290
     0
176
     1
290
     0
176
     1
290
     0
176
     1
290
     0
176
     1
 90
       50
176
     1
 40
0.0
176
     1
 40
1.0
176
     1
 90
        0
176
     1
 62
    18
420
        0
176
     1
 90
       50
176
     1
 90
        3
176
     1
 62
     5
420
      255
176
     1
290
     0
176
     1
 90
       50
176
     1
 90
       50
176
     1
 90
       50
176
     1
290
     0
176
     1
 90
       50
176
     1
 62
   256
176
     0
 40
1.0
176
     0
 90
        2
176
     1
  1
strokes_ogs.tif
176
     1
290
     0
176
     1
 40
1.0
176
     1
 40
1.0
176
     1
  0
VISUALSTYLE
  5
3BB
102
{ACAD_REACTORS
330
3AA
102
}
330
3AA
100
AcDbVisualStyle
  2
JitterOff
 70
    20
177
     3
291
     1
 70
    58
 90
        2
176
     0
 90
        2
176
     0
 90
        0
176
     0
 90
        0
176
     0
 40
0.6
176
     0
 40
30.0
176
     0
 62
     7
420
 16777215
176
     0
 90
        1
176
     0
 90
        4
176
     0
 62
     7
176
     0
 62
   257
176
     0
 90
        1
176
     0
 90
        1
176
     0
 40
1.0
176
     0
 90
       10
176
     2
 62
     7
176
     0
 40
1.0
176
     0
 90
        1
176
     0
 90
        6
176
     0
 90
        2
176
     0
 62
     7
176
     0
 90
        5
176
     0
 90
        0
176
     0
 90
        0
176
     0
290
     0
176
     0
 90
        1
176
     0
 40
0.0
176
     0
 90
        0
176
     0
290
     0
176
     0
290
     1
176
     0
290
     1
176
     0
290
     0
176
     0
290
     0
176
     0
290
     0
176
     0
290
     0
176
     0
290
     0
176
     0
290
     0
176
     0
 90
       50
176
     0
 40
0.0
176
     0
 40
1.0
176
     0
 90
        0
176
     0
 62
    18
420
        0
176
     0
 90
       50
176
     0
 90
        3
176
     0
 62
     5
420
      255
176
     0
290
     0
176
     0
 90
       50
176
     0
 90
       50
176
     0
 90
       50
176
     0
290
     0
176
     0
 90
       50
176
     0
 62
   256
176
     0
 40
1.0
176
     0
 90
        2
176
     0
  1
strokes_ogs.tif
176
     0
290
     0
176
     0
 40
1.0
176
     0
 40
1.0
176
     0
  0
VISUALSTYLE
  5
3B8
102
{ACAD_REACTORS
330
3AA
102
}
330
3AA
100
AcDbVisualStyle
  2
Linepattern
 70
    14
177
     3
291
     1
 70
    58
 90
        2
176
     1
 90
        2
176
     1
 90
        0
176
     1
 90
        0
176
     1
 40
0.6
176
     1
 40
30.0
176
     1
 62
     7
420
 16777215
176
     1
 90
        1
176
     1
 90
        4
176
     1
 62
     7
176
     1
 62
   257
176
     1
 90
        7
176
     1
 90
        7
176
     1
 40
1.0
176
     1
 90
        8
176
     1
 62
     7
176
     1
 40
1.0
176
     1
 90
        1
176
     1
 90
        6
176
     1
 90
        2
176
     1
 62
     7
176
     1
 90
        5
176
     1
 90
        0
176
     1
 90
        0
176
     1
290
     0
176
     1
 90
        1
176
     1
 40
0.0
176
     1
 90
        0
176
     1
290
     0
176
     1
290
     1
176
     1
290
     1
176
     1
290
     0
176
     1
290
     0
176
     1
290
     0
176
     1
290
     0
176
     1
290
     0
176
     1
290
     0
176
     1
 90
       50
176
     1
 40
0.0
176
     1
 40
1.0
176
     1
 90
        0
176
     1
 62
    18
420
        0
176
     1
 90
       50
176
     1
 90
        3
176
     1
 62
     5
420
      255
176
     1
290
     0
176
     1
 90
       50
176
     1
 90
       50
176
     1
 90
       50
176
     1
290
     0
176
     1
 90
       50
176
     1
 62
   256
176
     0
 40
1.0
176
     0
 90
        2
176
     1
  1
strokes_ogs.tif
176
     1
290
     0
176
     1
 40
1.0
176
     1
 40
1.0
176
     1
  0
VISUALSTYLE
  5
3BC
102
{ACAD_REACTORS
330
3AA
102
}
330
3AA
100
AcDbVisualStyle
  2
OverhangOff
 70
    21
177
     3
291
     1
 70
    58
 90
        2
176
     0
 90
        2
176
     0
 90
        0
176
     0
 90
        0
176
     0
 40
0.6
176
     0
 40
30.0
176
     0
 62
     7
420
 16777215
176
     0
 90
        1
176
     0
 90
        4
176
     0
 62
     7
176
     0
 62
   257
176
     0
 90
        1
176
     0
 90
        1
176
     0
 40
1.0
176
     0
 90
        9
176
     2
 62
     7
176
     0
 40
1.0
176
     0
 90
        1
176
     0
 90
        6
176
     0
 90
        2
176
     0
 62
     7
176
     0
 90
        5
176
     0
 90
        0
176
     0
 90
        0
176
     0
290
     0
176
     0
 90
        1
176
     0
 40
0.0
176
     0
 90
        0
176
     0
290
     0
176
     0
290
     1
176
     0
290
     1
176
     0
290
     0
176
     0
290
     0
176
     0
290
     0
176
     0
290
     0
176
     0
290
     0
176
     0
290
     0
176
     0
 90
       50
176
     0
 40
0.0
176
     0
 40
1.0
176
     0
 90
        0
176
     0
 62
    18
420
        0
176
     0
 90
       50
176
     0
 90
        3
176
     0
 62
     5
420
      255
176
     0
290
     0
176
     0
 90
       50
176
     0
 90
       50
176
     0
 90
       50
176
     0
290
     0
176
     0
 90
       50
176
     0
 62
   256
176
     0
 40
1.0
176
     0
 90
        2
176
     0
  1
strokes_ogs.tif
176
     0
290
     0
176
     0
 40
1.0
176
     0
 40
1.0
176
     0
  0
VISUALSTYLE
  5
3B3
102
{ACAD_REACTORS
330
3AA
102
}
330
3AA
100
AcDbVisualStyle
  2
Realistic
 70
     8
177
     3
291
     0
 70
    58
 90
        2
176
     1
 90
        3
176
     1
 90
        0
176
     1
 90
        2
176
     1
 40
0.6
176
     1
 40
30.0
176
     1
 62
     7
420
 16777215
176
     1
 90
        0
176
     1
 90
        0
176
     1
 62
     7
176
     1
 62
   257
176
     1
 90
        1
176
     1
 90
        1
176
     1
 40
1.0
176
     1
 90
        8
176
     1
 62
   257
176
     1
 40
1.0
176
     1
 90
        1
176
     1
 90
        6
176
     1
 90
        2
176
     1
 62
     7
176
     1
 90
        3
176
     1
 90
        0
176
     1
 90
        0
176
     1
290
     0
176
     1
 90
       13
176
     1
 40
0.0
176
     1
 90
        0
176
     1
290
     0
176
     1
290
     1
176
     1
290
     1
176
     1
290
     0
176
     1
290
     0
176
     1
290
     0
176
     1
290
     0
176
     1
290
     0
176
     1
290
     0
176
     1
 90
       50
176
     1
 40
0.0
176
     1
 40
1.0
176
     1
 90
        0
176
     1
 62
    18
420
        0
176
     1
 90
       50
176
     1
 90
        3
176
     1
 62
     5
420
      255
176
     1
290
     0
176
     1
 90
       50
176
     1
 90
       50
176
     1
 90
       50
176
     1
290
     0
176
     1
 90
       50
176
     1
 62
   256
176
     0
 40
1.0
176
     0
 90
        2
176
     1
  1
strokes_ogs.tif
176
     1
290
     0
176
     1
 40
1.0
176
     1
 40
1.0
176
     1
  0
VISUALSTYLE
  5
3C2
102
{ACAD_REACTORS
330
3AA
102
}
330
3AA
100
AcDbVisualStyle
  2
Shaded
 70
    27
177
     3
291
     0
 70
    58
 90
        2
176
     1
 90
        2
176
     1
 90
        1
176
     1
 90
        2
176
     1
 40
0.6
176
     1
 40
30.0
176
     1
 62
     7
420
 16777215
176
     1
 90
        0
176
     1
 90
        4
176
     1
 62
     7
176
     1
 62
   257
176
     1
 90
        1
176
     1
 90
        1
176
     1
 40
1.0
176
     1
 90
        8
176
     1
 62
   257
176
     1
 40
1.0
176
     1
 90
        1
176
     1
 90
        6
176
     1
 90
        2
176
     1
 62
     8
420
  7895160
176
     1
 90
        3
176
     1
 90
        0
176
     1
 90
        0
176
     1
290
     0
176
     1
 90
        5
176
     1
 40
0.0
176
     1
 90
        0
176
     1
290
     0
176
     1
290
     1
176
     1
290
     1
176
     1
290
     0
176
     1
290
     0
176
     1
290
     0
176
     1
290
     0
176
     1
290
     0
176
     1
290
     0
176
     1
 90
       50
176
     1
 40
0.0
176
     1
 40
1.0
176
     1
 90
        0
176
     1
 62
    18
420
        0
176
     1
 90
       50
176
     1
 90
        3
176
     1
 62
     5
420
      255
176
     1
290
     0
176
     1
 90
       50
176
     1
 90
       50
176
     1
 90
       50
176
     1
290
     0
176
     1
 90
       50
176
     1
 62
   256
176
     0
 40
1.0
176
     0
 90
        2
176
     1
  1
strokes_ogs.tif
176
     1
290
     0
176
     1
 40
1.0
176
     1
 40
1.0
176
     1
  0
VISUALSTYLE
  5
3C1
102
{ACAD_REACTORS
330
3AA
102
}
330
3AA
100
AcDbVisualStyle
  2
Shaded with edges
 70
    26
177
     3
291
     0
 70
    58
 90
        2
176
     1
 90
        2
176
     1
 90
        1
176
     1
 90
        2
176
     1
 40
0.6
176
     1
 40
30.0
176
     1
 62
     7
420
 16777215
176
     1
 90
        1
176
     1
 90
       10
176
     1
 62
     7
176
     1
 62
   257
176
     1
 90
        2
176
     1
 90
        1
176
     1
 40
1.0
176
     1
 90
        8
176
     1
 62
   257
176
     1
 40
1.0
176
     1
 90
        1
176
     1
 90
        6
176
     1
 90
        2
176
     1
 62
     7
176
     1
 90
        3
176
     1
 90
        0
176
     1
 90
        0
176
     1
290
     0
176
     1
 90
        5
176
     1
 40
0.0
176
     1
 90
        0
176
     1
290
     0
176
     1
290
     1
176
     1
290
     1
176
     1
290
     0
176
     1
290
     0
176
     1
290
     0
176
     1
290
     0
176
     1
290
     0
176
     1
290
     0
176
     1
 90
       50
176
     1
 40
0.0
176
     1
 40
1.0
176
     1
 90
        0
176
     1
 62
    18
420
        0
176
     1
 90
       50
176
     1
 90
        3
176
     1
 62
     5
420
      255
176
     1
290
     0
176
     1
 90
       50
176
     1
 90
       50
176
     1
 90
       50
176
     1
290
     0
176
     1
 90
       50
176
     1
 62
   256
176
     0
 40
1.0
176
     0
 90
        2
176
     1
  1
strokes_ogs.tif
176
     1
290
     0
176
     1
 40
1.0
176
     1
 40
1.0
176
     1
  0
VISUALSTYLE
  5
3BE
102
{ACAD_REACTORS
330
3AA
102
}
330
3AA
100
AcDbVisualStyle
  2
Shades of Gray
 70
    23
177
     3
291
     0
 70
    58
 90
        2
176
     1
 90
        2
176
     1
 90
        3
176
     1
 90
        0
176
     1
 40
0.6
176
     1
 40
30.0
176
     1
 62
     7
420
 16777215
176
     1
 90
        2
176
     1
 90
        2
176
     1
 62
     7
176
     1
 62
     7
176
     1
 90
        1
176
     1
 90
        1
176
     1
 40
40.0
176
     1
 90
        8
176
     1
 62
     7
176
     1
 40
1.0
176
     1
 90
        1
176
     1
 90
        6
176
     1
 90
        2
176
     1
 62
     7
176
     1
 90
        3
176
     1
 90
        0
176
     1
 90
        0
176
     1
290
     0
176
     1
 90
        1
176
     1
 40
0.0
176
     1
 90
        0
176
     1
290
     0
176
     1
290
     1
176
     1
290
     1
176
     1
290
     0
176
     1
290
     0
176
     1
290
     0
176
     1
290
     0
176
     1
290
     0
176
     1
290
     0
176
     1
 90
       50
176
     1
 40
0.0
176
     1
 40
1.0
176
     1
 90
        0
176
     1
 62
    18
420
        0
176
     1
 90
       50
176
     1
 90
        3
176
     1
 62
     5
420
      255
176
     1
290
     0
176
     1
 90
       50
176
     1
 90
       50
176
     1
 90
       50
176
     1
290
     0
176
     1
 90
       50
176
     1
 62
   256
176
     0
 40
1.0
176
     0
 90
        2
176
     1
  1
strokes_ogs.tif
176
     1
290
     0
176
     1
 40
1.0
176
     1
 40
1.0
176
     1
  0
VISUALSTYLE
  5
3BF
102
{ACAD_REACTORS
330
3AA
102
}
330
3AA
100
AcDbVisualStyle
  2
Sketchy
 70
    24
177
     3
291
     0
 70
    58
 90
        1
176
     1
 90
        2
176
     1
 90
        2
176
     1
 90
        0
176
     1
 40
0.6
176
     1
 40
30.0
176
     1
 62
     7
420
 16777215
176
     1
 90
        2
176
     1
 90
        2
176
     1
 62
     7
176
     1
 62
     7
176
     1
 90
        1
176
     1
 90
        1
176
     1
 40
40.0
176
     1
 90
       11
176
     1
 62
     7
176
     1
 40
1.0
176
     1
 90
        1
176
     1
 90
        6
176
     1
 90
        2
176
     1
 62
     7
176
     1
 90
        6
176
     1
 90
        0
176
     1
 90
        0
176
     1
290
     0
176
     1
 90
        1
176
     1
 40
0.0
176
     1
 90
        0
176
     1
290
     0
176
     1
290
     1
176
     1
290
     1
176
     1
290
     0
176
     1
290
     0
176
     1
290
     0
176
     1
290
     0
176
     1
290
     0
176
     1
290
     0
176
     1
 90
       50
176
     1
 40
0.0
176
     1
 40
1.0
176
     1
 90
        0
176
     1
 62
    18
420
        0
176
     1
 90
       50
176
     1
 90
        3
176
     1
 62
     5
420
      255
176
     1
290
     0
176
     1
 90
       50
176
     1
 90
       50
176
     1
 90
       50
176
     1
290
     0
176
     1
 90
       50
176
     1
 62
   256
176
     0
 40
1.0
176
     0
 90
        2
176
     1
  1
strokes_ogs.tif
176
     1
290
     0
176
     1
 40
1.0
176
     1
 40
1.0
176
     1
  0
VISUALSTYLE
  5
3B7
102
{ACAD_REACTORS
330
3AA
102
}
330
3AA
100
AcDbVisualStyle
  2
Thicken
 70
    13
177
     3
291
     1
 70
    58
 90
        2
176
     1
 90
        2
176
     1
 90
        0
176
     1
 90
        0
176
     1
 40
0.6
176
     1
 40
30.0
176
     1
 62
     7
420
 16777215
176
     1
 90
        1
176
     1
 90
        4
176
     1
 62
     7
176
     1
 62
   257
176
     1
 90
        1
176
     1
 90
        1
176
     1
 40
1.0
176
     1
 90
       12
176
     1
 62
     7
176
     1
 40
1.0
176
     1
 90
        1
176
     1
 90
        6
176
     1
 90
        2
176
     1
 62
     7
176
     1
 90
        5
176
     1
 90
        0
176
     1
 90
        0
176
     1
290
     0
176
     1
 90
        1
176
     1
 40
0.0
176
     1
 90
        0
176
     1
290
     0
176
     1
290
     1
176
     1
290
     1
176
     1
290
     0
176
     1
290
     0
176
     1
290
     0
176
     1
290
     0
176
     1
290
     0
176
     1
290
     0
176
     1
 90
       50
176
     1
 40
0.0
176
     1
 40
1.0
176
     1
 90
        0
176
     1
 62
    18
420
        0
176
     1
 90
       50
176
     1
 90
        3
176
     1
 62
     5
420
      255
176
     1
290
     0
176
     1
 90
       50
176
     1
 90
       50
176
     1
 90
       50
176
     1
290
     0
176
     1
 90
       50
176
     1
 62
   256
176
     0
 40
1.0
176
     0
 90
        2
176
     1
  1
strokes_ogs.tif
176
     1
290
     0
176
     1
 40
1.0
176
     1
 40
1.0
176
     1
  0
VISUALSTYLE
  5
3B0
102
{ACAD_REACTORS
330
3AA
102
}
330
3AA
100
AcDbVisualStyle
  2
Wireframe
 70
     5
177
     3
291
     0
 70
    58
 90
        0
176
     1
 90
        2
176
     1
 90
        0
176
     1
 90
        0
176
     1
 40
0.6
176
     1
 40
30.0
176
     1
 62
     7
420
 16777215
176
     1
 90
        1
176
     1
 90
        4
176
     1
 62
     7
176
     1
 62
   257
176
     1
 90
        1
176
     1
 90
        1
176
     1
 40
1.0
176
     1
 90
        0
176
     1
 62
   257
176
     1
 40
1.0
176
     1
 90
        1
176
     1
 90
        6
176
     1
 90
        2
176
     1
 62
     7
176
     1
 90
        3
176
     1
 90
        0
176
     1
 90
        0
176
     1
290
     0
176
     1
 90
        1
176
     1
 40
0.0
176
     1
 90
        0
176
     1
290
     0
176
     1
290
     1
176
     1
290
     1
176
     1
290
     0
176
     1
290
     0
176
     1
290
     0
176
     1
290
     0
176
     1
290
     0
176
     1
290
     0
176
     1
 90
       50
176
     1
 40
0.0
176
     1
 40
1.0
176
     1
 90
        0
176
     1
 62
    18
420
        0
176
     1
 90
       50
176
     1
 90
        3
176
     1
 62
     5
420
      255
176
     1
290
     0
176
     1
 90
       50
176
     1
 90
       50
176
     1
 90
       50
176
     1
290
     0
176
     1
 90
       50
176
     1
 62
   256
176
     0
 40
1.0
176
     0
 90
        2
176
     1
  1
strokes_ogs.tif
176
     1
290
     0
176
     1
 40
1.0
176
     1
 40
1.0
176
     1
  0
VISUALSTYLE
  5
3C0
102
{ACAD_REACTORS
330
3AA
102
}
330
3AA
100
AcDbVisualStyle
  2
X-Ray
 70
    25
177
     3
291
     0
 70
    58
 90
        2
176
     1
 90
        2
176
     1
 90
        1
176
     1
 90
        1
176
     1
 40
0.5
176
     1
 40
30.0
176
     1
 62
     7
420
 16777215
176
     1
 90
        1
176
     1
 90
        0
176
     1
 62
     7
176
     1
 62
   257
176
     1
 90
        1
176
     1
 90
        1
176
     1
 40
1.0
176
     1
 90
        8
176
     1
 62
     7
176
     1
 40
1.0
176
     1
 90
        1
176
     1
 90
        6
176
     1
 90
        2
176
     1
 62
     7
176
     1
 90
        3
176
     1
 90
        0
176
     1
 90
        0
176
     1
290
     0
176
     1
 90
       13
176
     1
 40
0.0
176
     1
 90
        0
176
     1
290
     0
176
     1
290
     1
176
     1
290
     1
176
     1
290
     0
176
     1
290
     0
176
     1
290
     0
176
     1
290
     0
176
     1
290
     0
176
     1
290
     0
176
     1
 90
       50
176
     1
 40
0.0
176
     1
 40
1.0
176
     1
 90
        0
176
     1
 62
    18
420
        0
176
     1
 90
       50
176
     1
 90
        3
176
     1
 62
     5
420
      255
176
     1
290
     0
176
     1
 90
       50
176
     1
 90
       50
176
     1
 90
       50
176
     1
290
     0
176
     1
 90
       50
176
     1
 62
   256
176
     0
 40
1.0
176
     0
 90
        2
176
     1
  1
strokes_ogs.tif
176
     1
290
     0
176
     1
 40
1.0
176
     1
 40
1.0
176
     1
  0
DICTIONARYVAR
  5
3CC
102
{ACAD_REACTORS
330
3CB
102
}
330
3CB
100
DictionaryVariables
280
     0
  1
1:1
  0
DICTIONARYVAR
  5
3D1
102
{ACAD_REACTORS
330
3CB
102
}
330
3CB
100
DictionaryVariables
280
     0
  1
Standard
  0
DICTIONARYVAR
  5
3D0
102
{ACAD_REACTORS
330
3CB
102
}
330
3CB
100
DictionaryVariables
280
     0
  1
Standard
  0
DICTIONARYVAR
  5
3D2
102
{ACAD_REACTORS
330
3CB
102
}
330
3CB
100
DictionaryVariables
280
     0
  1
0
  0
DICTIONARY
  5
3CD
330
3C8
100
AcDbDictionary
280
     1
281
     1
  3
ACAD_ROUNDTRIP_2008_TABLESTYLE_CELLSTYLEMAP
360
3CE
  0
CELLSTYLEMAP
  5
3CE
102
{ACAD_REACTORS
330
3CD
102
}
330
3CD
100
AcDbCellStyleMap
 90
        3
300
CELLSTYLE
  1
TABLEFORMAT_BEGIN
 90
        5
170
     1
 91
        0
 92
    32768
 62
   257
 93
        1
300
CONTENTFORMAT
  1
CONTENTFORMAT_BEGIN
 90
        0
 91
        0
 92
        4
 93
        0
300

 40
0.0
140
1.0
 94
        5
 62
     0
340
11
144
0.25
309
CONTENTFORMAT_END
171
     1
301
MARGIN
  1
CELLMARGIN_BEGIN
 40
0.06
 40
0.06
 40
0.06
 40
0.06
 40
0.06
 40
0.06
309
CELLMARGIN_END
 94
        6
 95
        1
302
GRIDFORMAT
  1
GRIDFORMAT_BEGIN
 90
        0
 91
        1
 62
     0
 92
       -2
340
14
 93
        0
 40
0.045
309
GRIDFORMAT_END
 95
        2
302
GRIDFORMAT
  1
GRIDFORMAT_BEGIN
 90
        0
 91
        1
 62
     0
 92
       -2
340
14
 93
        0
 40
0.045
309
GRIDFORMAT_END
 95
        4
302
GRIDFORMAT
  1
GRIDFORMAT_BEGIN
 90
        0
 91
        1
 62
     0
 92
       -2
340
14
 93
        0
 40
0.045
309
GRIDFORMAT_END
 95
        8
302
GRIDFORMAT
  1
GRIDFORMAT_BEGIN
 90
        0
 91
        1
 62
     0
 92
       -2
340
14
 93
        0
 40
0.045
309
GRIDFORMAT_END
 95
       16
302
GRIDFORMAT
  1
GRIDFORMAT_BEGIN
 90
        0
 91
        1
 62
     0
 92
       -2
340
14
 93
        0
 40
0.045
309
GRIDFORMAT_END
 95
       32
302
GRIDFORMAT
  1
GRIDFORMAT_BEGIN
 90
        0
 91
        1
 62
     0
 92
       -2
340
14
 93
        0
 40
0.045
309
GRIDFORMAT_END
309
TABLEFORMAT_END
  1
CELLSTYLE_BEGIN
 90
        1
 91
        1
300
_TITLE
309
CELLSTYLE_END
300
CELLSTYLE
  1
TABLEFORMAT_BEGIN
 90
        5
170
     1
 91
        0
 92
        0
 62
   257
 93
        1
300
CONTENTFORMAT
  1
CONTENTFORMAT_BEGIN
 90
        0
 91
        0
 92
        4
 93
        0
300

 40
0.0
140
1.0
 94
        5
 62
     0
340
11
144
0.18
309
CONTENTFORMAT_END
171
     1
301
MARGIN
  1
CELLMARGIN_BEGIN
 40
0.06
 40
0.06
 40
0.06
 40
0.06
 40
0.06
 40
0.06
309
CELLMARGIN_END
 94
        6
 95
        1
302
GRIDFORMAT
  1
GRIDFORMAT_BEGIN
 90
        0
 91
        1
 62
     0
 92
       -2
340
14
 93
        0
 40
0.045
309
GRIDFORMAT_END
 95
        2
302
GRIDFORMAT
  1
GRIDFORMAT_BEGIN
 90
        0
 91
        1
 62
     0
 92
       -2
340
14
 93
        0
 40
0.045
309
GRIDFORMAT_END
 95
        4
302
GRIDFORMAT
  1
GRIDFORMAT_BEGIN
 90
        0
 91
        1
 62
     0
 92
       -2
340
14
 93
        0
 40
0.045
309
GRIDFORMAT_END
 95
        8
302
GRIDFORMAT
  1
GRIDFORMAT_BEGIN
 90
        0
 91
        1
 62
     0
 92
       -2
340
14
 93
        0
 40
0.045
309
GRIDFORMAT_END
 95
       16
302
GRIDFORMAT
  1
GRIDFORMAT_BEGIN
 90
        0
 91
        1
 62
     0
 92
       -2
340
14
 93
        0
 40
0.045
309
GRIDFORMAT_END
 95
       32
302
GRIDFORMAT
  1
GRIDFORMAT_BEGIN
 90
        0
 91
        1
 62
     0
 92
       -2
340
14
 93
        0
 40
0.045
309
GRIDFORMAT_END
309
TABLEFORMAT_END
  1
CELLSTYLE_BEGIN
 90
        2
 91
        1
300
_HEADER
309
CELLSTYLE_END
300
CELLSTYLE
  1
TABLEFORMAT_BEGIN
 90
        5
170
     1
 91
        0
 92
        0
 62
   257
 93
        1
300
CONTENTFORMAT
  1
CONTENTFORMAT_BEGIN
 90
        0
 91
        0
 92
        4
 93
        0
300

 40
0.0
140
1.0
 94
        2
 62
     0
340
11
144
0.18
309
CONTENTFORMAT_END
171
     1
301
MARGIN
  1
CELLMARGIN_BEGIN
 40
0.06
 40
0.06
 40
0.06
 40
0.06
 40
0.06
 40
0.06
309
CELLMARGIN_END
 94
        6
 95
        1
302
GRIDFORMAT
  1
GRIDFORMAT_BEGIN
 90
        0
 91
        1
 62
     0
 92
       -2
340
14
 93
        0
 40
0.045
309
GRIDFORMAT_END
 95
        2
302
GRIDFORMAT
  1
GRIDFORMAT_BEGIN
 90
        0
 91
        1
 62
     0
 92
       -2
340
14
 93
        0
 40
0.045
309
GRIDFORMAT_END
 95
        4
302
GRIDFORMAT
  1
GRIDFORMAT_BEGIN
 90
        0
 91
        1
 62
     0
 92
       -2
340
14
 93
        0
 40
0.045
309
GRIDFORMAT_END
 95
        8
302
GRIDFORMAT
  1
GRIDFORMAT_BEGIN
 90
        0
 91
        1
 62
     0
 92
       -2
340
14
 93
        0
 40
0.045
309
GRIDFORMAT_END
 95
       16
302
GRIDFORMAT
  1
GRIDFORMAT_BEGIN
 90
        0
 91
        1
 62
     0
 92
       -2
340
14
 93
        0
 40
0.045
309
GRIDFORMAT_END
 95
       32
302
GRIDFORMAT
  1
GRIDFORMAT_BEGIN
 90
        0
 91
        1
 62
     0
 92
       -2
340
14
 93
        0
 40
0.045
309
GRIDFORMAT_END
309
TABLEFORMAT_END
  1
CELLSTYLE_BEGIN
 90
        3
 91
        2
300
_DATA
309
CELLSTYLE_END
  0
ENDSEC
  0
EOF
