  0
SECTION
  2
HEADER
  9
$ACADVER
  1
AC1032
  9
$ACADMAINTVER
 90
       55
  9
$DWGCODEPAGE
  3
ANSI_1252
  9
$LASTSAVEDBY
  1
tfj513
  9
$REQUIREDVERSIONS
160
                 0
  9
$INSBASE
 10
0.0
 20
0.0
 30
0.0
  9
$EXTMIN
 10
503623.7159998431
 20
188316.430132463
 30
-40.00400164986947
  9
$EXTMAX
 10
504972.0952307656
 20
189837.4940301221
 30
42.23385663606982
  9
$LIMMIN
 10
0.0
 20
0.0
  9
$LIMMAX
 10
0.0
 20
0.0
  9
$ORTHOMODE
 70
     0
  9
$REGENMODE
 70
     1
  9
$FILLMODE
 70
     1
  9
$QTEXTMODE
 70
     0
  9
$MIRRTEXT
 70
     0
  9
$LTSCALE
 40
0.1
  9
$ATTMODE
 70
     1
  9
$TEXTSIZE
 40
0.5
  9
$TRACEWID
 40
0.05
  9
$TEXTSTYLE
  7
Arial
  9
$CLAYER
  8
0
  9
$CELTYPE
  6
ByLayer
  9
$CECOLOR
 62
   256
  9
$CELTSCALE
 40
1.0
  9
$DISPSILH
 70
     0
  9
$DIMSCALE
 40
1.0
  9
$DIMASZ
 40
0.18
  9
$DIMEXO
 40
0.0625
  9
$DIMDLI
 40
0.38
  9
$DIMRND
 40
0.0
  9
$DIMDLE
 40
0.0
  9
$DIMEXE
 40
0.18
  9
$DIMTP
 40
0.0
  9
$DIMTM
 40
0.0
  9
$DIMTXT
 40
0.18
  9
$DIMCEN
 40
0.09
  9
$DIMTSZ
 40
0.0
  9
$DIMTOL
 70
     0
  9
$DIMLIM
 70
     0
  9
$DIMTIH
 70
     1
  9
$DIMTOH
 70
     1
  9
$DIMSE1
 70
     0
  9
$DIMSE2
 70
     0
  9
$DIMTAD
 70
     0
  9
$DIMZIN
 70
     0
  9
$DIMBLK
  1

  9
$DIMASO
 70
     1
  9
$DIMSHO
 70
     1
  9
$DIMPOST
  1

  9
$DIMAPOST
  1

  9
$DIMALT
 70
     0
  9
$DIMALTD
 70
     2
  9
$DIMALTF
 40
25.4
  9
$DIMLFAC
 40
1.0
  9
$DIMTOFL
 70
     0
  9
$DIMTVP
 40
0.0
  9
$DIMTIX
 70
     0
  9
$DIMSOXD
 70
     0
  9
$DIMSAH
 70
     0
  9
$DIMBLK1
  1

  9
$DIMBLK2
  1

  9
$DIMSTYLE
  2
Standard
  9
$DIMCLRD
 70
     0
  9
$DIMCLRE
 70
     0
  9
$DIMCLRT
 70
     0
  9
$DIMTFAC
 40
1.0
  9
$DIMGAP
 40
0.09
  9
$DIMJUST
 70
     0
  9
$DIMSD1
 70
     0
  9
$DIMSD2
 70
     0
  9
$DIMTOLJ
 70
     1
  9
$DIMTZIN
 70
     0
  9
$DIMALTZ
 70
     0
  9
$DIMALTTZ
 70
     0
  9
$DIMUPT
 70
     0
  9
$DIMDEC
 70
     4
  9
$DIMTDEC
 70
     4
  9
$DIMALTU
 70
     2
  9
$DIMALTTD
 70
     2
  9
$DIMTXSTY
  7
Standard
  9
$DIMAUNIT
 70
     0
  9
$DIMADEC
 70
     0
  9
$DIMALTRND
 40
0.0
  9
$DIMAZIN
 70
     0
  9
$DIMDSEP
 70
    46
  9
$DIMATFIT
 70
     3
  9
$DIMFRAC
 70
     0
  9
$DIMLDRBLK
  1

  9
$DIMLUNIT
 70
     2
  9
$DIMLWD
 70
    -2
  9
$DIMLWE
 70
    -2
  9
$DIMTMOVE
 70
     0
  9
$DIMFXL
 40
1.0
  9
$DIMFXLON
 70
     0
  9
$DIMJOGANG
 40
0.7853981633974483
  9
$DIMTFILL
 70
     0
  9
$DIMTFILLCLR
 70
     0
  9
$DIMARCSYM
 70
     0
  9
$DIMLTYPE
  6

  9
$DIMLTEX1
  6

  9
$DIMLTEX2
  6

  9
$DIMTXTDIRECTION
 70
     0
  9
$LUNITS
 70
     2
  9
$LUPREC
 70
     3
  9
$SKETCHINC
 40
0.1
  9
$FILLETRAD
 40
0.0
  9
$AUNITS
 70
     0
  9
$AUPREC
 70
     4
  9
$MENU
  1
.
  9
$ELEVATION
 40
0.0
  9
$PELEVATION
 40
0.0
  9
$THICKNESS
 40
0.0
  9
$LIMCHECK
 70
     0
  9
$CHAMFERA
 40
0.0
  9
$CHAMFERB
 40
0.0
  9
$CHAMFERC
 40
0.0
  9
$CHAMFERD
 40
0.0
  9
$SKPOLY
 70
     0
  9
$TDCREATE
 40
2459019.666041667
  9
$TDUCREATE
 40
2459019.624375
  9
$TDUPDATE
 40
2460538.463838565
  9
$TDUUPDATE
 40
2460538.422171898
  9
$TDINDWG
 40
0.3793529745
  9
$TDUSRTIMER
 40
0.3793529745
  9
$USRTIMER
 70
     1
  9
$ANGBASE
 50
0.0
  9
$ANGDIR
 70
     0
  9
$PDMODE
 70
     2
  9
$PDSIZE
 40
0.1
  9
$PLINEWID
 40
0.0
  9
$SPLFRAME
 70
     0
  9
$SPLINETYPE
 70
     6
  9
$SPLINESEGS
 70
     8
  9
$HANDSEED
  5
8E2
  9
$SURFTAB1
 70
     6
  9
$SURFTAB2
 70
     6
  9
$SURFTYPE
 70
     6
  9
$SURFU
 70
     6
  9
$SURFV
 70
     6
  9
$UCSBASE
  2

  9
$UCSNAME
  2

  9
$UCSORG
 10
0.0
 20
0.0
 30
0.0
  9
$UCSXDIR
 10
1.0
 20
0.0
 30
0.0
  9
$UCSYDIR
 10
0.0
 20
1.0
 30
0.0
  9
$UCSORTHOREF
  2

  9
$UCSORTHOVIEW
 70
     0
  9
$UCSORGTOP
 10
0.0
 20
0.0
 30
0.0
  9
$UCSORGBOTTOM
 10
0.0
 20
0.0
 30
0.0
  9
$UCSORGLEFT
 10
0.0
 20
0.0
 30
0.0
  9
$UCSORGRIGHT
 10
0.0
 20
0.0
 30
0.0
  9
$UCSORGFRONT
 10
0.0
 20
0.0
 30
0.0
  9
$UCSORGBACK
 10
0.0
 20
0.0
 30
0.0
  9
$PUCSBASE
  2

  9
$PUCSNAME
  2

  9
$PUCSORG
 10
0.0
 20
0.0
 30
0.0
  9
$PUCSXDIR
 10
1.0
 20
0.0
 30
0.0
  9
$PUCSYDIR
 10
0.0
 20
1.0
 30
0.0
  9
$PUCSORTHOREF
  2

  9
$PUCSORTHOVIEW
 70
     0
  9
$PUCSORGTOP
 10
0.0
 20
0.0
 30
0.0
  9
$PUCSORGBOTTOM
 10
0.0
 20
0.0
 30
0.0
  9
$PUCSORGLEFT
 10
0.0
 20
0.0
 30
0.0
  9
$PUCSORGRIGHT
 10
0.0
 20
0.0
 30
0.0
  9
$PUCSORGFRONT
 10
0.0
 20
0.0
 30
0.0
  9
$PUCSORGBACK
 10
0.0
 20
0.0
 30
0.0
  9
$USERI1
 70
     0
  9
$USERI2
 70
     0
  9
$USERI3
 70
     0
  9
$USERI4
 70
     0
  9
$USERI5
 70
     0
  9
$USERR1
 40
0.0
  9
$USERR2
 40
0.0
  9
$USERR3
 40
0.0
  9
$USERR4
 40
0.0
  9
$USERR5
 40
0.0
  9
$WORLDVIEW
 70
     1
  9
$SHADEDGE
 70
     3
  9
$SHADEDIF
 70
    70
  9
$TILEMODE
 70
     1
  9
$MAXACTVP
 70
    64
  9
$PINSBASE
 10
0.0
 20
0.0
 30
0.0
  9
$PLIMCHECK
 70
     0
  9
$PEXTMIN
 10
1.000000000000000E+20
 20
1.000000000000000E+20
 30
1.000000000000000E+20
  9
$PEXTMAX
 10
-1.000000000000000E+20
 20
-1.000000000000000E+20
 30
-1.000000000000000E+20
  9
$PLIMMIN
 10
0.0
 20
0.0
  9
$PLIMMAX
 10
12.0
 20
9.0
  9
$UNITMODE
 70
     0
  9
$VISRETAIN
 70
     1
  9
$PLINEGEN
 70
     1
  9
$PSLTSCALE
 70
     1
  9
$TREEDEPTH
 70
  3020
  9
$CMLSTYLE
  2
Standard
  9
$CMLJUST
 70
     0
  9
$CMLSCALE
 40
1.0
  9
$PROXYGRAPHICS
 70
     1
  9
$MEASUREMENT
 70
     1
  9
$CELWEIGHT
370
    -1
  9
$ENDCAPS
280
     0
  9
$JOINSTYLE
280
     0
  9
$LWDISPLAY
290
     0
  9
$INSUNITS
 70
     0
  9
$HYPERLINKBASE
  1

  9
$STYLESHEET
  1

  9
$XEDIT
290
     1
  9
$CEPSNTYPE
380
     0
  9
$PSTYLEMODE
290
     1
  9
$FINGERPRINTGUID
  2
{9BC70C34-D94D-DD42-8400-4B056263795B}
  9
$VERSIONGUID
  2
{902C21E0-F805-3848-8C85-FAC894642D63}
  9
$EXTNAMES
290
     1
  9
$PSVPSCALE
 40
0.0
  9
$OLESTARTUP
290
     0
  9
$SORTENTS
280
   127
  9
$INDEXCTL
280
     0
  9
$HIDETEXT
280
     0
  9
$XCLIPFRAME
280
     2
  9
$HALOGAP
280
     0
  9
$OBSCOLOR
 70
   257
  9
$OBSLTYPE
280
     0
  9
$INTERSECTIONDISPLAY
280
     0
  9
$INTERSECTIONCOLOR
 70
   257
  9
$DIMASSOC
280
     1
  9
$PROJECTNAME
  1

  9
$CAMERADISPLAY
290
     0
  9
$LENSLENGTH
 40
50.0
  9
$CAMERAHEIGHT
 40
0.0
  9
$STEPSPERSEC
 40
2.0
  9
$STEPSIZE
 40
6.0
  9
$3DDWFPREC
 40
2.0
  9
$PSOLWIDTH
 40
0.25
  9
$PSOLHEIGHT
 40
4.0
  9
$LOFTANG1
 40
1.570796326794897
  9
$LOFTANG2
 40
1.570796326794897
  9
$LOFTMAG1
 40
0.0
  9
$LOFTMAG2
 40
0.0
  9
$LOFTPARAM
 70
     7
  9
$LOFTNORMALS
280
     1
  9
$LATITUDE
 40
37.795
  9
$LONGITUDE
 40
-122.394
  9
$NORTHDIRECTION
 40
0.0
  9
$TIMEZONE
 70
 -8000
  9
$LIGHTGLYPHDISPLAY
280
     1
  9
$TILEMODELIGHTSYNCH
280
     1
  9
$CMATERIAL
347
11
  9
$SOLIDHIST
280
     0
  9
$SHOWHIST
280
     1
  9
$DWFFRAME
280
     2
  9
$DGNFRAME
280
     0
  9
$REALWORLDSCALE
290
     1
  9
$INTERFERECOLOR
 62
     1
  9
$INTERFEREOBJVS
345
33
  9
$INTERFEREVPVS
346
30
  9
$CSHADOW
280
     0
  9
$SHADOWPLANELOCATION
 40
0.0
  0
ENDSEC
  0
SECTION
  2
CLASSES
  0
CLASS
  1
ACDBDICTIONARYWDFLT
  2
AcDbDictionaryWithDefault
  3
ObjectDBX Classes
 90
        0
 91
        3
280
     0
281
     0
  0
CLASS
  1
MATERIAL
  2
AcDbMaterial
  3
ObjectDBX Classes
 90
     1153
 91
        3
280
     0
281
     0
  0
CLASS
  1
VISUALSTYLE
  2
AcDbVisualStyle
  3
ObjectDBX Classes
 90
     4095
 91
        3
280
     0
281
     0
  0
CLASS
  1
SCALE
  2
AcDbScale
  3
ObjectDBX Classes
 90
     1153
 91
        3
280
     0
281
     0
  0
CLASS
  1
TABLESTYLE
  2
AcDbTableStyle
  3
ObjectDBX Classes
 90
     4095
 91
        3
280
     0
281
     0
  0
CLASS
  1
MLEADERSTYLE
  2
AcDbMLeaderStyle
  3
ACDB_MLEADERSTYLE_CLASS
 90
     4095
 91
        3
280
     0
281
     0
  0
CLASS
  1
ACDBSECTIONVIEWSTYLE
  2
AcDbSectionViewStyle
  3
ObjectDBX Classes
 90
     1025
 91
        3
280
     0
281
     0
  0
CLASS
  1
ACDBDETAILVIEWSTYLE
  2
AcDbDetailViewStyle
  3
ObjectDBX Classes
 90
     1025
 91
        3
280
     0
281
     0
  0
CLASS
  1
DICTIONARYVAR
  2
AcDbDictionaryVar
  3
ObjectDBX Classes
 90
        0
 91
        3
280
     0
281
     0
  0
CLASS
  1
EXACXREFPANELOBJECT
  2
ExAcXREFPanelObject
  3
EXAC_ESW
 90
     1025
 91
        1
280
     1
281
     0
  0
CLASS
  1
NPOCOLLECTION
  2
AcDbImpNonPersistentObjectsCollection
  3
ObjectDBX Classes
 90
     1153
 91
        1
280
     1
281
     0
  0
CLASS
  1
SORTENTSTABLE
  2
AcDbSortentsTable
  3
ObjectDBX Classes
 90
        0
 91
        3
280
     0
281
     0
  0
CLASS
  1
CELLSTYLEMAP
  2
AcDbCellStyleMap
  3
ObjectDBX Classes
 90
     1152
 91
        3
280
     0
281
     0
  0
ENDSEC
  0
SECTION
  2
TABLES
  0
TABLE
  2
VPORT
  5
8
330
0
100
AcDbSymbolTable
 70
     1
  0
VPORT
  5
7A
330
8
100
AcDbSymbolTableRecord
100
AcDbViewportTableRecord
  2
*Active
 70
     0
 10
0.0
 20
0.0
 11
1.0
 21
1.0
 12
504480.7883291397
 22
189034.6776960048
 13
0.0
 23
0.0
 14
1.0
 24
1.0
 15
0.0
 25
0.0
 16
0.0
 26
0.0
 36
1.0
 17
0.0
 27
0.0
 37
0.0
 40
2467.345300314097
 41
1.874213836477987
 42
50.0
 43
0.0
 44
0.0
 50
0.0
 51
0.0
 71
     0
 72
   100
 73
     1
 74
     1
 75
     0
 76
     0
 77
     0
 78
     0
281
     0
 65
     1
110
0.0
120
0.0
130
0.0
111
1.0
121
0.0
131
0.0
112
0.0
122
1.0
132
0.0
 79
     0
146
0.0
348
2F
 60
     3
 61
     5
292
     1
282
     1
141
0.0
142
0.0
 63
   250
421
  3355443
1001
ACAD_NAV_VCDISPLAY
1070
     3
  0
ENDTAB
  0
TABLE
  2
LTYPE
  5
5
330
0
100
AcDbSymbolTable
 70
     1
  0
LTYPE
  5
5A
330
5
100
AcDbSymbolTableRecord
100
AcDbLinetypeTableRecord
  2
ByBlock
 70
     0
  3

 72
    65
 73
     0
 40
0.0
  0
LTYPE
  5
5B
330
5
100
AcDbSymbolTableRecord
100
AcDbLinetypeTableRecord
  2
ByLayer
 70
     0
  3

 72
    65
 73
     0
 40
0.0
  0
LTYPE
  5
5C
330
5
100
AcDbSymbolTableRecord
100
AcDbLinetypeTableRecord
  2
Continuous
 70
     0
  3
Solid line
 72
    65
 73
     0
 40
0.0
  0
ENDTAB
  0
TABLE
  2
LAYER
  5
2
102
{ACAD_XDICTIONARY
360
240
102
}
330
0
100
AcDbSymbolTable
 70
    75
  0
LAYER
  5
54
102
{ACAD_XDICTIONARY
360
21A
102
}
330
2
100
AcDbSymbolTableRecord
100
AcDbLayerTableRecord
  2
0
 70
     0
 62
     7
  6
Continuous
370
    -3
390
F
347
21
348
0
  0
LAYER
  5
8D
102
{ACAD_XDICTIONARY
360
224
102
}
330
2
100
AcDbSymbolTableRecord
100
AcDbLayerTableRecord
  2
TP01
 70
     0
 62
     1
  6
Continuous
370
    -3
390
F
347
21
348
0
  0
LAYER
  5
13C
102
{ACAD_XDICTIONARY
360
228
102
}
330
2
100
AcDbSymbolTableRecord
100
AcDbLayerTableRecord
  2
TP05
 70
     0
 62
     1
  6
Continuous
370
    -3
390
F
347
21
348
0
  0
LAYER
  5
260
330
2
100
AcDbSymbolTableRecord
100
AcDbLayerTableRecord
  2
TP01L
 70
     0
 62
     3
  6
Continuous
370
    -3
390
F
347
21
348
0
1001
AcAecLayerStandard
1000

1000

1001
AcCmTransparency
1071
        0
  0
LAYER
  5
264
330
2
100
AcDbSymbolTableRecord
100
AcDbLayerTableRecord
  2
TP02L
 70
     0
 62
     3
  6
Continuous
370
    -3
390
F
347
21
348
0
1001
AcAecLayerStandard
1000

1000

1001
AcCmTransparency
1071
        0
  0
LAYER
  5
265
330
2
100
AcDbSymbolTableRecord
100
AcDbLayerTableRecord
  2
TP04L
 70
     0
 62
     3
  6
Continuous
370
    -3
390
F
347
21
348
0
1001
AcAecLayerStandard
1000

1000

1001
AcCmTransparency
1071
        0
  0
LAYER
  5
2B2
330
2
100
AcDbSymbolTableRecord
100
AcDbLayerTableRecord
  2
TP05L
 70
     0
 62
     3
  6
Continuous
370
    -3
390
F
347
21
348
0
1001
AcAecLayerStandard
1000

1000

1001
AcCmTransparency
1071
        0
  0
LAYER
  5
36C
330
2
100
AcDbSymbolTableRecord
100
AcDbLayerTableRecord
  2
TP04
 70
     0
 62
     1
  6
Continuous
370
    -3
390
F
347
21
348
0
1001
AcAecLayerStandard
1000

1000

1001
AcCmTransparency
1071
        0
  0
LAYER
  5
37D
330
2
100
AcDbSymbolTableRecord
100
AcDbLayerTableRecord
  2
TP47
 70
     0
 62
     1
  6
Continuous
370
     9
390
F
347
21
348
0
  0
LAYER
  5
37F
330
2
100
AcDbSymbolTableRecord
100
AcDbLayerTableRecord
  2
TP11
 70
     0
 62
     1
  6
Continuous
370
     9
390
F
347
21
348
0
  0
LAYER
  5
381
330
2
100
AcDbSymbolTableRecord
100
AcDbLayerTableRecord
  2
TP10
 70
     0
 62
     1
  6
Continuous
370
     9
390
F
347
21
348
0
1001
AcAecLayerStandard
1000

1000

1001
AcCmTransparency
1071
        0
  0
LAYER
  5
382
330
2
100
AcDbSymbolTableRecord
100
AcDbLayerTableRecord
  2
TP48
 70
     0
 62
     1
  6
Continuous
370
     9
390
F
347
21
348
0
1001
AcAecLayerStandard
1000

1000

1001
AcCmTransparency
1071
        0
  0
LAYER
  5
383
330
2
100
AcDbSymbolTableRecord
100
AcDbLayerTableRecord
  2
TP49
 70
     0
 62
     1
  6
Continuous
370
     9
390
F
347
21
348
0
1001
AcAecLayerStandard
1000

1000

1001
AcCmTransparency
1071
        0
  0
LAYER
  5
3AA
330
2
100
AcDbSymbolTableRecord
100
AcDbLayerTableRecord
  2
TP26L
 70
     0
 62
     3
  6
Continuous
370
     9
390
F
347
21
348
0
  0
LAYER
  5
3AC
330
2
100
AcDbSymbolTableRecord
100
AcDbLayerTableRecord
  2
TP23L
 70
     0
 62
     3
  6
Continuous
370
     9
390
F
347
21
348
0
  0
LAYER
  5
3AE
330
2
100
AcDbSymbolTableRecord
100
AcDbLayerTableRecord
  2
TP27L
 70
     0
 62
     3
  6
Continuous
370
     9
390
F
347
21
348
0
  0
LAYER
  5
3B0
330
2
100
AcDbSymbolTableRecord
100
AcDbLayerTableRecord
  2
TP28L
 70
     0
 62
     3
  6
Continuous
370
     9
390
F
347
21
348
0
  0
LAYER
  5
3BE
330
2
100
AcDbSymbolTableRecord
100
AcDbLayerTableRecord
  2
TP34
 70
     0
 62
     1
  6
Continuous
370
     9
390
F
347
21
348
0
  0
LAYER
  5
3C0
330
2
100
AcDbSymbolTableRecord
100
AcDbLayerTableRecord
  2
TP36
 70
     0
 62
     1
  6
Continuous
370
     9
390
F
347
21
348
0
  0
LAYER
  5
3C2
330
2
100
AcDbSymbolTableRecord
100
AcDbLayerTableRecord
  2
TP33
 70
     0
 62
     1
  6
Continuous
370
     9
390
F
347
21
348
0
  0
LAYER
  5
3C5
330
2
100
AcDbSymbolTableRecord
100
AcDbLayerTableRecord
  2
TP35
 70
     0
 62
     1
  6
Continuous
370
     9
390
F
347
21
348
0
1001
AcAecLayerStandard
1000

1000

1001
AcCmTransparency
1071
        0
  0
LAYER
  5
3C6
330
2
100
AcDbSymbolTableRecord
100
AcDbLayerTableRecord
  2
TP28
 70
     0
 62
     1
  6
Continuous
370
     9
390
F
347
21
348
0
1001
AcAecLayerStandard
1000

1000

1001
AcCmTransparency
1071
        0
  0
LAYER
  5
3C7
330
2
100
AcDbSymbolTableRecord
100
AcDbLayerTableRecord
  2
TP27
 70
     0
 62
     1
  6
Continuous
370
     9
390
F
347
21
348
0
1001
AcAecLayerStandard
1000

1000

1001
AcCmTransparency
1071
        0
  0
LAYER
  5
3C8
330
2
100
AcDbSymbolTableRecord
100
AcDbLayerTableRecord
  2
TP26
 70
     0
 62
     1
  6
Continuous
370
     9
390
F
347
21
348
0
1001
AcAecLayerStandard
1000

1000

1001
AcCmTransparency
1071
        0
  0
LAYER
  5
3C9
330
2
100
AcDbSymbolTableRecord
100
AcDbLayerTableRecord
  2
TP25
 70
     0
 62
     1
  6
Continuous
370
     9
390
F
347
21
348
0
1001
AcAecLayerStandard
1000

1000

1001
AcCmTransparency
1071
        0
  0
LAYER
  5
3CB
330
2
100
AcDbSymbolTableRecord
100
AcDbLayerTableRecord
  2
TP23
 70
     0
 62
     1
  6
Continuous
370
     9
390
F
347
21
348
0
1001
AcAecLayerStandard
1000

1000

1001
AcCmTransparency
1071
        0
  0
LAYER
  5
4E7
330
2
100
AcDbSymbolTableRecord
100
AcDbLayerTableRecord
  2
TP09
 70
     0
 62
     1
  6
Continuous
370
    -3
390
F
347
21
348
0
  0
LAYER
  5
4E8
330
2
100
AcDbSymbolTableRecord
100
AcDbLayerTableRecord
  2
TP08
 70
     0
 62
     1
  6
Continuous
370
    -3
390
F
347
21
348
0
  0
LAYER
  5
4E9
330
2
100
AcDbSymbolTableRecord
100
AcDbLayerTableRecord
  2
TP07
 70
     0
 62
     1
  6
Continuous
370
    -3
390
F
347
21
348
0
1001
AcAecLayerStandard
1000

1000

1001
AcCmTransparency
1071
        0
  0
LAYER
  5
4EA
330
2
100
AcDbSymbolTableRecord
100
AcDbLayerTableRecord
  2
TP06
 70
     0
 62
     1
  6
Continuous
370
    -3
390
F
347
21
348
0
1001
AcAecLayerStandard
1000

1000

1001
AcCmTransparency
1071
        0
  0
LAYER
  5
4EB
330
2
100
AcDbSymbolTableRecord
100
AcDbLayerTableRecord
  2
TP03
 70
     0
 62
     1
  6
Continuous
370
    -3
390
F
347
21
348
0
1001
AcAecLayerStandard
1000

1000

1001
AcCmTransparency
1071
        0
  0
LAYER
  5
4EC
330
2
100
AcDbSymbolTableRecord
100
AcDbLayerTableRecord
  2
TP02
 70
     0
 62
     1
  6
Continuous
370
    -3
390
F
347
21
348
0
1001
AcAecLayerStandard
1000

1000

1001
AcCmTransparency
1071
        0
  0
LAYER
  5
533
330
2
100
AcDbSymbolTableRecord
100
AcDbLayerTableRecord
  2
007DP
 70
     0
 62
     6
  6
Continuous
370
    -3
390
F
347
21
348
0
  0
LAYER
  5
537
330
2
100
AcDbSymbolTableRecord
100
AcDbLayerTableRecord
  2
TP32
 70
     0
 62
     1
  6
Continuous
370
    -3
390
F
347
21
348
0
  0
LAYER
  5
56F
330
2
100
AcDbSymbolTableRecord
100
AcDbLayerTableRecord
  2
3005R
 70
     0
 62
     7
  6
Continuous
370
    -3
390
F
347
21
348
0
  0
LAYER
  5
571
330
2
100
AcDbSymbolTableRecord
100
AcDbLayerTableRecord
  2
TP30
 70
     0
 62
     1
  6
Continuous
370
    -3
390
F
347
21
348
0
  0
LAYER
  5
573
330
2
100
AcDbSymbolTableRecord
100
AcDbLayerTableRecord
  2
3005U
 70
     0
 62
     8
  6
Continuous
370
    -3
390
F
347
21
348
0
1001
AcAecLayerStandard
1000

1000

1001
AcCmTransparency
1071
        0
  0
LAYER
  5
574
330
2
100
AcDbSymbolTableRecord
100
AcDbLayerTableRecord
  2
3005L
 70
     0
 62
   253
  6
Continuous
370
    -3
390
F
347
21
348
0
1001
AcAecLayerStandard
1000

1000

1001
AcCmTransparency
1071
        0
  0
LAYER
  5
5C7
330
2
100
AcDbSymbolTableRecord
100
AcDbLayerTableRecord
  2
TP12
 70
     0
 62
     1
  6
Continuous
370
    -3
390
F
347
21
348
0
  0
LAYER
  5
5E6
330
2
100
AcDbSymbolTableRecord
100
AcDbLayerTableRecord
  2
TP13L
 70
     0
 62
     3
  6
Continuous
370
    -3
390
F
347
21
348
0
  0
LAYER
  5
5E8
330
2
100
AcDbSymbolTableRecord
100
AcDbLayerTableRecord
  2
TP15
 70
     0
 62
     1
  6
Continuous
370
    -3
390
F
347
21
348
0
  0
LAYER
  5
5EC
330
2
100
AcDbSymbolTableRecord
100
AcDbLayerTableRecord
  2
TP09L
 70
     0
 62
     3
  6
Continuous
370
    -3
390
F
347
21
348
0
  0
LAYER
  5
5EE
330
2
100
AcDbSymbolTableRecord
100
AcDbLayerTableRecord
  2
TP08L
 70
     0
 62
     3
  6
Continuous
370
    -3
390
F
347
21
348
0
  0
LAYER
  5
5F0
330
2
100
AcDbSymbolTableRecord
100
AcDbLayerTableRecord
  2
TP06L
 70
     0
 62
     3
  6
Continuous
370
    -3
390
F
347
21
348
0
  0
LAYER
  5
5F2
330
2
100
AcDbSymbolTableRecord
100
AcDbLayerTableRecord
  2
TP07L
 70
     0
 62
     3
  6
Continuous
370
    -3
390
F
347
21
348
0
  0
LAYER
  5
63F
330
2
100
AcDbSymbolTableRecord
100
AcDbLayerTableRecord
  2
TP03L
 70
     0
 62
     3
  6
Continuous
370
    -3
390
F
347
21
348
0
  0
LAYER
  5
658
330
2
100
AcDbSymbolTableRecord
100
AcDbLayerTableRecord
  2
TP20
 70
     0
 62
     1
  6
Continuous
370
    -3
390
F
347
21
348
0
  0
LAYER
  5
65A
330
2
100
AcDbSymbolTableRecord
100
AcDbLayerTableRecord
  2
TP17
 70
     0
 62
     1
  6
Continuous
370
    -3
390
F
347
21
348
0
  0
LAYER
  5
65C
330
2
100
AcDbSymbolTableRecord
100
AcDbLayerTableRecord
  2
TP14L
 70
     0
 62
     3
  6
Continuous
370
    -3
390
F
347
21
348
0
  0
LAYER
  5
707
330
2
100
AcDbSymbolTableRecord
100
AcDbLayerTableRecord
  2
TP39
 70
     0
 62
     1
  6
Continuous
370
    -3
390
F
347
21
348
0
  0
LAYER
  5
769
330
2
100
AcDbSymbolTableRecord
100
AcDbLayerTableRecord
  2
TP10L
 70
     0
 62
     3
  6
Continuous
370
    -3
390
F
347
21
348
0
1001
AcAecLayerStandard
1000

1000

1001
AcCmTransparency
1071
        0
  0
LAYER
  5
76B
330
2
100
AcDbSymbolTableRecord
100
AcDbLayerTableRecord
  2
TP11L
 70
     0
 62
     3
  6
Continuous
370
     9
390
F
347
21
348
0
1001
AcAecLayerStandard
1000

1000

1001
AcCmTransparency
1071
        0
  0
LAYER
  5
76E
330
2
100
AcDbSymbolTableRecord
100
AcDbLayerTableRecord
  2
TP12L
 70
     0
 62
     3
  6
Continuous
370
     9
390
F
347
21
348
0
1001
AcAecLayerStandard
1000

1000

1001
AcCmTransparency
1071
        0
  0
LAYER
  5
77C
330
2
100
AcDbSymbolTableRecord
100
AcDbLayerTableRecord
  2
TP13
 70
     0
 62
     1
  6
Continuous
370
    -3
390
F
347
21
348
0
1001
AcAecLayerStandard
1000

1000

1001
AcCmTransparency
1071
        0
  0
LAYER
  5
77E
330
2
100
AcDbSymbolTableRecord
100
AcDbLayerTableRecord
  2
TP14
 70
     0
 62
     1
  6
Continuous
370
    -3
390
F
347
21
348
0
1001
AcAecLayerStandard
1000

1000

1001
AcCmTransparency
1071
        0
  0
LAYER
  5
78A
330
2
100
AcDbSymbolTableRecord
100
AcDbLayerTableRecord
  2
TP17L
 70
     0
 62
     3
  6
Continuous
370
    -3
390
F
347
21
348
0
1001
AcAecLayerStandard
1000

1000

1001
AcCmTransparency
1071
        0
  0
LAYER
  5
78B
330
2
100
AcDbSymbolTableRecord
100
AcDbLayerTableRecord
  2
TP15L
 70
     0
 62
     3
  6
Continuous
370
    -3
390
F
347
21
348
0
1001
AcAecLayerStandard
1000

1000

1001
AcCmTransparency
1071
        0
  0
LAYER
  5
7A1
330
2
100
AcDbSymbolTableRecord
100
AcDbLayerTableRecord
  2
TP20L
 70
     0
 62
     3
  6
Continuous
370
    -3
390
F
347
21
348
0
1001
AcAecLayerStandard
1000

1000

1001
AcCmTransparency
1071
        0
  0
LAYER
  5
7B0
330
2
100
AcDbSymbolTableRecord
100
AcDbLayerTableRecord
  2
TP30L
 70
     0
 62
     3
  6
Continuous
370
    -3
390
F
347
21
348
0
1001
AcAecLayerStandard
1000

1000

1001
AcCmTransparency
1071
        0
  0
LAYER
  5
7B2
330
2
100
AcDbSymbolTableRecord
100
AcDbLayerTableRecord
  2
TP32L
 70
     0
 62
     3
  6
Continuous
370
    -3
390
F
347
21
348
0
1001
AcAecLayerStandard
1000

1000

1001
AcCmTransparency
1071
        0
  0
LAYER
  5
7E4
330
2
100
AcDbSymbolTableRecord
100
AcDbLayerTableRecord
  2
TP33L
 70
     0
 62
     3
  6
Continuous
370
     9
390
F
347
21
348
0
1001
AcAecLayerStandard
1000

1000

1001
AcCmTransparency
1071
        0
  0
LAYER
  5
7E5
330
2
100
AcDbSymbolTableRecord
100
AcDbLayerTableRecord
  2
TP36L
 70
     0
 62
     3
  6
Continuous
370
     9
390
F
347
21
348
0
1001
AcAecLayerStandard
1000

1000

1001
AcCmTransparency
1071
        0
  0
LAYER
  5
7E6
330
2
100
AcDbSymbolTableRecord
100
AcDbLayerTableRecord
  2
006DP
 70
     0
 62
     6
  6
Continuous
370
    -3
390
F
347
21
348
0
1001
AcAecLayerStandard
1000

1000

1001
AcCmTransparency
1071
        0
  0
LAYER
  5
7E9
330
2
100
AcDbSymbolTableRecord
100
AcDbLayerTableRecord
  2
TP37
 70
     0
 62
     1
  6
Continuous
370
     9
390
F
347
21
348
0
1001
AcAecLayerStandard
1000

1000

1001
AcCmTransparency
1071
        0
  0
LAYER
  5
7EA
330
2
100
AcDbSymbolTableRecord
100
AcDbLayerTableRecord
  2
TP38
 70
     0
 62
     1
  6
Continuous
370
     9
390
F
347
21
348
0
1001
AcAecLayerStandard
1000

1000

1001
AcCmTransparency
1071
        0
  0
LAYER
  5
7F6
330
2
100
AcDbSymbolTableRecord
100
AcDbLayerTableRecord
  2
TP25L
 70
     0
 62
     3
  6
Continuous
370
     9
390
F
347
21
348
0
1001
AcAecLayerStandard
1000

1000

1001
AcCmTransparency
1071
        0
  0
LAYER
  5
7FC
330
2
100
AcDbSymbolTableRecord
100
AcDbLayerTableRecord
  2
TP35L
 70
     0
 62
     3
  6
Continuous
370
     9
390
F
347
21
348
0
1001
AcAecLayerStandard
1000

1000

1001
AcCmTransparency
1071
        0
  0
LAYER
  5
7FD
330
2
100
AcDbSymbolTableRecord
100
AcDbLayerTableRecord
  2
TP37L
 70
     0
 62
     3
  6
Continuous
370
     9
390
F
347
21
348
0
1001
AcAecLayerStandard
1000

1000

1001
AcCmTransparency
1071
        0
  0
LAYER
  5
7FE
330
2
100
AcDbSymbolTableRecord
100
AcDbLayerTableRecord
  2
TP38L
 70
     0
 62
     3
  6
Continuous
370
     9
390
F
347
21
348
0
1001
AcAecLayerStandard
1000

1000

1001
AcCmTransparency
1071
        0
  0
LAYER
  5
7FF
330
2
100
AcDbSymbolTableRecord
100
AcDbLayerTableRecord
  2
TP39L
 70
     0
 62
     3
  6
Continuous
370
     9
390
F
347
21
348
0
1001
AcAecLayerStandard
1000

1000

1001
AcCmTransparency
1071
        0
  0
LAYER
  5
821
330
2
100
AcDbSymbolTableRecord
100
AcDbLayerTableRecord
  2
TP47L
 70
     0
 62
     3
  6
Continuous
370
     9
390
F
347
21
348
0
1001
AcAecLayerStandard
1000

1000

1001
AcCmTransparency
1071
        0
  0
LAYER
  5
822
330
2
100
AcDbSymbolTableRecord
100
AcDbLayerTableRecord
  2
TP48L
 70
     0
 62
     3
  6
Continuous
370
     9
390
F
347
21
348
0
1001
AcAecLayerStandard
1000

1000

1001
AcCmTransparency
1071
        0
  0
LAYER
  5
823
330
2
100
AcDbSymbolTableRecord
100
AcDbLayerTableRecord
  2
TP49L
 70
     0
 62
     3
  6
Continuous
370
     9
390
F
347
21
348
0
1001
AcAecLayerStandard
1000

1000

1001
AcCmTransparency
1071
        0
  0
LAYER
  5
8C7
330
2
100
AcDbSymbolTableRecord
100
AcDbLayerTableRecord
  2
3005DP
 70
     0
 62
     6
  6
Continuous
370
    -3
390
F
347
21
348
0
1001
AcAecLayerStandard
1000

1000

1001
AcCmTransparency
1071
        0
  0
LAYER
  5
8C8
330
2
100
AcDbSymbolTableRecord
100
AcDbLayerTableRecord
  2
TP30DP
 70
     0
 62
     6
  6
Continuous
370
    -3
390
F
347
21
348
0
1001
AcAecLayerStandard
1000

1000

1001
AcCmTransparency
1071
        0
  0
ENDTAB
  0
TABLE
  2
STYLE
  5
3
330
0
100
AcDbSymbolTable
 70
     2
  0
STYLE
  5
55
330
3
100
AcDbSymbolTableRecord
100
AcDbTextStyleTableRecord
  2
Standard
 70
     0
 40
0.0
 41
1.0
 50
0.0
 71
     0
 42
0.5
  3
txt
  4

  0
STYLE
  5
2B8
330
3
100
AcDbSymbolTableRecord
100
AcDbTextStyleTableRecord
  2
Arial
 70
     0
 40
0.0
 41
1.0
 50
0.0
 71
     0
 42
0.5
  3
arial.ttf
  4

1001
ACAD
1000
Arial
1071
       34
  0
ENDTAB
  0
TABLE
  2
VIEW
  5
6
330
0
100
AcDbSymbolTable
 70
     0
  0
ENDTAB
  0
TABLE
  2
UCS
  5
7
330
0
100
AcDbSymbolTable
 70
     0
  0
ENDTAB
  0
TABLE
  2
APPID
  5
9
330
0
100
AcDbSymbolTable
 70
    10
  0
APPID
  5
56
330
9
100
AcDbSymbolTableRecord
100
AcDbRegAppTableRecord
  2
ACAD
 70
     0
  0
APPID
  5
5D
330
9
100
AcDbSymbolTableRecord
100
AcDbRegAppTableRecord
  2
AcadAnnotative
 70
     0
  0
APPID
  5
78
330
9
100
AcDbSymbolTableRecord
100
AcDbRegAppTableRecord
  2
PE_URL
 70
     0
  0
APPID
  5
22A
330
9
100
AcDbSymbolTableRecord
100
AcDbRegAppTableRecord
  2
ACAD_NAV_VCDISPLAY
 70
     0
  0
APPID
  5
261
330
9
100
AcDbSymbolTableRecord
100
AcDbRegAppTableRecord
  2
AcAecLayerStandard
 70
     0
  0
APPID
  5
262
330
9
100
AcDbSymbolTableRecord
100
AcDbRegAppTableRecord
  2
AcCmTransparency
 70
     0
  0
APPID
  5
2B3
330
9
100
AcDbSymbolTableRecord
100
AcDbRegAppTableRecord
  2
ACAD_EXEMPT_FROM_CAD_STANDARDS
 70
     0
  0
APPID
  5
2B9
330
9
100
AcDbSymbolTableRecord
100
AcDbRegAppTableRecord
  2
AcadAnnoPO
 70
     0
  0
APPID
  5
36F
330
9
100
AcDbSymbolTableRecord
100
AcDbRegAppTableRecord
  2
ACAD_PSEXT
 70
     0
  0
APPID
  5
829
330
9
100
AcDbSymbolTableRecord
100
AcDbRegAppTableRecord
  2
FDT_BASE
 70
     0
  0
ENDTAB
  0
TABLE
  2
DIMSTYLE
  5
A
330
0
100
AcDbSymbolTable
 70
     1
100
AcDbDimStyleTable
  0
DIMSTYLE
105
57
330
A
100
AcDbSymbolTableRecord
100
AcDbDimStyleTableRecord
  2
Standard
 70
     0
178
     0
340
55
  0
ENDTAB
  0
TABLE
  2
BLOCK_RECORD
  5
1
330
0
100
AcDbSymbolTable
 70
     0
  0
BLOCK_RECORD
  5
6F
102
{ACAD_XDICTIONARY
360
7E7
102
}
330
1
100
AcDbSymbolTableRecord
100
AcDbBlockTableRecord
  2
*Model_Space
340
72
 70
     0
280
     1
281
     0
  0
BLOCK_RECORD
  5
6B
330
1
100
AcDbSymbolTableRecord
100
AcDbBlockTableRecord
  2
*Paper_Space
340
6E
 70
     0
280
     1
281
     0
  0
ENDTAB
  0
ENDSEC
  0
SECTION
  2
BLOCKS
  0
BLOCK
  5
70
330
6F
100
AcDbEntity
  8
0
100
AcDbBlockBegin
  2
*Model_Space
 70
     0
 10
0.0
 20
0.0
 30
0.0
  3
*Model_Space
  1

  0
ENDBLK
  5
71
330
6F
100
AcDbEntity
  8
0
100
AcDbBlockEnd
  0
BLOCK
  5
6C
330
6B
100
AcDbEntity
 67
     1
  8
0
100
AcDbBlockBegin
  2
*Paper_Space
 70
     0
 10
0.0
 20
0.0
 30
0.0
  3
*Paper_Space
  1

  0
ENDBLK
  5
6D
330
6B
100
AcDbEntity
 67
     1
  8
0
100
AcDbBlockEnd
  0
ENDSEC
  0
SECTION
  2
ENTITIES
  0
POINT
  5
7C
330
6F
100
AcDbEntity
  8
TP04L
100
AcDbPoint
 10
504875.6207
 20
188347.9767
 30
35.8062
  0
POINT
  5
7D
330
6F
100
AcDbEntity
  8
TP04L
100
AcDbPoint
 10
504873.6237
 20
188347.2525
 30
35.8463
  0
POINT
  5
7E
330
6F
100
AcDbEntity
  8
TP04L
100
AcDbPoint
 10
504875.0906
 20
188346.7355
 30
35.7649
  0
POINT
  5
80
330
6F
100
AcDbEntity
  8
TP02L
100
AcDbPoint
 10
504917.2222
 20
188322.4636
 30
35.8637
  0
POINT
  5
81
330
6F
100
AcDbEntity
  8
TP02L
100
AcDbPoint
 10
504919.2194
 20
188322.5428
 30
35.8474
  0
POINT
  5
13B
330
6F
100
AcDbEntity
  8
TP01L
100
AcDbPoint
 10
504955.6641
 20
188343.8568
 30
36.1366
  0
POINT
  5
141
330
6F
100
AcDbEntity
  8
TP05L
100
AcDbPoint
 10
504849.0861
 20
188400.222
 30
36.3866
  0
POLYLINE
  5
1FB
330
6F
100
AcDbEntity
  8
TP05
100
AcDb3dPolyline
 66
     1
 10
0.0
 20
0.0
 30
0.0
 70
     9
  0
VERTEX
  5
1FC
330
1FB
100
AcDbEntity
  8
TP05
100
AcDbVertex
100
AcDb3dPolylineVertex
 10
504848.0565
 20
188399.2083
 30
0.0
 70
    32
  0
VERTEX
  5
1FD
330
1FB
100
AcDbEntity
  8
TP05
100
AcDbVertex
100
AcDb3dPolylineVertex
 10
504848.0565
 20
188401.2083
 30
0.0
 70
    32
  0
VERTEX
  5
1FE
330
1FB
100
AcDbEntity
  8
TP05
100
AcDbVertex
100
AcDb3dPolylineVertex
 10
504850.0565
 20
188401.2083
 30
0.0
 70
    32
  0
VERTEX
  5
1FF
330
1FB
100
AcDbEntity
  8
TP05
100
AcDbVertex
100
AcDb3dPolylineVertex
 10
504850.0565
 20
188399.2083
 30
0.0
 70
    32
  0
VERTEX
  5
200
330
1FB
100
AcDbEntity
  8
TP05
100
AcDbVertex
100
AcDb3dPolylineVertex
 10
504848.0565
 20
188399.2083
 30
0.0
 70
    32
  0
SEQEND
  5
201
330
1FB
100
AcDbEntity
  8
TP05
  0
POLYLINE
  5
202
330
6F
100
AcDbEntity
  8
TP01
100
AcDb3dPolyline
 66
     1
 10
0.0
 20
0.0
 30
0.0
 70
     9
  0
VERTEX
  5
203
330
202
100
AcDbEntity
  8
TP01
100
AcDbVertex
100
AcDb3dPolylineVertex
 10
504954.684
 20
188342.852
 30
0.0
 70
    32
  0
VERTEX
  5
204
330
202
100
AcDbEntity
  8
TP01
100
AcDbVertex
100
AcDb3dPolylineVertex
 10
504954.684
 20
188344.852
 30
0.0
 70
    32
  0
VERTEX
  5
205
330
202
100
AcDbEntity
  8
TP01
100
AcDbVertex
100
AcDb3dPolylineVertex
 10
504956.684
 20
188344.852
 30
0.0
 70
    32
  0
VERTEX
  5
206
330
202
100
AcDbEntity
  8
TP01
100
AcDbVertex
100
AcDb3dPolylineVertex
 10
504956.684
 20
188342.852
 30
0.0
 70
    32
  0
VERTEX
  5
207
330
202
100
AcDbEntity
  8
TP01
100
AcDbVertex
100
AcDb3dPolylineVertex
 10
504954.684
 20
188342.852
 30
0.0
 70
    32
  0
SEQEND
  5
208
330
202
100
AcDbEntity
  8
TP01
  0
POLYLINE
  5
291
330
6F
100
AcDbEntity
  8
TP02
100
AcDb3dPolyline
 66
     1
 10
0.0
 20
0.0
 30
0.0
 70
     9
  0
VERTEX
  5
292
330
291
100
AcDbEntity
  8
TP02
100
AcDbVertex
100
AcDb3dPolylineVertex
 10
504917.3014487483
 20
188320.4651707078
 30
0.0
 70
    32
  0
VERTEX
  5
293
330
291
100
AcDbEntity
  8
TP02
100
AcDbVertex
100
AcDb3dPolylineVertex
 10
504917.2222
 20
188322.4636
 30
0.0
 70
    32
  0
VERTEX
  5
294
330
291
100
AcDbEntity
  8
TP02
100
AcDbVertex
100
AcDb3dPolylineVertex
 10
504919.2206292922
 20
188322.5428487482
 30
0.0
 70
    32
  0
VERTEX
  5
295
330
291
100
AcDbEntity
  8
TP02
100
AcDbVertex
100
AcDb3dPolylineVertex
 10
504919.2998780404
 20
188320.5444194561
 30
0.0
 70
    32
  0
VERTEX
  5
296
330
291
100
AcDbEntity
  8
TP02
100
AcDbVertex
100
AcDb3dPolylineVertex
 10
504917.3014487483
 20
188320.4651707078
 30
0.0
 70
    32
  0
SEQEND
  5
297
330
291
100
AcDbEntity
  8
TP02
  0
POLYLINE
  5
2AB
330
6F
100
AcDbEntity
  8
TP04
100
AcDb3dPolyline
 66
     1
 10
0.0
 20
0.0
 30
0.0
 70
     9
  0
VERTEX
  5
2AC
330
2AB
100
AcDbEntity
  8
TP04
100
AcDbVertex
100
AcDb3dPolylineVertex
 10
504874.3607855606
 20
188345.3998489349
 30
0.0
 70
    32
  0
VERTEX
  5
2AD
330
2AB
100
AcDbEntity
  8
TP04
100
AcDbVertex
100
AcDb3dPolylineVertex
 10
504873.6789476743
 20
188347.2800343238
 30
0.0
 70
    32
  0
VERTEX
  5
2AE
330
2AB
100
AcDbEntity
  8
TP04
100
AcDbVertex
100
AcDb3dPolylineVertex
 10
504875.5591330634
 20
188347.96187221
 30
0.0
 70
    32
  0
VERTEX
  5
2AF
330
2AB
100
AcDbEntity
  8
TP04
100
AcDbVertex
100
AcDb3dPolylineVertex
 10
504876.2409709495
 20
188346.081686821
 30
0.0
 70
    32
  0
VERTEX
  5
2B0
330
2AB
100
AcDbEntity
  8
TP04
100
AcDbVertex
100
AcDb3dPolylineVertex
 10
504874.3607855606
 20
188345.3998489349
 30
0.0
 70
    32
  0
SEQEND
  5
2B1
330
2AB
100
AcDbEntity
  8
TP04
  0
TEXT
  5
2B5
330
6F
100
AcDbEntity
  8
TP05
100
AcDbText
 10
504848.3447335232
 20
188401.7695059083
 30
0.0
 40
0.5
  1
TP5
  7
Arial
100
AcDbText
  0
TEXT
  5
2BC
330
6F
100
AcDbEntity
  8
TP04
100
AcDbText
 10
504873.6408438767
 20
188344.3892267266
 30
0.0
 40
0.5
  1
TP4
  7
Arial
100
AcDbText
  0
TEXT
  5
2BD
330
6F
100
AcDbEntity
  8
TP02
100
AcDbText
 10
504916.6576457803
 20
188323.0078856472
 30
0.0
 40
0.5
  1
TP2
  7
Arial
100
AcDbText
  0
TEXT
  5
2BE
330
6F
100
AcDbEntity
  8
TP01
100
AcDbText
 10
504954.6914841456
 20
188345.45972786
 30
0.0
 40
0.5
  1
TP1
  7
Arial
100
AcDbText
  0
POINT
  5
37A
330
6F
100
AcDbEntity
  8
TP02L
100
AcDbPoint
 10
504918.2183035361
 20
188321.562478665
 30
35.8637
  0
TEXT
  5
399
330
6F
100
AcDbEntity
  8
TP47
100
AcDbText
 10
503631.9615251716
 20
189824.5953311215
 30
0.0
 40
1.5
  1
TP47
100
AcDbText
  0
TEXT
  5
39D
330
6F
100
AcDbEntity
  8
TP49
100
AcDbText
 10
503666.9991958064
 20
189819.9959561411
 30
0.0
 40
1.0
  1
TP49
100
AcDbText
  0
TEXT
  5
39E
330
6F
100
AcDbEntity
  8
TP48
100
AcDbText
 10
503653.9503126643
 20
189791.1930251633
 30
0.0
 40
1.0
  1
TP48
100
AcDbText
  0
POINT
  5
45C
330
6F
100
AcDbEntity
  8
TP26L
100
AcDbPoint
 10
503979.2251
 20
189220.2884
 30
39.7192
  0
POINT
  5
45D
330
6F
100
AcDbEntity
  8
TP23L
100
AcDbPoint
 10
504127.8388
 20
189050.2681
 30
37.1459
  0
POINT
  5
45E
330
6F
100
AcDbEntity
  8
TP27L
100
AcDbPoint
 10
503913.5925
 20
189292.0474
 30
40.3751
  0
POINT
  5
45F
330
6F
100
AcDbEntity
  8
TP28L
100
AcDbPoint
 10
503896.0845
 20
189325.239
 30
39.9616
  0
POINT
  5
461
330
6F
100
AcDbEntity
  8
TP36L
100
AcDbPoint
 10
503716.1102
 20
189588.1776
 30
39.6978
  0
TEXT
  5
499
330
6F
100
AcDbEntity
  8
TP33
100
AcDbText
 10
503753.5797266004
 20
189524.3172884047
 30
0.0
 40
3.0
  1
33
  7
Arial
100
AcDbText
  0
TEXT
  5
49A
330
6F
100
AcDbEntity
  8
TP34
100
AcDbText
 10
503724.3024933638
 20
189592.3859785574
 30
0.0
 40
3.0
  1
34
  7
Arial
100
AcDbText
  0
TEXT
  5
49B
330
6F
100
AcDbEntity
  8
TP35
100
AcDbText
 10
503725.6452630412
 20
189605.1952096451
 30
0.0
 40
3.0
  1
35
  7
Arial
100
AcDbText
  0
TEXT
  5
4C4
330
6F
100
AcDbEntity
  8
TP36
100
AcDbText
 10
503710.3180188722
 20
189583.1705356249
 30
0.0
 40
3.0
  1
36
  7
Arial
100
AcDbText
  0
TEXT
  5
4DA
330
6F
100
AcDbEntity
  8
TP25
100
AcDbText
 10
504044.2104213416
 20
189127.403285298
 30
0.0
 40
5.0
  1
25
  7
Arial
100
AcDbText
  0
POINT
  5
555
330
6F
100
AcDbEntity
  8
TP32L
100
AcDbPoint
 10
503843.19
 20
189452.461
 30
37.102
  0
POINT
  5
556
330
6F
100
AcDbEntity
  8
TP32L
100
AcDbPoint
 10
503841.818
 20
189451.193
 30
37.458
  0
POINT
  5
557
330
6F
100
AcDbEntity
  8
TP32L
100
AcDbPoint
 10
503842.406
 20
189453.776
 30
37.998
  0
POINT
  5
558
330
6F
100
AcDbEntity
  8
TP32L
100
AcDbPoint
 10
503841.856
 20
189451.138
 30
37.963
  0
POINT
  5
559
330
6F
100
AcDbEntity
  8
007DP
100
AcDbPoint
 10
503843.415
 20
189452.25
 30
37.96
  0
POINT
  5
55A
330
6F
100
AcDbEntity
  8
007DP
100
AcDbPoint
 10
503842.409
 20
189453.767
 30
37.946
  0
POINT
  5
55B
330
6F
100
AcDbEntity
  8
006DP
100
AcDbPoint
 10
503841.857
 20
189451.117
 30
37.934
  0
POINT
  5
55C
330
6F
100
AcDbEntity
  8
006DP
100
AcDbPoint
 10
503843.402
 20
189452.238
 30
37.957
  0
POLYLINE
  5
55D
330
6F
100
AcDbEntity
  8
TP32
100
AcDb3dPolyline
 66
     1
 10
0.0
 20
0.0
 30
0.0
 70
     8
  0
VERTEX
  5
55E
330
55D
100
AcDbEntity
  8
TP32
100
AcDbVertex
100
AcDb3dPolylineVertex
 10
503842.41
 20
189453.901
 30
38.173
 70
    32
  0
VERTEX
  5
55F
330
55D
100
AcDbEntity
  8
TP32
100
AcDbVertex
100
AcDb3dPolylineVertex
 10
503843.495
 20
189452.187
 30
38.118
 70
    32
  0
VERTEX
  5
560
330
55D
100
AcDbEntity
  8
TP32
100
AcDbVertex
100
AcDb3dPolylineVertex
 10
503841.82
 20
189451.025
 30
38.087
 70
    32
  0
VERTEX
  5
561
330
55D
100
AcDbEntity
  8
TP32
100
AcDbVertex
100
AcDb3dPolylineVertex
 10
503840.682
 20
189452.762
 30
38.12
 70
    32
  0
VERTEX
  5
562
330
55D
100
AcDbEntity
  8
TP32
100
AcDbVertex
100
AcDb3dPolylineVertex
 10
503842.409
 20
189453.9
 30
38.194
 70
    32
  0
SEQEND
  5
563
330
55D
100
AcDbEntity
  8
TP32
  0
POLYLINE
  5
564
330
6F
100
AcDbEntity
  8
006DP
100
AcDb3dPolyline
 66
     1
 10
0.0
 20
0.0
 30
0.0
 70
     8
  0
VERTEX
  5
565
330
564
100
AcDbEntity
  8
006DP
100
AcDbVertex
100
AcDb3dPolylineVertex
 10
503843.402
 20
189452.238
 30
37.957
 70
    32
  0
VERTEX
  5
566
330
564
100
AcDbEntity
  8
006DP
100
AcDbVertex
100
AcDb3dPolylineVertex
 10
503841.857
 20
189451.117
 30
37.934
 70
    32
  0
SEQEND
  5
567
330
564
100
AcDbEntity
  8
006DP
  0
POLYLINE
  5
568
330
6F
100
AcDbEntity
  8
007DP
100
AcDb3dPolyline
 66
     1
 10
0.0
 20
0.0
 30
0.0
 70
     8
  0
VERTEX
  5
569
330
568
100
AcDbEntity
  8
007DP
100
AcDbVertex
100
AcDb3dPolylineVertex
 10
503842.409
 20
189453.767
 30
37.946
 70
    32
  0
VERTEX
  5
56A
330
568
100
AcDbEntity
  8
007DP
100
AcDbVertex
100
AcDb3dPolylineVertex
 10
503843.415
 20
189452.25
 30
37.96
 70
    32
  0
SEQEND
  5
56B
330
568
100
AcDbEntity
  8
007DP
  0
TEXT
  5
56C
330
6F
100
AcDbEntity
  8
TP32
100
AcDbText
 10
503843.4139754972
 20
189453.5816732902
 30
0.0
 40
1.0
  1
TP32
100
AcDbText
  0
POINT
  5
597
330
6F
100
AcDbEntity
  8
TP30L
100
AcDbPoint
 10
503857.512
 20
189427.223
 30
37.297
  0
POINT
  5
598
330
6F
100
AcDbEntity
  8
TP30L
100
AcDbPoint
 10
503857.137
 20
189426.385
 30
37.655
  0
POINT
  5
599
330
6F
100
AcDbEntity
  8
TP30L
100
AcDbPoint
 10
503856.859
 20
189425.229
 30
37.644
  0
POINT
  5
59A
330
6F
100
AcDbEntity
  8
TP30L
100
AcDbPoint
 10
503856.644
 20
189425.318
 30
38.198
  0
POINT
  5
59B
330
6F
100
AcDbEntity
  8
TP30DP
100
AcDbPoint
 10
503856.816
 20
189425.094
 30
38.177
  0
POINT
  5
59C
330
6F
100
AcDbEntity
  8
TP30DP
100
AcDbPoint
 10
503856.026
 20
189426.652
 30
38.211
  0
POINT
  5
59D
330
6F
100
AcDbEntity
  8
3005L
100
AcDbPoint
 10
503856.319
 20
189426.326
 30
38.089
  0
POINT
  5
59E
330
6F
100
AcDbEntity
  8
3005DP
100
AcDbPoint
 10
503856.144
 20
189426.726
 30
38.043
  0
POINT
  5
59F
330
6F
100
AcDbEntity
  8
3005DP
100
AcDbPoint
 10
503856.312
 20
189426.315
 30
38.049
  0
POINT
  5
5A0
330
6F
100
AcDbEntity
  8
3005L
100
AcDbPoint
 10
503856.202
 20
189426.566
 30
37.971
  0
POLYLINE
  5
5A1
330
6F
100
AcDbEntity
  8
TP30
100
AcDb3dPolyline
 66
     1
 10
0.0
 20
0.0
 30
0.0
 70
     9
  0
VERTEX
  5
5A2
330
5A1
100
AcDbEntity
  8
TP30
100
AcDbVertex
100
AcDb3dPolylineVertex
 10
503857.563
 20
189427.522
 30
38.291
 70
    32
  0
VERTEX
  5
5A3
330
5A1
100
AcDbEntity
  8
TP30
100
AcDbVertex
100
AcDb3dPolylineVertex
 10
503855.866
 20
189426.661
 30
38.301
 70
    32
  0
VERTEX
  5
5A4
330
5A1
100
AcDbEntity
  8
TP30
100
AcDbVertex
100
AcDb3dPolylineVertex
 10
503856.802
 20
189425.0
 30
38.345
 70
    32
  0
VERTEX
  5
5A5
330
5A1
100
AcDbEntity
  8
TP30
100
AcDbVertex
100
AcDb3dPolylineVertex
 10
503858.354
 20
189425.889
 30
38.32
 70
    32
  0
SEQEND
  5
5A6
330
5A1
100
AcDbEntity
  8
TP30
  0
POLYLINE
  5
5A7
330
6F
100
AcDbEntity
  8
3005R
100
AcDb3dPolyline
 66
     1
 10
0.0
 20
0.0
 30
0.0
 70
     8
  0
VERTEX
  5
5A8
330
5A7
100
AcDbEntity
  8
3005R
100
AcDbVertex
100
AcDb3dPolylineVertex
 10
503856.405
 20
189426.843
 30
37.988
 70
    32
  0
VERTEX
  5
5A9
330
5A7
100
AcDbEntity
  8
3005R
100
AcDbVertex
100
AcDb3dPolylineVertex
 10
503856.388
 20
189426.76
 30
37.997
 70
    32
  0
VERTEX
  5
5AA
330
5A7
100
AcDbEntity
  8
3005R
100
AcDbVertex
100
AcDb3dPolylineVertex
 10
503856.441
 20
189426.679
 30
38.017
 70
    32
  0
VERTEX
  5
5AB
330
5A7
100
AcDbEntity
  8
3005R
100
AcDbVertex
100
AcDb3dPolylineVertex
 10
503856.417
 20
189426.449
 30
38.014
 70
    32
  0
VERTEX
  5
5AC
330
5A7
100
AcDbEntity
  8
3005R
100
AcDbVertex
100
AcDb3dPolylineVertex
 10
503856.292
 20
189426.356
 30
38.02
 70
    32
  0
VERTEX
  5
5AD
330
5A7
100
AcDbEntity
  8
3005R
100
AcDbVertex
100
AcDb3dPolylineVertex
 10
503856.159
 20
189426.306
 30
38.04
 70
    32
  0
SEQEND
  5
5AE
330
5A7
100
AcDbEntity
  8
3005R
  0
TEXT
  5
5AF
330
6F
100
AcDbEntity
  8
3005R
100
AcDbText
 10
503856.4969033417
 20
189426.5790338607
 30
0.0
 40
0.2
  1
[3005]
100
AcDbText
  0
POLYLINE
  5
5B0
330
6F
100
AcDbEntity
  8
3005U
100
AcDb3dPolyline
 66
     1
 10
0.0
 20
0.0
 30
0.0
 70
     8
  0
VERTEX
  5
5B1
330
5B0
100
AcDbEntity
  8
3005U
100
AcDbVertex
100
AcDb3dPolylineVertex
 10
503856.159
 20
189426.306
 30
38.04
 70
    32
  0
VERTEX
  5
5B2
330
5B0
100
AcDbEntity
  8
3005U
100
AcDbVertex
100
AcDb3dPolylineVertex
 10
503855.9983655675
 20
189426.6402982827
 30
38.04
 70
    32
  0
VERTEX
  5
5B3
330
5B0
100
AcDbEntity
  8
3005U
100
AcDbVertex
100
AcDb3dPolylineVertex
 10
503856.405
 20
189426.843
 30
37.988
 70
    32
  0
SEQEND
  5
5B4
330
5B0
100
AcDbEntity
  8
3005U
  0
POLYLINE
  5
5D7
330
6F
100
AcDbEntity
  8
TP12
100
AcDb3dPolyline
 66
     1
 10
0.0
 20
0.0
 30
0.0
 70
     9
  0
VERTEX
  5
5D8
330
5D7
100
AcDbEntity
  8
TP12
100
AcDbVertex
100
AcDb3dPolylineVertex
 10
504317.965
 20
188545.815
 30
38.495
 70
    32
  0
VERTEX
  5
5D9
330
5D7
100
AcDbEntity
  8
TP12
100
AcDbVertex
100
AcDb3dPolylineVertex
 10
504318.325
 20
188547.752
 30
38.486
 70
    32
  0
VERTEX
  5
5DA
330
5D7
100
AcDbEntity
  8
TP12
100
AcDbVertex
100
AcDb3dPolylineVertex
 10
504320.316
 20
188547.233
 30
38.367
 70
    32
  0
VERTEX
  5
5DB
330
5D7
100
AcDbEntity
  8
TP12
100
AcDbVertex
100
AcDb3dPolylineVertex
 10
504319.873
 20
188545.335
 30
38.4
 70
    32
  0
VERTEX
  5
5DC
330
5D7
100
AcDbEntity
  8
TP12
100
AcDbVertex
100
AcDb3dPolylineVertex
 10
504317.965
 20
188545.815
 30
38.495
 70
    32
  0
SEQEND
  5
5DD
330
5D7
100
AcDbEntity
  8
TP12
  0
POINT
  5
5DF
330
6F
100
AcDbEntity
  8
TP12L
100
AcDbPoint
 10
504319.0916032759
 20
188546.4767977879
 30
38.486
  0
POINT
  5
61C
330
6F
100
AcDbEntity
  8
TP13L
100
AcDbPoint
 10
504364.8545
 20
188733.8139
 30
37.1466
  0
POINT
  5
61E
330
6F
100
AcDbEntity
  8
TP15L
100
AcDbPoint
 10
504347.9014
 20
188810.5326
 30
38.2367
  0
POINT
  5
622
330
6F
100
AcDbEntity
  8
TP09L
100
AcDbPoint
 10
504729.0213
 20
188462.086
 30
37.0039
  0
POINT
  5
624
330
6F
100
AcDbEntity
  8
TP08L
100
AcDbPoint
 10
504712.2587
 20
188436.5866
 30
36.6719
  0
POINT
  5
626
330
6F
100
AcDbEntity
  8
TP06L
100
AcDbPoint
 10
504789.9893
 20
188414.051
 30
37.2825
  0
POINT
  5
628
330
6F
100
AcDbEntity
  8
TP07L
100
AcDbPoint
 10
504775.1047
 20
188424.6463
 30
37.0672
  0
POINT
  5
64A
330
6F
100
AcDbEntity
  8
TP03L
100
AcDbPoint
 10
504889.5294
 20
188328.7578
 30
35.7126
  0
POINT
  5
671
330
6F
100
AcDbEntity
  8
TP20L
100
AcDbPoint
 10
504201.8153
 20
188952.006
 30
37.0529
  0
POINT
  5
673
330
6F
100
AcDbEntity
  8
TP17L
100
AcDbPoint
 10
504291.3487
 20
188813.9859
 30
37.2266
  0
POINT
  5
675
330
6F
100
AcDbEntity
  8
TP14L
100
AcDbPoint
 10
504373.5073
 20
188770.0747
 30
37.6096
  0
POINT
  5
6FD
330
6F
100
AcDbEntity
  8
TP11L
100
AcDbPoint
 10
504644.9502
 20
188511.0999
 30
36.1099
  0
TEXT
  5
720
330
6F
100
AcDbEntity
  8
TP37
100
AcDbText
 10
503684.4110200722
 20
189653.4642741089
 30
0.0
 40
3.0
  1
37
  7
Arial
100
AcDbText
  0
TEXT
  5
721
330
6F
100
AcDbEntity
  8
TP38
100
AcDbText
 10
503670.5923737035
 20
189675.6567249481
 30
0.0
 40
3.0
  1
38
  7
Arial
100
AcDbText
  0
TEXT
  5
722
330
6F
100
AcDbEntity
  8
TP39
100
AcDbText
 10
503652.7401428531
 20
189700.6232205108
 30
0.0
 40
3.0
  1
39
  7
Arial
100
AcDbText
  0
POLYLINE
  5
735
330
6F
100
AcDbEntity
  8
TP03
100
AcDb3dPolyline
 66
     1
 10
0.0
 20
0.0
 30
0.0
 70
     9
  0
VERTEX
  5
736
330
735
100
AcDbEntity
  8
TP03
100
AcDbVertex
100
AcDb3dPolylineVertex
 10
504888.5493
 20
188327.753
 30
-0.4239999999999995
 70
    32
  0
VERTEX
  5
737
330
735
100
AcDbEntity
  8
TP03
100
AcDbVertex
100
AcDb3dPolylineVertex
 10
504888.5493
 20
188329.753
 30
-0.4239999999999995
 70
    32
  0
VERTEX
  5
738
330
735
100
AcDbEntity
  8
TP03
100
AcDbVertex
100
AcDb3dPolylineVertex
 10
504890.5493
 20
188329.753
 30
-0.4239999999999995
 70
    32
  0
VERTEX
  5
739
330
735
100
AcDbEntity
  8
TP03
100
AcDbVertex
100
AcDb3dPolylineVertex
 10
504890.5493
 20
188327.753
 30
-0.4239999999999995
 70
    32
  0
VERTEX
  5
73A
330
735
100
AcDbEntity
  8
TP03
100
AcDbVertex
100
AcDb3dPolylineVertex
 10
504888.5493
 20
188327.753
 30
-0.4239999999999995
 70
    32
  0
SEQEND
  5
73B
330
735
100
AcDbEntity
  8
TP03
  0
TEXT
  5
73C
330
6F
100
AcDbEntity
  8
TP03
100
AcDbText
 10
504888.8422135502
 20
188330.1137871324
 30
0.0
 40
0.5
  1
TP3
  7
Arial
100
AcDbText
  0
POLYLINE
  5
73D
330
6F
100
AcDbEntity
  8
TP06
100
AcDb3dPolyline
 66
     1
 10
0.0
 20
0.0
 30
0.0
 70
     9
  0
VERTEX
  5
73E
330
73D
100
AcDbEntity
  8
TP06
100
AcDbVertex
100
AcDb3dPolylineVertex
 10
504788.9597
 20
188413.0373
 30
0.8958999999999975
 70
    32
  0
VERTEX
  5
73F
330
73D
100
AcDbEntity
  8
TP06
100
AcDbVertex
100
AcDb3dPolylineVertex
 10
504788.9597
 20
188415.0373
 30
0.8958999999999975
 70
    32
  0
VERTEX
  5
740
330
73D
100
AcDbEntity
  8
TP06
100
AcDbVertex
100
AcDb3dPolylineVertex
 10
504790.9597
 20
188415.0373
 30
0.8958999999999975
 70
    32
  0
VERTEX
  5
741
330
73D
100
AcDbEntity
  8
TP06
100
AcDbVertex
100
AcDb3dPolylineVertex
 10
504790.9597
 20
188413.0373
 30
0.8958999999999975
 70
    32
  0
VERTEX
  5
742
330
73D
100
AcDbEntity
  8
TP06
100
AcDbVertex
100
AcDb3dPolylineVertex
 10
504788.9597
 20
188413.0373
 30
0.8958999999999975
 70
    32
  0
SEQEND
  5
743
330
73D
100
AcDbEntity
  8
TP06
  0
TEXT
  5
744
330
6F
100
AcDbEntity
  8
TP06
100
AcDbText
 10
504789.4533159272
 20
188415.8994838556
 30
0.0
 40
0.5
  1
TP6
  7
Arial
100
AcDbText
  0
POLYLINE
  5
745
330
6F
100
AcDbEntity
  8
TP07
100
AcDb3dPolyline
 66
     1
 10
0.0
 20
0.0
 30
0.0
 70
     9
  0
VERTEX
  5
746
330
745
100
AcDbEntity
  8
TP07
100
AcDbVertex
100
AcDb3dPolylineVertex
 10
504774.0751
 20
188423.6326
 30
0.6805999999999983
 70
    32
  0
VERTEX
  5
747
330
745
100
AcDbEntity
  8
TP07
100
AcDbVertex
100
AcDb3dPolylineVertex
 10
504774.0751
 20
188425.6326
 30
0.6805999999999983
 70
    32
  0
VERTEX
  5
748
330
745
100
AcDbEntity
  8
TP07
100
AcDbVertex
100
AcDb3dPolylineVertex
 10
504776.0751
 20
188425.6326
 30
0.6805999999999983
 70
    32
  0
VERTEX
  5
749
330
745
100
AcDbEntity
  8
TP07
100
AcDbVertex
100
AcDb3dPolylineVertex
 10
504776.0751
 20
188423.6326
 30
0.6805999999999983
 70
    32
  0
VERTEX
  5
74A
330
745
100
AcDbEntity
  8
TP07
100
AcDbVertex
100
AcDb3dPolylineVertex
 10
504774.0751
 20
188423.6326
 30
0.6805999999999983
 70
    32
  0
SEQEND
  5
74B
330
745
100
AcDbEntity
  8
TP07
  0
TEXT
  5
74C
330
6F
100
AcDbEntity
  8
TP07
100
AcDbText
 10
504774.4677077017
 20
188426.2522238023
 30
0.0
 40
0.5
  1
TP7
  7
Arial
100
AcDbText
  0
POLYLINE
  5
74D
330
6F
100
AcDbEntity
  8
TP08
100
AcDb3dPolyline
 66
     1
 10
0.0
 20
0.0
 30
0.0
 70
     9
  0
VERTEX
  5
74E
330
74D
100
AcDbEntity
  8
TP08
100
AcDbVertex
100
AcDb3dPolylineVertex
 10
504711.2291
 20
188435.5729
 30
0.2852999999999994
 70
    32
  0
VERTEX
  5
74F
330
74D
100
AcDbEntity
  8
TP08
100
AcDbVertex
100
AcDb3dPolylineVertex
 10
504711.2291
 20
188437.5729
 30
0.2852999999999994
 70
    32
  0
VERTEX
  5
750
330
74D
100
AcDbEntity
  8
TP08
100
AcDbVertex
100
AcDb3dPolylineVertex
 10
504713.2291
 20
188437.5729
 30
0.2852999999999994
 70
    32
  0
VERTEX
  5
751
330
74D
100
AcDbEntity
  8
TP08
100
AcDbVertex
100
AcDb3dPolylineVertex
 10
504713.2291
 20
188435.5729
 30
0.2852999999999994
 70
    32
  0
VERTEX
  5
752
330
74D
100
AcDbEntity
  8
TP08
100
AcDbVertex
100
AcDb3dPolylineVertex
 10
504711.2291
 20
188435.5729
 30
0.2852999999999994
 70
    32
  0
SEQEND
  5
753
330
74D
100
AcDbEntity
  8
TP08
  0
POLYLINE
  5
754
330
6F
100
AcDbEntity
  8
TP09
100
AcDb3dPolyline
 66
     1
 10
0.0
 20
0.0
 30
0.0
 70
     9
  0
VERTEX
  5
755
330
754
100
AcDbEntity
  8
TP09
100
AcDbVertex
100
AcDb3dPolylineVertex
 10
504727.9917
 20
188461.0723
 30
0.6173000000000002
 70
    32
  0
VERTEX
  5
756
330
754
100
AcDbEntity
  8
TP09
100
AcDbVertex
100
AcDb3dPolylineVertex
 10
504727.9917
 20
188463.0723
 30
0.6173000000000002
 70
    32
  0
VERTEX
  5
757
330
754
100
AcDbEntity
  8
TP09
100
AcDbVertex
100
AcDb3dPolylineVertex
 10
504729.9917
 20
188463.0723
 30
0.6173000000000002
 70
    32
  0
VERTEX
  5
758
330
754
100
AcDbEntity
  8
TP09
100
AcDbVertex
100
AcDb3dPolylineVertex
 10
504729.9917
 20
188461.0723
 30
0.6173000000000002
 70
    32
  0
VERTEX
  5
759
330
754
100
AcDbEntity
  8
TP09
100
AcDbVertex
100
AcDb3dPolylineVertex
 10
504727.9917
 20
188461.0723
 30
0.6173000000000002
 70
    32
  0
SEQEND
  5
75A
330
754
100
AcDbEntity
  8
TP09
  0
TEXT
  5
764
330
6F
100
AcDbEntity
  8
TP08
100
AcDbText
 10
504711.8447106642
 20
188438.0192262267
 30
0.0
 40
0.5
  1
TP8
  7
Arial
100
AcDbText
  0
TEXT
  5
765
330
6F
100
AcDbEntity
  8
TP09
100
AcDbText
 10
504728.3283111091
 20
188463.900469322
 30
0.0
 40
0.5
  1
TP9
  7
Arial
100
AcDbText
  0
POINT
  5
766
330
6F
100
AcDbEntity
  8
TP10L
100
AcDbPoint
 10
504703.8278913313
 20
188520.8710986842
 30
35.95
  0
TEXT
  5
76A
330
6F
100
AcDbEntity
  8
TP10
100
AcDbText
 10
504703.2093924015
 20
188522.7587529148
 30
0.0
 40
0.5
  1
TP10
  7
Arial
100
AcDbText
  0
TEXT
  5
76C
330
6F
100
AcDbEntity
  8
TP11
100
AcDbText
 10
504644.4118534771
 20
188512.6402046062
 30
0.0
 40
0.5
  1
TP11
  7
Arial
100
AcDbText
  0
TEXT
  5
76F
330
6F
100
AcDbEntity
  8
TP12
100
AcDbText
 10
504318.6267469606
 20
188548.0953146048
 30
0.0
 40
0.5
  1
TP12
  7
Arial
100
AcDbText
  0
TEXT
  5
77D
330
6F
100
AcDbEntity
  8
TP13
100
AcDbText
 10
504363.879154721
 20
188735.3561619508
 30
0.0
 40
0.5
  1
TP13
  7
Arial
100
AcDbText
  0
TEXT
  5
77F
330
6F
100
AcDbEntity
  8
TP14
100
AcDbText
 10
504372.8910074681
 20
188771.4316114816
 30
0.0
 40
0.5
  1
TP14
  7
Arial
100
AcDbText
  0
TEXT
  5
78C
330
6F
100
AcDbEntity
  8
TP15
100
AcDbText
 10
504347.0620802932
 20
188811.8868827999
 30
0.0
 40
0.5
  1
TP15
  7
Arial
100
AcDbText
  0
TEXT
  5
78D
330
6F
100
AcDbEntity
  8
TP17
100
AcDbText
 10
504290.5472590533
 20
188815.3291404936
 30
0.0
 40
0.5
  1
TP17
  7
Arial
100
AcDbText
  0
TEXT
  5
7A2
330
6F
100
AcDbEntity
  8
TP20
100
AcDbText
 10
504201.1414180211
 20
188953.4849712003
 30
0.0
 40
0.5
  1
TP20
  7
Arial
100
AcDbText
  0
TEXT
  5
7A3
330
6F
100
AcDbEntity
  8
TP23
100
AcDbText
 10
504127.0111834237
 20
189051.5714840206
 30
0.0
 40
0.5
  1
TP23
  7
Arial
100
AcDbText
  0
TEXT
  5
7A4
330
6F
100
AcDbEntity
  8
TP26
100
AcDbText
 10
503978.3876228412
 20
189221.5678390083
 30
0.0
 40
0.5
  1
TP26
  7
Arial
100
AcDbText
  0
TEXT
  5
7A5
330
6F
100
AcDbEntity
  8
TP27
100
AcDbText
 10
503912.7247875874
 20
189293.2902663266
 30
0.0
 40
0.5
  1
TP27
  7
Arial
100
AcDbText
  0
TEXT
  5
7A6
330
6F
100
AcDbEntity
  8
TP28
100
AcDbText
 10
503895.1661866201
 20
189326.8521779169
 30
0.0
 40
0.5
  1
TP28
  7
Arial
100
AcDbText
  0
TEXT
  5
7B1
330
6F
100
AcDbEntity
  8
TP30
100
AcDbText
 10
503858.4421060444
 20
189427.1363751982
 30
0.0
 40
0.5
  1
TP30
  7
Arial
100
AcDbText
  0
POINT
  5
7E3
330
6F
100
AcDbEntity
  8
TP33L
100
AcDbPoint
 10
503749.6805
 20
189525.1798
 30
38.8385
  0
POLYLINE
  5
7EB
330
6F
100
AcDbEntity
  8
TP30DP
100
AcDb3dPolyline
 66
     1
 10
0.0
 20
0.0
 30
0.0
 70
     8
  0
VERTEX
  5
7ED
330
7EB
100
AcDbEntity
  8
TP30DP
100
AcDbVertex
100
AcDb3dPolylineVertex
 10
503856.816
 20
189425.094
 30
38.177
 70
    32
  0
VERTEX
  5
7EE
330
7EB
100
AcDbEntity
  8
TP30DP
100
AcDbVertex
100
AcDb3dPolylineVertex
 10
503856.026
 20
189426.652
 30
38.211
 70
    32
  0
SEQEND
  5
7EC
330
7EB
100
AcDbEntity
  8
TP30DP
390
F
  0
POLYLINE
  5
7EF
330
6F
100
AcDbEntity
  8
3005DP
100
AcDb3dPolyline
 66
     1
 10
0.0
 20
0.0
 30
0.0
 70
     8
  0
VERTEX
  5
7F1
330
7EF
100
AcDbEntity
  8
3005DP
100
AcDbVertex
100
AcDb3dPolylineVertex
 10
503856.312
 20
189426.315
 30
38.049
 70
    32
  0
VERTEX
  5
7F2
330
7EF
100
AcDbEntity
  8
3005DP
100
AcDbVertex
100
AcDb3dPolylineVertex
 10
503856.144
 20
189426.726
 30
38.043
 70
    32
  0
SEQEND
  5
7F0
330
7EF
100
AcDbEntity
  8
3005DP
390
F
  0
POINT
  5
7F5
330
6F
100
AcDbEntity
  8
TP25L
100
AcDbPoint
 10
504041.3084
 20
189128.8993
 30
40.11
  0
POINT
  5
7F8
330
6F
100
AcDbEntity
  8
TP36L
100
AcDbPoint
 10
503721.5195000001
 20
189592.9446
 30
39.9
  0
POINT
  5
7FB
330
6F
100
AcDbEntity
  8
TP35L
100
AcDbPoint
 10
503723.5619000015
 20
189605.5752000008
 30
38.86
  0
POINT
  5
801
330
6F
100
AcDbEntity
  8
TP37L
100
AcDbPoint
 10
503680.644
 20
189660.0
 30
39.78
  0
POINT
  5
803
330
6F
100
AcDbEntity
  8
TP38L
100
AcDbPoint
 10
503668.0952
 20
189678.2443
 30
40.0
  0
POINT
  5
805
330
6F
100
AcDbEntity
  8
TP39L
100
AcDbPoint
 10
503649.9194000005
 20
189704.4854000033
 30
39.45
  0
POINT
  5
820
330
6F
100
AcDbEntity
  8
TP47L
100
AcDbPoint
 10
503633.9534
 20
189820.0516
 30
39.165
  0
POINT
  5
827
330
6F
100
AcDbEntity
  8
TP49L
100
AcDbPoint
 10
503664.736
 20
189818.653
 30
39.39
  0
POINT
  5
828
330
6F
100
AcDbEntity
  8
TP48L
100
AcDbPoint
 10
503652.83
 20
189793.915
 30
39.23
  0
POLYLINE
  5
82E
330
6F
100
AcDbEntity
  8
TP20
100
AcDb3dPolyline
 66
     1
 10
0.0
 20
0.0
 30
0.0
 70
     9
  0
VERTEX
  5
82F
330
82E
100
AcDbEntity
  8
TP20
100
AcDbVertex
100
AcDb3dPolylineVertex
 10
504200.8152999996
 20
188951.0059999981
 30
37.0529
 70
    32
  0
VERTEX
  5
830
330
82E
100
AcDbEntity
  8
TP20
100
AcDbVertex
100
AcDb3dPolylineVertex
 10
504200.8152999996
 20
188953.006
 30
37.0529
 70
    32
  0
VERTEX
  5
831
330
82E
100
AcDbEntity
  8
TP20
100
AcDbVertex
100
AcDb3dPolylineVertex
 10
504202.8153000005
 20
188953.006
 30
37.0529
 70
    32
  0
VERTEX
  5
832
330
82E
100
AcDbEntity
  8
TP20
100
AcDbVertex
100
AcDb3dPolylineVertex
 10
504202.8153000005
 20
188951.0059999981
 30
37.0529
 70
    32
  0
SEQEND
  5
833
330
82E
100
AcDbEntity
  8
TP20
  0
POLYLINE
  5
834
330
6F
100
AcDbEntity
  8
TP17
100
AcDb3dPolyline
 66
     1
 10
0.0
 20
0.0
 30
0.0
 70
     9
  0
VERTEX
  5
835
330
834
100
AcDbEntity
  8
TP17
100
AcDbVertex
100
AcDb3dPolylineVertex
 10
504290.3486999995
 20
188812.9858999981
 30
37.2266
 70
    32
  0
VERTEX
  5
836
330
834
100
AcDbEntity
  8
TP17
100
AcDbVertex
100
AcDb3dPolylineVertex
 10
504290.3486999995
 20
188814.9859
 30
37.2266
 70
    32
  0
VERTEX
  5
837
330
834
100
AcDbEntity
  8
TP17
100
AcDbVertex
100
AcDb3dPolylineVertex
 10
504292.3487000005
 20
188814.9859
 30
37.2266
 70
    32
  0
VERTEX
  5
838
330
834
100
AcDbEntity
  8
TP17
100
AcDbVertex
100
AcDb3dPolylineVertex
 10
504292.3487000005
 20
188812.9858999981
 30
37.2266
 70
    32
  0
SEQEND
  5
839
330
834
100
AcDbEntity
  8
TP17
  0
POLYLINE
  5
83A
330
6F
100
AcDbEntity
  8
TP15
100
AcDb3dPolyline
 66
     1
 10
0.0
 20
0.0
 30
0.0
 70
     9
  0
VERTEX
  5
83B
330
83A
100
AcDbEntity
  8
TP15
100
AcDbVertex
100
AcDb3dPolylineVertex
 10
504346.9013999995
 20
188809.5325999981
 30
38.2367
 70
    32
  0
VERTEX
  5
83C
330
83A
100
AcDbEntity
  8
TP15
100
AcDbVertex
100
AcDb3dPolylineVertex
 10
504346.9013999995
 20
188811.5326
 30
38.2367
 70
    32
  0
VERTEX
  5
83D
330
83A
100
AcDbEntity
  8
TP15
100
AcDbVertex
100
AcDb3dPolylineVertex
 10
504348.9014000005
 20
188811.5326
 30
38.2367
 70
    32
  0
VERTEX
  5
83E
330
83A
100
AcDbEntity
  8
TP15
100
AcDbVertex
100
AcDb3dPolylineVertex
 10
504348.9014000005
 20
188809.5325999981
 30
38.2367
 70
    32
  0
SEQEND
  5
83F
330
83A
100
AcDbEntity
  8
TP15
  0
POLYLINE
  5
840
330
6F
100
AcDbEntity
  8
TP14
100
AcDb3dPolyline
 66
     1
 10
0.0
 20
0.0
 30
0.0
 70
     9
  0
VERTEX
  5
841
330
840
100
AcDbEntity
  8
TP14
100
AcDbVertex
100
AcDb3dPolylineVertex
 10
504372.5072999995
 20
188769.0746999981
 30
37.6096
 70
    32
  0
VERTEX
  5
842
330
840
100
AcDbEntity
  8
TP14
100
AcDbVertex
100
AcDb3dPolylineVertex
 10
504372.5072999995
 20
188771.0747
 30
37.6096
 70
    32
  0
VERTEX
  5
843
330
840
100
AcDbEntity
  8
TP14
100
AcDbVertex
100
AcDb3dPolylineVertex
 10
504374.5073000005
 20
188771.0747
 30
37.6096
 70
    32
  0
VERTEX
  5
844
330
840
100
AcDbEntity
  8
TP14
100
AcDbVertex
100
AcDb3dPolylineVertex
 10
504374.5073000005
 20
188769.0746999981
 30
37.6096
 70
    32
  0
SEQEND
  5
845
330
840
100
AcDbEntity
  8
TP14
  0
POLYLINE
  5
846
330
6F
100
AcDbEntity
  8
TP13
100
AcDb3dPolyline
 66
     1
 10
0.0
 20
0.0
 30
0.0
 70
     9
  0
VERTEX
  5
847
330
846
100
AcDbEntity
  8
TP13
100
AcDbVertex
100
AcDb3dPolylineVertex
 10
504363.8544999996
 20
188732.8138999981
 30
37.1466
 70
    32
  0
VERTEX
  5
848
330
846
100
AcDbEntity
  8
TP13
100
AcDbVertex
100
AcDb3dPolylineVertex
 10
504363.8544999996
 20
188734.8139
 30
37.1466
 70
    32
  0
VERTEX
  5
849
330
846
100
AcDbEntity
  8
TP13
100
AcDbVertex
100
AcDb3dPolylineVertex
 10
504365.8545000005
 20
188734.8139
 30
37.1466
 70
    32
  0
VERTEX
  5
84A
330
846
100
AcDbEntity
  8
TP13
100
AcDbVertex
100
AcDb3dPolylineVertex
 10
504365.8545000005
 20
188732.8138999981
 30
37.1466
 70
    32
  0
SEQEND
  5
84B
330
846
100
AcDbEntity
  8
TP13
  0
POLYLINE
  5
84C
330
6F
100
AcDbEntity
  8
TP39
100
AcDb3dPolyline
 66
     1
 10
0.0
 20
0.0
 30
0.0
 70
     9
  0
VERTEX
  5
84D
330
84C
100
AcDbEntity
  8
TP39
100
AcDbVertex
100
AcDb3dPolylineVertex
 10
503648.919400001
 20
189703.4854000024
 30
0.0
 70
    32
  0
VERTEX
  5
84E
330
84C
100
AcDbEntity
  8
TP39
100
AcDbVertex
100
AcDb3dPolylineVertex
 10
503648.919400001
 20
189705.4854000043
 30
0.0
 70
    32
  0
VERTEX
  5
84F
330
84C
100
AcDbEntity
  8
TP39
100
AcDbVertex
100
AcDb3dPolylineVertex
 10
503650.9194
 20
189705.4854000043
 30
0.0
 70
    32
  0
VERTEX
  5
850
330
84C
100
AcDbEntity
  8
TP39
100
AcDbVertex
100
AcDb3dPolylineVertex
 10
503650.9194
 20
189703.4854000024
 30
0.0
 70
    32
  0
SEQEND
  5
851
330
84C
100
AcDbEntity
  8
TP39
  0
POLYLINE
  5
852
330
6F
100
AcDbEntity
  8
TP38
100
AcDb3dPolyline
 66
     1
 10
0.0
 20
0.0
 30
0.0
 70
     9
  0
VERTEX
  5
853
330
852
100
AcDbEntity
  8
TP38
100
AcDbVertex
100
AcDb3dPolylineVertex
 10
503667.0952000004
 20
189677.244299999
 30
-40.003
 70
    32
  0
VERTEX
  5
854
330
852
100
AcDbEntity
  8
TP38
100
AcDbVertex
100
AcDb3dPolylineVertex
 10
503667.0952000004
 20
189679.244300001
 30
-40.003
 70
    32
  0
VERTEX
  5
855
330
852
100
AcDbEntity
  8
TP38
100
AcDbVertex
100
AcDb3dPolylineVertex
 10
503669.0951999995
 20
189679.244300001
 30
-40.003
 70
    32
  0
VERTEX
  5
856
330
852
100
AcDbEntity
  8
TP38
100
AcDbVertex
100
AcDb3dPolylineVertex
 10
503669.0951999995
 20
189677.244299999
 30
-40.003
 70
    32
  0
SEQEND
  5
857
330
852
100
AcDbEntity
  8
TP38
  0
POLYLINE
  5
858
330
6F
100
AcDbEntity
  8
TP37
100
AcDb3dPolyline
 66
     1
 10
0.0
 20
0.0
 30
0.0
 70
     9
  0
VERTEX
  5
859
330
858
100
AcDbEntity
  8
TP37
100
AcDbVertex
100
AcDb3dPolylineVertex
 10
503679.6440000005
 20
189659.0
 30
0.0
 70
    32
  0
VERTEX
  5
85A
330
858
100
AcDbEntity
  8
TP37
100
AcDbVertex
100
AcDb3dPolylineVertex
 10
503679.6440000005
 20
189661.0
 30
0.0
 70
    32
  0
VERTEX
  5
85B
330
858
100
AcDbEntity
  8
TP37
100
AcDbVertex
100
AcDb3dPolylineVertex
 10
503681.6439999995
 20
189661.0
 30
0.0
 70
    32
  0
VERTEX
  5
85C
330
858
100
AcDbEntity
  8
TP37
100
AcDbVertex
100
AcDb3dPolylineVertex
 10
503681.6439999995
 20
189659.0
 30
0.0
 70
    32
  0
SEQEND
  5
85D
330
858
100
AcDbEntity
  8
TP37
  0
POLYLINE
  5
85E
330
6F
100
AcDbEntity
  8
TP25
100
AcDb3dPolyline
 66
     1
 10
0.0
 20
0.0
 30
0.0
 70
     9
  0
VERTEX
  5
85F
330
85E
100
AcDbEntity
  8
TP25
100
AcDbVertex
100
AcDb3dPolylineVertex
 10
504040.3084000014
 20
189127.8992999982
 30
42.2322
 70
    32
  0
VERTEX
  5
860
330
85E
100
AcDbEntity
  8
TP25
100
AcDbVertex
100
AcDb3dPolylineVertex
 10
504040.3084000014
 20
189129.8993
 30
42.2322
 70
    32
  0
VERTEX
  5
861
330
85E
100
AcDbEntity
  8
TP25
100
AcDbVertex
100
AcDb3dPolylineVertex
 10
504042.3084000005
 20
189129.8993
 30
42.2322
 70
    32
  0
VERTEX
  5
862
330
85E
100
AcDbEntity
  8
TP25
100
AcDbVertex
100
AcDb3dPolylineVertex
 10
504042.3084000005
 20
189127.8992999982
 30
42.2322
 70
    32
  0
SEQEND
  5
863
330
85E
100
AcDbEntity
  8
TP25
  0
POLYLINE
  5
864
330
6F
100
AcDbEntity
  8
TP26
100
AcDb3dPolyline
 66
     1
 10
0.0
 20
0.0
 30
0.0
 70
     9
  0
VERTEX
  5
865
330
864
100
AcDbEntity
  8
TP26
100
AcDbVertex
100
AcDb3dPolylineVertex
 10
503978.2251000014
 20
189219.2883999982
 30
39.7192
 70
    32
  0
VERTEX
  5
866
330
864
100
AcDbEntity
  8
TP26
100
AcDbVertex
100
AcDb3dPolylineVertex
 10
503978.2251000014
 20
189221.2884
 30
39.7192
 70
    32
  0
VERTEX
  5
867
330
864
100
AcDbEntity
  8
TP26
100
AcDbVertex
100
AcDb3dPolylineVertex
 10
503980.2251000005
 20
189221.2884
 30
39.7192
 70
    32
  0
VERTEX
  5
868
330
864
100
AcDbEntity
  8
TP26
100
AcDbVertex
100
AcDb3dPolylineVertex
 10
503980.2251000005
 20
189219.2883999982
 30
39.7192
 70
    32
  0
SEQEND
  5
869
330
864
100
AcDbEntity
  8
TP26
  0
POLYLINE
  5
86A
330
6F
100
AcDbEntity
  8
TP28
100
AcDb3dPolyline
 66
     1
 10
0.0
 20
0.0
 30
0.0
 70
     9
  0
VERTEX
  5
86B
330
86A
100
AcDbEntity
  8
TP28
100
AcDbVertex
100
AcDb3dPolylineVertex
 10
503895.0847201124
 20
189324.2391758391
 30
39.9616
 70
    32
  0
VERTEX
  5
86C
330
86A
100
AcDbEntity
  8
TP28
100
AcDbVertex
100
AcDb3dPolylineVertex
 10
503895.0847201124
 20
189326.2391758411
 30
39.9616
 70
    32
  0
VERTEX
  5
86D
330
86A
100
AcDbEntity
  8
TP28
100
AcDbVertex
100
AcDb3dPolylineVertex
 10
503897.0847201116
 20
189326.2391758411
 30
39.9616
 70
    32
  0
VERTEX
  5
86E
330
86A
100
AcDbEntity
  8
TP28
100
AcDbVertex
100
AcDb3dPolylineVertex
 10
503897.0847201116
 20
189324.2391758391
 30
39.9616
 70
    32
  0
SEQEND
  5
86F
330
86A
100
AcDbEntity
  8
TP28
  0
POLYLINE
  5
870
330
6F
100
AcDbEntity
  8
TP36
100
AcDb3dPolyline
 66
     1
 10
0.0
 20
0.0
 30
0.0
 70
     9
  0
VERTEX
  5
871
330
870
100
AcDbEntity
  8
TP36
100
AcDbVertex
100
AcDb3dPolylineVertex
 10
503715.1101999996
 20
189587.1776
 30
39.6978
 70
    32
  0
VERTEX
  5
872
330
870
100
AcDbEntity
  8
TP36
100
AcDbVertex
100
AcDb3dPolylineVertex
 10
503715.1101999996
 20
189589.1776
 30
39.6978
 70
    32
  0
VERTEX
  5
873
330
870
100
AcDbEntity
  8
TP36
100
AcDbVertex
100
AcDb3dPolylineVertex
 10
503717.1102000005
 20
189589.1776
 30
39.6978
 70
    32
  0
VERTEX
  5
874
330
870
100
AcDbEntity
  8
TP36
100
AcDbVertex
100
AcDb3dPolylineVertex
 10
503717.1102000005
 20
189587.1776
 30
39.6978
 70
    32
  0
SEQEND
  5
875
330
870
100
AcDbEntity
  8
TP36
  0
POLYLINE
  5
876
330
6F
100
AcDbEntity
  8
TP34
100
AcDb3dPolyline
 66
     1
 10
0.0
 20
0.0
 30
0.0
 70
     9
  0
VERTEX
  5
877
330
876
100
AcDbEntity
  8
TP34
100
AcDbVertex
100
AcDb3dPolylineVertex
 10
503720.5194999995
 20
189591.9446
 30
38.8998
 70
    32
  0
VERTEX
  5
878
330
876
100
AcDbEntity
  8
TP34
100
AcDbVertex
100
AcDb3dPolylineVertex
 10
503720.5194999995
 20
189593.9446
 30
38.8998
 70
    32
  0
VERTEX
  5
879
330
876
100
AcDbEntity
  8
TP34
100
AcDbVertex
100
AcDb3dPolylineVertex
 10
503722.5195000005
 20
189593.9446
 30
38.8998
 70
    32
  0
VERTEX
  5
87A
330
876
100
AcDbEntity
  8
TP34
100
AcDbVertex
100
AcDb3dPolylineVertex
 10
503722.5195000005
 20
189591.9446
 30
38.8998
 70
    32
  0
SEQEND
  5
87B
330
876
100
AcDbEntity
  8
TP34
  0
POLYLINE
  5
87C
330
6F
100
AcDbEntity
  8
TP23
100
AcDb3dPolyline
 66
     1
 10
0.0
 20
0.0
 30
0.0
 70
     9
  0
VERTEX
  5
87D
330
87C
100
AcDbEntity
  8
TP23
100
AcDbVertex
100
AcDb3dPolylineVertex
 10
504126.8387999997
 20
189049.2680999982
 30
37.1459
 70
    32
  0
VERTEX
  5
87E
330
87C
100
AcDbEntity
  8
TP23
100
AcDbVertex
100
AcDb3dPolylineVertex
 10
504126.8387999997
 20
189051.2681
 30
37.1459
 70
    32
  0
VERTEX
  5
87F
330
87C
100
AcDbEntity
  8
TP23
100
AcDbVertex
100
AcDb3dPolylineVertex
 10
504128.8388000006
 20
189051.2681
 30
37.1459
 70
    32
  0
VERTEX
  5
880
330
87C
100
AcDbEntity
  8
TP23
100
AcDbVertex
100
AcDb3dPolylineVertex
 10
504128.8388000006
 20
189049.2680999982
 30
37.1459
 70
    32
  0
SEQEND
  5
881
330
87C
100
AcDbEntity
  8
TP23
  0
POLYLINE
  5
882
330
6F
100
AcDbEntity
  8
TP35
100
AcDb3dPolyline
 66
     1
 10
0.0
 20
0.0
 30
0.0
 70
     9
  0
VERTEX
  5
883
330
882
100
AcDbEntity
  8
TP35
100
AcDbVertex
100
AcDb3dPolylineVertex
 10
503722.561900001
 20
189604.5752000008
 30
0.0
 70
    32
  0
VERTEX
  5
884
330
882
100
AcDbEntity
  8
TP35
100
AcDbVertex
100
AcDb3dPolylineVertex
 10
503722.561900001
 20
189606.5752000008
 30
0.0
 70
    32
  0
VERTEX
  5
885
330
882
100
AcDbEntity
  8
TP35
100
AcDbVertex
100
AcDb3dPolylineVertex
 10
503724.561900002
 20
189606.5752000008
 30
0.0
 70
    32
  0
VERTEX
  5
886
330
882
100
AcDbEntity
  8
TP35
100
AcDbVertex
100
AcDb3dPolylineVertex
 10
503724.561900002
 20
189604.5752000008
 30
0.0
 70
    32
  0
SEQEND
  5
887
330
882
100
AcDbEntity
  8
TP35
  0
POLYLINE
  5
888
330
6F
100
AcDbEntity
  8
TP27
100
AcDb3dPolyline
 66
     1
 10
0.0
 20
0.0
 30
0.0
 70
     9
  0
VERTEX
  5
889
330
888
100
AcDbEntity
  8
TP27
100
AcDbVertex
100
AcDb3dPolylineVertex
 10
503912.6120000005
 20
189291.0649999991
 30
0.0
 70
    32
  0
VERTEX
  5
88A
330
888
100
AcDbEntity
  8
TP27
100
AcDbVertex
100
AcDb3dPolylineVertex
 10
503912.6120000005
 20
189293.0650000009
 30
0.0
 70
    32
  0
VERTEX
  5
88B
330
888
100
AcDbEntity
  8
TP27
100
AcDbVertex
100
AcDb3dPolylineVertex
 10
503914.6119999996
 20
189293.0650000009
 30
0.0
 70
    32
  0
VERTEX
  5
88C
330
888
100
AcDbEntity
  8
TP27
100
AcDbVertex
100
AcDb3dPolylineVertex
 10
503914.6119999996
 20
189291.0649999991
 30
0.0
 70
    32
  0
SEQEND
  5
88D
330
888
100
AcDbEntity
  8
TP27
  0
POLYLINE
  5
88E
330
6F
100
AcDbEntity
  8
TP33
100
AcDb3dPolyline
 66
     1
 10
0.0
 20
0.0
 30
0.0
 70
     9
  0
VERTEX
  5
88F
330
88E
100
AcDbEntity
  8
TP33
100
AcDbVertex
100
AcDb3dPolylineVertex
 10
503748.6804999996
 20
189524.1798
 30
38.8385
 70
    32
  0
VERTEX
  5
890
330
88E
100
AcDbEntity
  8
TP33
100
AcDbVertex
100
AcDb3dPolylineVertex
 10
503748.6804999996
 20
189526.1798
 30
38.8385
 70
    32
  0
VERTEX
  5
891
330
88E
100
AcDbEntity
  8
TP33
100
AcDbVertex
100
AcDb3dPolylineVertex
 10
503750.6805000005
 20
189526.1798
 30
38.8385
 70
    32
  0
VERTEX
  5
892
330
88E
100
AcDbEntity
  8
TP33
100
AcDbVertex
100
AcDb3dPolylineVertex
 10
503750.6805000005
 20
189524.1798
 30
38.8385
 70
    32
  0
SEQEND
  5
893
330
88E
100
AcDbEntity
  8
TP33
  0
POLYLINE
  5
894
330
6F
100
AcDbEntity
  8
TP48
100
AcDb3dPolyline
 66
     1
 10
0.0
 20
0.0
 30
0.0
 70
     9
  0
VERTEX
  5
895
330
894
100
AcDbEntity
  8
TP48
100
AcDbVertex
100
AcDb3dPolylineVertex
 10
503651.83
 20
189792.915
 30
0.0
 70
    32
  0
VERTEX
  5
896
330
894
100
AcDbEntity
  8
TP48
100
AcDbVertex
100
AcDb3dPolylineVertex
 10
503653.83
 20
189792.915
 30
0.0
 70
    32
  0
VERTEX
  5
897
330
894
100
AcDbEntity
  8
TP48
100
AcDbVertex
100
AcDb3dPolylineVertex
 10
503653.83
 20
189794.915
 30
0.0
 70
    32
  0
VERTEX
  5
898
330
894
100
AcDbEntity
  8
TP48
100
AcDbVertex
100
AcDb3dPolylineVertex
 10
503651.83
 20
189794.915
 30
0.0
 70
    32
  0
SEQEND
  5
899
330
894
100
AcDbEntity
  8
TP48
  0
POLYLINE
  5
89A
330
6F
100
AcDbEntity
  8
TP49
100
AcDb3dPolyline
 66
     1
 10
0.0
 20
0.0
 30
0.0
 70
     9
  0
VERTEX
  5
89B
330
89A
100
AcDbEntity
  8
TP49
100
AcDbVertex
100
AcDb3dPolylineVertex
 10
503663.736
 20
189817.653
 30
0.0
 70
    32
  0
VERTEX
  5
89C
330
89A
100
AcDbEntity
  8
TP49
100
AcDbVertex
100
AcDb3dPolylineVertex
 10
503665.736
 20
189817.653
 30
0.0
 70
    32
  0
VERTEX
  5
89D
330
89A
100
AcDbEntity
  8
TP49
100
AcDbVertex
100
AcDb3dPolylineVertex
 10
503665.736
 20
189819.653
 30
0.0
 70
    32
  0
VERTEX
  5
89E
330
89A
100
AcDbEntity
  8
TP49
100
AcDbVertex
100
AcDb3dPolylineVertex
 10
503663.736
 20
189819.653
 30
0.0
 70
    32
  0
SEQEND
  5
89F
330
89A
100
AcDbEntity
  8
TP49
  0
POLYLINE
  5
8A0
330
6F
100
AcDbEntity
  8
TP11
100
AcDb3dPolyline
 66
     1
 10
0.0
 20
0.0
 30
0.0
 70
     9
  0
VERTEX
  5
8A1
330
8A0
100
AcDbEntity
  8
TP11
100
AcDbVertex
100
AcDb3dPolylineVertex
 10
504643.9951204779
 20
188510.1273466041
 30
0.0
 70
    32
  0
VERTEX
  5
8A2
330
8A0
100
AcDbEntity
  8
TP11
100
AcDbVertex
100
AcDb3dPolylineVertex
 10
504645.9951204779
 20
188510.1273466041
 30
0.0
 70
    32
  0
VERTEX
  5
8A3
330
8A0
100
AcDbEntity
  8
TP11
100
AcDbVertex
100
AcDb3dPolylineVertex
 10
504645.9951204779
 20
188512.1273466041
 30
0.0
 70
    32
  0
VERTEX
  5
8A4
330
8A0
100
AcDbEntity
  8
TP11
100
AcDbVertex
100
AcDb3dPolylineVertex
 10
504643.9951204779
 20
188512.1273466041
 30
0.0
 70
    32
  0
SEQEND
  5
8A5
330
8A0
100
AcDbEntity
  8
TP11
  0
POLYLINE
  5
8A6
330
6F
100
AcDbEntity
  8
TP10
100
AcDb3dPolyline
 66
     1
 10
0.0
 20
0.0
 30
0.0
 70
     9
  0
VERTEX
  5
8A7
330
8A6
100
AcDbEntity
  8
TP10
100
AcDbVertex
100
AcDb3dPolylineVertex
 10
504702.8278913313
 20
188519.8710986842
 30
0.0
 70
    32
  0
VERTEX
  5
8A8
330
8A6
100
AcDbEntity
  8
TP10
100
AcDbVertex
100
AcDb3dPolylineVertex
 10
504704.8278913313
 20
188519.8710986842
 30
0.0
 70
    32
  0
VERTEX
  5
8A9
330
8A6
100
AcDbEntity
  8
TP10
100
AcDbVertex
100
AcDb3dPolylineVertex
 10
504704.8278913313
 20
188521.8710986842
 30
0.0
 70
    32
  0
VERTEX
  5
8AA
330
8A6
100
AcDbEntity
  8
TP10
100
AcDbVertex
100
AcDb3dPolylineVertex
 10
504702.8278913313
 20
188521.8710986842
 30
0.0
 70
    32
  0
SEQEND
  5
8AB
330
8A6
100
AcDbEntity
  8
TP10
  0
POLYLINE
  5
8AC
330
6F
100
AcDbEntity
  8
TP47
100
AcDb3dPolyline
 66
     1
 10
0.0
 20
0.0
 30
0.0
 70
     9
  0
VERTEX
  5
8AD
330
8AC
100
AcDbEntity
  8
TP47
100
AcDbVertex
100
AcDb3dPolylineVertex
 10
503632.9534
 20
189819.0516
 30
0.0
 70
    32
  0
VERTEX
  5
8AE
330
8AC
100
AcDbEntity
  8
TP47
100
AcDbVertex
100
AcDb3dPolylineVertex
 10
503634.9534
 20
189819.0516
 30
0.0
 70
    32
  0
VERTEX
  5
8AF
330
8AC
100
AcDbEntity
  8
TP47
100
AcDbVertex
100
AcDb3dPolylineVertex
 10
503634.9534
 20
189821.0516
 30
0.0
 70
    32
  0
VERTEX
  5
8B0
330
8AC
100
AcDbEntity
  8
TP47
100
AcDbVertex
100
AcDb3dPolylineVertex
 10
503632.9534
 20
189821.0516
 30
0.0
 70
    32
  0
SEQEND
  5
8B1
330
8AC
100
AcDbEntity
  8
TP47
  0
ENDSEC
  0
SECTION
  2
OBJECTS
  0
DICTIONARY
  5
C
330
0
100
AcDbDictionary
281
     1
  3
ACAD_CIP_PREVIOUS_PRODUCT_INFO
350
219
  3
ACAD_COLOR
350
62
  3
ACAD_DETAILVIEWSTYLE
350
69
  3
ACAD_GROUP
350
D
  3
ACAD_LAYOUT
350
61
  3
ACAD_MATERIAL
350
10
  3
ACAD_MLEADERSTYLE
350
65
  3
ACAD_MLINESTYLE
350
5E
  3
ACAD_PLOTSETTINGS
350
60
  3
ACAD_PLOTSTYLENAME
350
E
  3
ACAD_SCALELIST
350
42
  3
ACAD_SECTIONVIEWSTYLE
350
67
  3
ACAD_TABLESTYLE
350
63
  3
ACAD_VISUALSTYLE
350
29
  3
ACDB_RECOMPOSE_DATA
350
8E1
  3
AcDbVariableDictionary
350
302
  3
AEC_PROPERTY_SET_DEFS
350
2A2
  3
CLWX_PNTBLK_LIST
350
310
  0
DICTIONARY
  5
240
330
2
100
AcDbDictionary
280
     1
281
     1
  3
ACAD_LAYERSTATES
360
241
  0
DICTIONARY
  5
21A
330
54
100
AcDbDictionary
280
     1
281
     1
  3
ADSK_XREC_LAYER_RECONCILED
360
21B
  0
DICTIONARY
  5
224
330
8D
100
AcDbDictionary
280
     1
281
     1
  3
ADSK_XREC_LAYER_RECONCILED
360
225
  0
DICTIONARY
  5
228
330
13C
100
AcDbDictionary
280
     1
281
     1
  3
ADSK_XREC_LAYER_RECONCILED
360
229
  0
DICTIONARY
  5
7E7
330
6F
100
AcDbDictionary
280
     1
281
     1
  3
ACAD_SORTENTS
360
7E8
  0
XRECORD
  5
219
102
{ACAD_REACTORS
330
C
102
}
330
C
100
AcDbXrecord
280
     1
300
ACD
300
2018
300
86830ACD_2018_0F
  0
DICTIONARY
  5
62
102
{ACAD_REACTORS
330
C
102
}
330
C
100
AcDbDictionary
281
     1
  0
DICTIONARY
  5
69
102
{ACAD_REACTORS
330
C
102
}
330
C
100
AcDbDictionary
281
     1
  3
Imperial24
350
6A
  3
Metric50
350
218
  0
DICTIONARY
  5
D
102
{ACAD_REACTORS
330
C
102
}
330
C
100
AcDbDictionary
281
     1
  0
DICTIONARY
  5
61
102
{ACAD_REACTORS
330
C
102
}
330
C
100
AcDbDictionary
281
     1
  3
Layout1
350
6E
  3
Model
350
72
  0
DICTIONARY
  5
10
102
{ACAD_REACTORS
330
C
102
}
330
C
100
AcDbDictionary
281
     1
  3
ByBlock
350
19
  3
ByLayer
350
11
  3
Global
350
21
  0
DICTIONARY
  5
65
102
{ACAD_REACTORS
330
C
102
}
330
C
100
AcDbDictionary
281
     1
  3
Standard
350
66
  0
DICTIONARY
  5
5E
102
{ACAD_REACTORS
330
C
102
}
330
C
100
AcDbDictionary
281
     1
  3
Standard
350
5F
  0
DICTIONARY
  5
60
102
{ACAD_REACTORS
330
C
102
}
330
C
100
AcDbDictionary
281
     1
  0
ACDBDICTIONARYWDFLT
  5
E
102
{ACAD_REACTORS
330
C
102
}
330
C
100
AcDbDictionary
281
     1
  3
Normal
350
F
100
AcDbDictionaryWithDefault
340
F
  0
DICTIONARY
  5
42
102
{ACAD_REACTORS
330
C
102
}
330
C
100
AcDbDictionary
281
     1
  3
A0
350
43
  3
A1
350
44
  3
A2
350
45
  3
A3
350
46
  3
A4
350
47
  3
A5
350
48
  3
A6
350
49
  3
A7
350
4A
  3
A8
350
4B
  3
A9
350
4C
  3
B0
350
4D
  3
B1
350
4E
  3
B2
350
4F
  3
B3
350
50
  3
B4
350
51
  3
B5
350
52
  3
B6
350
53
  0
DICTIONARY
  5
67
102
{ACAD_REACTORS
330
C
102
}
330
C
100
AcDbDictionary
281
     1
  3
Imperial24
350
68
  3
Metric50
350
217
  0
DICTIONARY
  5
63
102
{ACAD_REACTORS
330
C
102
}
330
C
100
AcDbDictionary
281
     1
  3
Standard
350
64
  0
DICTIONARY
  5
29
102
{ACAD_REACTORS
330
C
102
}
330
C
100
AcDbDictionary
281
     1
  3
2dWireframe
350
2F
  3
Basic
350
2E
  3
Brighten
350
35
  3
ColorChange
350
39
  3
Conceptual
350
32
  3
Dim
350
34
  3
EdgeColorOff
350
41
  3
Facepattern
350
38
  3
Flat
350
2A
  3
FlatWithEdges
350
2B
  3
Gouraud
350
2C
  3
GouraudWithEdges
350
2D
  3
Hidden
350
31
  3
JitterOff
350
3F
  3
Linepattern
350
37
  3
OverhangOff
350
40
  3
Realistic
350
33
  3
Shaded
350
3E
  3
Shaded with edges
350
3D
  3
Shades of Gray
350
3A
  3
Sketchy
350
3B
  3
Thicken
350
36
  3
Wireframe
350
30
  3
X-Ray
350
3C
  0
XRECORD
  5
8E1
102
{ACAD_REACTORS
330
C
102
}
330
C
100
AcDbXrecord
280
     1
 90
        1
330
64
  0
DICTIONARY
  5
302
102
{ACAD_REACTORS
330
C
102
}
330
C
100
AcDbDictionary
281
     1
  3
CANNOSCALE
350
308
  3
CMLEADERSTYLE
350
304
  3
CTABLESTYLE
350
303
  3
CVIEWDETAILSTYLE
350
305
  3
CVIEWSECTIONSTYLE
350
306
  3
LAYEREVAL
350
30A
  3
LAYERNOTIFY
350
30B
  3
LIGHTINGUNITS
350
309
  3
MSLTSCALE
350
307
  0
DICTIONARY
  5
2A2
102
{ACAD_REACTORS
330
C
102
}
330
C
100
AcDbDictionary
281
     1
  0
DICTIONARY
  5
310
102
{ACAD_REACTORS
330
C
102
}
330
C
100
AcDbDictionary
281
     1
  0
DICTIONARY
  5
241
102
{ACAD_REACTORS
330
240
102
}
330
240
100
AcDbDictionary
281
     1
  0
XRECORD
  5
21B
102
{ACAD_REACTORS
330
21A
102
}
330
21A
100
AcDbXrecord
280
     1
290
     1
  0
XRECORD
  5
225
102
{ACAD_REACTORS
330
224
102
}
330
224
100
AcDbXrecord
280
     1
290
     1
  0
XRECORD
  5
229
102
{ACAD_REACTORS
330
228
102
}
330
228
100
AcDbXrecord
280
     1
290
     1
  0
SORTENTSTABLE
  5
7E8
102
{ACAD_REACTORS
330
7E7
102
}
330
7E7
100
AcDbSortentsTable
330
6F
331
0
  5
7C
331
7C
  5
7D
331
7D
  5
7E
331
7E
  5
80
331
80
  5
81
331
81
  5
13B
331
13B
  5
141
331
141
  5
1FB
331
1FB
  5
202
331
202
  5
291
331
291
  5
2AB
331
2AB
  5
2B5
331
2B5
  5
2BC
331
2BC
  5
2BD
331
2BD
  5
2BE
331
2BE
  5
37A
331
37A
  5
397
331
399
  5
39D
331
39D
  5
39E
331
39E
  5
39F
331
45C
  5
45D
331
45D
  5
45E
331
45E
  5
45F
331
45F
  5
461
331
461
  5
468
331
499
  5
49A
331
49A
  5
49B
331
49B
  5
4AE
331
4C4
  5
4C5
331
4DA
  5
4DB
331
555
  5
556
331
556
  5
557
331
557
  5
558
331
558
  5
559
331
559
  5
55A
331
55A
  5
55B
331
55B
  5
55C
331
55C
  5
55D
331
55D
  5
564
331
564
  5
568
331
568
  5
56C
331
56C
  5
597
331
597
  5
598
331
598
  5
599
331
599
  5
59A
331
59A
  5
59B
331
59B
  5
59C
331
59C
  5
59D
331
59D
  5
59E
331
59E
  5
59F
331
59F
  5
5A0
331
5A0
  5
5A1
331
5A1
  5
5A7
331
5A7
  5
5AF
331
5AF
  5
5B0
331
5B0
  5
5D7
331
5D7
  5
5DF
331
5DF
  5
61C
331
61C
  5
61E
331
61E
  5
622
331
622
  5
624
331
624
  5
626
331
626
  5
628
331
628
  5
64A
331
64A
  5
671
331
671
  5
673
331
673
  5
675
331
675
  5
6A7
331
6FD
  5
71D
331
720
  5
721
331
721
  5
722
331
722
  5
723
  0
ACDBDETAILVIEWSTYLE
  5
6A
102
{ACAD_REACTORS
330
69
102
}
330
69
100
AcDbModelDocViewStyle
 70
     0
  3
Imperial24
290
     0
300
Imperial24
 90
        0
100
AcDbDetailViewStyle
 70
     0
 71
     0
 90
        3
 71
     1
340
55
 62
   256
 40
0.24
340
0
 62
   256
 40
0.24
300

 40
0.36
280
     3
 71
     2
340
5C
 90
       25
 62
   256
 71
     3
340
55
 62
   256
 40
0.24
 90
        1
 40
0.75
 90
        1
300
%<\AcVar ViewType \f "%tc1">% %<\AcVar ViewDetailId>%\PSCALE %<\AcVar ViewScale \f "%sn">%
 71
     4
340
5C
 90
       25
 62
   256
340
5C
 90
       25
 62
   256
280
     0
  0
ACDBDETAILVIEWSTYLE
  5
218
102
{ACAD_REACTORS
330
69
102
}
330
69
100
AcDbModelDocViewStyle
 70
     0
  3
Metric50
290
     0
300
Metric50
 90
        0
100
AcDbDetailViewStyle
 70
     0
 71
     0
 90
        3
 71
     1
340
55
 62
   256
 40
5.0
340
0
 62
   256
 40
5.0
300

 40
0.0
280
     1
 71
     2
340
5C
 90
       25
 62
   256
 71
     3
340
55
 62
   256
 40
5.0
 90
        0
 40
15.0
 90
        1
300
%<\AcVar ViewDetailId>% (%<\AcVar ViewScale \f "%sn">%)
 71
     4
340
5C
 90
       25
 62
   256
340
5C
 90
       25
 62
   256
280
     0
  0
LAYOUT
  5
6E
102
{ACAD_REACTORS
330
61
102
}
330
61
100
AcDbPlotSettings
  1

  2
\\MOLA-SOPHOS\UTAX IT
  4

  6

 40
0.0
 41
0.0
 42
0.0
 43
0.0
 44
0.0
 45
0.0
 46
0.0
 47
0.0
 48
0.0
 49
0.0
140
0.0
141
0.0
142
1.0
143
1.0
 70
   688
 72
     0
 73
     0
 74
     5
  7

 75
    16
 76
     0
 77
     2
 78
   300
147
1.0
148
0.0
149
0.0
100
AcDbLayout
  1
Layout1
 70
     1
 71
     1
 10
0.0
 20
0.0
 11
12.0
 21
9.0
 12
0.0
 22
0.0
 32
0.0
 14
1.000000000000000E+20
 24
1.000000000000000E+20
 34
1.000000000000000E+20
 15
-1.000000000000000E+20
 25
-1.000000000000000E+20
 35
-1.000000000000000E+20
146
0.0
 13
0.0
 23
0.0
 33
0.0
 16
1.0
 26
0.0
 36
0.0
 17
0.0
 27
1.0
 37
0.0
 76
     0
330
6B
  0
LAYOUT
  5
72
102
{ACAD_REACTORS
330
61
102
}
330
61
100
AcDbPlotSettings
  1

  2
\\MOLA-SOPHOS\UTAX IT
  4

  6

 40
0.0
 41
0.0
 42
0.0
 43
0.0
 44
0.0
 45
0.0
 46
0.0
 47
0.0
 48
0.0
 49
0.0
140
0.0
141
0.0
142
1.0
143
1.0
 70
  1712
 72
     0
 73
     0
 74
     0
  7

 75
     0
 76
     0
 77
     2
 78
   300
147
1.0
148
0.0
149
0.0
100
AcDbLayout
  1
Model
 70
     1
 71
     0
 10
0.0
 20
0.0
 11
12.0
 21
9.0
 12
0.0
 22
0.0
 32
0.0
 14
0.0
 24
0.0
 34
0.0
 15
0.0
 25
0.0
 35
0.0
146
0.0
 13
0.0
 23
0.0
 33
0.0
 16
1.0
 26
0.0
 36
0.0
 17
0.0
 27
1.0
 37
0.0
 76
     0
330
6F
331
7A
  0
MATERIAL
  5
19
102
{ACAD_REACTORS
330
10
102
}
330
10
100
AcDbMaterial
  1
ByBlock
 72
     0
 73
     2
 43
0.0208333333333333
 43
0.0
 43
0.0
 43
0.0
 43
0.0
 43
0.0208333333333333
 43
0.0
 43
0.0
 43
0.0
 43
0.0
 43
1.0
 43
0.0
 43
0.0
 43
0.0
 43
0.0
 43
1.0
 77
     0
 78
     2
 47
0.0208333333333333
 47
0.0
 47
0.0
 47
0.0
 47
0.0
 47
0.0208333333333333
 47
0.0
 47
0.0
 47
0.0
 47
0.0
 47
1.0
 47
0.0
 47
0.0
 47
0.0
 47
0.0
 47
1.0
171
     0
172
     2
 49
0.0208333333333333
 49
0.0
 49
0.0
 49
0.0
 49
0.0
 49
0.0208333333333333
 49
0.0
 49
0.0
 49
0.0
 49
0.0
 49
1.0
 49
0.0
 49
0.0
 49
0.0
 49
0.0
 49
1.0
175
     0
176
     2
142
0.0208333333333333
142
0.0
142
0.0
142
0.0
142
0.0
142
0.0208333333333333
142
0.0
142
0.0
142
0.0
142
0.0
142
1.0
142
0.0
142
0.0
142
0.0
142
0.0
142
1.0
179
     0
270
     2
144
0.0208333333333333
144
0.0
144
0.0
144
0.0
144
0.0
144
0.0208333333333333
144
0.0
144
0.0
144
0.0
144
0.0
144
1.0
144
0.0
144
0.0
144
0.0
144
0.0
144
1.0
274
     2
147
0.0208333333333333
147
0.0
147
0.0
147
0.0
147
0.0
147
0.0208333333333333
147
0.0
147
0.0
147
0.0
147
0.0
147
1.0
147
0.0
147
0.0
147
0.0
147
0.0
147
1.0
 94
      127
  0
MATERIAL
  5
11
102
{ACAD_REACTORS
330
10
102
}
330
10
100
AcDbMaterial
  1
ByLayer
 72
     0
 73
     2
 43
0.0208333333333333
 43
0.0
 43
0.0
 43
0.0
 43
0.0
 43
0.0208333333333333
 43
0.0
 43
0.0
 43
0.0
 43
0.0
 43
1.0
 43
0.0
 43
0.0
 43
0.0
 43
0.0
 43
1.0
 77
     0
 78
     2
 47
0.0208333333333333
 47
0.0
 47
0.0
 47
0.0
 47
0.0
 47
0.0208333333333333
 47
0.0
 47
0.0
 47
0.0
 47
0.0
 47
1.0
 47
0.0
 47
0.0
 47
0.0
 47
0.0
 47
1.0
171
     0
172
     2
 49
0.0208333333333333
 49
0.0
 49
0.0
 49
0.0
 49
0.0
 49
0.0208333333333333
 49
0.0
 49
0.0
 49
0.0
 49
0.0
 49
1.0
 49
0.0
 49
0.0
 49
0.0
 49
0.0
 49
1.0
175
     0
176
     2
142
0.0208333333333333
142
0.0
142
0.0
142
0.0
142
0.0
142
0.0208333333333333
142
0.0
142
0.0
142
0.0
142
0.0
142
1.0
142
0.0
142
0.0
142
0.0
142
0.0
142
1.0
179
     0
270
     2
144
0.0208333333333333
144
0.0
144
0.0
144
0.0
144
0.0
144
0.0208333333333333
144
0.0
144
0.0
144
0.0
144
0.0
144
1.0
144
0.0
144
0.0
144
0.0
144
0.0
144
1.0
274
     2
147
0.0208333333333333
147
0.0
147
0.0
147
0.0
147
0.0
147
0.0208333333333333
147
0.0
147
0.0
147
0.0
147
0.0
147
1.0
147
0.0
147
0.0
147
0.0
147
0.0
147
1.0
 94
      127
  0
MATERIAL
  5
21
102
{ACAD_REACTORS
330
10
102
}
330
10
100
AcDbMaterial
  1
Global
 72
     0
 73
     2
 43
0.0208333333333333
 43
0.0
 43
0.0
 43
0.0
 43
0.0
 43
0.0208333333333333
 43
0.0
 43
0.0
 43
0.0
 43
0.0
 43
1.0
 43
0.0
 43
0.0
 43
0.0
 43
0.0
 43
1.0
 77
     0
 78
     2
 47
0.0208333333333333
 47
0.0
 47
0.0
 47
0.0
 47
0.0
 47
0.0208333333333333
 47
0.0
 47
0.0
 47
0.0
 47
0.0
 47
1.0
 47
0.0
 47
0.0
 47
0.0
 47
0.0
 47
1.0
171
     0
172
     2
 49
0.0208333333333333
 49
0.0
 49
0.0
 49
0.0
 49
0.0
 49
0.0208333333333333
 49
0.0
 49
0.0
 49
0.0
 49
0.0
 49
1.0
 49
0.0
 49
0.0
 49
0.0
 49
0.0
 49
1.0
175
     0
176
     2
142
0.0208333333333333
142
0.0
142
0.0
142
0.0
142
0.0
142
0.0208333333333333
142
0.0
142
0.0
142
0.0
142
0.0
142
1.0
142
0.0
142
0.0
142
0.0
142
0.0
142
1.0
179
     0
270
     2
144
0.0208333333333333
144
0.0
144
0.0
144
0.0
144
0.0
144
0.0208333333333333
144
0.0
144
0.0
144
0.0
144
0.0
144
1.0
144
0.0
144
0.0
144
0.0
144
0.0
144
1.0
274
     2
147
0.0208333333333333
147
0.0
147
0.0
147
0.0
147
0.0
147
0.0208333333333333
147
0.0
147
0.0
147
0.0
147
0.0
147
1.0
147
0.0
147
0.0
147
0.0
147
0.0
147
1.0
 94
      127
  0
MLEADERSTYLE
  5
66
102
{ACAD_REACTORS
330
65
102
}
330
65
100
AcDbMLeaderStyle
179
     2
170
     2
171
     1
172
     0
 90
        2
 40
0.0
 41
0.0
173
     1
 91
-1056964608
340
5A
 92
       -2
290
     1
 42
0.09
291
     1
 43
0.36
  3
Standard
341
0
 44
0.18
300

342
55
174
     1
178
     6
175
     1
176
     0
 93
-1056964608
 45
0.18
292
     0
297
     0
 46
0.18
343
0
 94
-1056964608
 47
1.0
 49
1.0
140
1.0
293
     1
141
0.0
294
     1
177
     0
142
1.0
295
     0
296
     0
143
0.125
271
     0
272
     9
273
     9
298
     0
  0
MLINESTYLE
  5
5F
102
{ACAD_REACTORS
330
5E
102
}
330
5E
100
AcDbMlineStyle
  2
STANDARD
 70
     0
  3

 62
   256
 51
90.0
 52
90.0
 71
     2
 49
0.5
 62
   256
  6
BYLAYER
 49
-0.5
 62
   256
  6
BYLAYER
  0
ACDBPLACEHOLDER
  5
F
102
{ACAD_REACTORS
330
E
102
}
330
E
  0
SCALE
  5
43
102
{ACAD_REACTORS
330
42
102
}
330
42
100
AcDbScale
 70
     0
300
1:1
140
1.0
141
1.0
290
     1
  0
SCALE
  5
44
102
{ACAD_REACTORS
330
42
102
}
330
42
100
AcDbScale
 70
     0
300
1/128" = 1'-0"
140
0.0078125
141
12.0
290
     0
  0
SCALE
  5
45
102
{ACAD_REACTORS
330
42
102
}
330
42
100
AcDbScale
 70
     0
300
1/64" = 1'-0"
140
0.015625
141
12.0
290
     0
  0
SCALE
  5
46
102
{ACAD_REACTORS
330
42
102
}
330
42
100
AcDbScale
 70
     0
300
1/32" = 1'-0"
140
0.03125
141
12.0
290
     0
  0
SCALE
  5
47
102
{ACAD_REACTORS
330
42
102
}
330
42
100
AcDbScale
 70
     0
300
1/16" = 1'-0"
140
0.0625
141
12.0
290
     0
  0
SCALE
  5
48
102
{ACAD_REACTORS
330
42
102
}
330
42
100
AcDbScale
 70
     0
300
3/32" = 1'-0"
140
0.09375
141
12.0
290
     0
  0
SCALE
  5
49
102
{ACAD_REACTORS
330
42
102
}
330
42
100
AcDbScale
 70
     0
300
1/8" = 1'-0"
140
0.125
141
12.0
290
     0
  0
SCALE
  5
4A
102
{ACAD_REACTORS
330
42
102
}
330
42
100
AcDbScale
 70
     0
300
3/16" = 1'-0"
140
0.1875
141
12.0
290
     0
  0
SCALE
  5
4B
102
{ACAD_REACTORS
330
42
102
}
330
42
100
AcDbScale
 70
     0
300
1/4" = 1'-0"
140
0.25
141
12.0
290
     0
  0
SCALE
  5
4C
102
{ACAD_REACTORS
330
42
102
}
330
42
100
AcDbScale
 70
     0
300
3/8" = 1'-0"
140
0.375
141
12.0
290
     0
  0
SCALE
  5
4D
102
{ACAD_REACTORS
330
42
102
}
330
42
100
AcDbScale
 70
     0
300
1/2" = 1'-0"
140
0.5
141
12.0
290
     0
  0
SCALE
  5
4E
102
{ACAD_REACTORS
330
42
102
}
330
42
100
AcDbScale
 70
     0
300
3/4" = 1'-0"
140
0.75
141
12.0
290
     0
  0
SCALE
  5
4F
102
{ACAD_REACTORS
330
42
102
}
330
42
100
AcDbScale
 70
     0
300
1" = 1'-0"
140
1.0
141
12.0
290
     0
  0
SCALE
  5
50
102
{ACAD_REACTORS
330
42
102
}
330
42
100
AcDbScale
 70
     0
300
1-1/2" = 1'-0"
140
1.5
141
12.0
290
     0
  0
SCALE
  5
51
102
{ACAD_REACTORS
330
42
102
}
330
42
100
AcDbScale
 70
     0
300
3" = 1'-0"
140
3.0
141
12.0
290
     0
  0
SCALE
  5
52
102
{ACAD_REACTORS
330
42
102
}
330
42
100
AcDbScale
 70
     0
300
6" = 1'-0"
140
6.0
141
12.0
290
     0
  0
SCALE
  5
53
102
{ACAD_REACTORS
330
42
102
}
330
42
100
AcDbScale
 70
     0
300
1'-0" = 1'-0"
140
12.0
141
12.0
290
     0
  0
ACDBSECTIONVIEWSTYLE
  5
68
102
{ACAD_REACTORS
330
67
102
}
330
67
100
AcDbModelDocViewStyle
 70
     0
  3
Imperial24
290
     0
300
Imperial24
 90
        0
100
AcDbSectionViewStyle
 70
     0
 71
     0
 90
       78
 71
     1
340
55
 62
   256
 40
0.24
340
0
340
0
 62
   256
 40
0.24
300
I, O, Q, S, X, Z
 40
0.48
 90
        3
 40
0.18
 90
        1
 71
     2
340
5C
 90
       25
 62
   256
340
5C
 90
       50
 62
   256
 40
0.24
 40
0.0
 40
0.24
 71
     3
340
55
 62
   256
 40
0.24
 90
        1
 40
0.75
 90
        1
300
%<\AcVar ViewType \f "%tc1">% %<\AcVar ViewSectionStartId>%-%<\AcVar ViewSectionEndId>%\PSCALE %<\AcVar ViewScale \f "%sn">%
 71
     4
 62
   256
 62
   257
300
ANSI31
 40
1.0
 90
        0
290
     0
290
     0
 90
        6
 40
0.0
 40
1.570796326794897
 40
0.2617993877991494
 40
1.308996938995747
 40
-0.2617993877991494
 40
1.832595714594046
  0
ACDBSECTIONVIEWSTYLE
  5
217
102
{ACAD_REACTORS
330
67
102
}
330
67
100
AcDbModelDocViewStyle
 70
     0
  3
Metric50
290
     0
300
Metric50
 90
        0
100
AcDbSectionViewStyle
 70
     0
 71
     0
 90
      102
 71
     1
340
55
 62
   256
 40
5.0
340
0
340
0
 62
   256
 40
5.0
300
I, O, Q, S, X, Z
 40
10.0
 90
        0
 40
2.5
 90
        0
 71
     2
340
5C
 90
       25
 62
   256
340
5C
 90
       50
 62
   256
 40
5.0
 40
2.5
 40
5.0
 71
     3
340
55
 62
   256
 40
5.0
 90
        0
 40
15.0
 90
        1
300
%<\AcVar ViewSectionStartId>%-%<\AcVar ViewSectionEndId>% (%<\AcVar ViewScale \f "%sn">%)
 71
     4
 62
   256
 62
   257
300
ANSI31
 40
1.0
 90
        0
290
     0
290
     0
 90
        6
 40
0.0
 40
1.570796326794897
 40
0.2617993877991494
 40
1.308996938995747
 40
-0.2617993877991494
 40
1.832595714594046
  0
TABLESTYLE
  5
64
102
{ACAD_REACTORS
330
63
102
}
102
{ACAD_XDICTIONARY
360
8DF
102
}
330
63
100
AcDbTableStyle
  3
Standard
 70
     0
 71
     0
 40
0.06
 41
0.06
280
     0
281
     0
  7
Standard
140
0.18
170
     2
 62
     0
 63
   257
283
     0
 90
      512
 91
        0
  1

274
    -2
284
     1
 64
     0
275
    -2
285
     1
 65
     0
276
    -2
286
     1
 66
     0
277
    -2
287
     1
 67
     0
278
    -2
288
     1
 68
     0
279
    -2
289
     1
 69
     0
  7
Standard
140
0.25
170
     5
 62
     0
 63
   257
283
     0
 90
      512
 91
        0
  1

274
    -2
284
     1
 64
     0
275
    -2
285
     1
 65
     0
276
    -2
286
     1
 66
     0
277
    -2
287
     1
 67
     0
278
    -2
288
     1
 68
     0
279
    -2
289
     1
 69
     0
  7
Standard
140
0.18
170
     5
 62
     0
 63
   257
283
     0
 90
      512
 91
        0
  1

274
    -2
284
     1
 64
     0
275
    -2
285
     1
 65
     0
276
    -2
286
     1
 66
     0
277
    -2
287
     1
 67
     0
278
    -2
288
     1
 68
     0
279
    -2
289
     1
 69
     0
  0
VISUALSTYLE
  5
2F
102
{ACAD_REACTORS
330
29
102
}
330
29
100
AcDbVisualStyle
  2
2dWireframe
 70
     4
177
     3
291
     0
 70
    58
 90
        0
176
     1
 90
        2
176
     1
 90
        0
176
     1
 90
        0
176
     1
 40
0.6
176
     1
 40
30.0
176
     1
 62
     7
420
 16777215
176
     1
 90
        1
176
     1
 90
        4
176
     1
 62
     7
176
     1
 62
   257
176
     1
 90
        1
176
     1
 90
        1
176
     1
 40
1.0
176
     1
 90
        0
176
     1
 62
   257
176
     1
 40
1.0
176
     1
 90
        1
176
     1
 90
        6
176
     1
 90
        2
176
     1
 62
     7
176
     1
 90
        5
176
     1
 90
        0
176
     1
 90
        0
176
     1
290
     0
176
     1
 90
        1
176
     1
 40
0.0
176
     1
 90
        0
176
     1
290
     1
176
     1
290
     1
176
     1
290
     0
176
     1
290
     0
176
     1
290
     0
176
     1
290
     0
176
     1
290
     0
176
     1
290
     0
176
     1
290
     0
176
     1
 90
       50
176
     1
 40
0.0
176
     1
 40
1.0
176
     1
 90
        0
176
     1
 62
    18
420
        0
176
     1
 90
       50
176
     1
 90
        3
176
     1
 62
     5
420
      255
176
     1
290
     0
176
     1
 90
       50
176
     1
 90
       50
176
     1
 90
       50
176
     1
290
     0
176
     1
 90
       50
176
     1
 62
   256
176
     0
 40
1.0
176
     0
 90
        2
176
     1
  1
strokes_ogs.tif
176
     1
290
     0
176
     1
 40
1.0
176
     1
 40
1.0
176
     1
  0
VISUALSTYLE
  5
2E
102
{ACAD_REACTORS
330
29
102
}
330
29
100
AcDbVisualStyle
  2
Basic
 70
     7
177
     3
291
     1
 70
    58
 90
        1
176
     1
 90
        0
176
     1
 90
        1
176
     1
 90
        0
176
     1
 40
0.6
176
     1
 40
30.0
176
     1
 62
     7
420
 16777215
176
     1
 90
        0
176
     1
 90
        4
176
     1
 62
     7
176
     1
 62
   257
176
     1
 90
        1
176
     1
 90
        1
176
     1
 40
1.0
176
     1
 90
        8
176
     1
 62
     7
176
     1
 40
1.0
176
     1
 90
        1
176
     1
 90
        6
176
     1
 90
        2
176
     1
 62
     7
176
     1
 90
        5
176
     1
 90
        0
176
     1
 90
        0
176
     1
290
     0
176
     1
 90
        1
176
     1
 40
0.0
176
     1
 90
        0
176
     1
290
     0
176
     1
290
     1
176
     1
290
     1
176
     1
290
     0
176
     1
290
     0
176
     1
290
     0
176
     1
290
     0
176
     1
290
     0
176
     1
290
     0
176
     1
 90
       50
176
     1
 40
0.0
176
     1
 40
1.0
176
     1
 90
        0
176
     1
 62
    18
420
        0
176
     1
 90
       50
176
     1
 90
        3
176
     1
 62
     5
420
      255
176
     1
290
     0
176
     1
 90
       50
176
     1
 90
       50
176
     1
 90
       50
176
     1
290
     0
176
     1
 90
       50
176
     1
 62
   256
176
     0
 40
1.0
176
     0
 90
        2
176
     1
  1
strokes_ogs.tif
176
     1
290
     0
176
     1
 40
1.0
176
     1
 40
1.0
176
     1
  0
VISUALSTYLE
  5
35
102
{ACAD_REACTORS
330
29
102
}
330
29
100
AcDbVisualStyle
  2
Brighten
 70
    12
177
     3
291
     1
 70
    58
 90
        2
176
     1
 90
        2
176
     1
 90
        0
176
     1
 90
        0
176
     1
 40
0.6
176
     1
 40
30.0
176
     1
 62
     7
420
 16777215
176
     1
 90
        1
176
     1
 90
        4
176
     1
 62
     7
176
     1
 62
   257
176
     1
 90
        1
176
     1
 90
        1
176
     1
 40
1.0
176
     1
 90
        8
176
     1
 62
     7
176
     1
 40
1.0
176
     1
 90
        1
176
     1
 90
        6
176
     1
 90
        2
176
     1
 62
     7
176
     1
 90
        5
176
     1
 90
        0
176
     1
 90
        0
176
     1
290
     0
176
     1
 90
        1
176
     1
 40
50.0
176
     1
 90
        0
176
     1
290
     0
176
     1
290
     1
176
     1
290
     1
176
     1
290
     0
176
     1
290
     0
176
     1
290
     0
176
     1
290
     0
176
     1
290
     0
176
     1
290
     0
176
     1
 90
       50
176
     1
 40
0.0
176
     1
 40
1.0
176
     1
 90
        0
176
     1
 62
    18
420
        0
176
     1
 90
       50
176
     1
 90
        3
176
     1
 62
     5
420
      255
176
     1
290
     0
176
     1
 90
       50
176
     1
 90
       50
176
     1
 90
       50
176
     1
290
     0
176
     1
 90
       50
176
     1
 62
   256
176
     0
 40
1.0
176
     0
 90
        2
176
     1
  1
strokes_ogs.tif
176
     1
290
     0
176
     1
 40
1.0
176
     1
 40
1.0
176
     1
  0
VISUALSTYLE
  5
39
102
{ACAD_REACTORS
330
29
102
}
330
29
100
AcDbVisualStyle
  2
ColorChange
 70
    16
177
     3
291
     1
 70
    58
 90
        2
176
     1
 90
        2
176
     1
 90
        3
176
     1
 90
        0
176
     1
 40
0.6
176
     1
 40
30.0
176
     1
 62
     8
420
  8421504
176
     1
 90
        1
176
     1
 90
        4
176
     1
 62
     7
176
     1
 62
   257
176
     1
 90
        1
176
     1
 90
        1
176
     1
 40
1.0
176
     1
 90
        8
176
     1
 62
     8
420
  8421504
176
     1
 40
1.0
176
     1
 90
        1
176
     1
 90
        6
176
     1
 90
        2
176
     1
 62
     7
176
     1
 90
        5
176
     1
 90
        0
176
     1
 90
        0
176
     1
290
     0
176
     1
 90
        1
176
     1
 40
0.0
176
     1
 90
        0
176
     1
290
     0
176
     1
290
     1
176
     1
290
     1
176
     1
290
     0
176
     1
290
     0
176
     1
290
     0
176
     1
290
     0
176
     1
290
     0
176
     1
290
     0
176
     1
 90
       50
176
     1
 40
0.0
176
     1
 40
1.0
176
     1
 90
        0
176
     1
 62
    18
420
        0
176
     1
 90
       50
176
     1
 90
        3
176
     1
 62
     5
420
      255
176
     1
290
     0
176
     1
 90
       50
176
     1
 90
       50
176
     1
 90
       50
176
     1
290
     0
176
     1
 90
       50
176
     1
 62
   256
176
     0
 40
1.0
176
     0
 90
        2
176
     1
  1
strokes_ogs.tif
176
     1
290
     0
176
     1
 40
1.0
176
     1
 40
1.0
176
     1
  0
VISUALSTYLE
  5
32
102
{ACAD_REACTORS
330
29
102
}
330
29
100
AcDbVisualStyle
  2
Conceptual
 70
     9
177
     3
291
     0
 70
    58
 90
        3
176
     1
 90
        2
176
     1
 90
        0
176
     1
 90
        0
176
     1
 40
0.6
176
     1
 40
30.0
176
     1
 62
     7
420
 16777215
176
     1
 90
        2
176
     1
 90
        2
176
     1
 62
     7
176
     1
 62
   257
176
     1
 90
        1
176
     1
 90
        1
176
     1
 40
179.0
176
     1
 90
        8
176
     1
 62
     7
176
     1
 40
1.0
176
     1
 90
        1
176
     1
 90
        6
176
     1
 90
        2
176
     1
 62
     7
176
     1
 90
        3
176
     1
 90
        0
176
     1
 90
        0
176
     1
290
     0
176
     1
 90
        1
176
     1
 40
0.0
176
     1
 90
        0
176
     1
290
     0
176
     1
290
     1
176
     1
290
     1
176
     1
290
     0
176
     1
290
     0
176
     1
290
     0
176
     1
290
     0
176
     1
290
     0
176
     1
290
     0
176
     1
 90
       50
176
     1
 40
0.0
176
     1
 40
1.0
176
     1
 90
        0
176
     1
 62
    18
420
        0
176
     1
 90
       50
176
     1
 90
        3
176
     1
 62
     5
420
      255
176
     1
290
     0
176
     1
 90
       50
176
     1
 90
       50
176
     1
 90
       50
176
     1
290
     0
176
     1
 90
       50
176
     1
 62
   256
176
     0
 40
1.0
176
     0
 90
        2
176
     1
  1
strokes_ogs.tif
176
     1
290
     0
176
     1
 40
1.0
176
     1
 40
1.0
176
     1
  0
VISUALSTYLE
  5
34
102
{ACAD_REACTORS
330
29
102
}
330
29
100
AcDbVisualStyle
  2
Dim
 70
    11
177
     3
291
     1
 70
    58
 90
        2
176
     1
 90
        2
176
     1
 90
        0
176
     1
 90
        0
176
     1
 40
0.6
176
     1
 40
30.0
176
     1
 62
     7
420
 16777215
176
     1
 90
        1
176
     1
 90
        4
176
     1
 62
     7
176
     1
 62
   257
176
     1
 90
        1
176
     1
 90
        1
176
     1
 40
1.0
176
     1
 90
        8
176
     1
 62
     7
176
     1
 40
1.0
176
     1
 90
        1
176
     1
 90
        6
176
     1
 90
        2
176
     1
 62
     7
176
     1
 90
        5
176
     1
 90
        0
176
     1
 90
        0
176
     1
290
     0
176
     1
 90
        1
176
     1
 40
-50.0
176
     1
 90
        0
176
     1
290
     0
176
     1
290
     1
176
     1
290
     1
176
     1
290
     0
176
     1
290
     0
176
     1
290
     0
176
     1
290
     0
176
     1
290
     0
176
     1
290
     0
176
     1
 90
       50
176
     1
 40
0.0
176
     1
 40
1.0
176
     1
 90
        0
176
     1
 62
    18
420
        0
176
     1
 90
       50
176
     1
 90
        3
176
     1
 62
     5
420
      255
176
     1
290
     0
176
     1
 90
       50
176
     1
 90
       50
176
     1
 90
       50
176
     1
290
     0
176
     1
 90
       50
176
     1
 62
   256
176
     0
 40
1.0
176
     0
 90
        2
176
     1
  1
strokes_ogs.tif
176
     1
290
     0
176
     1
 40
1.0
176
     1
 40
1.0
176
     1
  0
VISUALSTYLE
  5
41
102
{ACAD_REACTORS
330
29
102
}
330
29
100
AcDbVisualStyle
  2
EdgeColorOff
 70
    22
177
     3
291
     1
 70
    58
 90
        2
176
     0
 90
        2
176
     0
 90
        0
176
     0
 90
        0
176
     0
 40
0.6
176
     0
 40
30.0
176
     0
 62
     7
420
 16777215
176
     0
 90
        1
176
     0
 90
        4
176
     0
 62
     7
176
     0
 62
   257
176
     0
 90
        1
176
     0
 90
        1
176
     0
 40
1.0
176
     0
 90
        8
176
     2
 62
     7
176
     0
 40
1.0
176
     0
 90
        1
176
     0
 90
        6
176
     0
 90
        2
176
     0
 62
     7
176
     0
 90
        5
176
     0
 90
        0
176
     0
 90
        0
176
     0
290
     0
176
     0
 90
        1
176
     0
 40
0.0
176
     0
 90
        0
176
     0
290
     0
176
     1
290
     1
176
     1
290
     1
176
     1
290
     0
176
     1
290
     0
176
     1
290
     0
176
     1
290
     0
176
     1
290
     0
176
     1
290
     0
176
     1
 90
       50
176
     0
 40
0.0
176
     0
 40
1.0
176
     0
 90
        0
176
     0
 62
    18
420
        0
176
     0
 90
       50
176
     0
 90
        3
176
     0
 62
     5
420
      255
176
     0
290
     0
176
     1
 90
       50
176
     0
 90
       50
176
     0
 90
       50
176
     0
290
     0
176
     1
 90
       50
176
     0
 62
   256
176
     0
 40
1.0
176
     0
 90
        2
176
     0
  1
strokes_ogs.tif
176
     0
290
     0
176
     1
 40
1.0
176
     0
 40
1.0
176
     0
  0
VISUALSTYLE
  5
38
102
{ACAD_REACTORS
330
29
102
}
330
29
100
AcDbVisualStyle
  2
Facepattern
 70
    15
177
     3
291
     1
 70
    58
 90
        2
176
     1
 90
        2
176
     1
 90
        0
176
     1
 90
        0
176
     1
 40
0.6
176
     1
 40
30.0
176
     1
 62
     7
420
 16777215
176
     1
 90
        1
176
     1
 90
        4
176
     1
 62
     7
176
     1
 62
   257
176
     1
 90
        1
176
     1
 90
        1
176
     1
 40
1.0
176
     1
 90
        8
176
     1
 62
     7
176
     1
 40
1.0
176
     1
 90
        1
176
     1
 90
        6
176
     1
 90
        2
176
     1
 62
     7
176
     1
 90
        5
176
     1
 90
        0
176
     1
 90
        0
176
     1
290
     0
176
     1
 90
        1
176
     1
 40
0.0
176
     1
 90
        0
176
     1
290
     0
176
     1
290
     1
176
     1
290
     1
176
     1
290
     0
176
     1
290
     0
176
     1
290
     0
176
     1
290
     0
176
     1
290
     0
176
     1
290
     0
176
     1
 90
       50
176
     1
 40
0.0
176
     1
 40
1.0
176
     1
 90
        0
176
     1
 62
    18
420
        0
176
     1
 90
       50
176
     1
 90
        3
176
     1
 62
     5
420
      255
176
     1
290
     0
176
     1
 90
       50
176
     1
 90
       50
176
     1
 90
       50
176
     1
290
     0
176
     1
 90
       50
176
     1
 62
   256
176
     0
 40
1.0
176
     0
 90
        2
176
     1
  1
strokes_ogs.tif
176
     1
290
     0
176
     1
 40
1.0
176
     1
 40
1.0
176
     1
  0
VISUALSTYLE
  5
2A
102
{ACAD_REACTORS
330
29
102
}
330
29
100
AcDbVisualStyle
  2
Flat
 70
     0
177
     3
291
     1
 70
    58
 90
        2
176
     1
 90
        1
176
     1
 90
        1
176
     1
 90
        2
176
     1
 40
0.6
176
     1
 40
30.0
176
     1
 62
     7
420
 16777215
176
     1
 90
        0
176
     1
 90
        0
176
     1
 62
     7
176
     1
 62
   257
176
     1
 90
        1
176
     1
 90
        1
176
     1
 40
1.0
176
     1
 90
        8
176
     1
 62
     7
176
     1
 40
1.0
176
     1
 90
        1
176
     1
 90
        6
176
     1
 90
        2
176
     1
 62
     7
176
     1
 90
        5
176
     1
 90
        0
176
     1
 90
        0
176
     1
290
     0
176
     1
 90
       13
176
     1
 40
0.0
176
     1
 90
        0
176
     1
290
     0
176
     1
290
     1
176
     1
290
     1
176
     1
290
     0
176
     1
290
     0
176
     1
290
     0
176
     1
290
     0
176
     1
290
     0
176
     1
290
     0
176
     1
 90
       50
176
     1
 40
0.0
176
     1
 40
1.0
176
     1
 90
        0
176
     1
 62
    18
420
        0
176
     1
 90
       50
176
     1
 90
        3
176
     1
 62
     5
420
      255
176
     1
290
     0
176
     1
 90
       50
176
     1
 90
       50
176
     1
 90
       50
176
     1
290
     0
176
     1
 90
       50
176
     1
 62
   256
176
     0
 40
1.0
176
     0
 90
        2
176
     1
  1
strokes_ogs.tif
176
     1
290
     0
176
     1
 40
1.0
176
     1
 40
1.0
176
     1
  0
VISUALSTYLE
  5
2B
102
{ACAD_REACTORS
330
29
102
}
330
29
100
AcDbVisualStyle
  2
FlatWithEdges
 70
     1
177
     3
291
     1
 70
    58
 90
        2
176
     1
 90
        1
176
     1
 90
        1
176
     1
 90
        2
176
     1
 40
0.6
176
     1
 40
30.0
176
     1
 62
     7
420
 16777215
176
     1
 90
        1
176
     1
 90
        0
176
     1
 62
     7
176
     1
 62
   257
176
     1
 90
        1
176
     1
 90
        1
176
     1
 40
1.0
176
     1
 90
        0
176
     1
 62
   257
176
     1
 40
1.0
176
     1
 90
        1
176
     1
 90
        6
176
     1
 90
        2
176
     1
 62
     7
176
     1
 90
        5
176
     1
 90
        0
176
     1
 90
        0
176
     1
290
     0
176
     1
 90
       13
176
     1
 40
0.0
176
     1
 90
        0
176
     1
290
     0
176
     1
290
     1
176
     1
290
     1
176
     1
290
     0
176
     1
290
     0
176
     1
290
     0
176
     1
290
     0
176
     1
290
     0
176
     1
290
     0
176
     1
 90
       50
176
     1
 40
0.0
176
     1
 40
1.0
176
     1
 90
        0
176
     1
 62
    18
420
        0
176
     1
 90
       50
176
     1
 90
        3
176
     1
 62
     5
420
      255
176
     1
290
     0
176
     1
 90
       50
176
     1
 90
       50
176
     1
 90
       50
176
     1
290
     0
176
     1
 90
       50
176
     1
 62
   256
176
     0
 40
1.0
176
     0
 90
        2
176
     1
  1
strokes_ogs.tif
176
     1
290
     0
176
     1
 40
1.0
176
     1
 40
1.0
176
     1
  0
VISUALSTYLE
  5
2C
102
{ACAD_REACTORS
330
29
102
}
330
29
100
AcDbVisualStyle
  2
Gouraud
 70
     2
177
     3
291
     1
 70
    58
 90
        2
176
     1
 90
        2
176
     1
 90
        1
176
     1
 90
        2
176
     1
 40
0.6
176
     1
 40
30.0
176
     1
 62
     7
420
 16777215
176
     1
 90
        0
176
     1
 90
        0
176
     1
 62
     7
176
     1
 62
   257
176
     1
 90
        1
176
     1
 90
        1
176
     1
 40
1.0
176
     1
 90
        0
176
     1
 62
     7
176
     1
 40
1.0
176
     1
 90
        1
176
     1
 90
        6
176
     1
 90
        2
176
     1
 62
     7
176
     1
 90
        5
176
     1
 90
        0
176
     1
 90
        0
176
     1
290
     0
176
     1
 90
       13
176
     1
 40
0.0
176
     1
 90
        0
176
     1
290
     0
176
     1
290
     1
176
     1
290
     1
176
     1
290
     0
176
     1
290
     0
176
     1
290
     0
176
     1
290
     0
176
     1
290
     0
176
     1
290
     0
176
     1
 90
       50
176
     1
 40
0.0
176
     1
 40
1.0
176
     1
 90
        0
176
     1
 62
    18
420
        0
176
     1
 90
       50
176
     1
 90
        3
176
     1
 62
     5
420
      255
176
     1
290
     0
176
     1
 90
       50
176
     1
 90
       50
176
     1
 90
       50
176
     1
290
     0
176
     1
 90
       50
176
     1
 62
   256
176
     0
 40
1.0
176
     0
 90
        2
176
     1
  1
strokes_ogs.tif
176
     1
290
     0
176
     1
 40
1.0
176
     1
 40
1.0
176
     1
  0
VISUALSTYLE
  5
2D
102
{ACAD_REACTORS
330
29
102
}
330
29
100
AcDbVisualStyle
  2
GouraudWithEdges
 70
     3
177
     3
291
     1
 70
    58
 90
        2
176
     1
 90
        2
176
     1
 90
        1
176
     1
 90
        2
176
     1
 40
0.6
176
     1
 40
30.0
176
     1
 62
     7
420
 16777215
176
     1
 90
        1
176
     1
 90
        0
176
     1
 62
     7
176
     1
 62
   257
176
     1
 90
        1
176
     1
 90
        1
176
     1
 40
1.0
176
     1
 90
        0
176
     1
 62
   257
176
     1
 40
1.0
176
     1
 90
        1
176
     1
 90
        6
176
     1
 90
        2
176
     1
 62
     7
176
     1
 90
        5
176
     1
 90
        0
176
     1
 90
        0
176
     1
290
     0
176
     1
 90
       13
176
     1
 40
0.0
176
     1
 90
        0
176
     1
290
     0
176
     1
290
     1
176
     1
290
     1
176
     1
290
     0
176
     1
290
     0
176
     1
290
     0
176
     1
290
     0
176
     1
290
     0
176
     1
290
     0
176
     1
 90
       50
176
     1
 40
0.0
176
     1
 40
1.0
176
     1
 90
        0
176
     1
 62
    18
420
        0
176
     1
 90
       50
176
     1
 90
        3
176
     1
 62
     5
420
      255
176
     1
290
     0
176
     1
 90
       50
176
     1
 90
       50
176
     1
 90
       50
176
     1
290
     0
176
     1
 90
       50
176
     1
 62
   256
176
     0
 40
1.0
176
     0
 90
        2
176
     1
  1
strokes_ogs.tif
176
     1
290
     0
176
     1
 40
1.0
176
     1
 40
1.0
176
     1
  0
VISUALSTYLE
  5
31
102
{ACAD_REACTORS
330
29
102
}
330
29
100
AcDbVisualStyle
  2
Hidden
 70
     6
177
     3
291
     0
 70
    58
 90
        1
176
     1
 90
        2
176
     1
 90
        2
176
     1
 90
        0
176
     1
 40
0.6
176
     1
 40
30.0
176
     1
 62
     7
420
 16777215
176
     1
 90
        2
176
     1
 90
        2
176
     1
 62
     7
176
     1
 62
   257
176
     1
 90
        2
176
     1
 90
        1
176
     1
 40
40.0
176
     1
 90
        0
176
     1
 62
   257
176
     1
 40
1.0
176
     1
 90
        1
176
     1
 90
        6
176
     1
 90
        2
176
     1
 62
     7
176
     1
 90
        3
176
     1
 90
        0
176
     1
 90
        0
176
     1
290
     0
176
     1
 90
        1
176
     1
 40
0.0
176
     1
 90
        0
176
     1
290
     0
176
     1
290
     1
176
     1
290
     1
176
     1
290
     0
176
     1
290
     0
176
     1
290
     0
176
     1
290
     0
176
     1
290
     0
176
     1
290
     0
176
     1
 90
       50
176
     1
 40
0.0
176
     1
 40
1.0
176
     1
 90
        0
176
     1
 62
    18
420
        0
176
     1
 90
       50
176
     1
 90
        3
176
     1
 62
     5
420
      255
176
     1
290
     0
176
     1
 90
       50
176
     1
 90
       50
176
     1
 90
       50
176
     1
290
     0
176
     1
 90
       50
176
     1
 62
   256
176
     0
 40
1.0
176
     0
 90
        2
176
     1
  1
strokes_ogs.tif
176
     1
290
     0
176
     1
 40
1.0
176
     1
 40
1.0
176
     1
  0
VISUALSTYLE
  5
3F
102
{ACAD_REACTORS
330
29
102
}
330
29
100
AcDbVisualStyle
  2
JitterOff
 70
    20
177
     3
291
     1
 70
    58
 90
        2
176
     0
 90
        2
176
     0
 90
        0
176
     0
 90
        0
176
     0
 40
0.6
176
     0
 40
30.0
176
     0
 62
     7
420
 16777215
176
     0
 90
        1
176
     0
 90
        4
176
     0
 62
     7
176
     0
 62
   257
176
     0
 90
        1
176
     0
 90
        1
176
     0
 40
1.0
176
     0
 90
       10
176
     2
 62
     7
176
     0
 40
1.0
176
     0
 90
        1
176
     0
 90
        6
176
     0
 90
        2
176
     0
 62
     7
176
     0
 90
        5
176
     0
 90
        0
176
     0
 90
        0
176
     0
290
     0
176
     0
 90
        1
176
     0
 40
0.0
176
     0
 90
        0
176
     0
290
     0
176
     1
290
     1
176
     1
290
     1
176
     1
290
     0
176
     1
290
     0
176
     1
290
     0
176
     1
290
     0
176
     1
290
     0
176
     1
290
     0
176
     1
 90
       50
176
     0
 40
0.0
176
     0
 40
1.0
176
     0
 90
        0
176
     0
 62
    18
420
        0
176
     0
 90
       50
176
     0
 90
        3
176
     0
 62
     5
420
      255
176
     0
290
     0
176
     1
 90
       50
176
     0
 90
       50
176
     0
 90
       50
176
     0
290
     0
176
     1
 90
       50
176
     0
 62
   256
176
     0
 40
1.0
176
     0
 90
        2
176
     0
  1
strokes_ogs.tif
176
     0
290
     0
176
     1
 40
1.0
176
     0
 40
1.0
176
     0
  0
VISUALSTYLE
  5
37
102
{ACAD_REACTORS
330
29
102
}
330
29
100
AcDbVisualStyle
  2
Linepattern
 70
    14
177
     3
291
     1
 70
    58
 90
        2
176
     1
 90
        2
176
     1
 90
        0
176
     1
 90
        0
176
     1
 40
0.6
176
     1
 40
30.0
176
     1
 62
     7
420
 16777215
176
     1
 90
        1
176
     1
 90
        4
176
     1
 62
     7
176
     1
 62
   257
176
     1
 90
        7
176
     1
 90
        7
176
     1
 40
1.0
176
     1
 90
        8
176
     1
 62
     7
176
     1
 40
1.0
176
     1
 90
        1
176
     1
 90
        6
176
     1
 90
        2
176
     1
 62
     7
176
     1
 90
        5
176
     1
 90
        0
176
     1
 90
        0
176
     1
290
     0
176
     1
 90
        1
176
     1
 40
0.0
176
     1
 90
        0
176
     1
290
     0
176
     1
290
     1
176
     1
290
     1
176
     1
290
     0
176
     1
290
     0
176
     1
290
     0
176
     1
290
     0
176
     1
290
     0
176
     1
290
     0
176
     1
 90
       50
176
     1
 40
0.0
176
     1
 40
1.0
176
     1
 90
        0
176
     1
 62
    18
420
        0
176
     1
 90
       50
176
     1
 90
        3
176
     1
 62
     5
420
      255
176
     1
290
     0
176
     1
 90
       50
176
     1
 90
       50
176
     1
 90
       50
176
     1
290
     0
176
     1
 90
       50
176
     1
 62
   256
176
     0
 40
1.0
176
     0
 90
        2
176
     1
  1
strokes_ogs.tif
176
     1
290
     0
176
     1
 40
1.0
176
     1
 40
1.0
176
     1
  0
VISUALSTYLE
  5
40
102
{ACAD_REACTORS
330
29
102
}
330
29
100
AcDbVisualStyle
  2
OverhangOff
 70
    21
177
     3
291
     1
 70
    58
 90
        2
176
     0
 90
        2
176
     0
 90
        0
176
     0
 90
        0
176
     0
 40
0.6
176
     0
 40
30.0
176
     0
 62
     7
420
 16777215
176
     0
 90
        1
176
     0
 90
        4
176
     0
 62
     7
176
     0
 62
   257
176
     0
 90
        1
176
     0
 90
        1
176
     0
 40
1.0
176
     0
 90
        9
176
     2
 62
     7
176
     0
 40
1.0
176
     0
 90
        1
176
     0
 90
        6
176
     0
 90
        2
176
     0
 62
     7
176
     0
 90
        5
176
     0
 90
        0
176
     0
 90
        0
176
     0
290
     0
176
     0
 90
        1
176
     0
 40
0.0
176
     0
 90
        0
176
     0
290
     0
176
     1
290
     1
176
     1
290
     1
176
     1
290
     0
176
     1
290
     0
176
     1
290
     0
176
     1
290
     0
176
     1
290
     0
176
     1
290
     0
176
     1
 90
       50
176
     0
 40
0.0
176
     0
 40
1.0
176
     0
 90
        0
176
     0
 62
    18
420
        0
176
     0
 90
       50
176
     0
 90
        3
176
     0
 62
     5
420
      255
176
     0
290
     0
176
     1
 90
       50
176
     0
 90
       50
176
     0
 90
       50
176
     0
290
     0
176
     1
 90
       50
176
     0
 62
   256
176
     0
 40
1.0
176
     0
 90
        2
176
     0
  1
strokes_ogs.tif
176
     0
290
     0
176
     1
 40
1.0
176
     0
 40
1.0
176
     0
  0
VISUALSTYLE
  5
33
102
{ACAD_REACTORS
330
29
102
}
330
29
100
AcDbVisualStyle
  2
Realistic
 70
     8
177
     3
291
     0
 70
    58
 90
        2
176
     1
 90
        3
176
     1
 90
        0
176
     1
 90
        2
176
     1
 40
0.6
176
     1
 40
30.0
176
     1
 62
     7
420
 16777215
176
     1
 90
        0
176
     1
 90
        0
176
     1
 62
     7
176
     1
 62
   257
176
     1
 90
        1
176
     1
 90
        1
176
     1
 40
1.0
176
     1
 90
        8
176
     1
 62
   257
176
     1
 40
1.0
176
     1
 90
        1
176
     1
 90
        6
176
     1
 90
        2
176
     1
 62
     7
176
     1
 90
        3
176
     1
 90
        0
176
     1
 90
        0
176
     1
290
     0
176
     1
 90
       13
176
     1
 40
0.0
176
     1
 90
        0
176
     1
290
     0
176
     1
290
     1
176
     1
290
     1
176
     1
290
     0
176
     1
290
     0
176
     1
290
     0
176
     1
290
     0
176
     1
290
     0
176
     1
290
     0
176
     1
 90
       50
176
     1
 40
0.0
176
     1
 40
1.0
176
     1
 90
        0
176
     1
 62
    18
420
        0
176
     1
 90
       50
176
     1
 90
        3
176
     1
 62
     5
420
      255
176
     1
290
     0
176
     1
 90
       50
176
     1
 90
       50
176
     1
 90
       50
176
     1
290
     0
176
     1
 90
       50
176
     1
 62
   256
176
     0
 40
1.0
176
     0
 90
        2
176
     1
  1
strokes_ogs.tif
176
     1
290
     0
176
     1
 40
1.0
176
     1
 40
1.0
176
     1
  0
VISUALSTYLE
  5
3E
102
{ACAD_REACTORS
330
29
102
}
330
29
100
AcDbVisualStyle
  2
Shaded
 70
    27
177
     3
291
     0
 70
    58
 90
        2
176
     1
 90
        2
176
     1
 90
        1
176
     1
 90
        2
176
     1
 40
0.6
176
     1
 40
30.0
176
     1
 62
     7
420
 16777215
176
     1
 90
        0
176
     1
 90
        4
176
     1
 62
     7
176
     1
 62
   257
176
     1
 90
        1
176
     1
 90
        1
176
     1
 40
1.0
176
     1
 90
        8
176
     1
 62
   257
176
     1
 40
1.0
176
     1
 90
        1
176
     1
 90
        6
176
     1
 90
        2
176
     1
 62
     8
420
  7895160
176
     1
 90
        3
176
     1
 90
        0
176
     1
 90
        0
176
     1
290
     0
176
     1
 90
        5
176
     1
 40
0.0
176
     1
 90
        0
176
     1
290
     0
176
     1
290
     1
176
     1
290
     1
176
     1
290
     0
176
     1
290
     0
176
     1
290
     0
176
     1
290
     0
176
     1
290
     0
176
     1
290
     0
176
     1
 90
       50
176
     1
 40
0.0
176
     1
 40
1.0
176
     1
 90
        0
176
     1
 62
    18
420
        0
176
     1
 90
       50
176
     1
 90
        3
176
     1
 62
     5
420
      255
176
     1
290
     0
176
     1
 90
       50
176
     1
 90
       50
176
     1
 90
       50
176
     1
290
     0
176
     1
 90
       50
176
     1
 62
   256
176
     0
 40
1.0
176
     0
 90
        2
176
     1
  1
strokes_ogs.tif
176
     1
290
     0
176
     1
 40
1.0
176
     1
 40
1.0
176
     1
  0
VISUALSTYLE
  5
3D
102
{ACAD_REACTORS
330
29
102
}
330
29
100
AcDbVisualStyle
  2
Shaded with edges
 70
    26
177
     3
291
     0
 70
    58
 90
        2
176
     1
 90
        2
176
     1
 90
        1
176
     1
 90
        2
176
     1
 40
0.6
176
     1
 40
30.0
176
     1
 62
     7
420
 16777215
176
     1
 90
        1
176
     1
 90
        2
176
     1
 62
     7
176
     1
 62
   257
176
     1
 90
        2
176
     1
 90
        1
176
     1
 40
1.0
176
     1
 90
        8
176
     1
 62
   257
176
     1
 40
1.0
176
     1
 90
        1
176
     1
 90
        6
176
     1
 90
        2
176
     1
 62
     7
176
     1
 90
        3
176
     1
 90
        0
176
     1
 90
        0
176
     1
290
     0
176
     1
 90
        5
176
     1
 40
0.0
176
     1
 90
        0
176
     1
290
     0
176
     1
290
     1
176
     1
290
     1
176
     1
290
     0
176
     1
290
     0
176
     1
290
     0
176
     1
290
     0
176
     1
290
     0
176
     1
290
     0
176
     1
 90
       50
176
     1
 40
0.0
176
     1
 40
1.0
176
     1
 90
        0
176
     1
 62
    18
420
        0
176
     1
 90
       50
176
     1
 90
        3
176
     1
 62
     5
420
      255
176
     1
290
     0
176
     1
 90
       50
176
     1
 90
       50
176
     1
 90
       50
176
     1
290
     0
176
     1
 90
       50
176
     1
 62
   256
176
     0
 40
1.0
176
     0
 90
        2
176
     1
  1
strokes_ogs.tif
176
     1
290
     0
176
     1
 40
1.0
176
     1
 40
1.0
176
     1
  0
VISUALSTYLE
  5
3A
102
{ACAD_REACTORS
330
29
102
}
330
29
100
AcDbVisualStyle
  2
Shades of Gray
 70
    23
177
     3
291
     0
 70
    58
 90
        2
176
     1
 90
        2
176
     1
 90
        3
176
     1
 90
        0
176
     1
 40
0.6
176
     1
 40
30.0
176
     1
 62
     7
420
 16777215
176
     1
 90
        2
176
     1
 90
        2
176
     1
 62
     7
176
     1
 62
     7
176
     1
 90
        1
176
     1
 90
        1
176
     1
 40
40.0
176
     1
 90
        8
176
     1
 62
     7
176
     1
 40
1.0
176
     1
 90
        1
176
     1
 90
        6
176
     1
 90
        2
176
     1
 62
     7
176
     1
 90
        3
176
     1
 90
        0
176
     1
 90
        0
176
     1
290
     0
176
     1
 90
        1
176
     1
 40
0.0
176
     1
 90
        0
176
     1
290
     0
176
     1
290
     1
176
     1
290
     1
176
     1
290
     0
176
     1
290
     0
176
     1
290
     0
176
     1
290
     0
176
     1
290
     0
176
     1
290
     0
176
     1
 90
       50
176
     1
 40
0.0
176
     1
 40
1.0
176
     1
 90
        0
176
     1
 62
    18
420
        0
176
     1
 90
       50
176
     1
 90
        3
176
     1
 62
     5
420
      255
176
     1
290
     0
176
     1
 90
       50
176
     1
 90
       50
176
     1
 90
       50
176
     1
290
     0
176
     1
 90
       50
176
     1
 62
   256
176
     0
 40
1.0
176
     0
 90
        2
176
     1
  1
strokes_ogs.tif
176
     1
290
     0
176
     1
 40
1.0
176
     1
 40
1.0
176
     1
  0
VISUALSTYLE
  5
3B
102
{ACAD_REACTORS
330
29
102
}
330
29
100
AcDbVisualStyle
  2
Sketchy
 70
    24
177
     3
291
     0
 70
    58
 90
        1
176
     1
 90
        2
176
     1
 90
        2
176
     1
 90
        0
176
     1
 40
0.6
176
     1
 40
30.0
176
     1
 62
     7
420
 16777215
176
     1
 90
        2
176
     1
 90
        2
176
     1
 62
     7
176
     1
 62
     7
176
     1
 90
        1
176
     1
 90
        1
176
     1
 40
40.0
176
     1
 90
       11
176
     1
 62
     7
176
     1
 40
1.0
176
     1
 90
        1
176
     1
 90
        6
176
     1
 90
        2
176
     1
 62
     7
176
     1
 90
        6
176
     1
 90
        0
176
     1
 90
        0
176
     1
290
     0
176
     1
 90
        1
176
     1
 40
0.0
176
     1
 90
        0
176
     1
290
     0
176
     1
290
     1
176
     1
290
     1
176
     1
290
     0
176
     1
290
     0
176
     1
290
     0
176
     1
290
     0
176
     1
290
     0
176
     1
290
     0
176
     1
 90
       50
176
     1
 40
0.0
176
     1
 40
1.0
176
     1
 90
        0
176
     1
 62
    18
420
        0
176
     1
 90
       50
176
     1
 90
        3
176
     1
 62
     5
420
      255
176
     1
290
     0
176
     1
 90
       50
176
     1
 90
       50
176
     1
 90
       50
176
     1
290
     0
176
     1
 90
       50
176
     1
 62
   256
176
     0
 40
1.0
176
     0
 90
        2
176
     1
  1
strokes_ogs.tif
176
     1
290
     0
176
     1
 40
1.0
176
     1
 40
1.0
176
     1
  0
VISUALSTYLE
  5
36
102
{ACAD_REACTORS
330
29
102
}
330
29
100
AcDbVisualStyle
  2
Thicken
 70
    13
177
     3
291
     1
 70
    58
 90
        2
176
     1
 90
        2
176
     1
 90
        0
176
     1
 90
        0
176
     1
 40
0.6
176
     1
 40
30.0
176
     1
 62
     7
420
 16777215
176
     1
 90
        1
176
     1
 90
        4
176
     1
 62
     7
176
     1
 62
   257
176
     1
 90
        1
176
     1
 90
        1
176
     1
 40
1.0
176
     1
 90
       12
176
     1
 62
     7
176
     1
 40
1.0
176
     1
 90
        1
176
     1
 90
        6
176
     1
 90
        2
176
     1
 62
     7
176
     1
 90
        5
176
     1
 90
        0
176
     1
 90
        0
176
     1
290
     0
176
     1
 90
        1
176
     1
 40
0.0
176
     1
 90
        0
176
     1
290
     0
176
     1
290
     1
176
     1
290
     1
176
     1
290
     0
176
     1
290
     0
176
     1
290
     0
176
     1
290
     0
176
     1
290
     0
176
     1
290
     0
176
     1
 90
       50
176
     1
 40
0.0
176
     1
 40
1.0
176
     1
 90
        0
176
     1
 62
    18
420
        0
176
     1
 90
       50
176
     1
 90
        3
176
     1
 62
     5
420
      255
176
     1
290
     0
176
     1
 90
       50
176
     1
 90
       50
176
     1
 90
       50
176
     1
290
     0
176
     1
 90
       50
176
     1
 62
   256
176
     0
 40
1.0
176
     0
 90
        2
176
     1
  1
strokes_ogs.tif
176
     1
290
     0
176
     1
 40
1.0
176
     1
 40
1.0
176
     1
  0
VISUALSTYLE
  5
30
102
{ACAD_REACTORS
330
29
102
}
330
29
100
AcDbVisualStyle
  2
Wireframe
 70
     5
177
     3
291
     0
 70
    58
 90
        0
176
     1
 90
        2
176
     1
 90
        0
176
     1
 90
        0
176
     1
 40
0.6
176
     1
 40
30.0
176
     1
 62
     7
420
 16777215
176
     1
 90
        1
176
     1
 90
        4
176
     1
 62
     7
176
     1
 62
   257
176
     1
 90
        1
176
     1
 90
        1
176
     1
 40
1.0
176
     1
 90
        0
176
     1
 62
   257
176
     1
 40
1.0
176
     1
 90
        1
176
     1
 90
        6
176
     1
 90
        2
176
     1
 62
     7
176
     1
 90
        3
176
     1
 90
        0
176
     1
 90
        0
176
     1
290
     0
176
     1
 90
        1
176
     1
 40
0.0
176
     1
 90
        0
176
     1
290
     0
176
     1
290
     1
176
     1
290
     1
176
     1
290
     0
176
     1
290
     0
176
     1
290
     0
176
     1
290
     0
176
     1
290
     0
176
     1
290
     0
176
     1
 90
       50
176
     1
 40
0.0
176
     1
 40
1.0
176
     1
 90
        0
176
     1
 62
    18
420
        0
176
     1
 90
       50
176
     1
 90
        3
176
     1
 62
     5
420
      255
176
     1
290
     0
176
     1
 90
       50
176
     1
 90
       50
176
     1
 90
       50
176
     1
290
     0
176
     1
 90
       50
176
     1
 62
   256
176
     0
 40
1.0
176
     0
 90
        2
176
     1
  1
strokes_ogs.tif
176
     1
290
     0
176
     1
 40
1.0
176
     1
 40
1.0
176
     1
  0
VISUALSTYLE
  5
3C
102
{ACAD_REACTORS
330
29
102
}
330
29
100
AcDbVisualStyle
  2
X-Ray
 70
    25
177
     3
291
     0
 70
    58
 90
        2
176
     1
 90
        2
176
     1
 90
        1
176
     1
 90
        1
176
     1
 40
0.5
176
     1
 40
30.0
176
     1
 62
     7
420
 16777215
176
     1
 90
        1
176
     1
 90
        0
176
     1
 62
     7
176
     1
 62
   257
176
     1
 90
        1
176
     1
 90
        1
176
     1
 40
1.0
176
     1
 90
        8
176
     1
 62
     7
176
     1
 40
1.0
176
     1
 90
        1
176
     1
 90
        6
176
     1
 90
        2
176
     1
 62
     7
176
     1
 90
        3
176
     1
 90
        0
176
     1
 90
        0
176
     1
290
     0
176
     1
 90
       13
176
     1
 40
0.0
176
     1
 90
        0
176
     1
290
     0
176
     1
290
     1
176
     1
290
     1
176
     1
290
     0
176
     1
290
     0
176
     1
290
     0
176
     1
290
     0
176
     1
290
     0
176
     1
290
     0
176
     1
 90
       50
176
     1
 40
0.0
176
     1
 40
1.0
176
     1
 90
        0
176
     1
 62
    18
420
        0
176
     1
 90
       50
176
     1
 90
        3
176
     1
 62
     5
420
      255
176
     1
290
     0
176
     1
 90
       50
176
     1
 90
       50
176
     1
 90
       50
176
     1
290
     0
176
     1
 90
       50
176
     1
 62
   256
176
     0
 40
1.0
176
     0
 90
        2
176
     1
  1
strokes_ogs.tif
176
     1
290
     0
176
     1
 40
1.0
176
     1
 40
1.0
176
     1
  0
DICTIONARYVAR
  5
308
102
{ACAD_REACTORS
330
302
102
}
330
302
100
DictionaryVariables
280
     0
  1
1:1
  0
DICTIONARYVAR
  5
304
102
{ACAD_REACTORS
330
302
102
}
330
302
100
DictionaryVariables
280
     0
  1
Standard
  0
DICTIONARYVAR
  5
303
102
{ACAD_REACTORS
330
302
102
}
330
302
100
DictionaryVariables
280
     0
  1
Standard
  0
DICTIONARYVAR
  5
305
102
{ACAD_REACTORS
330
302
102
}
330
302
100
DictionaryVariables
280
     0
  1
Imperial24
  0
DICTIONARYVAR
  5
306
102
{ACAD_REACTORS
330
302
102
}
330
302
100
DictionaryVariables
280
     0
  1
Imperial24
  0
DICTIONARYVAR
  5
30A
102
{ACAD_REACTORS
330
302
102
}
330
302
100
DictionaryVariables
280
     0
  1
1
  0
DICTIONARYVAR
  5
30B
102
{ACAD_REACTORS
330
302
102
}
330
302
100
DictionaryVariables
280
     0
  1
15
  0
DICTIONARYVAR
  5
309
102
{ACAD_REACTORS
330
302
102
}
330
302
100
DictionaryVariables
280
     0
  1
0
  0
DICTIONARYVAR
  5
307
102
{ACAD_REACTORS
330
302
102
}
330
302
100
DictionaryVariables
280
     0
  1
0
  0
DICTIONARY
  5
8DF
330
64
100
AcDbDictionary
280
     1
281
     1
  3
ACAD_ROUNDTRIP_2008_TABLESTYLE_CELLSTYLEMAP
360
8E0
  0
CELLSTYLEMAP
  5
8E0
102
{ACAD_REACTORS
330
8DF
102
}
330
8DF
100
AcDbCellStyleMap
 90
        3
300
CELLSTYLE
  1
TABLEFORMAT_BEGIN
 90
        5
170
     1
 91
        0
 92
    32768
 62
   257
 93
        1
300
CONTENTFORMAT
  1
CONTENTFORMAT_BEGIN
 90
        0
 91
        0
 92
      512
 93
        0
300

 40
0.0
140
1.0
 94
        5
 62
     0
340
55
144
0.25
309
CONTENTFORMAT_END
171
     0
 94
        0
309
TABLEFORMAT_END
  1
CELLSTYLE_BEGIN
 90
        1
 91
        1
300
_TITLE
309
CELLSTYLE_END
300
CELLSTYLE
  1
TABLEFORMAT_BEGIN
 90
        5
170
     1
 91
        0
 92
        0
 62
   257
 93
        1
300
CONTENTFORMAT
  1
CONTENTFORMAT_BEGIN
 90
        0
 91
        0
 92
      512
 93
        0
300

 40
0.0
140
1.0
 94
        5
 62
     0
340
55
144
0.18
309
CONTENTFORMAT_END
171
     0
 94
        0
309
TABLEFORMAT_END
  1
CELLSTYLE_BEGIN
 90
        2
 91
        1
300
_HEADER
309
CELLSTYLE_END
300
CELLSTYLE
  1
TABLEFORMAT_BEGIN
 90
        5
170
     1
 91
        0
 92
        0
 62
   257
 93
        1
300
CONTENTFORMAT
  1
CONTENTFORMAT_BEGIN
 90
        0
 91
        0
 92
      512
 93
        0
300

 40
0.0
140
1.0
 94
        2
 62
     0
340
55
144
0.18
309
CONTENTFORMAT_END
171
     0
 94
        0
309
TABLEFORMAT_END
  1
CELLSTYLE_BEGIN
 90
        3
 91
        2
300
_DATA
309
CELLSTYLE_END
  0
ENDSEC
  0
SECTION
  2
ACDSDATA
 70
     2
 71
     2
  0
ACDSSCHEMA
 90
        0
  1
AcDb_Thumbnail_Schema
  2
AcDbDs::ID
280
    10
 91
        8
  2
Thumbnail_Data
280
    15
 91
        0
101
ACDSRECORD
 95
        0
 90
        2
  2
AcDbDs::TreatedAsObjectData
280
     1
291
     1
101
ACDSRECORD
 95
        0
 90
        3
  2
AcDbDs::Legacy
280
     1
291
     1
101
ACDSRECORD
  1
AcDbDs::ID
 90
        4
  2
AcDs:Indexable
280
     1
291
     1
101
ACDSRECORD
  1
AcDbDs::ID
 90
        5
  2
AcDbDs::HandleAttribute
280
     7
282
     1
  0
ACDSSCHEMA
 90
        1
  1
AcDb3DSolid_ASM_Data
  2
AcDbDs::ID
280
    10
 91
        8
  2
ASM_Data
280
    15
 91
        0
101
ACDSRECORD
 95
        1
 90
        2
  2
AcDbDs::TreatedAsObjectData
280
     1
291
     1
101
ACDSRECORD
 95
        1
 90
        3
  2
AcDbDs::Legacy
280
     1
291
     1
101
ACDSRECORD
  1
AcDbDs::ID
 90
        4
  2
AcDs:Indexable
280
     1
291
     1
101
ACDSRECORD
  1
AcDbDs::ID
 90
        5
  2
AcDbDs::HandleAttribute
280
     7
282
     1
  0
ACDSSCHEMA
 90
        2
  1
AcDbDs::TreatedAsObjectDataSchema
  2
AcDbDs::TreatedAsObjectData
280
     1
 91
        0
  0
ACDSSCHEMA
 90
        3
  1
AcDbDs::LegacySchema
  2
AcDbDs::Legacy
280
     1
 91
        0
  0
ACDSSCHEMA
 90
        4
  1
AcDbDs::IndexedPropertySchema
  2
AcDs:Indexable
280
     1
 91
        0
  0
ACDSSCHEMA
 90
        5
  1
AcDbDs::HandleAttributeSchema
  2
AcDbDs::HandleAttribute
280
     7
 91
        1
284
     1
  0
ACDSRECORD
 90
        0
  2
AcDbDs::ID
280
    10
320
72
  2
Thumbnail_Data
280
    15
 94
      979
310
89504E470D0A1A0A0000000D49484452000001000000008808030000003F38C55500000300504C5445212830FFFFFF2128300000000000000000000000000000000000000000000000000000330000660000990000CC0000FF0033000033330033660033990033CC0033FF0066000066330066660066990066CC0066FF0099
310
000099330099660099990099CC0099FF00CC0000CC3300CC6600CC9900CCCC00CCFF00FF0000FF3300FF6600FF9900FFCC00FFFF3300003300333300663300993300CC3300FF3333003333333333663333993333CC3333FF3366003366333366663366993366CC3366FF3399003399333399663399993399CC3399FF33CC00
310
33CC3333CC6633CC9933CCCC33CCFF33FF0033FF3333FF6633FF9933FFCC33FFFF6600006600336600666600996600CC6600FF6633006633336633666633996633CC6633FF6666006666336666666666996666CC6666FF6699006699336699666699996699CC6699FF66CC0066CC3366CC6666CC9966CCCC66CCFF66FF0066
310
FF3366FF6666FF9966FFCC66FFFF9900009900339900669900999900CC9900FF9933009933339933669933999933CC9933FF9966009966339966669966999966CC9966FF9999009999339999669999999999CC9999FF99CC0099CC3399CC6699CC9999CCCC99CCFF99FF0099FF3399FF6699FF9999FFCC99FFFFCC0000CC00
310
33CC0066CC0099CC00CCCC00FFCC3300CC3333CC3366CC3399CC33CCCC33FFCC6600CC6633CC6666CC6699CC66CCCC66FFCC9900CC9933CC9966CC9999CC99CCCC99FFCCCC00CCCC33CCCC66CCCC99CCCCCCCCCCFFCCFF00CCFF33CCFF66CCFF99CCFFCCCCFFFFFF0000FF0033FF0066FF0099FF00CCFF00FFFF3300FF3333
310
FF3366FF3399FF33CCFF33FFFF6600FF6633FF6666FF6699FF66CCFF66FFFF9900FF9933FF9966FF9999FF99CCFF99FFFFCC00FFCC33FFCC66FFCC99FFCCCCFFCCFFFFFF00FFFF33FFFF66FFFF99FFFFCCFFFFFF0000000D0D0D1A1A1A2828283535354343435050505D5D5D6B6B6B787878868686939393A1A1A1AEAEAEBB
310
BBBBC9C9C9D6D6D6E4E4E4F1F1F1FFFFFF0000000000000000000000000000000000000000000000000000000000002E4550F10000008E4944415478DAEDDB510D80300C45D1C9997F01558408209902C2DF3D070534ED5B09B0160000000000C057F35CED02CCE45B004008AA80028029A8DA6200A420900F827C125C9A00
310
A0FD60AC029A00E480120071DE18EB01C046080842250080FC32601F400F68000000EC81F0FE5EE32B0A44A3FBD704F52A380DE0CC407A10B61C7024020000000000007FBA01BDFF16237801B89D0000000049454E44AE426082
  0
ENDSEC
  0
EOF
