  0
SECTION
  2
HEADER
  9
$ACADVER
  1
AC1032
  9
$ACADMAINTVER
 90
       55
  9
$DWGCODEPAGE
  3
ANSI_1252
  9
$LASTSAVEDBY
  1
tfj513
  9
$REQUIREDVERSIONS
160
                 0
  9
$INSBASE
 10
0.0
 20
0.0
 30
0.0
  9
$EXTMIN
 10
503388.09
 20
189863.225
 30
0.0
  9
$EXTMAX
 10
503549.8320000001
 20
190037.73
 30
51.467
  9
$LIMMIN
 10
0.0
 20
0.0
  9
$LIMMAX
 10
420.0
 20
297.0
  9
$ORTHOMODE
 70
     0
  9
$REGENMODE
 70
     1
  9
$FILLMODE
 70
     1
  9
$QTEXTMODE
 70
     0
  9
$MIRRTEXT
 70
     0
  9
$LTSCALE
 40
1.0
  9
$ATTMODE
 70
     1
  9
$TEXTSIZE
 40
2.5
  9
$TRACEWID
 40
1.0
  9
$TEXTSTYLE
  7
Standard
  9
$CLAYER
  8
0
  9
$CELTYPE
  6
ByLayer
  9
$CECOLOR
 62
   256
  9
$CELTSCALE
 40
1.0
  9
$DISPSILH
 70
     0
  9
$DIMSCALE
 40
1.0
  9
$DIMASZ
 40
2.5
  9
$DIMEXO
 40
0.625
  9
$DIMDLI
 40
3.75
  9
$DIMRND
 40
0.0
  9
$DIMDLE
 40
0.0
  9
$DIMEXE
 40
1.25
  9
$DIMTP
 40
0.0
  9
$DIMTM
 40
0.0
  9
$DIMTXT
 40
2.5
  9
$DIMCEN
 40
2.5
  9
$DIMTSZ
 40
0.0
  9
$DIMTOL
 70
     0
  9
$DIMLIM
 70
     0
  9
$DIMTIH
 70
     0
  9
$DIMTOH
 70
     0
  9
$DIMSE1
 70
     0
  9
$DIMSE2
 70
     0
  9
$DIMTAD
 70
     1
  9
$DIMZIN
 70
     8
  9
$DIMBLK
  1

  9
$DIMASO
 70
     1
  9
$DIMSHO
 70
     1
  9
$DIMPOST
  1

  9
$DIMAPOST
  1

  9
$DIMALT
 70
     0
  9
$DIMALTD
 70
     3
  9
$DIMALTF
 40
0.03937007874016
  9
$DIMLFAC
 40
1.0
  9
$DIMTOFL
 70
     1
  9
$DIMTVP
 40
0.0
  9
$DIMTIX
 70
     0
  9
$DIMSOXD
 70
     0
  9
$DIMSAH
 70
     0
  9
$DIMBLK1
  1

  9
$DIMBLK2
  1

  9
$DIMSTYLE
  2
ISO-25
  9
$DIMCLRD
 70
     0
  9
$DIMCLRE
 70
     0
  9
$DIMCLRT
 70
     0
  9
$DIMTFAC
 40
1.0
  9
$DIMGAP
 40
0.625
  9
$DIMJUST
 70
     0
  9
$DIMSD1
 70
     0
  9
$DIMSD2
 70
     0
  9
$DIMTOLJ
 70
     0
  9
$DIMTZIN
 70
     8
  9
$DIMALTZ
 70
     0
  9
$DIMALTTZ
 70
     0
  9
$DIMUPT
 70
     0
  9
$DIMDEC
 70
     2
  9
$DIMTDEC
 70
     2
  9
$DIMALTU
 70
     2
  9
$DIMALTTD
 70
     3
  9
$DIMTXSTY
  7
Standard
  9
$DIMAUNIT
 70
     0
  9
$DIMADEC
 70
     0
  9
$DIMALTRND
 40
0.0
  9
$DIMAZIN
 70
     0
  9
$DIMDSEP
 70
    44
  9
$DIMATFIT
 70
     3
  9
$DIMFRAC
 70
     0
  9
$DIMLDRBLK
  1

  9
$DIMLUNIT
 70
     2
  9
$DIMLWD
 70
    -2
  9
$DIMLWE
 70
    -2
  9
$DIMTMOVE
 70
     0
  9
$DIMFXL
 40
1.0
  9
$DIMFXLON
 70
     0
  9
$DIMJOGANG
 40
1.570796326794897
  9
$DIMTFILL
 70
     0
  9
$DIMTFILLCLR
 70
     0
  9
$DIMARCSYM
 70
     0
  9
$DIMLTYPE
  6

  9
$DIMLTEX1
  6

  9
$DIMLTEX2
  6

  9
$DIMTXTDIRECTION
 70
     0
  9
$LUNITS
 70
     2
  9
$LUPREC
 70
     4
  9
$SKETCHINC
 40
1.0
  9
$FILLETRAD
 40
0.0
  9
$AUNITS
 70
     0
  9
$AUPREC
 70
     0
  9
$MENU
  1
.
  9
$ELEVATION
 40
0.0
  9
$PELEVATION
 40
0.0
  9
$THICKNESS
 40
0.0
  9
$LIMCHECK
 70
     0
  9
$CHAMFERA
 40
0.0
  9
$CHAMFERB
 40
0.0
  9
$CHAMFERC
 40
0.0
  9
$CHAMFERD
 40
0.0
  9
$SKPOLY
 70
     0
  9
$TDCREATE
 40
2459779.289164815
  9
$TDUCREATE
 40
2459779.247498148
  9
$TDUPDATE
 40
2460538.612889734
  9
$TDUUPDATE
 40
2460538.571223067
  9
$TDINDWG
 40
0.1051401273
  9
$TDUSRTIMER
 40
0.1051401157
  9
$USRTIMER
 70
     1
  9
$ANGBASE
 50
0.0
  9
$ANGDIR
 70
     0
  9
$PDMODE
 70
     2
  9
$PDSIZE
 40
0.5
  9
$PLINEWID
 40
0.0
  9
$SPLFRAME
 70
     0
  9
$SPLINETYPE
 70
     6
  9
$SPLINESEGS
 70
     8
  9
$HANDSEED
  5
AC5
  9
$SURFTAB1
 70
     6
  9
$SURFTAB2
 70
     6
  9
$SURFTYPE
 70
     6
  9
$SURFU
 70
     6
  9
$SURFV
 70
     6
  9
$UCSBASE
  2

  9
$UCSNAME
  2

  9
$UCSORG
 10
0.0
 20
0.0
 30
0.0
  9
$UCSXDIR
 10
1.0
 20
0.0
 30
0.0
  9
$UCSYDIR
 10
0.0
 20
1.0
 30
0.0
  9
$UCSORTHOREF
  2

  9
$UCSORTHOVIEW
 70
     0
  9
$UCSORGTOP
 10
0.0
 20
0.0
 30
0.0
  9
$UCSORGBOTTOM
 10
0.0
 20
0.0
 30
0.0
  9
$UCSORGLEFT
 10
0.0
 20
0.0
 30
0.0
  9
$UCSORGRIGHT
 10
0.0
 20
0.0
 30
0.0
  9
$UCSORGFRONT
 10
0.0
 20
0.0
 30
0.0
  9
$UCSORGBACK
 10
0.0
 20
0.0
 30
0.0
  9
$PUCSBASE
  2

  9
$PUCSNAME
  2

  9
$PUCSORG
 10
0.0
 20
0.0
 30
0.0
  9
$PUCSXDIR
 10
1.0
 20
0.0
 30
0.0
  9
$PUCSYDIR
 10
0.0
 20
1.0
 30
0.0
  9
$PUCSORTHOREF
  2

  9
$PUCSORTHOVIEW
 70
     0
  9
$PUCSORGTOP
 10
0.0
 20
0.0
 30
0.0
  9
$PUCSORGBOTTOM
 10
0.0
 20
0.0
 30
0.0
  9
$PUCSORGLEFT
 10
0.0
 20
0.0
 30
0.0
  9
$PUCSORGRIGHT
 10
0.0
 20
0.0
 30
0.0
  9
$PUCSORGFRONT
 10
0.0
 20
0.0
 30
0.0
  9
$PUCSORGBACK
 10
0.0
 20
0.0
 30
0.0
  9
$USERI1
 70
     0
  9
$USERI2
 70
     0
  9
$USERI3
 70
     0
  9
$USERI4
 70
     0
  9
$USERI5
 70
     0
  9
$USERR1
 40
0.0
  9
$USERR2
 40
0.0
  9
$USERR3
 40
0.0
  9
$USERR4
 40
0.0
  9
$USERR5
 40
0.0
  9
$WORLDVIEW
 70
     1
  9
$SHADEDGE
 70
     3
  9
$SHADEDIF
 70
    70
  9
$TILEMODE
 70
     1
  9
$MAXACTVP
 70
    64
  9
$PINSBASE
 10
0.0
 20
0.0
 30
0.0
  9
$PLIMCHECK
 70
     0
  9
$PEXTMIN
 10
1.000000000000000E+20
 20
1.000000000000000E+20
 30
1.000000000000000E+20
  9
$PEXTMAX
 10
-1.000000000000000E+20
 20
-1.000000000000000E+20
 30
-1.000000000000000E+20
  9
$PLIMMIN
 10
0.0
 20
0.0
  9
$PLIMMAX
 10
420.0
 20
297.0
  9
$UNITMODE
 70
     0
  9
$VISRETAIN
 70
     1
  9
$PLINEGEN
 70
     0
  9
$PSLTSCALE
 70
     1
  9
$TREEDEPTH
 70
  3020
  9
$CMLSTYLE
  2
Standard
  9
$CMLJUST
 70
     0
  9
$CMLSCALE
 40
20.0
  9
$PROXYGRAPHICS
 70
     1
  9
$MEASUREMENT
 70
     1
  9
$CELWEIGHT
370
    -1
  9
$ENDCAPS
280
     0
  9
$JOINSTYLE
280
     0
  9
$LWDISPLAY
290
     0
  9
$INSUNITS
 70
     4
  9
$HYPERLINKBASE
  1

  9
$STYLESHEET
  1

  9
$XEDIT
290
     1
  9
$CEPSNTYPE
380
     0
  9
$PSTYLEMODE
290
     1
  9
$FINGERPRINTGUID
  2
{FDFEF237-8CCF-41FC-92A4-E72BABF90403}
  9
$VERSIONGUID
  2
{75F5E22D-7C30-4BF9-8D19-358B841FFEEC}
  9
$EXTNAMES
290
     1
  9
$PSVPSCALE
 40
0.0
  9
$OLESTARTUP
290
     0
  9
$SORTENTS
280
   127
  9
$INDEXCTL
280
     0
  9
$HIDETEXT
280
     1
  9
$XCLIPFRAME
280
     2
  9
$HALOGAP
280
     0
  9
$OBSCOLOR
 70
   257
  9
$OBSLTYPE
280
     0
  9
$INTERSECTIONDISPLAY
280
     0
  9
$INTERSECTIONCOLOR
 70
   257
  9
$DIMASSOC
280
     2
  9
$PROJECTNAME
  1

  9
$CAMERADISPLAY
290
     0
  9
$LENSLENGTH
 40
50.0
  9
$CAMERAHEIGHT
 40
0.0
  9
$STEPSPERSEC
 40
2.0
  9
$STEPSIZE
 40
6.0
  9
$3DDWFPREC
 40
2.0
  9
$PSOLWIDTH
 40
0.25
  9
$PSOLHEIGHT
 40
4.0
  9
$LOFTANG1
 40
1.570796326794897
  9
$LOFTANG2
 40
1.570796326794897
  9
$LOFTMAG1
 40
0.0
  9
$LOFTMAG2
 40
0.0
  9
$LOFTPARAM
 70
     7
  9
$LOFTNORMALS
280
     1
  9
$LATITUDE
 40
37.795
  9
$LONGITUDE
 40
-122.394
  9
$NORTHDIRECTION
 40
0.0
  9
$TIMEZONE
 70
 -8000
  9
$LIGHTGLYPHDISPLAY
280
     1
  9
$TILEMODELIGHTSYNCH
280
     1
  9
$CMATERIAL
347
11
  9
$SOLIDHIST
280
     0
  9
$SHOWHIST
280
     1
  9
$DWFFRAME
280
     2
  9
$DGNFRAME
280
     0
  9
$REALWORLDSCALE
290
     1
  9
$INTERFERECOLOR
 62
     1
  9
$CSHADOW
280
     0
  9
$SHADOWPLANELOCATION
 40
0.0
  0
ENDSEC
  0
SECTION
  2
CLASSES
  0
CLASS
  1
ACDBDICTIONARYWDFLT
  2
AcDbDictionaryWithDefault
  3
ObjectDBX Classes
 90
        0
 91
        3
280
     0
281
     0
  0
CLASS
  1
MATERIAL
  2
AcDbMaterial
  3
ObjectDBX Classes
 90
     1153
 91
        3
280
     0
281
     0
  0
CLASS
  1
VISUALSTYLE
  2
AcDbVisualStyle
  3
ObjectDBX Classes
 90
     4095
 91
        3
280
     0
281
     0
  0
CLASS
  1
SCALE
  2
AcDbScale
  3
ObjectDBX Classes
 90
     1153
 91
        3
280
     0
281
     0
  0
CLASS
  1
TABLESTYLE
  2
AcDbTableStyle
  3
ObjectDBX Classes
 90
     4095
 91
        3
280
     0
281
     0
  0
CLASS
  1
MLEADERSTYLE
  2
AcDbMLeaderStyle
  3
ACDB_MLEADERSTYLE_CLASS
 90
     4095
 91
        3
280
     0
281
     0
  0
CLASS
  1
ACDBSECTIONVIEWSTYLE
  2
AcDbSectionViewStyle
  3
ObjectDBX Classes
 90
     1025
 91
        3
280
     0
281
     0
  0
CLASS
  1
ACDBDETAILVIEWSTYLE
  2
AcDbDetailViewStyle
  3
ObjectDBX Classes
 90
     1025
 91
        3
280
     0
281
     0
  0
CLASS
  1
SORTENTSTABLE
  2
AcDbSortentsTable
  3
ObjectDBX Classes
 90
        0
 91
        3
280
     0
281
     0
  0
CLASS
  1
DICTIONARYVAR
  2
AcDbDictionaryVar
  3
ObjectDBX Classes
 90
        0
 91
        3
280
     0
281
     0
  0
CLASS
  1
CELLSTYLEMAP
  2
AcDbCellStyleMap
  3
ObjectDBX Classes
 90
     1152
 91
        3
280
     0
281
     0
  0
ENDSEC
  0
SECTION
  2
TABLES
  0
TABLE
  2
VPORT
  5
8
330
0
100
AcDbSymbolTable
 70
     1
  0
VPORT
  5
57
330
8
100
AcDbSymbolTableRecord
100
AcDbViewportTableRecord
  2
*Active
 70
     0
 10
0.0
 20
0.0
 11
1.0
 21
1.0
 12
503499.5082503067
 22
189929.0138071162
 13
0.0
 23
0.0
 14
10.0
 24
10.0
 15
10.0
 25
10.0
 16
0.0
 26
0.0
 36
1.0
 17
0.0
 27
0.0
 37
0.0
 40
387.2256285736872
 41
2.162866449511401
 42
50.0
 43
0.0
 44
0.0
 50
0.0
 51
0.0
 71
     0
 72
  1000
 73
     1
 74
     3
 75
     0
 76
     0
 77
     0
 78
     0
281
     0
 65
     1
110
0.0
120
0.0
130
0.0
111
1.0
121
0.0
131
0.0
112
0.0
122
1.0
132
0.0
 79
     0
146
0.0
348
2F
 60
     3
 61
     5
292
     1
282
     1
141
0.0
142
0.0
 63
   250
421
  3355443
1001
ACAD_NAV_VCDISPLAY
1070
     1
  0
ENDTAB
  0
TABLE
  2
LTYPE
  5
5
330
0
100
AcDbSymbolTable
 70
     1
  0
LTYPE
  5
5B
330
5
100
AcDbSymbolTableRecord
100
AcDbLinetypeTableRecord
  2
ByBlock
 70
     0
  3

 72
    65
 73
     0
 40
0.0
  0
LTYPE
  5
5C
330
5
100
AcDbSymbolTableRecord
100
AcDbLinetypeTableRecord
  2
ByLayer
 70
     0
  3

 72
    65
 73
     0
 40
0.0
  0
LTYPE
  5
5D
330
5
100
AcDbSymbolTableRecord
100
AcDbLinetypeTableRecord
  2
Continuous
 70
     0
  3
Solid line
 72
    65
 73
     0
 40
0.0
  0
ENDTAB
  0
TABLE
  2
LAYER
  5
2
102
{ACAD_XDICTIONARY
360
B1
102
}
330
0
100
AcDbSymbolTable
 70
    78
  0
LAYER
  5
54
330
2
100
AcDbSymbolTableRecord
100
AcDbLayerTableRecord
  2
0
 70
     0
 62
     7
  6
Continuous
370
    -3
390
F
347
21
348
0
  0
LAYER
  5
1CF
330
2
100
AcDbSymbolTableRecord
100
AcDbLayerTableRecord
  2
005L
 70
     0
 62
   253
  6
Continuous
370
    -3
390
F
347
21
348
0
  0
LAYER
  5
1D1
330
2
100
AcDbSymbolTableRecord
100
AcDbLayerTableRecord
  2
004L
 70
     0
 62
   253
  6
Continuous
370
    -3
390
F
347
21
348
0
  0
LAYER
  5
1D3
330
2
100
AcDbSymbolTableRecord
100
AcDbLayerTableRecord
  2
006L
 70
     0
 62
   253
  6
Continuous
370
    -3
390
F
347
21
348
0
  0
LAYER
  5
1D5
330
2
100
AcDbSymbolTableRecord
100
AcDbLayerTableRecord
  2
002L
 70
     0
 62
   253
  6
Continuous
370
    -3
390
F
347
21
348
0
  0
LAYER
  5
1D7
330
2
100
AcDbSymbolTableRecord
100
AcDbLayerTableRecord
  2
001L
 70
     0
 62
   253
  6
Continuous
370
    -3
390
F
347
21
348
0
  0
LAYER
  5
1DB
330
2
100
AcDbSymbolTableRecord
100
AcDbLayerTableRecord
  2
TR08
 70
     0
 62
     1
  6
Continuous
370
    -3
390
F
347
21
348
0
  0
LAYER
  5
1DF
330
2
100
AcDbSymbolTableRecord
100
AcDbLayerTableRecord
  2
TR06
 70
     0
 62
     1
  6
Continuous
370
    -3
390
F
347
21
348
0
  0
LAYER
  5
1E1
330
2
100
AcDbSymbolTableRecord
100
AcDbLayerTableRecord
  2
003L
 70
     0
 62
   253
  6
Continuous
370
    -3
390
F
347
21
348
0
  0
LAYER
  5
1E3
330
2
100
AcDbSymbolTableRecord
100
AcDbLayerTableRecord
  2
010S
 70
     0
 62
     3
  6
Continuous
370
    -3
390
F
347
21
348
0
  0
LAYER
  5
1E5
330
2
100
AcDbSymbolTableRecord
100
AcDbLayerTableRecord
  2
010B
 70
     0
 62
     5
  6
Continuous
370
    -3
390
F
347
21
348
0
  0
LAYER
  5
1E7
330
2
100
AcDbSymbolTableRecord
100
AcDbLayerTableRecord
  2
010U
 70
     0
 62
     8
  6
Continuous
370
    -3
390
F
347
21
348
0
  0
LAYER
  5
1E9
330
2
100
AcDbSymbolTableRecord
100
AcDbLayerTableRecord
  2
010R
 70
     0
 62
     7
  6
Continuous
370
    -3
390
F
347
21
348
0
  0
LAYER
  5
1EB
330
2
100
AcDbSymbolTableRecord
100
AcDbLayerTableRecord
  2
009L
 70
     0
 62
   253
  6
Continuous
370
    -3
390
F
347
21
348
0
  0
LAYER
  5
1ED
330
2
100
AcDbSymbolTableRecord
100
AcDbLayerTableRecord
  2
007L
 70
     0
 62
   253
  6
Continuous
370
    -3
390
F
347
21
348
0
  0
LAYER
  5
1EF
330
2
100
AcDbSymbolTableRecord
100
AcDbLayerTableRecord
  2
008B
 70
     0
 62
     5
  6
Continuous
370
    -3
390
F
347
21
348
0
  0
LAYER
  5
1F1
330
2
100
AcDbSymbolTableRecord
100
AcDbLayerTableRecord
  2
008S
 70
     0
 62
     3
  6
Continuous
370
    -3
390
F
347
21
348
0
  0
LAYER
  5
1F3
330
2
100
AcDbSymbolTableRecord
100
AcDbLayerTableRecord
  2
008U
 70
     0
 62
     8
  6
Continuous
370
    -3
390
F
347
21
348
0
  0
LAYER
  5
1F5
330
2
100
AcDbSymbolTableRecord
100
AcDbLayerTableRecord
  2
008R
 70
     0
 62
     7
  6
Continuous
370
    -3
390
F
347
21
348
0
  0
LAYER
  5
1F7
330
2
100
AcDbSymbolTableRecord
100
AcDbLayerTableRecord
  2
SLOT
 70
     0
 62
    30
  6
Continuous
370
    -3
390
F
347
21
348
0
1001
AcAecLayerStandard
1000

1000

1001
AcCmTransparency
1071
        0
  0
LAYER
  5
1FC
330
2
100
AcDbSymbolTableRecord
100
AcDbLayerTableRecord
  2
TR07
 70
     0
 62
     1
  6
Continuous
370
    -3
390
F
347
21
348
0
  0
LAYER
  5
1FE
330
2
100
AcDbSymbolTableRecord
100
AcDbLayerTableRecord
  2
TR07_Extension
 70
     0
 62
     1
  6
Continuous
370
    -3
390
F
347
21
348
0
  0
LAYER
  5
200
330
2
100
AcDbSymbolTableRecord
100
AcDbLayerTableRecord
  2
TR07L
 70
     0
 62
     3
  6
Continuous
370
    -3
390
F
347
21
348
0
1001
AcAecLayerStandard
1000

1000

1001
AcCmTransparency
1071
        0
  0
LAYER
  5
202
330
2
100
AcDbSymbolTableRecord
100
AcDbLayerTableRecord
  2
TR08L
 70
     0
 62
     3
  6
Continuous
370
    -3
390
F
347
21
348
0
1001
AcAecLayerStandard
1000

1000

1001
AcCmTransparency
1071
        0
  0
LAYER
  5
204
330
2
100
AcDbSymbolTableRecord
100
AcDbLayerTableRecord
  2
TR04L
 70
     0
 62
     3
  6
Continuous
370
    -3
390
F
347
21
348
0
  0
LAYER
  5
206
330
2
100
AcDbSymbolTableRecord
100
AcDbLayerTableRecord
  2
TR04
 70
     0
 62
     1
  6
Continuous
370
    -3
390
F
347
21
348
0
  0
LAYER
  5
208
330
2
100
AcDbSymbolTableRecord
100
AcDbLayerTableRecord
  2
013L
 70
     0
 62
   253
  6
Continuous
370
    -3
390
F
347
21
348
0
  0
LAYER
  5
20A
330
2
100
AcDbSymbolTableRecord
100
AcDbLayerTableRecord
  2
TR09L
 70
     0
 62
     3
  6
Continuous
370
    -3
390
F
347
21
348
0
  0
LAYER
  5
20C
330
2
100
AcDbSymbolTableRecord
100
AcDbLayerTableRecord
  2
TR09
 70
     0
 62
     1
  6
Continuous
370
    -3
390
F
347
21
348
0
  0
LAYER
  5
20E
330
2
100
AcDbSymbolTableRecord
100
AcDbLayerTableRecord
  2
DRN
 70
     0
 62
     8
  6
Continuous
370
    -3
390
F
347
21
348
0
  0
LAYER
  5
210
330
2
100
AcDbSymbolTableRecord
100
AcDbLayerTableRecord
  2
012B
 70
     0
 62
     5
  6
Continuous
370
    -3
390
F
347
21
348
0
  0
LAYER
  5
212
330
2
100
AcDbSymbolTableRecord
100
AcDbLayerTableRecord
  2
012S
 70
     0
 62
     3
  6
Continuous
370
    -3
390
F
347
21
348
0
  0
LAYER
  5
214
330
2
100
AcDbSymbolTableRecord
100
AcDbLayerTableRecord
  2
012U
 70
     0
 62
     8
  6
Continuous
370
    -3
390
F
347
21
348
0
  0
LAYER
  5
216
330
2
100
AcDbSymbolTableRecord
100
AcDbLayerTableRecord
  2
012R
 70
     0
 62
     7
  6
Continuous
370
    -3
390
F
347
21
348
0
  0
LAYER
  5
218
330
2
100
AcDbSymbolTableRecord
100
AcDbLayerTableRecord
  2
011L
 70
     0
 62
   253
  6
Continuous
370
    -3
390
F
347
21
348
0
  0
LAYER
  5
21A
330
2
100
AcDbSymbolTableRecord
100
AcDbLayerTableRecord
  2
TR10L
 70
     0
 62
     3
  6
Continuous
370
    -3
390
F
347
21
348
0
  0
LAYER
  5
21C
330
2
100
AcDbSymbolTableRecord
100
AcDbLayerTableRecord
  2
TR10
 70
     0
 62
     1
  6
Continuous
370
    -3
390
F
347
21
348
0
  0
LAYER
  5
21E
330
2
100
AcDbSymbolTableRecord
100
AcDbLayerTableRecord
  2
015L
 70
     0
 62
   253
  6
Continuous
370
    -3
390
F
347
21
348
0
  0
LAYER
  5
220
330
2
100
AcDbSymbolTableRecord
100
AcDbLayerTableRecord
  2
015U
 70
     0
 62
     8
  6
Continuous
370
    -3
390
F
347
21
348
0
  0
LAYER
  5
222
330
2
100
AcDbSymbolTableRecord
100
AcDbLayerTableRecord
  2
015R
 70
     0
 62
     7
  6
Continuous
370
    -3
390
F
347
21
348
0
  0
LAYER
  5
224
330
2
100
AcDbSymbolTableRecord
100
AcDbLayerTableRecord
  2
014S
 70
     0
 62
     3
  6
Continuous
370
    -3
390
F
347
21
348
0
  0
LAYER
  5
226
330
2
100
AcDbSymbolTableRecord
100
AcDbLayerTableRecord
  2
014B
 70
     0
 62
     5
  6
Continuous
370
    -3
390
F
347
21
348
0
  0
LAYER
  5
228
330
2
100
AcDbSymbolTableRecord
100
AcDbLayerTableRecord
  2
014U
 70
     0
 62
     8
  6
Continuous
370
    -3
390
F
347
21
348
0
  0
LAYER
  5
22A
330
2
100
AcDbSymbolTableRecord
100
AcDbLayerTableRecord
  2
014R
 70
     0
 62
     7
  6
Continuous
370
    -3
390
F
347
21
348
0
  0
LAYER
  5
22E
330
2
100
AcDbSymbolTableRecord
100
AcDbLayerTableRecord
  2
025U
 70
     0
 62
     8
  6
Continuous
370
    -3
390
F
347
21
348
0
  0
LAYER
  5
230
330
2
100
AcDbSymbolTableRecord
100
AcDbLayerTableRecord
  2
025R
 70
     0
 62
     7
  6
Continuous
370
    -3
390
F
347
21
348
0
  0
LAYER
  5
232
330
2
100
AcDbSymbolTableRecord
100
AcDbLayerTableRecord
  2
025L
 70
     0
 62
   253
  6
Continuous
370
    -3
390
F
347
21
348
0
  0
LAYER
  5
234
330
2
100
AcDbSymbolTableRecord
100
AcDbLayerTableRecord
  2
019B
 70
     0
 62
     5
  6
Continuous
370
    -3
390
F
347
21
348
0
  0
LAYER
  5
236
330
2
100
AcDbSymbolTableRecord
100
AcDbLayerTableRecord
  2
019S
 70
     0
 62
     3
  6
Continuous
370
    -3
390
F
347
21
348
0
  0
LAYER
  5
238
330
2
100
AcDbSymbolTableRecord
100
AcDbLayerTableRecord
  2
019R
 70
     0
 62
     7
  6
Continuous
370
    -3
390
F
347
21
348
0
  0
LAYER
  5
23A
330
2
100
AcDbSymbolTableRecord
100
AcDbLayerTableRecord
  2
017S
 70
     0
 62
     3
  6
Continuous
370
    -3
390
F
347
21
348
0
  0
LAYER
  5
23C
330
2
100
AcDbSymbolTableRecord
100
AcDbLayerTableRecord
  2
017B
 70
     0
 62
     5
  6
Continuous
370
    -3
390
F
347
21
348
0
  0
LAYER
  5
23E
330
2
100
AcDbSymbolTableRecord
100
AcDbLayerTableRecord
  2
017R
 70
     0
 62
     7
  6
Continuous
370
    -3
390
F
347
21
348
0
  0
LAYER
  5
240
330
2
100
AcDbSymbolTableRecord
100
AcDbLayerTableRecord
  2
023S
 70
     0
 62
     3
  6
Continuous
370
    -3
390
F
347
21
348
0
  0
LAYER
  5
242
330
2
100
AcDbSymbolTableRecord
100
AcDbLayerTableRecord
  2
023B
 70
     0
 62
     5
  6
Continuous
370
    -3
390
F
347
21
348
0
  0
LAYER
  5
244
330
2
100
AcDbSymbolTableRecord
100
AcDbLayerTableRecord
  2
021S
 70
     0
 62
     3
  6
Continuous
370
    -3
390
F
347
21
348
0
  0
LAYER
  5
246
330
2
100
AcDbSymbolTableRecord
100
AcDbLayerTableRecord
  2
21B
 70
     0
 62
     5
  6
Continuous
370
    -3
390
F
347
21
348
0
  0
LAYER
  5
248
330
2
100
AcDbSymbolTableRecord
100
AcDbLayerTableRecord
  2
024U
 70
     0
 62
     8
  6
Continuous
370
    -3
390
F
347
21
348
0
  0
LAYER
  5
24A
330
2
100
AcDbSymbolTableRecord
100
AcDbLayerTableRecord
  2
024R
 70
     0
 62
     7
  6
Continuous
370
    -3
390
F
347
21
348
0
  0
LAYER
  5
24C
330
2
100
AcDbSymbolTableRecord
100
AcDbLayerTableRecord
  2
022L
 70
     0
 62
   253
  6
Continuous
370
    -3
390
F
347
21
348
0
  0
LAYER
  5
24E
330
2
100
AcDbSymbolTableRecord
100
AcDbLayerTableRecord
  2
020L
 70
     0
 62
   253
  6
Continuous
370
    -3
390
F
347
21
348
0
  0
LAYER
  5
250
330
2
100
AcDbSymbolTableRecord
100
AcDbLayerTableRecord
  2
018L
 70
     0
 62
   253
  6
Continuous
370
    -3
390
F
347
21
348
0
  0
LAYER
  5
252
330
2
100
AcDbSymbolTableRecord
100
AcDbLayerTableRecord
  2
016L
 70
     0
 62
   253
  6
Continuous
370
    -3
390
F
347
21
348
0
  0
LAYER
  5
254
330
2
100
AcDbSymbolTableRecord
100
AcDbLayerTableRecord
  2
TR01L
 70
     0
 62
     3
  6
Continuous
370
    -3
390
F
347
21
348
0
  0
LAYER
  5
256
330
2
100
AcDbSymbolTableRecord
100
AcDbLayerTableRecord
  2
TR01
 70
     0
 62
     1
  6
Continuous
370
    -3
390
F
347
21
348
0
  0
LAYER
  5
258
330
2
100
AcDbSymbolTableRecord
100
AcDbLayerTableRecord
  2
028B
 70
     0
 62
     5
  6
Continuous
370
    -3
390
F
347
21
348
0
  0
LAYER
  5
25A
330
2
100
AcDbSymbolTableRecord
100
AcDbLayerTableRecord
  2
028S
 70
     0
 62
     3
  6
Continuous
370
    -3
390
F
347
21
348
0
  0
LAYER
  5
25C
330
2
100
AcDbSymbolTableRecord
100
AcDbLayerTableRecord
  2
028R
 70
     0
 62
     7
  6
Continuous
370
    -3
390
F
347
21
348
0
  0
LAYER
  5
25E
330
2
100
AcDbSymbolTableRecord
100
AcDbLayerTableRecord
  2
028U
 70
     0
 62
     8
  6
Continuous
370
    -3
390
F
347
21
348
0
  0
LAYER
  5
260
330
2
100
AcDbSymbolTableRecord
100
AcDbLayerTableRecord
  2
027L
 70
     0
 62
   253
  6
Continuous
370
    -3
390
F
347
21
348
0
  0
LAYER
  5
262
330
2
100
AcDbSymbolTableRecord
100
AcDbLayerTableRecord
  2
026L
 70
     0
 62
   253
  6
Continuous
370
    -3
390
F
347
21
348
0
  0
LAYER
  5
264
330
2
100
AcDbSymbolTableRecord
100
AcDbLayerTableRecord
  2
026U
 70
     0
 62
     8
  6
Continuous
370
    -3
390
F
347
21
348
0
  0
LAYER
  5
266
330
2
100
AcDbSymbolTableRecord
100
AcDbLayerTableRecord
  2
026R
 70
     0
 62
     7
  6
Continuous
370
    -3
390
F
347
21
348
0
  0
LAYER
  5
268
330
2
100
AcDbSymbolTableRecord
100
AcDbLayerTableRecord
  2
TR03L
 70
     0
 62
     3
  6
Continuous
370
    -3
390
F
347
21
348
0
  0
LAYER
  5
26A
330
2
100
AcDbSymbolTableRecord
100
AcDbLayerTableRecord
  2
TR03
 70
     0
 62
     1
  6
Continuous
370
    -3
390
F
347
21
348
0
  0
LAYER
  5
26C
330
2
100
AcDbSymbolTableRecord
100
AcDbLayerTableRecord
  2
TR02L
 70
     0
 62
     3
  6
Continuous
370
    -3
390
F
347
21
348
0
  0
LAYER
  5
26E
330
2
100
AcDbSymbolTableRecord
100
AcDbLayerTableRecord
  2
TR02
 70
     0
 62
     1
  6
Continuous
370
    -3
390
F
347
21
348
0
  0
LAYER
  5
9CB
330
2
100
AcDbSymbolTableRecord
100
AcDbLayerTableRecord
  2
TR06L
 70
     0
 62
     3
  6
Continuous
370
    -3
390
F
347
21
348
0
1001
AcAecLayerStandard
1000

1000

1001
AcCmTransparency
1071
        0
  0
ENDTAB
  0
TABLE
  2
STYLE
  5
3
330
0
100
AcDbSymbolTable
 70
     1
  0
STYLE
  5
55
330
3
100
AcDbSymbolTableRecord
100
AcDbTextStyleTableRecord
  2
Standard
 70
     0
 40
0.0
 41
1.0
 50
0.0
 71
     0
 42
2.5
  3
txt
  4

  0
ENDTAB
  0
TABLE
  2
VIEW
  5
6
330
0
100
AcDbSymbolTable
 70
     0
  0
ENDTAB
  0
TABLE
  2
UCS
  5
7
330
0
100
AcDbSymbolTable
 70
     0
  0
ENDTAB
  0
TABLE
  2
APPID
  5
9
330
0
100
AcDbSymbolTable
 70
     6
  0
APPID
  5
56
330
9
100
AcDbSymbolTableRecord
100
AcDbRegAppTableRecord
  2
ACAD
 70
     0
  0
APPID
  5
5E
330
9
100
AcDbSymbolTableRecord
100
AcDbRegAppTableRecord
  2
AcadAnnotative
 70
     0
  0
APPID
  5
7A
330
9
100
AcDbSymbolTableRecord
100
AcDbRegAppTableRecord
  2
ACAD_NAV_VCDISPLAY
 70
     0
  0
APPID
  5
AE
330
9
100
AcDbSymbolTableRecord
100
AcDbRegAppTableRecord
  2
ACAD_PSEXT
 70
     0
  0
APPID
  5
AF
330
9
100
AcDbSymbolTableRecord
100
AcDbRegAppTableRecord
  2
AcAecLayerStandard
 70
     0
  0
APPID
  5
B0
330
9
100
AcDbSymbolTableRecord
100
AcDbRegAppTableRecord
  2
AcCmTransparency
 70
     0
  0
ENDTAB
  0
TABLE
  2
DIMSTYLE
  5
A
330
0
100
AcDbSymbolTable
 70
     2
100
AcDbDimStyleTable
  0
DIMSTYLE
105
58
330
A
100
AcDbSymbolTableRecord
100
AcDbDimStyleTableRecord
  2
ISO-25
 70
     0
 41
2.5
 42
0.625
 43
3.75
 44
1.25
 50
90.0
 73
     0
 74
     0
 77
     1
 78
     8
140
2.5
141
2.5
143
0.03937007874016
147
0.625
171
     3
172
     1
178
     0
271
     2
272
     2
274
     3
278
    44
283
     0
284
     8
340
55
  0
DIMSTYLE
105
AD
330
A
100
AcDbSymbolTableRecord
100
AcDbDimStyleTableRecord
  2
Standard
 70
     0
178
     0
340
55
  0
ENDTAB
  0
TABLE
  2
BLOCK_RECORD
  5
1
330
0
100
AcDbSymbolTable
 70
     1
  0
BLOCK_RECORD
  5
70
102
{ACAD_XDICTIONARY
360
97F
102
}
330
1
100
AcDbSymbolTableRecord
100
AcDbBlockTableRecord
  2
*Model_Space
340
73
 70
     0
280
     1
281
     0
  0
BLOCK_RECORD
  5
6C
330
1
100
AcDbSymbolTableRecord
100
AcDbBlockTableRecord
  2
*Paper_Space
340
6F
 70
     0
280
     1
281
     0
  0
BLOCK_RECORD
  5
74
330
1
100
AcDbSymbolTableRecord
100
AcDbBlockTableRecord
  2
*Paper_Space0
340
77
 70
     0
280
     1
281
     0
  0
ENDTAB
  0
ENDSEC
  0
SECTION
  2
BLOCKS
  0
BLOCK
  5
71
330
70
100
AcDbEntity
  8
0
100
AcDbBlockBegin
  2
*Model_Space
 70
     0
 10
0.0
 20
0.0
 30
0.0
  3
*Model_Space
  1

  0
ENDBLK
  5
72
330
70
100
AcDbEntity
  8
0
100
AcDbBlockEnd
  0
BLOCK
  5
6D
330
6C
100
AcDbEntity
 67
     1
  8
0
100
AcDbBlockBegin
  2
*Paper_Space
 70
     0
 10
0.0
 20
0.0
 30
0.0
  3
*Paper_Space
  1

  0
ENDBLK
  5
6E
330
6C
100
AcDbEntity
 67
     1
  8
0
100
AcDbBlockEnd
  0
BLOCK
  5
75
330
74
100
AcDbEntity
  8
0
100
AcDbBlockBegin
  2
*Paper_Space0
 70
     0
 10
0.0
 20
0.0
 30
0.0
  3
*Paper_Space0
  1

  0
ENDBLK
  5
76
330
74
100
AcDbEntity
  8
0
100
AcDbBlockEnd
  0
ENDSEC
  0
SECTION
  2
ENTITIES
  0
POINT
  5
5EE
330
70
100
AcDbEntity
  8
005L
100
AcDbPoint
 10
503511.694
 20
190024.393
 30
38.438
  0
POINT
  5
5EF
330
70
100
AcDbEntity
  8
004L
100
AcDbPoint
 10
503507.936
 20
190006.171
 30
38.546
  0
POINT
  5
5F0
330
70
100
AcDbEntity
  8
006L
100
AcDbPoint
 10
503507.321
 20
190006.111
 30
38.893
  0
POINT
  5
5F1
330
70
100
AcDbEntity
  8
002L
100
AcDbPoint
 10
503507.319
 20
190006.197
 30
39.058
  0
POINT
  5
5F2
330
70
100
AcDbEntity
  8
001L
100
AcDbPoint
 10
503507.216
 20
190006.197
 30
39.26300000000001
  0
POINT
  5
5F3
330
70
100
AcDbEntity
  8
TR08L
100
AcDbPoint
 10
503513.482
 20
190031.847
 30
38.749
  0
POINT
  5
5F4
330
70
100
AcDbEntity
  8
TR08L
100
AcDbPoint
 10
503507.935
 20
190003.406
 30
38.467
  0
POINT
  5
5F5
330
70
100
AcDbEntity
  8
TR08L
100
AcDbPoint
 10
503504.802
 20
189986.54
 30
38.524
  0
POLYLINE
  5
5F6
330
70
100
AcDbEntity
  8
TR08
100
AcDb3dPolyline
 66
     1
 10
0.0
 20
0.0
 30
0.0
 70
     9
  0
VERTEX
  5
5F7
330
5F6
100
AcDbEntity
  8
TR08
100
AcDbVertex
100
AcDb3dPolylineVertex
 10
503503.366
 20
189984.163
 30
39.277
 70
    32
  0
VERTEX
  5
5F8
330
5F6
100
AcDbEntity
  8
TR08
100
AcDbVertex
100
AcDb3dPolylineVertex
 10
503505.4179999999
 20
189983.798
 30
39.327
 70
    32
  0
VERTEX
  5
5F9
330
5F6
100
AcDbEntity
  8
TR08
100
AcDbVertex
100
AcDb3dPolylineVertex
 10
503514.926
 20
190034.499
 30
39.589
 70
    32
  0
VERTEX
  5
5FA
330
5F6
100
AcDbEntity
  8
TR08
100
AcDbVertex
100
AcDb3dPolylineVertex
 10
503513.059
 20
190034.957
 30
39.623
 70
    32
  0
VERTEX
  5
5FB
330
5F6
100
AcDbEntity
  8
TR08
100
AcDbVertex
100
AcDb3dPolylineVertex
 10
503503.366
 20
189984.163
 30
39.277
 70
    32
  0
SEQEND
  5
5FC
330
5F6
100
AcDbEntity
  8
TR08
  0
POLYLINE
  5
5FD
330
70
100
AcDbEntity
  8
TR08
100
AcDb3dPolyline
 66
     1
 10
0.0
 20
0.0
 30
0.0
 70
     9
  0
VERTEX
  5
5FE
330
5FD
100
AcDbEntity
  8
TR08
100
AcDbVertex
100
AcDb3dPolylineVertex
 10
503513.491
 20
190033.526
 30
39.079
 70
    32
  0
VERTEX
  5
5FF
330
5FD
100
AcDbEntity
  8
TR08
100
AcDbVertex
100
AcDb3dPolylineVertex
 10
503514.128
 20
190033.38
 30
39.086
 70
    32
  0
VERTEX
  5
600
330
5FD
100
AcDbEntity
  8
TR08
100
AcDbVertex
100
AcDb3dPolylineVertex
 10
503504.849
 20
189984.718
 30
38.942
 70
    32
  0
VERTEX
  5
601
330
5FD
100
AcDbEntity
  8
TR08
100
AcDbVertex
100
AcDb3dPolylineVertex
 10
503504.098
 20
189984.829
 30
38.983
 70
    32
  0
VERTEX
  5
602
330
5FD
100
AcDbEntity
  8
TR08
100
AcDbVertex
100
AcDb3dPolylineVertex
 10
503513.491
 20
190033.526
 30
39.079
 70
    32
  0
SEQEND
  5
603
330
5FD
100
AcDbEntity
  8
TR08
  0
POINT
  5
605
330
70
100
AcDbEntity
  8
TR06L
100
AcDbPoint
 10
503442.079
 20
190011.598
 30
39.408
  0
POINT
  5
606
330
70
100
AcDbEntity
  8
TR06L
100
AcDbPoint
 10
503458.507
 20
190023.317
 30
38.971
  0
POINT
  5
607
330
70
100
AcDbEntity
  8
TR06L
100
AcDbPoint
 10
503473.883
 20
190033.506
 30
38.711
  0
POINT
  5
608
330
70
100
AcDbEntity
  8
005L
100
AcDbPoint
 10
503469.734
 20
190031.202
 30
38.796
  0
POINT
  5
609
330
70
100
AcDbEntity
  8
004L
100
AcDbPoint
 10
503456.619
 20
190022.45
 30
39.232
  0
POINT
  5
60A
330
70
100
AcDbEntity
  8
003L
100
AcDbPoint
 10
503456.285
 20
190022.904
 30
39.673
  0
POINT
  5
60B
330
70
100
AcDbEntity
  8
002L
100
AcDbPoint
 10
503456.365
 20
190022.994
 30
39.874
  0
POINT
  5
60C
330
70
100
AcDbEntity
  8
001L
100
AcDbPoint
 10
503456.403
 20
190023.173
 30
40.035
  0
POLYLINE
  5
60D
330
70
100
AcDbEntity
  8
TR06
100
AcDb3dPolyline
 66
     1
 10
0.0
 20
0.0
 30
0.0
 70
     9
  0
VERTEX
  5
60E
330
60D
100
AcDbEntity
  8
TR06
100
AcDbVertex
100
AcDb3dPolylineVertex
 10
503478.2929999999
 20
190037.73
 30
39.844
 70
    32
  0
VERTEX
  5
60F
330
60D
100
AcDbEntity
  8
TR06
100
AcDbVertex
100
AcDb3dPolylineVertex
 10
503479.539
 20
190035.753
 30
39.818
 70
    32
  0
VERTEX
  5
610
330
60D
100
AcDbEntity
  8
TR06
100
AcDbVertex
100
AcDb3dPolylineVertex
 10
503446.697
 20
190013.576
 30
40.61
 70
    32
  0
VERTEX
  5
611
330
60D
100
AcDbEntity
  8
TR06
100
AcDbVertex
100
AcDb3dPolylineVertex
 10
503446.921
 20
190012.957
 30
40.598
 70
    32
  0
VERTEX
  5
612
330
60D
100
AcDbEntity
  8
TR06
100
AcDbVertex
100
AcDb3dPolylineVertex
 10
503435.382
 20
190005.593
 30
41.558
 70
    32
  0
VERTEX
  5
613
330
60D
100
AcDbEntity
  8
TR06
100
AcDbVertex
100
AcDb3dPolylineVertex
 10
503434.114
 20
190007.513
 30
41.60899999999999
 70
    32
  0
VERTEX
  5
614
330
60D
100
AcDbEntity
  8
TR06
100
AcDbVertex
100
AcDb3dPolylineVertex
 10
503444.02
 20
190015.432
 30
40.65
 70
    32
  0
VERTEX
  5
615
330
60D
100
AcDbEntity
  8
TR06
100
AcDbVertex
100
AcDb3dPolylineVertex
 10
503444.71
 20
190014.816
 30
40.601
 70
    32
  0
VERTEX
  5
616
330
60D
100
AcDbEntity
  8
TR06
100
AcDbVertex
100
AcDb3dPolylineVertex
 10
503478.2929999999
 20
190037.73
 30
39.844
 70
    32
  0
SEQEND
  5
617
330
60D
100
AcDbEntity
  8
TR06
  0
POLYLINE
  5
618
330
70
100
AcDbEntity
  8
TR06
100
AcDb3dPolyline
 66
     1
 10
0.0
 20
0.0
 30
0.0
 70
     9
  0
VERTEX
  5
619
330
618
100
AcDbEntity
  8
TR06
100
AcDbVertex
100
AcDb3dPolylineVertex
 10
503437.996
 20
190008.041
 30
40.384
 70
    32
  0
VERTEX
  5
61A
330
618
100
AcDbEntity
  8
TR06
100
AcDbVertex
100
AcDb3dPolylineVertex
 10
503437.378
 20
190008.672
 30
40.432
 70
    32
  0
VERTEX
  5
61B
330
618
100
AcDbEntity
  8
TR06
100
AcDbVertex
100
AcDb3dPolylineVertex
 10
503476.725
 20
190035.686
 30
39.274
 70
    32
  0
VERTEX
  5
61C
330
618
100
AcDbEntity
  8
TR06
100
AcDbVertex
100
AcDb3dPolylineVertex
 10
503477.06
 20
190035.138
 30
39.272
 70
    32
  0
VERTEX
  5
61D
330
618
100
AcDbEntity
  8
TR06
100
AcDbVertex
100
AcDb3dPolylineVertex
 10
503437.996
 20
190008.041
 30
40.384
 70
    32
  0
SEQEND
  5
61E
330
618
100
AcDbEntity
  8
TR06
  0
TEXT
  5
61F
330
70
100
AcDbEntity
  8
TR06
100
AcDbText
 10
503448.0619923109
 20
190021.7415123895
 30
0.0
 40
1.0
  1
TR06
100
AcDbText
  0
POLYLINE
  5
620
330
70
100
AcDbEntity
  8
SLOT
100
AcDb3dPolyline
 66
     1
 10
0.0
 20
0.0
 30
0.0
 70
     9
  0
VERTEX
  5
621
330
620
100
AcDbEntity
  8
SLOT
100
AcDbVertex
100
AcDb3dPolylineVertex
 10
503472.19
 20
190002.609
 30
39.032
 70
    32
  0
VERTEX
  5
622
330
620
100
AcDbEntity
  8
SLOT
100
AcDbVertex
100
AcDb3dPolylineVertex
 10
503471.252
 20
190004.342
 30
39.039
 70
    32
  0
VERTEX
  5
623
330
620
100
AcDbEntity
  8
SLOT
100
AcDbVertex
100
AcDb3dPolylineVertex
 10
503470.838
 20
190004.363
 30
39.04
 70
    32
  0
VERTEX
  5
624
330
620
100
AcDbEntity
  8
SLOT
100
AcDbVertex
100
AcDb3dPolylineVertex
 10
503470.235
 20
190004.137
 30
39.093
 70
    32
  0
VERTEX
  5
625
330
620
100
AcDbEntity
  8
SLOT
100
AcDbVertex
100
AcDb3dPolylineVertex
 10
503469.931
 20
190004.071
 30
39.137
 70
    32
  0
VERTEX
  5
626
330
620
100
AcDbEntity
  8
SLOT
100
AcDbVertex
100
AcDb3dPolylineVertex
 10
503470.894
 20
190002.382
 30
39.081
 70
    32
  0
VERTEX
  5
627
330
620
100
AcDbEntity
  8
SLOT
100
AcDbVertex
100
AcDb3dPolylineVertex
 10
503471.329
 20
190002.431
 30
39.089
 70
    32
  0
VERTEX
  5
628
330
620
100
AcDbEntity
  8
SLOT
100
AcDbVertex
100
AcDb3dPolylineVertex
 10
503471.665
 20
190002.496
 30
39.029
 70
    32
  0
SEQEND
  5
629
330
620
100
AcDbEntity
  8
SLOT
  0
POINT
  5
62A
330
70
100
AcDbEntity
  8
009L
100
AcDbPoint
 10
503472.581
 20
190000.638
 30
39.033
  0
POINT
  5
62B
330
70
100
AcDbEntity
  8
007L
100
AcDbPoint
 10
503470.601
 20
190003.097
 30
39.076
  0
POLYLINE
  5
62C
330
70
100
AcDbEntity
  8
008R
100
AcDb3dPolyline
 66
     1
 10
0.0
 20
0.0
 30
0.0
 70
     8
  0
VERTEX
  5
62D
330
62C
100
AcDbEntity
  8
008R
100
AcDbVertex
100
AcDb3dPolylineVertex
 10
503472.8970000001
 20
190002.589
 30
39.081
 70
    32
  0
VERTEX
  5
62E
330
62C
100
AcDbEntity
  8
008R
100
AcDbVertex
100
AcDb3dPolylineVertex
 10
503472.609
 20
190002.579
 30
39.078
 70
    32
  0
VERTEX
  5
62F
330
62C
100
AcDbEntity
  8
008R
100
AcDbVertex
100
AcDb3dPolylineVertex
 10
503472.186
 20
190002.609
 30
39.034
 70
    32
  0
VERTEX
  5
630
330
62C
100
AcDbEntity
  8
008R
100
AcDbVertex
100
AcDb3dPolylineVertex
 10
503471.665
 20
190002.496
 30
39.029
 70
    32
  0
VERTEX
  5
631
330
62C
100
AcDbEntity
  8
008R
100
AcDbVertex
100
AcDb3dPolylineVertex
 10
503471.329
 20
190002.431
 30
39.089
 70
    32
  0
VERTEX
  5
632
330
62C
100
AcDbEntity
  8
0
100
AcDbVertex
100
AcDb3dPolylineVertex
 10
503470.894
 20
190002.382
 30
39.081
 70
    32
  0
SEQEND
  5
633
330
62C
100
AcDbEntity
  8
008R
  0
POLYLINE
  5
634
330
70
100
AcDbEntity
  8
008U
100
AcDb3dPolyline
 66
     1
 10
0.0
 20
0.0
 30
0.0
 70
     8
  0
VERTEX
  5
635
330
634
100
AcDbEntity
  8
008U
100
AcDbVertex
100
AcDb3dPolylineVertex
 10
503472.8970000001
 20
190002.589
 30
39.081
 70
    32
  0
VERTEX
  5
636
330
634
100
AcDbEntity
  8
008U
100
AcDbVertex
100
AcDb3dPolylineVertex
 10
503472.8970000001
 20
190002.589
 30
39.081
 70
    32
  0
SEQEND
  5
637
330
634
100
AcDbEntity
  8
008U
  0
POLYLINE
  5
638
330
70
100
AcDbEntity
  8
008U
100
AcDb3dPolyline
 66
     1
 10
0.0
 20
0.0
 30
0.0
 70
     8
  0
VERTEX
  5
639
330
638
100
AcDbEntity
  8
008U
100
AcDbVertex
100
AcDb3dPolylineVertex
 10
503470.894
 20
190002.382
 30
39.081
 70
    32
  0
VERTEX
  5
63A
330
638
100
AcDbEntity
  8
008U
100
AcDbVertex
100
AcDb3dPolylineVertex
 10
503469.931
 20
190004.071
 30
39.137
 70
    32
  0
SEQEND
  5
63B
330
638
100
AcDbEntity
  8
008U
  0
POLYLINE
  5
63C
330
70
100
AcDbEntity
  8
008R
100
AcDb3dPolyline
 66
     1
 10
0.0
 20
0.0
 30
0.0
 70
     8
  0
VERTEX
  5
63D
330
63C
100
AcDbEntity
  8
008R
100
AcDbVertex
100
AcDb3dPolylineVertex
 10
503469.931
 20
190004.071
 30
39.137
 70
    32
  0
VERTEX
  5
63E
330
63C
100
AcDbEntity
  8
008R
100
AcDbVertex
100
AcDb3dPolylineVertex
 10
503470.235
 20
190004.137
 30
39.093
 70
    32
  0
VERTEX
  5
63F
330
63C
100
AcDbEntity
  8
008R
100
AcDbVertex
100
AcDb3dPolylineVertex
 10
503470.838
 20
190004.363
 30
39.04
 70
    32
  0
VERTEX
  5
640
330
63C
100
AcDbEntity
  8
008R
100
AcDbVertex
100
AcDb3dPolylineVertex
 10
503471.263
 20
190004.349
 30
39.042
 70
    32
  0
VERTEX
  5
641
330
63C
100
AcDbEntity
  8
008R
100
AcDbVertex
100
AcDb3dPolylineVertex
 10
503471.791
 20
190004.393
 30
39.034
 70
    32
  0
SEQEND
  5
642
330
63C
100
AcDbEntity
  8
008R
  0
POLYLINE
  5
643
330
70
100
AcDbEntity
  8
008U
100
AcDb3dPolyline
 66
     1
 10
0.0
 20
0.0
 30
0.0
 70
     8
  0
VERTEX
  5
644
330
643
100
AcDbEntity
  8
008U
100
AcDbVertex
100
AcDb3dPolylineVertex
 10
503471.791
 20
190004.393
 30
39.034
 70
    32
  0
VERTEX
  5
645
330
643
100
AcDbEntity
  8
008U
100
AcDbVertex
100
AcDb3dPolylineVertex
 10
503472.8970000001
 20
190002.608
 30
39.079
 70
    32
  0
SEQEND
  5
646
330
643
100
AcDbEntity
  8
008U
  0
POLYLINE
  5
647
330
70
100
AcDbEntity
  8
008S
100
AcDb3dPolyline
 66
     1
 10
0.0
 20
0.0
 30
0.0
 70
     8
  0
VERTEX
  5
648
330
647
100
AcDbEntity
  8
008S
100
AcDbVertex
100
AcDb3dPolylineVertex
 10
503471.324
 20
190002.438
 30
39.075
 70
    32
  0
VERTEX
  5
649
330
647
100
AcDbEntity
  8
008S
100
AcDbVertex
100
AcDb3dPolylineVertex
 10
503471.305
 20
190002.519
 30
38.959
 70
    32
  0
VERTEX
  5
64A
330
647
100
AcDbEntity
  8
008S
100
AcDbVertex
100
AcDb3dPolylineVertex
 10
503471.251
 20
190002.606
 30
38.871
 70
    32
  0
VERTEX
  5
64B
330
647
100
AcDbEntity
  8
008S
100
AcDbVertex
100
AcDb3dPolylineVertex
 10
503471.183
 20
190002.685
 30
38.78
 70
    32
  0
VERTEX
  5
64C
330
647
100
AcDbEntity
  8
008S
100
AcDbVertex
100
AcDb3dPolylineVertex
 10
503471.123
 20
190002.774
 30
38.694
 70
    32
  0
VERTEX
  5
64D
330
647
100
AcDbEntity
  8
008S
100
AcDbVertex
100
AcDb3dPolylineVertex
 10
503471.044
 20
190002.883
 30
38.59
 70
    32
  0
VERTEX
  5
64E
330
647
100
AcDbEntity
  8
008S
100
AcDbVertex
100
AcDb3dPolylineVertex
 10
503470.963
 20
190002.994
 30
38.545
 70
    32
  0
VERTEX
  5
64F
330
647
100
AcDbEntity
  8
008S
100
AcDbVertex
100
AcDb3dPolylineVertex
 10
503470.88
 20
190003.129
 30
38.505
 70
    32
  0
VERTEX
  5
650
330
647
100
AcDbEntity
  8
008S
100
AcDbVertex
100
AcDb3dPolylineVertex
 10
503470.827
 20
190003.226
 30
38.461
 70
    32
  0
VERTEX
  5
651
330
647
100
AcDbEntity
  8
008S
100
AcDbVertex
100
AcDb3dPolylineVertex
 10
503470.703
 20
190003.423
 30
38.47
 70
    32
  0
VERTEX
  5
652
330
647
100
AcDbEntity
  8
008S
100
AcDbVertex
100
AcDb3dPolylineVertex
 10
503470.626
 20
190003.556
 30
38.526
 70
    32
  0
VERTEX
  5
653
330
647
100
AcDbEntity
  8
008S
100
AcDbVertex
100
AcDb3dPolylineVertex
 10
503470.553
 20
190003.694
 30
38.63
 70
    32
  0
VERTEX
  5
654
330
647
100
AcDbEntity
  8
008S
100
AcDbVertex
100
AcDb3dPolylineVertex
 10
503470.505
 20
190003.801
 30
38.684
 70
    32
  0
VERTEX
  5
655
330
647
100
AcDbEntity
  8
008S
100
AcDbVertex
100
AcDb3dPolylineVertex
 10
503470.437
 20
190003.902
 30
38.794
 70
    32
  0
VERTEX
  5
656
330
647
100
AcDbEntity
  8
008S
100
AcDbVertex
100
AcDb3dPolylineVertex
 10
503470.386
 20
190003.983
 30
38.874
 70
    32
  0
VERTEX
  5
657
330
647
100
AcDbEntity
  8
008S
100
AcDbVertex
100
AcDb3dPolylineVertex
 10
503470.31
 20
190004.056
 30
38.975
 70
    32
  0
VERTEX
  5
658
330
647
100
AcDbEntity
  8
008S
100
AcDbVertex
100
AcDb3dPolylineVertex
 10
503470.232
 20
190004.122
 30
39.075
 70
    32
  0
SEQEND
  5
659
330
647
100
AcDbEntity
  8
008S
  0
POLYLINE
  5
65A
330
70
100
AcDbEntity
  8
008B
100
AcDb3dPolyline
 66
     1
 10
0.0
 20
0.0
 30
0.0
 70
     8
  0
VERTEX
  5
65B
330
65A
100
AcDbEntity
  8
008B
100
AcDbVertex
100
AcDb3dPolylineVertex
 10
503471.766
 20
190003.337
 30
38.482
 70
    32
  0
VERTEX
  5
65C
330
65A
100
AcDbEntity
  8
008B
100
AcDbVertex
100
AcDb3dPolylineVertex
 10
503471.454
 20
190003.3
 30
38.47
 70
    32
  0
VERTEX
  5
65D
330
65A
100
AcDbEntity
  8
008B
100
AcDbVertex
100
AcDb3dPolylineVertex
 10
503471.201
 20
190003.274
 30
38.484
 70
    32
  0
VERTEX
  5
65E
330
65A
100
AcDbEntity
  8
008B
100
AcDbVertex
100
AcDb3dPolylineVertex
 10
503470.826
 20
190003.209
 30
38.465
 70
    32
  0
SEQEND
  5
65F
330
65A
100
AcDbEntity
  8
008B
  0
POLYLINE
  5
660
330
70
100
AcDbEntity
  8
008B
100
AcDb3dPolyline
 66
     1
 10
0.0
 20
0.0
 30
0.0
 70
     8
  0
VERTEX
  5
661
330
660
100
AcDbEntity
  8
008B
100
AcDbVertex
100
AcDb3dPolylineVertex
 10
503470.701
 20
190003.465
 30
38.476
 70
    32
  0
VERTEX
  5
662
330
660
100
AcDbEntity
  8
008B
100
AcDbVertex
100
AcDb3dPolylineVertex
 10
503470.879
 20
190003.558
 30
38.471
 70
    32
  0
VERTEX
  5
663
330
660
100
AcDbEntity
  8
008B
100
AcDbVertex
100
AcDb3dPolylineVertex
 10
503471.115
 20
190003.637
 30
38.48
 70
    32
  0
VERTEX
  5
664
330
660
100
AcDbEntity
  8
008B
100
AcDbVertex
100
AcDb3dPolylineVertex
 10
503471.306
 20
190003.659
 30
38.49
 70
    32
  0
VERTEX
  5
665
330
660
100
AcDbEntity
  8
008B
100
AcDbVertex
100
AcDb3dPolylineVertex
 10
503471.591
 20
190003.658
 30
38.466
 70
    32
  0
SEQEND
  5
666
330
660
100
AcDbEntity
  8
008B
  0
POLYLINE
  5
667
330
70
100
AcDbEntity
  8
010R
100
AcDb3dPolyline
 66
     1
 10
0.0
 20
0.0
 30
0.0
 70
     8
  0
VERTEX
  5
668
330
667
100
AcDbEntity
  8
010R
100
AcDbVertex
100
AcDb3dPolylineVertex
 10
503474.156
 20
190000.58
 30
39.037
 70
    32
  0
VERTEX
  5
669
330
667
100
AcDbEntity
  8
010R
100
AcDbVertex
100
AcDb3dPolylineVertex
 10
503473.816
 20
190000.472
 30
39.053
 70
    32
  0
VERTEX
  5
66A
330
667
100
AcDbEntity
  8
010R
100
AcDbVertex
100
AcDb3dPolylineVertex
 10
503473.579
 20
190000.446
 30
39.035
 70
    32
  0
VERTEX
  5
66B
330
667
100
AcDbEntity
  8
010R
100
AcDbVertex
100
AcDb3dPolylineVertex
 10
503473.387
 20
190000.401
 30
39.048
 70
    32
  0
VERTEX
  5
66C
330
667
100
AcDbEntity
  8
010R
100
AcDbVertex
100
AcDb3dPolylineVertex
 10
503472.954
 20
190000.293
 30
39.062
 70
    32
  0
VERTEX
  5
66D
330
667
100
AcDbEntity
  8
010R
100
AcDbVertex
100
AcDb3dPolylineVertex
 10
503472.621
 20
190000.202
 30
39.064
 70
    32
  0
VERTEX
  5
66E
330
667
100
AcDbEntity
  8
010R
100
AcDbVertex
100
AcDb3dPolylineVertex
 10
503472.274
 20
190000.188
 30
39.065
 70
    32
  0
SEQEND
  5
66F
330
667
100
AcDbEntity
  8
010R
  0
POLYLINE
  5
670
330
70
100
AcDbEntity
  8
010U
100
AcDb3dPolyline
 66
     1
 10
0.0
 20
0.0
 30
0.0
 70
     8
  0
VERTEX
  5
671
330
670
100
AcDbEntity
  8
010U
100
AcDbVertex
100
AcDb3dPolylineVertex
 10
503472.274
 20
190000.188
 30
39.065
 70
    32
  0
VERTEX
  5
672
330
670
100
AcDbEntity
  8
010U
100
AcDbVertex
100
AcDb3dPolylineVertex
 10
503471.771
 20
190000.983
 30
39.066
 70
    32
  0
SEQEND
  5
673
330
670
100
AcDbEntity
  8
010U
  0
POLYLINE
  5
674
330
70
100
AcDbEntity
  8
010R
100
AcDb3dPolyline
 66
     1
 10
0.0
 20
0.0
 30
0.0
 70
     8
  0
VERTEX
  5
675
330
674
100
AcDbEntity
  8
010R
100
AcDbVertex
100
AcDb3dPolylineVertex
 10
503471.771
 20
190000.983
 30
39.066
 70
    32
  0
VERTEX
  5
676
330
674
100
AcDbEntity
  8
010R
100
AcDbVertex
100
AcDb3dPolylineVertex
 10
503472.102
 20
190001.067
 30
39.064
 70
    32
  0
VERTEX
  5
677
330
674
100
AcDbEntity
  8
010R
100
AcDbVertex
100
AcDb3dPolylineVertex
 10
503472.407
 20
190001.131
 30
39.059
 70
    32
  0
VERTEX
  5
678
330
674
100
AcDbEntity
  8
010R
100
AcDbVertex
100
AcDb3dPolylineVertex
 10
503472.789
 20
190001.258
 30
39.047
 70
    32
  0
VERTEX
  5
679
330
674
100
AcDbEntity
  8
010R
100
AcDbVertex
100
AcDb3dPolylineVertex
 10
503473.216
 20
190001.402
 30
39.049
 70
    32
  0
VERTEX
  5
67A
330
674
100
AcDbEntity
  8
010R
100
AcDbVertex
100
AcDb3dPolylineVertex
 10
503473.561
 20
190001.482
 30
39.028
 70
    32
  0
SEQEND
  5
67B
330
674
100
AcDbEntity
  8
010R
  0
POLYLINE
  5
67C
330
70
100
AcDbEntity
  8
010U
100
AcDb3dPolyline
 66
     1
 10
0.0
 20
0.0
 30
0.0
 70
     8
  0
VERTEX
  5
67D
330
67C
100
AcDbEntity
  8
010U
100
AcDbVertex
100
AcDb3dPolylineVertex
 10
503473.561
 20
190001.482
 30
39.028
 70
    32
  0
VERTEX
  5
67E
330
67C
100
AcDbEntity
  8
010U
100
AcDbVertex
100
AcDb3dPolylineVertex
 10
503474.157
 20
190000.575
 30
39.053
 70
    32
  0
SEQEND
  5
67F
330
67C
100
AcDbEntity
  8
010U
  0
POLYLINE
  5
680
330
70
100
AcDbEntity
  8
SLOT
100
AcDb3dPolyline
 66
     1
 10
0.0
 20
0.0
 30
0.0
 70
     9
  0
VERTEX
  5
681
330
680
100
AcDbEntity
  8
SLOT
100
AcDbVertex
100
AcDb3dPolylineVertex
 10
503473.371
 20
190000.415
 30
39.061
 70
    32
  0
VERTEX
  5
682
330
680
100
AcDbEntity
  8
SLOT
100
AcDbVertex
100
AcDb3dPolylineVertex
 10
503472.779
 20
190001.277
 30
39.033
 70
    32
  0
VERTEX
  5
683
330
680
100
AcDbEntity
  8
SLOT
100
AcDbVertex
100
AcDb3dPolylineVertex
 10
503472.407
 20
190001.131
 30
39.059
 70
    32
  0
VERTEX
  5
684
330
680
100
AcDbEntity
  8
SLOT
100
AcDbVertex
100
AcDb3dPolylineVertex
 10
503472.102
 20
190001.067
 30
39.064
 70
    32
  0
VERTEX
  5
685
330
680
100
AcDbEntity
  8
SLOT
100
AcDbVertex
100
AcDb3dPolylineVertex
 10
503472.621
 20
190000.202
 30
39.064
 70
    32
  0
VERTEX
  5
686
330
680
100
AcDbEntity
  8
SLOT
100
AcDbVertex
100
AcDb3dPolylineVertex
 10
503472.954
 20
190000.293
 30
39.062
 70
    32
  0
SEQEND
  5
687
330
680
100
AcDbEntity
  8
SLOT
  0
POLYLINE
  5
688
330
70
100
AcDbEntity
  8
010B
100
AcDb3dPolyline
 66
     1
 10
0.0
 20
0.0
 30
0.0
 70
     8
  0
VERTEX
  5
689
330
688
100
AcDbEntity
  8
010B
100
AcDbVertex
100
AcDb3dPolylineVertex
 10
503473.132
 20
190000.689
 30
38.685
 70
    32
  0
VERTEX
  5
68A
330
688
100
AcDbEntity
  8
010B
100
AcDbVertex
100
AcDb3dPolylineVertex
 10
503473.009
 20
190000.639
 30
38.699
 70
    32
  0
VERTEX
  5
68B
330
688
100
AcDbEntity
  8
010B
100
AcDbVertex
100
AcDb3dPolylineVertex
 10
503472.81
 20
190000.557
 30
38.701
 70
    32
  0
SEQEND
  5
68C
330
688
100
AcDbEntity
  8
010B
  0
POLYLINE
  5
68D
330
70
100
AcDbEntity
  8
010B
100
AcDb3dPolyline
 66
     1
 10
0.0
 20
0.0
 30
0.0
 70
     8
  0
VERTEX
  5
68E
330
68D
100
AcDbEntity
  8
010B
100
AcDbVertex
100
AcDb3dPolylineVertex
 10
503472.62
 20
190000.824
 30
38.715
 70
    32
  0
VERTEX
  5
68F
330
68D
100
AcDbEntity
  8
010B
100
AcDbVertex
100
AcDb3dPolylineVertex
 10
503472.798
 20
190000.866
 30
38.712
 70
    32
  0
VERTEX
  5
690
330
68D
100
AcDbEntity
  8
010B
100
AcDbVertex
100
AcDb3dPolylineVertex
 10
503472.9570000001
 20
190000.924
 30
38.701
 70
    32
  0
SEQEND
  5
691
330
68D
100
AcDbEntity
  8
010B
  0
POLYLINE
  5
692
330
70
100
AcDbEntity
  8
010S
100
AcDb3dPolyline
 66
     1
 10
0.0
 20
0.0
 30
0.0
 70
     8
  0
VERTEX
  5
693
330
692
100
AcDbEntity
  8
010S
100
AcDbVertex
100
AcDb3dPolylineVertex
 10
503472.942
 20
190000.288
 30
39.094
 70
    32
  0
VERTEX
  5
694
330
692
100
AcDbEntity
  8
010S
100
AcDbVertex
100
AcDb3dPolylineVertex
 10
503472.94
 20
190000.336
 30
39.03
 70
    32
  0
VERTEX
  5
695
330
692
100
AcDbEntity
  8
010S
100
AcDbVertex
100
AcDb3dPolylineVertex
 10
503472.907
 20
190000.406
 30
38.948
 70
    32
  0
VERTEX
  5
696
330
692
100
AcDbEntity
  8
010S
100
AcDbVertex
100
AcDb3dPolylineVertex
 10
503472.873
 20
190000.451
 30
38.864
 70
    32
  0
VERTEX
  5
697
330
692
100
AcDbEntity
  8
010S
100
AcDbVertex
100
AcDb3dPolylineVertex
 10
503472.848
 20
190000.5
 30
38.73
 70
    32
  0
VERTEX
  5
698
330
692
100
AcDbEntity
  8
010S
100
AcDbVertex
100
AcDb3dPolylineVertex
 10
503472.809
 20
190000.534
 30
38.708
 70
    32
  0
VERTEX
  5
699
330
692
100
AcDbEntity
  8
010S
100
AcDbVertex
100
AcDb3dPolylineVertex
 10
503472.727
 20
190000.642
 30
38.708
 70
    32
  0
VERTEX
  5
69A
330
692
100
AcDbEntity
  8
010S
100
AcDbVertex
100
AcDb3dPolylineVertex
 10
503472.615
 20
190000.81
 30
38.726
 70
    32
  0
VERTEX
  5
69B
330
692
100
AcDbEntity
  8
010S
100
AcDbVertex
100
AcDb3dPolylineVertex
 10
503472.583
 20
190000.87
 30
38.81
 70
    32
  0
VERTEX
  5
69C
330
692
100
AcDbEntity
  8
010S
100
AcDbVertex
100
AcDb3dPolylineVertex
 10
503472.546
 20
190000.921
 30
38.909
 70
    32
  0
VERTEX
  5
69D
330
692
100
AcDbEntity
  8
010S
100
AcDbVertex
100
AcDb3dPolylineVertex
 10
503472.495
 20
190001.023
 30
38.969
 70
    32
  0
VERTEX
  5
69E
330
692
100
AcDbEntity
  8
010S
100
AcDbVertex
100
AcDb3dPolylineVertex
 10
503472.446
 20
190001.096
 30
39.029
 70
    32
  0
VERTEX
  5
69F
330
692
100
AcDbEntity
  8
010S
100
AcDbVertex
100
AcDb3dPolylineVertex
 10
503472.407
 20
190001.129
 30
39.09
 70
    32
  0
SEQEND
  5
6A0
330
692
100
AcDbEntity
  8
010S
  0
TEXT
  5
6A1
330
70
100
AcDbEntity
  8
008R
100
AcDbText
 10
503470.3001338153
 20
190004.6048142642
 30
0.0
 40
0.2
  1
[008]
100
AcDbText
  0
TEXT
  5
6A2
330
70
100
AcDbEntity
  8
010R
100
AcDbText
 10
503472.8443140219
 20
189999.771129445
 30
0.0
 40
0.2
  1
[010]
100
AcDbText
  0
POINT
  5
6A3
330
70
100
AcDbEntity
  8
004L
100
AcDbPoint
 10
503483.97
 20
189985.466
 30
38.878
  0
POINT
  5
6A4
330
70
100
AcDbEntity
  8
002L
100
AcDbPoint
 10
503484.536
 20
189985.572
 30
39.152
  0
POINT
  5
6A5
330
70
100
AcDbEntity
  8
001L
100
AcDbPoint
 10
503484.514
 20
189985.739
 30
39.518
  0
POINT
  5
6A6
330
70
100
AcDbEntity
  8
TR07L
100
AcDbPoint
 10
503472.352
 20
190001.675
 30
39.116
  0
POINT
  5
6A7
330
70
100
AcDbEntity
  8
TR07L
100
AcDbPoint
 10
503484.809
 20
189982.891
 30
38.729
  0
POINT
  5
6A8
330
70
100
AcDbEntity
  8
TR07L
100
AcDbPoint
 10
503495.693
 20
189966.382
 30
38.841
  0
POINT
  5
6A9
330
70
100
AcDbEntity
  8
TR07L
100
AcDbPoint
 10
503468.781
 20
190004.505
 30
39.71
  0
POINT
  5
6AA
330
70
100
AcDbEntity
  8
TR07L
100
AcDbPoint
 10
503496.6
 20
189962.713
 30
39.577
  0
POINT
  5
6AB
330
70
100
AcDbEntity
  8
TR08L
100
AcDbPoint
 10
503516.226
 20
190034.199
 30
39.586
  0
POINT
  5
6AC
330
70
100
AcDbEntity
  8
TR08L
100
AcDbPoint
 10
503506.459
 20
189983.267
 30
39.317
  0
POLYLINE
  5
6AD
330
70
100
AcDbEntity
  8
TR07_Extension
100
AcDb3dPolyline
 66
     1
 10
0.0
 20
0.0
 30
0.0
 70
     8
  0
VERTEX
  5
6AE
330
6AD
100
AcDbEntity
  8
TR07_Extension
100
AcDbVertex
100
AcDb3dPolylineVertex
 10
503475.502
 20
189999.889
 30
39.642
 70
    32
  0
VERTEX
  5
6AF
330
6AD
100
AcDbEntity
  8
TR07_Extension
100
AcDbVertex
100
AcDb3dPolylineVertex
 10
503483.371
 20
190002.259
 30
39.496
 70
    32
  0
VERTEX
  5
6B0
330
6AD
100
AcDbEntity
  8
TR07_Extension
100
AcDbVertex
100
AcDb3dPolylineVertex
 10
503481.824
 20
190006.692
 30
39.431
 70
    32
  0
VERTEX
  5
6B1
330
6AD
100
AcDbEntity
  8
TR07_Extension
100
AcDbVertex
100
AcDb3dPolylineVertex
 10
503471.851
 20
190005.62
 30
39.692
 70
    32
  0
SEQEND
  5
6B2
330
6AD
100
AcDbEntity
  8
TR07_Extension
  0
POLYLINE
  5
6C7
330
70
100
AcDbEntity
  8
TR07
100
AcDb3dPolyline
 66
     1
 10
0.0
 20
0.0
 30
0.0
 70
     9
  0
VERTEX
  5
6C8
330
6C7
100
AcDbEntity
  8
TR07
100
AcDbVertex
100
AcDb3dPolylineVertex
 10
503496.6
 20
189962.713
 30
39.577
 70
    32
  0
VERTEX
  5
6C9
330
6C7
100
AcDbEntity
  8
TR07
100
AcDbVertex
100
AcDb3dPolylineVertex
 10
503498.611
 20
189964.421
 30
39.573
 70
    32
  0
VERTEX
  5
6CA
330
6C7
100
AcDbEntity
  8
TR07
100
AcDbVertex
100
AcDb3dPolylineVertex
 10
503471.438
 20
190006.23
 30
39.668
 70
    32
  0
VERTEX
  5
6CB
330
6C7
100
AcDbEntity
  8
TR07
100
AcDbVertex
100
AcDb3dPolylineVertex
 10
503468.781
 20
190004.505
 30
39.71
 70
    32
  0
VERTEX
  5
6CC
330
6C7
100
AcDbEntity
  8
TR07
100
AcDbVertex
100
AcDb3dPolylineVertex
 10
503496.6
 20
189962.713
 30
39.577
 70
    32
  0
SEQEND
  5
6CD
330
6C7
100
AcDbEntity
  8
TR07
  0
POLYLINE
  5
6CE
330
70
100
AcDbEntity
  8
TR07
100
AcDb3dPolyline
 66
     1
 10
0.0
 20
0.0
 30
0.0
 70
     9
  0
VERTEX
  5
6CF
330
6CE
100
AcDbEntity
  8
TR07
100
AcDbVertex
100
AcDb3dPolylineVertex
 10
503469.7929999999
 20
190004.232
 30
39.258
 70
    32
  0
VERTEX
  5
6D0
330
6CE
100
AcDbEntity
  8
TR07
100
AcDbVertex
100
AcDb3dPolylineVertex
 10
503471.351
 20
190005.219
 30
39.236
 70
    32
  0
VERTEX
  5
6D1
330
6CE
100
AcDbEntity
  8
TR07
100
AcDbVertex
100
AcDb3dPolylineVertex
 10
503497.81
 20
189964.965
 30
39.312
 70
    32
  0
VERTEX
  5
6D2
330
6CE
100
AcDbEntity
  8
TR07
100
AcDbVertex
100
AcDb3dPolylineVertex
 10
503496.373
 20
189963.803
 30
39.321
 70
    32
  0
VERTEX
  5
6D3
330
6CE
100
AcDbEntity
  8
TR07
100
AcDbVertex
100
AcDb3dPolylineVertex
 10
503469.7929999999
 20
190004.232
 30
39.258
 70
    32
  0
SEQEND
  5
6D4
330
6CE
100
AcDbEntity
  8
TR07
  0
TEXT
  5
6D5
330
70
100
AcDbEntity
  8
TR07
100
AcDbText
 10
503468.8645206757
 20
190008.3568673379
 30
0.0
 40
1.0
  1
TR07
100
AcDbText
  0
TEXT
  5
6D6
330
70
100
AcDbEntity
  8
TR08
100
AcDbText
 10
503515.5198219063
 20
190020.2482611747
 30
0.0
 40
1.0
  1
TR08
100
AcDbText
  0
POINT
  5
6D8
330
70
100
AcDbEntity
  8
TR04L
100
AcDbPoint
 10
503408.754
 20
190024.3
 30
42.702
  0
POINT
  5
6D9
330
70
100
AcDbEntity
  8
TR04L
100
AcDbPoint
 10
503420.54
 20
190003.206
 30
42.52399999999999
  0
POINT
  5
6DA
330
70
100
AcDbEntity
  8
TR04L
100
AcDbPoint
 10
503429.356
 20
189988.553
 30
42.05
  0
POINT
  5
6DB
330
70
100
AcDbEntity
  8
001L
100
AcDbPoint
 10
503435.633
 20
189975.919
 30
42.29
  0
POINT
  5
6DC
330
70
100
AcDbEntity
  8
002L
100
AcDbPoint
 10
503435.74
 20
189975.974
 30
42.106
  0
POINT
  5
6DD
330
70
100
AcDbEntity
  8
004L
100
AcDbPoint
 10
503435.722
 20
189975.971
 30
41.817
  0
POINT
  5
6DE
330
70
100
AcDbEntity
  8
TR04L
100
AcDbPoint
 10
503436.661
 20
189976.133
 30
41.631
  0
POINT
  5
6DF
330
70
100
AcDbEntity
  8
TR04L
100
AcDbPoint
 10
503447.237
 20
189959.389
 30
41.07899999999999
  0
POINT
  5
6E0
330
70
100
AcDbEntity
  8
TR04L
100
AcDbPoint
 10
503451.251
 20
189951.558
 30
40.694
  0
POINT
  5
6E1
330
70
100
AcDbEntity
  8
TR04L
100
AcDbPoint
 10
503465.231
 20
189928.204
 30
40.695
  0
POINT
  5
6E2
330
70
100
AcDbEntity
  8
TR04L
100
AcDbPoint
 10
503468.769
 20
189922.326
 30
40.284
  0
POLYLINE
  5
6E3
330
70
100
AcDbEntity
  8
TR04
100
AcDb3dPolyline
 66
     1
 10
0.0
 20
0.0
 30
0.0
 70
     8
  0
VERTEX
  5
6E4
330
6E3
100
AcDbEntity
  8
TR04
100
AcDbVertex
100
AcDb3dPolylineVertex
 10
503468.7070000001
 20
189919.158
 30
41.00899999999999
 70
    32
  0
VERTEX
  5
6E5
330
6E3
100
AcDbEntity
  8
TR04
100
AcDbVertex
100
AcDb3dPolylineVertex
 10
503464.724
 20
189925.579
 30
41.261
 70
    32
  0
VERTEX
  5
6E6
330
6E3
100
AcDbEntity
  8
TR04
100
AcDbVertex
100
AcDb3dPolylineVertex
 10
503465.177
 20
189925.979
 30
41.22
 70
    32
  0
VERTEX
  5
6E7
330
6E3
100
AcDbEntity
  8
TR04
100
AcDbVertex
100
AcDb3dPolylineVertex
 10
503451.393
 20
189947.475
 30
41.807
 70
    32
  0
VERTEX
  5
6E8
330
6E3
100
AcDbEntity
  8
TR04
100
AcDbVertex
100
AcDb3dPolylineVertex
 10
503451.877
 20
189947.964
 30
41.683
 70
    32
  0
VERTEX
  5
6E9
330
6E3
100
AcDbEntity
  8
TR04
100
AcDbVertex
100
AcDb3dPolylineVertex
 10
503447.232
 20
189955.284
 30
41.84
 70
    32
  0
VERTEX
  5
6EA
330
6E3
100
AcDbEntity
  8
TR04
100
AcDbVertex
100
AcDb3dPolylineVertex
 10
503448.196
 20
189955.971
 30
41.67
 70
    32
  0
VERTEX
  5
6EB
330
6E3
100
AcDbEntity
  8
TR04
100
AcDbVertex
100
AcDb3dPolylineVertex
 10
503412.218
 20
190015.093
 30
43.361
 70
    32
  0
VERTEX
  5
6EC
330
6E3
100
AcDbEntity
  8
TR04
100
AcDbVertex
100
AcDb3dPolylineVertex
 10
503406.312
 20
190027.562
 30
43.441
 70
    32
  0
VERTEX
  5
6ED
330
6E3
100
AcDbEntity
  8
TR04
100
AcDbVertex
100
AcDb3dPolylineVertex
 10
503408.15
 20
190028.365
 30
43.146
 70
    32
  0
VERTEX
  5
6EE
330
6E3
100
AcDbEntity
  8
TR04
100
AcDbVertex
100
AcDb3dPolylineVertex
 10
503414.79
 20
190014.896
 30
42.977
 70
    32
  0
VERTEX
  5
6EF
330
6E3
100
AcDbEntity
  8
TR04
100
AcDbVertex
100
AcDb3dPolylineVertex
 10
503463.51
 20
189935.353
 30
41.195
 70
    32
  0
VERTEX
  5
6F0
330
6E3
100
AcDbEntity
  8
TR04
100
AcDbVertex
100
AcDb3dPolylineVertex
 10
503464.497
 20
189932.024
 30
41.128
 70
    32
  0
VERTEX
  5
6F1
330
6E3
100
AcDbEntity
  8
TR04
100
AcDbVertex
100
AcDb3dPolylineVertex
 10
503468.593
 20
189925.246
 30
41.02
 70
    32
  0
SEQEND
  5
6F2
330
6E3
100
AcDbEntity
  8
TR04
  0
POLYLINE
  5
6F3
330
70
100
AcDbEntity
  8
TR04
100
AcDb3dPolyline
 66
     1
 10
0.0
 20
0.0
 30
0.0
 70
     8
  0
VERTEX
  5
6F4
330
6F3
100
AcDbEntity
  8
TR04
100
AcDbVertex
100
AcDb3dPolylineVertex
 10
503465.554
 20
189926.163
 30
41.049
 70
    32
  0
VERTEX
  5
6F5
330
6F3
100
AcDbEntity
  8
TR04
100
AcDbVertex
100
AcDb3dPolylineVertex
 10
503448.452
 20
189954.524
 30
41.06100000000001
 70
    32
  0
VERTEX
  5
6F6
330
6F3
100
AcDbEntity
  8
TR04
100
AcDbVertex
100
AcDb3dPolylineVertex
 10
503450.021
 20
189955.484
 30
40.849
 70
    32
  0
VERTEX
  5
6F7
330
6F3
100
AcDbEntity
  8
TR04
100
AcDbVertex
100
AcDb3dPolylineVertex
 10
503464.491
 20
189932.03
 30
41.117
 70
    32
  0
SEQEND
  5
6F8
330
6F3
100
AcDbEntity
  8
TR04
  0
POLYLINE
  5
6F9
330
70
100
AcDbEntity
  8
TR04
100
AcDb3dPolyline
 66
     1
 10
0.0
 20
0.0
 30
0.0
 70
     8
  0
VERTEX
  5
6FA
330
6F9
100
AcDbEntity
  8
TR04
100
AcDbVertex
100
AcDb3dPolylineVertex
 10
503470.93
 20
189920.561
 30
40.576
 70
    32
  0
VERTEX
  5
6FB
330
6F9
100
AcDbEntity
  8
TR04
100
AcDbVertex
100
AcDb3dPolylineVertex
 10
503467.148
 20
189926.163
 30
40.422
 70
    32
  0
VERTEX
  5
6FC
330
6F9
100
AcDbEntity
  8
TR04
100
AcDbVertex
100
AcDb3dPolylineVertex
 10
503465.4829999999
 20
189925.279
 30
40.738
 70
    32
  0
VERTEX
  5
6FD
330
6F9
100
AcDbEntity
  8
TR04
100
AcDbVertex
100
AcDb3dPolylineVertex
 10
503469.314
 20
189919.143
 30
40.759
 70
    32
  0
SEQEND
  5
6FE
330
6F9
100
AcDbEntity
  8
TR04
  0
POINT
  5
700
330
70
100
AcDbEntity
  8
013L
100
AcDbPoint
 10
503526.327
 20
189959.978
 30
38.493
  0
POINT
  5
701
330
70
100
AcDbEntity
  8
004L
100
AcDbPoint
 10
503520.8370000001
 20
189956.122
 30
38.365
  0
POINT
  5
702
330
70
100
AcDbEntity
  8
002L
100
AcDbPoint
 10
503520.778
 20
189956.223
 30
38.607
  0
POINT
  5
703
330
70
100
AcDbEntity
  8
001L
100
AcDbPoint
 10
503520.119
 20
189956.579
 30
38.83
  0
POINT
  5
704
330
70
100
AcDbEntity
  8
TR09L
100
AcDbPoint
 10
503515.426
 20
189948.903
 30
38.577
  0
POINT
  5
705
330
70
100
AcDbEntity
  8
TR09L
100
AcDbPoint
 10
503527.442
 20
189961.716
 30
38.483
  0
POINT
  5
706
330
70
100
AcDbEntity
  8
002L
100
AcDbPoint
 10
503495.385
 20
189929.115
 30
39.541
  0
POINT
  5
707
330
70
100
AcDbEntity
  8
001L
100
AcDbPoint
 10
503495.299
 20
189929.001
 30
39.761
  0
POINT
  5
708
330
70
100
AcDbEntity
  8
004L
100
AcDbPoint
 10
503495.354
 20
189928.967
 30
39.297
  0
POINT
  5
709
330
70
100
AcDbEntity
  8
TR09L
100
AcDbPoint
 10
503488.454
 20
189920.126
 30
39.274
  0
POINT
  5
70A
330
70
100
AcDbEntity
  8
TR09L
100
AcDbPoint
 10
503505.344
 20
189938.438
 30
39.239
  0
POINT
  5
70B
330
70
100
AcDbEntity
  8
011L
100
AcDbPoint
 10
503523.356
 20
189998.052
 30
39.066
  0
POINT
  5
70C
330
70
100
AcDbEntity
  8
004L
100
AcDbPoint
 10
503532.766
 20
189983.525
 30
39.051
  0
POINT
  5
70D
330
70
100
AcDbEntity
  8
002L
100
AcDbPoint
 10
503532.817
 20
189983.454
 30
39.279
  0
POINT
  5
70E
330
70
100
AcDbEntity
  8
001L
100
AcDbPoint
 10
503532.696
 20
189983.446
 30
39.447
  0
POINT
  5
70F
330
70
100
AcDbEntity
  8
TR10L
100
AcDbPoint
 10
503545.67
 20
189964.908
 30
38.754
  0
POINT
  5
710
330
70
100
AcDbEntity
  8
TR10L
100
AcDbPoint
 10
503530.75
 20
189988.491
 30
38.931
  0
POINT
  5
711
330
70
100
AcDbEntity
  8
TR10L
100
AcDbPoint
 10
503522.827
 20
190000.381
 30
38.999
  0
POLYLINE
  5
718
330
70
100
AcDbEntity
  8
012U
100
AcDb3dPolyline
 66
     1
 10
0.0
 20
0.0
 30
0.0
 70
     8
  0
VERTEX
  5
719
330
718
100
AcDbEntity
  8
012U
100
AcDbVertex
100
AcDb3dPolylineVertex
 10
503523.429
 20
189997.934
 30
38.97
 70
    32
  0
VERTEX
  5
71A
330
718
100
AcDbEntity
  8
012U
100
AcDbVertex
100
AcDb3dPolylineVertex
 10
503523.215
 20
189998.289
 30
38.971
 70
    32
  0
SEQEND
  5
71B
330
718
100
AcDbEntity
  8
012U
  0
POLYLINE
  5
71C
330
70
100
AcDbEntity
  8
012R
100
AcDb3dPolyline
 66
     1
 10
0.0
 20
0.0
 30
0.0
 70
     8
  0
VERTEX
  5
71D
330
71C
100
AcDbEntity
  8
012R
100
AcDbVertex
100
AcDb3dPolylineVertex
 10
503523.429
 20
189997.934
 30
38.97
 70
    32
  0
VERTEX
  5
71E
330
71C
100
AcDbEntity
  8
012R
100
AcDbVertex
100
AcDb3dPolylineVertex
 10
503523.507
 20
189997.982
 30
38.967
 70
    32
  0
VERTEX
  5
71F
330
71C
100
AcDbEntity
  8
012R
100
AcDbVertex
100
AcDb3dPolylineVertex
 10
503523.551
 20
189998.041
 30
38.966
 70
    32
  0
VERTEX
  5
720
330
71C
100
AcDbEntity
  8
012R
100
AcDbVertex
100
AcDb3dPolylineVertex
 10
503523.577
 20
189998.102
 30
38.968
 70
    32
  0
VERTEX
  5
721
330
71C
100
AcDbEntity
  8
012R
100
AcDbVertex
100
AcDb3dPolylineVertex
 10
503523.594
 20
189998.142
 30
38.964
 70
    32
  0
VERTEX
  5
722
330
71C
100
AcDbEntity
  8
012R
100
AcDbVertex
100
AcDb3dPolylineVertex
 10
503523.589
 20
189998.205
 30
38.959
 70
    32
  0
VERTEX
  5
723
330
71C
100
AcDbEntity
  8
012R
100
AcDbVertex
100
AcDb3dPolylineVertex
 10
503523.533
 20
189998.246
 30
38.953
 70
    32
  0
VERTEX
  5
724
330
71C
100
AcDbEntity
  8
012R
100
AcDbVertex
100
AcDb3dPolylineVertex
 10
503523.52
 20
189998.319
 30
38.963
 70
    32
  0
VERTEX
  5
725
330
71C
100
AcDbEntity
  8
012R
100
AcDbVertex
100
AcDb3dPolylineVertex
 10
503523.459
 20
189998.35
 30
38.969
 70
    32
  0
VERTEX
  5
726
330
71C
100
AcDbEntity
  8
012R
100
AcDbVertex
100
AcDb3dPolylineVertex
 10
503523.395
 20
189998.37
 30
38.973
 70
    32
  0
VERTEX
  5
727
330
71C
100
AcDbEntity
  8
012R
100
AcDbVertex
100
AcDb3dPolylineVertex
 10
503523.34
 20
189998.355
 30
38.955
 70
    32
  0
VERTEX
  5
728
330
71C
100
AcDbEntity
  8
012R
100
AcDbVertex
100
AcDb3dPolylineVertex
 10
503523.265
 20
189998.331
 30
38.971
 70
    32
  0
VERTEX
  5
729
330
71C
100
AcDbEntity
  8
012R
100
AcDbVertex
100
AcDb3dPolylineVertex
 10
503523.215
 20
189998.289
 30
38.971
 70
    32
  0
SEQEND
  5
72A
330
71C
100
AcDbEntity
  8
012R
  0
POLYLINE
  5
72B
330
70
100
AcDbEntity
  8
012S
100
AcDb3dPolyline
 66
     1
 10
0.0
 20
0.0
 30
0.0
 70
     8
  0
VERTEX
  5
72C
330
72B
100
AcDbEntity
  8
012S
100
AcDbVertex
100
AcDb3dPolylineVertex
 10
503523.425
 20
189997.936
 30
38.979
 70
    32
  0
VERTEX
  5
72D
330
72B
100
AcDbEntity
  8
012S
100
AcDbVertex
100
AcDb3dPolylineVertex
 10
503523.405
 20
189997.974
 30
38.951
 70
    32
  0
VERTEX
  5
72E
330
72B
100
AcDbEntity
  8
012S
100
AcDbVertex
100
AcDb3dPolylineVertex
 10
503523.393
 20
189998.016
 30
38.934
 70
    32
  0
VERTEX
  5
72F
330
72B
100
AcDbEntity
  8
012S
100
AcDbVertex
100
AcDb3dPolylineVertex
 10
503523.363
 20
189998.072
 30
38.917
 70
    32
  0
VERTEX
  5
730
330
72B
100
AcDbEntity
  8
012S
100
AcDbVertex
100
AcDb3dPolylineVertex
 10
503523.32
 20
189998.121
 30
38.918
 70
    32
  0
VERTEX
  5
731
330
72B
100
AcDbEntity
  8
012S
100
AcDbVertex
100
AcDb3dPolylineVertex
 10
503523.294
 20
189998.193
 30
38.916
 70
    32
  0
VERTEX
  5
732
330
72B
100
AcDbEntity
  8
012S
100
AcDbVertex
100
AcDb3dPolylineVertex
 10
503523.25
 20
189998.21
 30
38.941
 70
    32
  0
VERTEX
  5
733
330
72B
100
AcDbEntity
  8
012S
100
AcDbVertex
100
AcDb3dPolylineVertex
 10
503523.243
 20
189998.229
 30
38.951
 70
    32
  0
VERTEX
  5
734
330
72B
100
AcDbEntity
  8
012S
100
AcDbVertex
100
AcDb3dPolylineVertex
 10
503523.217
 20
189998.295
 30
38.982
 70
    32
  0
SEQEND
  5
735
330
72B
100
AcDbEntity
  8
012S
  0
POLYLINE
  5
736
330
70
100
AcDbEntity
  8
012B
100
AcDb3dPolyline
 66
     1
 10
0.0
 20
0.0
 30
0.0
 70
     8
  0
VERTEX
  5
737
330
736
100
AcDbEntity
  8
012B
100
AcDbVertex
100
AcDb3dPolylineVertex
 10
503523.399
 20
189998.016
 30
38.929
 70
    32
  0
VERTEX
  5
738
330
736
100
AcDbEntity
  8
012B
100
AcDbVertex
100
AcDb3dPolylineVertex
 10
503523.421
 20
189998.041
 30
38.924
 70
    32
  0
VERTEX
  5
739
330
736
100
AcDbEntity
  8
012B
100
AcDbVertex
100
AcDb3dPolylineVertex
 10
503523.425
 20
189998.112
 30
38.926
 70
    32
  0
VERTEX
  5
73A
330
736
100
AcDbEntity
  8
012B
100
AcDbVertex
100
AcDb3dPolylineVertex
 10
503523.403
 20
189998.18
 30
38.924
 70
    32
  0
VERTEX
  5
73B
330
736
100
AcDbEntity
  8
012B
100
AcDbVertex
100
AcDb3dPolylineVertex
 10
503523.35
 20
189998.193
 30
38.922
 70
    32
  0
VERTEX
  5
73C
330
736
100
AcDbEntity
  8
012B
100
AcDbVertex
100
AcDb3dPolylineVertex
 10
503523.309
 20
189998.171
 30
38.934
 70
    32
  0
SEQEND
  5
73D
330
736
100
AcDbEntity
  8
012B
  0
POLYLINE
  5
73E
330
70
100
AcDbEntity
  8
DRN
100
AcDb3dPolyline
 66
     1
 10
0.0
 20
0.0
 30
0.0
 70
     8
  0
VERTEX
  5
73F
330
73E
100
AcDbEntity
  8
DRN
100
AcDbVertex
100
AcDb3dPolylineVertex
 10
503505.716
 20
189937.615
 30
39.209
 70
    32
  0
VERTEX
  5
740
330
73E
100
AcDbEntity
  8
DRN
100
AcDbVertex
100
AcDb3dPolylineVertex
 10
503502.698
 20
189937.004
 30
39.344
 70
    32
  0
SEQEND
  5
741
330
73E
100
AcDbEntity
  8
DRN
  0
POLYLINE
  5
742
330
70
100
AcDbEntity
  8
DRN
100
AcDb3dPolyline
 66
     1
 10
0.0
 20
0.0
 30
0.0
 70
     8
  0
VERTEX
  5
743
330
742
100
AcDbEntity
  8
DRN
100
AcDbVertex
100
AcDb3dPolylineVertex
 10
503502.426
 20
189936.711
 30
39.297
 70
    32
  0
VERTEX
  5
744
330
742
100
AcDbEntity
  8
DRN
100
AcDbVertex
100
AcDb3dPolylineVertex
 10
503505.39
 20
189937.265
 30
39.214
 70
    32
  0
SEQEND
  5
745
330
742
100
AcDbEntity
  8
DRN
  0
POLYLINE
  5
746
330
70
100
AcDbEntity
  8
TR10
100
AcDb3dPolyline
 66
     1
 10
0.0
 20
0.0
 30
0.0
 70
     9
  0
VERTEX
  5
747
330
746
100
AcDbEntity
  8
TR10
100
AcDbVertex
100
AcDb3dPolylineVertex
 10
503520.49
 20
190002.109
 30
39.426
 70
    32
  0
VERTEX
  5
748
330
746
100
AcDbEntity
  8
TR10
100
AcDbVertex
100
AcDb3dPolylineVertex
 10
503522.305
 20
190003.383
 30
39.46
 70
    32
  0
VERTEX
  5
749
330
746
100
AcDbEntity
  8
TR10
100
AcDbVertex
100
AcDb3dPolylineVertex
 10
503538.887
 20
189977.786
 30
39.467
 70
    32
  0
VERTEX
  5
74A
330
746
100
AcDbEntity
  8
TR10
100
AcDbVertex
100
AcDb3dPolylineVertex
 10
503540.503
 20
189976.559
 30
39.447
 70
    32
  0
VERTEX
  5
74B
330
746
100
AcDbEntity
  8
TR10
100
AcDbVertex
100
AcDb3dPolylineVertex
 10
503549.8320000001
 20
189960.464
 30
39.339
 70
    32
  0
VERTEX
  5
74C
330
746
100
AcDbEntity
  8
TR10
100
AcDbVertex
100
AcDb3dPolylineVertex
 10
503546.984
 20
189959.015
 30
39.267
 70
    32
  0
VERTEX
  5
74D
330
746
100
AcDbEntity
  8
TR10
100
AcDbVertex
100
AcDb3dPolylineVertex
 10
503539.165
 20
189972.109
 30
39.337
 70
    32
  0
VERTEX
  5
74E
330
746
100
AcDbEntity
  8
TR10
100
AcDbVertex
100
AcDb3dPolylineVertex
 10
503538.966
 20
189973.414
 30
39.295
 70
    32
  0
VERTEX
  5
74F
330
746
100
AcDbEntity
  8
TR10
100
AcDbVertex
100
AcDb3dPolylineVertex
 10
503524.4199057961
 20
189996.0054793884
 30
39.39813587035643
 70
    32
  0
VERTEX
  5
750
330
746
100
AcDbEntity
  8
0
100
AcDbVertex
100
AcDb3dPolylineVertex
 10
503518.715
 20
189992.424
 30
39.246
 70
    32
  0
VERTEX
  5
751
330
746
100
AcDbEntity
  8
0
100
AcDbVertex
100
AcDb3dPolylineVertex
 10
503515.622
 20
189996.774
 30
39.26
 70
    32
  0
VERTEX
  5
752
330
746
100
AcDbEntity
  8
0
100
AcDbVertex
100
AcDb3dPolylineVertex
 10
503521.4717660358
 20
190000.5842231871
 30
39.45161469950887
 70
    32
  0
SEQEND
  5
753
330
746
100
AcDbEntity
  8
TR10
  0
POLYLINE
  5
754
330
70
100
AcDbEntity
  8
TR09
100
AcDb3dPolyline
 66
     1
 10
0.0
 20
0.0
 30
0.0
 70
     9
  0
VERTEX
  5
755
330
754
100
AcDbEntity
  8
TR09
100
AcDbVertex
100
AcDb3dPolylineVertex
 10
503486.0429999999
 20
189915.809
 30
40.215
 70
    32
  0
VERTEX
  5
756
330
754
100
AcDbEntity
  8
TR09
100
AcDbVertex
100
AcDb3dPolylineVertex
 10
503484.621
 20
189917.057
 30
40.245
 70
    32
  0
VERTEX
  5
757
330
754
100
AcDbEntity
  8
TR09
100
AcDbVertex
100
AcDb3dPolylineVertex
 10
503506.551
 20
189941.269
 30
39.751
 70
    32
  0
VERTEX
  5
758
330
754
100
AcDbEntity
  8
TR09
100
AcDbVertex
100
AcDb3dPolylineVertex
 10
503508.046
 20
189939.819
 30
39.743
 70
    32
  0
VERTEX
  5
759
330
754
100
AcDbEntity
  8
TR09
100
AcDbVertex
100
AcDb3dPolylineVertex
 10
503486.0429999999
 20
189915.809
 30
40.215
 70
    32
  0
SEQEND
  5
75A
330
754
100
AcDbEntity
  8
TR09
  0
POLYLINE
  5
75B
330
70
100
AcDbEntity
  8
TR09
100
AcDb3dPolyline
 66
     1
 10
0.0
 20
0.0
 30
0.0
 70
     9
  0
VERTEX
  5
75C
330
75B
100
AcDbEntity
  8
TR09
100
AcDbVertex
100
AcDb3dPolylineVertex
 10
503530.127
 20
189962.088
 30
39.202
 70
    32
  0
VERTEX
  5
75D
330
75B
100
AcDbEntity
  8
TR09
100
AcDbVertex
100
AcDb3dPolylineVertex
 10
503527.629
 20
189964.163
 30
39.171
 70
    32
  0
VERTEX
  5
75E
330
75B
100
AcDbEntity
  8
TR09
100
AcDbVertex
100
AcDb3dPolylineVertex
 10
503512.687
 20
189948.098
 30
39.254
 70
    32
  0
VERTEX
  5
75F
330
75B
100
AcDbEntity
  8
TR09
100
AcDbVertex
100
AcDb3dPolylineVertex
 10
503514.95
 20
189946.083
 30
39.078
 70
    32
  0
VERTEX
  5
760
330
75B
100
AcDbEntity
  8
TR09
100
AcDbVertex
100
AcDb3dPolylineVertex
 10
503530.127
 20
189962.088
 30
39.202
 70
    32
  0
SEQEND
  5
761
330
75B
100
AcDbEntity
  8
TR09
  0
POLYLINE
  5
762
330
70
100
AcDbEntity
  8
TR09
100
AcDb3dPolyline
 66
     1
 10
0.0
 20
0.0
 30
0.0
 70
     9
  0
VERTEX
  5
763
330
762
100
AcDbEntity
  8
TR09
100
AcDbVertex
100
AcDb3dPolylineVertex
 10
503515.315
 20
189947.178
 30
38.932
 70
    32
  0
VERTEX
  5
764
330
762
100
AcDbEntity
  8
TR09
100
AcDbVertex
100
AcDb3dPolylineVertex
 10
503513.85
 20
189948.549
 30
39.031
 70
    32
  0
VERTEX
  5
765
330
762
100
AcDbEntity
  8
TR09
100
AcDbVertex
100
AcDb3dPolylineVertex
 10
503527.4829999999
 20
189963.198
 30
38.727
 70
    32
  0
VERTEX
  5
766
330
762
100
AcDbEntity
  8
TR09
100
AcDbVertex
100
AcDb3dPolylineVertex
 10
503528.875
 20
189961.929
 30
38.771
 70
    32
  0
VERTEX
  5
767
330
762
100
AcDbEntity
  8
TR09
100
AcDbVertex
100
AcDb3dPolylineVertex
 10
503515.315
 20
189947.178
 30
38.932
 70
    32
  0
SEQEND
  5
768
330
762
100
AcDbEntity
  8
TR09
  0
TEXT
  5
769
330
70
100
AcDbEntity
  8
TR10
100
AcDbText
 10
503536.1052122791
 20
189985.1047070871
 30
0.0
 40
0.7
  1
TR10
100
AcDbText
  0
TEXT
  5
76A
330
70
100
AcDbEntity
  8
012R
100
AcDbText
 10
503523.6469141369
 20
189998.0166423487
 30
0.0
 40
0.2
  1
[012]
100
AcDbText
  0
TEXT
  5
76B
330
70
100
AcDbEntity
  8
TR09
100
AcDbText
 10
503512.8647883214
 20
189942.5221108462
 30
0.0
 40
0.7
  1
TR09
100
AcDbText
  0
POINT
  5
76C
330
70
100
AcDbEntity
  8
015L
100
AcDbPoint
 10
503502.782
 20
189936.882
 30
39.365
  0
POLYLINE
  5
76D
330
70
100
AcDbEntity
  8
014R
100
AcDb3dPolyline
 66
     1
 10
0.0
 20
0.0
 30
0.0
 70
     8
  0
VERTEX
  5
76E
330
76D
100
AcDbEntity
  8
014R
100
AcDbVertex
100
AcDb3dPolylineVertex
 10
503525.903
 20
189961.559
 30
38.46
 70
    32
  0
VERTEX
  5
76F
330
76D
100
AcDbEntity
  8
014R
100
AcDbVertex
100
AcDb3dPolylineVertex
 10
503526.113
 20
189961.269
 30
38.47
 70
    32
  0
VERTEX
  5
770
330
76D
100
AcDbEntity
  8
014R
100
AcDbVertex
100
AcDb3dPolylineVertex
 10
503526.222
 20
189961.01
 30
38.474
 70
    32
  0
VERTEX
  5
771
330
76D
100
AcDbEntity
  8
014R
100
AcDbVertex
100
AcDb3dPolylineVertex
 10
503526.436
 20
189960.758
 30
38.47
 70
    32
  0
VERTEX
  5
772
330
76D
100
AcDbEntity
  8
014R
100
AcDbVertex
100
AcDb3dPolylineVertex
 10
503526.635
 20
189960.432
 30
38.455
 70
    32
  0
VERTEX
  5
773
330
76D
100
AcDbEntity
  8
014R
100
AcDbVertex
100
AcDb3dPolylineVertex
 10
503526.902
 20
189960.043
 30
38.501
 70
    32
  0
SEQEND
  5
774
330
76D
100
AcDbEntity
  8
014R
  0
POLYLINE
  5
775
330
70
100
AcDbEntity
  8
014U
100
AcDb3dPolyline
 66
     1
 10
0.0
 20
0.0
 30
0.0
 70
     8
  0
VERTEX
  5
776
330
775
100
AcDbEntity
  8
014U
100
AcDbVertex
100
AcDb3dPolylineVertex
 10
503526.902
 20
189960.043
 30
38.501
 70
    32
  0
VERTEX
  5
777
330
775
100
AcDbEntity
  8
014U
100
AcDbVertex
100
AcDb3dPolylineVertex
 10
503526.3320000001
 20
189959.452
 30
38.532
 70
    32
  0
SEQEND
  5
778
330
775
100
AcDbEntity
  8
014U
  0
POLYLINE
  5
779
330
70
100
AcDbEntity
  8
014R
100
AcDb3dPolyline
 66
     1
 10
0.0
 20
0.0
 30
0.0
 70
     8
  0
VERTEX
  5
77A
330
779
100
AcDbEntity
  8
014R
100
AcDbVertex
100
AcDb3dPolylineVertex
 10
503526.3320000001
 20
189959.452
 30
38.532
 70
    32
  0
VERTEX
  5
77B
330
779
100
AcDbEntity
  8
014R
100
AcDbVertex
100
AcDb3dPolylineVertex
 10
503526.255
 20
189959.603
 30
38.544
 70
    32
  0
VERTEX
  5
77C
330
779
100
AcDbEntity
  8
014R
100
AcDbVertex
100
AcDb3dPolylineVertex
 10
503526.122
 20
189959.777
 30
38.536
 70
    32
  0
VERTEX
  5
77D
330
779
100
AcDbEntity
  8
014R
100
AcDbVertex
100
AcDb3dPolylineVertex
 10
503525.96
 20
189959.906
 30
38.537
 70
    32
  0
VERTEX
  5
77E
330
779
100
AcDbEntity
  8
014R
100
AcDbVertex
100
AcDb3dPolylineVertex
 10
503525.877
 20
189959.996
 30
38.527
 70
    32
  0
VERTEX
  5
77F
330
779
100
AcDbEntity
  8
014R
100
AcDbVertex
100
AcDb3dPolylineVertex
 10
503525.664
 20
189960.477
 30
38.535
 70
    32
  0
VERTEX
  5
780
330
779
100
AcDbEntity
  8
014R
100
AcDbVertex
100
AcDb3dPolylineVertex
 10
503525.549
 20
189960.72
 30
38.532
 70
    32
  0
VERTEX
  5
781
330
779
100
AcDbEntity
  8
014R
100
AcDbVertex
100
AcDb3dPolylineVertex
 10
503525.487
 20
189960.884
 30
38.503
 70
    32
  0
VERTEX
  5
782
330
779
100
AcDbEntity
  8
014R
100
AcDbVertex
100
AcDb3dPolylineVertex
 10
503525.4179999999
 20
189961.045
 30
38.516
 70
    32
  0
SEQEND
  5
783
330
779
100
AcDbEntity
  8
014R
  0
POLYLINE
  5
784
330
70
100
AcDbEntity
  8
014U
100
AcDb3dPolyline
 66
     1
 10
0.0
 20
0.0
 30
0.0
 70
     8
  0
VERTEX
  5
785
330
784
100
AcDbEntity
  8
014U
100
AcDbVertex
100
AcDb3dPolylineVertex
 10
503525.4179999999
 20
189961.045
 30
38.516
 70
    32
  0
VERTEX
  5
786
330
784
100
AcDbEntity
  8
014U
100
AcDbVertex
100
AcDb3dPolylineVertex
 10
503525.901
 20
189961.553
 30
38.456
 70
    32
  0
SEQEND
  5
787
330
784
100
AcDbEntity
  8
014U
  0
POLYLINE
  5
788
330
70
100
AcDbEntity
  8
014B
100
AcDb3dPolyline
 66
     1
 10
0.0
 20
0.0
 30
0.0
 70
     8
  0
VERTEX
  5
789
330
788
100
AcDbEntity
  8
014B
100
AcDbVertex
100
AcDb3dPolylineVertex
 10
503526.069
 20
189960.931
 30
38.309
 70
    32
  0
VERTEX
  5
78A
330
788
100
AcDbEntity
  8
014B
100
AcDbVertex
100
AcDb3dPolylineVertex
 10
503526.144
 20
189960.799
 30
38.305
 70
    32
  0
VERTEX
  5
78B
330
788
100
AcDbEntity
  8
014B
100
AcDbVertex
100
AcDb3dPolylineVertex
 10
503526.216
 20
189960.719
 30
38.299
 70
    32
  0
VERTEX
  5
78C
330
788
100
AcDbEntity
  8
014B
100
AcDbVertex
100
AcDb3dPolylineVertex
 10
503526.294
 20
189960.564
 30
38.306
 70
    32
  0
VERTEX
  5
78D
330
788
100
AcDbEntity
  8
014B
100
AcDbVertex
100
AcDb3dPolylineVertex
 10
503526.374
 20
189960.428
 30
38.313
 70
    32
  0
VERTEX
  5
78E
330
788
100
AcDbEntity
  8
014B
100
AcDbVertex
100
AcDb3dPolylineVertex
 10
503526.443
 20
189960.35
 30
38.321
 70
    32
  0
SEQEND
  5
78F
330
788
100
AcDbEntity
  8
014B
  0
POLYLINE
  5
790
330
70
100
AcDbEntity
  8
014B
100
AcDb3dPolyline
 66
     1
 10
0.0
 20
0.0
 30
0.0
 70
     8
  0
VERTEX
  5
791
330
790
100
AcDbEntity
  8
014B
100
AcDbVertex
100
AcDb3dPolylineVertex
 10
503526.172
 20
189960.171
 30
38.332
 70
    32
  0
VERTEX
  5
792
330
790
100
AcDbEntity
  8
014B
100
AcDbVertex
100
AcDb3dPolylineVertex
 10
503526.112
 20
189960.256
 30
38.33
 70
    32
  0
VERTEX
  5
793
330
790
100
AcDbEntity
  8
014B
100
AcDbVertex
100
AcDb3dPolylineVertex
 10
503526.05
 20
189960.437
 30
38.339
 70
    32
  0
VERTEX
  5
794
330
790
100
AcDbEntity
  8
014B
100
AcDbVertex
100
AcDb3dPolylineVertex
 10
503526.014
 20
189960.551
 30
38.337
 70
    32
  0
VERTEX
  5
795
330
790
100
AcDbEntity
  8
014B
100
AcDbVertex
100
AcDb3dPolylineVertex
 10
503525.948
 20
189960.727
 30
38.331
 70
    32
  0
VERTEX
  5
796
330
790
100
AcDbEntity
  8
014B
100
AcDbVertex
100
AcDb3dPolylineVertex
 10
503525.852
 20
189960.842
 30
38.359
 70
    32
  0
SEQEND
  5
797
330
790
100
AcDbEntity
  8
014B
  0
POLYLINE
  5
798
330
70
100
AcDbEntity
  8
014S
100
AcDb3dPolyline
 66
     1
 10
0.0
 20
0.0
 30
0.0
 70
     8
  0
VERTEX
  5
799
330
798
100
AcDbEntity
  8
014S
100
AcDbVertex
100
AcDb3dPolylineVertex
 10
503526.645
 20
189960.43
 30
38.439
 70
    32
  0
VERTEX
  5
79A
330
798
100
AcDbEntity
  8
014S
100
AcDbVertex
100
AcDb3dPolylineVertex
 10
503526.607
 20
189960.422
 30
38.402
 70
    32
  0
VERTEX
  5
79B
330
798
100
AcDbEntity
  8
014S
100
AcDbVertex
100
AcDb3dPolylineVertex
 10
503526.558
 20
189960.418
 30
38.376
 70
    32
  0
VERTEX
  5
79C
330
798
100
AcDbEntity
  8
014S
100
AcDbVertex
100
AcDb3dPolylineVertex
 10
503526.531
 20
189960.392
 30
38.339
 70
    32
  0
VERTEX
  5
79D
330
798
100
AcDbEntity
  8
014S
100
AcDbVertex
100
AcDb3dPolylineVertex
 10
503526.493
 20
189960.358
 30
38.336
 70
    32
  0
VERTEX
  5
79E
330
798
100
AcDbEntity
  8
014S
100
AcDbVertex
100
AcDb3dPolylineVertex
 10
503526.44
 20
189960.331
 30
38.318
 70
    32
  0
VERTEX
  5
79F
330
798
100
AcDbEntity
  8
014S
100
AcDbVertex
100
AcDb3dPolylineVertex
 10
503526.375
 20
189960.269
 30
38.316
 70
    32
  0
VERTEX
  5
7A0
330
798
100
AcDbEntity
  8
014S
100
AcDbVertex
100
AcDb3dPolylineVertex
 10
503526.291
 20
189960.224
 30
38.32
 70
    32
  0
VERTEX
  5
7A1
330
798
100
AcDbEntity
  8
014S
100
AcDbVertex
100
AcDb3dPolylineVertex
 10
503526.179
 20
189960.147
 30
38.327
 70
    32
  0
VERTEX
  5
7A2
330
798
100
AcDbEntity
  8
014S
100
AcDbVertex
100
AcDb3dPolylineVertex
 10
503526.109
 20
189960.114
 30
38.379
 70
    32
  0
VERTEX
  5
7A3
330
798
100
AcDbEntity
  8
014S
100
AcDbVertex
100
AcDb3dPolylineVertex
 10
503526.053
 20
189960.106
 30
38.444
 70
    32
  0
VERTEX
  5
7A4
330
798
100
AcDbEntity
  8
014S
100
AcDbVertex
100
AcDb3dPolylineVertex
 10
503525.981
 20
189960.057
 30
38.47
 70
    32
  0
VERTEX
  5
7A5
330
798
100
AcDbEntity
  8
014S
100
AcDbVertex
100
AcDb3dPolylineVertex
 10
503525.959
 20
189960.025
 30
38.505
 70
    32
  0
VERTEX
  5
7A6
330
798
100
AcDbEntity
  8
014S
100
AcDbVertex
100
AcDb3dPolylineVertex
 10
503525.887
 20
189959.994
 30
38.526
 70
    32
  0
SEQEND
  5
7A7
330
798
100
AcDbEntity
  8
014S
  0
POLYLINE
  5
7A8
330
70
100
AcDbEntity
  8
015R
100
AcDb3dPolyline
 66
     1
 10
0.0
 20
0.0
 30
0.0
 70
     8
  0
VERTEX
  5
7A9
330
7A8
100
AcDbEntity
  8
015R
100
AcDbVertex
100
AcDb3dPolylineVertex
 10
503505.431
 20
189937.275
 30
39.216
 70
    32
  0
VERTEX
  5
7AA
330
7A8
100
AcDbEntity
  8
015R
100
AcDbVertex
100
AcDb3dPolylineVertex
 10
503502.416
 20
189936.717
 30
39.302
 70
    32
  0
SEQEND
  5
7AB
330
7A8
100
AcDbEntity
  8
015R
  0
POLYLINE
  5
7AC
330
70
100
AcDbEntity
  8
015U
100
AcDb3dPolyline
 66
     1
 10
0.0
 20
0.0
 30
0.0
 70
     8
  0
VERTEX
  5
7AD
330
7AC
100
AcDbEntity
  8
015U
100
AcDbVertex
100
AcDb3dPolylineVertex
 10
503502.416
 20
189936.717
 30
39.302
 70
    32
  0
VERTEX
  5
7AE
330
7AC
100
AcDbEntity
  8
015U
100
AcDbVertex
100
AcDb3dPolylineVertex
 10
503502.662
 20
189936.979
 30
39.337
 70
    32
  0
SEQEND
  5
7AF
330
7AC
100
AcDbEntity
  8
015U
  0
POLYLINE
  5
7B0
330
70
100
AcDbEntity
  8
015R
100
AcDb3dPolyline
 66
     1
 10
0.0
 20
0.0
 30
0.0
 70
     8
  0
VERTEX
  5
7B1
330
7B0
100
AcDbEntity
  8
015R
100
AcDbVertex
100
AcDb3dPolylineVertex
 10
503502.662
 20
189936.979
 30
39.337
 70
    32
  0
VERTEX
  5
7B2
330
7B0
100
AcDbEntity
  8
015R
100
AcDbVertex
100
AcDb3dPolylineVertex
 10
503505.773
 20
189937.653
 30
39.195
 70
    32
  0
SEQEND
  5
7B3
330
7B0
100
AcDbEntity
  8
015R
  0
POLYLINE
  5
7B4
330
70
100
AcDbEntity
  8
015U
100
AcDb3dPolyline
 66
     1
 10
0.0
 20
0.0
 30
0.0
 70
     8
  0
VERTEX
  5
7B5
330
7B4
100
AcDbEntity
  8
015U
100
AcDbVertex
100
AcDb3dPolylineVertex
 10
503505.773
 20
189937.653
 30
39.195
 70
    32
  0
VERTEX
  5
7B6
330
7B4
100
AcDbEntity
  8
015U
100
AcDbVertex
100
AcDb3dPolylineVertex
 10
503505.43
 20
189937.284
 30
39.236
 70
    32
  0
SEQEND
  5
7B7
330
7B4
100
AcDbEntity
  8
015U
  0
TEXT
  5
7B8
330
70
100
AcDbEntity
  8
014R
100
AcDbText
 10
503526.5394141265
 20
189960.7898102977
 30
0.0
 40
0.2
  1
[014]
100
AcDbText
  0
TEXT
  5
7B9
330
70
100
AcDbEntity
  8
015R
100
AcDbText
 10
503504.9800916066
 20
189936.6887700695
 30
0.0
 40
0.2
  1
[015]
100
AcDbText
  0
POLYLINE
  5
7BA
330
70
100
AcDbEntity
  8
SLOT
100
AcDb3dPolyline
 66
     1
 10
0.0
 20
0.0
 30
0.0
 70
     9
  0
VERTEX
  5
7BB
330
7BA
100
AcDbEntity
  8
SLOT
100
AcDbVertex
100
AcDb3dPolylineVertex
 10
503526.2239982182
 20
189961.007646958
 30
38.47420609248354
 70
    32
  0
VERTEX
  5
7BC
330
7BA
100
AcDbEntity
  8
SLOT
100
AcDbVertex
100
AcDb3dPolylineVertex
 10
503526.069
 20
189960.931
 30
38.309
 70
    32
  0
VERTEX
  5
7BD
330
7BA
100
AcDbEntity
  8
SLOT
100
AcDbVertex
100
AcDb3dPolylineVertex
 10
503525.8532312103
 20
189960.8405251127
 30
38.35864089699955
 70
    32
  0
VERTEX
  5
7BE
330
7BA
100
AcDbEntity
  8
SLOT
100
AcDbVertex
100
AcDb3dPolylineVertex
 10
503525.557
 20
189960.707
 30
38.52
 70
    32
  0
VERTEX
  5
7BF
330
7BA
100
AcDbEntity
  8
SLOT
100
AcDbVertex
100
AcDb3dPolylineVertex
 10
503525.664
 20
189960.477
 30
38.535
 70
    32
  0
VERTEX
  5
7C0
330
7BA
100
AcDbEntity
  8
SLOT
100
AcDbVertex
100
AcDb3dPolylineVertex
 10
503525.877
 20
189959.996
 30
38.527
 70
    32
  0
VERTEX
  5
7C1
330
7BA
100
AcDbEntity
  8
SLOT
100
AcDbVertex
100
AcDb3dPolylineVertex
 10
503525.8816951964
 20
189959.9909088233
 30
38.52756568630591
 70
    32
  0
VERTEX
  5
7C2
330
7BA
100
AcDbEntity
  8
SLOT
100
AcDbVertex
100
AcDb3dPolylineVertex
 10
503526.645
 20
189960.43
 30
38.439
 70
    32
  0
VERTEX
  5
7C3
330
7BA
100
AcDbEntity
  8
SLOT
100
AcDbVertex
100
AcDb3dPolylineVertex
 10
503526.436
 20
189960.758
 30
38.47
 70
    32
  0
SEQEND
  5
7C4
330
7BA
100
AcDbEntity
  8
SLOT
  0
POLYLINE
  5
7C5
330
70
100
AcDbEntity
  8
SLOT
100
AcDb3dPolyline
 66
     1
 10
0.0
 20
0.0
 30
0.0
 70
     9
  0
VERTEX
  5
7C6
330
7C5
100
AcDbEntity
  8
SLOT
100
AcDbVertex
100
AcDb3dPolylineVertex
 10
503518.42
 20
189996.132
 30
38.892
 70
    32
  0
VERTEX
  5
7C7
330
7C5
100
AcDbEntity
  8
SLOT
100
AcDbVertex
100
AcDb3dPolylineVertex
 10
503517.965
 20
189995.605
 30
38.901
 70
    32
  0
VERTEX
  5
7C8
330
7C5
100
AcDbEntity
  8
SLOT
100
AcDbVertex
100
AcDb3dPolylineVertex
 10
503518.053
 20
189995.453
 30
38.904
 70
    32
  0
VERTEX
  5
7C9
330
7C5
100
AcDbEntity
  8
SLOT
100
AcDbVertex
100
AcDb3dPolylineVertex
 10
503518.429
 20
189995.169
 30
38.912
 70
    32
  0
VERTEX
  5
7CA
330
7C5
100
AcDbEntity
  8
SLOT
100
AcDbVertex
100
AcDb3dPolylineVertex
 10
503518.439
 20
189995.148
 30
38.899
 70
    32
  0
VERTEX
  5
7CB
330
7C5
100
AcDbEntity
  8
SLOT
100
AcDbVertex
100
AcDb3dPolylineVertex
 10
503518.845
 20
189995.826
 30
38.878
 70
    32
  0
VERTEX
  5
7CC
330
7C5
100
AcDbEntity
  8
SLOT
100
AcDbVertex
100
AcDb3dPolylineVertex
 10
503518.683
 20
189995.929
 30
38.893
 70
    32
  0
SEQEND
  5
7CD
330
7C5
100
AcDbEntity
  8
SLOT
  0
POINT
  5
7CE
330
70
100
AcDbEntity
  8
TR04L
100
AcDbPoint
 10
503468.11
 20
189922.951
 30
40.3
  0
POINT
  5
7CF
330
70
100
AcDbEntity
  8
TR04L
100
AcDbPoint
 10
503482.13
 20
189901.06
 30
40.076
  0
POINT
  5
7D0
330
70
100
AcDbEntity
  8
025L
100
AcDbPoint
 10
503465.165
 20
189929.58
 30
40.921
  0
POINT
  5
7D1
330
70
100
AcDbEntity
  8
022L
100
AcDbPoint
 10
503518.716
 20
189995.455
 30
38.89
  0
POINT
  5
7D2
330
70
100
AcDbEntity
  8
020L
100
AcDbPoint
 10
503520.773
 20
189993.777
 30
38.977
  0
POINT
  5
7D3
330
70
100
AcDbEntity
  8
018L
100
AcDbPoint
 10
503522.373
 20
189997.973
 30
38.968
  0
POINT
  5
7D4
330
70
100
AcDbEntity
  8
016L
100
AcDbPoint
 10
503521.444
 20
189996.873
 30
38.962
  0
POLYLINE
  5
7D5
330
70
100
AcDbEntity
  8
024R
100
AcDb3dPolyline
 66
     1
 10
0.0
 20
0.0
 30
0.0
 70
     8
  0
VERTEX
  5
7D6
330
7D5
100
AcDbEntity
  8
024R
100
AcDbVertex
100
AcDb3dPolylineVertex
 10
503516.804
 20
189997.544
 30
38.922
 70
    32
  0
VERTEX
  5
7D7
330
7D5
100
AcDbEntity
  8
024R
100
AcDbVertex
100
AcDb3dPolylineVertex
 10
503517.275
 20
189997.102
 30
38.902
 70
    32
  0
VERTEX
  5
7D8
330
7D5
100
AcDbEntity
  8
024R
100
AcDbVertex
100
AcDb3dPolylineVertex
 10
503517.931
 20
189996.55
 30
38.895
 70
    32
  0
VERTEX
  5
7D9
330
7D5
100
AcDbEntity
  8
024R
100
AcDbVertex
100
AcDb3dPolylineVertex
 10
503518.431
 20
189996.138
 30
38.906
 70
    32
  0
VERTEX
  5
7DA
330
7D5
100
AcDbEntity
  8
024R
100
AcDbVertex
100
AcDb3dPolylineVertex
 10
503518.683
 20
189995.929
 30
38.893
 70
    32
  0
VERTEX
  5
7DB
330
7D5
100
AcDbEntity
  8
024R
100
AcDbVertex
100
AcDb3dPolylineVertex
 10
503518.842
 20
189995.816
 30
38.895
 70
    32
  0
VERTEX
  5
7DC
330
7D5
100
AcDbEntity
  8
024R
100
AcDbVertex
100
AcDb3dPolylineVertex
 10
503519.055
 20
189995.578
 30
38.9
 70
    32
  0
VERTEX
  5
7DD
330
7D5
100
AcDbEntity
  8
024R
100
AcDbVertex
100
AcDb3dPolylineVertex
 10
503519.348
 20
189995.308
 30
38.903
 70
    32
  0
VERTEX
  5
7DE
330
7D5
100
AcDbEntity
  8
024R
100
AcDbVertex
100
AcDb3dPolylineVertex
 10
503519.926
 20
189994.88
 30
38.904
 70
    32
  0
VERTEX
  5
7DF
330
7D5
100
AcDbEntity
  8
024R
100
AcDbVertex
100
AcDb3dPolylineVertex
 10
503520.433
 20
189994.508
 30
38.895
 70
    32
  0
VERTEX
  5
7E0
330
7D5
100
AcDbEntity
  8
024R
100
AcDbVertex
100
AcDb3dPolylineVertex
 10
503520.693
 20
189994.289
 30
38.875
 70
    32
  0
VERTEX
  5
7E1
330
7D5
100
AcDbEntity
  8
024R
100
AcDbVertex
100
AcDb3dPolylineVertex
 10
503521.153
 20
189994.02
 30
39.051
 70
    32
  0
SEQEND
  5
7E2
330
7D5
100
AcDbEntity
  8
024R
  0
POLYLINE
  5
7E3
330
70
100
AcDbEntity
  8
024U
100
AcDb3dPolyline
 66
     1
 10
0.0
 20
0.0
 30
0.0
 70
     8
  0
VERTEX
  5
7E4
330
7E3
100
AcDbEntity
  8
024U
100
AcDbVertex
100
AcDb3dPolylineVertex
 10
503521.153
 20
189994.02
 30
39.051
 70
    32
  0
VERTEX
  5
7E5
330
7E3
100
AcDbEntity
  8
024U
100
AcDbVertex
100
AcDb3dPolylineVertex
 10
503520.329
 20
189993.523
 30
39.037
 70
    32
  0
SEQEND
  5
7E6
330
7E3
100
AcDbEntity
  8
024U
  0
POLYLINE
  5
7E7
330
70
100
AcDbEntity
  8
024R
100
AcDb3dPolyline
 66
     1
 10
0.0
 20
0.0
 30
0.0
 70
     8
  0
VERTEX
  5
7E8
330
7E7
100
AcDbEntity
  8
024R
100
AcDbVertex
100
AcDb3dPolylineVertex
 10
503520.329
 20
189993.523
 30
39.037
 70
    32
  0
VERTEX
  5
7E9
330
7E7
100
AcDbEntity
  8
024R
100
AcDbVertex
100
AcDb3dPolylineVertex
 10
503520.216
 20
189993.738
 30
38.887
 70
    32
  0
VERTEX
  5
7EA
330
7E7
100
AcDbEntity
  8
024R
100
AcDbVertex
100
AcDb3dPolylineVertex
 10
503519.7670000001
 20
189994.209
 30
38.86
 70
    32
  0
VERTEX
  5
7EB
330
7E7
100
AcDbEntity
  8
024R
100
AcDbVertex
100
AcDb3dPolylineVertex
 10
503519.236
 20
189994.692
 30
38.867
 70
    32
  0
VERTEX
  5
7EC
330
7E7
100
AcDbEntity
  8
024R
100
AcDbVertex
100
AcDb3dPolylineVertex
 10
503518.429
 20
189995.169
 30
38.912
 70
    32
  0
VERTEX
  5
7ED
330
7E7
100
AcDbEntity
  8
024R
100
AcDbVertex
100
AcDb3dPolylineVertex
 10
503518.053
 20
189995.453
 30
38.904
 70
    32
  0
VERTEX
  5
7EE
330
7E7
100
AcDbEntity
  8
024R
100
AcDbVertex
100
AcDb3dPolylineVertex
 10
503517.965
 20
189995.615
 30
38.906
 70
    32
  0
VERTEX
  5
7EF
330
7E7
100
AcDbEntity
  8
024R
100
AcDbVertex
100
AcDb3dPolylineVertex
 10
503517.477
 20
189996.051
 30
38.924
 70
    32
  0
VERTEX
  5
7F0
330
7E7
100
AcDbEntity
  8
024R
100
AcDbVertex
100
AcDb3dPolylineVertex
 10
503516.786
 20
189996.536
 30
38.971
 70
    32
  0
VERTEX
  5
7F1
330
7E7
100
AcDbEntity
  8
024R
100
AcDbVertex
100
AcDb3dPolylineVertex
 10
503516.248
 20
189997.137
 30
39.003
 70
    32
  0
SEQEND
  5
7F2
330
7E7
100
AcDbEntity
  8
024R
  0
POLYLINE
  5
7F3
330
70
100
AcDbEntity
  8
024U
100
AcDb3dPolyline
 66
     1
 10
0.0
 20
0.0
 30
0.0
 70
     8
  0
VERTEX
  5
7F4
330
7F3
100
AcDbEntity
  8
024U
100
AcDbVertex
100
AcDb3dPolylineVertex
 10
503516.248
 20
189997.137
 30
39.003
 70
    32
  0
VERTEX
  5
7F5
330
7F3
100
AcDbEntity
  8
024U
100
AcDbVertex
100
AcDb3dPolylineVertex
 10
503516.804
 20
189997.537
 30
38.928
 70
    32
  0
SEQEND
  5
7F6
330
7F3
100
AcDbEntity
  8
024U
  0
POLYLINE
  5
7F7
330
70
100
AcDbEntity
  8
21B
100
AcDb3dPolyline
 66
     1
 10
0.0
 20
0.0
 30
0.0
 70
     8
  0
VERTEX
  5
7F8
330
7F7
100
AcDbEntity
  8
21B
100
AcDbVertex
100
AcDb3dPolylineVertex
 10
503520.823
 20
189993.835
 30
38.815
 70
    32
  0
VERTEX
  5
7F9
330
7F7
100
AcDbEntity
  8
21B
100
AcDbVertex
100
AcDb3dPolylineVertex
 10
503520.734
 20
189993.894
 30
38.794
 70
    32
  0
VERTEX
  5
7FA
330
7F7
100
AcDbEntity
  8
21B
100
AcDbVertex
100
AcDb3dPolylineVertex
 10
503520.65
 20
189993.976
 30
38.808
 70
    32
  0
VERTEX
  5
7FB
330
7F7
100
AcDbEntity
  8
21B
100
AcDbVertex
100
AcDb3dPolylineVertex
 10
503520.542
 20
189994.1
 30
38.819
 70
    32
  0
SEQEND
  5
7FC
330
7F7
100
AcDbEntity
  8
21B
  0
POLYLINE
  5
7FD
330
70
100
AcDbEntity
  8
21B
100
AcDb3dPolyline
 66
     1
 10
0.0
 20
0.0
 30
0.0
 70
     8
  0
VERTEX
  5
7FE
330
7FD
100
AcDbEntity
  8
21B
100
AcDbVertex
100
AcDb3dPolylineVertex
 10
503520.621
 20
189993.703
 30
38.777
 70
    32
  0
VERTEX
  5
7FF
330
7FD
100
AcDbEntity
  8
21B
100
AcDbVertex
100
AcDb3dPolylineVertex
 10
503520.5379999999
 20
189993.785
 30
38.777
 70
    32
  0
VERTEX
  5
800
330
7FD
100
AcDbEntity
  8
21B
100
AcDbVertex
100
AcDb3dPolylineVertex
 10
503520.354
 20
189993.888
 30
38.766
 70
    32
  0
SEQEND
  5
801
330
7FD
100
AcDbEntity
  8
21B
  0
POLYLINE
  5
802
330
70
100
AcDbEntity
  8
021S
100
AcDb3dPolyline
 66
     1
 10
0.0
 20
0.0
 30
0.0
 70
     8
  0
VERTEX
  5
803
330
802
100
AcDbEntity
  8
021S
100
AcDbVertex
100
AcDb3dPolylineVertex
 10
503521.15
 20
189994.016
 30
39.041
 70
    32
  0
VERTEX
  5
804
330
802
100
AcDbEntity
  8
021S
100
AcDbVertex
100
AcDb3dPolylineVertex
 10
503521.117
 20
189994.001
 30
38.976
 70
    32
  0
VERTEX
  5
805
330
802
100
AcDbEntity
  8
021S
100
AcDbVertex
100
AcDb3dPolylineVertex
 10
503521.062
 20
189993.999
 30
38.887
 70
    32
  0
VERTEX
  5
806
330
802
100
AcDbEntity
  8
021S
100
AcDbVertex
100
AcDb3dPolylineVertex
 10
503520.988
 20
189993.953
 30
38.876
 70
    32
  0
VERTEX
  5
807
330
802
100
AcDbEntity
  8
021S
100
AcDbVertex
100
AcDb3dPolylineVertex
 10
503520.922
 20
189993.911
 30
38.849
 70
    32
  0
VERTEX
  5
808
330
802
100
AcDbEntity
  8
021S
100
AcDbVertex
100
AcDb3dPolylineVertex
 10
503520.831
 20
189993.832
 30
38.805
 70
    32
  0
VERTEX
  5
809
330
802
100
AcDbEntity
  8
021S
100
AcDbVertex
100
AcDb3dPolylineVertex
 10
503520.755
 20
189993.782
 30
38.791
 70
    32
  0
VERTEX
  5
80A
330
802
100
AcDbEntity
  8
021S
100
AcDbVertex
100
AcDb3dPolylineVertex
 10
503520.687
 20
189993.738
 30
38.785
 70
    32
  0
VERTEX
  5
80B
330
802
100
AcDbEntity
  8
021S
100
AcDbVertex
100
AcDb3dPolylineVertex
 10
503520.611
 20
189993.694
 30
38.757
 70
    32
  0
VERTEX
  5
80C
330
802
100
AcDbEntity
  8
021S
100
AcDbVertex
100
AcDb3dPolylineVertex
 10
503520.545
 20
189993.657
 30
38.814
 70
    32
  0
VERTEX
  5
80D
330
802
100
AcDbEntity
  8
021S
100
AcDbVertex
100
AcDb3dPolylineVertex
 10
503520.485
 20
189993.603
 30
38.826
 70
    32
  0
VERTEX
  5
80E
330
802
100
AcDbEntity
  8
021S
100
AcDbVertex
100
AcDb3dPolylineVertex
 10
503520.417
 20
189993.579
 30
38.866
 70
    32
  0
VERTEX
  5
80F
330
802
100
AcDbEntity
  8
021S
100
AcDbVertex
100
AcDb3dPolylineVertex
 10
503520.331
 20
189993.516
 30
39.003
 70
    32
  0
SEQEND
  5
810
330
802
100
AcDbEntity
  8
021S
  0
POLYLINE
  5
811
330
70
100
AcDbEntity
  8
023B
100
AcDb3dPolyline
 66
     1
 10
0.0
 20
0.0
 30
0.0
 70
     8
  0
VERTEX
  5
812
330
811
100
AcDbEntity
  8
023B
100
AcDbVertex
100
AcDb3dPolylineVertex
 10
503518.316
 20
189995.98
 30
38.776
 70
    32
  0
VERTEX
  5
813
330
811
100
AcDbEntity
  8
023B
100
AcDbVertex
100
AcDb3dPolylineVertex
 10
503518.3970000001
 20
189995.89
 30
38.786
 70
    32
  0
VERTEX
  5
814
330
811
100
AcDbEntity
  8
023B
100
AcDbVertex
100
AcDb3dPolylineVertex
 10
503518.534
 20
189995.727
 30
38.778
 70
    32
  0
VERTEX
  5
815
330
811
100
AcDbEntity
  8
023B
100
AcDbVertex
100
AcDb3dPolylineVertex
 10
503518.695
 20
189995.625
 30
38.798
 70
    32
  0
SEQEND
  5
816
330
811
100
AcDbEntity
  8
023B
  0
POLYLINE
  5
817
330
70
100
AcDbEntity
  8
023B
100
AcDb3dPolyline
 66
     1
 10
0.0
 20
0.0
 30
0.0
 70
     8
  0
VERTEX
  5
818
330
817
100
AcDbEntity
  8
023B
100
AcDbVertex
100
AcDb3dPolylineVertex
 10
503518.572
 20
189995.46
 30
38.807
 70
    32
  0
VERTEX
  5
819
330
817
100
AcDbEntity
  8
023B
100
AcDbVertex
100
AcDb3dPolylineVertex
 10
503518.448
 20
189995.541
 30
38.792
 70
    32
  0
VERTEX
  5
81A
330
817
100
AcDbEntity
  8
023B
100
AcDbVertex
100
AcDb3dPolylineVertex
 10
503518.274
 20
189995.707
 30
38.782
 70
    32
  0
VERTEX
  5
81B
330
817
100
AcDbEntity
  8
023B
100
AcDbVertex
100
AcDb3dPolylineVertex
 10
503518.178
 20
189995.805
 30
38.79
 70
    32
  0
SEQEND
  5
81C
330
817
100
AcDbEntity
  8
023B
  0
POLYLINE
  5
81D
330
70
100
AcDbEntity
  8
023S
100
AcDb3dPolyline
 66
     1
 10
0.0
 20
0.0
 30
0.0
 70
     8
  0
VERTEX
  5
81E
330
81D
100
AcDbEntity
  8
023S
100
AcDbVertex
100
AcDb3dPolylineVertex
 10
503518.845
 20
189995.826
 30
38.878
 70
    32
  0
VERTEX
  5
81F
330
81D
100
AcDbEntity
  8
023S
100
AcDbVertex
100
AcDb3dPolylineVertex
 10
503518.8
 20
189995.776
 30
38.847
 70
    32
  0
VERTEX
  5
820
330
81D
100
AcDbEntity
  8
023S
100
AcDbVertex
100
AcDb3dPolylineVertex
 10
503518.738
 20
189995.687
 30
38.821
 70
    32
  0
VERTEX
  5
821
330
81D
100
AcDbEntity
  8
023S
100
AcDbVertex
100
AcDb3dPolylineVertex
 10
503518.704
 20
189995.625
 30
38.806
 70
    32
  0
VERTEX
  5
822
330
81D
100
AcDbEntity
  8
023S
100
AcDbVertex
100
AcDb3dPolylineVertex
 10
503518.646
 20
189995.542
 30
38.82
 70
    32
  0
VERTEX
  5
823
330
81D
100
AcDbEntity
  8
023S
100
AcDbVertex
100
AcDb3dPolylineVertex
 10
503518.589
 20
189995.44
 30
38.814
 70
    32
  0
VERTEX
  5
824
330
81D
100
AcDbEntity
  8
023S
100
AcDbVertex
100
AcDb3dPolylineVertex
 10
503518.552
 20
189995.364
 30
38.835
 70
    32
  0
VERTEX
  5
825
330
81D
100
AcDbEntity
  8
023S
100
AcDbVertex
100
AcDb3dPolylineVertex
 10
503518.491
 20
189995.273
 30
38.869
 70
    32
  0
VERTEX
  5
826
330
81D
100
AcDbEntity
  8
023S
100
AcDbVertex
100
AcDb3dPolylineVertex
 10
503518.439
 20
189995.148
 30
38.899
 70
    32
  0
SEQEND
  5
827
330
81D
100
AcDbEntity
  8
023S
  0
POLYLINE
  5
828
330
70
100
AcDbEntity
  8
017B
100
AcDb3dPolyline
 66
     1
 10
0.0
 20
0.0
 30
0.0
 70
     8
  0
VERTEX
  5
829
330
828
100
AcDbEntity
  8
017B
100
AcDbVertex
100
AcDb3dPolylineVertex
 10
503521.619
 20
189996.64
 30
38.718
 70
    32
  0
VERTEX
  5
82A
330
828
100
AcDbEntity
  8
017B
100
AcDbVertex
100
AcDb3dPolylineVertex
 10
503521.799
 20
189996.709
 30
38.725
 70
    32
  0
VERTEX
  5
82B
330
828
100
AcDbEntity
  8
017B
100
AcDbVertex
100
AcDb3dPolylineVertex
 10
503521.991
 20
189996.766
 30
38.73699999999999
 70
    32
  0
VERTEX
  5
82C
330
828
100
AcDbEntity
  8
017B
100
AcDbVertex
100
AcDb3dPolylineVertex
 10
503522.223
 20
189996.877
 30
38.73
 70
    32
  0
SEQEND
  5
82D
330
828
100
AcDbEntity
  8
017B
  0
POLYLINE
  5
82E
330
70
100
AcDbEntity
  8
017B
100
AcDb3dPolyline
 66
     1
 10
0.0
 20
0.0
 30
0.0
 70
     8
  0
VERTEX
  5
82F
330
82E
100
AcDbEntity
  8
017B
100
AcDbVertex
100
AcDb3dPolylineVertex
 10
503521.482
 20
189997.098
 30
38.671
 70
    32
  0
VERTEX
  5
830
330
82E
100
AcDbEntity
  8
017B
100
AcDbVertex
100
AcDb3dPolylineVertex
 10
503521.704
 20
189997.104
 30
38.673
 70
    32
  0
VERTEX
  5
831
330
82E
100
AcDbEntity
  8
017B
100
AcDbVertex
100
AcDb3dPolylineVertex
 10
503521.84
 20
189997.029
 30
38.682
 70
    32
  0
VERTEX
  5
832
330
82E
100
AcDbEntity
  8
017B
100
AcDbVertex
100
AcDb3dPolylineVertex
 10
503521.966
 20
189996.968
 30
38.682
 70
    32
  0
VERTEX
  5
833
330
82E
100
AcDbEntity
  8
017B
100
AcDbVertex
100
AcDb3dPolylineVertex
 10
503522.166
 20
189997.04
 30
38.712
 70
    32
  0
SEQEND
  5
834
330
82E
100
AcDbEntity
  8
017B
  0
POLYLINE
  5
835
330
70
100
AcDbEntity
  8
017S
100
AcDb3dPolyline
 66
     1
 10
0.0
 20
0.0
 30
0.0
 70
     8
  0
VERTEX
  5
836
330
835
100
AcDbEntity
  8
017S
100
AcDbVertex
100
AcDb3dPolylineVertex
 10
503521.66
 20
189996.465
 30
38.946
 70
    32
  0
VERTEX
  5
837
330
835
100
AcDbEntity
  8
017S
100
AcDbVertex
100
AcDb3dPolylineVertex
 10
503521.667
 20
189996.502
 30
38.872
 70
    32
  0
VERTEX
  5
838
330
835
100
AcDbEntity
  8
017S
100
AcDbVertex
100
AcDb3dPolylineVertex
 10
503521.661
 20
189996.554
 30
38.762
 70
    32
  0
VERTEX
  5
839
330
835
100
AcDbEntity
  8
017S
100
AcDbVertex
100
AcDb3dPolylineVertex
 10
503521.623
 20
189996.632
 30
38.73
 70
    32
  0
VERTEX
  5
83A
330
835
100
AcDbEntity
  8
017S
100
AcDbVertex
100
AcDb3dPolylineVertex
 10
503521.595
 20
189996.691
 30
38.696
 70
    32
  0
VERTEX
  5
83B
330
835
100
AcDbEntity
  8
017S
100
AcDbVertex
100
AcDb3dPolylineVertex
 10
503521.583
 20
189996.755
 30
38.683
 70
    32
  0
VERTEX
  5
83C
330
835
100
AcDbEntity
  8
017S
100
AcDbVertex
100
AcDb3dPolylineVertex
 10
503521.556
 20
189996.838
 30
38.645
 70
    32
  0
VERTEX
  5
83D
330
835
100
AcDbEntity
  8
017S
100
AcDbVertex
100
AcDb3dPolylineVertex
 10
503521.518
 20
189996.937
 30
38.639
 70
    32
  0
VERTEX
  5
83E
330
835
100
AcDbEntity
  8
017S
100
AcDbVertex
100
AcDb3dPolylineVertex
 10
503521.5
 20
189997.029
 30
38.666
 70
    32
  0
VERTEX
  5
83F
330
835
100
AcDbEntity
  8
017S
100
AcDbVertex
100
AcDb3dPolylineVertex
 10
503521.4779999999
 20
189997.099
 30
38.666
 70
    32
  0
VERTEX
  5
840
330
835
100
AcDbEntity
  8
017S
100
AcDbVertex
100
AcDb3dPolylineVertex
 10
503521.487
 20
189997.138
 30
38.744
 70
    32
  0
VERTEX
  5
841
330
835
100
AcDbEntity
  8
017S
100
AcDbVertex
100
AcDb3dPolylineVertex
 10
503521.473
 20
189997.181
 30
38.79
 70
    32
  0
VERTEX
  5
842
330
835
100
AcDbEntity
  8
017S
100
AcDbVertex
100
AcDb3dPolylineVertex
 10
503521.461
 20
189997.24
 30
38.848
 70
    32
  0
VERTEX
  5
843
330
835
100
AcDbEntity
  8
017S
100
AcDbVertex
100
AcDb3dPolylineVertex
 10
503521.444
 20
189997.288
 30
38.882
 70
    32
  0
SEQEND
  5
844
330
835
100
AcDbEntity
  8
017S
  0
POLYLINE
  5
845
330
70
100
AcDbEntity
  8
019S
100
AcDb3dPolyline
 66
     1
 10
0.0
 20
0.0
 30
0.0
 70
     8
  0
VERTEX
  5
846
330
845
100
AcDbEntity
  8
019S
100
AcDbVertex
100
AcDb3dPolylineVertex
 10
503522.722
 20
189997.413
 30
38.927
 70
    32
  0
VERTEX
  5
847
330
845
100
AcDbEntity
  8
019S
100
AcDbVertex
100
AcDb3dPolylineVertex
 10
503522.713
 20
189997.481
 30
38.911
 70
    32
  0
VERTEX
  5
848
330
845
100
AcDbEntity
  8
019S
100
AcDbVertex
100
AcDb3dPolylineVertex
 10
503522.693
 20
189997.532
 30
38.856
 70
    32
  0
VERTEX
  5
849
330
845
100
AcDbEntity
  8
019S
100
AcDbVertex
100
AcDb3dPolylineVertex
 10
503522.666
 20
189997.631
 30
38.819
 70
    32
  0
VERTEX
  5
84A
330
845
100
AcDbEntity
  8
019S
100
AcDbVertex
100
AcDb3dPolylineVertex
 10
503522.654
 20
189997.709
 30
38.809
 70
    32
  0
VERTEX
  5
84B
330
845
100
AcDbEntity
  8
019S
100
AcDbVertex
100
AcDb3dPolylineVertex
 10
503522.617
 20
189997.776
 30
38.765
 70
    32
  0
VERTEX
  5
84C
330
845
100
AcDbEntity
  8
019S
100
AcDbVertex
100
AcDb3dPolylineVertex
 10
503522.588
 20
189997.897
 30
38.716
 70
    32
  0
VERTEX
  5
84D
330
845
100
AcDbEntity
  8
019S
100
AcDbVertex
100
AcDb3dPolylineVertex
 10
503522.5220000001
 20
189998.024
 30
38.705
 70
    32
  0
VERTEX
  5
84E
330
845
100
AcDbEntity
  8
019S
100
AcDbVertex
100
AcDb3dPolylineVertex
 10
503522.486
 20
189998.171
 30
38.73
 70
    32
  0
VERTEX
  5
84F
330
845
100
AcDbEntity
  8
019S
100
AcDbVertex
100
AcDb3dPolylineVertex
 10
503522.442
 20
189998.343
 30
38.766
 70
    32
  0
VERTEX
  5
850
330
845
100
AcDbEntity
  8
019S
100
AcDbVertex
100
AcDb3dPolylineVertex
 10
503522.416
 20
189998.404
 30
38.806
 70
    32
  0
VERTEX
  5
851
330
845
100
AcDbEntity
  8
019S
100
AcDbVertex
100
AcDb3dPolylineVertex
 10
503522.387
 20
189998.422
 30
38.871
 70
    32
  0
VERTEX
  5
852
330
845
100
AcDbEntity
  8
019S
100
AcDbVertex
100
AcDb3dPolylineVertex
 10
503522.344
 20
189998.483
 30
38.939
 70
    32
  0
SEQEND
  5
853
330
845
100
AcDbEntity
  8
019S
  0
POLYLINE
  5
854
330
70
100
AcDbEntity
  8
019B
100
AcDb3dPolyline
 66
     1
 10
0.0
 20
0.0
 30
0.0
 70
     8
  0
VERTEX
  5
855
330
854
100
AcDbEntity
  8
019B
100
AcDbVertex
100
AcDb3dPolylineVertex
 10
503522.617
 20
189997.782
 30
38.77
 70
    32
  0
VERTEX
  5
856
330
854
100
AcDbEntity
  8
019B
100
AcDbVertex
100
AcDb3dPolylineVertex
 10
503522.698
 20
189997.837
 30
38.743
 70
    32
  0
VERTEX
  5
857
330
854
100
AcDbEntity
  8
019B
100
AcDbVertex
100
AcDb3dPolylineVertex
 10
503522.85
 20
189997.907
 30
38.723
 70
    32
  0
VERTEX
  5
858
330
854
100
AcDbEntity
  8
019B
100
AcDbVertex
100
AcDb3dPolylineVertex
 10
503522.959
 20
189998.005
 30
38.744
 70
    32
  0
VERTEX
  5
859
330
854
100
AcDbEntity
  8
019B
100
AcDbVertex
100
AcDb3dPolylineVertex
 10
503522.97
 20
189998.182
 30
38.755
 70
    32
  0
VERTEX
  5
85A
330
854
100
AcDbEntity
  8
019B
100
AcDbVertex
100
AcDb3dPolylineVertex
 10
503522.926
 20
189998.317
 30
38.76
 70
    32
  0
VERTEX
  5
85B
330
854
100
AcDbEntity
  8
019B
100
AcDbVertex
100
AcDb3dPolylineVertex
 10
503522.836
 20
189998.377
 30
38.739
 70
    32
  0
VERTEX
  5
85C
330
854
100
AcDbEntity
  8
019B
100
AcDbVertex
100
AcDb3dPolylineVertex
 10
503522.675
 20
189998.408
 30
38.73699999999999
 70
    32
  0
VERTEX
  5
85D
330
854
100
AcDbEntity
  8
019B
100
AcDbVertex
100
AcDb3dPolylineVertex
 10
503522.595
 20
189998.348
 30
38.717
 70
    32
  0
VERTEX
  5
85E
330
854
100
AcDbEntity
  8
019B
100
AcDbVertex
100
AcDb3dPolylineVertex
 10
503522.431
 20
189998.303
 30
38.743
 70
    32
  0
SEQEND
  5
85F
330
854
100
AcDbEntity
  8
019B
  0
POLYLINE
  5
860
330
70
100
AcDbEntity
  8
025R
100
AcDb3dPolyline
 66
     1
 10
0.0
 20
0.0
 30
0.0
 70
     8
  0
VERTEX
  5
861
330
860
100
AcDbEntity
  8
025R
100
AcDbVertex
100
AcDb3dPolylineVertex
 10
503465.73
 20
189929.517
 30
40.778
 70
    32
  0
VERTEX
  5
862
330
860
100
AcDbEntity
  8
025R
100
AcDbVertex
100
AcDb3dPolylineVertex
 10
503463.901
 20
189929.151
 30
41.01600000000001
 70
    32
  0
SEQEND
  5
863
330
860
100
AcDbEntity
  8
025R
  0
POLYLINE
  5
864
330
70
100
AcDbEntity
  8
025U
100
AcDb3dPolyline
 66
     1
 10
0.0
 20
0.0
 30
0.0
 70
     8
  0
VERTEX
  5
865
330
864
100
AcDbEntity
  8
025U
100
AcDbVertex
100
AcDb3dPolylineVertex
 10
503463.901
 20
189929.151
 30
41.01600000000001
 70
    32
  0
VERTEX
  5
866
330
864
100
AcDbEntity
  8
025U
100
AcDbVertex
100
AcDb3dPolylineVertex
 10
503463.739
 20
189929.412
 30
40.981
 70
    32
  0
SEQEND
  5
867
330
864
100
AcDbEntity
  8
025U
  0
POLYLINE
  5
868
330
70
100
AcDbEntity
  8
025R
100
AcDb3dPolyline
 66
     1
 10
0.0
 20
0.0
 30
0.0
 70
     8
  0
VERTEX
  5
869
330
868
100
AcDbEntity
  8
025R
100
AcDbVertex
100
AcDb3dPolylineVertex
 10
503463.739
 20
189929.412
 30
40.981
 70
    32
  0
VERTEX
  5
86A
330
868
100
AcDbEntity
  8
025R
100
AcDbVertex
100
AcDb3dPolylineVertex
 10
503465.593
 20
189929.778
 30
40.872
 70
    32
  0
SEQEND
  5
86B
330
868
100
AcDbEntity
  8
025R
  0
POLYLINE
  5
86C
330
70
100
AcDbEntity
  8
025U
100
AcDb3dPolyline
 66
     1
 10
0.0
 20
0.0
 30
0.0
 70
     8
  0
VERTEX
  5
86D
330
86C
100
AcDbEntity
  8
025U
100
AcDbVertex
100
AcDb3dPolylineVertex
 10
503465.593
 20
189929.778
 30
40.872
 70
    32
  0
VERTEX
  5
86E
330
86C
100
AcDbEntity
  8
025U
100
AcDbVertex
100
AcDb3dPolylineVertex
 10
503465.72
 20
189929.517
 30
40.777
 70
    32
  0
SEQEND
  5
86F
330
86C
100
AcDbEntity
  8
025U
  0
POLYLINE
  5
870
330
70
100
AcDbEntity
  8
TR04
100
AcDb3dPolyline
 66
     1
 10
0.0
 20
0.0
 30
0.0
 70
     8
  0
VERTEX
  5
871
330
870
100
AcDbEntity
  8
TR04
100
AcDbVertex
100
AcDb3dPolylineVertex
 10
503465.46
 20
189926.158
 30
41.195
 70
    32
  0
VERTEX
  5
872
330
870
100
AcDbEntity
  8
TR04
100
AcDbVertex
100
AcDb3dPolylineVertex
 10
503464.782
 20
189925.575
 30
41.248
 70
    32
  0
VERTEX
  5
873
330
870
100
AcDbEntity
  8
TR04
100
AcDbVertex
100
AcDb3dPolylineVertex
 10
503492.023
 20
189883.263
 30
40.466
 70
    32
  0
VERTEX
  5
874
330
870
100
AcDbEntity
  8
TR04
100
AcDbVertex
100
AcDb3dPolylineVertex
 10
503494.437
 20
189884.779
 30
40.336
 70
    32
  0
VERTEX
  5
875
330
870
100
AcDbEntity
  8
TR04
100
AcDbVertex
100
AcDb3dPolylineVertex
 10
503467.319
 20
189927.34
 30
41.078
 70
    32
  0
SEQEND
  5
876
330
870
100
AcDbEntity
  8
TR04
  0
POLYLINE
  5
877
330
70
100
AcDbEntity
  8
017R
100
AcDb3dPolyline
 66
     1
 10
0.0
 20
0.0
 30
0.0
 70
     9
  0
VERTEX
  5
878
330
877
100
AcDbEntity
  8
017R
100
AcDbVertex
100
AcDb3dPolylineVertex
 10
503521.023
 20
189996.821
 30
38.949
 70
    32
  0
VERTEX
  5
879
330
877
100
AcDbEntity
  8
017R
100
AcDbVertex
100
AcDb3dPolylineVertex
 10
503521.015
 20
189996.951
 30
38.954
 70
    32
  0
VERTEX
  5
87A
330
877
100
AcDbEntity
  8
017R
100
AcDbVertex
100
AcDb3dPolylineVertex
 10
503521.066
 20
189997.083
 30
38.954
 70
    32
  0
VERTEX
  5
87B
330
877
100
AcDbEntity
  8
017R
100
AcDbVertex
100
AcDb3dPolylineVertex
 10
503521.134
 20
189997.159
 30
38.944
 70
    32
  0
VERTEX
  5
87C
330
877
100
AcDbEntity
  8
017R
100
AcDbVertex
100
AcDb3dPolylineVertex
 10
503521.235
 20
189997.226
 30
38.951
 70
    32
  0
VERTEX
  5
87D
330
877
100
AcDbEntity
  8
017R
100
AcDbVertex
100
AcDb3dPolylineVertex
 10
503521.313
 20
189997.252
 30
38.924
 70
    32
  0
VERTEX
  5
87E
330
877
100
AcDbEntity
  8
017R
100
AcDbVertex
100
AcDb3dPolylineVertex
 10
503521.44
 20
189997.291
 30
38.87
 70
    32
  0
VERTEX
  5
87F
330
877
100
AcDbEntity
  8
017R
100
AcDbVertex
100
AcDb3dPolylineVertex
 10
503521.7329999999
 20
189997.309
 30
38.904
 70
    32
  0
VERTEX
  5
880
330
877
100
AcDbEntity
  8
017R
100
AcDbVertex
100
AcDb3dPolylineVertex
 10
503521.923
 20
189997.344
 30
38.904
 70
    32
  0
VERTEX
  5
881
330
877
100
AcDbEntity
  8
017R
100
AcDbVertex
100
AcDb3dPolylineVertex
 10
503522.111
 20
189997.359
 30
38.894
 70
    32
  0
VERTEX
  5
882
330
877
100
AcDbEntity
  8
017R
100
AcDbVertex
100
AcDb3dPolylineVertex
 10
503522.251
 20
189997.352
 30
38.891
 70
    32
  0
VERTEX
  5
883
330
877
100
AcDbEntity
  8
017R
100
AcDbVertex
100
AcDb3dPolylineVertex
 10
503522.402
 20
189997.396
 30
38.93
 70
    32
  0
VERTEX
  5
884
330
877
100
AcDbEntity
  8
017R
100
AcDbVertex
100
AcDb3dPolylineVertex
 10
503522.516
 20
189997.41
 30
38.933
 70
    32
  0
VERTEX
  5
885
330
877
100
AcDbEntity
  8
017R
100
AcDbVertex
100
AcDb3dPolylineVertex
 10
503522.654
 20
189997.408
 30
38.923
 70
    32
  0
VERTEX
  5
886
330
877
100
AcDbEntity
  8
017R
100
AcDbVertex
100
AcDb3dPolylineVertex
 10
503522.75
 20
189997.367
 30
38.928
 70
    32
  0
VERTEX
  5
887
330
877
100
AcDbEntity
  8
017R
100
AcDbVertex
100
AcDb3dPolylineVertex
 10
503522.861
 20
189997.199
 30
38.963
 70
    32
  0
VERTEX
  5
888
330
877
100
AcDbEntity
  8
017R
100
AcDbVertex
100
AcDb3dPolylineVertex
 10
503522.963
 20
189997.038
 30
38.95
 70
    32
  0
VERTEX
  5
889
330
877
100
AcDbEntity
  8
017R
100
AcDbVertex
100
AcDb3dPolylineVertex
 10
503522.986
 20
189996.886
 30
38.964
 70
    32
  0
VERTEX
  5
88A
330
877
100
AcDbEntity
  8
017R
100
AcDbVertex
100
AcDb3dPolylineVertex
 10
503522.935
 20
189996.78
 30
38.956
 70
    32
  0
VERTEX
  5
88B
330
877
100
AcDbEntity
  8
017R
100
AcDbVertex
100
AcDb3dPolylineVertex
 10
503522.774
 20
189996.763
 30
38.942
 70
    32
  0
VERTEX
  5
88C
330
877
100
AcDbEntity
  8
017R
100
AcDbVertex
100
AcDb3dPolylineVertex
 10
503522.654
 20
189996.711
 30
38.947
 70
    32
  0
VERTEX
  5
88D
330
877
100
AcDbEntity
  8
017R
100
AcDbVertex
100
AcDb3dPolylineVertex
 10
503522.324
 20
189996.553
 30
38.939
 70
    32
  0
VERTEX
  5
88E
330
877
100
AcDbEntity
  8
017R
100
AcDbVertex
100
AcDb3dPolylineVertex
 10
503522.041
 20
189996.477
 30
38.958
 70
    32
  0
VERTEX
  5
88F
330
877
100
AcDbEntity
  8
017R
100
AcDbVertex
100
AcDb3dPolylineVertex
 10
503521.795
 20
189996.482
 30
38.937
 70
    32
  0
VERTEX
  5
890
330
877
100
AcDbEntity
  8
017R
100
AcDbVertex
100
AcDb3dPolylineVertex
 10
503521.6679999999
 20
189996.444
 30
38.952
 70
    32
  0
VERTEX
  5
891
330
877
100
AcDbEntity
  8
017R
100
AcDbVertex
100
AcDb3dPolylineVertex
 10
503521.529
 20
189996.424
 30
38.966
 70
    32
  0
VERTEX
  5
892
330
877
100
AcDbEntity
  8
017R
100
AcDbVertex
100
AcDb3dPolylineVertex
 10
503521.388
 20
189996.428
 30
38.955
 70
    32
  0
VERTEX
  5
893
330
877
100
AcDbEntity
  8
017R
100
AcDbVertex
100
AcDb3dPolylineVertex
 10
503521.251
 20
189996.494
 30
38.963
 70
    32
  0
VERTEX
  5
894
330
877
100
AcDbEntity
  8
017R
100
AcDbVertex
100
AcDb3dPolylineVertex
 10
503521.195
 20
189996.572
 30
38.96
 70
    32
  0
VERTEX
  5
895
330
877
100
AcDbEntity
  8
017R
100
AcDbVertex
100
AcDb3dPolylineVertex
 10
503521.1029999999
 20
189996.728
 30
38.96
 70
    32
  0
VERTEX
  5
896
330
877
100
AcDbEntity
  8
017R
100
AcDbVertex
100
AcDb3dPolylineVertex
 10
503521.023
 20
189996.821
 30
38.949
 70
    32
  0
SEQEND
  5
897
330
877
100
AcDbEntity
  8
017R
  0
POLYLINE
  5
898
330
70
100
AcDbEntity
  8
019R
100
AcDb3dPolyline
 66
     1
 10
0.0
 20
0.0
 30
0.0
 70
     9
  0
VERTEX
  5
899
330
898
100
AcDbEntity
  8
019R
100
AcDbVertex
100
AcDb3dPolylineVertex
 10
503521.687
 20
189997.51
 30
38.826
 70
    32
  0
VERTEX
  5
89A
330
898
100
AcDbEntity
  8
019R
100
AcDbVertex
100
AcDb3dPolylineVertex
 10
503521.648
 20
189997.572
 30
38.858
 70
    32
  0
VERTEX
  5
89B
330
898
100
AcDbEntity
  8
019R
100
AcDbVertex
100
AcDb3dPolylineVertex
 10
503521.656
 20
189997.71
 30
38.884
 70
    32
  0
VERTEX
  5
89C
330
898
100
AcDbEntity
  8
019R
100
AcDbVertex
100
AcDb3dPolylineVertex
 10
503521.7329999999
 20
189997.871
 30
38.923
 70
    32
  0
VERTEX
  5
89D
330
898
100
AcDbEntity
  8
019R
100
AcDbVertex
100
AcDb3dPolylineVertex
 10
503521.935
 20
189998.09
 30
38.914
 70
    32
  0
VERTEX
  5
89E
330
898
100
AcDbEntity
  8
019R
100
AcDbVertex
100
AcDb3dPolylineVertex
 10
503522.112
 20
189998.252
 30
38.951
 70
    32
  0
VERTEX
  5
89F
330
898
100
AcDbEntity
  8
019R
100
AcDbVertex
100
AcDb3dPolylineVertex
 10
503522.315
 20
189998.47
 30
38.944
 70
    32
  0
VERTEX
  5
8A0
330
898
100
AcDbEntity
  8
019R
100
AcDbVertex
100
AcDb3dPolylineVertex
 10
503522.463
 20
189998.572
 30
38.983
 70
    32
  0
VERTEX
  5
8A1
330
898
100
AcDbEntity
  8
019R
100
AcDbVertex
100
AcDb3dPolylineVertex
 10
503522.615
 20
189998.588
 30
38.976
 70
    32
  0
VERTEX
  5
8A2
330
898
100
AcDbEntity
  8
019R
100
AcDbVertex
100
AcDb3dPolylineVertex
 10
503522.785
 20
189998.593
 30
38.964
 70
    32
  0
VERTEX
  5
8A3
330
898
100
AcDbEntity
  8
019R
100
AcDbVertex
100
AcDb3dPolylineVertex
 10
503522.941
 20
189998.561
 30
38.984
 70
    32
  0
VERTEX
  5
8A4
330
898
100
AcDbEntity
  8
019R
100
AcDbVertex
100
AcDb3dPolylineVertex
 10
503523.047
 20
189998.482
 30
38.992
 70
    32
  0
VERTEX
  5
8A5
330
898
100
AcDbEntity
  8
019R
100
AcDbVertex
100
AcDb3dPolylineVertex
 10
503523.126
 20
189998.357
 30
38.969
 70
    32
  0
VERTEX
  5
8A6
330
898
100
AcDbEntity
  8
019R
100
AcDbVertex
100
AcDb3dPolylineVertex
 10
503523.177
 20
189998.246
 30
38.973
 70
    32
  0
VERTEX
  5
8A7
330
898
100
AcDbEntity
  8
019R
100
AcDbVertex
100
AcDb3dPolylineVertex
 10
503523.2
 20
189998.135
 30
38.951
 70
    32
  0
VERTEX
  5
8A8
330
898
100
AcDbEntity
  8
019R
100
AcDbVertex
100
AcDb3dPolylineVertex
 10
503523.1420000001
 20
189997.99
 30
38.908
 70
    32
  0
VERTEX
  5
8A9
330
898
100
AcDbEntity
  8
019R
100
AcDbVertex
100
AcDb3dPolylineVertex
 10
503523.05
 20
189997.856
 30
38.926
 70
    32
  0
VERTEX
  5
8AA
330
898
100
AcDbEntity
  8
019R
100
AcDbVertex
100
AcDb3dPolylineVertex
 10
503522.936
 20
189997.77
 30
38.923
 70
    32
  0
VERTEX
  5
8AB
330
898
100
AcDbEntity
  8
019R
100
AcDbVertex
100
AcDb3dPolylineVertex
 10
503523.0220000001
 20
189997.65
 30
38.937
 70
    32
  0
VERTEX
  5
8AC
330
898
100
AcDbEntity
  8
019R
100
AcDbVertex
100
AcDb3dPolylineVertex
 10
503522.991
 20
189997.529
 30
38.958
 70
    32
  0
VERTEX
  5
8AD
330
898
100
AcDbEntity
  8
019R
100
AcDbVertex
100
AcDb3dPolylineVertex
 10
503522.9
 20
189997.449
 30
38.946
 70
    32
  0
VERTEX
  5
8AE
330
898
100
AcDbEntity
  8
019R
100
AcDbVertex
100
AcDb3dPolylineVertex
 10
503522.77
 20
189997.428
 30
38.948
 70
    32
  0
VERTEX
  5
8AF
330
898
100
AcDbEntity
  8
019R
100
AcDbVertex
100
AcDb3dPolylineVertex
 10
503522.709
 20
189997.416
 30
38.944
 70
    32
  0
VERTEX
  5
8B0
330
898
100
AcDbEntity
  8
019R
100
AcDbVertex
100
AcDb3dPolylineVertex
 10
503522.5820000001
 20
189997.472
 30
38.934
 70
    32
  0
VERTEX
  5
8B1
330
898
100
AcDbEntity
  8
019R
100
AcDbVertex
100
AcDb3dPolylineVertex
 10
503522.2879999999
 20
189997.503
 30
38.891
 70
    32
  0
VERTEX
  5
8B2
330
898
100
AcDbEntity
  8
019R
100
AcDbVertex
100
AcDb3dPolylineVertex
 10
503522.047
 20
189997.578
 30
38.919
 70
    32
  0
VERTEX
  5
8B3
330
898
100
AcDbEntity
  8
019R
100
AcDbVertex
100
AcDb3dPolylineVertex
 10
503521.932
 20
189997.535
 30
38.908
 70
    32
  0
VERTEX
  5
8B4
330
898
100
AcDbEntity
  8
019R
100
AcDbVertex
100
AcDb3dPolylineVertex
 10
503521.805
 20
189997.446
 30
38.927
 70
    32
  0
VERTEX
  5
8B5
330
898
100
AcDbEntity
  8
019R
100
AcDbVertex
100
AcDb3dPolylineVertex
 10
503521.687
 20
189997.51
 30
38.826
 70
    32
  0
SEQEND
  5
8B6
330
898
100
AcDbEntity
  8
019R
  0
POLYLINE
  5
8B7
330
70
100
AcDbEntity
  8
TR04
100
AcDb3dPolyline
 66
     1
 10
0.0
 20
0.0
 30
0.0
 70
     9
  0
VERTEX
  5
8B8
330
8B7
100
AcDbEntity
  8
TR04
100
AcDbVertex
100
AcDb3dPolylineVertex
 10
503467.16
 20
189926.153
 30
40.417
 70
    32
  0
VERTEX
  5
8B9
330
8B7
100
AcDbEntity
  8
TR04
100
AcDbVertex
100
AcDb3dPolylineVertex
 10
503465.4829999999
 20
189925.284
 30
40.724
 70
    32
  0
VERTEX
  5
8BA
330
8B7
100
AcDbEntity
  8
TR04
100
AcDbVertex
100
AcDb3dPolylineVertex
 10
503483.005
 20
189898.008
 30
40.491
 70
    32
  0
VERTEX
  5
8BB
330
8B7
100
AcDbEntity
  8
TR04
100
AcDbVertex
100
AcDb3dPolylineVertex
 10
503484.287
 20
189899.369
 30
40.346
 70
    32
  0
VERTEX
  5
8BC
330
8B7
100
AcDbEntity
  8
TR04
100
AcDbVertex
100
AcDb3dPolylineVertex
 10
503467.16
 20
189926.153
 30
40.417
 70
    32
  0
SEQEND
  5
8BD
330
8B7
100
AcDbEntity
  8
TR04
  0
POLYLINE
  5
8BE
330
70
100
AcDbEntity
  8
SLOT
100
AcDb3dPolyline
 66
     1
 10
0.0
 20
0.0
 30
0.0
 70
     9
  0
VERTEX
  5
8BF
330
8BE
100
AcDbEntity
  8
SLOT
100
AcDbVertex
100
AcDb3dPolylineVertex
 10
503522.118
 20
189997.373
 30
38.903
 70
    32
  0
VERTEX
  5
8C0
330
8BE
100
AcDbEntity
  8
SLOT
100
AcDbVertex
100
AcDb3dPolylineVertex
 10
503521.923
 20
189997.344
 30
38.904
 70
    32
  0
VERTEX
  5
8C1
330
8BE
100
AcDbEntity
  8
SLOT
100
AcDbVertex
100
AcDb3dPolylineVertex
 10
503521.7329999999
 20
189997.309
 30
38.904
 70
    32
  0
VERTEX
  5
8C2
330
8BE
100
AcDbEntity
  8
SLOT
100
AcDbVertex
100
AcDb3dPolylineVertex
 10
503521.44
 20
189997.291
 30
38.87
 70
    32
  0
VERTEX
  5
8C3
330
8BE
100
AcDbEntity
  8
SLOT
100
AcDbVertex
100
AcDb3dPolylineVertex
 10
503521.66
 20
189996.465
 30
38.946
 70
    32
  0
VERTEX
  5
8C4
330
8BE
100
AcDbEntity
  8
SLOT
100
AcDbVertex
100
AcDb3dPolylineVertex
 10
503521.6679999999
 20
189996.444
 30
38.952
 70
    32
  0
VERTEX
  5
8C5
330
8BE
100
AcDbEntity
  8
SLOT
100
AcDbVertex
100
AcDb3dPolylineVertex
 10
503521.795
 20
189996.482
 30
38.937
 70
    32
  0
VERTEX
  5
8C6
330
8BE
100
AcDbEntity
  8
SLOT
100
AcDbVertex
100
AcDb3dPolylineVertex
 10
503522.041
 20
189996.477
 30
38.958
 70
    32
  0
VERTEX
  5
8C7
330
8BE
100
AcDbEntity
  8
SLOT
100
AcDbVertex
100
AcDb3dPolylineVertex
 10
503522.324
 20
189996.553
 30
38.939
 70
    32
  0
SEQEND
  5
8C8
330
8BE
100
AcDbEntity
  8
SLOT
  0
POLYLINE
  5
8C9
330
70
100
AcDbEntity
  8
SLOT
100
AcDb3dPolyline
 66
     1
 10
0.0
 20
0.0
 30
0.0
 70
     9
  0
VERTEX
  5
8CA
330
8C9
100
AcDbEntity
  8
SLOT
100
AcDbVertex
100
AcDb3dPolylineVertex
 10
503522.3406854033
 20
189998.4877021023
 30
38.95076845087522
 70
    32
  0
VERTEX
  5
8CB
330
8C9
100
AcDbEntity
  8
SLOT
100
AcDbVertex
100
AcDb3dPolylineVertex
 10
503522.709
 20
189997.416
 30
38.944
 70
    32
  0
VERTEX
  5
8CC
330
8C9
100
AcDbEntity
  8
SLOT
100
AcDbVertex
100
AcDb3dPolylineVertex
 10
503522.9
 20
189997.449
 30
38.946
 70
    32
  0
VERTEX
  5
8CD
330
8C9
100
AcDbEntity
  8
SLOT
100
AcDbVertex
100
AcDb3dPolylineVertex
 10
503522.991
 20
189997.529
 30
38.958
 70
    32
  0
VERTEX
  5
8CE
330
8C9
100
AcDbEntity
  8
SLOT
100
AcDbVertex
100
AcDb3dPolylineVertex
 10
503523.0220000001
 20
189997.65
 30
38.937
 70
    32
  0
VERTEX
  5
8CF
330
8C9
100
AcDbEntity
  8
SLOT
100
AcDbVertex
100
AcDb3dPolylineVertex
 10
503522.936
 20
189997.77
 30
38.923
 70
    32
  0
VERTEX
  5
8D0
330
8C9
100
AcDbEntity
  8
SLOT
100
AcDbVertex
100
AcDb3dPolylineVertex
 10
503523.05
 20
189997.856
 30
38.926
 70
    32
  0
VERTEX
  5
8D1
330
8C9
100
AcDbEntity
  8
SLOT
100
AcDbVertex
100
AcDb3dPolylineVertex
 10
503523.1420000001
 20
189997.99
 30
38.908
 70
    32
  0
VERTEX
  5
8D2
330
8C9
100
AcDbEntity
  8
SLOT
100
AcDbVertex
100
AcDb3dPolylineVertex
 10
503523.2
 20
189998.135
 30
38.951
 70
    32
  0
VERTEX
  5
8D3
330
8C9
100
AcDbEntity
  8
SLOT
100
AcDbVertex
100
AcDb3dPolylineVertex
 10
503523.177
 20
189998.246
 30
38.973
 70
    32
  0
VERTEX
  5
8D4
330
8C9
100
AcDbEntity
  8
SLOT
100
AcDbVertex
100
AcDb3dPolylineVertex
 10
503523.126
 20
189998.357
 30
38.969
 70
    32
  0
VERTEX
  5
8D5
330
8C9
100
AcDbEntity
  8
SLOT
100
AcDbVertex
100
AcDb3dPolylineVertex
 10
503523.047
 20
189998.482
 30
38.992
 70
    32
  0
VERTEX
  5
8D6
330
8C9
100
AcDbEntity
  8
SLOT
100
AcDbVertex
100
AcDb3dPolylineVertex
 10
503522.941
 20
189998.561
 30
38.984
 70
    32
  0
VERTEX
  5
8D7
330
8C9
100
AcDbEntity
  8
SLOT
100
AcDbVertex
100
AcDb3dPolylineVertex
 10
503522.785
 20
189998.593
 30
38.964
 70
    32
  0
VERTEX
  5
8D8
330
8C9
100
AcDbEntity
  8
SLOT
100
AcDbVertex
100
AcDb3dPolylineVertex
 10
503522.615
 20
189998.588
 30
38.976
 70
    32
  0
VERTEX
  5
8D9
330
8C9
100
AcDbEntity
  8
SLOT
100
AcDbVertex
100
AcDb3dPolylineVertex
 10
503522.463
 20
189998.572
 30
38.983
 70
    32
  0
SEQEND
  5
8DA
330
8C9
100
AcDbEntity
  8
SLOT
  0
LWPOLYLINE
  5
8DB
330
70
100
AcDbEntity
  8
SLOT
100
AcDbPolyline
 90
        5
 70
   129
 43
0.0
 38
38.873
 10
503520.686
 20
189994.293
 10
503520.216
 20
189993.738
 10
503520.329
 20
189993.523
 10
503521.153
 20
189994.02
 10
503520.693
 20
189994.289
  0
TEXT
  5
8DC
330
70
100
AcDbEntity
  8
017R
100
AcDbText
 10
503520.229767246
 20
189996.8950538515
 30
0.0
 40
0.2
  1
[017]
100
AcDbText
  0
TEXT
  5
8DD
330
70
100
AcDbEntity
  8
019R
100
AcDbText
 10
503521.7219683836
 20
189998.614090238
 30
0.0
 40
0.2
  1
[019]
100
AcDbText
  0
TEXT
  5
8DE
330
70
100
AcDbEntity
  8
024R
100
AcDbText
 10
503519.6864158232
 20
189995.3101459387
 30
0.0
 40
0.2
  1
[024]
100
AcDbText
  0
TEXT
  5
8DF
330
70
100
AcDbEntity
  8
025R
100
AcDbText
 10
503464.5482198563
 20
189929.7871457934
 30
0.0
 40
0.2
  1
[025]
100
AcDbText
  0
TEXT
  5
8E0
330
70
100
AcDbEntity
  8
TR04
100
AcDbText
 10
503488.3006329213
 20
189903.2510129895
 30
0.0
 40
1.0
  1
TR04
100
AcDbText
  0
POINT
  5
8E1
330
70
100
AcDbEntity
  8
TR01L
100
AcDbPoint
 10
503426.475
 20
189955.719
 30
43.684
  0
POINT
  5
8E2
330
70
100
AcDbEntity
  8
004L
100
AcDbPoint
 10
503406.68
 20
189942.314
 30
47.552
  0
POINT
  5
8E3
330
70
100
AcDbEntity
  8
001L
100
AcDbPoint
 10
503406.878
 20
189942.271
 30
47.639
  0
POINT
  5
8E4
330
70
100
AcDbEntity
  8
TR01L
100
AcDbPoint
 10
503406.455
 20
189943.137
 30
47.32
  0
POINT
  5
8E5
330
70
100
AcDbEntity
  8
TR01L
100
AcDbPoint
 10
503390.872
 20
189934.012
 30
50.373
  0
POINT
  5
8E6
330
70
100
AcDbEntity
  8
027L
100
AcDbPoint
 10
503455.376
 20
189892.027
 30
43.087
  0
POINT
  5
8E7
330
70
100
AcDbEntity
  8
026L
100
AcDbPoint
 10
503427.361
 20
189922.288
 30
45.369
  0
POLYLINE
  5
8E8
330
70
100
AcDbEntity
  8
026R
100
AcDb3dPolyline
 66
     1
 10
0.0
 20
0.0
 30
0.0
 70
     8
  0
VERTEX
  5
8E9
330
8E8
100
AcDbEntity
  8
026R
100
AcDbVertex
100
AcDb3dPolylineVertex
 10
503429.311
 20
189922.793
 30
45.06399999999999
 70
    32
  0
VERTEX
  5
8EA
330
8E8
100
AcDbEntity
  8
026R
100
AcDbVertex
100
AcDb3dPolylineVertex
 10
503425.577
 20
189922.039
 30
45.529
 70
    32
  0
SEQEND
  5
8EB
330
8E8
100
AcDbEntity
  8
026R
  0
POLYLINE
  5
8EC
330
70
100
AcDbEntity
  8
026U
100
AcDb3dPolyline
 66
     1
 10
0.0
 20
0.0
 30
0.0
 70
     8
  0
VERTEX
  5
8ED
330
8EC
100
AcDbEntity
  8
026U
100
AcDbVertex
100
AcDb3dPolylineVertex
 10
503425.577
 20
189922.039
 30
45.529
 70
    32
  0
VERTEX
  5
8EE
330
8EC
100
AcDbEntity
  8
026U
100
AcDbVertex
100
AcDb3dPolylineVertex
 10
503425.214
 20
189921.665
 30
45.54
 70
    32
  0
SEQEND
  5
8EF
330
8EC
100
AcDbEntity
  8
026U
  0
POLYLINE
  5
8F0
330
70
100
AcDbEntity
  8
026R
100
AcDb3dPolyline
 66
     1
 10
0.0
 20
0.0
 30
0.0
 70
     8
  0
VERTEX
  5
8F1
330
8F0
100
AcDbEntity
  8
026R
100
AcDbVertex
100
AcDb3dPolylineVertex
 10
503425.214
 20
189921.665
 30
45.54
 70
    32
  0
VERTEX
  5
8F2
330
8F0
100
AcDbEntity
  8
026R
100
AcDbVertex
100
AcDb3dPolylineVertex
 10
503428.987
 20
189922.487
 30
45.111
 70
    32
  0
SEQEND
  5
8F3
330
8F0
100
AcDbEntity
  8
026R
  0
POLYLINE
  5
8F4
330
70
100
AcDbEntity
  8
026U
100
AcDb3dPolyline
 66
     1
 10
0.0
 20
0.0
 30
0.0
 70
     8
  0
VERTEX
  5
8F5
330
8F4
100
AcDbEntity
  8
026U
100
AcDbVertex
100
AcDb3dPolylineVertex
 10
503428.987
 20
189922.487
 30
45.111
 70
    32
  0
VERTEX
  5
8F6
330
8F4
100
AcDbEntity
  8
026U
100
AcDbVertex
100
AcDb3dPolylineVertex
 10
503429.315
 20
189922.797
 30
45.073
 70
    32
  0
SEQEND
  5
8F7
330
8F4
100
AcDbEntity
  8
026U
  0
POLYLINE
  5
8F8
330
70
100
AcDbEntity
  8
028R
100
AcDb3dPolyline
 66
     1
 10
0.0
 20
0.0
 30
0.0
 70
     8
  0
VERTEX
  5
8F9
330
8F8
100
AcDbEntity
  8
028R
100
AcDbVertex
100
AcDb3dPolylineVertex
 10
503454.426
 20
189892.493
 30
43.191
 70
    32
  0
VERTEX
  5
8FA
330
8F8
100
AcDbEntity
  8
028R
100
AcDbVertex
100
AcDb3dPolylineVertex
 10
503454.511
 20
189892.569
 30
43.181
 70
    32
  0
VERTEX
  5
8FB
330
8F8
100
AcDbEntity
  8
028R
100
AcDbVertex
100
AcDb3dPolylineVertex
 10
503454.646
 20
189892.596
 30
43.144
 70
    32
  0
VERTEX
  5
8FC
330
8F8
100
AcDbEntity
  8
028R
100
AcDbVertex
100
AcDb3dPolylineVertex
 10
503454.798
 20
189892.642
 30
43.14
 70
    32
  0
VERTEX
  5
8FD
330
8F8
100
AcDbEntity
  8
028R
100
AcDbVertex
100
AcDb3dPolylineVertex
 10
503454.93
 20
189892.617
 30
43.127
 70
    32
  0
VERTEX
  5
8FE
330
8F8
100
AcDbEntity
  8
028R
100
AcDbVertex
100
AcDb3dPolylineVertex
 10
503455.046
 20
189892.585
 30
43.089
 70
    32
  0
VERTEX
  5
8FF
330
8F8
100
AcDbEntity
  8
028R
100
AcDbVertex
100
AcDb3dPolylineVertex
 10
503455.247
 20
189892.471
 30
43.069
 70
    32
  0
VERTEX
  5
900
330
8F8
100
AcDbEntity
  8
028R
100
AcDbVertex
100
AcDb3dPolylineVertex
 10
503455.3529999999
 20
189892.488
 30
43.06
 70
    32
  0
VERTEX
  5
901
330
8F8
100
AcDbEntity
  8
028R
100
AcDbVertex
100
AcDb3dPolylineVertex
 10
503455.506
 20
189892.449
 30
43.057
 70
    32
  0
SEQEND
  5
902
330
8F8
100
AcDbEntity
  8
028R
  0
POLYLINE
  5
903
330
70
100
AcDbEntity
  8
028U
100
AcDb3dPolyline
 66
     1
 10
0.0
 20
0.0
 30
0.0
 70
     8
  0
VERTEX
  5
904
330
903
100
AcDbEntity
  8
028U
100
AcDbVertex
100
AcDb3dPolylineVertex
 10
503455.506
 20
189892.449
 30
43.057
 70
    32
  0
VERTEX
  5
905
330
903
100
AcDbEntity
  8
028U
100
AcDbVertex
100
AcDb3dPolylineVertex
 10
503455.708
 20
189892.117
 30
43.068
 70
    32
  0
SEQEND
  5
906
330
903
100
AcDbEntity
  8
028U
  0
POLYLINE
  5
907
330
70
100
AcDbEntity
  8
028R
100
AcDb3dPolyline
 66
     1
 10
0.0
 20
0.0
 30
0.0
 70
     8
  0
VERTEX
  5
908
330
907
100
AcDbEntity
  8
028R
100
AcDbVertex
100
AcDb3dPolylineVertex
 10
503455.708
 20
189892.117
 30
43.068
 70
    32
  0
VERTEX
  5
909
330
907
100
AcDbEntity
  8
028R
100
AcDbVertex
100
AcDb3dPolylineVertex
 10
503455.683
 20
189891.945
 30
43.099
 70
    32
  0
VERTEX
  5
90A
330
907
100
AcDbEntity
  8
028R
100
AcDbVertex
100
AcDb3dPolylineVertex
 10
503455.566
 20
189891.793
 30
43.107
 70
    32
  0
VERTEX
  5
90B
330
907
100
AcDbEntity
  8
028R
100
AcDbVertex
100
AcDb3dPolylineVertex
 10
503455.429
 20
189891.719
 30
43.126
 70
    32
  0
VERTEX
  5
90C
330
907
100
AcDbEntity
  8
028R
100
AcDbVertex
100
AcDb3dPolylineVertex
 10
503455.281
 20
189891.714
 30
43.137
 70
    32
  0
VERTEX
  5
90D
330
907
100
AcDbEntity
  8
028R
100
AcDbVertex
100
AcDb3dPolylineVertex
 10
503455.132
 20
189891.786
 30
43.145
 70
    32
  0
VERTEX
  5
90E
330
907
100
AcDbEntity
  8
028R
100
AcDbVertex
100
AcDb3dPolylineVertex
 10
503455.009
 20
189891.813
 30
43.155
 70
    32
  0
VERTEX
  5
90F
330
907
100
AcDbEntity
  8
028R
100
AcDbVertex
100
AcDb3dPolylineVertex
 10
503454.826
 20
189891.876
 30
43.148
 70
    32
  0
VERTEX
  5
910
330
907
100
AcDbEntity
  8
028R
100
AcDbVertex
100
AcDb3dPolylineVertex
 10
503454.6629999999
 20
189891.945
 30
43.161
 70
    32
  0
VERTEX
  5
911
330
907
100
AcDbEntity
  8
028R
100
AcDbVertex
100
AcDb3dPolylineVertex
 10
503454.496
 20
189892.033
 30
43.173
 70
    32
  0
VERTEX
  5
912
330
907
100
AcDbEntity
  8
028R
100
AcDbVertex
100
AcDb3dPolylineVertex
 10
503454.401
 20
189892.162
 30
43.178
 70
    32
  0
VERTEX
  5
913
330
907
100
AcDbEntity
  8
028R
100
AcDbVertex
100
AcDb3dPolylineVertex
 10
503454.388
 20
189892.322
 30
43.181
 70
    32
  0
VERTEX
  5
914
330
907
100
AcDbEntity
  8
028R
100
AcDbVertex
100
AcDb3dPolylineVertex
 10
503454.426
 20
189892.493
 30
43.191
 70
    32
  0
SEQEND
  5
915
330
907
100
AcDbEntity
  8
028R
  0
POLYLINE
  5
916
330
70
100
AcDbEntity
  8
028S
100
AcDb3dPolyline
 66
     1
 10
0.0
 20
0.0
 30
0.0
 70
     8
  0
VERTEX
  5
917
330
916
100
AcDbEntity
  8
028S
100
AcDbVertex
100
AcDb3dPolylineVertex
 10
503455.248
 20
189892.482
 30
43.067
 70
    32
  0
VERTEX
  5
918
330
916
100
AcDbEntity
  8
028S
100
AcDbVertex
100
AcDb3dPolylineVertex
 10
503455.208
 20
189892.454
 30
43.005
 70
    32
  0
VERTEX
  5
919
330
916
100
AcDbEntity
  8
028S
100
AcDbVertex
100
AcDb3dPolylineVertex
 10
503455.167
 20
189892.404
 30
42.877
 70
    32
  0
VERTEX
  5
91A
330
916
100
AcDbEntity
  8
028S
100
AcDbVertex
100
AcDb3dPolylineVertex
 10
503455.114
 20
189892.348
 30
42.794
 70
    32
  0
VERTEX
  5
91B
330
916
100
AcDbEntity
  8
028S
100
AcDbVertex
100
AcDb3dPolylineVertex
 10
503455.091
 20
189892.271
 30
42.745
 70
    32
  0
VERTEX
  5
91C
330
916
100
AcDbEntity
  8
028S
100
AcDbVertex
100
AcDb3dPolylineVertex
 10
503455.062
 20
189892.197
 30
42.74
 70
    32
  0
VERTEX
  5
91D
330
916
100
AcDbEntity
  8
028S
100
AcDbVertex
100
AcDb3dPolylineVertex
 10
503455.0429999999
 20
189892.123
 30
42.784
 70
    32
  0
VERTEX
  5
91E
330
916
100
AcDbEntity
  8
028S
100
AcDbVertex
100
AcDb3dPolylineVertex
 10
503455.048
 20
189892.042
 30
42.86
 70
    32
  0
VERTEX
  5
91F
330
916
100
AcDbEntity
  8
028S
100
AcDbVertex
100
AcDb3dPolylineVertex
 10
503455.0170000001
 20
189891.957
 30
42.938
 70
    32
  0
VERTEX
  5
920
330
916
100
AcDbEntity
  8
028S
100
AcDbVertex
100
AcDb3dPolylineVertex
 10
503455.0
 20
189891.91
 30
43.038
 70
    32
  0
VERTEX
  5
921
330
916
100
AcDbEntity
  8
028S
100
AcDbVertex
100
AcDb3dPolylineVertex
 10
503454.99
 20
189891.809
 30
43.145
 70
    32
  0
SEQEND
  5
922
330
916
100
AcDbEntity
  8
028S
  0
POLYLINE
  5
923
330
70
100
AcDbEntity
  8
028B
100
AcDb3dPolyline
 66
     1
 10
0.0
 20
0.0
 30
0.0
 70
     8
  0
VERTEX
  5
924
330
923
100
AcDbEntity
  8
028B
100
AcDbVertex
100
AcDb3dPolylineVertex
 10
503455.092
 20
189892.313
 30
42.767
 70
    32
  0
VERTEX
  5
925
330
923
100
AcDbEntity
  8
028B
100
AcDbVertex
100
AcDb3dPolylineVertex
 10
503455.026
 20
189892.296
 30
42.769
 70
    32
  0
VERTEX
  5
926
330
923
100
AcDbEntity
  8
028B
100
AcDbVertex
100
AcDb3dPolylineVertex
 10
503454.997
 20
189892.237
 30
42.773
 70
    32
  0
VERTEX
  5
927
330
923
100
AcDbEntity
  8
028B
100
AcDbVertex
100
AcDb3dPolylineVertex
 10
503455.015
 20
189892.174
 30
42.769
 70
    32
  0
VERTEX
  5
928
330
923
100
AcDbEntity
  8
028B
100
AcDbVertex
100
AcDb3dPolylineVertex
 10
503455.063
 20
189892.132
 30
42.761
 70
    32
  0
SEQEND
  5
929
330
923
100
AcDbEntity
  8
028B
  0
POLYLINE
  5
92A
330
70
100
AcDbEntity
  8
TR01
100
AcDb3dPolyline
 66
     1
 10
0.0
 20
0.0
 30
0.0
 70
     9
  0
VERTEX
  5
92B
330
92A
100
AcDbEntity
  8
TR01
100
AcDbVertex
100
AcDb3dPolylineVertex
 10
503430.13
 20
189956.856
 30
43.573
 70
    32
  0
VERTEX
  5
92C
330
92A
100
AcDbEntity
  8
TR01
100
AcDbVertex
100
AcDb3dPolylineVertex
 10
503429.153
 20
189958.592
 30
43.617
 70
    32
  0
VERTEX
  5
92D
330
92A
100
AcDbEntity
  8
TR01
100
AcDbVertex
100
AcDb3dPolylineVertex
 10
503388.09
 20
189933.615
 30
51.467
 70
    32
  0
VERTEX
  5
92E
330
92A
100
AcDbEntity
  8
TR01
100
AcDbVertex
100
AcDb3dPolylineVertex
 10
503388.9829999999
 20
189932.033
 30
51.35
 70
    32
  0
VERTEX
  5
92F
330
92A
100
AcDbEntity
  8
TR01
100
AcDbVertex
100
AcDb3dPolylineVertex
 10
503430.13
 20
189956.856
 30
43.573
 70
    32
  0
SEQEND
  5
930
330
92A
100
AcDbEntity
  8
TR01
  0
TEXT
  5
931
330
70
100
AcDbEntity
  8
028R
100
AcDbText
 10
503453.7797444427
 20
189892.7830990264
 30
0.0
 40
0.2
  1
[028]
100
AcDbText
  0
TEXT
  5
932
330
70
100
AcDbEntity
  8
026R
100
AcDbText
 10
503427.0401564526
 20
189922.8461393735
 30
0.0
 40
0.2
  1
[026]
100
AcDbText
  0
TEXT
  5
933
330
70
100
AcDbEntity
  8
TR01
100
AcDbText
 10
503409.3684654914
 20
189950.1040477288
 30
0.0
 40
1.0
  1
TR01
100
AcDbText
  0
POINT
  5
934
330
70
100
AcDbEntity
  8
TR03L
100
AcDbPoint
 10
503407.498
 20
189904.601
 30
48.557
  0
POINT
  5
935
330
70
100
AcDbEntity
  8
002L
100
AcDbPoint
 10
503426.152
 20
189920.096
 30
45.678
  0
POINT
  5
936
330
70
100
AcDbEntity
  8
001L
100
AcDbPoint
 10
503426.271
 20
189920.045
 30
45.79600000000001
  0
POINT
  5
937
330
70
100
AcDbEntity
  8
004L
100
AcDbPoint
 10
503426.134
 20
189920.209
 30
45.46100000000001
  0
POINT
  5
938
330
70
100
AcDbEntity
  8
TR03L
100
AcDbPoint
 10
503426.479
 20
189921.476
 30
45.444
  0
POINT
  5
939
330
70
100
AcDbEntity
  8
TR03L
100
AcDbPoint
 10
503439.102
 20
189932.778
 30
43.251
  0
POINT
  5
93A
330
70
100
AcDbEntity
  8
004L
100
AcDbPoint
 10
503455.658
 20
189888.914
 30
43.327
  0
POINT
  5
93B
330
70
100
AcDbEntity
  8
002L
100
AcDbPoint
 10
503455.686
 20
189888.9
 30
43.562
  0
POINT
  5
93C
330
70
100
AcDbEntity
  8
001L
100
AcDbPoint
 10
503455.5379999999
 20
189888.806
 30
43.88399999999999
  0
POINT
  5
93D
330
70
100
AcDbEntity
  8
TR02L
100
AcDbPoint
 10
503471.2279999999
 20
189867.298
 30
42.417
  0
POINT
  5
93E
330
70
100
AcDbEntity
  8
TR02L
100
AcDbPoint
 10
503456.231
 20
189889.533
 30
43.12
  0
POINT
  5
93F
330
70
100
AcDbEntity
  8
TR02L
100
AcDbPoint
 10
503447.911
 20
189902.524
 30
43.146
  0
POLYLINE
  5
946
330
70
100
AcDbEntity
  8
TR02
100
AcDb3dPolyline
 66
     1
 10
0.0
 20
0.0
 30
0.0
 70
     9
  0
VERTEX
  5
947
330
946
100
AcDbEntity
  8
TR02
100
AcDbVertex
100
AcDb3dPolylineVertex
 10
503474.487
 20
189863.96
 30
42.802
 70
    32
  0
VERTEX
  5
948
330
946
100
AcDbEntity
  8
TR02
100
AcDbVertex
100
AcDb3dPolylineVertex
 10
503472.816
 20
189863.225
 30
43.06399999999999
 70
    32
  0
VERTEX
  5
949
330
946
100
AcDbEntity
  8
TR02
100
AcDbVertex
100
AcDb3dPolylineVertex
 10
503452.195
 20
189894.064
 30
43.95
 70
    32
  0
VERTEX
  5
94A
330
946
100
AcDbEntity
  8
TR02
100
AcDbVertex
100
AcDb3dPolylineVertex
 10
503444.218
 20
189905.283
 30
44.28899999999999
 70
    32
  0
VERTEX
  5
94B
330
946
100
AcDbEntity
  8
TR02
100
AcDbVertex
100
AcDb3dPolylineVertex
 10
503446.807
 20
189907.091
 30
43.876
 70
    32
  0
VERTEX
  5
94C
330
946
100
AcDbEntity
  8
TR02
100
AcDbVertex
100
AcDb3dPolylineVertex
 10
503454.356
 20
189895.427
 30
43.631
 70
    32
  0
VERTEX
  5
94D
330
946
100
AcDbEntity
  8
TR02
100
AcDbVertex
100
AcDb3dPolylineVertex
 10
503474.487
 20
189863.96
 30
42.802
 70
    32
  0
SEQEND
  5
94E
330
946
100
AcDbEntity
  8
TR02
  0
POLYLINE
  5
94F
330
70
100
AcDbEntity
  8
TR03
100
AcDb3dPolyline
 66
     1
 10
0.0
 20
0.0
 30
0.0
 70
     9
  0
VERTEX
  5
950
330
94F
100
AcDbEntity
  8
TR03
100
AcDbVertex
100
AcDb3dPolylineVertex
 10
503405.196
 20
189903.639
 30
49.217
 70
    32
  0
VERTEX
  5
951
330
94F
100
AcDbEntity
  8
TR03
100
AcDbVertex
100
AcDb3dPolylineVertex
 10
503406.446
 20
189902.334
 30
49.113
 70
    32
  0
VERTEX
  5
952
330
94F
100
AcDbEntity
  8
TR03
100
AcDbVertex
100
AcDb3dPolylineVertex
 10
503441.309
 20
189933.314
 30
43.442
 70
    32
  0
VERTEX
  5
953
330
94F
100
AcDbEntity
  8
TR03
100
AcDbVertex
100
AcDb3dPolylineVertex
 10
503440.032
 20
189934.853
 30
43.505
 70
    32
  0
VERTEX
  5
954
330
94F
100
AcDbEntity
  8
TR03
100
AcDbVertex
100
AcDb3dPolylineVertex
 10
503405.196
 20
189903.639
 30
49.217
 70
    32
  0
SEQEND
  5
955
330
94F
100
AcDbEntity
  8
TR03
  0
TEXT
  5
956
330
70
100
AcDbEntity
  8
TR03
100
AcDbText
 10
503419.1654400485
 20
189919.7132006111
 30
0.0
 40
1.0
  1
TR03
100
AcDbText
  0
TEXT
  5
957
330
70
100
AcDbEntity
  8
TR02
100
AcDbText
 10
503448.4303866532
 20
189890.2347178052
 30
0.0
 40
1.0
  1
TR02
100
AcDbText
  0
POLYLINE
  5
958
330
70
100
AcDbEntity
  8
SLOT
100
AcDb3dPolyline
 66
     1
 10
0.0
 20
0.0
 30
0.0
 70
     9
  0
VERTEX
  5
959
330
958
100
AcDbEntity
  8
SLOT
100
AcDbVertex
100
AcDb3dPolylineVertex
 10
503455.248
 20
189892.482
 30
43.067
 70
    32
  0
VERTEX
  5
95A
330
958
100
AcDbEntity
  8
SLOT
100
AcDbVertex
100
AcDb3dPolylineVertex
 10
503455.046
 20
189892.585
 30
43.089
 70
    32
  0
VERTEX
  5
95B
330
958
100
AcDbEntity
  8
SLOT
100
AcDbVertex
100
AcDb3dPolylineVertex
 10
503454.798
 20
189892.642
 30
43.14
 70
    32
  0
VERTEX
  5
95C
330
958
100
AcDbEntity
  8
SLOT
100
AcDbVertex
100
AcDb3dPolylineVertex
 10
503454.646
 20
189892.596
 30
43.144
 70
    32
  0
VERTEX
  5
95D
330
958
100
AcDbEntity
  8
SLOT
100
AcDbVertex
100
AcDb3dPolylineVertex
 10
503454.511
 20
189892.569
 30
43.181
 70
    32
  0
VERTEX
  5
95E
330
958
100
AcDbEntity
  8
SLOT
100
AcDbVertex
100
AcDb3dPolylineVertex
 10
503454.426
 20
189892.493
 30
43.191
 70
    32
  0
VERTEX
  5
95F
330
958
100
AcDbEntity
  8
SLOT
100
AcDbVertex
100
AcDb3dPolylineVertex
 10
503454.388
 20
189892.322
 30
43.181
 70
    32
  0
VERTEX
  5
960
330
958
100
AcDbEntity
  8
SLOT
100
AcDbVertex
100
AcDb3dPolylineVertex
 10
503454.401
 20
189892.162
 30
43.178
 70
    32
  0
VERTEX
  5
961
330
958
100
AcDbEntity
  8
SLOT
100
AcDbVertex
100
AcDb3dPolylineVertex
 10
503454.496
 20
189892.033
 30
43.173
 70
    32
  0
VERTEX
  5
962
330
958
100
AcDbEntity
  8
SLOT
100
AcDbVertex
100
AcDb3dPolylineVertex
 10
503454.6629999999
 20
189891.945
 30
43.161
 70
    32
  0
VERTEX
  5
963
330
958
100
AcDbEntity
  8
SLOT
100
AcDbVertex
100
AcDb3dPolylineVertex
 10
503454.826
 20
189891.876
 30
43.148
 70
    32
  0
VERTEX
  5
964
330
958
100
AcDbEntity
  8
SLOT
100
AcDbVertex
100
AcDb3dPolylineVertex
 10
503454.99
 20
189891.809
 30
43.145
 70
    32
  0
SEQEND
  5
965
330
958
100
AcDbEntity
  8
SLOT
  0
ENDSEC
  0
SECTION
  2
OBJECTS
  0
DICTIONARY
  5
C
330
0
100
AcDbDictionary
281
     1
  3
ACAD_CIP_PREVIOUS_PRODUCT_INFO
350
7B
  3
ACAD_COLOR
350
63
  3
ACAD_DETAILVIEWSTYLE
350
6A
  3
ACAD_GROUP
350
D
  3
ACAD_LAYOUT
350
62
  3
ACAD_MATERIAL
350
10
  3
ACAD_MLEADERSTYLE
350
66
  3
ACAD_MLINESTYLE
350
5F
  3
ACAD_PLOTSETTINGS
350
61
  3
ACAD_PLOTSTYLENAME
350
E
  3
ACAD_SCALELIST
350
42
  3
ACAD_SECTIONVIEWSTYLE
350
68
  3
ACAD_TABLESTYLE
350
64
  3
ACAD_VISUALSTYLE
350
29
  3
ACDB_RECOMPOSE_DATA
350
AC4
  3
AcDbVariableDictionary
350
AAB
  3
CLWX_PNTBLK_LIST
350
AB5
  0
DICTIONARY
  5
B1
330
2
100
AcDbDictionary
280
     1
281
     1
  3
ACAD_LAYERSTATES
360
B2
  0
DICTIONARY
  5
97F
330
70
100
AcDbDictionary
280
     1
281
     1
  3
ACAD_SORTENTS
360
980
  0
XRECORD
  5
7B
102
{ACAD_REACTORS
330
C
102
}
330
C
100
AcDbXrecord
280
     1
300
ACD
300
2014
300
86063ACD_2014_0F
  0
DICTIONARY
  5
63
102
{ACAD_REACTORS
330
C
102
}
330
C
100
AcDbDictionary
281
     1
  0
DICTIONARY
  5
6A
102
{ACAD_REACTORS
330
C
102
}
330
C
100
AcDbDictionary
281
     1
  3
Imperial24
350
19C
  3
Metric50
350
6B
  0
DICTIONARY
  5
D
102
{ACAD_REACTORS
330
C
102
}
330
C
100
AcDbDictionary
281
     1
  0
DICTIONARY
  5
62
102
{ACAD_REACTORS
330
C
102
}
330
C
100
AcDbDictionary
281
     1
  3
Layout1
350
6F
  3
Layout2
350
77
  3
Model
350
73
  0
DICTIONARY
  5
10
102
{ACAD_REACTORS
330
C
102
}
330
C
100
AcDbDictionary
281
     1
  3
ByBlock
350
19
  3
ByLayer
350
11
  3
Global
350
21
  0
DICTIONARY
  5
66
102
{ACAD_REACTORS
330
C
102
}
330
C
100
AcDbDictionary
281
     1
  3
Standard
350
67
  0
DICTIONARY
  5
5F
102
{ACAD_REACTORS
330
C
102
}
330
C
100
AcDbDictionary
281
     1
  3
Standard
350
60
  0
DICTIONARY
  5
61
102
{ACAD_REACTORS
330
C
102
}
330
C
100
AcDbDictionary
281
     1
  0
ACDBDICTIONARYWDFLT
  5
E
102
{ACAD_REACTORS
330
C
102
}
330
C
100
AcDbDictionary
281
     1
  3
Normal
350
F
100
AcDbDictionaryWithDefault
340
F
  0
DICTIONARY
  5
42
102
{ACAD_REACTORS
330
C
102
}
330
C
100
AcDbDictionary
281
     1
  3
A0
350
43
  3
A1
350
44
  3
A2
350
45
  3
A3
350
46
  3
A4
350
47
  3
A5
350
48
  3
A6
350
49
  3
A7
350
4A
  3
A8
350
4B
  3
A9
350
4C
  3
B0
350
4D
  3
B1
350
4E
  3
B2
350
4F
  3
B3
350
50
  3
B4
350
51
  3
B5
350
52
  3
B6
350
53
  0
DICTIONARY
  5
68
102
{ACAD_REACTORS
330
C
102
}
330
C
100
AcDbDictionary
281
     1
  3
Imperial24
350
19B
  3
Metric50
350
69
  0
DICTIONARY
  5
64
102
{ACAD_REACTORS
330
C
102
}
330
C
100
AcDbDictionary
281
     1
  3
Standard
350
65
  0
DICTIONARY
  5
29
102
{ACAD_REACTORS
330
C
102
}
330
C
100
AcDbDictionary
281
     1
  3
2dWireframe
350
2F
  3
Basic
350
2E
  3
Brighten
350
35
  3
ColorChange
350
39
  3
Conceptual
350
32
  3
Dim
350
34
  3
EdgeColorOff
350
41
  3
Facepattern
350
38
  3
Flat
350
2A
  3
FlatWithEdges
350
2B
  3
Gouraud
350
2C
  3
GouraudWithEdges
350
2D
  3
Hidden
350
31
  3
JitterOff
350
3F
  3
Linepattern
350
37
  3
OverhangOff
350
40
  3
Realistic
350
33
  3
Shaded
350
3E
  3
Shaded with edges
350
3D
  3
Shades of Gray
350
3A
  3
Sketchy
350
3B
  3
Thicken
350
36
  3
Wireframe
350
30
  3
X-Ray
350
3C
  0
XRECORD
  5
AC4
102
{ACAD_REACTORS
330
C
102
}
330
C
100
AcDbXrecord
280
     1
 90
        1
330
65
  0
DICTIONARY
  5
AAB
102
{ACAD_REACTORS
330
C
102
}
330
C
100
AcDbDictionary
281
     1
  3
CANNOSCALE
350
AB0
  3
CMLEADERSTYLE
350
AAD
  3
CTABLESTYLE
350
AAC
  3
CVIEWDETAILSTYLE
350
AAE
  3
CVIEWSECTIONSTYLE
350
AAF
  0
DICTIONARY
  5
AB5
102
{ACAD_REACTORS
330
C
102
}
330
C
100
AcDbDictionary
281
     1
  0
DICTIONARY
  5
B2
102
{ACAD_REACTORS
330
B1
102
}
330
B1
100
AcDbDictionary
281
     1
  0
SORTENTSTABLE
  5
980
102
{ACAD_REACTORS
330
97F
102
}
330
97F
100
AcDbSortentsTable
330
70
331
5EE
  5
5EE
331
5EF
  5
5EF
331
5F0
  5
5F0
331
5F1
  5
5F1
331
5F2
  5
5F2
331
5F3
  5
5F3
331
5F4
  5
5F4
331
5F5
  5
5F5
331
5F6
  5
5F6
331
5FD
  5
5FD
331
605
  5
605
331
606
  5
606
331
607
  5
607
331
608
  5
608
331
609
  5
609
331
60A
  5
60A
331
60B
  5
60B
331
60C
  5
60C
331
60D
  5
60D
331
618
  5
618
331
61F
  5
61F
331
620
  5
620
331
62A
  5
62A
331
62B
  5
62B
331
62C
  5
62C
331
634
  5
634
331
638
  5
638
331
63C
  5
63C
331
643
  5
643
331
647
  5
647
331
65A
  5
65A
331
660
  5
660
331
667
  5
667
331
670
  5
670
331
674
  5
674
331
67C
  5
67C
331
680
  5
680
331
688
  5
688
331
68D
  5
68D
331
692
  5
692
331
6A1
  5
6A1
331
6A2
  5
6A2
331
6A3
  5
6A3
331
6A4
  5
6A4
331
6A5
  5
6A5
331
6A6
  5
6A6
331
6A7
  5
6A7
331
6A8
  5
6A8
331
6A9
  5
6A9
331
6AA
  5
6AA
331
6AB
  5
6AB
331
6AC
  5
6AC
331
6AD
  5
6AD
331
6C7
  5
6C7
331
6CE
  5
6CE
331
6D5
  5
6D5
331
6D6
  5
6D6
331
6D8
  5
6E0
331
6D9
  5
6E1
331
6DA
  5
6E2
331
6DB
  5
6E3
331
6DC
  5
6F3
331
6DD
  5
6F9
331
6DE
  5
6FF
331
6DF
  5
700
331
6E0
  5
701
331
6E1
  5
702
331
6E2
  5
703
331
6E3
  5
704
331
6F3
  5
705
331
6F9
  5
706
331
700
  5
708
331
701
  5
709
331
702
  5
70A
331
703
  5
70B
331
704
  5
70C
331
705
  5
70D
331
706
  5
70E
331
707
  5
70F
331
708
  5
710
331
709
  5
711
331
70A
  5
712
331
70B
  5
718
331
70C
  5
71C
331
70D
  5
72B
331
70E
  5
736
331
70F
  5
73E
331
710
  5
742
331
711
  5
746
331
718
  5
75B
331
71C
  5
762
331
72B
  5
769
331
736
  5
76A
331
73E
  5
76B
331
742
  5
76C
331
746
  5
76D
331
754
  5
775
331
75B
  5
779
331
762
  5
784
331
769
  5
788
331
76A
  5
790
331
76B
  5
798
331
76C
  5
7A8
331
76D
  5
7AC
331
775
  5
7B0
331
779
  5
7B4
331
784
  5
7B8
331
788
  5
7B9
331
790
  5
7BA
331
798
  5
7C5
331
7A8
  5
7CE
331
7AC
  5
7CF
331
7B0
  5
7D0
331
7B4
  5
7D1
331
7B8
  5
7D2
331
7B9
  5
7D3
331
7BA
  5
7D4
331
7C5
  5
7D5
331
7CE
  5
7E3
331
7CF
  5
7E7
331
7D0
  5
7F3
331
7D1
  5
7F7
331
7D2
  5
7FD
331
7D3
  5
802
331
7D4
  5
811
331
7D5
  5
817
331
7E3
  5
81D
331
7E7
  5
828
331
7F3
  5
82E
331
7F7
  5
835
331
7FD
  5
845
331
802
  5
854
331
811
  5
860
331
817
  5
864
331
81D
  5
868
331
828
  5
86C
331
82E
  5
870
331
835
  5
877
331
845
  5
898
331
854
  5
8B7
331
860
  5
8BE
331
864
  5
8C9
331
868
  5
8DB
331
86C
  5
8DC
331
870
  5
8DD
331
877
  5
8DE
331
898
  5
8DF
331
8B7
  5
8E0
331
8BE
  5
8E1
331
8C9
  5
8E2
331
8DB
  5
8E3
331
8DC
  5
8E4
331
8DD
  5
8E5
331
8DE
  5
8E6
331
8DF
  5
8E7
331
8E0
  5
8E8
331
8E1
  5
8EC
331
8E2
  5
8F0
331
8E3
  5
8F4
331
8E4
  5
8F8
331
8E5
  5
903
331
8E6
  5
907
331
8E7
  5
916
331
8E8
  5
923
331
8EC
  5
92A
331
8F0
  5
931
331
8F4
  5
932
331
8F8
  5
933
331
903
  5
934
331
907
  5
935
331
916
  5
936
331
923
  5
937
331
92A
  5
938
331
931
  5
939
331
932
  5
93A
331
933
  5
93B
331
934
  5
93C
331
935
  5
93D
331
936
  5
93E
331
937
  5
93F
331
938
  5
946
331
939
  5
94F
331
93A
  5
956
331
93B
  5
957
331
93C
  5
958
331
93D
  5
975
331
93E
  5
976
331
93F
  5
977
331
946
  5
978
331
94F
  5
979
331
956
  5
97A
331
957
  5
97B
331
958
  5
97C
  0
ACDBDETAILVIEWSTYLE
  5
19C
102
{ACAD_REACTORS
330
6A
102
}
102
{ACAD_XDICTIONARY
360
AA8
102
}
330
6A
100
AcDbModelDocViewStyle
 70
     0
  3
Imperial24
290
     0
300
Imperial24
 90
        0
100
AcDbDetailViewStyle
 70
     0
 71
     0
 90
        3
 71
     1
340
55
 62
   256
 40
0.24
340
0
 62
   256
 40
0.24
300

 40
0.36
280
     3
 71
     2
340
5D
 90
       25
 62
   256
 71
     3
340
55
 62
   256
 40
0.24
 90
        1
 40
0.75
 90
        1
300
%<\AcVar ViewType \f "%tc1">% %<\AcVar ViewDetailId>%\PSCALE %<\AcVar ViewScale \f "%sn">%
 71
     4
340
5D
 90
       25
 62
   256
340
5D
 90
       25
 62
   256
280
     0
  0
ACDBDETAILVIEWSTYLE
  5
6B
102
{ACAD_REACTORS
330
6A
102
}
102
{ACAD_XDICTIONARY
360
AA4
102
}
330
6A
100
AcDbModelDocViewStyle
 70
     0
  3
Metric50
290
     0
300
Metric50
 90
        0
100
AcDbDetailViewStyle
 70
     0
 71
     0
 90
        3
 71
     1
340
55
 62
   256
 40
5.0
340
0
 62
   256
 40
5.0
300

 40
0.36
280
     1
 71
     2
340
5D
 90
       25
 62
   256
 71
     3
340
55
 62
   256
 40
5.0
 90
        0
 40
15.0
 90
        1
300
%<\AcVar ViewDetailId>% (%<\AcVar ViewScale \f "%sn">%)
 71
     4
340
5D
 90
       25
 62
   256
340
5D
 90
       25
 62
   256
280
     0
  0
LAYOUT
  5
6F
102
{ACAD_REACTORS
330
62
102
}
330
62
100
AcDbPlotSettings
  1

  2
CutePDF Writer
  4

  6

 40
0.0
 41
0.0
 42
0.0
 43
0.0
 44
0.0
 45
0.0
 46
0.0
 47
0.0
 48
0.0
 49
0.0
140
0.0
141
0.0
142
1.0
143
1.0
 70
   688
 72
     0
 73
     0
 74
     5
  7

 75
    16
 76
     0
 77
     2
 78
   300
147
1.0
148
0.0
149
0.0
100
AcDbLayout
  1
Layout1
 70
     1
 71
     1
 10
0.0
 20
0.0
 11
420.0
 21
297.0
 12
0.0
 22
0.0
 32
0.0
 14
1.000000000000000E+20
 24
1.000000000000000E+20
 34
1.000000000000000E+20
 15
-1.000000000000000E+20
 25
-1.000000000000000E+20
 35
-1.000000000000000E+20
146
0.0
 13
0.0
 23
0.0
 33
0.0
 16
1.0
 26
0.0
 36
0.0
 17
0.0
 27
1.0
 37
0.0
 76
     0
330
6C
  0
LAYOUT
  5
77
102
{ACAD_REACTORS
330
62
102
}
330
62
100
AcDbPlotSettings
  1

  2
CutePDF Writer
  4

  6

 40
0.0
 41
0.0
 42
0.0
 43
0.0
 44
0.0
 45
0.0
 46
0.0
 47
0.0
 48
0.0
 49
0.0
140
0.0
141
0.0
142
1.0
143
1.0
 70
   688
 72
     0
 73
     0
 74
     5
  7

 75
    16
 76
     0
 77
     2
 78
   300
147
1.0
148
0.0
149
0.0
100
AcDbLayout
  1
Layout2
 70
     1
 71
     2
 10
0.0
 20
0.0
 11
12.0
 21
9.0
 12
0.0
 22
0.0
 32
0.0
 14
0.0
 24
0.0
 34
0.0
 15
0.0
 25
0.0
 35
0.0
146
0.0
 13
0.0
 23
0.0
 33
0.0
 16
1.0
 26
0.0
 36
0.0
 17
0.0
 27
1.0
 37
0.0
 76
     0
330
74
  0
LAYOUT
  5
73
102
{ACAD_REACTORS
330
62
102
}
330
62
100
AcDbPlotSettings
  1

  2
CutePDF Writer
  4

  6

 40
0.0
 41
0.0
 42
0.0
 43
0.0
 44
0.0
 45
0.0
 46
0.0
 47
0.0
 48
0.0
 49
0.0
140
0.0
141
0.0
142
1.0
143
1.0
 70
  1712
 72
     0
 73
     0
 74
     0
  7

 75
     0
 76
     0
 77
     2
 78
   300
147
1.0
148
0.0
149
0.0
100
AcDbLayout
  1
Model
 70
     1
 71
     0
 10
0.0
 20
0.0
 11
12.0
 21
9.0
 12
0.0
 22
0.0
 32
0.0
 14
0.0
 24
0.0
 34
0.0
 15
0.0
 25
0.0
 35
0.0
146
0.0
 13
0.0
 23
0.0
 33
0.0
 16
1.0
 26
0.0
 36
0.0
 17
0.0
 27
1.0
 37
0.0
 76
     0
330
70
331
57
  0
MATERIAL
  5
19
102
{ACAD_REACTORS
330
10
102
}
330
10
100
AcDbMaterial
  1
ByBlock
 72
     0
 73
     2
 43
0.0208333333333333
 43
0.0
 43
0.0
 43
0.0
 43
0.0
 43
0.0208333333333333
 43
0.0
 43
0.0
 43
0.0
 43
0.0
 43
1.0
 43
0.0
 43
0.0
 43
0.0
 43
0.0
 43
1.0
 77
     0
 78
     2
 47
0.0208333333333333
 47
0.0
 47
0.0
 47
0.0
 47
0.0
 47
0.0208333333333333
 47
0.0
 47
0.0
 47
0.0
 47
0.0
 47
1.0
 47
0.0
 47
0.0
 47
0.0
 47
0.0
 47
1.0
171
     0
172
     2
 49
0.0208333333333333
 49
0.0
 49
0.0
 49
0.0
 49
0.0
 49
0.0208333333333333
 49
0.0
 49
0.0
 49
0.0
 49
0.0
 49
1.0
 49
0.0
 49
0.0
 49
0.0
 49
0.0
 49
1.0
175
     0
176
     2
142
0.0208333333333333
142
0.0
142
0.0
142
0.0
142
0.0
142
0.0208333333333333
142
0.0
142
0.0
142
0.0
142
0.0
142
1.0
142
0.0
142
0.0
142
0.0
142
0.0
142
1.0
179
     0
270
     2
144
0.0208333333333333
144
0.0
144
0.0
144
0.0
144
0.0
144
0.0208333333333333
144
0.0
144
0.0
144
0.0
144
0.0
144
1.0
144
0.0
144
0.0
144
0.0
144
0.0
144
1.0
274
     2
147
0.0208333333333333
147
0.0
147
0.0
147
0.0
147
0.0
147
0.0208333333333333
147
0.0
147
0.0
147
0.0
147
0.0
147
1.0
147
0.0
147
0.0
147
0.0
147
0.0
147
1.0
 94
      127
  0
MATERIAL
  5
11
102
{ACAD_REACTORS
330
10
102
}
330
10
100
AcDbMaterial
  1
ByLayer
 72
     0
 73
     2
 43
0.0208333333333333
 43
0.0
 43
0.0
 43
0.0
 43
0.0
 43
0.0208333333333333
 43
0.0
 43
0.0
 43
0.0
 43
0.0
 43
1.0
 43
0.0
 43
0.0
 43
0.0
 43
0.0
 43
1.0
 77
     0
 78
     2
 47
0.0208333333333333
 47
0.0
 47
0.0
 47
0.0
 47
0.0
 47
0.0208333333333333
 47
0.0
 47
0.0
 47
0.0
 47
0.0
 47
1.0
 47
0.0
 47
0.0
 47
0.0
 47
0.0
 47
1.0
171
     0
172
     2
 49
0.0208333333333333
 49
0.0
 49
0.0
 49
0.0
 49
0.0
 49
0.0208333333333333
 49
0.0
 49
0.0
 49
0.0
 49
0.0
 49
1.0
 49
0.0
 49
0.0
 49
0.0
 49
0.0
 49
1.0
175
     0
176
     2
142
0.0208333333333333
142
0.0
142
0.0
142
0.0
142
0.0
142
0.0208333333333333
142
0.0
142
0.0
142
0.0
142
0.0
142
1.0
142
0.0
142
0.0
142
0.0
142
0.0
142
1.0
179
     0
270
     2
144
0.0208333333333333
144
0.0
144
0.0
144
0.0
144
0.0
144
0.0208333333333333
144
0.0
144
0.0
144
0.0
144
0.0
144
1.0
144
0.0
144
0.0
144
0.0
144
0.0
144
1.0
274
     2
147
0.0208333333333333
147
0.0
147
0.0
147
0.0
147
0.0
147
0.0208333333333333
147
0.0
147
0.0
147
0.0
147
0.0
147
1.0
147
0.0
147
0.0
147
0.0
147
0.0
147
1.0
 94
      127
  0
MATERIAL
  5
21
102
{ACAD_REACTORS
330
10
102
}
330
10
100
AcDbMaterial
  1
Global
 72
     0
 73
     2
 43
0.0208333333333333
 43
0.0
 43
0.0
 43
0.0
 43
0.0
 43
0.0208333333333333
 43
0.0
 43
0.0
 43
0.0
 43
0.0
 43
1.0
 43
0.0
 43
0.0
 43
0.0
 43
0.0
 43
1.0
 77
     0
 78
     2
 47
0.0208333333333333
 47
0.0
 47
0.0
 47
0.0
 47
0.0
 47
0.0208333333333333
 47
0.0
 47
0.0
 47
0.0
 47
0.0
 47
1.0
 47
0.0
 47
0.0
 47
0.0
 47
0.0
 47
1.0
171
     0
172
     2
 49
0.0208333333333333
 49
0.0
 49
0.0
 49
0.0
 49
0.0
 49
0.0208333333333333
 49
0.0
 49
0.0
 49
0.0
 49
0.0
 49
1.0
 49
0.0
 49
0.0
 49
0.0
 49
0.0
 49
1.0
175
     0
176
     2
142
0.0208333333333333
142
0.0
142
0.0
142
0.0
142
0.0
142
0.0208333333333333
142
0.0
142
0.0
142
0.0
142
0.0
142
1.0
142
0.0
142
0.0
142
0.0
142
0.0
142
1.0
179
     0
270
     2
144
0.0208333333333333
144
0.0
144
0.0
144
0.0
144
0.0
144
0.0208333333333333
144
0.0
144
0.0
144
0.0
144
0.0
144
1.0
144
0.0
144
0.0
144
0.0
144
0.0
144
1.0
274
     2
147
0.0208333333333333
147
0.0
147
0.0
147
0.0
147
0.0
147
0.0208333333333333
147
0.0
147
0.0
147
0.0
147
0.0
147
1.0
147
0.0
147
0.0
147
0.0
147
0.0
147
1.0
 94
      127
  0
MLEADERSTYLE
  5
67
102
{ACAD_REACTORS
330
66
102
}
330
66
100
AcDbMLeaderStyle
179
     2
170
     2
171
     1
172
     0
 90
        2
 40
0.0
 41
0.0
173
     1
 91
-1056964608
340
5B
 92
       -2
290
     1
 42
0.09
291
     1
 43
0.36
  3
Standard
341
0
 44
0.18
300

342
55
174
     1
178
     6
175
     1
176
     0
 93
-1056964608
 45
0.18
292
     0
297
     0
 46
0.18
343
0
 94
-1056964608
 47
1.0
 49
1.0
140
1.0
293
     1
141
0.0
294
     1
177
     0
142
1.0
295
     1
296
     0
143
0.125
271
     0
272
     9
273
     9
298
     1
  0
MLINESTYLE
  5
60
102
{ACAD_REACTORS
330
5F
102
}
330
5F
100
AcDbMlineStyle
  2
STANDARD
 70
     0
  3

 62
   256
 51
90.0
 52
90.0
 71
     2
 49
0.5
 62
   256
  6
BYLAYER
 49
-0.5
 62
   256
  6
BYLAYER
  0
ACDBPLACEHOLDER
  5
F
102
{ACAD_REACTORS
330
E
102
}
330
E
  0
SCALE
  5
43
102
{ACAD_REACTORS
330
42
102
}
330
42
100
AcDbScale
 70
     0
300
1:1
140
1.0
141
1.0
290
     1
  0
SCALE
  5
44
102
{ACAD_REACTORS
330
42
102
}
330
42
100
AcDbScale
 70
     0
300
1:2
140
1.0
141
2.0
290
     0
  0
SCALE
  5
45
102
{ACAD_REACTORS
330
42
102
}
330
42
100
AcDbScale
 70
     0
300
1:4
140
1.0
141
4.0
290
     0
  0
SCALE
  5
46
102
{ACAD_REACTORS
330
42
102
}
330
42
100
AcDbScale
 70
     0
300
1:5
140
1.0
141
5.0
290
     0
  0
SCALE
  5
47
102
{ACAD_REACTORS
330
42
102
}
330
42
100
AcDbScale
 70
     0
300
1:8
140
1.0
141
8.0
290
     0
  0
SCALE
  5
48
102
{ACAD_REACTORS
330
42
102
}
330
42
100
AcDbScale
 70
     0
300
1:10
140
1.0
141
10.0
290
     0
  0
SCALE
  5
49
102
{ACAD_REACTORS
330
42
102
}
330
42
100
AcDbScale
 70
     0
300
1:16
140
1.0
141
16.0
290
     0
  0
SCALE
  5
4A
102
{ACAD_REACTORS
330
42
102
}
330
42
100
AcDbScale
 70
     0
300
1:20
140
1.0
141
20.0
290
     0
  0
SCALE
  5
4B
102
{ACAD_REACTORS
330
42
102
}
330
42
100
AcDbScale
 70
     0
300
1:30
140
1.0
141
30.0
290
     0
  0
SCALE
  5
4C
102
{ACAD_REACTORS
330
42
102
}
330
42
100
AcDbScale
 70
     0
300
1:40
140
1.0
141
40.0
290
     0
  0
SCALE
  5
4D
102
{ACAD_REACTORS
330
42
102
}
330
42
100
AcDbScale
 70
     0
300
1:50
140
1.0
141
50.0
290
     0
  0
SCALE
  5
4E
102
{ACAD_REACTORS
330
42
102
}
330
42
100
AcDbScale
 70
     0
300
1:100
140
1.0
141
100.0
290
     0
  0
SCALE
  5
4F
102
{ACAD_REACTORS
330
42
102
}
330
42
100
AcDbScale
 70
     0
300
2:1
140
2.0
141
1.0
290
     0
  0
SCALE
  5
50
102
{ACAD_REACTORS
330
42
102
}
330
42
100
AcDbScale
 70
     0
300
4:1
140
4.0
141
1.0
290
     0
  0
SCALE
  5
51
102
{ACAD_REACTORS
330
42
102
}
330
42
100
AcDbScale
 70
     0
300
8:1
140
8.0
141
1.0
290
     0
  0
SCALE
  5
52
102
{ACAD_REACTORS
330
42
102
}
330
42
100
AcDbScale
 70
     0
300
10:1
140
10.0
141
1.0
290
     0
  0
SCALE
  5
53
102
{ACAD_REACTORS
330
42
102
}
330
42
100
AcDbScale
 70
     0
300
100:1
140
100.0
141
1.0
290
     0
  0
ACDBSECTIONVIEWSTYLE
  5
19B
102
{ACAD_REACTORS
330
68
102
}
102
{ACAD_XDICTIONARY
360
AA6
102
}
330
68
100
AcDbModelDocViewStyle
 70
     0
  3
Imperial24
290
     0
300
Imperial24
 90
        0
100
AcDbSectionViewStyle
 70
     0
 71
     0
 90
       78
 71
     1
340
55
 62
   256
 40
0.24
340
0
340
0
 62
   256
 40
0.24
300
I, O, Q, S, X, Z
 40
0.48
 90
        3
 40
0.18
 90
        1
 71
     2
340
5D
 90
       25
 62
   256
340
5D
 90
       50
 62
   256
 40
0.24
 40
0.0
 40
0.24
 71
     3
340
55
 62
   256
 40
0.24
 90
        1
 40
0.75
 90
        1
300
%<\AcVar ViewType \f "%tc1">% %<\AcVar ViewSectionStartId>%-%<\AcVar ViewSectionEndId>%\PSCALE %<\AcVar ViewScale \f "%sn">%
 71
     4
 62
   256
 62
   257
300
ANSI31
 40
1.0
 90
        0
290
     0
290
     0
 90
        6
 40
0.0
 40
1.570796326794897
 40
0.2617993877991494
 40
1.308996938995747
 40
-0.2617993877991494
 40
1.832595714594046
  0
ACDBSECTIONVIEWSTYLE
  5
69
102
{ACAD_REACTORS
330
68
102
}
102
{ACAD_XDICTIONARY
360
AA2
102
}
330
68
100
AcDbModelDocViewStyle
 70
     0
  3
Metric50
290
     0
300
Metric50
 90
        0
100
AcDbSectionViewStyle
 70
     0
 71
     0
 90
      102
 71
     1
340
55
 62
   256
 40
5.0
340
0
340
0
 62
   256
 40
5.0
300
I, O, Q, S, X, Z
 40
10.0
 90
        0
 40
2.5
 90
        0
 71
     2
340
5D
 90
       25
 62
   256
340
5D
 90
       50
 62
   256
 40
5.0
 40
2.5
 40
5.0
 71
     3
340
55
 62
   256
 40
5.0
 90
        0
 40
15.0
 90
        1
300
%<\AcVar ViewSectionStartId>%-%<\AcVar ViewSectionEndId>% (%<\AcVar ViewScale \f "%sn">%)
 71
     4
 62
   256
 62
   257
300
ANSI31
 40
1.0
 90
        0
290
     0
290
     0
 90
        6
 40
0.0
 40
1.570796326794897
 40
0.2617993877991494
 40
1.308996938995747
 40
-0.2617993877991494
 40
1.832595714594046
  0
TABLESTYLE
  5
65
102
{ACAD_REACTORS
330
64
102
}
102
{ACAD_XDICTIONARY
360
AC2
102
}
330
64
100
AcDbTableStyle
  3
Standard
 70
     0
 71
     0
 40
1.5
 41
1.5
280
     0
281
     0
  7
Standard
140
4.5
170
     2
 62
     0
 63
   257
283
     0
 90
      512
 91
        0
  1

274
    -2
284
     1
 64
     0
275
    -2
285
     1
 65
     0
276
    -2
286
     1
 66
     0
277
    -2
287
     1
 67
     0
278
    -2
288
     1
 68
     0
279
    -2
289
     1
 69
     0
  7
Standard
140
6.0
170
     5
 62
     0
 63
   257
283
     0
 90
      512
 91
        0
  1

274
    -2
284
     1
 64
     0
275
    -2
285
     1
 65
     0
276
    -2
286
     1
 66
     0
277
    -2
287
     1
 67
     0
278
    -2
288
     1
 68
     0
279
    -2
289
     1
 69
     0
  7
Standard
140
4.5
170
     5
 62
     0
 63
   257
283
     0
 90
      512
 91
        0
  1

274
    -2
284
     1
 64
     0
275
    -2
285
     1
 65
     0
276
    -2
286
     1
 66
     0
277
    -2
287
     1
 67
     0
278
    -2
288
     1
 68
     0
279
    -2
289
     1
 69
     0
  0
VISUALSTYLE
  5
2F
102
{ACAD_REACTORS
330
29
102
}
330
29
100
AcDbVisualStyle
  2
2dWireframe
 70
     4
177
     3
291
     0
 70
    58
 90
        0
176
     1
 90
        2
176
     1
 90
        0
176
     1
 90
        0
176
     1
 40
0.6
176
     1
 40
30.0
176
     1
 62
     7
420
 16777215
176
     1
 90
        1
176
     1
 90
        4
176
     1
 62
     7
176
     1
 62
   257
176
     1
 90
        1
176
     1
 90
        1
176
     1
 40
1.0
176
     1
 90
        0
176
     1
 62
   257
176
     1
 40
1.0
176
     1
 90
        1
176
     1
 90
        6
176
     1
 90
        2
176
     1
 62
     7
176
     1
 90
        5
176
     1
 90
        0
176
     1
 90
        0
176
     1
290
     0
176
     1
 90
        1
176
     1
 40
0.0
176
     1
 90
        0
176
     1
290
     1
176
     1
290
     1
176
     1
290
     0
176
     1
290
     0
176
     1
290
     0
176
     1
290
     0
176
     1
290
     0
176
     1
290
     0
176
     1
290
     0
176
     1
 90
       50
176
     1
 40
0.0
176
     1
 40
1.0
176
     1
 90
        0
176
     1
 62
    18
420
        0
176
     1
 90
       50
176
     1
 90
        3
176
     1
 62
     5
420
      255
176
     1
290
     0
176
     1
 90
       50
176
     1
 90
       50
176
     1
 90
       50
176
     1
290
     0
176
     1
 90
       50
176
     1
 62
   256
176
     0
 40
1.0
176
     0
 90
        2
176
     1
  1
strokes_ogs.tif
176
     1
290
     0
176
     1
 40
1.0
176
     1
 40
1.0
176
     1
  0
VISUALSTYLE
  5
2E
102
{ACAD_REACTORS
330
29
102
}
330
29
100
AcDbVisualStyle
  2
Basic
 70
     7
177
     3
291
     1
 70
    58
 90
        1
176
     1
 90
        0
176
     1
 90
        1
176
     1
 90
        0
176
     1
 40
0.6
176
     1
 40
30.0
176
     1
 62
     7
420
 16777215
176
     1
 90
        0
176
     1
 90
        4
176
     1
 62
     7
176
     1
 62
   257
176
     1
 90
        1
176
     1
 90
        1
176
     1
 40
1.0
176
     1
 90
        8
176
     1
 62
     7
176
     1
 40
1.0
176
     1
 90
        1
176
     1
 90
        6
176
     1
 90
        2
176
     1
 62
     7
176
     1
 90
        5
176
     1
 90
        0
176
     1
 90
        0
176
     1
290
     0
176
     1
 90
        1
176
     1
 40
0.0
176
     1
 90
        0
176
     1
290
     0
176
     1
290
     1
176
     1
290
     1
176
     1
290
     0
176
     1
290
     0
176
     1
290
     0
176
     1
290
     0
176
     1
290
     0
176
     1
290
     0
176
     1
 90
       50
176
     1
 40
0.0
176
     1
 40
1.0
176
     1
 90
        0
176
     1
 62
    18
420
        0
176
     1
 90
       50
176
     1
 90
        3
176
     1
 62
     5
420
      255
176
     1
290
     0
176
     1
 90
       50
176
     1
 90
       50
176
     1
 90
       50
176
     1
290
     0
176
     1
 90
       50
176
     1
 62
   256
176
     0
 40
1.0
176
     0
 90
        2
176
     1
  1
strokes_ogs.tif
176
     1
290
     0
176
     1
 40
1.0
176
     1
 40
1.0
176
     1
  0
VISUALSTYLE
  5
35
102
{ACAD_REACTORS
330
29
102
}
330
29
100
AcDbVisualStyle
  2
Brighten
 70
    12
177
     3
291
     1
 70
    58
 90
        2
176
     1
 90
        2
176
     1
 90
        0
176
     1
 90
        0
176
     1
 40
0.6
176
     1
 40
30.0
176
     1
 62
     7
420
 16777215
176
     1
 90
        1
176
     1
 90
        4
176
     1
 62
     7
176
     1
 62
   257
176
     1
 90
        1
176
     1
 90
        1
176
     1
 40
1.0
176
     1
 90
        8
176
     1
 62
     7
176
     1
 40
1.0
176
     1
 90
        1
176
     1
 90
        6
176
     1
 90
        2
176
     1
 62
     7
176
     1
 90
        5
176
     1
 90
        0
176
     1
 90
        0
176
     1
290
     0
176
     1
 90
        1
176
     1
 40
50.0
176
     1
 90
        0
176
     1
290
     0
176
     1
290
     1
176
     1
290
     1
176
     1
290
     0
176
     1
290
     0
176
     1
290
     0
176
     1
290
     0
176
     1
290
     0
176
     1
290
     0
176
     1
 90
       50
176
     1
 40
0.0
176
     1
 40
1.0
176
     1
 90
        0
176
     1
 62
    18
420
        0
176
     1
 90
       50
176
     1
 90
        3
176
     1
 62
     5
420
      255
176
     1
290
     0
176
     1
 90
       50
176
     1
 90
       50
176
     1
 90
       50
176
     1
290
     0
176
     1
 90
       50
176
     1
 62
   256
176
     0
 40
1.0
176
     0
 90
        2
176
     1
  1
strokes_ogs.tif
176
     1
290
     0
176
     1
 40
1.0
176
     1
 40
1.0
176
     1
  0
VISUALSTYLE
  5
39
102
{ACAD_REACTORS
330
29
102
}
330
29
100
AcDbVisualStyle
  2
ColorChange
 70
    16
177
     3
291
     1
 70
    58
 90
        2
176
     1
 90
        2
176
     1
 90
        3
176
     1
 90
        0
176
     1
 40
0.6
176
     1
 40
30.0
176
     1
 62
     8
420
  8421504
176
     1
 90
        1
176
     1
 90
        4
176
     1
 62
     7
176
     1
 62
   257
176
     1
 90
        1
176
     1
 90
        1
176
     1
 40
1.0
176
     1
 90
        8
176
     1
 62
     8
420
  8421504
176
     1
 40
1.0
176
     1
 90
        1
176
     1
 90
        6
176
     1
 90
        2
176
     1
 62
     7
176
     1
 90
        5
176
     1
 90
        0
176
     1
 90
        0
176
     1
290
     0
176
     1
 90
        1
176
     1
 40
0.0
176
     1
 90
        0
176
     1
290
     0
176
     1
290
     1
176
     1
290
     1
176
     1
290
     0
176
     1
290
     0
176
     1
290
     0
176
     1
290
     0
176
     1
290
     0
176
     1
290
     0
176
     1
 90
       50
176
     1
 40
0.0
176
     1
 40
1.0
176
     1
 90
        0
176
     1
 62
    18
420
        0
176
     1
 90
       50
176
     1
 90
        3
176
     1
 62
     5
420
      255
176
     1
290
     0
176
     1
 90
       50
176
     1
 90
       50
176
     1
 90
       50
176
     1
290
     0
176
     1
 90
       50
176
     1
 62
   256
176
     0
 40
1.0
176
     0
 90
        2
176
     1
  1
strokes_ogs.tif
176
     1
290
     0
176
     1
 40
1.0
176
     1
 40
1.0
176
     1
  0
VISUALSTYLE
  5
32
102
{ACAD_REACTORS
330
29
102
}
330
29
100
AcDbVisualStyle
  2
Conceptual
 70
     9
177
     3
291
     0
 70
    58
 90
        3
176
     1
 90
        2
176
     1
 90
        0
176
     1
 90
        0
176
     1
 40
0.6
176
     1
 40
30.0
176
     1
 62
     7
420
 16777215
176
     1
 90
        2
176
     1
 90
        2
176
     1
 62
     7
176
     1
 62
   257
176
     1
 90
        1
176
     1
 90
        1
176
     1
 40
179.0
176
     1
 90
        8
176
     1
 62
     7
176
     1
 40
1.0
176
     1
 90
        1
176
     1
 90
        6
176
     1
 90
        2
176
     1
 62
     7
176
     1
 90
        3
176
     1
 90
        0
176
     1
 90
        0
176
     1
290
     0
176
     1
 90
        1
176
     1
 40
0.0
176
     1
 90
        0
176
     1
290
     0
176
     1
290
     1
176
     1
290
     1
176
     1
290
     0
176
     1
290
     0
176
     1
290
     0
176
     1
290
     0
176
     1
290
     0
176
     1
290
     0
176
     1
 90
       50
176
     1
 40
0.0
176
     1
 40
1.0
176
     1
 90
        0
176
     1
 62
    18
420
        0
176
     1
 90
       50
176
     1
 90
        3
176
     1
 62
     5
420
      255
176
     1
290
     0
176
     1
 90
       50
176
     1
 90
       50
176
     1
 90
       50
176
     1
290
     0
176
     1
 90
       50
176
     1
 62
   256
176
     0
 40
1.0
176
     0
 90
        2
176
     1
  1
strokes_ogs.tif
176
     1
290
     0
176
     1
 40
1.0
176
     1
 40
1.0
176
     1
  0
VISUALSTYLE
  5
34
102
{ACAD_REACTORS
330
29
102
}
330
29
100
AcDbVisualStyle
  2
Dim
 70
    11
177
     3
291
     1
 70
    58
 90
        2
176
     1
 90
        2
176
     1
 90
        0
176
     1
 90
        0
176
     1
 40
0.6
176
     1
 40
30.0
176
     1
 62
     7
420
 16777215
176
     1
 90
        1
176
     1
 90
        4
176
     1
 62
     7
176
     1
 62
   257
176
     1
 90
        1
176
     1
 90
        1
176
     1
 40
1.0
176
     1
 90
        8
176
     1
 62
     7
176
     1
 40
1.0
176
     1
 90
        1
176
     1
 90
        6
176
     1
 90
        2
176
     1
 62
     7
176
     1
 90
        5
176
     1
 90
        0
176
     1
 90
        0
176
     1
290
     0
176
     1
 90
        1
176
     1
 40
-50.0
176
     1
 90
        0
176
     1
290
     0
176
     1
290
     1
176
     1
290
     1
176
     1
290
     0
176
     1
290
     0
176
     1
290
     0
176
     1
290
     0
176
     1
290
     0
176
     1
290
     0
176
     1
 90
       50
176
     1
 40
0.0
176
     1
 40
1.0
176
     1
 90
        0
176
     1
 62
    18
420
        0
176
     1
 90
       50
176
     1
 90
        3
176
     1
 62
     5
420
      255
176
     1
290
     0
176
     1
 90
       50
176
     1
 90
       50
176
     1
 90
       50
176
     1
290
     0
176
     1
 90
       50
176
     1
 62
   256
176
     0
 40
1.0
176
     0
 90
        2
176
     1
  1
strokes_ogs.tif
176
     1
290
     0
176
     1
 40
1.0
176
     1
 40
1.0
176
     1
  0
VISUALSTYLE
  5
41
102
{ACAD_REACTORS
330
29
102
}
330
29
100
AcDbVisualStyle
  2
EdgeColorOff
 70
    22
177
     3
291
     1
 70
    58
 90
        2
176
     0
 90
        2
176
     0
 90
        0
176
     0
 90
        0
176
     0
 40
0.6
176
     0
 40
30.0
176
     0
 62
     7
420
 16777215
176
     0
 90
        1
176
     0
 90
        4
176
     0
 62
     7
176
     0
 62
   257
176
     0
 90
        1
176
     0
 90
        1
176
     0
 40
1.0
176
     0
 90
        8
176
     2
 62
     7
176
     0
 40
1.0
176
     0
 90
        1
176
     0
 90
        6
176
     0
 90
        2
176
     0
 62
     7
176
     0
 90
        5
176
     0
 90
        0
176
     0
 90
        0
176
     0
290
     0
176
     0
 90
        1
176
     0
 40
0.0
176
     0
 90
        0
176
     0
290
     0
176
     0
290
     1
176
     0
290
     1
176
     0
290
     0
176
     0
290
     0
176
     0
290
     0
176
     0
290
     0
176
     0
290
     0
176
     0
290
     0
176
     0
 90
       50
176
     0
 40
0.0
176
     0
 40
1.0
176
     0
 90
        0
176
     0
 62
    18
420
        0
176
     0
 90
       50
176
     0
 90
        3
176
     0
 62
     5
420
      255
176
     0
290
     0
176
     0
 90
       50
176
     0
 90
       50
176
     0
 90
       50
176
     0
290
     0
176
     0
 90
       50
176
     0
 62
   256
176
     0
 40
1.0
176
     0
 90
        2
176
     0
  1
strokes_ogs.tif
176
     0
290
     0
176
     0
 40
1.0
176
     0
 40
1.0
176
     0
  0
VISUALSTYLE
  5
38
102
{ACAD_REACTORS
330
29
102
}
330
29
100
AcDbVisualStyle
  2
Facepattern
 70
    15
177
     3
291
     1
 70
    58
 90
        2
176
     1
 90
        2
176
     1
 90
        0
176
     1
 90
        0
176
     1
 40
0.6
176
     1
 40
30.0
176
     1
 62
     7
420
 16777215
176
     1
 90
        1
176
     1
 90
        4
176
     1
 62
     7
176
     1
 62
   257
176
     1
 90
        1
176
     1
 90
        1
176
     1
 40
1.0
176
     1
 90
        8
176
     1
 62
     7
176
     1
 40
1.0
176
     1
 90
        1
176
     1
 90
        6
176
     1
 90
        2
176
     1
 62
     7
176
     1
 90
        5
176
     1
 90
        0
176
     1
 90
        0
176
     1
290
     0
176
     1
 90
        1
176
     1
 40
0.0
176
     1
 90
        0
176
     1
290
     0
176
     1
290
     1
176
     1
290
     1
176
     1
290
     0
176
     1
290
     0
176
     1
290
     0
176
     1
290
     0
176
     1
290
     0
176
     1
290
     0
176
     1
 90
       50
176
     1
 40
0.0
176
     1
 40
1.0
176
     1
 90
        0
176
     1
 62
    18
420
        0
176
     1
 90
       50
176
     1
 90
        3
176
     1
 62
     5
420
      255
176
     1
290
     0
176
     1
 90
       50
176
     1
 90
       50
176
     1
 90
       50
176
     1
290
     0
176
     1
 90
       50
176
     1
 62
   256
176
     0
 40
1.0
176
     0
 90
        2
176
     1
  1
strokes_ogs.tif
176
     1
290
     0
176
     1
 40
1.0
176
     1
 40
1.0
176
     1
  0
VISUALSTYLE
  5
2A
102
{ACAD_REACTORS
330
29
102
}
330
29
100
AcDbVisualStyle
  2
Flat
 70
     0
177
     3
291
     1
 70
    58
 90
        2
176
     1
 90
        1
176
     1
 90
        1
176
     1
 90
        2
176
     1
 40
0.6
176
     1
 40
30.0
176
     1
 62
     7
420
 16777215
176
     1
 90
        0
176
     1
 90
        0
176
     1
 62
     7
176
     1
 62
   257
176
     1
 90
        1
176
     1
 90
        1
176
     1
 40
1.0
176
     1
 90
        8
176
     1
 62
     7
176
     1
 40
1.0
176
     1
 90
        1
176
     1
 90
        6
176
     1
 90
        2
176
     1
 62
     7
176
     1
 90
        5
176
     1
 90
        0
176
     1
 90
        0
176
     1
290
     0
176
     1
 90
       13
176
     1
 40
0.0
176
     1
 90
        0
176
     1
290
     0
176
     1
290
     1
176
     1
290
     1
176
     1
290
     0
176
     1
290
     0
176
     1
290
     0
176
     1
290
     0
176
     1
290
     0
176
     1
290
     0
176
     1
 90
       50
176
     1
 40
0.0
176
     1
 40
1.0
176
     1
 90
        0
176
     1
 62
    18
420
        0
176
     1
 90
       50
176
     1
 90
        3
176
     1
 62
     5
420
      255
176
     1
290
     0
176
     1
 90
       50
176
     1
 90
       50
176
     1
 90
       50
176
     1
290
     0
176
     1
 90
       50
176
     1
 62
   256
176
     0
 40
1.0
176
     0
 90
        2
176
     1
  1
strokes_ogs.tif
176
     1
290
     0
176
     1
 40
1.0
176
     1
 40
1.0
176
     1
  0
VISUALSTYLE
  5
2B
102
{ACAD_REACTORS
330
29
102
}
330
29
100
AcDbVisualStyle
  2
FlatWithEdges
 70
     1
177
     3
291
     1
 70
    58
 90
        2
176
     1
 90
        1
176
     1
 90
        1
176
     1
 90
        2
176
     1
 40
0.6
176
     1
 40
30.0
176
     1
 62
     7
420
 16777215
176
     1
 90
        1
176
     1
 90
        0
176
     1
 62
     7
176
     1
 62
   257
176
     1
 90
        1
176
     1
 90
        1
176
     1
 40
1.0
176
     1
 90
        0
176
     1
 62
   257
176
     1
 40
1.0
176
     1
 90
        1
176
     1
 90
        6
176
     1
 90
        2
176
     1
 62
     7
176
     1
 90
        5
176
     1
 90
        0
176
     1
 90
        0
176
     1
290
     0
176
     1
 90
       13
176
     1
 40
0.0
176
     1
 90
        0
176
     1
290
     0
176
     1
290
     1
176
     1
290
     1
176
     1
290
     0
176
     1
290
     0
176
     1
290
     0
176
     1
290
     0
176
     1
290
     0
176
     1
290
     0
176
     1
 90
       50
176
     1
 40
0.0
176
     1
 40
1.0
176
     1
 90
        0
176
     1
 62
    18
420
        0
176
     1
 90
       50
176
     1
 90
        3
176
     1
 62
     5
420
      255
176
     1
290
     0
176
     1
 90
       50
176
     1
 90
       50
176
     1
 90
       50
176
     1
290
     0
176
     1
 90
       50
176
     1
 62
   256
176
     0
 40
1.0
176
     0
 90
        2
176
     1
  1
strokes_ogs.tif
176
     1
290
     0
176
     1
 40
1.0
176
     1
 40
1.0
176
     1
  0
VISUALSTYLE
  5
2C
102
{ACAD_REACTORS
330
29
102
}
330
29
100
AcDbVisualStyle
  2
Gouraud
 70
     2
177
     3
291
     1
 70
    58
 90
        2
176
     1
 90
        2
176
     1
 90
        1
176
     1
 90
        2
176
     1
 40
0.6
176
     1
 40
30.0
176
     1
 62
     7
420
 16777215
176
     1
 90
        0
176
     1
 90
        0
176
     1
 62
     7
176
     1
 62
   257
176
     1
 90
        1
176
     1
 90
        1
176
     1
 40
1.0
176
     1
 90
        0
176
     1
 62
     7
176
     1
 40
1.0
176
     1
 90
        1
176
     1
 90
        6
176
     1
 90
        2
176
     1
 62
     7
176
     1
 90
        5
176
     1
 90
        0
176
     1
 90
        0
176
     1
290
     0
176
     1
 90
       13
176
     1
 40
0.0
176
     1
 90
        0
176
     1
290
     0
176
     1
290
     1
176
     1
290
     1
176
     1
290
     0
176
     1
290
     0
176
     1
290
     0
176
     1
290
     0
176
     1
290
     0
176
     1
290
     0
176
     1
 90
       50
176
     1
 40
0.0
176
     1
 40
1.0
176
     1
 90
        0
176
     1
 62
    18
420
        0
176
     1
 90
       50
176
     1
 90
        3
176
     1
 62
     5
420
      255
176
     1
290
     0
176
     1
 90
       50
176
     1
 90
       50
176
     1
 90
       50
176
     1
290
     0
176
     1
 90
       50
176
     1
 62
   256
176
     0
 40
1.0
176
     0
 90
        2
176
     1
  1
strokes_ogs.tif
176
     1
290
     0
176
     1
 40
1.0
176
     1
 40
1.0
176
     1
  0
VISUALSTYLE
  5
2D
102
{ACAD_REACTORS
330
29
102
}
330
29
100
AcDbVisualStyle
  2
GouraudWithEdges
 70
     3
177
     3
291
     1
 70
    58
 90
        2
176
     1
 90
        2
176
     1
 90
        1
176
     1
 90
        2
176
     1
 40
0.6
176
     1
 40
30.0
176
     1
 62
     7
420
 16777215
176
     1
 90
        1
176
     1
 90
        0
176
     1
 62
     7
176
     1
 62
   257
176
     1
 90
        1
176
     1
 90
        1
176
     1
 40
1.0
176
     1
 90
        0
176
     1
 62
   257
176
     1
 40
1.0
176
     1
 90
        1
176
     1
 90
        6
176
     1
 90
        2
176
     1
 62
     7
176
     1
 90
        5
176
     1
 90
        0
176
     1
 90
        0
176
     1
290
     0
176
     1
 90
       13
176
     1
 40
0.0
176
     1
 90
        0
176
     1
290
     0
176
     1
290
     1
176
     1
290
     1
176
     1
290
     0
176
     1
290
     0
176
     1
290
     0
176
     1
290
     0
176
     1
290
     0
176
     1
290
     0
176
     1
 90
       50
176
     1
 40
0.0
176
     1
 40
1.0
176
     1
 90
        0
176
     1
 62
    18
420
        0
176
     1
 90
       50
176
     1
 90
        3
176
     1
 62
     5
420
      255
176
     1
290
     0
176
     1
 90
       50
176
     1
 90
       50
176
     1
 90
       50
176
     1
290
     0
176
     1
 90
       50
176
     1
 62
   256
176
     0
 40
1.0
176
     0
 90
        2
176
     1
  1
strokes_ogs.tif
176
     1
290
     0
176
     1
 40
1.0
176
     1
 40
1.0
176
     1
  0
VISUALSTYLE
  5
31
102
{ACAD_REACTORS
330
29
102
}
330
29
100
AcDbVisualStyle
  2
Hidden
 70
     6
177
     3
291
     0
 70
    58
 90
        1
176
     1
 90
        2
176
     1
 90
        2
176
     1
 90
        0
176
     1
 40
0.6
176
     1
 40
30.0
176
     1
 62
     7
420
 16777215
176
     1
 90
        2
176
     1
 90
        2
176
     1
 62
     7
176
     1
 62
   257
176
     1
 90
        2
176
     1
 90
        1
176
     1
 40
40.0
176
     1
 90
        0
176
     1
 62
   257
176
     1
 40
1.0
176
     1
 90
        1
176
     1
 90
        6
176
     1
 90
        2
176
     1
 62
     7
176
     1
 90
        3
176
     1
 90
        0
176
     1
 90
        0
176
     1
290
     0
176
     1
 90
        1
176
     1
 40
0.0
176
     1
 90
        0
176
     1
290
     0
176
     1
290
     1
176
     1
290
     1
176
     1
290
     0
176
     1
290
     0
176
     1
290
     0
176
     1
290
     0
176
     1
290
     0
176
     1
290
     0
176
     1
 90
       50
176
     1
 40
0.0
176
     1
 40
1.0
176
     1
 90
        0
176
     1
 62
    18
420
        0
176
     1
 90
       50
176
     1
 90
        3
176
     1
 62
     5
420
      255
176
     1
290
     0
176
     1
 90
       50
176
     1
 90
       50
176
     1
 90
       50
176
     1
290
     0
176
     1
 90
       50
176
     1
 62
   256
176
     0
 40
1.0
176
     0
 90
        2
176
     1
  1
strokes_ogs.tif
176
     1
290
     0
176
     1
 40
1.0
176
     1
 40
1.0
176
     1
  0
VISUALSTYLE
  5
3F
102
{ACAD_REACTORS
330
29
102
}
330
29
100
AcDbVisualStyle
  2
JitterOff
 70
    20
177
     3
291
     1
 70
    58
 90
        2
176
     0
 90
        2
176
     0
 90
        0
176
     0
 90
        0
176
     0
 40
0.6
176
     0
 40
30.0
176
     0
 62
     7
420
 16777215
176
     0
 90
        1
176
     0
 90
        4
176
     0
 62
     7
176
     0
 62
   257
176
     0
 90
        1
176
     0
 90
        1
176
     0
 40
1.0
176
     0
 90
       10
176
     2
 62
     7
176
     0
 40
1.0
176
     0
 90
        1
176
     0
 90
        6
176
     0
 90
        2
176
     0
 62
     7
176
     0
 90
        5
176
     0
 90
        0
176
     0
 90
        0
176
     0
290
     0
176
     0
 90
        1
176
     0
 40
0.0
176
     0
 90
        0
176
     0
290
     0
176
     0
290
     1
176
     0
290
     1
176
     0
290
     0
176
     0
290
     0
176
     0
290
     0
176
     0
290
     0
176
     0
290
     0
176
     0
290
     0
176
     0
 90
       50
176
     0
 40
0.0
176
     0
 40
1.0
176
     0
 90
        0
176
     0
 62
    18
420
        0
176
     0
 90
       50
176
     0
 90
        3
176
     0
 62
     5
420
      255
176
     0
290
     0
176
     0
 90
       50
176
     0
 90
       50
176
     0
 90
       50
176
     0
290
     0
176
     0
 90
       50
176
     0
 62
   256
176
     0
 40
1.0
176
     0
 90
        2
176
     0
  1
strokes_ogs.tif
176
     0
290
     0
176
     0
 40
1.0
176
     0
 40
1.0
176
     0
  0
VISUALSTYLE
  5
37
102
{ACAD_REACTORS
330
29
102
}
330
29
100
AcDbVisualStyle
  2
Linepattern
 70
    14
177
     3
291
     1
 70
    58
 90
        2
176
     1
 90
        2
176
     1
 90
        0
176
     1
 90
        0
176
     1
 40
0.6
176
     1
 40
30.0
176
     1
 62
     7
420
 16777215
176
     1
 90
        1
176
     1
 90
        4
176
     1
 62
     7
176
     1
 62
   257
176
     1
 90
        7
176
     1
 90
        7
176
     1
 40
1.0
176
     1
 90
        8
176
     1
 62
     7
176
     1
 40
1.0
176
     1
 90
        1
176
     1
 90
        6
176
     1
 90
        2
176
     1
 62
     7
176
     1
 90
        5
176
     1
 90
        0
176
     1
 90
        0
176
     1
290
     0
176
     1
 90
        1
176
     1
 40
0.0
176
     1
 90
        0
176
     1
290
     0
176
     1
290
     1
176
     1
290
     1
176
     1
290
     0
176
     1
290
     0
176
     1
290
     0
176
     1
290
     0
176
     1
290
     0
176
     1
290
     0
176
     1
 90
       50
176
     1
 40
0.0
176
     1
 40
1.0
176
     1
 90
        0
176
     1
 62
    18
420
        0
176
     1
 90
       50
176
     1
 90
        3
176
     1
 62
     5
420
      255
176
     1
290
     0
176
     1
 90
       50
176
     1
 90
       50
176
     1
 90
       50
176
     1
290
     0
176
     1
 90
       50
176
     1
 62
   256
176
     0
 40
1.0
176
     0
 90
        2
176
     1
  1
strokes_ogs.tif
176
     1
290
     0
176
     1
 40
1.0
176
     1
 40
1.0
176
     1
  0
VISUALSTYLE
  5
40
102
{ACAD_REACTORS
330
29
102
}
330
29
100
AcDbVisualStyle
  2
OverhangOff
 70
    21
177
     3
291
     1
 70
    58
 90
        2
176
     0
 90
        2
176
     0
 90
        0
176
     0
 90
        0
176
     0
 40
0.6
176
     0
 40
30.0
176
     0
 62
     7
420
 16777215
176
     0
 90
        1
176
     0
 90
        4
176
     0
 62
     7
176
     0
 62
   257
176
     0
 90
        1
176
     0
 90
        1
176
     0
 40
1.0
176
     0
 90
        9
176
     2
 62
     7
176
     0
 40
1.0
176
     0
 90
        1
176
     0
 90
        6
176
     0
 90
        2
176
     0
 62
     7
176
     0
 90
        5
176
     0
 90
        0
176
     0
 90
        0
176
     0
290
     0
176
     0
 90
        1
176
     0
 40
0.0
176
     0
 90
        0
176
     0
290
     0
176
     0
290
     1
176
     0
290
     1
176
     0
290
     0
176
     0
290
     0
176
     0
290
     0
176
     0
290
     0
176
     0
290
     0
176
     0
290
     0
176
     0
 90
       50
176
     0
 40
0.0
176
     0
 40
1.0
176
     0
 90
        0
176
     0
 62
    18
420
        0
176
     0
 90
       50
176
     0
 90
        3
176
     0
 62
     5
420
      255
176
     0
290
     0
176
     0
 90
       50
176
     0
 90
       50
176
     0
 90
       50
176
     0
290
     0
176
     0
 90
       50
176
     0
 62
   256
176
     0
 40
1.0
176
     0
 90
        2
176
     0
  1
strokes_ogs.tif
176
     0
290
     0
176
     0
 40
1.0
176
     0
 40
1.0
176
     0
  0
VISUALSTYLE
  5
33
102
{ACAD_REACTORS
330
29
102
}
330
29
100
AcDbVisualStyle
  2
Realistic
 70
     8
177
     3
291
     0
 70
    58
 90
        2
176
     1
 90
        3
176
     1
 90
        0
176
     1
 90
        2
176
     1
 40
0.6
176
     1
 40
30.0
176
     1
 62
     7
420
 16777215
176
     1
 90
        0
176
     1
 90
        0
176
     1
 62
     7
176
     1
 62
   257
176
     1
 90
        1
176
     1
 90
        1
176
     1
 40
1.0
176
     1
 90
        8
176
     1
 62
   257
176
     1
 40
1.0
176
     1
 90
        1
176
     1
 90
        6
176
     1
 90
        2
176
     1
 62
     7
176
     1
 90
        3
176
     1
 90
        0
176
     1
 90
        0
176
     1
290
     0
176
     1
 90
       13
176
     1
 40
0.0
176
     1
 90
        0
176
     1
290
     0
176
     1
290
     1
176
     1
290
     1
176
     1
290
     0
176
     1
290
     0
176
     1
290
     0
176
     1
290
     0
176
     1
290
     0
176
     1
290
     0
176
     1
 90
       50
176
     1
 40
0.0
176
     1
 40
1.0
176
     1
 90
        0
176
     1
 62
    18
420
        0
176
     1
 90
       50
176
     1
 90
        3
176
     1
 62
     5
420
      255
176
     1
290
     0
176
     1
 90
       50
176
     1
 90
       50
176
     1
 90
       50
176
     1
290
     0
176
     1
 90
       50
176
     1
 62
   256
176
     0
 40
1.0
176
     0
 90
        2
176
     1
  1
strokes_ogs.tif
176
     1
290
     0
176
     1
 40
1.0
176
     1
 40
1.0
176
     1
  0
VISUALSTYLE
  5
3E
102
{ACAD_REACTORS
330
29
102
}
330
29
100
AcDbVisualStyle
  2
Shaded
 70
    27
177
     3
291
     0
 70
    58
 90
        2
176
     1
 90
        2
176
     1
 90
        1
176
     1
 90
        2
176
     1
 40
0.6
176
     1
 40
30.0
176
     1
 62
     7
420
 16777215
176
     1
 90
        0
176
     1
 90
        4
176
     1
 62
     7
176
     1
 62
   257
176
     1
 90
        1
176
     1
 90
        1
176
     1
 40
1.0
176
     1
 90
        8
176
     1
 62
   257
176
     1
 40
1.0
176
     1
 90
        1
176
     1
 90
        6
176
     1
 90
        2
176
     1
 62
     8
420
  7895160
176
     1
 90
        3
176
     1
 90
        0
176
     1
 90
        0
176
     1
290
     0
176
     1
 90
        5
176
     1
 40
0.0
176
     1
 90
        0
176
     1
290
     0
176
     1
290
     1
176
     1
290
     1
176
     1
290
     0
176
     1
290
     0
176
     1
290
     0
176
     1
290
     0
176
     1
290
     0
176
     1
290
     0
176
     1
 90
       50
176
     1
 40
0.0
176
     1
 40
1.0
176
     1
 90
        0
176
     1
 62
    18
420
        0
176
     1
 90
       50
176
     1
 90
        3
176
     1
 62
     5
420
      255
176
     1
290
     0
176
     1
 90
       50
176
     1
 90
       50
176
     1
 90
       50
176
     1
290
     0
176
     1
 90
       50
176
     1
 62
   256
176
     0
 40
1.0
176
     0
 90
        2
176
     1
  1
strokes_ogs.tif
176
     1
290
     0
176
     1
 40
1.0
176
     1
 40
1.0
176
     1
  0
VISUALSTYLE
  5
3D
102
{ACAD_REACTORS
330
29
102
}
330
29
100
AcDbVisualStyle
  2
Shaded with edges
 70
    26
177
     3
291
     0
 70
    58
 90
        2
176
     1
 90
        2
176
     1
 90
        1
176
     1
 90
        2
176
     1
 40
0.6
176
     1
 40
30.0
176
     1
 62
     7
420
 16777215
176
     1
 90
        1
176
     1
 90
       10
176
     1
 62
     7
176
     1
 62
   257
176
     1
 90
        2
176
     1
 90
        1
176
     1
 40
1.0
176
     1
 90
        8
176
     1
 62
   257
176
     1
 40
1.0
176
     1
 90
        1
176
     1
 90
        6
176
     1
 90
        2
176
     1
 62
     7
176
     1
 90
        3
176
     1
 90
        0
176
     1
 90
        0
176
     1
290
     0
176
     1
 90
        5
176
     1
 40
0.0
176
     1
 90
        0
176
     1
290
     0
176
     1
290
     1
176
     1
290
     1
176
     1
290
     0
176
     1
290
     0
176
     1
290
     0
176
     1
290
     0
176
     1
290
     0
176
     1
290
     0
176
     1
 90
       50
176
     1
 40
0.0
176
     1
 40
1.0
176
     1
 90
        0
176
     1
 62
    18
420
        0
176
     1
 90
       50
176
     1
 90
        3
176
     1
 62
     5
420
      255
176
     1
290
     0
176
     1
 90
       50
176
     1
 90
       50
176
     1
 90
       50
176
     1
290
     0
176
     1
 90
       50
176
     1
 62
   256
176
     0
 40
1.0
176
     0
 90
        2
176
     1
  1
strokes_ogs.tif
176
     1
290
     0
176
     1
 40
1.0
176
     1
 40
1.0
176
     1
  0
VISUALSTYLE
  5
3A
102
{ACAD_REACTORS
330
29
102
}
330
29
100
AcDbVisualStyle
  2
Shades of Gray
 70
    23
177
     3
291
     0
 70
    58
 90
        2
176
     1
 90
        2
176
     1
 90
        3
176
     1
 90
        0
176
     1
 40
0.6
176
     1
 40
30.0
176
     1
 62
     7
420
 16777215
176
     1
 90
        2
176
     1
 90
        2
176
     1
 62
     7
176
     1
 62
     7
176
     1
 90
        1
176
     1
 90
        1
176
     1
 40
40.0
176
     1
 90
        8
176
     1
 62
     7
176
     1
 40
1.0
176
     1
 90
        1
176
     1
 90
        6
176
     1
 90
        2
176
     1
 62
     7
176
     1
 90
        3
176
     1
 90
        0
176
     1
 90
        0
176
     1
290
     0
176
     1
 90
        1
176
     1
 40
0.0
176
     1
 90
        0
176
     1
290
     0
176
     1
290
     1
176
     1
290
     1
176
     1
290
     0
176
     1
290
     0
176
     1
290
     0
176
     1
290
     0
176
     1
290
     0
176
     1
290
     0
176
     1
 90
       50
176
     1
 40
0.0
176
     1
 40
1.0
176
     1
 90
        0
176
     1
 62
    18
420
        0
176
     1
 90
       50
176
     1
 90
        3
176
     1
 62
     5
420
      255
176
     1
290
     0
176
     1
 90
       50
176
     1
 90
       50
176
     1
 90
       50
176
     1
290
     0
176
     1
 90
       50
176
     1
 62
   256
176
     0
 40
1.0
176
     0
 90
        2
176
     1
  1
strokes_ogs.tif
176
     1
290
     0
176
     1
 40
1.0
176
     1
 40
1.0
176
     1
  0
VISUALSTYLE
  5
3B
102
{ACAD_REACTORS
330
29
102
}
330
29
100
AcDbVisualStyle
  2
Sketchy
 70
    24
177
     3
291
     0
 70
    58
 90
        1
176
     1
 90
        2
176
     1
 90
        2
176
     1
 90
        0
176
     1
 40
0.6
176
     1
 40
30.0
176
     1
 62
     7
420
 16777215
176
     1
 90
        2
176
     1
 90
        2
176
     1
 62
     7
176
     1
 62
     7
176
     1
 90
        1
176
     1
 90
        1
176
     1
 40
40.0
176
     1
 90
       11
176
     1
 62
     7
176
     1
 40
1.0
176
     1
 90
        1
176
     1
 90
        6
176
     1
 90
        2
176
     1
 62
     7
176
     1
 90
        6
176
     1
 90
        0
176
     1
 90
        0
176
     1
290
     0
176
     1
 90
        1
176
     1
 40
0.0
176
     1
 90
        0
176
     1
290
     0
176
     1
290
     1
176
     1
290
     1
176
     1
290
     0
176
     1
290
     0
176
     1
290
     0
176
     1
290
     0
176
     1
290
     0
176
     1
290
     0
176
     1
 90
       50
176
     1
 40
0.0
176
     1
 40
1.0
176
     1
 90
        0
176
     1
 62
    18
420
        0
176
     1
 90
       50
176
     1
 90
        3
176
     1
 62
     5
420
      255
176
     1
290
     0
176
     1
 90
       50
176
     1
 90
       50
176
     1
 90
       50
176
     1
290
     0
176
     1
 90
       50
176
     1
 62
   256
176
     0
 40
1.0
176
     0
 90
        2
176
     1
  1
strokes_ogs.tif
176
     1
290
     0
176
     1
 40
1.0
176
     1
 40
1.0
176
     1
  0
VISUALSTYLE
  5
36
102
{ACAD_REACTORS
330
29
102
}
330
29
100
AcDbVisualStyle
  2
Thicken
 70
    13
177
     3
291
     1
 70
    58
 90
        2
176
     1
 90
        2
176
     1
 90
        0
176
     1
 90
        0
176
     1
 40
0.6
176
     1
 40
30.0
176
     1
 62
     7
420
 16777215
176
     1
 90
        1
176
     1
 90
        4
176
     1
 62
     7
176
     1
 62
   257
176
     1
 90
        1
176
     1
 90
        1
176
     1
 40
1.0
176
     1
 90
       12
176
     1
 62
     7
176
     1
 40
1.0
176
     1
 90
        1
176
     1
 90
        6
176
     1
 90
        2
176
     1
 62
     7
176
     1
 90
        5
176
     1
 90
        0
176
     1
 90
        0
176
     1
290
     0
176
     1
 90
        1
176
     1
 40
0.0
176
     1
 90
        0
176
     1
290
     0
176
     1
290
     1
176
     1
290
     1
176
     1
290
     0
176
     1
290
     0
176
     1
290
     0
176
     1
290
     0
176
     1
290
     0
176
     1
290
     0
176
     1
 90
       50
176
     1
 40
0.0
176
     1
 40
1.0
176
     1
 90
        0
176
     1
 62
    18
420
        0
176
     1
 90
       50
176
     1
 90
        3
176
     1
 62
     5
420
      255
176
     1
290
     0
176
     1
 90
       50
176
     1
 90
       50
176
     1
 90
       50
176
     1
290
     0
176
     1
 90
       50
176
     1
 62
   256
176
     0
 40
1.0
176
     0
 90
        2
176
     1
  1
strokes_ogs.tif
176
     1
290
     0
176
     1
 40
1.0
176
     1
 40
1.0
176
     1
  0
VISUALSTYLE
  5
30
102
{ACAD_REACTORS
330
29
102
}
330
29
100
AcDbVisualStyle
  2
Wireframe
 70
     5
177
     3
291
     0
 70
    58
 90
        0
176
     1
 90
        2
176
     1
 90
        0
176
     1
 90
        0
176
     1
 40
0.6
176
     1
 40
30.0
176
     1
 62
     7
420
 16777215
176
     1
 90
        1
176
     1
 90
        4
176
     1
 62
     7
176
     1
 62
   257
176
     1
 90
        1
176
     1
 90
        1
176
     1
 40
1.0
176
     1
 90
        0
176
     1
 62
   257
176
     1
 40
1.0
176
     1
 90
        1
176
     1
 90
        6
176
     1
 90
        2
176
     1
 62
     7
176
     1
 90
        3
176
     1
 90
        0
176
     1
 90
        0
176
     1
290
     0
176
     1
 90
        1
176
     1
 40
0.0
176
     1
 90
        0
176
     1
290
     0
176
     1
290
     1
176
     1
290
     1
176
     1
290
     0
176
     1
290
     0
176
     1
290
     0
176
     1
290
     0
176
     1
290
     0
176
     1
290
     0
176
     1
 90
       50
176
     1
 40
0.0
176
     1
 40
1.0
176
     1
 90
        0
176
     1
 62
    18
420
        0
176
     1
 90
       50
176
     1
 90
        3
176
     1
 62
     5
420
      255
176
     1
290
     0
176
     1
 90
       50
176
     1
 90
       50
176
     1
 90
       50
176
     1
290
     0
176
     1
 90
       50
176
     1
 62
   256
176
     0
 40
1.0
176
     0
 90
        2
176
     1
  1
strokes_ogs.tif
176
     1
290
     0
176
     1
 40
1.0
176
     1
 40
1.0
176
     1
  0
VISUALSTYLE
  5
3C
102
{ACAD_REACTORS
330
29
102
}
330
29
100
AcDbVisualStyle
  2
X-Ray
 70
    25
177
     3
291
     0
 70
    58
 90
        2
176
     1
 90
        2
176
     1
 90
        1
176
     1
 90
        1
176
     1
 40
0.5
176
     1
 40
30.0
176
     1
 62
     7
420
 16777215
176
     1
 90
        1
176
     1
 90
        0
176
     1
 62
     7
176
     1
 62
   257
176
     1
 90
        1
176
     1
 90
        1
176
     1
 40
1.0
176
     1
 90
        8
176
     1
 62
     7
176
     1
 40
1.0
176
     1
 90
        1
176
     1
 90
        6
176
     1
 90
        2
176
     1
 62
     7
176
     1
 90
        3
176
     1
 90
        0
176
     1
 90
        0
176
     1
290
     0
176
     1
 90
       13
176
     1
 40
0.0
176
     1
 90
        0
176
     1
290
     0
176
     1
290
     1
176
     1
290
     1
176
     1
290
     0
176
     1
290
     0
176
     1
290
     0
176
     1
290
     0
176
     1
290
     0
176
     1
290
     0
176
     1
 90
       50
176
     1
 40
0.0
176
     1
 40
1.0
176
     1
 90
        0
176
     1
 62
    18
420
        0
176
     1
 90
       50
176
     1
 90
        3
176
     1
 62
     5
420
      255
176
     1
290
     0
176
     1
 90
       50
176
     1
 90
       50
176
     1
 90
       50
176
     1
290
     0
176
     1
 90
       50
176
     1
 62
   256
176
     0
 40
1.0
176
     0
 90
        2
176
     1
  1
strokes_ogs.tif
176
     1
290
     0
176
     1
 40
1.0
176
     1
 40
1.0
176
     1
  0
DICTIONARYVAR
  5
AB0
102
{ACAD_REACTORS
330
AAB
102
}
330
AAB
100
DictionaryVariables
280
     0
  1
1:1
  0
DICTIONARYVAR
  5
AAD
102
{ACAD_REACTORS
330
AAB
102
}
330
AAB
100
DictionaryVariables
280
     0
  1
Standard
  0
DICTIONARYVAR
  5
AAC
102
{ACAD_REACTORS
330
AAB
102
}
330
AAB
100
DictionaryVariables
280
     0
  1
Standard
  0
DICTIONARYVAR
  5
AAE
102
{ACAD_REACTORS
330
AAB
102
}
330
AAB
100
DictionaryVariables
280
     0
  1
Metric50
  0
DICTIONARYVAR
  5
AAF
102
{ACAD_REACTORS
330
AAB
102
}
330
AAB
100
DictionaryVariables
280
     0
  1
Metric50
  0
DICTIONARY
  5
AA8
330
19C
100
AcDbDictionary
280
     1
281
     1
  0
DICTIONARY
  5
AA4
330
6B
100
AcDbDictionary
280
     1
281
     1
  0
DICTIONARY
  5
AA6
330
19B
100
AcDbDictionary
280
     1
281
     1
  0
DICTIONARY
  5
AA2
330
69
100
AcDbDictionary
280
     1
281
     1
  0
DICTIONARY
  5
AC2
330
65
100
AcDbDictionary
280
     1
281
     1
  3
ACAD_ROUNDTRIP_2008_TABLESTYLE_CELLSTYLEMAP
360
AC3
  0
CELLSTYLEMAP
  5
AC3
102
{ACAD_REACTORS
330
AC2
102
}
330
AC2
100
AcDbCellStyleMap
 90
        3
300
CELLSTYLE
  1
TABLEFORMAT_BEGIN
 90
        5
170
     1
 91
        0
 92
    32768
 62
   257
 93
        1
300
CONTENTFORMAT
  1
CONTENTFORMAT_BEGIN
 90
        0
 91
        0
 92
      512
 93
        0
300

 40
0.0
140
1.0
 94
        5
 62
     0
340
55
144
6.0
309
CONTENTFORMAT_END
171
     1
301
MARGIN
  1
CELLMARGIN_BEGIN
 40
1.5
 40
1.5
 40
1.5
 40
1.5
 40
4.5
 40
4.5
309
CELLMARGIN_END
 94
        6
 95
        1
302
GRIDFORMAT
  1
GRIDFORMAT_BEGIN
 90
        0
 91
        1
 62
     0
 92
       -2
340
0
 93
        0
 40
1.125
309
GRIDFORMAT_END
 95
        2
302
GRIDFORMAT
  1
GRIDFORMAT_BEGIN
 90
        0
 91
        1
 62
     0
 92
       -2
340
0
 93
        0
 40
1.125
309
GRIDFORMAT_END
 95
        4
302
GRIDFORMAT
  1
GRIDFORMAT_BEGIN
 90
        0
 91
        1
 62
     0
 92
       -2
340
0
 93
        0
 40
1.125
309
GRIDFORMAT_END
 95
        8
302
GRIDFORMAT
  1
GRIDFORMAT_BEGIN
 90
        0
 91
        1
 62
     0
 92
       -2
340
0
 93
        0
 40
1.125
309
GRIDFORMAT_END
 95
       16
302
GRIDFORMAT
  1
GRIDFORMAT_BEGIN
 90
        0
 91
        1
 62
     0
 92
       -2
340
0
 93
        0
 40
1.125
309
GRIDFORMAT_END
 95
       32
302
GRIDFORMAT
  1
GRIDFORMAT_BEGIN
 90
        0
 91
        1
 62
     0
 92
       -2
340
0
 93
        0
 40
1.125
309
GRIDFORMAT_END
309
TABLEFORMAT_END
  1
CELLSTYLE_BEGIN
 90
        1
 91
        1
300
_TITLE
309
CELLSTYLE_END
300
CELLSTYLE
  1
TABLEFORMAT_BEGIN
 90
        5
170
     1
 91
        0
 92
        0
 62
   257
 93
        1
300
CONTENTFORMAT
  1
CONTENTFORMAT_BEGIN
 90
        0
 91
        0
 92
      512
 93
        0
300

 40
0.0
140
1.0
 94
        5
 62
     0
340
55
144
4.5
309
CONTENTFORMAT_END
171
     1
301
MARGIN
  1
CELLMARGIN_BEGIN
 40
1.5
 40
1.5
 40
1.5
 40
1.5
 40
4.5
 40
4.5
309
CELLMARGIN_END
 94
        6
 95
        1
302
GRIDFORMAT
  1
GRIDFORMAT_BEGIN
 90
        0
 91
        1
 62
     0
 92
       -2
340
0
 93
        0
 40
1.125
309
GRIDFORMAT_END
 95
        2
302
GRIDFORMAT
  1
GRIDFORMAT_BEGIN
 90
        0
 91
        1
 62
     0
 92
       -2
340
0
 93
        0
 40
1.125
309
GRIDFORMAT_END
 95
        4
302
GRIDFORMAT
  1
GRIDFORMAT_BEGIN
 90
        0
 91
        1
 62
     0
 92
       -2
340
0
 93
        0
 40
1.125
309
GRIDFORMAT_END
 95
        8
302
GRIDFORMAT
  1
GRIDFORMAT_BEGIN
 90
        0
 91
        1
 62
     0
 92
       -2
340
0
 93
        0
 40
1.125
309
GRIDFORMAT_END
 95
       16
302
GRIDFORMAT
  1
GRIDFORMAT_BEGIN
 90
        0
 91
        1
 62
     0
 92
       -2
340
0
 93
        0
 40
1.125
309
GRIDFORMAT_END
 95
       32
302
GRIDFORMAT
  1
GRIDFORMAT_BEGIN
 90
        0
 91
        1
 62
     0
 92
       -2
340
0
 93
        0
 40
1.125
309
GRIDFORMAT_END
309
TABLEFORMAT_END
  1
CELLSTYLE_BEGIN
 90
        2
 91
        1
300
_HEADER
309
CELLSTYLE_END
300
CELLSTYLE
  1
TABLEFORMAT_BEGIN
 90
        5
170
     1
 91
        0
 92
        0
 62
   257
 93
        1
300
CONTENTFORMAT
  1
CONTENTFORMAT_BEGIN
 90
        0
 91
        0
 92
      512
 93
        0
300

 40
0.0
140
1.0
 94
        2
 62
     0
340
55
144
4.5
309
CONTENTFORMAT_END
171
     1
301
MARGIN
  1
CELLMARGIN_BEGIN
 40
1.5
 40
1.5
 40
1.5
 40
1.5
 40
4.5
 40
4.5
309
CELLMARGIN_END
 94
        6
 95
        1
302
GRIDFORMAT
  1
GRIDFORMAT_BEGIN
 90
        0
 91
        1
 62
     0
 92
       -2
340
0
 93
        0
 40
1.125
309
GRIDFORMAT_END
 95
        2
302
GRIDFORMAT
  1
GRIDFORMAT_BEGIN
 90
        0
 91
        1
 62
     0
 92
       -2
340
0
 93
        0
 40
1.125
309
GRIDFORMAT_END
 95
        4
302
GRIDFORMAT
  1
GRIDFORMAT_BEGIN
 90
        0
 91
        1
 62
     0
 92
       -2
340
0
 93
        0
 40
1.125
309
GRIDFORMAT_END
 95
        8
302
GRIDFORMAT
  1
GRIDFORMAT_BEGIN
 90
        0
 91
        1
 62
     0
 92
       -2
340
0
 93
        0
 40
1.125
309
GRIDFORMAT_END
 95
       16
302
GRIDFORMAT
  1
GRIDFORMAT_BEGIN
 90
        0
 91
        1
 62
     0
 92
       -2
340
0
 93
        0
 40
1.125
309
GRIDFORMAT_END
 95
       32
302
GRIDFORMAT
  1
GRIDFORMAT_BEGIN
 90
        0
 91
        1
 62
     0
 92
       -2
340
0
 93
        0
 40
1.125
309
GRIDFORMAT_END
309
TABLEFORMAT_END
  1
CELLSTYLE_BEGIN
 90
        3
 91
        2
300
_DATA
309
CELLSTYLE_END
  0
ENDSEC
  0
SECTION
  2
ACDSDATA
 70
     2
 71
     2
  0
ACDSSCHEMA
 90
        0
  1
AcDb_Thumbnail_Schema
  2
AcDbDs::ID
280
    10
 91
        8
  2
Thumbnail_Data
280
    15
 91
        0
101
ACDSRECORD
 95
        0
 90
        2
  2
AcDbDs::TreatedAsObjectData
280
     1
291
     1
101
ACDSRECORD
 95
        0
 90
        3
  2
AcDbDs::Legacy
280
     1
291
     1
101
ACDSRECORD
  1
AcDbDs::ID
 90
        4
  2
AcDs:Indexable
280
     1
291
     1
101
ACDSRECORD
  1
AcDbDs::ID
 90
        5
  2
AcDbDs::HandleAttribute
280
     7
282
     1
  0
ACDSSCHEMA
 90
        1
  1
AcDb3DSolid_ASM_Data
  2
AcDbDs::ID
280
    10
 91
        8
  2
ASM_Data
280
    15
 91
        0
101
ACDSRECORD
 95
        1
 90
        2
  2
AcDbDs::TreatedAsObjectData
280
     1
291
     1
101
ACDSRECORD
 95
        1
 90
        3
  2
AcDbDs::Legacy
280
     1
291
     1
101
ACDSRECORD
  1
AcDbDs::ID
 90
        4
  2
AcDs:Indexable
280
     1
291
     1
101
ACDSRECORD
  1
AcDbDs::ID
 90
        5
  2
AcDbDs::HandleAttribute
280
     7
282
     1
  0
ACDSSCHEMA
 90
        2
  1
AcDbDs::TreatedAsObjectDataSchema
  2
AcDbDs::TreatedAsObjectData
280
     1
 91
        0
  0
ACDSSCHEMA
 90
        3
  1
AcDbDs::LegacySchema
  2
AcDbDs::Legacy
280
     1
 91
        0
  0
ACDSSCHEMA
 90
        4
  1
AcDbDs::IndexedPropertySchema
  2
AcDs:Indexable
280
     1
 91
        0
  0
ACDSSCHEMA
 90
        5
  1
AcDbDs::HandleAttributeSchema
  2
AcDbDs::HandleAttribute
280
     7
 91
        1
284
     1
  0
ACDSRECORD
 90
        0
  2
AcDbDs::ID
280
    10
320
73
  2
Thumbnail_Data
280
    15
 94
     2192
310
89504E470D0A1A0A0000000D494844520000010000000076080300000010A0BD3C00000300504C5445212830000000C8C8C80000000000000000000000000000000000000000000000000000330000660000990000CC0000FF0033000033330033660033990033CC0033FF0066000066330066660066990066CC0066FF0099
310
000099330099660099990099CC0099FF00CC0000CC3300CC6600CC9900CCCC00CCFF00FF0000FF3300FF6600FF9900FFCC00FFFF3300003300333300663300993300CC3300FF3333003333333333663333993333CC3333FF3366003366333366663366993366CC3366FF3399003399333399663399993399CC3399FF33CC00
310
33CC3333CC6633CC9933CCCC33CCFF33FF0033FF3333FF6633FF9933FFCC33FFFF6600006600336600666600996600CC6600FF6633006633336633666633996633CC6633FF6666006666336666666666996666CC6666FF6699006699336699666699996699CC6699FF66CC0066CC3366CC6666CC9966CCCC66CCFF66FF0066
310
FF3366FF6666FF9966FFCC66FFFF9900009900339900669900999900CC9900FF9933009933339933669933999933CC9933FF9966009966339966669966999966CC9966FF9999009999339999669999999999CC9999FF99CC0099CC3399CC6699CC9999CCCC99CCFF99FF0099FF3399FF6699FF9999FFCC99FFFFCC0000CC00
310
33CC0066CC0099CC00CCCC00FFCC3300CC3333CC3366CC3399CC33CCCC33FFCC6600CC6633CC6666CC6699CC66CCCC66FFCC9900CC9933CC9966CC9999CC99CCCC99FFCCCC00CCCC33CCCC66CCCC99CCCCCCCCCCFFCCFF00CCFF33CCFF66CCFF99CCFFCCCCFFFFFF0000FF0033FF0066FF0099FF00CCFF00FFFF3300FF3333
310
FF3366FF3399FF33CCFF33FFFF6600FF6633FF6666FF6699FF66CCFF66FFFF9900FF9933FF9966FF9999FF99CCFF99FFFFCC00FFCC33FFCC66FFCC99FFCCCCFFCCFFFFFF00FFFF33FFFF66FFFF99FFFFCCFFFFFF0000000D0D0D1A1A1A2828283535354343435050505D5D5D6B6B6B787878868686939393A1A1A1AEAEAEBB
310
BBBBC9C9C9D6D6D6E4E4E4F1F1F1FFFFFF000000000000000000000000000000000000000000000000000000000000B21171F6000001614944415478DAEDDA3B76C3300C44512E07FB5FC02C807B51A93E3E39910252305DB9E1BC5B25728521F8B3DC1A000000000000000000F05D2AFF747128171DE133D8D713AD3FDFAC
310
7EAD1F68FB29902B948EB9E0FD9780A162150D61D40255B10E9B8056836D1180C6FAC7496173EC1966C2FD8FC73168DEF942F7237984F0D8FB959A4367B73AFB4FD3E1D50F1601E86D002DBAC524A80391CB79B8459DC0FF6620B349F057F075173E0C7A40E697C2670B9040B34BE0C3A4A005DC5A20347C107E2D70E95DBB
310
B740689180D1B762EF02D8BCF85460516B787D2FFEDCECCC5E8CC82C003D0FC0722E7F6E81F374AA5F2A9604A383DFBD15DEA37E58FD3420BF16B0B9FDA4C99ECF0221B7FAA5E915B1DBF8CFABE1EFEB10CBE9EF73FBF970D791E9F86B7125F0B80AE5ADD0A50B54A661B60A542DD04C13E896EB60EA802EEF04AA2B0109D8
310
26D0088004488000480000000000000000000000000000007CC50F90AAD965E0CCD34D0000000049454E44AE426082F41111E07E0B78C220924E301270EE3805703F00944F81C43608CB8DBC6BC7D94418E7B191D525E0D5F86CAF3ABF9BFE500464127030DDFAB2AFB8F817008CC414E8161BB83895FAD406616A54A41118
310
7D705EDDBCC182707A9F615C3B11280277CFCEAA530F0CC737227DF0AAF6BFB0003CD90E6511280A60FEDAB9DE2A261005B07CE9FABE774EAD08221EF83EAE73E60540690A1C7AE0747761897F90803C0277A4C0A1027C992517C2EFFAAE77227DF01E02C716E0CB6C20303980E64A1003E0C7DF19E153825B5220E6819E40
310
67BC00DCF69E803E02B13E70EA8029E860754F409B084EDA209A86EF96C3EB4C8173007EF87D0FD53670321398BEEE7B637725409708CEE6C22FE55BDD95E0742EFC7F014A1D81F3DB61887CA14804A9AB62EA52207959501B81E475616D22385D13692005900B400B819C9D01AA4490B53542E252516E0AE402989E32D140
310
20DD0266024A449007404F25C8DD1CA4A61264EF8E925D096C7900C245600B5BC02E0578DE3A161B8FB509FB9EF301AC09480230FE7C0FE0D2856BA8049736C0C9AE0429196072CF65AD500026A9144EFB7F723E562A81F034F8F704B2CF65858A20B14F3774CD06A43D6A82BB364FB5342768B912284C819F08CA88607E3E
310
11CD8AE010404B22883C9DDD522540E395E0F4312DFD22086F9CAA2D0570DF01A36B018D8800F1E7668412B85B041F765391CEADD41F8B4005049EEB88D58B802A4D81DFC478D7D017798F75352228F5EEC06A4470E995631A4480526FF2979902072228E68975CC09806297283505362240C9FD5D55880005F77755910284
310
82FBDB44A7C05B04A0C600EC45D0DC946021D0ECA46827026A37057E048402F803EAFDE20FD088A85C0000000049454E44AE4260822C7A536D2E2099097A47C028428045819C9B1E1E26FE39111C8E2AEB1441168047007E4904C7B5C26F89002765106D3E9875D3B3639A3086F7227AD8C64400E0F0B677189A0F0C030B81
310
D488E1EC7DF74C049A13416500DA4C874E3BC9428043819D08F2DF94A28E02FB9B1678216B1C027F2948900955E4593E0000000049454E44AE4260821911E87A6CE216C12D025C11805B04B7086E11DC229011814E0ADC08DC22B845708B80EF7FA5B1E5744D11B85327882E2B020AFBCF571601198D003022407726D0D41C
310
12CA041A2970237055006E047222C0EC5CBC7FBD08B613116002C2FFE6A24A04190A8C27E2A15F043222403A3AFADFEF6BBE7DB01311943F52A85B04256FC1EF400440D104D48B0085AB249514F83841F4D222C0E43CC7AB8AA0ECBC06F522287E35AD7E1184B32AC3B150478EABD42E827014463A09A17300D6CAA1785CE3
310
2106F4500ED978164AEEC4D63F1C1D346E6634D9D60000000049454E44AE426082
  0
ENDSEC
  0
EOF
