  0
SECTION
  2
HEADER
  9
$ACADVER
  1
AC1032
  9
$ACADMAINTVER
 90
       55
  9
$DWGCODEPAGE
  3
ANSI_1252
  9
$LASTSAVEDBY
  1
eac573
  9
$REQUIREDVERSIONS
160
                 0
  9
$INSBASE
 10
0.0
 20
0.0
 30
0.0
  9
$EXTMIN
 10
-13.3675637425028
 20
77.90355800930354
 30
0.0
  9
$EXTMAX
 10
136.2630875596145
 20
183.6946044602873
 30
0.0
  9
$LIMMIN
 10
0.0
 20
0.0
  9
$LIMMAX
 10
12.0
 20
9.0
  9
$ORTHOMODE
 70
     0
  9
$REGENMODE
 70
     1
  9
$FILLMODE
 70
     1
  9
$QTEXTMODE
 70
     0
  9
$MIRRTEXT
 70
     0
  9
$LTSCALE
 40
1.0
  9
$ATTMODE
 70
     1
  9
$TEXTSIZE
 40
0.2
  9
$TRACEWID
 40
0.05
  9
$TEXTSTYLE
  7
Standard
  9
$CLAYER
  8
Detail
  9
$CELTYPE
  6
Continuous
  9
$CECOLOR
 62
   256
  9
$CELTSCALE
 40
1.0
  9
$DISPSILH
 70
     0
  9
$DIMSCALE
 40
1.0
  9
$DIMASZ
 40
0.18
  9
$DIMEXO
 40
0.0625
  9
$DIMDLI
 40
0.38
  9
$DIMRND
 40
0.0
  9
$DIMDLE
 40
0.0
  9
$DIMEXE
 40
0.18
  9
$DIMTP
 40
0.0
  9
$DIMTM
 40
0.0
  9
$DIMTXT
 40
0.18
  9
$DIMCEN
 40
-0.09
  9
$DIMTSZ
 40
0.0
  9
$DIMTOL
 70
     0
  9
$DIMLIM
 70
     0
  9
$DIMTIH
 70
     1
  9
$DIMTOH
 70
     1
  9
$DIMSE1
 70
     0
  9
$DIMSE2
 70
     0
  9
$DIMTAD
 70
     0
  9
$DIMZIN
 70
     0
  9
$DIMBLK
  1

  9
$DIMASO
 70
     1
  9
$DIMSHO
 70
     1
  9
$DIMPOST
  1

  9
$DIMAPOST
  1

  9
$DIMALT
 70
     0
  9
$DIMALTD
 70
     2
  9
$DIMALTF
 40
25.4
  9
$DIMLFAC
 40
1.0
  9
$DIMTOFL
 70
     0
  9
$DIMTVP
 40
0.0
  9
$DIMTIX
 70
     0
  9
$DIMSOXD
 70
     0
  9
$DIMSAH
 70
     0
  9
$DIMBLK1
  1

  9
$DIMBLK2
  1

  9
$DIMSTYLE
  2
Standard
  9
$DIMCLRD
 70
     0
  9
$DIMCLRE
 70
     0
  9
$DIMCLRT
 70
     0
  9
$DIMTFAC
 40
1.0
  9
$DIMGAP
 40
0.09
  9
$DIMJUST
 70
     0
  9
$DIMSD1
 70
     0
  9
$DIMSD2
 70
     0
  9
$DIMTOLJ
 70
     1
  9
$DIMTZIN
 70
     0
  9
$DIMALTZ
 70
     0
  9
$DIMALTTZ
 70
     0
  9
$DIMUPT
 70
     0
  9
$DIMDEC
 70
     4
  9
$DIMTDEC
 70
     4
  9
$DIMALTU
 70
     2
  9
$DIMALTTD
 70
     2
  9
$DIMTXSTY
  7
Standard
  9
$DIMAUNIT
 70
     0
  9
$DIMADEC
 70
     0
  9
$DIMALTRND
 40
0.0
  9
$DIMAZIN
 70
     0
  9
$DIMDSEP
 70
    46
  9
$DIMATFIT
 70
     3
  9
$DIMFRAC
 70
     0
  9
$DIMLDRBLK
  1

  9
$DIMLUNIT
 70
     2
  9
$DIMLWD
 70
    -2
  9
$DIMLWE
 70
    -2
  9
$DIMTMOVE
 70
     0
  9
$DIMFXL
 40
1.0
  9
$DIMFXLON
 70
     0
  9
$DIMJOGANG
 40
0.7853981633974483
  9
$DIMTFILL
 70
     0
  9
$DIMTFILLCLR
 70
     0
  9
$DIMARCSYM
 70
     0
  9
$DIMLTYPE
  6

  9
$DIMLTEX1
  6

  9
$DIMLTEX2
  6

  9
$DIMTXTDIRECTION
 70
     0
  9
$LUNITS
 70
     2
  9
$LUPREC
 70
     4
  9
$SKETCHINC
 40
0.1
  9
$FILLETRAD
 40
0.0
  9
$AUNITS
 70
     0
  9
$AUPREC
 70
     0
  9
$MENU
  1
.
  9
$ELEVATION
 40
0.0
  9
$PELEVATION
 40
0.0
  9
$THICKNESS
 40
0.0
  9
$LIMCHECK
 70
     0
  9
$CHAMFERA
 40
0.0
  9
$CHAMFERB
 40
0.0
  9
$CHAMFERC
 40
0.0
  9
$CHAMFERD
 40
0.0
  9
$SKPOLY
 70
     0
  9
$TDCREATE
 40
2452643.105050938
  9
$TDUCREATE
 40
2452643.063384271
  9
$TDUPDATE
 40
2460088.581881424
  9
$TDUUPDATE
 40
2460088.540214757
  9
$TDINDWG
 40
0.0534121759
  9
$TDUSRTIMER
 40
2459802.482568484
  9
$USRTIMER
 70
     1
  9
$ANGBASE
 50
0.0
  9
$ANGDIR
 70
     0
  9
$PDMODE
 70
     0
  9
$PDSIZE
 40
0.0
  9
$PLINEWID
 40
0.0
  9
$SPLFRAME
 70
     0
  9
$SPLINETYPE
 70
     6
  9
$SPLINESEGS
 70
     8
  9
$HANDSEED
  5
12B3
  9
$SURFTAB1
 70
     6
  9
$SURFTAB2
 70
     6
  9
$SURFTYPE
 70
     6
  9
$SURFU
 70
     6
  9
$SURFV
 70
     6
  9
$UCSBASE
  2

  9
$UCSNAME
  2

  9
$UCSORG
 10
0.0
 20
0.0
 30
0.0
  9
$UCSXDIR
 10
1.0
 20
0.0
 30
0.0
  9
$UCSYDIR
 10
0.0
 20
1.0
 30
0.0
  9
$UCSORTHOREF
  2

  9
$UCSORTHOVIEW
 70
     0
  9
$UCSORGTOP
 10
0.0
 20
0.0
 30
0.0
  9
$UCSORGBOTTOM
 10
0.0
 20
0.0
 30
0.0
  9
$UCSORGLEFT
 10
0.0
 20
0.0
 30
0.0
  9
$UCSORGRIGHT
 10
0.0
 20
0.0
 30
0.0
  9
$UCSORGFRONT
 10
0.0
 20
0.0
 30
0.0
  9
$UCSORGBACK
 10
0.0
 20
0.0
 30
0.0
  9
$PUCSBASE
  2

  9
$PUCSNAME
  2

  9
$PUCSORG
 10
0.0
 20
0.0
 30
0.0
  9
$PUCSXDIR
 10
1.0
 20
0.0
 30
0.0
  9
$PUCSYDIR
 10
0.0
 20
1.0
 30
0.0
  9
$PUCSORTHOREF
  2

  9
$PUCSORTHOVIEW
 70
     0
  9
$PUCSORGTOP
 10
0.0
 20
0.0
 30
0.0
  9
$PUCSORGBOTTOM
 10
0.0
 20
0.0
 30
0.0
  9
$PUCSORGLEFT
 10
0.0
 20
0.0
 30
0.0
  9
$PUCSORGRIGHT
 10
0.0
 20
0.0
 30
0.0
  9
$PUCSORGFRONT
 10
0.0
 20
0.0
 30
0.0
  9
$PUCSORGBACK
 10
0.0
 20
0.0
 30
0.0
  9
$USERI1
 70
     0
  9
$USERI2
 70
     0
  9
$USERI3
 70
     0
  9
$USERI4
 70
     0
  9
$USERI5
 70
     0
  9
$USERR1
 40
0.0
  9
$USERR2
 40
0.0
  9
$USERR3
 40
0.0
  9
$USERR4
 40
0.0
  9
$USERR5
 40
0.0
  9
$WORLDVIEW
 70
     1
  9
$SHADEDGE
 70
     3
  9
$SHADEDIF
 70
    70
  9
$TILEMODE
 70
     1
  9
$MAXACTVP
 70
    64
  9
$PINSBASE
 10
0.0
 20
0.0
 30
0.0
  9
$PLIMCHECK
 70
     0
  9
$PEXTMIN
 10
7.347393234749617
 20
11.77616220673019
 30
0.0
  9
$PEXTMAX
 10
287.3473932347496
 20
201.7761622067302
 30
0.0
  9
$PLIMMIN
 10
-1.152606765250368
 20
1.77616220673019
  9
$PLIMMAX
 10
10.75
 20
7.75
  9
$UNITMODE
 70
     0
  9
$VISRETAIN
 70
     1
  9
$PLINEGEN
 70
     0
  9
$PSLTSCALE
 70
     1
  9
$TREEDEPTH
 70
  3020
  9
$CMLSTYLE
  2
Standard
  9
$CMLJUST
 70
     0
  9
$CMLSCALE
 40
1.0
  9
$PROXYGRAPHICS
 70
     1
  9
$MEASUREMENT
 70
     0
  9
$CELWEIGHT
370
    -1
  9
$ENDCAPS
280
     0
  9
$JOINSTYLE
280
     0
  9
$LWDISPLAY
290
     0
  9
$INSUNITS
 70
     6
  9
$HYPERLINKBASE
  1

  9
$STYLESHEET
  1

  9
$XEDIT
290
     1
  9
$CEPSNTYPE
380
     0
  9
$PSTYLEMODE
290
     1
  9
$FINGERPRINTGUID
  2
{FDEAD576-A652-11D2-9A35-0060089B3A3F}
  9
$VERSIONGUID
  2
{FBC2AE19-5C5C-49EC-81BC-71B1A3362A02}
  9
$EXTNAMES
290
     1
  9
$PSVPSCALE
 40
0.0
  9
$OLESTARTUP
290
     0
  9
$SORTENTS
280
   127
  9
$INDEXCTL
280
     0
  9
$HIDETEXT
280
     1
  9
$XCLIPFRAME
280
     0
  9
$HALOGAP
280
     0
  9
$OBSCOLOR
 70
   257
  9
$OBSLTYPE
280
     0
  9
$INTERSECTIONDISPLAY
280
     0
  9
$INTERSECTIONCOLOR
 70
   257
  9
$DIMASSOC
280
     2
  9
$PROJECTNAME
  1

  9
$CAMERADISPLAY
290
     0
  9
$LENSLENGTH
 40
50.0
  9
$CAMERAHEIGHT
 40
0.0
  9
$STEPSPERSEC
 40
2.0
  9
$STEPSIZE
 40
6.0
  9
$3DDWFPREC
 40
2.0
  9
$PSOLWIDTH
 40
0.25
  9
$PSOLHEIGHT
 40
4.0
  9
$LOFTANG1
 40
1.570796326794897
  9
$LOFTANG2
 40
1.570796326794897
  9
$LOFTMAG1
 40
0.0
  9
$LOFTMAG2
 40
0.0
  9
$LOFTPARAM
 70
     7
  9
$LOFTNORMALS
280
     1
  9
$LATITUDE
 40
37.795
  9
$LONGITUDE
 40
-122.394
  9
$NORTHDIRECTION
 40
0.0
  9
$TIMEZONE
 70
 -8000
  9
$LIGHTGLYPHDISPLAY
280
     1
  9
$TILEMODELIGHTSYNCH
280
     1
  9
$CMATERIAL
347
96
  9
$SOLIDHIST
280
     1
  9
$SHOWHIST
280
     1
  9
$DWFFRAME
280
     2
  9
$DGNFRAME
280
     2
  9
$REALWORLDSCALE
290
     1
  9
$INTERFERECOLOR
 62
     1
  9
$CSHADOW
280
     0
  9
$SHADOWPLANELOCATION
 40
0.0
  0
ENDSEC
  0
SECTION
  2
CLASSES
  0
CLASS
  1
ACDBDICTIONARYWDFLT
  2
AcDbDictionaryWithDefault
  3
ObjectDBX Classes
 90
        0
 91
        3
280
     0
281
     0
  0
CLASS
  1
ACDBPLACEHOLDER
  2
AcDbPlaceHolder
  3
ObjectDBX Classes
 90
        0
 91
        1
280
     0
281
     0
  0
CLASS
  1
LAYOUT
  2
AcDbLayout
  3
ObjectDBX Classes
 90
        0
 91
        1
280
     0
281
     0
  0
CLASS
  1
DICTIONARYVAR
  2
AcDbDictionaryVar
  3
ObjectDBX Classes
 90
        0
 91
        3
280
     0
281
     0
  0
CLASS
  1
TABLESTYLE
  2
AcDbTableStyle
  3
ObjectDBX Classes
 90
     4095
 91
        3
280
     0
281
     0
  0
CLASS
  1
MATERIAL
  2
AcDbMaterial
  3
ObjectDBX Classes
 90
     1153
 91
        3
280
     0
281
     0
  0
CLASS
  1
VISUALSTYLE
  2
AcDbVisualStyle
  3
ObjectDBX Classes
 90
     4095
 91
        3
280
     0
281
     0
  0
CLASS
  1
SCALE
  2
AcDbScale
  3
ObjectDBX Classes
 90
     1153
 91
        3
280
     0
281
     0
  0
CLASS
  1
CELLSTYLEMAP
  2
AcDbCellStyleMap
  3
ObjectDBX Classes
 90
     1152
 91
        3
280
     0
281
     0
  0
CLASS
  1
RASTERVARIABLES
  2
AcDbRasterVariables
  3
ISM
 90
        0
 91
        3
280
     0
281
     0
  0
CLASS
  1
SUN
  2
AcDbSun
  3
SCENEOE
 90
     1153
 91
        3
280
     0
281
     0
  0
CLASS
  1
MLEADERSTYLE
  2
AcDbMLeaderStyle
  3
ACDB_MLEADERSTYLE_CLASS
 90
     4095
 91
        3
280
     0
281
     0
  0
CLASS
  1
IMAGE
  2
AcDbRasterImage
  3
ISM
 90
      127
 91
        4
280
     0
281
     1
  0
CLASS
  1
IMAGEDEF
  2
AcDbRasterImageDef
  3
ISM
 90
        0
 91
        3
280
     0
281
     0
  0
CLASS
  1
IMAGEDEF_REACTOR
  2
AcDbRasterImageDefReactor
  3
ISM
 90
        1
 91
        3
280
     0
281
     0
  0
CLASS
  1
SORTENTSTABLE
  2
AcDbSortentsTable
  3
ObjectDBX Classes
 90
        0
 91
        3
280
     0
281
     0
  0
ENDSEC
  0
SECTION
  2
TABLES
  0
TABLE
  2
VPORT
  5
8
330
0
100
AcDbSymbolTable
 70
     1
  0
VPORT
  5
94
330
8
100
AcDbSymbolTableRecord
100
AcDbViewportTableRecord
  2
*Active
 70
     0
 10
0.0
 20
0.0
 11
1.0
 21
1.0
 12
107.2460396048871
 22
173.151062306458
 13
0.0
 23
0.0
 14
0.5
 24
0.5
 15
0.5
 25
0.5
 16
0.0
 26
0.0
 36
1.0
 17
-27.66959356598011
 27
-19.5387029578618
 37
0.0
 40
133.1289064489388
 41
2.111594202898551
 42
50.0
 43
0.0
 44
0.0
 50
0.0
 51
0.0
 71
    16
 72
  1000
 73
     1
 74
     3
 75
     0
 76
     0
 77
     0
 78
     0
281
     0
 65
     1
110
0.0
120
0.0
130
0.0
111
1.0
121
0.0
131
0.0
112
0.0
122
1.0
132
0.0
 79
     0
146
0.0
348
9F
 60
     2
 61
     5
292
     1
282
     1
141
0.0
142
0.0
 63
   250
421
  3355443
361
ED
  0
ENDTAB
  0
TABLE
  2
LTYPE
  5
5
330
0
100
AcDbSymbolTable
 70
     5
  0
LTYPE
  5
14
330
5
100
AcDbSymbolTableRecord
100
AcDbLinetypeTableRecord
  2
ByBlock
 70
     0
  3

 72
    65
 73
     0
 40
0.0
  0
LTYPE
  5
15
330
5
100
AcDbSymbolTableRecord
100
AcDbLinetypeTableRecord
  2
ByLayer
 70
     0
  3

 72
    65
 73
     0
 40
0.0
  0
LTYPE
  5
16
330
5
100
AcDbSymbolTableRecord
100
AcDbLinetypeTableRecord
  2
Continuous
 70
     0
  3
Solid line
 72
    65
 73
     0
 40
0.0
  0
LTYPE
  5
13A
330
5
100
AcDbSymbolTableRecord
100
AcDbLinetypeTableRecord
  2
1
 70
     0
  3
SOLID
 72
    65
 73
     0
 40
0.0
  0
LTYPE
  5
2EC
330
5
100
AcDbSymbolTableRecord
100
AcDbLinetypeTableRecord
  2
DASH2DOT
 70
     0
  3
 DashDotDot ____ . . ____ . . ____ . . ____ . .
 72
    65
 73
     6
 40
1.25
 49
0.5
 74
     0
 49
-0.25
 74
     0
 49
0.0
 74
     0
 49
-0.25
 74
     0
 49
0.0
 74
     0
 49
-0.25
 74
     0
  0
LTYPE
  5
2ED
330
5
100
AcDbSymbolTableRecord
100
AcDbLinetypeTableRecord
  2
DASHDOT
 70
     0
  3
 DashDot __ . __ . __ . __ . __ . __ . __ . __ 
 72
    65
 73
     4
 40
1.0
 49
0.5
 74
     0
 49
-0.25
 74
     0
 49
0.0
 74
     0
 49
-0.25
 74
     0
  0
LTYPE
  5
2EE
330
5
100
AcDbSymbolTableRecord
100
AcDbLinetypeTableRecord
  2
DASHED
 70
     0
  3
 Dashed __ __ __ __ __ __ __ __ __ __ __ __ __ 
 72
    65
 73
     2
 40
0.375
 49
0.25
 74
     0
 49
-0.125
 74
     0
  0
ENDTAB
  0
TABLE
  2
LAYER
  5
2
102
{ACAD_XDICTIONARY
360
12A
102
}
330
0
100
AcDbSymbolTable
 70
    11
  0
LAYER
  5
10
330
2
100
AcDbSymbolTableRecord
100
AcDbLayerTableRecord
  2
0
 70
     0
 62
     7
  6
Continuous
370
    -3
390
F
347
98
348
0
  0
LAYER
  5
12D
330
2
100
AcDbSymbolTableRecord
100
AcDbLayerTableRecord
  2
Context
 70
     0
 62
     7
  6
Continuous
370
    -3
390
F
347
98
348
0
1001
AcAecLayerStandard
1000

1000

  0
LAYER
  5
12F
330
2
100
AcDbSymbolTableRecord
100
AcDbLayerTableRecord
  2
Detail
 70
     0
 62
     7
  6
Continuous
370
    -3
390
F
347
98
348
0
1001
AcAecLayerStandard
1000

1000

  0
LAYER
  5
130
330
2
100
AcDbSymbolTableRecord
100
AcDbLayerTableRecord
  2
Limits
 70
     0
 62
     7
  6
Continuous
370
    -3
390
F
347
98
348
0
1001
AcAecLayerStandard
1000

1000

  0
LAYER
  5
131
330
2
100
AcDbSymbolTableRecord
100
AcDbLayerTableRecord
  2
Labels
 70
     0
 62
     7
  6
Continuous
370
    -3
390
F
347
98
348
0
1001
AcAecLayerStandard
1000

1000

  0
LAYER
  5
132
330
2
100
AcDbSymbolTableRecord
100
AcDbLayerTableRecord
  2
Heights
 70
     0
 62
     7
  6
Continuous
370
    -3
390
F
347
98
348
0
1001
AcAecLayerStandard
1000

1000

  0
LAYER
  5
134
330
2
100
AcDbSymbolTableRecord
100
AcDbLayerTableRecord
  2
Scanned Sheet
 70
     0
 62
     7
  6
Continuous
370
    -3
390
F
347
98
348
0
1001
AcAecLayerStandard
1000

1000

  0
LAYER
  5
135
330
2
100
AcDbSymbolTableRecord
100
AcDbLayerTableRecord
  2
Viewport
 70
     0
 62
     7
  6
Continuous
370
    -3
390
F
347
98
348
0
1001
AcAecLayerStandard
1000

1000

  0
LAYER
  5
138
330
2
100
AcDbSymbolTableRecord
100
AcDbLayerTableRecord
  2
Scalebar
 70
     0
 62
     7
  6
1
370
    -3
390
F
347
98
348
0
1001
AcAecLayerStandard
1000

1000

  0
LAYER
  5
27D
330
2
100
AcDbSymbolTableRecord
100
AcDbLayerTableRecord
  2
W.Station
 70
     0
 62
     7
  6
Continuous
370
    -3
390
F
347
98
348
0
1001
AcAecLayerStandard
1000

1000

  0
LAYER
  5
2F3
330
2
100
AcDbSymbolTableRecord
100
AcDbLayerTableRecord
  2
Defpoints
 70
     0
 62
     7
  6
Continuous
290
     0
370
    -3
390
F
347
98
348
0
  0
ENDTAB
  0
TABLE
  2
STYLE
  5
3
330
0
100
AcDbSymbolTable
 70
     2
  0
STYLE
  5
11
330
3
100
AcDbSymbolTableRecord
100
AcDbTextStyleTableRecord
  2
Standard
 70
     0
 40
0.0
 41
1.0
 50
0.0
 71
     0
 42
0.2
  3
arial.ttf
  4

1001
ACAD
1000
Arial
1071
        0
  0
STYLE
  5
125
330
3
100
AcDbSymbolTableRecord
100
AcDbTextStyleTableRecord
  2
Annotative
 70
     0
 40
0.0
 41
1.0
 50
0.0
 71
     0
 42
0.2
  3
arial.ttf
  4

1001
ACAD
1000
Arial
1071
        0
1001
AcadAnnotative
1000
AnnotativeData
1002
{
1070
     1
1070
     1
1002
}
  0
ENDTAB
  0
TABLE
  2
VIEW
  5
6
330
0
100
AcDbSymbolTable
 70
     0
  0
ENDTAB
  0
TABLE
  2
UCS
  5
7
330
0
100
AcDbSymbolTable
 70
     0
  0
ENDTAB
  0
TABLE
  2
APPID
  5
9
330
0
100
AcDbSymbolTable
 70
     4
  0
APPID
  5
12
330
9
100
AcDbSymbolTableRecord
100
AcDbRegAppTableRecord
  2
ACAD
 70
     0
  0
APPID
  5
126
330
9
100
AcDbSymbolTableRecord
100
AcDbRegAppTableRecord
  2
AcadAnnotative
 70
     0
  0
APPID
  5
12E
330
9
100
AcDbSymbolTableRecord
100
AcDbRegAppTableRecord
  2
AcAecLayerStandard
 70
     0
  0
APPID
  5
31F
330
9
100
AcDbSymbolTableRecord
100
AcDbRegAppTableRecord
  2
PLOTTRANSPARENCY
 70
     0
  0
ENDTAB
  0
TABLE
  2
DIMSTYLE
  5
A
330
0
100
AcDbSymbolTable
 70
     3
100
AcDbDimStyleTable
  0
DIMSTYLE
105
27
330
A
100
AcDbSymbolTableRecord
100
AcDbDimStyleTableRecord
  2
Standard
 70
     0
141
-0.09
178
     0
340
11
  0
DIMSTYLE
105
127
330
A
100
AcDbSymbolTableRecord
100
AcDbDimStyleTableRecord
  2
Annotative
 70
     0
 40
0.0
141
-0.09
178
     0
340
11
1001
AcadAnnotative
1000
AnnotativeData
1002
{
1070
     1
1070
     1
1002
}
  0
DIMSTYLE
105
13E
330
A
100
AcDbSymbolTableRecord
100
AcDbDimStyleTableRecord
  2
ISO-25
 70
     0
 41
2.5
 42
0.625
 43
3.75
 44
1.25
 73
     0
 74
     0
 77
     1
 78
     8
140
2.5
141
2.5
143
0.03937007874016
147
0.625
171
     3
172
     1
178
     0
271
     2
272
     2
274
     3
278
    44
283
     0
284
     8
340
11
  0
ENDTAB
  0
TABLE
  2
BLOCK_RECORD
  5
1
330
0
100
AcDbSymbolTable
 70
     4
  0
BLOCK_RECORD
  5
1F
102
{ACAD_XDICTIONARY
360
46C
102
}
330
1
100
AcDbSymbolTableRecord
100
AcDbBlockTableRecord
  2
*Model_Space
340
22
 70
     0
280
     1
281
     0
  0
BLOCK_RECORD
  5
2F4
330
1
100
AcDbSymbolTableRecord
100
AcDbBlockTableRecord
  2
*Paper_Space
340
31E
 70
     0
280
     1
281
     0
  0
BLOCK_RECORD
  5
3AB
330
1
100
AcDbSymbolTableRecord
100
AcDbBlockTableRecord
  2
*Paper_Space10
340
3AC
 70
     0
280
     1
281
     0
  0
BLOCK_RECORD
  5
320
330
1
100
AcDbSymbolTableRecord
100
AcDbBlockTableRecord
  2
*Paper_Space11
340
34C
 70
     0
280
     1
281
     0
  0
BLOCK_RECORD
  5
357
330
1
100
AcDbSymbolTableRecord
100
AcDbBlockTableRecord
  2
*Paper_Space13
340
358
 70
     0
280
     1
281
     0
  0
BLOCK_RECORD
  5
1286
330
1
100
AcDbSymbolTableRecord
100
AcDbBlockTableRecord
  2
*Paper_Space14
340
12AF
 70
     0
280
     1
281
     0
  0
ENDTAB
  0
ENDSEC
  0
SECTION
  2
BLOCKS
  0
BLOCK
  5
20
330
1F
100
AcDbEntity
  8
0
100
AcDbBlockBegin
  2
*Model_Space
 70
     0
 10
0.0
 20
0.0
 30
0.0
  3
*Model_Space
  1

  0
ENDBLK
  5
21
330
1F
100
AcDbEntity
  8
0
100
AcDbBlockEnd
  0
BLOCK
  5
2F5
330
2F4
100
AcDbEntity
 67
     1
  8
0
100
AcDbBlockBegin
  2
*Paper_Space
 70
     0
 10
0.0
 20
0.0
 30
0.0
  3
*Paper_Space
  1

  0
ENDBLK
  5
31D
330
2F4
100
AcDbEntity
 67
     1
  8
0
100
AcDbBlockEnd
  0
BLOCK
  5
3AD
330
3AB
100
AcDbEntity
  8
0
100
AcDbBlockBegin
  2
*Paper_Space10
 70
     0
 10
0.0
 20
0.0
 30
0.0
  3
*Paper_Space10
  1

  0
VIEWPORT
  5
3AF
330
3AB
100
AcDbEntity
  8
0
100
AcDbViewport
 10
0.0
 20
0.0
 30
0.0
 40
965.8234965034966
 41
401.8800000000001
 68
     1
 69
     1
 12
134.9814814814106
 22
196.9999999999131
 13
0.0
 23
0.0
 14
0.5
 24
0.5
 15
0.0
 25
0.0
 16
0.0
 26
0.0
 36
1.0
 17
0.0
 27
0.0
 37
0.0
 42
50.0
 43
0.0
 44
0.0
 45
401.8800000000001
 50
0.0
 51
0.0
 72
   100
 90
   557168
  1

281
     0
 71
     1
 74
     0
110
0.0
120
0.0
130
0.0
111
1.0
121
0.0
131
0.0
112
0.0
122
1.0
132
0.0
 79
     0
146
0.0
170
     0
 61
     5
348
9F
292
     1
282
     1
141
0.0
142
0.0
 63
   256
361
3B3
  0
LWPOLYLINE
  5
3E4
330
3AB
100
AcDbEntity
  8
Scanned Sheet
100
AcDbPolyline
 90
        4
 70
     1
 43
0.0
 10
-0.0000000000709126
 20
43.77777777769096
 10
-0.0000000000709126
 20
393.999999999913
 10
269.9629629628922
 20
393.999999999913
 10
269.9629629628922
 20
43.77777777769096
  0
LWPOLYLINE
  5
3E5
330
3AB
100
AcDbEntity
  8
Scanned Sheet
370
     5
100
AcDbPolyline
 90
        4
 70
     1
 43
0.0
 10
65.66666666659589
 20
-0.0000000000869049
 10
65.66666666659589
 20
21.88888888880203
 10
204.2962962962257
 20
21.88888888880203
 10
204.2962962962257
 20
-0.0000000000869049
  0
LWPOLYLINE
  5
3E6
330
3AB
100
AcDbEntity
  8
Scanned Sheet
370
     5
100
AcDbPolyline
 90
        4
 70
     1
 43
0.0
 10
65.66666666659589
 20
21.88888888880254
 10
65.66666666659589
 20
43.77777777769121
 10
204.2962962962257
 20
43.77777777769121
 10
204.2962962962257
 20
21.88888888880254
  0
LWPOLYLINE
  5
3E7
330
3AB
100
AcDbEntity
  8
Scanned Sheet
370
     5
100
AcDbPolyline
 90
        4
 70
     1
 43
0.0
 10
-0.000000000070643
 20
21.88888888880254
 10
-0.000000000070643
 20
43.77777777769121
 10
65.66666666659589
 20
43.77777777769121
 10
65.66666666659589
 20
21.88888888880254
  0
LWPOLYLINE
  5
3E8
330
3AB
100
AcDbEntity
  8
Scanned Sheet
370
     5
100
AcDbPolyline
 90
        4
 70
     1
 43
0.0
 10
-0.000000000070643
 20
-0.0000000000869049
 10
-0.000000000070643
 20
21.88888888880203
 10
65.66666666659589
 20
21.88888888880203
 10
65.66666666659589
 20
-0.0000000000869049
  0
LWPOLYLINE
  5
3E9
330
3AB
100
AcDbEntity
  8
Scanned Sheet
370
     5
100
AcDbPolyline
 90
        4
 70
     1
 43
0.0
 10
204.2962962962257
 20
-0.0000000000869049
 10
204.2962962962257
 20
43.77777777769096
 10
269.9629629628922
 20
43.77777777769096
 10
269.9629629628922
 20
-0.0000000000869049
  0
VIEWPORT
  5
3EA
102
{ACAD_XDICTIONARY
360
3EB
102
}
330
3AB
100
AcDbEntity
  8
Scanned Sheet
370
     5
100
AcDbViewport
 10
134.9814814814106
 20
218.8888888888021
 30
0.0
 40
269.9629629629629
 41
350.2222222222221
 68
     2
 69
     2
 12
101.3981279257675
 22
51.38149272808087
 13
0.0
 23
0.0
 14
0.5
 24
0.5
 15
0.5
 25
0.5
 16
0.0
 26
0.0
 36
1.0
 17
0.0
 27
0.0
 37
0.0
 42
50.0
 43
0.0
 44
0.0
 45
154.0293622555533
 50
0.0
 51
0.0
 72
   100
 90
   557168
  1

281
     0
 71
     1
 74
     0
110
0.0
120
0.0
130
0.0
111
1.0
121
0.0
131
0.0
112
0.0
122
1.0
132
0.0
 79
     0
146
0.0
170
     0
 61
     5
348
9F
292
     1
282
     1
141
0.0
142
0.0
 63
   256
361
3ED
  0
MTEXT
  5
3EE
330
3AB
100
AcDbEntity
  8
Scanned Sheet
100
AcDbMText
 10
209.4617261392634
 20
5.966262546801595
 30
0.0
 40
2.188888888888887
 41
60.07427917750473
 46
0.0508
 71
     1
 72
     5
  1
{www.archaeologicalresearchservices.com}
 73
     1
 44
1.0
  0
IMAGE
  5
3EF
330
3AB
100
AcDbEntity
  8
Scanned Sheet
 62
     7
420
 16777215
160
               140
310
8C00000001000000840000000600000005000000327D82CA76DC6D4084E7433B53801C400000000000000000ABD2CC289B69704084E7433B53801C400000000000000000ABD2CC289B69704076B033E42CB542400000000000000000327D82CA76DC6D4076B033E42CB542400000000000000000327D82CA76DC6D4084E743
310
3B53801C400000000000000000
100
AcDbRasterImage
 90
        0
 10
238.8895008610357
 20
7.125317502994108
 30
0.0
 11
0.04272230602853472
 21
0.0
 31
0.0
 12
0.0
 22
0.04272230602853471
 32
0.0
 13
555.0
 23
709.0
340
30B
 70
     7
280
     0
281
    50
282
    50
283
     0
360
3F0
 71
     1
 91
        2
 14
-0.5
 24
-0.5
 14
554.5
 24
708.5
290
     0
  0
MTEXT
  5
3F1
330
3AB
100
AcDbEntity
  8
Scanned Sheet
100
AcDbMText
 10
208.9324191621133
 20
32.47979546384732
 30
0.0
 40
2.188888888888887
 41
26.86111269665938
 46
20.68937777777776
 71
     1
 72
     5
  1
{Aizlewood’s Mill\PNursery Street\PSheffield\PS3 8GG\P\PTel:  0114 2750140}
 73
     1
 44
1.0
  0
MTEXT
  5
3F2
330
3AB
100
AcDbEntity
  8
Scanned Sheet
100
AcDbMText
 10
208.5425671213595
 20
41.5318068070051
 30
0.0
 40
2.188888888888887
 41
62.24850131552529
 46
0.0508
 71
     1
 72
     5
  1
{\fArial|b1|i0|c0|p0;Archaeological Research Services Ltd}
 73
     1
 44
1.0
  0
MTEXT
  5
3F3
330
3AB
100
AcDbEntity
  8
Scanned Sheet
100
AcDbMText
 10
3.054636623396342
 20
38.8223870797995
 30
0.0
 40
2.188888888888887
 41
22.99556757120291
 46
0.6248914348466075
 71
     1
 72
     1
  1
Site name:\PDate: \PDrawn by:  
 73
     1
 44
1.0
  0
MTEXT
  5
3F4
330
3AB
100
AcDbEntity
  8
Scanned Sheet
100
AcDbMText
 10
18.68281663386969
 20
38.75726929004567
 30
0.0
 40
2.188888888888887
 41
44.0895286195286
 46
6.5665
 71
     1
 72
     1
  1
{Site name\PDate\PInitials}
 73
     1
 44
1.0
  0
MTEXT
  5
3F5
330
3AB
100
AcDbEntity
  8
Scanned Sheet
100
AcDbMText
 10
2.312876595177352
 20
18.6532173507205
 30
0.0
 40
1.459259259259258
 41
46.69107020092559
 46
10.7219696969697
 71
     1
 72
     5
  1
{This drawing © ARS Ltd\POrdnance Survey mapping (if applicable):\PCrown Copyright\PAll rights reserved.\PReproduced with permission.\PLicence no. 100045420}
 73
     1
 44
1.0
  0
IMAGE
  5
3F6
330
3AB
100
AcDbEntity
  8
Scanned Sheet
 62
     7
420
 16777215
160
               140
310
8C0000000100000084000000060000000500000002D64ECB04C16740B9C3F918DE3F3A4000000000000000004C278F1A5AFB6840B9C3F918DE3F3A4000000000000000004C278F1A5AFB684038BA4C7A7B544340000000000000000002D64ECB04C1674038BA4C7A7B544340000000000000000002D64ECB04C16740B9C3F9
310
18DE3F3A400000000000000000
100
AcDbRasterImage
 90
        0
 10
190.0318352260365
 20
26.24948268983619
 30
0.0
 11
0.02512254160229857
 21
0.0
 31
0.0
 12
0.0
 22
0.02512254160229858
 32
0.0
 13
391.0
 23
494.0
340
304
 70
     7
280
     0
281
    50
282
    50
283
     0
360
3F7
 71
     1
 91
        2
 14
-0.5
 24
-0.5
 14
390.5
 24
493.5
290
     0
  0
MTEXT
  5
3F8
330
3AB
100
AcDbEntity
  8
Scanned Sheet
100
AcDbMText
 10
69.06260116054014
 20
38.40053052741111
 30
0.0
 40
2.918518518518516
 41
104.2140455401472
 46
2.564
 71
     1
 72
     5
  1
{\fArial|b1|i0|c0|p0;Figure ??: Section and plan of pit [100]}
 73
     1
 44
1.0
  0
LWPOLYLINE
  5
3F9
330
3AB
100
AcDbEntity
  8
Scanned Sheet
  6
DASHDOT
 62
     3
 48
10.0
100
AcDbPolyline
 90
        4
 70
   129
 43
0.0
 10
67.59479770222826
 20
19.46688835641198
 10
67.59479770222826
 20
11.75342075798789
 10
79.23996811494912
 20
11.75342075798796
 10
79.23996811494912
 20
19.46688835641204
  0
MTEXT
  5
3FA
330
3AB
100
AcDbEntity
  8
Scanned Sheet
100
AcDbMText
 10
84.8169462040312
 20
17.11764677402394
 30
0.0
 40
2.918518518518516
 41
65.40771921623322
 46
0.2016
 71
     1
 72
     5
  1
Limit of Excavation}
 73
     1
 44
1.0
  0
LINE
  5
3FB
330
3AB
100
AcDbEntity
  8
Scanned Sheet
  6
DASHED
 62
     1
 48
10.0
100
AcDbLine
 10
67.85785863198217
 20
3.76309729860517
 30
0.0
 11
79.78309901395544
 21
3.76309729860517
 31
0.0
  0
MTEXT
  5
3FC
330
3AB
100
AcDbEntity
  8
Scanned Sheet
100
AcDbMText
 10
84.81330279500673
 20
5.843624518166071
 30
0.0
 40
2.918518518518516
 41
65.40771921623322
 46
0.2016
 71
     1
 72
     5
  1
Section Line
 73
     1
 44
1.0
  0
LWPOLYLINE
  5
3FD
330
3AB
100
AcDbEntity
  8
Scanned Sheet
  6
DASHDOT
 62
     3
 48
10.0
100
AcDbPolyline
 90
        4
 70
   129
 43
0.0
 10
130.7103464096414
 20
19.46688835641198
 10
130.7103464096414
 20
11.75342075798789
 10
142.3555168223622
 20
11.75342075798796
 10
142.3555168223622
 20
19.46688835641204
  0
MTEXT
  5
3FE
330
3AB
100
AcDbEntity
  8
Scanned Sheet
100
AcDbMText
 10
147.9324949114443
 20
17.11764677402394
 30
0.0
 40
2.918518518518516
 41
65.40771921623322
 46
0.2016
 71
     1
 72
     5
  1
Limit of Excavation}
 73
     1
 44
1.0
  0
LINE
  5
3FF
330
3AB
100
AcDbEntity
  8
Scanned Sheet
  6
DASHED
 62
     1
 48
10.0
100
AcDbLine
 10
130.9734073393953
 20
3.76309729860517
 30
0.0
 11
142.8986477213686
 21
3.76309729860517
 31
0.0
  0
MTEXT
  5
400
330
3AB
100
AcDbEntity
  8
Scanned Sheet
100
AcDbMText
 10
147.9288515024199
 20
5.843624518166071
 30
0.0
 40
2.918518518518516
 41
65.40771921623322
 46
0.2016
 71
     1
 72
     5
  1
Section Line
 73
     1
 44
1.0
  0
ENDBLK
  5
3AE
330
3AB
100
AcDbEntity
  8
0
100
AcDbBlockEnd
  0
BLOCK
  5
321
330
320
100
AcDbEntity
  8
0
100
AcDbBlockBegin
  2
*Paper_Space11
 70
     0
 10
0.0
 20
0.0
 30
0.0
  3
*Paper_Space11
  1

  0
VIEWPORT
  5
322
330
320
100
AcDbEntity
  8
0
100
AcDbViewport
 10
0.0
 20
0.0
 30
0.0
 40
661.8587412587418
 41
275.4000000000003
 68
     1
 69
     1
 12
93.55507294816788
 22
132.6668788031695
 13
0.0
 23
0.0
 14
0.5
 24
0.5
 15
0.0
 25
0.0
 16
0.0
 26
0.0
 36
1.0
 17
0.0
 27
0.0
 37
0.0
 42
50.0
 43
0.0
 44
0.0
 45
275.4000000000003
 50
0.0
 51
0.0
 72
   100
 90
   557168
  1

281
     0
 71
     1
 74
     0
110
0.0
120
0.0
130
0.0
111
1.0
121
0.0
131
0.0
112
0.0
122
1.0
132
0.0
 79
     0
146
0.0
170
     0
 61
     5
348
9F
292
     1
282
     1
141
0.0
142
0.0
 63
   256
361
324
  0
LWPOLYLINE
  5
325
330
320
100
AcDbEntity
  8
Scanned Sheet
100
AcDbPolyline
 90
        4
 70
     1
 43
0.0
 10
1.055072948167755
 20
27.6668788031695
 10
1.055072948167755
 20
267.6668788031697
 10
186.055072948168
 20
267.6668788031697
 10
186.055072948168
 20
27.6668788031695
  0
LWPOLYLINE
  5
326
330
320
100
AcDbEntity
  8
Scanned Sheet
370
     5
100
AcDbPolyline
 90
        4
 70
     1
 43
0.0
 10
46.05507294816788
 20
-2.333121196830589
 10
46.05507294816788
 20
12.66687880316945
 10
141.0550729481681
 20
12.66687880316945
 10
141.0550729481681
 20
-2.333121196830589
  0
LWPOLYLINE
  5
327
330
320
100
AcDbEntity
  8
Scanned Sheet
370
     5
100
AcDbPolyline
 90
        4
 70
     1
 43
0.0
 10
46.05507294816788
 20
12.66687880316981
 10
46.05507294816788
 20
27.66687880316967
 10
141.0550729481681
 20
27.66687880316967
 10
141.0550729481681
 20
12.66687880316981
  0
LWPOLYLINE
  5
328
330
320
100
AcDbEntity
  8
Scanned Sheet
370
     5
100
AcDbPolyline
 90
        4
 70
     1
 43
0.0
 10
1.05507294816794
 20
12.66687880316981
 10
1.05507294816794
 20
27.66687880316967
 10
46.05507294816788
 20
27.66687880316967
 10
46.05507294816788
 20
12.66687880316981
  0
LWPOLYLINE
  5
329
330
320
100
AcDbEntity
  8
Scanned Sheet
370
     5
100
AcDbPolyline
 90
        4
 70
     1
 43
0.0
 10
1.05507294816794
 20
-2.333121196830589
 10
1.05507294816794
 20
12.66687880316945
 10
46.05507294816788
 20
12.66687880316945
 10
46.05507294816788
 20
-2.333121196830589
  0
LWPOLYLINE
  5
32A
330
320
100
AcDbEntity
  8
Scanned Sheet
370
     5
100
AcDbPolyline
 90
        4
 70
     1
 43
0.0
 10
141.0550729481681
 20
-2.333121196830589
 10
141.0550729481681
 20
27.6668788031695
 10
186.055072948168
 20
27.6668788031695
 10
186.055072948168
 20
-2.333121196830589
  0
VIEWPORT
  5
32B
102
{ACAD_XDICTIONARY
360
32C
102
}
330
320
100
AcDbEntity
  8
Scanned Sheet
370
     5
100
AcDbViewport
 10
93.55507294816789
 20
147.6668788031697
 30
0.0
 40
185.0000000000001
 41
240.0000000000001
 68
     2
 69
     2
 12
87.08729213446298
 22
53.57713490356373
 13
0.0
 23
0.0
 14
0.5
 24
0.5
 15
0.5
 25
0.5
 16
0.0
 26
0.0
 36
1.0
 17
0.0
 27
0.0
 37
0.0
 42
50.0
 43
0.0
 44
0.0
 45
257.6980377600001
 50
0.0
 51
0.0
 72
   100
 90
   557168
  1

281
     0
 71
     1
 74
     0
110
0.0
120
0.0
130
0.0
111
1.0
121
0.0
131
0.0
112
0.0
122
1.0
132
0.0
 79
     0
146
0.0
170
     0
 61
     5
348
9F
292
     1
282
     1
141
0.0
142
0.0
 63
   256
361
32F
  0
MTEXT
  5
330
330
320
100
AcDbEntity
  8
Scanned Sheet
100
AcDbMText
 10
144.594834515732
 20
1.755434355605695
 30
0.0
 40
1.5
 41
41.16765324346775
 46
0.0508
 71
     1
 72
     5
  1
{www.archaeologicalresearchservices.com}
 73
     1
 44
1.0
  0
IMAGE
  5
335
330
320
100
AcDbEntity
  8
Scanned Sheet
 62
     7
420
 16777215
160
               140
310
8C00000001000000840000000600000005000000643437BC5A986440784A11ABCE6504400000000000000000A3F37E0A4FA06640784A11ABCE6504400000000000000000A3F37E0A4FA06640EF7C32BC904E37400000000000000000643437BC5A986440EF7C32BC904E37400000000000000000643437BC5A986440784A11
310
ABCE6504400000000000000000
100
AcDbRasterImage
 90
        0
 10
164.7610760763374
 20
2.549710594620871
 30
0.0
 11
0.02927670717691468
 21
0.0
 31
0.0
 12
0.0
 22
0.02927670717691468
 32
0.0
 13
555.0
 23
709.0
340
30B
 70
     7
280
     0
281
    50
282
    50
283
     0
360
337
 71
     1
 91
        2
 14
-0.5
 24
-0.5
 14
554.5
 24
708.5
290
     0
  0
MTEXT
  5
338
330
320
100
AcDbEntity
  8
Scanned Sheet
100
AcDbMText
 10
144.5030589215162
 20
20.31580636635823
 30
0.0
 40
1.5
 41
18.40736149263461
 46
14.178
 71
     1
 72
     5
  1
{Aizlewood’s Mill\PNursery Street\PSheffield\PS3 8GG\P\PTel:  0114 2750140}
 73
     1
 44
1.0
  0
MTEXT
  5
339
330
320
100
AcDbEntity
  8
Scanned Sheet
100
AcDbMText
 10
143.9649539704679
 20
26.12776164051675
 30
0.0
 40
1.5
 41
42.65760242434478
 46
0.0508
 71
     1
 72
     5
  1
{\fArial|b1|i0|c0|p0;Archaeological Research Services Ltd}
 73
     1
 44
1.0
  0
MTEXT
  5
33A
330
320
100
AcDbEntity
  8
Scanned Sheet
100
AcDbMText
 10
3.148351852574251
 20
24.27105269040124
 30
0.0
 40
1.5
 41
15.75838386859084
 46
0.6248914348466075
 71
     1
 72
     1
  1
Site name:\PDate: \PDrawn by:  
 73
     1
 44
1.0
  0
MTEXT
  5
33B
330
320
100
AcDbEntity
  8
Scanned Sheet
100
AcDbMText
 10
13.85801835721336
 20
24.22642882432628
 30
0.0
 40
1.5
 41
30.21363636363638
 46
6.5665
 71
     1
 72
     1
  1
{Site name\PDate\PInitials}
 73
     1
 44
1.0
  0
MTEXT
  5
33C
330
320
100
AcDbEntity
  8
Scanned Sheet
100
AcDbMText
 10
2.640039142881035
 20
10.44954043950952
 30
0.0
 40
1.0
 41
31.99641866560894
 46
10.7219696969697
 71
     1
 72
     5
  1
{This drawing © ARS Ltd\POrdnance Survey mapping (if applicable):\PCrown Copyright\PAll rights reserved.\PReproduced with permission.\PLicence no. 100045420}
 73
     1
 44
1.0
  0
IMAGE
  5
33D
330
320
100
AcDbEntity
  8
Scanned Sheet
 62
     7
420
 16777215
160
               140
310
8C0000000100000084000000060000000500000070908339F5686040C87A72A8694F2F4000000000000000009A36F32A5D406140C87A72A8694F2F4000000000000000009A36F32A5D406140ABFC80A6E7283840000000000000000070908339F5686040ABFC80A6E7283840000000000000000070908339F5686040C87A72
310
A8694F2F400000000000000000
100
AcDbRasterImage
 90
        0
 10
131.279934651338
 20
15.65510298154312
 30
0.0
 11
0.01721595490512848
 21
0.0
 31
0.0
 12
0.0
 22
0.01721595490512848
 32
0.0
 13
391.0
 23
494.0
340
304
 70
     7
280
     0
281
    50
282
    50
283
     0
360
33F
 71
     1
 91
        2
 14
-0.5
 24
-0.5
 14
390.5
 24
493.5
290
     0
  0
MTEXT
  5
340
330
320
100
AcDbEntity
  8
Scanned Sheet
100
AcDbMText
 10
48.38223618005862
 20
23.98196317480513
 30
0.0
 40
2.0
 41
71.415716486903
 46
2.564
 71
     1
 72
     5
  1
{\fArial|b1|i0|c0|p0;Figure ??: Section and plan of pit [100]}
 73
     1
 44
1.0
  0
LWPOLYLINE
  5
341
330
320
100
AcDbEntity
  8
Scanned Sheet
  6
DASHDOT
 62
     3
 48
10.0
100
AcDbPolyline
 90
        4
 70
   129
 43
0.0
 10
47.3763810182713
 20
11.00713224544023
 10
47.3763810182713
 20
5.721253434337427
 10
55.35657394069423
 20
5.72125343433747
 10
55.35657394069423
 20
11.00713224544027
  0
MTEXT
  5
343
330
320
100
AcDbEntity
  8
Scanned Sheet
100
AcDbMText
 10
59.17836095605504
 20
9.397245881874824
 30
0.0
 40
2.0
 41
44.82254870147966
 46
0.2016
 71
     1
 72
     5
  1
Limit of Excavation}
 73
     1
 44
1.0
  0
LINE
  5
344
330
320
100
AcDbEntity
  8
Scanned Sheet
  6
DASHED
 62
     1
 48
10.0
100
AcDbLine
 10
47.5566511985595
 20
0.2456510636944387
 30
0.0
 11
55.72877024204373
 21
0.2456510636944387
 31
0.0
  0
MTEXT
  5
346
330
320
100
AcDbEntity
  8
Scanned Sheet
100
AcDbMText
 10
59.17586420367787
 20
1.671393066946834
 30
0.0
 40
2.0
 41
44.82254870147966
 46
0.2016
 71
     1
 72
     5
  1
Section Line
 73
     1
 44
1.0
  0
LWPOLYLINE
  5
347
330
320
100
AcDbEntity
  8
Scanned Sheet
  6
DASHDOT
 62
     3
 48
10.0
100
AcDbPolyline
 90
        4
 70
   129
 43
0.0
 10
90.62815297512803
 20
11.00713224544023
 10
90.62815297512803
 20
5.721253434337427
 10
98.60834589755096
 20
5.72125343433747
 10
98.60834589755096
 20
11.00713224544027
  0
MTEXT
  5
348
330
320
100
AcDbEntity
  8
Scanned Sheet
100
AcDbMText
 10
102.4301329129118
 20
9.397245881874824
 30
0.0
 40
2.0
 41
44.82254870147966
 46
0.2016
 71
     1
 72
     5
  1
Limit of Excavation}
 73
     1
 44
1.0
  0
LINE
  5
349
330
320
100
AcDbEntity
  8
Scanned Sheet
  6
DASHED
 62
     1
 48
10.0
100
AcDbLine
 10
90.80842315541625
 20
0.2456510636944387
 30
0.0
 11
98.98054219890048
 21
0.2456510636944387
 31
0.0
  0
MTEXT
  5
34A
330
320
100
AcDbEntity
  8
Scanned Sheet
100
AcDbMText
 10
102.4276361605346
 20
1.671393066946834
 30
0.0
 40
2.0
 41
44.82254870147966
 46
0.2016
 71
     1
 72
     5
  1
Section Line
 73
     1
 44
1.0
  0
ENDBLK
  5
34B
330
320
100
AcDbEntity
  8
0
100
AcDbBlockEnd
  0
BLOCK
  5
359
330
357
100
AcDbEntity
  8
0
100
AcDbBlockBegin
  2
*Paper_Space13
 70
     0
 10
0.0
 20
0.0
 30
0.0
  3
*Paper_Space13
  1

  0
VIEWPORT
  5
35B
330
357
100
AcDbEntity
  8
0
100
AcDbViewport
 10
0.0
 20
0.0
 30
0.0
 40
665.360639360639
 41
276.8571428571427
 68
     1
 69
     1
 12
199.9999999993305
 22
135.7142857151425
 13
0.0
 23
0.0
 14
0.5
 24
0.5
 15
0.0
 25
0.0
 16
0.0
 26
0.0
 36
1.0
 17
0.0
 27
0.0
 37
0.0
 42
50.0
 43
0.0
 44
0.0
 45
276.8571428571427
 50
0.0
 51
0.0
 72
   100
 90
   557168
  1

281
     0
 71
     1
 74
     0
110
0.0
120
0.0
130
0.0
111
1.0
121
0.0
131
0.0
112
0.0
122
1.0
132
0.0
 79
     0
146
0.0
170
     0
 61
     5
348
9F
292
     1
282
     1
141
0.0
142
0.0
 63
   256
361
35F
  0
LWPOLYLINE
  5
38D
330
357
100
AcDbEntity
  8
Viewport
370
     5
100
AcDbPolyline
 90
        4
 70
     1
 43
0.0
 10
-0.0000000006694913
 20
0.0000000008569023
 10
-0.0000000006694913
 20
271.4285714294281
 10
314.2857142850448
 20
271.4285714294281
 10
314.2857142850448
 20
0.0000000008569023
  0
LWPOLYLINE
  5
38E
330
357
100
AcDbEntity
  8
Viewport
370
     5
100
AcDbPolyline
 90
        4
 70
     1
 43
0.0
 10
314.2857142850448
 20
257.1428571437139
 10
314.2857142850448
 20
271.4285714294281
 10
399.9999999993305
 20
271.4285714294281
 10
399.9999999993305
 20
257.1428571437139
  0
LWPOLYLINE
  5
38F
330
357
100
AcDbEntity
  8
Viewport
370
     5
100
AcDbPolyline
 90
        4
 70
     1
 43
0.0
 10
314.2857142850448
 20
0.0000000008568668
 10
314.2857142850448
 20
257.1428571437139
 10
399.9999999993305
 20
257.1428571437139
 10
399.9999999993305
 20
0.0000000008568668
  0
LWPOLYLINE
  5
390
330
357
100
AcDbEntity
  8
Viewport
370
     5
100
AcDbPolyline
 90
        4
 70
     1
 43
0.0
 10
314.2857142850448
 20
28.57142857228542
 10
314.2857142850448
 20
50.00000000085682
 10
399.9999999993305
 20
50.00000000085682
 10
399.9999999993305
 20
28.57142857228542
  0
LWPOLYLINE
  5
391
330
357
100
AcDbEntity
  8
Viewport
370
     5
100
AcDbPolyline
 90
        4
 70
     1
 43
0.0
 10
357.1428571421876
 20
0.0000000008568668
 10
357.1428571421876
 20
28.57142857228542
 10
399.9999999993305
 20
28.57142857228542
 10
399.9999999993305
 20
0.0000000008568668
  0
MTEXT
  5
392
330
357
100
AcDbEntity
  8
Viewport
100
AcDbMText
 10
315.8805739539533
 20
269.0984266394228
 30
0.0
 40
2.857142857142856
 41
80.06933814283552
 46
5.488501246672561
 71
     1
 72
     5
  1
{\fArial|b1|i0|c0|p0;Figure ??: Plan of Area 1 showing Late Iron Age features}
 73
     1
 44
1.0
  0
IMAGE
  5
393
330
357
100
AcDbEntity
  8
Viewport
 62
     7
420
 16777215
160
               140
310
8C0000000100000084000000060000000500000099599752233B78404E228892B1DC404000000000000000006CADD9F147C478404E228892B1DC404000000000000000006CADD9F147C478407BAC550DDB464640000000000000000099599752233B78407BAC550DDB464640000000000000000099599752233B78404E2288
310
92B1DC40400000000000000000
100
AcDbRasterImage
 90
        0
 10
387.6961236869916
 20
33.72416907927673
 30
0.0
 11
0.02192184384604931
 21
0.0
 31
0.0
 12
0.0
 22
0.02192184384604931
 32
0.0
 13
391.0
 23
494.0
340
304
 70
     7
280
     0
281
    50
282
    50
283
     0
360
394
 71
     1
 91
        2
 14
-0.5
 24
-0.5
 14
390.5
 24
493.5
290
     0
  0
MTEXT
  5
395
330
357
100
AcDbEntity
  8
Viewport
100
AcDbMText
 10
360.3547049902247
 20
26.76310668717419
 30
0.0
 40
1.428571428571428
 41
41.87929265644836
 46
0.0508
 71
     1
 72
     5
  1
{\fArial|b1|i0|c0|p0;Archaeological Research Services Ltd}
 73
     1
 44
1.0
  0
MTEXT
  5
396
330
357
100
AcDbEntity
  8
Viewport
100
AcDbMText
 10
360.4119152818465
 20
21.01133847788062
 30
0.0
 40
1.428571428571428
 41
18.07150977015851
 46
13.50285714285714
 71
     1
 72
     5
  1
{Aizlewood’s Mill\PNursery Street\PSheffield\PS3 8GG\P\PTel:  0114 2750140}
 73
     1
 44
1.0
  0
MTEXT
  5
397
330
357
100
AcDbEntity
  8
Viewport
100
AcDbMText
 10
360.5929538906967
 20
3.150122197019938
 30
0.0
 40
1.428571428571428
 41
40.41652836021651
 46
0.0508
 71
     1
 72
     5
  1
{www.archaeologicalresearchservices.com}
 73
     1
 44
1.0
  0
IMAGE
  5
398
330
357
100
AcDbEntity
  8
Viewport
 62
     7
420
 16777215
160
               140
310
8C000000010000008400000006000000050000003DD8859142C67740D0BF4DCC72700F400000000000000000A75F23687EC57840D0BF4DCC72700F400000000000000000A75F23687EC57840EF087D19F14E384000000000000000003DD8859142C67740EF087D19F14E384000000000000000003DD8859142C67740D0BF4D
310
CC72700F400000000000000000
100
AcDbRasterImage
 90
        0
 10
380.3912520626362
 20
3.929906459925382
 30
0.0
 11
0.02874253868472039
 21
0.0
 31
0.0
 12
0.0
 22
0.02874253868472039
 32
0.0
 13
555.0
 23
709.0
340
30B
 70
     7
280
     0
281
    50
282
    50
283
     0
360
399
 71
     1
 91
        2
 14
-0.5
 24
-0.5
 14
554.5
 24
708.5
290
     0
  0
MTEXT
  5
39A
330
357
100
AcDbEntity
  8
Viewport
100
AcDbMText
 10
314.9429412994959
 20
13.72282775586189
 30
0.0
 40
1.285714285714285
 41
40.74246810505699
 46
0.4717666666666667
 71
     1
 72
     5
  1
{This drawing © ARS Ltd\POrdnance Survey mapping (if applicable):\PCrown Copyright\PAll rights reserved.\PReproduced with permission.\PLicence no. 100045420}
 73
     1
 44
1.0
  0
MTEXT
  5
39B
330
357
100
AcDbEntity
  8
Viewport
100
AcDbMText
 10
315.8212818365825
 20
26.50582519825755
 30
0.0
 40
2.142857142857142
 41
20.06585358390103
 46
0.6248914348466075
 71
     1
 72
     1
  1
Site name:\PDate: \PDrawn by:  
 73
     1
 44
1.0
  0
MTEXT
  5
39C
330
357
100
AcDbEntity
  8
Viewport
100
AcDbMText
 10
336.5477268729952
 20
26.35878325520263
 30
0.0
 40
2.142857142857142
 41
38.47237182223618
 46
0.0
 71
     1
 72
     1
  1
Site name\PDate\PInitials
 73
     1
 44
1.0
  0
LWPOLYLINE
  5
39D
330
357
100
AcDbEntity
  8
Viewport
  6
DASHDOT
 62
     3
 48
10.0
100
AcDbPolyline
 90
        4
 70
   129
 43
0.0
 10
320.5689135145037
 20
247.6274064910471
 10
320.5689135145037
 20
240.8966610560891
 10
330.7304493729991
 20
240.8966610560892
 10
330.7304493729991
 20
247.6274064910472
  0
MTEXT
  5
39E
330
357
100
AcDbEntity
  8
Viewport
100
AcDbMText
 10
335.5969013720481
 20
245.5774663241236
 30
0.0
 40
2.857142857142856
 41
57.07455199729129
 46
0.2016
 71
     1
 72
     5
  1
Limit of Excavation}
 73
     1
 44
1.0
  0
LINE
  5
39F
330
357
100
AcDbEntity
  8
Viewport
  6
DASHED
 62
     1
 48
10.0
100
AcDbLine
 10
320.7984595817509
 20
233.9243321441137
 30
0.0
 11
331.2043835371639
 21
233.9243321441137
 31
0.0
  0
MTEXT
  5
3A0
330
357
100
AcDbEntity
  8
Viewport
100
AcDbMText
 10
335.5937221457992
 20
235.7397930774332
 30
0.0
 40
2.857142857142856
 41
57.07455199729129
 46
0.2016
 71
     1
 72
     5
  1
Section Line
 73
     1
 44
1.0
  0
VIEWPORT
  5
3A1
102
{ACAD_XDICTIONARY
360
3A2
102
}
330
357
100
AcDbEntity
  8
Viewport
370
     5
100
AcDbViewport
 10
157.1428571421876
 20
135.7142857151425
 30
0.0
 40
314.2857142857143
 41
271.4285714285713
 68
     2
 69
     2
 12
111.6395425235914
 22
36.70041488829291
 13
0.0
 23
0.0
 14
0.5
 24
0.5
 15
0.5
 25
0.5
 16
0.0
 26
0.0
 36
1.0
 17
0.0
 27
0.0
 37
0.0
 42
50.0
 43
0.0
 44
0.0
 45
80.02768481561797
 50
0.0
 51
0.0
 72
   100
 90
   557168
  1

281
     0
 71
     1
 74
     0
110
0.0
120
0.0
130
0.0
111
1.0
121
0.0
131
0.0
112
0.0
122
1.0
132
0.0
 79
     0
146
0.0
170
     0
 61
     5
348
9F
292
     1
282
     1
141
0.0
142
0.0
 63
   256
361
3A4
  0
LWPOLYLINE
  5
3A5
330
357
100
AcDbEntity
  8
Viewport
370
     5
100
AcDbPolyline
 90
        4
 70
     1
 43
0.0
 10
314.2857142850448
 20
28.57142857228542
 10
314.2857142850448
 20
14.28571428657115
 10
357.1428571421876
 20
14.28571428657115
 10
357.1428571421876
 20
28.57142857228542
  0
LWPOLYLINE
  5
3A6
330
357
100
AcDbEntity
  8
Viewport
370
     5
100
AcDbPolyline
 90
        4
 70
     1
 43
0.0
 10
314.2857142850448
 20
14.28571428657115
 10
314.2857142850448
 20
0.0000000008568668
 10
357.1428571421876
 20
0.0000000008568668
 10
357.1428571421876
 20
14.28571428657115
  0
ENDBLK
  5
35A
330
357
100
AcDbEntity
  8
0
100
AcDbBlockEnd
  0
BLOCK
  5
1287
330
1286
100
AcDbEntity
  8
0
100
AcDbBlockBegin
  2
*Paper_Space14
 70
     0
 10
0.0
 20
0.0
 30
0.0
  3
*Paper_Space14
  1

  0
VIEWPORT
  5
1288
330
1286
100
AcDbEntity
  8
0
100
AcDbViewport
 10
0.0
 20
0.0
 30
0.0
 40
665.360639360639
 41
276.8571428571427
 68
     1
 69
     1
 12
199.9999999993305
 22
135.7142857151425
 13
0.0
 23
0.0
 14
0.5
 24
0.5
 15
0.0
 25
0.0
 16
0.0
 26
0.0
 36
1.0
 17
0.0
 27
0.0
 37
0.0
 42
50.0
 43
0.0
 44
0.0
 45
276.8571428571427
 50
0.0
 51
0.0
 72
   100
 90
   557168
  1

281
     0
 71
     1
 74
     0
110
0.0
120
0.0
130
0.0
111
1.0
121
0.0
131
0.0
112
0.0
122
1.0
132
0.0
 79
     0
146
0.0
170
     0
 61
     5
348
9F
292
     1
282
     1
141
0.0
142
0.0
 63
   256
361
128A
  0
LWPOLYLINE
  5
128B
330
1286
100
AcDbEntity
  8
Viewport
370
     5
100
AcDbPolyline
 90
        4
 70
     1
 43
0.0
 10
-0.0000000006694913
 20
0.0000000008569023
 10
-0.0000000006694913
 20
271.4285714294281
 10
314.2857142850448
 20
271.4285714294281
 10
314.2857142850448
 20
0.0000000008569023
  0
LWPOLYLINE
  5
128F
330
1286
100
AcDbEntity
  8
Viewport
370
     5
100
AcDbPolyline
 90
        4
 70
     1
 43
0.0
 10
314.2857142850448
 20
257.1428571437139
 10
314.2857142850448
 20
271.4285714294281
 10
399.9999999993305
 20
271.4285714294281
 10
399.9999999993305
 20
257.1428571437139
  0
LWPOLYLINE
  5
1290
330
1286
100
AcDbEntity
  8
Viewport
370
     5
100
AcDbPolyline
 90
        4
 70
     1
 43
0.0
 10
314.2857142850448
 20
0.0000000008568668
 10
314.2857142850448
 20
257.1428571437139
 10
399.9999999993305
 20
257.1428571437139
 10
399.9999999993305
 20
0.0000000008568668
  0
LWPOLYLINE
  5
1291
330
1286
100
AcDbEntity
  8
Viewport
370
     5
100
AcDbPolyline
 90
        4
 70
     1
 43
0.0
 10
314.2857142850448
 20
28.57142857228542
 10
314.2857142850448
 20
50.00000000085682
 10
399.9999999993305
 20
50.00000000085682
 10
399.9999999993305
 20
28.57142857228542
  0
LWPOLYLINE
  5
1292
330
1286
100
AcDbEntity
  8
Viewport
370
     5
100
AcDbPolyline
 90
        4
 70
     1
 43
0.0
 10
357.1428571421876
 20
0.0000000008568668
 10
357.1428571421876
 20
28.57142857228542
 10
399.9999999993305
 20
28.57142857228542
 10
399.9999999993305
 20
0.0000000008568668
  0
MTEXT
  5
1293
330
1286
100
AcDbEntity
  8
Viewport
100
AcDbMText
 10
315.8805739539533
 20
269.0984266394228
 30
0.0
 40
2.857142857142856
 41
80.06933814283552
 46
5.488501246672561
 71
     1
 72
     5
  1
{\fArial|b1|i0|c0|p0;Figure ??: Plan of Area 1 showing Late Iron Age features}
 73
     1
 44
1.0
  0
IMAGE
  5
1295
330
1286
100
AcDbEntity
  8
Viewport
 62
     7
420
 16777215
160
               140
310
8C0000000100000084000000060000000500000099599752233B78404E228892B1DC404000000000000000006CADD9F147C478404E228892B1DC404000000000000000006CADD9F147C478407BAC550DDB464640000000000000000099599752233B78407BAC550DDB464640000000000000000099599752233B78404E2288
310
92B1DC40400000000000000000
100
AcDbRasterImage
 90
        0
 10
387.6961236869916
 20
33.72416907927673
 30
0.0
 11
0.02192184384604931
 21
0.0
 31
0.0
 12
0.0
 22
0.02192184384604931
 32
0.0
 13
391.0
 23
494.0
340
304
 70
     7
280
     0
281
    50
282
    50
283
     0
360
1297
 71
     1
 91
        2
 14
-0.5
 24
-0.5
 14
390.5
 24
493.5
290
     0
  0
MTEXT
  5
1298
330
1286
100
AcDbEntity
  8
Viewport
100
AcDbMText
 10
360.3547049902247
 20
26.76310668717419
 30
0.0
 40
1.428571428571428
 41
41.87929265644836
 46
0.0508
 71
     1
 72
     5
  1
{\fArial|b1|i0|c0|p0;Archaeological Research Services Ltd}
 73
     1
 44
1.0
  0
MTEXT
  5
1299
330
1286
100
AcDbEntity
  8
Viewport
100
AcDbMText
 10
360.4119152818465
 20
21.01133847788062
 30
0.0
 40
1.428571428571428
 41
18.07150977015851
 46
13.50285714285714
 71
     1
 72
     5
  1
{Aizlewood’s Mill\PNursery Street\PSheffield\PS3 8GG\P\PTel:  0114 2750140}
 73
     1
 44
1.0
  0
MTEXT
  5
129A
330
1286
100
AcDbEntity
  8
Viewport
100
AcDbMText
 10
360.5929538906967
 20
3.150122197019938
 30
0.0
 40
1.428571428571428
 41
40.41652836021651
 46
0.0508
 71
     1
 72
     5
  1
{www.archaeologicalresearchservices.com}
 73
     1
 44
1.0
  0
IMAGE
  5
129B
330
1286
100
AcDbEntity
  8
Viewport
 62
     7
420
 16777215
160
               140
310
8C000000010000008400000006000000050000003DD8859142C67740D0BF4DCC72700F400000000000000000A75F23687EC57840D0BF4DCC72700F400000000000000000A75F23687EC57840EF087D19F14E384000000000000000003DD8859142C67740EF087D19F14E384000000000000000003DD8859142C67740D0BF4D
310
CC72700F400000000000000000
100
AcDbRasterImage
 90
        0
 10
380.3912520626362
 20
3.929906459925382
 30
0.0
 11
0.02874253868472039
 21
0.0
 31
0.0
 12
0.0
 22
0.02874253868472039
 32
0.0
 13
555.0
 23
709.0
340
30B
 70
     7
280
     0
281
    50
282
    50
283
     0
360
129D
 71
     1
 91
        2
 14
-0.5
 24
-0.5
 14
554.5
 24
708.5
290
     0
  0
MTEXT
  5
129E
330
1286
100
AcDbEntity
  8
Viewport
100
AcDbMText
 10
314.9429412994959
 20
13.72282775586189
 30
0.0
 40
1.285714285714285
 41
40.74246810505699
 46
0.4717666666666667
 71
     1
 72
     5
  1
{This drawing © ARS Ltd\POrdnance Survey mapping (if applicable):\PCrown Copyright\PAll rights reserved.\PReproduced with permission.\PLicence no. 100045420}
 73
     1
 44
1.0
  0
MTEXT
  5
129F
330
1286
100
AcDbEntity
  8
Viewport
100
AcDbMText
 10
315.8212818365825
 20
26.50582519825755
 30
0.0
 40
2.142857142857142
 41
20.06585358390103
 46
0.6248914348466075
 71
     1
 72
     1
  1
Site name:\PDate: \PDrawn by:  
 73
     1
 44
1.0
  0
MTEXT
  5
12A0
330
1286
100
AcDbEntity
  8
Viewport
100
AcDbMText
 10
336.5477268729952
 20
26.35878325520263
 30
0.0
 40
2.142857142857142
 41
38.47237182223618
 46
0.0
 71
     1
 72
     1
  1
Site name\PDate\PInitials
 73
     1
 44
1.0
  0
LWPOLYLINE
  5
12A1
330
1286
100
AcDbEntity
  8
Viewport
  6
DASHDOT
 62
     3
 48
10.0
100
AcDbPolyline
 90
        4
 70
   129
 43
0.0
 10
320.5689135145037
 20
247.6274064910471
 10
320.5689135145037
 20
240.8966610560891
 10
330.7304493729991
 20
240.8966610560892
 10
330.7304493729991
 20
247.6274064910472
  0
MTEXT
  5
12A3
330
1286
100
AcDbEntity
  8
Viewport
100
AcDbMText
 10
335.5969013720481
 20
245.5774663241236
 30
0.0
 40
2.857142857142856
 41
57.07455199729129
 46
0.2016
 71
     1
 72
     5
  1
Limit of Excavation}
 73
     1
 44
1.0
  0
LINE
  5
12A4
330
1286
100
AcDbEntity
  8
Viewport
  6
DASHED
 62
     1
 48
10.0
100
AcDbLine
 10
320.7984595817509
 20
233.9243321441137
 30
0.0
 11
331.2043835371639
 21
233.9243321441137
 31
0.0
  0
MTEXT
  5
12A6
330
1286
100
AcDbEntity
  8
Viewport
100
AcDbMText
 10
335.5937221457992
 20
235.7397930774332
 30
0.0
 40
2.857142857142856
 41
57.07455199729129
 46
0.2016
 71
     1
 72
     5
  1
Section Line
 73
     1
 44
1.0
  0
VIEWPORT
  5
12A7
102
{ACAD_XDICTIONARY
360
12A8
102
}
330
1286
100
AcDbEntity
  8
Viewport
370
     5
100
AcDbViewport
 10
157.1428571421876
 20
135.7142857151425
 30
0.0
 40
314.2857142857143
 41
271.4285714285713
 68
     2
 69
     2
 12
111.6395425235914
 22
36.70041488829291
 13
0.0
 23
0.0
 14
0.5
 24
0.5
 15
0.5
 25
0.5
 16
0.0
 26
0.0
 36
1.0
 17
0.0
 27
0.0
 37
0.0
 42
50.0
 43
0.0
 44
0.0
 45
80.02768481561797
 50
0.0
 51
0.0
 72
   100
 90
   557168
  1

281
     0
 71
     1
 74
     0
110
0.0
120
0.0
130
0.0
111
1.0
121
0.0
131
0.0
112
0.0
122
1.0
132
0.0
 79
     0
146
0.0
170
     0
 61
     5
348
9F
292
     1
282
     1
141
0.0
142
0.0
 63
   256
361
12AB
  0
LWPOLYLINE
  5
12AC
330
1286
100
AcDbEntity
  8
Viewport
370
     5
100
AcDbPolyline
 90
        4
 70
     1
 43
0.0
 10
314.2857142850448
 20
28.57142857228542
 10
314.2857142850448
 20
14.28571428657115
 10
357.1428571421876
 20
14.28571428657115
 10
357.1428571421876
 20
28.57142857228542
  0
LWPOLYLINE
  5
12AD
330
1286
100
AcDbEntity
  8
Viewport
370
     5
100
AcDbPolyline
 90
        4
 70
     1
 43
0.0
 10
314.2857142850448
 20
14.28571428657115
 10
314.2857142850448
 20
0.0000000008568668
 10
357.1428571421876
 20
0.0000000008568668
 10
357.1428571421876
 20
14.28571428657115
  0
ENDBLK
  5
12AE
330
1286
100
AcDbEntity
  8
0
100
AcDbBlockEnd
  0
ENDSEC
  0
SECTION
  2
ENTITIES
  0
IMAGE
  5
10DD
330
1F
100
AcDbEntity
  8
Scanned Sheet
160
               140
310
8C00000001000000840000000600000005000000EC109A366B086140D8FFF8E4D37953400000000000000000EC109A366B086140DD1222333AF6664000000000000000005F7D9A5031BC2AC0DE1222333AF666400000000000000000637D9A5031BC2AC0D9FFF8E4D37953400000000000000000EC109A366B086140D8FFF8
310
E4D37953400000000000000000
100
AcDbRasterImage
 90
        0
 10
136.2630875596145
 20
77.90355800930354
 30
0.0
 11
3.918834434804784E-18
 21
0.06399942314034103
 31
0.0
 12
-0.06399942314034103
 22
3.918834434804785E-18
 32
0.0
 13
1653.0
 23
2338.0
340
10DC
 70
     7
280
     0
281
    50
282
    50
283
     0
360
10DE
 71
     1
 91
        2
 14
-0.5
 24
-0.5
 14
1652.5
 24
2337.5
290
     0
  0
LINE
  5
10E4
330
1F
100
AcDbEntity
  8
Context
100
AcDbLine
 10
-1.827911989163379
 20
166.9148563715898
 30
0.0
 11
1.222652960164734
 21
166.9148563715898
 31
0.0
  0
LINE
  5
10E5
330
1F
100
AcDbEntity
  8
Context
100
AcDbLine
 10
1.222652960164734
 20
166.9148563715898
 30
0.0
 11
3.274851198803649
 21
167.3585749096738
 31
0.0
  0
LINE
  5
10E6
330
1F
100
AcDbEntity
  8
Context
100
AcDbLine
 10
3.274851198803649
 20
167.3585749096738
 30
0.0
 11
8.044825483207607
 21
167.3585749096738
 31
0.0
  0
LINE
  5
10E7
330
1F
100
AcDbEntity
  8
Context
100
AcDbLine
 10
8.044825483207607
 20
167.3585749096738
 30
0.0
 11
9.542375549241402
 21
167.1921804578923
 31
0.0
  0
LINE
  5
10E8
330
1F
100
AcDbEntity
  8
Context
100
AcDbLine
 10
9.542375549241402
 20
167.1921804578923
 30
0.0
 11
13.09212385391412
 21
167.1921804578923
 31
0.0
  0
LINE
  5
10E9
330
1F
100
AcDbEntity
  8
Context
100
AcDbLine
 10
13.09212385391412
 20
167.1921804578923
 30
0.0
 11
16.03175916872121
 21
166.1383489299426
 31
0.0
  0
LINE
  5
10EA
330
1F
100
AcDbEntity
  8
Context
100
AcDbLine
 10
16.03175916872121
 20
166.1383489299426
 30
0.0
 11
19.02685930078881
 21
166.7484619198082
 31
0.0
  0
LINE
  5
10EB
330
1F
100
AcDbEntity
  8
Context
100
AcDbLine
 10
19.02685930078881
 20
166.7484619198082
 30
0.0
 11
22.63207242272204
 21
166.7484619198082
 31
0.0
  0
LINE
  5
10EC
330
1F
100
AcDbEntity
  8
Context
100
AcDbLine
 10
22.63207242272204
 20
166.7484619198082
 30
0.0
 11
23.57497431615073
 21
167.3585749096738
 31
0.0
  0
LINE
  5
10ED
330
1F
100
AcDbEntity
  8
Context
100
AcDbLine
 10
23.57497431615073
 20
167.3585749096738
 30
0.0
 11
27.62390597616804
 21
166.8039267370687
 31
0.0
  0
LINE
  5
10EE
330
1F
100
AcDbEntity
  8
Context
100
AcDbLine
 10
27.62390597616804
 20
166.8039267370687
 30
0.0
 11
29.01052640768082
 21
167.3031100924133
 31
0.0
  0
LINE
  5
10EF
330
1F
100
AcDbEntity
  8
Context
100
AcDbLine
 10
29.01052640768082
 20
167.3031100924133
 30
0.0
 11
34.83433222003448
 21
166.6375322852872
 31
0.0
  0
LINE
  5
10F0
330
1F
100
AcDbEntity
  8
Context
100
AcDbLine
 10
34.83433222003448
 20
166.6375322852872
 30
0.0
 11
38.82779906279129
 21
166.6375322852872
 31
0.0
  0
LINE
  5
10F1
330
1F
100
AcDbEntity
  8
Context
100
AcDbLine
 10
38.82779906279129
 20
166.6375322852872
 30
0.0
 11
43.04312517459013
 21
166.0274192954216
 31
0.0
  0
LINE
  5
10F2
330
1F
100
AcDbEntity
  8
Context
100
AcDbLine
 10
43.04312517459013
 20
166.0274192954216
 30
0.0
 11
46.48194384474182
 21
166.5820674680267
 31
0.0
  0
LINE
  5
10F3
330
1F
100
AcDbEntity
  8
Context
100
AcDbLine
 10
46.48194384474182
 20
166.5820674680267
 30
0.0
 11
51.91749593627192
 21
166.5820674680267
 31
0.0
  0
LINE
  5
10F4
330
1F
100
AcDbEntity
  8
Context
100
AcDbLine
 10
51.91749593627192
 20
166.5820674680267
 30
0.0
 11
53.96969417491083
 21
165.9719544781611
 31
0.0
  0
LINE
  5
10F5
330
1F
100
AcDbEntity
  8
Context
100
AcDbLine
 10
53.96969417491083
 20
165.9719544781611
 30
0.0
 11
59.07245736287786
 21
165.9719544781611
 31
0.0
  0
LINE
  5
10F6
330
1F
100
AcDbEntity
  8
Context
100
AcDbLine
 10
-1.827911989163379
 20
166.9148563715898
 30
0.0
 11
1.444512229206776
 21
165.4727711228165
 31
0.0
  0
LINE
  5
10F7
330
1F
100
AcDbEntity
  8
Context
100
AcDbLine
 10
1.444512229206776
 20
165.4727711228165
 30
0.0
 11
7.157388407039424
 21
164.4744044121273
 31
0.0
  0
LINE
  5
10F8
330
1F
100
AcDbEntity
  8
Context
100
AcDbLine
 10
7.157388407039424
 20
164.4744044121273
 30
0.0
 11
14.70060355446894
 21
162.9768543460935
 31
0.0
  0
LINE
  5
10F9
330
1F
100
AcDbEntity
  8
Context
100
AcDbLine
 10
14.70060355446894
 20
162.9768543460935
 30
0.0
 11
20.19162046325954
 21
162.2558117217068
 31
0.0
  0
LINE
  5
10FA
330
1F
100
AcDbEntity
  8
Context
100
AcDbLine
 10
20.19162046325954
 20
162.2558117217068
 30
0.0
 11
24.07415767149532
 21
161.7566283663622
 31
0.0
  0
LINE
  5
10FB
330
1F
100
AcDbEntity
  8
Context
100
AcDbLine
 10
24.07415767149532
 20
161.7566283663622
 30
0.0
 11
26.51460963095782
 21
161.7566283663622
 31
0.0
  0
LINE
  5
10FC
330
1F
100
AcDbEntity
  8
Context
100
AcDbLine
 10
26.51460963095782
 20
161.7566283663622
 30
0.0
 11
28.84413195589928
 21
162.6995302597909
 31
0.0
  0
LINE
  5
10FD
330
1F
100
AcDbEntity
  8
Context
100
AcDbLine
 10
28.84413195589928
 20
162.6995302597909
 30
0.0
 11
30.4526116564541
 21
162.6995302597909
 31
0.0
  0
LINE
  5
10FE
330
1F
100
AcDbEntity
  8
Context
100
AcDbLine
 10
30.4526116564541
 20
162.6995302597909
 30
0.0
 11
32.83759879865607
 21
163.1987136151355
 31
0.0
  0
LINE
  5
10FF
330
1F
100
AcDbEntity
  8
Context
100
AcDbLine
 10
32.83759879865607
 20
163.1987136151355
 30
0.0
 11
39.71523613895947
 21
163.1987136151355
 31
0.0
  0
LINE
  5
1100
330
1F
100
AcDbEntity
  8
Context
100
AcDbLine
 10
39.71523613895947
 20
163.1987136151355
 30
0.0
 11
40.99092693595122
 21
163.1987136151355
 31
0.0
  0
LINE
  5
1101
330
1F
100
AcDbEntity
  8
Context
100
AcDbLine
 10
40.99092693595122
 20
163.1987136151355
 30
0.0
 11
42.4330121847245
 21
163.6424321532196
 31
0.0
  0
LINE
  5
1102
330
1F
100
AcDbEntity
  8
Context
100
AcDbLine
 10
42.4330121847245
 20
163.6424321532196
 30
0.0
 11
48.64507171790176
 21
163.6424321532196
 31
0.0
  0
LINE
  5
1103
330
1F
100
AcDbEntity
  8
Context
100
AcDbLine
 10
48.64507171790176
 20
163.6424321532196
 30
0.0
 11
50.64180513928015
 21
164.3080099603457
 31
0.0
  0
LINE
  5
1104
330
1F
100
AcDbEntity
  8
Context
100
AcDbLine
 10
50.64180513928015
 20
164.3080099603457
 30
0.0
 11
53.96969417491083
 21
165.9719544781611
 31
0.0
  0
LINE
  5
1105
330
1F
100
AcDbEntity
  8
Context
100
AcDbLine
 10
10.76260152897266
 20
146.7256628887637
 30
0.0
 11
7.545642127863015
 21
145.449972091772
 31
0.0
  0
LINE
  5
1106
330
1F
100
AcDbEntity
  8
Context
100
AcDbLine
 10
7.545642127863015
 20
145.449972091772
 30
0.0
 11
3.33031601606417
 21
143.6750979394356
 31
0.0
  0
LINE
  5
1107
330
1F
100
AcDbEntity
  8
Context
100
AcDbLine
 10
3.33031601606417
 20
143.6750979394356
 30
0.0
 11
1.333582594685765
 21
141.1791811627126
 31
0.0
  0
LINE
  5
1108
330
1F
100
AcDbEntity
  8
Context
100
AcDbLine
 10
1.333582594685765
 20
141.1791811627126
 30
0.0
 11
-0.8850100957346783
 21
139.9589551829814
 31
0.0
  0
LINE
  5
1109
330
1F
100
AcDbEntity
  8
Context
100
AcDbLine
 10
-0.8850100957346783
 20
139.9589551829814
 30
0.0
 11
-1.550587902860812
 21
138.6277995687291
 31
0.0
  0
LINE
  5
110A
330
1F
100
AcDbEntity
  8
Context
100
AcDbLine
 10
-1.550587902860812
 20
138.6277995687291
 30
0.0
 11
-1.550587902860812
 21
137.8512921270819
 31
0.0
  0
LINE
  5
110B
330
1F
100
AcDbEntity
  8
Context
100
AcDbLine
 10
-1.550587902860812
 20
137.8512921270819
 30
0.0
 11
1.222652960164751
 21
135.1889808985774
 31
0.0
  0
LINE
  5
110C
330
1F
100
AcDbEntity
  8
Context
100
AcDbLine
 10
1.222652960164751
 20
135.1889808985774
 30
0.0
 11
3.774034554148258
 21
136.0764179747456
 31
0.0
  0
LINE
  5
110D
330
1F
100
AcDbEntity
  8
Context
100
AcDbLine
 10
3.774034554148258
 20
136.0764179747456
 30
0.0
 11
4.883330899358484
 21
136.0764179747456
 31
0.0
  0
LINE
  5
110E
330
1F
100
AcDbEntity
  8
Context
100
AcDbLine
 10
4.883330899358484
 20
136.0764179747456
 30
0.0
 11
6.159021696350237
 21
133.3586419289805
 31
0.0
  0
LINE
  5
110F
330
1F
100
AcDbEntity
  8
Context
100
AcDbLine
 10
6.269951330871262
 20
131.4728381421232
 30
0.0
 11
7.323782858820973
 21
130.9736547867786
 31
0.0
  0
LINE
  5
1110
330
1F
100
AcDbEntity
  8
Context
100
AcDbLine
 10
7.323782858820973
 20
130.9736547867786
 30
0.0
 11
8.433079204031195
 21
131.8056270456862
 31
0.0
  0
LINE
  5
1111
330
1F
100
AcDbEntity
  8
Context
100
AcDbLine
 10
8.433079204031195
 20
131.8056270456862
 30
0.0
 11
10.20795335636755
 21
130.2526121623919
 31
0.0
  0
LINE
  5
1112
330
1F
100
AcDbEntity
  8
Context
100
AcDbLine
 10
10.20795335636755
 20
130.2526121623919
 30
0.0
 11
11.31724970157778
 21
130.2526121623919
 31
0.0
  0
LINE
  5
1113
330
1F
100
AcDbEntity
  8
Context
100
AcDbLine
 10
11.31724970157778
 20
130.2526121623919
 30
0.0
 11
13.53584239199822
 21
130.7517955177365
 31
0.0
  0
LINE
  5
1114
330
1F
100
AcDbEntity
  8
Context
100
AcDbLine
 10
13.53584239199822
 20
130.7517955177365
 30
0.0
 11
16.14268880324224
 21
130.2526121623919
 31
0.0
  0
LINE
  5
1115
330
1F
100
AcDbEntity
  8
Context
100
AcDbLine
 10
16.14268880324224
 20
130.2526121623919
 30
0.0
 11
17.418379600234
 21
130.8627251522575
 31
0.0
  0
LINE
  5
1116
330
1F
100
AcDbEntity
  8
Context
100
AcDbLine
 10
17.418379600234
 20
130.8627251522575
 30
0.0
 11
18.02849259009962
 21
131.6946974111652
 31
0.0
  0
LINE
  5
1117
330
1F
100
AcDbEntity
  8
Context
100
AcDbLine
 10
18.02849259009962
 20
131.6946974111652
 30
0.0
 11
18.86046484900729
 21
131.6946974111652
 31
0.0
  0
LINE
  5
1118
330
1F
100
AcDbEntity
  8
Context
100
AcDbLine
 10
18.86046484900729
 20
131.6946974111652
 30
0.0
 11
20.30255009778058
 21
133.3586419289805
 31
0.0
  0
LINE
  5
1119
330
1F
100
AcDbEntity
  8
Context
100
AcDbLine
 10
20.30255009778058
 20
133.3586419289805
 30
0.0
 11
23.13125577806665
 21
134.1906141878882
 31
0.0
  0
LINE
  5
111A
330
1F
100
AcDbEntity
  8
Context
100
AcDbLine
 10
23.13125577806665
 20
134.1906141878882
 30
0.0
 11
24.79520029588198
 21
135.7436290711825
 31
0.0
  0
LINE
  5
111B
330
1F
100
AcDbEntity
  8
Context
100
AcDbLine
 10
24.79520029588198
 20
135.7436290711825
 30
0.0
 11
25.68263737205016
 21
137.4630384062584
 31
0.0
  0
LINE
  5
111C
330
1F
100
AcDbEntity
  8
Context
100
AcDbLine
 10
25.68263737205016
 20
137.4630384062584
 30
0.0
 11
24.35148175779789
 21
142.3994071424438
 31
0.0
  0
LINE
  5
111D
330
1F
100
AcDbEntity
  8
Context
100
AcDbLine
 10
24.35148175779789
 20
142.3994071424438
 30
0.0
 11
22.85393169176409
 21
143.9524220257381
 31
0.0
  0
LINE
  5
111E
330
1F
100
AcDbEntity
  8
Context
100
AcDbLine
 10
22.85393169176409
 20
143.9524220257381
 30
0.0
 11
21.24545199120926
 21
144.9507887364273
 31
0.0
  0
LINE
  5
111F
330
1F
100
AcDbEntity
  8
Context
100
AcDbLine
 10
21.24545199120926
 20
144.9507887364273
 30
0.0
 11
19.47057783887291
 21
145.671831360814
 31
0.0
  0
LINE
  5
1120
330
1F
100
AcDbEntity
  8
Context
100
AcDbLine
 10
19.47057783887291
 20
145.671831360814
 30
0.0
 11
16.58640734132634
 21
145.671831360814
 31
0.0
  0
LINE
  5
1121
330
1F
100
AcDbEntity
  8
Context
100
AcDbLine
 10
16.58640734132634
 20
145.671831360814
 30
0.0
 11
13.59130720925873
 21
146.7811277060242
 31
0.0
  0
LINE
  5
1122
330
1F
100
AcDbEntity
  8
Context
100
AcDbLine
 10
13.59130720925873
 20
146.7811277060242
 30
0.0
 11
10.76260152897266
 21
146.7256628887637
 31
0.0
  0
LINE
  5
1123
330
1F
100
AcDbEntity
  8
Context
100
AcDbLine
 10
-1.495123085600305
 20
113.7240966187596
 30
0.0
 11
6.547275417173815
 21
116.2200133954826
 31
0.0
  0
LINE
  5
1124
330
1F
100
AcDbEntity
  8
Context
100
AcDbLine
 10
6.547275417173815
 20
116.2200133954826
 30
0.0
 11
12.98119421939311
 21
116.2200133954826
 31
0.0
  0
LINE
  5
1125
330
1F
100
AcDbEntity
  8
Context
100
AcDbLine
 10
12.98119421939311
 20
116.2200133954826
 30
0.0
 11
23.85229840245329
 21
117.0519856543903
 31
0.0
  0
LINE
  5
1126
330
1F
100
AcDbEntity
  8
Context
100
AcDbLine
 10
23.85229840245329
 20
117.0519856543903
 30
0.0
 11
26.95832816904191
 21
116.3309430300036
 31
0.0
  0
LINE
  5
1127
330
1F
100
AcDbEntity
  8
Context
100
AcDbLine
 10
26.95832816904191
 20
116.3309430300036
 30
0.0
 11
27.95669487973112
 21
114.8333929639698
 31
0.0
  0
LINE
  5
1128
330
1F
100
AcDbEntity
  8
Context
100
AcDbLine
 10
27.95669487973112
 20
114.8333929639698
 30
0.0
 11
19.85883155969649
 21
114.8333929639698
 31
0.0
  0
LINE
  5
1129
330
1F
100
AcDbEntity
  8
Context
100
AcDbLine
 10
19.85883155969649
 20
114.8333929639698
 30
0.0
 11
15.53257581337662
 21
114.8333929639698
 31
0.0
  0
LINE
  5
112A
330
1F
100
AcDbEntity
  8
Context
100
AcDbLine
 10
15.53257581337662
 20
114.8333929639698
 30
0.0
 11
10.59620707719113
 21
113.6131669842386
 31
0.0
  0
LINE
  5
112B
330
1F
100
AcDbEntity
  8
Context
100
AcDbLine
 10
10.59620707719113
 20
113.6131669842386
 30
0.0
 11
6.380880965392279
 21
114.2232799741042
 31
0.0
  0
LINE
  5
112C
330
1F
100
AcDbEntity
  8
Context
100
AcDbLine
 10
6.380880965392279
 20
114.2232799741042
 30
0.0
 11
2.526076165786755
 21
114.9720550071211
 31
0.0
  0
LINE
  5
112D
330
1F
100
AcDbEntity
  8
Context
100
AcDbLine
 10
23.9077632197138
 20
114.8333929639698
 30
0.0
 11
21.57824089477233
 21
112.5593354562889
 31
0.0
  0
LINE
  5
112E
330
1F
100
AcDbEntity
  8
Context
100
AcDbLine
 10
19.24871856983086
 20
111.2836446592971
 30
0.0
 11
18.36128149366269
 21
110.728996486692
 31
0.0
  0
LINE
  5
112F
330
1F
100
AcDbEntity
  8
Context
100
AcDbLine
 10
15.31071654433457
 20
110.0634186795659
 30
0.0
 11
10.20795335636755
 21
110.839926121213
 31
0.0
  0
LINE
  5
1130
330
1F
100
AcDbEntity
  8
Context
100
AcDbLine
 10
10.20795335636755
 20
110.839926121213
 30
0.0
 11
7.323782858820969
 21
112.7257299080704
 31
0.0
  0
LINE
  5
1131
330
1F
100
AcDbEntity
  8
Context
100
AcDbLine
 10
7.323782858820969
 20
112.7257299080704
 30
0.0
 11
6.380880965392279
 21
114.2232799741042
 31
0.0
  0
LINE
  5
1132
330
1F
100
AcDbEntity
  8
Context
100
AcDbLine
 10
40.76906766690919
 20
118.10581718234
 30
0.0
 11
41.79516678622865
 21
120.4353395072814
 31
0.0
  0
LINE
  5
1133
330
1F
100
AcDbEntity
  8
Context
100
AcDbLine
 10
41.79516678622865
 20
120.4353395072814
 30
0.0
 11
43.20951962637168
 21
122.7093970149624
 31
0.0
  0
LINE
  5
1134
330
1F
100
AcDbEntity
  8
Context
100
AcDbLine
 10
43.20951962637168
 20
122.7093970149624
 30
0.0
 11
46.09369012391826
 21
124.1514822637357
 31
0.0
  0
LINE
  5
1135
330
1F
100
AcDbEntity
  8
Context
100
AcDbLine
 10
46.09369012391826
 20
124.1514822637357
 30
0.0
 11
47.09205683460745
 21
124.1514822637357
 31
0.0
  0
LINE
  5
1136
330
1F
100
AcDbEntity
  8
Context
100
AcDbLine
 10
47.09205683460745
 20
124.1514822637357
 30
0.0
 11
49.92076251489353
 21
122.5430025631809
 31
0.0
  0
LINE
  5
1137
330
1F
100
AcDbEntity
  8
Context
100
AcDbLine
 10
49.92076251489353
 20
122.5430025631809
 30
0.0
 11
52.25028483983499
 21
119.8806913346763
 31
0.0
  0
LINE
  5
1138
330
1F
100
AcDbEntity
  8
Context
100
AcDbLine
 10
52.25028483983499
 20
119.8806913346763
 30
0.0
 11
52.69400337791908
 21
118.3831412686425
 31
0.0
  0
LINE
  5
1139
330
1F
100
AcDbEntity
  8
Context
100
AcDbLine
 10
52.69400337791908
 20
118.3831412686425
 30
0.0
 11
52.69400337791908
 21
117.5511690097349
 31
0.0
  0
LINE
  5
113A
330
1F
100
AcDbEntity
  8
Context
100
AcDbLine
 10
52.69400337791908
 20
117.5511690097349
 30
0.0
 11
49.97622733215404
 21
114.5560688776673
 31
0.0
  0
LINE
  5
113B
330
1F
100
AcDbEntity
  8
Context
100
AcDbLine
 10
49.97622733215404
 20
114.5560688776673
 30
0.0
 11
48.70053653516228
 21
113.7795614360201
 31
0.0
  0
LINE
  5
113C
330
1F
100
AcDbEntity
  8
Context
100
AcDbLine
 10
48.70053653516228
 20
113.7795614360201
 30
0.0
 11
46.48194384474183
 21
114.3342096086252
 31
0.0
  0
LINE
  5
113D
330
1F
100
AcDbEntity
  8
Context
100
AcDbLine
 10
46.48194384474183
 20
114.3342096086252
 30
0.0
 11
43.98602706801883
 21
116.1645485782221
 31
0.0
  0
LINE
  5
113E
330
1F
100
AcDbEntity
  8
Context
100
AcDbLine
 10
43.98602706801883
 20
116.1645485782221
 30
0.0
 11
41.71196956033788
 21
116.7746615680877
 31
0.0
  0
LINE
  5
1140
330
1F
100
AcDbEntity
  8
Context
100
AcDbLine
 10
41.71196956033788
 20
116.7746615680877
 30
0.0
 11
40.8245324841697
 21
117.2738449234323
 31
0.0
  0
LINE
  5
1141
330
1F
100
AcDbEntity
  8
Context
100
AcDbLine
 10
40.8245324841697
 20
117.2738449234323
 30
0.0
 11
40.76906766690919
 21
118.10581718234
 31
0.0
  0
LINE
  5
1142
330
1F
100
AcDbEntity
  8
Context
100
AcDbLine
 10
76.93212852076246
 20
128.089484289232
 30
0.0
 11
78.37421376953574
 21
125.2607786089459
 31
0.0
  0
LINE
  5
1143
330
1F
100
AcDbEntity
  8
Context
100
AcDbLine
 10
78.37421376953574
 20
125.2607786089459
 30
0.0
 11
79.594439749267
 21
122.2656784768783
 31
0.0
  0
LINE
  5
1144
330
1F
100
AcDbEntity
  8
Context
100
AcDbLine
 10
79.594439749267
 20
122.2656784768783
 30
0.0
 11
82.81139915037664
 21
117.8839579132979
 31
0.0
  0
LINE
  5
1145
330
1F
100
AcDbEntity
  8
Context
100
AcDbLine
 10
82.81139915037664
 20
117.8839579132979
 30
0.0
 11
85.47371037888118
 21
114.1678151568437
 31
0.0
  0
LINE
  5
1146
330
1F
100
AcDbEntity
  8
Context
100
AcDbLine
 10
85.47371037888118
 20
114.1678151568437
 30
0.0
 11
88.0805567901252
 21
111.1727150247761
 31
0.0
  0
LINE
  5
1147
330
1F
100
AcDbEntity
  8
Context
100
AcDbLine
 10
88.0805567901252
 20
111.1727150247761
 30
0.0
 11
91.57484027753739
 21
108.8986575170951
 31
0.0
  0
LINE
  5
1148
330
1F
100
AcDbEntity
  8
Context
100
AcDbLine
 10
91.57484027753739
 20
108.8986575170951
 30
0.0
 11
95.0691237649496
 21
107.9557556236664
 31
0.0
  0
LINE
  5
1149
330
1F
100
AcDbEntity
  8
Context
100
AcDbLine
 10
95.0691237649496
 20
107.9557556236664
 30
0.0
 11
98.45247761784077
 21
107.4011074510613
 31
0.0
  0
LINE
  5
114A
330
1F
100
AcDbEntity
  8
Context
100
AcDbLine
 10
98.45247761784077
 20
107.4011074510613
 30
0.0
 11
99.67270359757202
 21
107.9002908064059
 31
0.0
  0
LINE
  5
114B
330
1F
100
AcDbEntity
  8
Context
100
AcDbLine
 10
99.67270359757202
 20
107.9002908064059
 30
0.0
 11
102.7787333641606
 21
112.5038706390283
 31
0.0
  0
LINE
  5
114C
330
1F
100
AcDbEntity
  8
Context
100
AcDbLine
 10
102.7787333641606
 20
112.5038706390283
 30
0.0
 11
104.664537151018
 21
114.9997874157513
 31
0.0
  0
LINE
  5
114D
330
1F
100
AcDbEntity
  8
Context
100
AcDbLine
 10
104.664537151018
 20
114.9997874157513
 30
0.0
 11
107.7705669176067
 21
117.3847745579533
 31
0.0
  0
LINE
  5
114E
330
1F
100
AcDbEntity
  8
Context
100
AcDbLine
 10
107.7705669176067
 20
117.3847745579533
 30
0.0
 11
108.8243984455564
 21
120.6571987763235
 31
0.0
  0
LINE
  5
114F
330
1F
100
AcDbEntity
  8
Context
100
AcDbLine
 10
108.8243984455564
 20
120.6571987763235
 30
0.0
 11
109.3790466181615
 21
124.4288063500382
 31
0.0
  0
LINE
  5
1150
330
1F
100
AcDbEntity
  8
Context
100
AcDbLine
 10
109.3790466181615
 20
124.4288063500382
 30
0.0
 11
108.1588206384302
 21
128.311343558274
 31
0.0
  0
LINE
  5
1151
330
1F
100
AcDbEntity
  8
Context
100
AcDbLine
 10
54.08062380943188
 20
149.5543685690498
 30
0.0
 11
60.1262888908276
 21
148.7778611274026
 31
0.0
  0
LINE
  5
1152
330
1F
100
AcDbEntity
  8
Context
100
AcDbLine
 10
60.1262888908276
 20
148.7778611274026
 30
0.0
 11
63.06592420563469
 21
147.8904240512344
 31
0.0
  0
LINE
  5
1153
330
1F
100
AcDbEntity
  8
Context
100
AcDbLine
 10
63.06592420563469
 20
147.8904240512344
 30
0.0
 11
70.27635044950114
 21
144.6734646501248
 31
0.0
  0
LINE
  5
1154
330
1F
100
AcDbEntity
  8
Context
100
AcDbLine
 10
70.27635044950114
 20
144.6734646501248
 30
0.0
 11
75.49004327198918
 21
142.6212664114859
 31
0.0
  0
LINE
  5
1155
330
1F
100
AcDbEntity
  8
Context
100
AcDbLine
 10
75.49004327198918
 20
142.6212664114859
 30
0.0
 11
78.65153785583831
 21
141.5674348835362
 31
0.0
  0
LINE
  5
1156
330
1F
100
AcDbEntity
  8
Context
100
AcDbLine
 10
78.65153785583831
 20
141.5674348835362
 30
0.0
 11
84.0316251301079
 21
140.679997807368
 31
0.0
  0
LINE
  5
1157
330
1F
100
AcDbEntity
  8
Context
100
AcDbLine
 10
84.0316251301079
 20
140.679997807368
 30
0.0
 11
89.30078276985645
 21
139.2379125585947
 31
0.0
  0
LINE
  5
1158
330
1F
100
AcDbEntity
  8
Context
100
AcDbLine
 10
89.30078276985645
 20
139.2379125585947
 30
0.0
 11
94.0152922369999
 21
140.569068172847
 31
0.0
  0
LINE
  5
1159
330
1F
100
AcDbEntity
  8
Context
100
AcDbLine
 10
94.0152922369999
 20
140.569068172847
 30
0.0
 11
96.89946273454649
 21
142.2884775079228
 31
0.0
  0
LINE
  5
115A
330
1F
100
AcDbEntity
  8
Context
100
AcDbLine
 10
96.89946273454649
 20
142.2884775079228
 30
0.0
 11
99.61723878031154
 21
143.2313794013515
 31
0.0
  0
LINE
  5
115B
330
1F
100
AcDbEntity
  8
Context
100
AcDbLine
 10
99.61723878031154
 20
143.2313794013515
 30
0.0
 11
104.1653537956734
 21
143.6750979394356
 31
0.0
  0
LINE
  5
115C
330
1F
100
AcDbEntity
  8
Context
100
AcDbLine
 10
104.1653537956734
 20
143.6750979394356
 30
0.0
 11
105.4965094099257
 21
143.6750979394356
 31
0.0
  0
LINE
  5
115D
330
1F
100
AcDbEntity
  8
Context
100
AcDbLine
 10
105.4965094099257
 20
143.6750979394356
 30
0.0
 11
113.9271616335234
 21
145.1171831882089
 31
0.0
  0
LINE
  5
115E
330
1F
100
AcDbEntity
  8
Context
100
AcDbLine
 10
113.9271616335234
 20
145.1171831882089
 30
0.0
 11
115.6465709685993
 21
145.8936906298561
 31
0.0
  0
LINE
  5
115F
330
1F
100
AcDbEntity
  8
Context
100
AcDbLine
 10
115.6465709685993
 20
145.8936906298561
 30
0.0
 11
119.0853896387509
 21
149.0551852137052
 31
0.0
  0
LINE
  5
1160
330
1F
100
AcDbEntity
  8
Context
100
AcDbLine
 10
119.0853896387509
 20
149.0551852137052
 30
0.0
 11
122.5242083089026
 21
150.1644815589154
 31
0.0
  0
LINE
  5
1161
330
1F
100
AcDbEntity
  8
Context
100
AcDbLine
 10
122.5242083089026
 20
150.1644815589154
 30
0.0
 11
129.6791697355086
 21
150.7191297315205
 31
0.0
  0
LINE
  5
1162
330
1F
100
AcDbEntity
  8
Context
100
AcDbLine
 10
129.6791697355086
 20
150.7191297315205
 30
0.0
 11
131.3985790705844
 21
150.7191297315205
 31
0.0
  0
LINE
  5
1163
330
1F
100
AcDbEntity
  8
Context
100
AcDbLine
 10
58.57327400753329
 20
148.9442555791842
 30
0.0
 11
61.84569822590345
 21
149.6098333863103
 31
0.0
  0
LINE
  5
1164
330
1F
100
AcDbEntity
  8
Context
100
AcDbLine
 10
61.84569822590345
 20
149.6098333863103
 30
0.0
 11
67.50310958647557
 21
148.8333259446632
 31
0.0
  0
LINE
  5
1165
330
1F
100
AcDbEntity
  8
Context
100
AcDbLine
 10
67.50310958647557
 20
148.8333259446632
 30
0.0
 11
71.21925234292982
 21
148.8333259446632
 31
0.0
  0
LINE
  5
1166
330
1F
100
AcDbEntity
  8
Context
100
AcDbLine
 10
71.21925234292982
 20
148.8333259446632
 30
0.0
 11
74.26981729225794
 21
148.3341425893185
 31
0.0
  0
LINE
  5
1167
330
1F
100
AcDbEntity
  8
Context
100
AcDbLine
 10
74.26981729225794
 20
148.3341425893185
 30
0.0
 11
76.32201553089686
 21
148.3341425893185
 31
0.0
  0
LINE
  5
1168
330
1F
100
AcDbEntity
  8
Context
100
AcDbLine
 10
76.32201553089686
 20
148.3341425893185
 30
0.0
 11
84.19801958188944
 21
146.6701980715032
 31
0.0
  0
LINE
  5
1169
330
1F
100
AcDbEntity
  8
Context
100
AcDbLine
 10
84.19801958188944
 20
146.6701980715032
 30
0.0
 11
85.36278074436017
 21
146.6701980715032
 31
0.0
  0
LINE
  5
116A
330
1F
100
AcDbEntity
  8
Context
100
AcDbLine
 10
85.36278074436017
 20
146.6701980715032
 30
0.0
 11
88.30241605916726
 21
147.3357758786293
 31
0.0
  0
LINE
  5
116B
330
1F
100
AcDbEntity
  8
Context
100
AcDbLine
 10
88.30241605916726
 20
147.3357758786293
 30
0.0
 11
94.34808114056298
 21
150.552735279739
 31
0.0
  0
LINE
  5
116C
330
1F
100
AcDbEntity
  8
Context
100
AcDbLine
 10
94.34808114056298
 20
150.552735279739
 30
0.0
 11
99.56177396305102
 21
150.0535519243944
 31
0.0
  0
LINE
  5
116D
330
1F
100
AcDbEntity
  8
Context
100
AcDbLine
 10
99.56177396305102
 20
150.0535519243944
 30
0.0
 11
102.9451278159422
 21
150.8855241833021
 31
0.0
  0
LINE
  5
116E
330
1F
100
AcDbEntity
  8
Context
100
AcDbLine
 10
102.9451278159422
 20
150.8855241833021
 30
0.0
 11
117.5878395727171
 21
150.8855241833021
 31
0.0
  0
LINE
  5
116F
330
1F
100
AcDbEntity
  8
Context
100
AcDbLine
 10
117.5878395727171
 20
150.8855241833021
 30
0.0
 11
131.8422976086685
 21
150.8855241833021
 31
0.0
  0
LINE
  5
1171
330
1F
100
AcDbEntity
  8
W.Station
  6
DASHED
100
AcDbLine
 10
-1.69719339974035
 20
168.7233160037246
 30
0.0
 11
58.90717778179504
 21
168.7233160037245
 31
0.0
  0
LINE
  5
1172
330
1F
100
AcDbEntity
  8
W.Station
  6
DASHED
100
AcDbLine
 10
-1.550587902860812
 20
138.2395458479055
 30
0.0
 11
28.60499219102735
 21
138.2395458479055
 31
0.0
  0
LINE
  5
1173
330
1F
100
AcDbEntity
  8
W.Station
  6
DASHED
100
AcDbLine
 10
-1.830977883584801
 20
118.0858888686006
 30
0.0
 11
28.60499219102734
 21
118.0858888686006
 31
0.0
  0
LINE
  5
1174
330
1F
100
AcDbEntity
  8
W.Station
  6
DASHED
100
AcDbLine
 10
38.57193623743879
 20
117.885212142834
 30
0.0
 11
54.02404412147265
 21
117.885212142834
 31
0.0
  0
LINE
  5
1175
330
1F
100
AcDbEntity
  8
W.Station
  6
DASHED
100
AcDbLine
 10
53.68958291186152
 20
153.4718848454574
 30
0.0
 11
130.8163378481864
 21
153.4718848454574
 31
0.0
  0
LINE
  5
1176
330
1F
100
AcDbEntity
  8
W.Station
  6
DASHED
100
AcDbLine
 10
74.02482445621777
 20
128.2535096407788
 30
0.0
 11
112.6885402872635
 21
128.2535096407788
 31
0.0
  0
MTEXT
  5
1178
330
1F
100
AcDbEntity
  8
Labels
  6
Continuous
100
AcDbMText
 10
14.33233506653556
 20
158.7058861120962
 30
0.0
 40
1.012263303063162
 41
45.02885356873153
 46
0.2554
 71
     1
 72
     5
  1
{[016]}
 73
     1
 44
1.0
  0
MTEXT
  5
1179
330
1F
100
AcDbEntity
  8
Labels
  6
Continuous
100
AcDbMText
 10
22.22561961335805
 20
165.3282180623964
 30
0.0
 40
1.012263303063162
 41
45.02885356873153
 46
1.309868714163731
 71
     1
 72
     5
  1
{(015)}
 73
     1
 44
1.0
  0
MTEXT
  5
117A
330
1F
100
AcDbEntity
  8
Labels
  6
Continuous
100
AcDbMText
 10
85.77324943947131
 20
156.0970886771295
 30
0.0
 40
1.012263303063162
 41
45.02885356873152
 46
1.309868714163731
 71
     1
 72
     5
  1
{(001)}
 73
     1
 44
1.0
  0
MTEXT
  5
117B
330
1F
100
AcDbEntity
  8
Labels
  6
Continuous
100
AcDbMText
 10
86.30838737484912
 20
144.4578385826624
 30
0.0
 40
1.012263303063162
 41
45.02885356873152
 46
1.309868714163731
 71
     1
 72
     5
  1
{(023)}
 73
     1
 44
1.0
  0
LINE
  5
117C
330
1F
100
AcDbEntity
  8
Labels
  6
Continuous
100
AcDbLine
 10
14.70060355446894
 20
162.9768543460935
 30
0.0
 11
14.70060355446894
 21
160.8969236988243
 31
0.0
  0
LINE
  5
117D
330
1F
100
AcDbEntity
  8
Labels
  6
Continuous
100
AcDbLine
 10
14.70060355446894
 20
160.8969236988243
 30
0.0
 11
15.76168174196023
 21
160.8969236988243
 31
0.0
  0
LINE
  5
117E
330
1F
100
AcDbEntity
  8
Labels
  6
Continuous
100
AcDbLine
 10
15.76168174196023
 20
160.8969236988243
 30
0.0
 11
15.76168174196023
 21
159.2246176507687
 31
0.0
  0
MTEXT
  5
117F
330
1F
100
AcDbEntity
  8
Labels
  6
Continuous
100
AcDbMText
 10
67.7123441204707
 20
170.8802741419411
 30
0.0
 40
1.012263303063162
 41
45.02885356873153
 46
6.176830675291412
 71
     1
 72
     5
  1
{1C21ILFCI\PSection of pit [016]\PDWG# 007 \P1:10^ISL^I9.11.21}
 73
     1
 44
1.0
  0
MTEXT
  5
1180
330
1F
100
AcDbEntity
  8
W.Station
  6
Continuous
100
AcDbMText
 10
-4.932630607065093
 20
172.7532569157633
 30
0.0
 40
1.012263303063162
 41
45.02885356873153
 46
2.72804960175522
 71
     1
 72
     5
  1
{SP 008.1\PNE}
 73
     1
 44
1.0
  0
MTEXT
  5
1181
330
1F
100
AcDbEntity
  8
Detail
  6
Continuous
100
AcDbMText
 10
58.61499921904817
 20
172.7532569157633
 30
0.0
 40
1.012263303063162
 41
45.02885356873153
 46
2.745258077907294
 71
     1
 72
     5
  1
{SP 008.2\PSW}
 73
     1
 44
1.0
  0
CIRCLE
  5
1182
330
1F
100
AcDbEntity
  8
Labels
  6
Continuous
100
AcDbCircle
 10
12.88531533930458
 20
166.4489797783689
 30
0.0
 40
0.5351379353777972
  0
CIRCLE
  5
1183
330
1F
100
AcDbEntity
  8
Labels
  6
Continuous
100
AcDbCircle
 10
38.63882847936102
 20
164.9104582141578
 30
0.0
 40
0.401353451533339
  0
LINE
  5
1184
330
1F
100
AcDbEntity
  8
Labels
  6
Continuous
100
AcDbLine
 10
32.15028101290524
 20
165.7131651172245
 30
0.0
 11
33.75569481903862
 21
164.37532027878
 31
0.0
  0
LINE
  5
1185
330
1F
100
AcDbEntity
  8
Labels
  6
Continuous
100
AcDbLine
 10
33.75569481903862
 20
164.37532027878
 30
0.0
 11
34.55840172210532
 21
165.1111349399245
 31
0.0
  0
LINE
  5
1186
330
1F
100
AcDbEntity
  8
Labels
  6
Continuous
100
AcDbLine
 10
34.55840172210532
 20
165.1111349399245
 30
0.0
 11
33.9563715448053
 21
165.8469496010689
 31
0.0
  0
LINE
  5
1187
330
1F
100
AcDbEntity
  8
Labels
  6
Continuous
100
AcDbLine
 10
33.9563715448053
 20
165.8469496010689
 30
0.0
 11
32.28406549674968
 21
165.8469496010689
 31
0.0
  0
LINE
  5
1188
330
1F
100
AcDbEntity
  8
Labels
  6
Continuous
100
AcDbLine
 10
32.28406549674968
 20
165.8469496010689
 30
0.0
 11
32.15028101290524
 21
165.7131651172245
 31
0.0
  0
MTEXT
  5
1189
330
1F
100
AcDbEntity
  8
Labels
  6
Continuous
100
AcDbMText
 10
24.16549462910255
 20
130.343575537073
 30
0.0
 40
1.012263303063162
 41
45.02885356873153
 46
0.2554
 71
     1
 72
     5
  1
{[016]}
 73
     1
 44
1.0
  0
MTEXT
  5
118A
330
1F
100
AcDbEntity
  8
Labels
  6
Continuous
100
AcDbMText
 10
10.45258503504653
 20
142.5179635669179
 30
0.0
 40
1.012263303063162
 41
45.02885356873153
 46
1.309868714163731
 71
     1
 72
     5
  1
{(015)}
 73
     1
 44
1.0
  0
MTEXT
  5
118B
330
1F
100
AcDbEntity
  8
W.Station
  6
Continuous
100
AcDbMText
 10
-8.879272880476336
 20
139.2402437127289
 30
0.0
 40
1.012263303063162
 41
45.02885356873153
 46
1.029471779215235
 71
     1
 72
     5
  1
{DP 008.1}
 73
     1
 44
1.0
  0
MTEXT
  5
118C
330
1F
100
AcDbEntity
  8
W.Station
  6
Continuous
100
AcDbMText
 10
30.25268864402499
 20
139.2402437127289
 30
0.0
 40
1.012263303063162
 41
45.02885356873153
 46
1.029471779215235
 71
     1
 72
     5
  1
{DP 008.2}
 73
     1
 44
1.0
  0
LINE
  5
118D
330
1F
100
AcDbEntity
  8
Labels
  6
Continuous
100
AcDbLine
 10
21.71690293792361
 20
133.7746280584344
 30
0.0
 11
22.38401369226045
 21
131.2636605272789
 31
0.0
  0
LINE
  5
118E
330
1F
100
AcDbEntity
  8
Labels
  6
Continuous
100
AcDbLine
 10
22.38401369226045
 20
131.2636605272789
 30
0.0
 11
23.0529361114827
 21
132.3339363980345
 31
0.0
  0
LINE
  5
118F
330
1F
100
AcDbEntity
  8
Labels
  6
Continuous
100
AcDbLine
 10
23.0529361114827
 20
132.3339363980345
 30
0.0
 11
24.79213440146054
 21
130.4609536242122
 31
0.0
  0
LINE
  5
1190
330
1F
100
AcDbEntity
  8
Labels
  6
Continuous
100
AcDbLine
 10
29.27391461024958
 20
150.5955184428017
 30
0.0
 11
25.59484130452723
 21
147.3177985886128
 31
0.0
  0
LINE
  5
1191
330
1F
100
AcDbEntity
  8
Labels
  6
Continuous
100
AcDbLine
 10
25.59484130452723
 20
147.3177985886128
 30
0.0
 11
25.59484130452723
 21
148.9901046366683
 31
0.0
  0
LINE
  5
1192
330
1F
100
AcDbEntity
  8
Labels
  6
Continuous
100
AcDbLine
 10
25.59484130452723
 20
148.9901046366683
 30
0.0
 11
27.26714735258284
 21
147.384690830535
 31
0.0
  0
LINE
  5
1193
330
1F
100
AcDbEntity
  8
Labels
  6
Continuous
100
AcDbLine
 10
27.26714735258284
 20
147.384690830535
 30
0.0
 11
25.59484130452723
 21
147.3177985886128
 31
0.0
  0
MTEXT
  5
1194
330
1F
100
AcDbEntity
  8
Labels
  6
Continuous
100
AcDbMText
 10
33.26283953052508
 20
134.2902178104843
 30
0.0
 40
1.012263303063162
 41
45.02885356873155
 46
6.176830675291412
 71
     1
 72
     5
  1
{1C21ILFCI\PPlan of pit [016] filled with (015)\PDWG# 008\P1:20^ISL^I9.11.21}
 73
     1
 44
1.0
  0
MTEXT
  5
1195
330
1F
100
AcDbEntity
  8
Labels
  6
Continuous
100
AcDbMText
 10
24.49995583871367
 20
146.5983903241736
 30
0.0
 40
1.012263303063162
 41
45.02885356873153
 46
1.012263303063162
 71
     1
 72
     5
  1
{N}
 73
     1
 44
1.0
  0
MTEXT
  5
1196
330
1F
100
AcDbEntity
  8
Labels
  6
Continuous
100
AcDbMText
 10
15.53639542113559
 20
113.5536228145947
 30
0.0
 40
1.012263303063162
 41
45.02885356873153
 46
1.309868714163731
 71
     1
 72
     5
  1
{(021)}
 73
     1
 44
1.0
  0
MTEXT
  5
1197
330
1F
100
AcDbEntity
  8
Labels
  6
Continuous
100
AcDbMText
 10
20.15196011376909
 20
116.4968814591726
 30
0.0
 40
1.012263303063162
 41
45.02885356873154
 46
1.309868714163731
 71
     1
 72
     5
  1
{(022)}
 73
     1
 44
1.0
  0
MTEXT
  5
1198
330
1F
100
AcDbEntity
  8
Labels
  6
Continuous
100
AcDbMText
 10
25.43644722562482
 20
112.2826702180724
 30
0.0
 40
1.012263303063162
 41
45.02885356873153
 46
1.292660238011657
 71
     1
 72
     5
  1
{[020]}
 73
     1
 44
1.0
  0
MTEXT
  5
1199
330
1F
100
AcDbEntity
  8
Labels
  6
Continuous
100
AcDbMText
 10
-1.119772817498308
 20
105.7272305096944
 30
0.0
 40
1.012263303063162
 41
45.02885356873154
 46
6.176830675291412
 71
     1
 72
     5
  1
{1C21ILFCI\PSection of posthole [020]\PDWG# 014\P1:10^ISC^I9.11.21}
 73
     1
 44
1.0
  0
MTEXT
  5
119A
330
1F
100
AcDbEntity
  8
Labels
  6
Continuous
100
AcDbMText
 10
39.75138699698087
 20
106.6637218966055
 30
0.0
 40
1.012263303063162
 41
45.02885356873153
 46
6.176830675291412
 71
     1
 72
     5
  1
{1C21ILFCI\PPlan of pit [020]\PDWG# 015\P1:20^ISC^I9.11.21}
 73
     1
 44
1.0
  0
MTEXT
  5
119B
330
1F
100
AcDbEntity
  8
Labels
  6
Continuous
100
AcDbMText
 10
51.79199054298127
 20
113.5536228145947
 30
0.0
 40
1.012263303063162
 41
45.02885356873153
 46
1.292660238011657
 71
     1
 72
     5
  1
{[020]}
 73
     1
 44
1.0
  0
MTEXT
  5
119C
330
1F
100
AcDbEntity
  8
Labels
  6
Continuous
100
AcDbMText
 10
45.43722756036994
 20
121.4469073614172
 30
0.0
 40
1.012263303063162
 41
45.02885356873154
 46
1.309868714163731
 71
     1
 72
     5
  1
{(022)}
 73
     1
 44
1.0
  0
LINE
  5
119D
330
1F
100
AcDbEntity
  8
Labels
  6
Continuous
100
AcDbLine
 10
21.57824089477233
 20
112.5593354562889
 30
0.0
 11
23.65496628878272
 21
113.0689707244338
 31
0.0
  0
LINE
  5
119E
330
1F
100
AcDbEntity
  8
Labels
  6
Continuous
100
AcDbLine
 10
23.65496628878272
 20
113.0689707244338
 30
0.0
 11
23.65496628878272
 21
111.7980181279116
 31
0.0
  0
LINE
  5
119F
330
1F
100
AcDbEntity
  8
Labels
  6
Continuous
100
AcDbLine
 10
23.65496628878272
 20
111.7980181279116
 30
0.0
 11
25.26038009491611
 21
111.7980181279116
 31
0.0
  0
LINE
  5
11A0
330
1F
100
AcDbEntity
  8
Labels
  6
Continuous
100
AcDbLine
 10
49.33838193365816
 20
114.1678151568437
 30
0.0
 11
50.47875529959474
 21
114.1678151568437
 31
0.0
  0
LINE
  5
11A1
330
1F
100
AcDbEntity
  8
Labels
  6
Continuous
100
AcDbLine
 10
50.47875529959474
 20
114.1678151568437
 30
0.0
 11
49.67604839652805
 21
112.6007250309783
 31
0.0
  0
LINE
  5
11A2
330
1F
100
AcDbEntity
  8
Labels
  6
Continuous
100
AcDbLine
 10
49.67604839652805
 20
112.6007250309783
 30
0.0
 11
51.34835444458366
 21
112.6007250309783
 31
0.0
  0
MTEXT
  5
11A3
330
1F
100
AcDbEntity
  8
W.Station
  6
Continuous
100
AcDbMText
 10
35.53717575588073
 20
122.3833987483283
 30
0.0
 40
1.012263303063162
 41
45.02885356873153
 46
1.029471779215235
 71
     1
 72
     5
  1
{DP 015.1}
 73
     1
 44
1.0
  0
MTEXT
  5
11A4
330
1F
100
AcDbEntity
  8
W.Station
  6
Continuous
100
AcDbMText
 10
53.12983538142578
 20
122.3833987483283
 30
0.0
 40
1.012263303063162
 41
45.02885356873153
 46
1.029471779215235
 71
     1
 72
     5
  1
{DP 015.2}
 73
     1
 44
1.0
  0
MTEXT
  5
11A5
330
1F
100
AcDbEntity
  8
W.Station
  6
Continuous
100
AcDbMText
 10
-4.665061639376191
 20
122.1158297806394
 30
0.0
 40
1.012263303063162
 41
45.02885356873153
 46
1.029471779215235
 71
     1
 72
     5
  1
{SP 014.1}
 73
     1
 44
1.0
  0
MTEXT
  5
11A6
330
1F
100
AcDbEntity
  8
W.Station
  6
Continuous
100
AcDbMText
 10
26.50672309638043
 20
121.8482608129505
 30
0.0
 40
1.012263303063162
 41
45.02885356873153
 46
1.029471779215235
 71
     1
 72
     5
  1
{SP 014.2}
 73
     1
 44
1.0
  0
LINE
  5
11A7
330
1F
100
AcDbEntity
  8
Labels
  6
Continuous
100
AcDbLine
 10
50.41186305767251
 20
124.3068673673675
 30
0.0
 11
54.09093636339487
 21
125.9122811735009
 31
0.0
  0
LINE
  5
11A8
330
1F
100
AcDbEntity
  8
Labels
  6
Continuous
100
AcDbLine
 10
54.09093636339487
 20
125.9122811735009
 30
0.0
 11
52.25139971053369
 21
125.1095742704342
 31
0.0
  0
LINE
  5
11A9
330
1F
100
AcDbEntity
  8
Labels
  6
Continuous
100
AcDbLine
 10
54.09093636339487
 20
125.9122811735009
 30
0.0
 11
53.42201394417263
 21
124.7751130608231
 31
0.0
  0
LINE
  5
11AA
330
1F
100
AcDbEntity
  8
Labels
  6
Continuous
100
AcDbLine
 10
53.42201394417263
 20
124.7751130608231
 30
0.0
 11
52.48552255726148
 21
126.1798501411898
 31
0.0
  0
LINE
  5
11AB
330
1F
100
AcDbEntity
  8
Labels
  6
Continuous
100
AcDbLine
 10
52.48552255726148
 20
126.1798501411898
 30
0.0
 11
54.09093636339487
 21
125.9122811735009
 31
0.0
  0
MTEXT
  5
11AC
330
1F
100
AcDbEntity
  8
Labels
  6
Continuous
100
AcDbMText
 10
51.25685260760347
 20
124.2563815221506
 30
0.0
 40
1.012263303063162
 41
45.02885356873154
 46
1.012263303063162
 71
     1
 72
     5
  1
{N}
 73
     1
 44
1.0
  0
MTEXT
  5
11AD
330
1F
100
AcDbEntity
  8
Labels
  6
Continuous
100
AcDbMText
 10
123.2997971578392
 20
112.6171314276835
 30
0.0
 40
1.012263303063162
 41
45.02885356873154
 46
1.012263303063162
 71
     1
 72
     5
  1
{N}
 73
     1
 44
1.0
  0
MTEXT
  5
11AE
330
1F
100
AcDbEntity
  8
W.Station
  6
Continuous
100
AcDbMText
 10
109.7875642895499
 20
131.6145281335953
 30
0.0
 40
1.012263303063162
 41
45.02885356873153
 46
1.029471779215235
 71
     1
 72
     5
  1
{DP 019.2}
 73
     1
 44
1.0
  0
MTEXT
  5
11AF
330
1F
100
AcDbEntity
  8
W.Station
  6
Continuous
100
AcDbMText
 10
70.6556027650486
 20
131.4807436497508
 30
0.0
 40
1.012263303063162
 41
45.02885356873153
 46
1.029471779215235
 71
     1
 72
     5
  1
{DP 019.1}
 73
     1
 44
1.0
  0
MTEXT
  5
11B0
330
1F
100
AcDbEntity
  8
Labels
  6
Continuous
100
AcDbMText
 10
108.7841806607165
 20
110.8779331377057
 30
0.0
 40
1.012263303063162
 41
45.02885356873153
 46
1.292660238011657
 71
     1
 72
     5
  1
{[024]}
 73
     1
 44
1.0
  0
MTEXT
  5
11B1
330
1F
100
AcDbEntity
  8
Labels
  6
Continuous
100
AcDbMText
 10
90.52259861594925
 20
131.9489893432064
 30
0.0
 40
1.012263303063162
 41
45.02885356873153
 46
1.309868714163731
 71
     1
 72
     5
  1
{(001)}
 73
     1
 44
1.0
  0
LINE
  5
11B2
330
1F
100
AcDbEntity
  8
Labels
  6
Continuous
100
AcDbLine
 10
104.664537151018
 20
114.9997874157513
 30
0.0
 11
107.2033764496411
 21
112.0655870956004
 31
0.0
  0
LINE
  5
11B3
330
1F
100
AcDbEntity
  8
Labels
  6
Continuous
100
AcDbLine
 10
107.2033764496411
 20
112.0655870956004
 30
0.0
 11
107.2033764496411
 21
113.4034319340449
 31
0.0
  0
LINE
  5
11B4
330
1F
100
AcDbEntity
  8
Labels
  6
Continuous
100
AcDbLine
 10
107.2033764496411
 20
113.4034319340449
 30
0.0
 11
109.3439281911523
 21
111.1290957086893
 31
0.0
  0
MTEXT
  5
11B5
330
1F
100
AcDbEntity
  8
Labels
  6
Continuous
100
AcDbMText
 10
116.7443574494613
 20
126.1293642959729
 30
0.0
 40
1.012263303063162
 41
45.02885356873153
 46
6.176830675291412
 71
     1
 72
     5
  1
{1C21ILFCI\PPlan of pit [024]\PDWG# 019\P1:20^ISL^I9.11.21}
 73
     1
 44
1.0
  0
LINE
  5
11B6
330
1F
100
AcDbEntity
  8
Labels
  6
Continuous
100
AcDbLine
 10
117.6385661895081
 20
115.5439836755561
 30
0.0
 11
122.1872386402194
 21
112.1993715794449
 31
0.0
  0
LINE
  5
11B7
330
1F
100
AcDbEntity
  8
Labels
  6
Continuous
100
AcDbLine
 10
122.1872386402194
 20
112.1993715794449
 30
0.0
 11
121.3845317371527
 21
113.8716776275005
 31
0.0
  0
LINE
  5
11B8
330
1F
100
AcDbEntity
  8
Labels
  6
Continuous
100
AcDbLine
 10
121.3845317371527
 20
113.8716776275005
 30
0.0
 11
120.5149325921638
 21
112.1324793375227
 31
0.0
  0
LINE
  5
11B9
330
1F
100
AcDbEntity
  8
Labels
  6
Continuous
100
AcDbLine
 10
120.5149325921638
 20
112.1324793375227
 30
0.0
 11
122.1872386402194
 21
112.1993715794449
 31
0.0
  0
MTEXT
  5
11BA
330
1F
100
AcDbEntity
  8
Labels
  6
Continuous
100
AcDbMText
 10
117.9484178040613
 20
142.6517480507624
 30
0.0
 40
1.012263303063162
 41
45.02885356873153
 46
1.292660238011657
 71
     1
 72
     5
  1
{[024]}
 73
     1
 44
1.0
  0
LINE
  5
11BB
330
1F
100
AcDbEntity
  8
Labels
  6
Continuous
100
AcDbLine
 10
115.6465709685993
 20
145.8936906298561
 30
0.0
 11
116.8358592864414
 21
143.4380485571238
 31
0.0
  0
LINE
  5
11BC
330
1F
100
AcDbEntity
  8
Labels
  6
Continuous
100
AcDbLine
 10
116.8358592864414
 20
143.4380485571238
 30
0.0
 11
116.8358592864414
 21
144.709001153646
 31
0.0
  0
LINE
  5
11BD
330
1F
100
AcDbEntity
  8
Labels
  6
Continuous
100
AcDbLine
 10
116.8358592864414
 20
144.709001153646
 30
0.0
 11
118.6419498183415
 21
142.9698028636682
 31
0.0
  0
MTEXT
  5
11BE
330
1F
100
AcDbEntity
  8
Labels
  6
Continuous
100
AcDbMText
 10
57.81229231598148
 20
144.6585153084291
 30
0.0
 40
1.012263303063162
 41
45.02885356873155
 46
6.176830675291412
 71
     1
 72
     5
  1
{1C21ILFCI\PSection of pit [024]\PDWG# 018\P1:10^ISL^I9.11.21}
 73
     1
 44
1.0
  0
MTEXT
  5
11BF
330
1F
100
AcDbEntity
  8
W.Station
  6
Continuous
100
AcDbMText
 10
50.58793018838125
 20
157.3011490317295
 30
0.0
 40
1.012263303063162
 41
45.02885356873153
 46
2.72804960175522
 71
     1
 72
     5
  1
{SP 024.1\PNW}
 73
     1
 44
1.0
  0
MTEXT
  5
11C0
330
1F
100
AcDbEntity
  8
W.Station
  6
Continuous
100
AcDbMText
 10
128.3836075439283
 20
157.3680412736517
 30
0.0
 40
1.012263303063162
 41
45.02885356873153
 46
2.745258077907294
 71
     1
 72
     5
  1
{SP 024.2\PSE}
 73
     1
 44
1.0
  0
CIRCLE
  5
11C7
330
1F
100
AcDbEntity
  8
W.Station
 62
     7
100
AcDbCircle
 10
112.6885402872635
 20
128.2535096407788
 30
0.0
 40
0.4370755447933812
  0
LWPOLYLINE
  5
11C8
330
1F
100
AcDbEntity
  8
W.Station
 62
     7
100
AcDbPolyline
 90
        2
 70
     0
 43
0.0
 10
112.6885402872635
 20
129.3753368724163
 10
112.6885402872635
 20
127.1316824091411
  0
LWPOLYLINE
  5
11C9
330
1F
100
AcDbEntity
  8
W.Station
 62
     7
100
AcDbPolyline
 90
        2
 70
     0
 43
0.0
 10
111.6784101392963
 20
128.2535096407788
 10
113.6986704352307
 20
128.2535096407788
  0
CIRCLE
  5
11CA
330
1F
100
AcDbEntity
  8
W.Station
 62
     7
100
AcDbCircle
 10
74.02482445621777
 20
128.2535096407788
 30
0.0
 40
0.4370755447933812
  0
LWPOLYLINE
  5
11CB
330
1F
100
AcDbEntity
  8
W.Station
 62
     7
100
AcDbPolyline
 90
        2
 70
     0
 43
0.0
 10
74.02482445621777
 20
129.3753368724163
 10
74.02482445621777
 20
127.1316824091411
  0
LWPOLYLINE
  5
11CC
330
1F
100
AcDbEntity
  8
W.Station
 62
     7
100
AcDbPolyline
 90
        2
 70
     0
 43
0.0
 10
73.0146943082506
 20
128.2535096407788
 10
75.03495460418495
 20
128.2535096407788
  0
CIRCLE
  5
11CD
330
1F
100
AcDbEntity
  8
W.Station
 62
     7
100
AcDbCircle
 10
38.57193623743879
 20
117.885212142834
 30
0.0
 40
0.4370755447933812
  0
LWPOLYLINE
  5
11CE
330
1F
100
AcDbEntity
  8
W.Station
 62
     7
100
AcDbPolyline
 90
        2
 70
     0
 43
0.0
 10
38.57193623743879
 20
119.0070393744715
 10
38.57193623743879
 20
116.7633849111963
  0
LWPOLYLINE
  5
11CF
330
1F
100
AcDbEntity
  8
W.Station
 62
     7
100
AcDbPolyline
 90
        2
 70
     0
 43
0.0
 10
37.56180608947162
 20
117.885212142834
 10
39.58206638540597
 20
117.885212142834
  0
CIRCLE
  5
11D0
330
1F
100
AcDbEntity
  8
W.Station
 62
     7
100
AcDbCircle
 10
54.02404412147266
 20
117.885212142834
 30
0.0
 40
0.4370755447933812
  0
LWPOLYLINE
  5
11D1
330
1F
100
AcDbEntity
  8
W.Station
 62
     7
100
AcDbPolyline
 90
        2
 70
     0
 43
0.0
 10
54.02404412147266
 20
119.0070393744715
 10
54.02404412147266
 20
116.7633849111963
  0
LWPOLYLINE
  5
11D2
330
1F
100
AcDbEntity
  8
W.Station
 62
     7
100
AcDbPolyline
 90
        2
 70
     0
 43
0.0
 10
53.01391397350548
 20
117.885212142834
 10
55.03417426943983
 20
117.885212142834
  0
CIRCLE
  5
11D3
330
1F
100
AcDbEntity
  8
W.Station
 62
     7
100
AcDbCircle
 10
28.60499219102735
 20
138.2395458479055
 30
0.0
 40
0.4370755447933812
  0
LWPOLYLINE
  5
11D4
330
1F
100
AcDbEntity
  8
W.Station
 62
     7
100
AcDbPolyline
 90
        2
 70
     0
 43
0.0
 10
28.60499219102735
 20
139.3613730795431
 10
28.60499219102735
 20
137.1177186162678
  0
LWPOLYLINE
  5
11D5
330
1F
100
AcDbEntity
  8
W.Station
 62
     7
100
AcDbPolyline
 90
        2
 70
     0
 43
0.0
 10
27.59486204306017
 20
138.2395458479055
 10
29.61512233899452
 20
138.2395458479055
  0
CIRCLE
  5
11D6
330
1F
100
AcDbEntity
  8
W.Station
 62
     7
100
AcDbCircle
 10
-1.550587902860798
 20
138.2933383591179
 30
0.0
 40
0.4370755447933812
  0
LWPOLYLINE
  5
11D7
330
1F
100
AcDbEntity
  8
W.Station
 62
     7
100
AcDbPolyline
 90
        2
 70
     0
 43
0.0
 10
-1.550587902860798
 20
139.3482733488333
 10
-1.550587902860798
 20
137.104618885558
  0
LWPOLYLINE
  5
11D8
330
1F
100
AcDbEntity
  8
W.Station
 62
     7
100
AcDbPolyline
 90
        2
 70
     0
 43
0.0
 10
-2.560718050827973
 20
138.3267844800791
 10
-0.5404577548936231
 20
138.3267844800791
  0
CIRCLE
  5
11D9
330
1F
100
AcDbEntity
  8
W.Station
 62
     7
100
AcDbCircle
 10
-1.830977883584808
 20
118.0858888686006
 30
0.0
 40
0.4370755447933812
  0
LWPOLYLINE
  5
11DA
330
1F
100
AcDbEntity
  8
W.Station
 62
     7
100
AcDbPolyline
 90
        2
 70
     0
 43
0.0
 10
-1.830977883584808
 20
119.2077161002382
 10
-1.830977883584808
 20
116.964061636963
  0
LWPOLYLINE
  5
11DB
330
1F
100
AcDbEntity
  8
W.Station
 62
     7
100
AcDbPolyline
 90
        2
 70
     0
 43
0.0
 10
-2.841108031551983
 20
118.0858888686006
 10
-0.8208477356176331
 20
118.0858888686006
  0
CIRCLE
  5
11DC
330
1F
100
AcDbEntity
  8
W.Station
 62
     7
100
AcDbCircle
 10
28.60499219102735
 20
118.0858888686006
 30
0.0
 40
0.4370755447933812
  0
LWPOLYLINE
  5
11DD
330
1F
100
AcDbEntity
  8
W.Station
 62
     7
100
AcDbPolyline
 90
        2
 70
     0
 43
0.0
 10
28.60499219102735
 20
119.2077161002382
 10
28.60499219102735
 20
116.964061636963
  0
LWPOLYLINE
  5
11DE
330
1F
100
AcDbEntity
  8
W.Station
 62
     7
100
AcDbPolyline
 90
        2
 70
     0
 43
0.0
 10
27.59486204306017
 20
118.0858888686006
 10
29.61512233899452
 20
118.0858888686006
  0
CIRCLE
  5
11DF
330
1F
100
AcDbEntity
  8
W.Station
 62
     7
100
AcDbCircle
 10
53.68958291186152
 20
153.4718848454574
 30
0.0
 40
0.4370755447933812
  0
LWPOLYLINE
  5
11E0
330
1F
100
AcDbEntity
  8
W.Station
 62
     7
100
AcDbPolyline
 90
        2
 70
     0
 43
0.0
 10
53.68958291186152
 20
154.5937120770949
 10
53.68958291186152
 20
152.3500576138197
  0
LWPOLYLINE
  5
11E1
330
1F
100
AcDbEntity
  8
W.Station
 62
     7
100
AcDbPolyline
 90
        2
 70
     0
 43
0.0
 10
52.67945276389435
 20
153.4718848454574
 10
54.6997130598287
 20
153.4718848454574
  0
CIRCLE
  5
11E2
330
1F
100
AcDbEntity
  8
W.Station
 62
     7
100
AcDbCircle
 10
130.8163378481864
 20
153.4718848454574
 30
0.0
 40
0.4370755447933812
  0
LWPOLYLINE
  5
11E3
330
1F
100
AcDbEntity
  8
W.Station
 62
     7
100
AcDbPolyline
 90
        2
 70
     0
 43
0.0
 10
130.8163378481864
 20
154.5937120770949
 10
130.8163378481864
 20
152.3500576138197
  0
LWPOLYLINE
  5
11E4
330
1F
100
AcDbEntity
  8
W.Station
 62
     7
100
AcDbPolyline
 90
        2
 70
     0
 43
0.0
 10
129.8062077002192
 20
153.4718848454574
 10
131.8264679961536
 20
153.4718848454574
  0
CIRCLE
  5
11E5
330
1F
100
AcDbEntity
  8
W.Station
 62
     7
100
AcDbCircle
 10
58.90717778179504
 20
168.7233160037245
 30
0.0
 40
0.4370755447933812
  0
LWPOLYLINE
  5
11E6
330
1F
100
AcDbEntity
  8
W.Station
 62
     7
100
AcDbPolyline
 90
        2
 70
     0
 43
0.0
 10
58.90717778179504
 20
169.8451432353621
 10
58.90717778179504
 20
167.6014887720869
  0
LWPOLYLINE
  5
11E7
330
1F
100
AcDbEntity
  8
W.Station
 62
     7
100
AcDbPolyline
 90
        2
 70
     0
 43
0.0
 10
57.89704763382787
 20
168.7233160037245
 10
59.91730792976222
 20
168.7233160037245
  0
CIRCLE
  5
11E8
330
1F
100
AcDbEntity
  8
W.Station
 62
     7
100
AcDbCircle
 10
-1.697193399740343
 20
168.7233160037246
 30
0.0
 40
0.4370755447933812
  0
LWPOLYLINE
  5
11E9
330
1F
100
AcDbEntity
  8
W.Station
 62
     7
100
AcDbPolyline
 90
        2
 70
     0
 43
0.0
 10
-1.697193399740343
 20
169.8451432353621
 10
-1.697193399740343
 20
167.6014887720869
  0
LWPOLYLINE
  5
11EA
330
1F
100
AcDbEntity
  8
W.Station
 62
     7
100
AcDbPolyline
 90
        2
 70
     0
 43
0.0
 10
-2.707323547707517
 20
168.7233160037246
 10
-0.6870632517731678
 20
168.7233160037246
  0
CIRCLE
  5
11ED
330
1F
100
AcDbEntity
  8
Labels
  6
Continuous
100
AcDbCircle
 10
8.278112176911428
 20
131.029537680551
 30
0.0
 40
0.5351379353778043
  0
LINE
  5
11EE
330
1F
100
AcDbEntity
  8
Labels
  6
Continuous
100
AcDbLine
 10
6.037222072516908
 20
133.40421226879
 30
0.0
 11
5.134176806566877
 21
132.7352898495678
 31
0.0
  0
LINE
  5
11EF
330
1F
100
AcDbEntity
  8
Labels
  6
Continuous
100
AcDbLine
 10
5.134176806566877
 20
132.7352898495678
 30
0.0
 11
4.799715596955753
 21
132.1667057932289
 31
0.0
  0
LINE
  5
11F0
330
1F
100
AcDbEntity
  8
Labels
  6
Continuous
100
AcDbLine
 10
4.799715596955753
 20
132.1667057932289
 30
0.0
 11
5.267961290411325
 21
131.5312294949677
 31
0.0
  0
LINE
  5
11F1
330
1F
100
AcDbEntity
  8
Labels
  6
Continuous
100
AcDbLine
 10
5.267961290411325
 20
131.5312294949677
 30
0.0
 11
6.269951330871262
 21
131.4728381421232
 31
0.0
  0
LINE
  5
11F2
330
1F
100
AcDbEntity
  8
Labels
  6
Continuous
100
AcDbLine
 10
6.159021696350237
 20
133.3586419289805
 30
0.0
 11
7.040605701350273
 21
132.20015191419
 31
0.0
  0
LINE
  5
11F3
330
1F
100
AcDbEntity
  8
Labels
  6
Continuous
100
AcDbLine
 10
7.040605701350273
 20
132.20015191419
 30
0.0
 11
6.796867094846117
 21
131.2232464644509
 31
0.0
  0
LINE
  5
11F4
330
1F
100
AcDbEntity
  8
Labels
  6
Continuous
100
AcDbLine
 10
3.428424637550151
 20
130.7954148338233
 30
0.0
 11
3.428424637550151
 21
129.8923695678732
 31
0.0
  0
LINE
  5
11F5
330
1F
100
AcDbEntity
  8
Labels
  6
Continuous
100
AcDbLine
 10
3.428424637550151
 20
129.8923695678732
 30
0.0
 11
4.298023782539069
 21
129.8923695678732
 31
0.0
  0
LINE
  5
11F6
330
1F
100
AcDbEntity
  8
Labels
  6
Continuous
100
AcDbLine
 10
4.298023782539069
 20
129.8923695678732
 30
0.0
 11
4.732823355033531
 21
130.1933846565232
 31
0.0
  0
LINE
  5
11F7
330
1F
100
AcDbEntity
  8
Labels
  6
Continuous
100
AcDbLine
 10
4.732823355033531
 20
130.1933846565232
 30
0.0
 11
4.732823355033531
 21
130.9291993176677
 31
0.0
  0
LINE
  5
11F8
330
1F
100
AcDbEntity
  8
Labels
  6
Continuous
100
AcDbLine
 10
4.732823355033531
 20
130.9291993176677
 30
0.0
 11
3.428424637550151
 21
130.7954148338233
 31
0.0
  0
CIRCLE
  5
11F9
330
1F
100
AcDbEntity
  8
Labels
  6
Continuous
100
AcDbCircle
 10
5.100730685605765
 20
130.7954148338233
 30
0.0
 40
0.2675689676889021
  0
CIRCLE
  5
11FA
330
1F
100
AcDbEntity
  8
Labels
  6
Continuous
100
AcDbCircle
 10
20.4859463277174
 20
111.7311258859893
 30
0.0
 40
1.111800577044557
  0
CIRCLE
  5
11FB
330
1F
100
AcDbEntity
  8
Labels
  6
Continuous
100
AcDbCircle
 10
12.22475445032267
 20
113.5037702969282
 30
0.0
 40
0.6389872437545631
  0
CIRCLE
  5
11FC
330
1F
100
AcDbEntity
  8
Labels
  6
Continuous
100
AcDbCircle
 10
13.32847644203937
 20
112.4000483052115
 30
0.0
 40
0.635476298261139
  0
CIRCLE
  5
11FD
330
1F
100
AcDbEntity
  8
Labels
  6
Continuous
100
AcDbCircle
 10
17.70991828794508
 20
110.1257120798559
 30
0.0
 40
0.7692607821055759
  0
CIRCLE
  5
11FE
330
1F
100
AcDbEntity
  8
Labels
  6
Continuous
100
AcDbCircle
 10
14.13118334510607
 20
111.062203466767
 30
0.0
 40
0.7582760089673852
  0
ELLIPSE
  5
11FF
330
1F
100
AcDbEntity
  8
Labels
  6
Continuous
100
AcDbEllipse
 10
16.03761223988947
 20
110.1257120798559
 30
0.0
 11
0.7096237646087743
 21
-0.3457141417324758
 31
0.0
210
0.0
220
0.0
230
1.0
 40
0.5285488600100773
 41
0.0
 42
6.283185307179586
  0
LINE
  5
1200
330
1F
100
AcDbEntity
  8
Labels
  6
Continuous
100
AcDbLine
 10
84.1004683957529
 20
128.1531712778954
 30
0.0
 11
84.60216021016959
 21
127.5511411005954
 31
0.0
  0
LINE
  5
1201
330
1F
100
AcDbEntity
  8
Labels
  6
Continuous
100
AcDbLine
 10
84.60216021016959
 20
127.5511411005954
 30
0.0
 11
85.07040590362516
 21
127.2501260119453
 31
0.0
  0
LINE
  5
1202
330
1F
100
AcDbEntity
  8
Labels
  6
Continuous
100
AcDbLine
 10
85.07040590362516
 20
127.2501260119453
 30
0.0
 11
85.83966668573073
 21
127.5845872215565
 31
0.0
  0
LINE
  5
1203
330
1F
100
AcDbEntity
  8
Labels
  6
Continuous
100
AcDbLine
 10
85.83966668573073
 20
127.5845872215565
 30
0.0
 11
86.3079123791863
 21
128.1866173988565
 31
0.0
  0
LINE
  5
1204
330
1F
100
AcDbEntity
  8
Labels
  6
Continuous
100
AcDbLine
 10
92.82990596660319
 20
128.2200635198176
 30
0.0
 11
93.666058990631
 21
127.5511411005954
 31
0.0
  0
LINE
  5
1205
330
1F
100
AcDbEntity
  8
Labels
  6
Continuous
100
AcDbLine
 10
93.666058990631
 20
127.5511411005954
 30
0.0
 11
94.26808916793102
 21
127.2501260119453
 31
0.0
  0
LINE
  5
1206
330
1F
100
AcDbEntity
  8
Labels
  6
Continuous
100
AcDbLine
 10
94.26808916793102
 20
127.2501260119453
 30
0.0
 11
94.60255037754214
 21
127.5176949796342
 31
0.0
  0
LINE
  5
1207
330
1F
100
AcDbEntity
  8
Labels
  6
Continuous
100
AcDbLine
 10
94.60255037754214
 20
127.5176949796342
 30
0.0
 11
94.60255037754214
 21
128.2200635198176
 31
0.0
  0
LINE
  5
1208
330
1F
100
AcDbEntity
  8
Labels
  6
Continuous
100
AcDbLine
 10
80.18727224330277
 20
128.1866173988565
 30
0.0
 11
79.1838886144694
 21
127.149787649062
 31
0.0
  0
LINE
  5
1209
330
1F
100
AcDbEntity
  8
Labels
  6
Continuous
100
AcDbLine
 10
79.1838886144694
 20
127.149787649062
 30
0.0
 11
78.84942740485828
 21
128.0862790359731
 31
0.0
  0
LINE
  5
120A
330
1F
100
AcDbEntity
  8
Labels
  6
Continuous
100
AcDbLine
 10
78.84942740485828
 20
128.0862790359731
 30
0.0
 11
77.84604377602491
 21
128.0862790359731
 31
0.0
  0
LINE
  5
120B
330
1F
100
AcDbEntity
  8
Labels
  6
Continuous
100
AcDbLine
 10
77.84604377602491
 20
128.0862790359731
 30
0.0
 11
77.07678299391932
 21
127.6180333425176
 31
0.0
  0
LINE
  5
120C
330
1F
100
AcDbEntity
  8
Labels
  6
Continuous
100
AcDbLine
 10
77.07678299391932
 20
127.6180333425176
 30
0.0
 11
78.04672050179158
 21
127.0494492861787
 31
0.0
  0
LINE
  5
120D
330
1F
100
AcDbEntity
  8
Labels
  6
Continuous
100
AcDbLine
 10
78.04672050179158
 20
127.0494492861787
 30
0.0
 11
79.11699637254716
 21
127.0494492861787
 31
0.0
  0
LINE
  5
120E
330
1F
100
AcDbEntity
  8
Labels
  6
Continuous
100
AcDbLine
 10
79.11699637254716
 20
127.0494492861787
 30
0.0
 11
79.1838886144694
 21
127.149787649062
 31
0.0
  0
LINE
  5
120F
330
1F
100
AcDbEntity
  8
Labels
  6
Continuous
100
AcDbLine
 10
89.48529387049197
 20
126.7149880765676
 30
0.0
 11
89.81975508010309
 21
125.1430203913953
 31
0.0
  0
LINE
  5
1210
330
1F
100
AcDbEntity
  8
Labels
  6
Continuous
100
AcDbLine
 10
89.81975508010309
 20
125.1430203913953
 30
0.0
 11
88.7494792093475
 21
124.5409902140952
 31
0.0
  0
LINE
  5
1211
330
1F
100
AcDbEntity
  8
Labels
  6
Continuous
100
AcDbLine
 10
88.7494792093475
 20
124.5409902140952
 30
0.0
 11
88.44846412069748
 21
124.5409902140952
 31
0.0
  0
LINE
  5
1212
330
1F
100
AcDbEntity
  8
Labels
  6
Continuous
100
AcDbLine
 10
88.44846412069748
 20
124.5409902140952
 30
0.0
 11
87.91332618531969
 21
125.3771432381231
 31
0.0
  0
LINE
  5
1213
330
1F
100
AcDbEntity
  8
Labels
  6
Continuous
100
AcDbLine
 10
87.91332618531969
 20
125.3771432381231
 30
0.0
 11
87.91332618531969
 21
126.2132962621509
 31
0.0
  0
LINE
  5
1214
330
1F
100
AcDbEntity
  8
Labels
  6
Continuous
100
AcDbLine
 10
87.91332618531969
 20
126.2132962621509
 30
0.0
 11
89.0170481770364
 21
126.9156648023342
 31
0.0
  0
LINE
  5
1215
330
1F
100
AcDbEntity
  8
Labels
  6
Continuous
100
AcDbLine
 10
89.0170481770364
 20
126.9156648023342
 30
0.0
 11
89.48529387049197
 21
126.7149880765676
 31
0.0
  0
LINE
  5
1216
330
1F
100
AcDbEntity
  8
Labels
  6
Continuous
100
AcDbLine
 10
89.81975508010309
 20
119.4906259489673
 30
0.0
 11
89.21772490280307
 21
117.8852121428339
 31
0.0
  0
LINE
  5
1217
330
1F
100
AcDbEntity
  8
Labels
  6
Continuous
100
AcDbLine
 10
89.21772490280307
 20
117.8852121428339
 30
0.0
 11
89.21772490280307
 21
117.316628086495
 31
0.0
  0
LINE
  5
1218
330
1F
100
AcDbEntity
  8
Labels
  6
Continuous
100
AcDbLine
 10
89.21772490280307
 20
117.316628086495
 30
0.0
 11
89.51873999145309
 21
116.9821668768839
 31
0.0
  0
LINE
  5
1219
330
1F
100
AcDbEntity
  8
Labels
  6
Continuous
100
AcDbLine
 10
89.51873999145309
 20
116.9821668768839
 30
0.0
 11
90.92347707181979
 21
116.9821668768839
 31
0.0
  0
LINE
  5
121A
330
1F
100
AcDbEntity
  8
Labels
  6
Continuous
100
AcDbLine
 10
90.92347707181979
 20
116.9821668768839
 30
0.0
 11
92.2947680312254
 21
117.9855505057173
 31
0.0
  0
LINE
  5
121B
330
1F
100
AcDbEntity
  8
Labels
  6
Continuous
100
AcDbLine
 10
92.2947680312254
 20
117.9855505057173
 30
0.0
 11
91.02381543470312
 21
119.0223802555117
 31
0.0
  0
LINE
  5
121C
330
1F
100
AcDbEntity
  8
Labels
  6
Continuous
100
AcDbLine
 10
91.02381543470312
 20
119.0223802555117
 30
0.0
 11
89.81975508010309
 21
119.4906259489673
 31
0.0
  0
LINE
  5
121D
330
1F
100
AcDbEntity
  8
Labels
  6
Continuous
100
AcDbLine
 10
96.30830254655886
 20
128.1866173988565
 30
0.0
 11
97.2113478125089
 21
127.3504643748287
 31
0.0
  0
LINE
  5
121E
330
1F
100
AcDbEntity
  8
Labels
  6
Continuous
100
AcDbLine
 10
97.2113478125089
 20
127.3504643748287
 30
0.0
 11
97.88027023173115
 21
127.6514794634787
 31
0.0
  0
LINE
  5
121F
330
1F
100
AcDbEntity
  8
Labels
  6
Continuous
100
AcDbLine
 10
97.88027023173115
 20
127.6514794634787
 30
0.0
 11
97.51236290115891
 21
128.1866173988565
 31
0.0
  0
LINE
  5
1220
330
1F
100
AcDbEntity
  8
Labels
  6
Continuous
100
AcDbLine
 10
97.88027023173115
 20
127.6514794634787
 30
0.0
 11
98.51574652999227
 21
127.1163415281009
 31
0.0
  0
LINE
  5
1221
330
1F
100
AcDbEntity
  8
Labels
  6
Continuous
100
AcDbLine
 10
98.51574652999227
 20
127.1163415281009
 30
0.0
 11
98.95054610248673
 21
127.1163415281009
 31
0.0
  0
LINE
  5
1222
330
1F
100
AcDbEntity
  8
Labels
  6
Continuous
100
AcDbLine
 10
98.95054610248673
 20
127.1163415281009
 30
0.0
 11
99.31845343305898
 21
127.5176949796342
 31
0.0
  0
LINE
  5
1223
330
1F
100
AcDbEntity
  8
Labels
  6
Continuous
100
AcDbLine
 10
99.01743834440896
 20
128.1531712778954
 30
0.0
 11
99.35189955402008
 21
127.5176949796342
 31
0.0
  0
LINE
  5
1224
330
1F
100
AcDbEntity
  8
Labels
  6
Continuous
100
AcDbLine
 10
99.35189955402008
 20
127.5176949796342
 30
0.0
 11
99.35189955402008
 21
127.149787649062
 31
0.0
  0
LINE
  5
1225
330
1F
100
AcDbEntity
  8
Labels
  6
Continuous
100
AcDbLine
 10
99.35189955402008
 20
127.149787649062
 30
0.0
 11
99.75325300555343
 21
127.149787649062
 31
0.0
  0
LINE
  5
1226
330
1F
100
AcDbEntity
  8
Labels
  6
Continuous
100
AcDbLine
 10
99.75325300555343
 20
127.149787649062
 30
0.0
 11
99.75325300555343
 21
128.2200635198176
 31
0.0
  0
LINE
  5
1227
330
1F
100
AcDbEntity
  8
Labels
  6
Continuous
100
AcDbLine
 10
102.2617120776368
 20
128.1866173988565
 30
0.0
 11
103.1313112226258
 21
127.1163415281009
 31
0.0
  0
LINE
  5
1228
330
1F
100
AcDbEntity
  8
Labels
  6
Continuous
100
AcDbLine
 10
103.1313112226258
 20
127.1163415281009
 30
0.0
 11
104.402263819148
 21
127.450802737712
 31
0.0
  0
LINE
  5
1229
330
1F
100
AcDbEntity
  8
Labels
  6
Continuous
100
AcDbLine
 10
104.402263819148
 20
127.450802737712
 30
0.0
 11
104.9039556335647
 21
128.2869557617398
 31
0.0
  0
LINE
  5
122A
330
1F
100
AcDbEntity
  8
Labels
  6
Continuous
100
AcDbLine
 10
104.3019254562647
 20
114.5071539257616
 30
0.0
 11
103.6998952789647
 21
114.8081690144116
 31
0.0
  0
LINE
  5
122B
330
1F
100
AcDbEntity
  8
Labels
  6
Continuous
100
AcDbLine
 10
103.6998952789647
 20
114.8081690144116
 30
0.0
 11
103.2985418274313
 21
114.8081690144116
 31
0.0
  0
LINE
  5
122C
330
1F
100
AcDbEntity
  8
Labels
  6
Continuous
100
AcDbLine
 10
103.2985418274313
 20
114.8081690144116
 30
0.0
 11
102.7634038920535
 21
113.9051237484616
 31
0.0
  0
LINE
  5
122D
330
1F
100
AcDbEntity
  8
Labels
  6
Continuous
100
AcDbLine
 10
102.7634038920535
 20
113.9051237484616
 30
0.0
 11
103.1313112226258
 21
113.1693090873171
 31
0.0
  0
LINE
  5
122E
330
1F
100
AcDbEntity
  8
Labels
  6
Continuous
100
AcDbLine
 10
108.5161366973648
 20
127.2166798909842
 30
0.0
 11
108.9843823908204
 21
127.5845872215565
 31
0.0
  0
LINE
  5
122F
330
1F
100
AcDbEntity
  8
Labels
  6
Continuous
100
AcDbLine
 10
108.9843823908204
 20
127.5845872215565
 30
0.0
 11
109.6198586890815
 21
126.4139729879175
 31
0.0
  0
LINE
  5
1230
330
1F
100
AcDbEntity
  8
Labels
  6
Continuous
100
AcDbLine
 10
109.6198586890815
 20
126.4139729879175
 30
0.0
 11
109.0512746327426
 21
125.8119428106175
 31
0.0
  0
LINE
  5
1231
330
1F
100
AcDbEntity
  8
Labels
  6
Continuous
100
AcDbLine
 10
109.151612995626
 20
125.9122811735009
 30
0.0
 11
110.6901345598371
 21
125.3771432381231
 31
0.0
  0
LINE
  5
1232
330
1F
100
AcDbEntity
  8
Labels
  6
Continuous
100
AcDbLine
 10
110.6901345598371
 20
125.3771432381231
 30
0.0
 11
110.6901345598371
 21
124.4406518512119
 31
0.0
  0
LINE
  5
1233
330
1F
100
AcDbEntity
  8
Labels
  6
Continuous
100
AcDbLine
 10
110.6901345598371
 20
124.4406518512119
 30
0.0
 11
110.3891194711871
 21
123.8386216739119
 31
0.0
  0
LINE
  5
1234
330
1F
100
AcDbEntity
  8
Labels
  6
Continuous
100
AcDbLine
 10
110.3891194711871
 20
123.8386216739119
 30
0.0
 11
109.8205354148482
 21
123.8386216739119
 31
0.0
  0
LINE
  5
1235
330
1F
100
AcDbEntity
  8
Labels
  6
Continuous
100
AcDbLine
 10
109.8205354148482
 20
123.8386216739119
 30
0.0
 11
109.3522897213927
 21
124.1396367625619
 31
0.0
  0
ELLIPSE
  5
1236
330
1F
100
AcDbEntity
  8
Labels
  6
Continuous
100
AcDbEllipse
 10
77.57847480833598
 20
147.6522597982238
 30
0.0
 11
1.452338610590429
 21
-0.2904677221180819
 31
0.0
210
0.0
220
0.0
230
1.0
 40
0.3737975793001811
 41
0.0
 42
6.283185307179586
  0
ELLIPSE
  5
1237
330
1F
100
AcDbEntity
  8
Labels
  6
Continuous
100
AcDbEllipse
 10
96.5040300411162
 20
143.4194889219318
 30
0.0
 11
0.6127092753340211
 21
0.8406941219699
 31
0.0
210
0.0
220
0.0
230
1.0
 40
0.6236324620997249
 41
0.0
 42
6.283185307179586
  0
ELLIPSE
  5
1238
330
1F
100
AcDbEntity
  8
Labels
  6
Continuous
100
AcDbEllipse
 10
89.31311403447705
 20
149.105329485321
 30
0.0
 11
0.4070146381950335
 21
0.558461945430371
 31
0.0
210
0.0
220
0.0
230
1.0
 40
0.6093059295038659
 41
0.0
 42
6.283185307179586
  0
ELLIPSE
  5
1239
330
1F
100
AcDbEntity
  8
Labels
  6
Continuous
100
AcDbEllipse
 10
109.54801721595
 20
145.7272712682486
 30
0.0
 11
-0.623720470580707
 21
0.4545759361859584
 31
0.0
210
0.0
220
0.0
230
1.0
 40
0.8953721607219689
 41
0.0
 42
6.283185307179586
  0
ELLIPSE
  5
123A
330
1F
100
AcDbEntity
  8
Labels
  6
Continuous
100
AcDbEllipse
 10
97.94221324244401
 20
143.6870578896208
 30
0.0
 11
0.4070146381950335
 21
0.558461945430371
 31
0.0
210
0.0
220
0.0
230
1.0
 40
0.6093059295038659
 41
0.0
 42
6.283185307179586
  0
ELLIPSE
  5
123B
330
1F
100
AcDbEntity
  8
Labels
  6
Continuous
100
AcDbEllipse
 10
94.36347829960499
 20
141.2120449384985
 30
0.0
 11
0.4070146381950335
 21
0.558461945430371
 31
0.0
210
0.0
220
0.0
230
1.0
 40
0.6093059295038659
 41
0.0
 42
6.283185307179586
  0
LINE
  5
123C
330
1F
100
AcDbEntity
  8
Labels
  6
Continuous
100
AcDbLine
 10
60.75507596489654
 20
149.4249042091628
 30
0.0
 11
61.42399838411879
 21
148.9901046366683
 31
0.0
  0
LINE
  5
123D
330
1F
100
AcDbEntity
  8
Labels
  6
Continuous
100
AcDbLine
 10
61.42399838411879
 20
148.9901046366683
 30
0.0
 11
62.39393589199104
 21
148.9901046366683
 31
0.0
  0
LINE
  5
123E
330
1F
100
AcDbEntity
  8
Labels
  6
Continuous
100
AcDbLine
 10
62.39393589199104
 20
148.9901046366683
 30
0.0
 11
62.62805873871883
 21
148.4884128222516
 31
0.0
  0
LINE
  5
123F
330
1F
100
AcDbEntity
  8
Labels
  6
Continuous
100
AcDbLine
 10
62.62805873871883
 20
148.4884128222516
 30
0.0
 11
62.2601514081466
 21
148.0870593707183
 31
0.0
  0
HATCH
  5
1240
330
1F
100
AcDbEntity
  8
Detail
 62
     7
100
AcDbHatch
 10
0.0
 20
0.0
 30
0.0
210
0.0
220
0.0
230
1.0
  2
SOLID
 70
     1
 71
     1
 91
        1
 92
        1
 93
        3
 72
     1
 10
108.3334321188182
 20
127.3526433243603
 11
107.6120939462273
 21
126.6551727933881
 72
     1
 10
107.6120939462273
 20
126.6551727933881
 11
108.5767902307355
 21
126.379210876691
 72
     1
 10
108.5767902307355
 20
126.379210876691
 11
108.3334321188182
 21
127.3526433243603
 97
        1
330
1241
 75
     0
 76
     1
 98
        1
 10
2170.186306913975
 20
708.0291468116687
1001
ACAD
1010
0.0
1020
0.0
1030
0.0
  0
LWPOLYLINE
  5
1241
102
{ACAD_REACTORS
330
1240
102
}
330
1F
100
AcDbEntity
  8
Detail
 62
     7
100
AcDbPolyline
 90
        3
 70
     1
 43
0.0
 10
108.3334321188182
 20
127.3526433243603
 10
107.6120939462273
 20
126.6551727933881
 10
108.5767902307355
 20
126.379210876691
  0
HATCH
  5
1242
330
1F
100
AcDbEntity
  8
Detail
 62
     7
100
AcDbHatch
 10
0.0
 20
0.0
 30
0.0
210
0.0
220
0.0
230
1.0
  2
SOLID
 70
     1
 71
     1
 91
        1
 92
        1
 93
        3
 72
     1
 10
97.63067341126225
 20
108.6228155861375
 11
96.90933523867136
 21
107.9253450551653
 72
     1
 10
96.90933523867136
 20
107.9253450551653
 11
97.87403152317958
 21
107.6493831384682
 72
     1
 10
97.87403152317958
 20
107.6493831384682
 11
97.63067341126225
 21
108.6228155861375
 97
        1
330
1243
 75
     0
 76
     1
 98
        1
 10
2159.483548206419
 20
689.2993190734459
1001
ACAD
1010
0.0
1020
0.0
1030
0.0
  0
LWPOLYLINE
  5
1243
102
{ACAD_REACTORS
330
1242
102
}
330
1F
100
AcDbEntity
  8
Detail
 62
     7
100
AcDbPolyline
 90
        3
 70
     1
 43
0.0
 10
97.63067341126225
 20
108.6228155861375
 10
96.90933523867136
 20
107.9253450551653
 10
97.87403152317958
 20
107.6493831384682
  0
HATCH
  5
1244
330
1F
100
AcDbEntity
  8
Detail
 62
     7
100
AcDbHatch
 10
0.0
 20
0.0
 30
0.0
210
0.0
220
0.0
230
1.0
  2
SOLID
 70
     1
 71
     1
 91
        1
 92
        1
 93
        3
 72
     1
 10
108.9005154486703
 20
123.3999216797277
 11
108.0336337027207
 21
122.8946396403172
 72
     1
 10
108.0336337027207
 20
122.8946396403172
 11
108.9046616579007
 21
122.3965390459531
 72
     1
 10
108.9046616579007
 20
122.3965390459531
 11
108.9005154486703
 21
123.3999216797277
 97
        1
330
1245
 75
     0
 76
     1
 98
        1
 10
2249.746648803233
 20
195.5131125959216
1001
ACAD
1010
0.0
1020
0.0
1030
0.0
  0
LWPOLYLINE
  5
1245
102
{ACAD_REACTORS
330
1244
102
}
330
1F
100
AcDbEntity
  8
Detail
 62
     7
100
AcDbPolyline
 90
        3
 70
     1
 43
0.0
 10
108.9005154486703
 20
123.3999216797277
 10
108.0336337027207
 20
122.8946396403172
 10
108.9046616579007
 20
122.3965390459531
  0
HATCH
  5
1246
330
1F
100
AcDbEntity
  8
Detail
 62
     7
100
AcDbHatch
 10
0.0
 20
0.0
 30
0.0
210
0.0
220
0.0
230
1.0
  2
SOLID
 70
     1
 71
     1
 91
        1
 92
        1
 93
        3
 72
     1
 10
25.1514285620452
 20
137.7148614510837
 11
24.2845468160956
 21
137.2095794116733
 72
     1
 10
24.2845468160956
 20
137.2095794116733
 11
25.15557477127567
 21
136.7114788173091
 72
     1
 10
25.15557477127567
 20
136.7114788173091
 11
25.1514285620452
 21
137.7148614510837
 97
        1
330
1247
 75
     0
 76
     1
 98
        1
 10
2165.997561916608
 20
209.8280523672776
1001
ACAD
1010
0.0
1020
0.0
1030
0.0
  0
LWPOLYLINE
  5
1247
102
{ACAD_REACTORS
330
1246
102
}
330
1F
100
AcDbEntity
  8
Detail
 62
     7
100
AcDbPolyline
 90
        3
 70
     1
 43
0.0
 10
25.1514285620452
 20
137.7148614510837
 10
24.2845468160956
 20
137.2095794116733
 10
25.15557477127567
 20
136.7114788173091
  0
HATCH
  5
1248
330
1F
100
AcDbEntity
  8
Detail
 62
     7
100
AcDbHatch
 10
0.0
 20
0.0
 30
0.0
210
0.0
220
0.0
230
1.0
  2
SOLID
 70
     1
 71
     1
 91
        1
 92
        1
 93
        3
 72
     1
 10
107.2848184147757
 20
118.4390636931769
 11
107.5822341835595
 21
117.4807642820897
 72
     1
 10
107.5822341835595
 20
117.4807642820897
 11
108.2634379336008
 21
118.2174835988859
 72
     1
 10
108.2634379336008
 20
118.2174835988859
 11
107.2848184147757
 21
118.4390636931769
 97
        1
330
1249
 75
     0
 76
     1
 98
        1
 10
518.4079655566459
 20
2220.676023906621
1001
ACAD
1010
0.0
1020
0.0
1030
0.0
  0
LWPOLYLINE
  5
1249
102
{ACAD_REACTORS
330
1248
102
}
330
1F
100
AcDbEntity
  8
Detail
 62
     7
100
AcDbPolyline
 90
        3
 70
     1
 43
0.0
 10
107.2848184147757
 20
118.4390636931769
 10
107.5822341835595
 20
117.4807642820897
 10
108.2634379336008
 20
118.2174835988859
  0
HATCH
  5
124A
330
1F
100
AcDbEntity
  8
Detail
 62
     7
100
AcDbHatch
 10
0.0
 20
0.0
 30
0.0
210
0.0
220
0.0
230
1.0
  2
SOLID
 70
     1
 71
     1
 91
        1
 92
        1
 93
        3
 72
     1
 10
102.3347925125311
 20
113.4890377909323
 11
102.6322082813149
 21
112.530738379845
 72
     1
 10
102.6322082813149
 20
112.530738379845
 11
103.3134120313562
 21
113.2674576966413
 72
     1
 10
103.3134120313562
 20
113.2674576966413
 11
102.3347925125311
 21
113.4890377909323
 97
        1
330
124B
 75
     0
 76
     1
 98
        1
 10
513.4579396544012
 20
2215.725998004377
1001
ACAD
1010
0.0
1020
0.0
1030
0.0
  0
LWPOLYLINE
  5
124B
102
{ACAD_REACTORS
330
124A
102
}
330
1F
100
AcDbEntity
  8
Detail
 62
     7
100
AcDbPolyline
 90
        3
 70
     1
 43
0.0
 10
102.3347925125311
 20
113.4890377909323
 10
102.6322082813149
 20
112.530738379845
 10
103.3134120313562
 20
113.2674576966413
  0
HATCH
  5
124C
330
1F
100
AcDbEntity
  8
Detail
 62
     7
100
AcDbHatch
 10
0.0
 20
0.0
 30
0.0
210
0.0
220
0.0
230
1.0
  2
SOLID
 70
     1
 71
     1
 91
        1
 92
        1
 93
        3
 72
     1
 10
77.9860164528414
 20
126.3323482399994
 11
78.28343222162519
 21
125.3740488289122
 72
     1
 10
78.28343222162519
 20
125.3740488289122
 11
78.96463597166647
 21
126.1107681457084
 72
     1
 10
78.96463597166647
 20
126.1107681457084
 11
77.9860164528414
 21
126.3323482399994
 97
        1
330
124D
 75
     0
 76
     1
 98
        1
 10
489.1091635947115
 20
2228.569308453444
1001
ACAD
1010
0.0
1020
0.0
1030
0.0
  0
LWPOLYLINE
  5
124D
102
{ACAD_REACTORS
330
124C
102
}
330
1F
100
AcDbEntity
  8
Detail
 62
     7
100
AcDbPolyline
 90
        3
 70
     1
 43
0.0
 10
77.9860164528414
 20
126.3323482399994
 10
78.28343222162519
 20
125.3740488289122
 10
78.96463597166647
 20
126.1107681457084
  0
HATCH
  5
124E
330
1F
100
AcDbEntity
  8
Detail
 62
     7
100
AcDbHatch
 10
0.0
 20
0.0
 30
0.0
210
0.0
220
0.0
230
1.0
  2
SOLID
 70
     1
 71
     1
 91
        1
 92
        1
 93
        3
 72
     1
 10
81.81195486870972
 20
120.8448209242057
 11
80.8119568449397
 21
120.7623718291989
 72
     1
 10
80.8119568449397
 20
120.7623718291989
 11
81.38335886761952
 21
119.9375726843833
 72
     1
 10
81.38335886761952
 20
119.9375726843833
 11
81.81195486870972
 21
120.8448209242057
 97
        1
330
124F
 75
     0
 76
     1
 98
        1
 10
2044.803340340189
 20
-736.527501680192
1001
ACAD
1010
0.0
1020
0.0
1030
0.0
  0
LWPOLYLINE
  5
124F
102
{ACAD_REACTORS
330
124E
102
}
330
1F
100
AcDbEntity
  8
Detail
 62
     7
100
AcDbPolyline
 90
        3
 70
     1
 43
0.0
 10
81.81195486870972
 20
120.8448209242057
 10
80.8119568449397
 20
120.7623718291989
 10
81.38335886761952
 20
119.9375726843833
  0
HATCH
  5
1250
330
1F
100
AcDbEntity
  8
Detail
 62
     7
100
AcDbHatch
 10
0.0
 20
0.0
 30
0.0
210
0.0
220
0.0
230
1.0
  2
SOLID
 70
     1
 71
     1
 91
        1
 92
        1
 93
        3
 72
     1
 10
86.22684283557652
 20
114.6907346673611
 11
85.2268448118065
 21
114.6082855723542
 72
     1
 10
85.2268448118065
 20
114.6082855723542
 11
85.79824683448632
 21
113.7834864275387
 72
     1
 10
85.79824683448632
 20
113.7834864275387
 11
86.22684283557652
 21
114.6907346673611
 97
        1
330
1251
 75
     0
 76
     1
 98
        1
 10
2049.218228307056
 20
-742.6815879370366
1001
ACAD
1010
0.0
1020
0.0
1030
0.0
  0
LWPOLYLINE
  5
1251
102
{ACAD_REACTORS
330
1250
102
}
330
1F
100
AcDbEntity
  8
Detail
 62
     7
100
AcDbPolyline
 90
        3
 70
     1
 43
0.0
 10
86.22684283557652
 20
114.6907346673611
 10
85.2268448118065
 20
114.6082855723542
 10
85.79824683448632
 20
113.7834864275387
  0
HATCH
  5
1252
330
1F
100
AcDbEntity
  8
Detail
 62
     7
100
AcDbHatch
 10
0.0
 20
0.0
 30
0.0
210
0.0
220
0.0
230
1.0
  2
SOLID
 70
     1
 71
     1
 91
        1
 92
        1
 93
        3
 72
     1
 10
92.25683625766408
 20
108.8200878518565
 11
92.0147831169433
 21
109.7938456132524
 72
     1
 10
92.0147831169433
 20
109.7938456132524
 11
91.29251072880268
 21
109.0973425636247
 72
     1
 10
91.29251072880268
 20
109.0973425636247
 11
92.25683625766408
 21
108.8200878518565
 97
        1
330
1253
 75
     0
 76
     1
 98
        1
 10
-438.5710564482431
 20
-1966.425494562115
1001
ACAD
1010
0.0
1020
0.0
1030
0.0
  0
LWPOLYLINE
  5
1253
102
{ACAD_REACTORS
330
1252
102
}
330
1F
100
AcDbEntity
  8
Detail
 62
     7
100
AcDbPolyline
 90
        3
 70
     1
 43
0.0
 10
92.25683625766408
 20
108.8200878518565
 10
92.0147831169433
 20
109.7938456132524
 10
91.29251072880268
 20
109.0973425636247
  0
HATCH
  5
1254
330
1F
100
AcDbEntity
  8
Detail
 62
     7
100
AcDbHatch
 10
0.0
 20
0.0
 30
0.0
210
0.0
220
0.0
230
1.0
  2
SOLID
 70
     1
 71
     1
 91
        1
 92
        1
 93
        3
 72
     1
 10
48.70998676629591
 20
113.8704521169845
 11
48.46793362557514
 21
114.8442098783803
 72
     1
 10
48.46793362557514
 20
114.8442098783803
 11
47.74566123743452
 21
114.1477068287526
 72
     1
 10
47.74566123743452
 20
114.1477068287526
 11
48.70998676629591
 21
113.8704521169845
 97
        1
330
1255
 75
     0
 76
     1
 98
        1
 10
-482.1179059396113
 20
-1961.375130296987
1001
ACAD
1010
0.0
1020
0.0
1030
0.0
  0
LWPOLYLINE
  5
1255
102
{ACAD_REACTORS
330
1254
102
}
330
1F
100
AcDbEntity
  8
Detail
 62
     7
100
AcDbPolyline
 90
        3
 70
     1
 43
0.0
 10
48.70998676629591
 20
113.8704521169845
 10
48.46793362557514
 20
114.8442098783803
 10
47.74566123743452
 20
114.1477068287526
  0
HATCH
  5
1256
330
1F
100
AcDbEntity
  8
Detail
 62
     7
100
AcDbHatch
 10
0.0
 20
0.0
 30
0.0
210
0.0
220
0.0
230
1.0
  2
SOLID
 70
     1
 71
     1
 91
        1
 92
        1
 93
        3
 72
     1
 10
23.5800078599859
 20
134.5434936659253
 11
24.4085533512868
 21
135.1094497328213
 72
     1
 10
24.4085533512868
 20
135.1094497328213
 11
23.50414827427872
 21
135.544013143031
 72
     1
 10
23.50414827427872
 20
135.544013143031
 11
23.5800078599859
 21
134.5434936659253
 97
        1
330
1257
 75
     0
 76
     1
 98
        1
 10
-2106.634768499572
 20
-90.41758203984617
1001
ACAD
1010
0.0
1020
0.0
1030
0.0
  0
LWPOLYLINE
  5
1257
102
{ACAD_REACTORS
330
1256
102
}
330
1F
100
AcDbEntity
  8
Detail
 62
     7
100
AcDbPolyline
 90
        3
 70
     1
 43
0.0
 10
23.5800078599859
 20
134.5434936659253
 10
24.4085533512868
 20
135.1094497328213
 10
23.50414827427872
 20
135.544013143031
  0
HATCH
  5
1258
330
1F
100
AcDbEntity
  8
Detail
 62
     7
100
AcDbHatch
 10
0.0
 20
0.0
 30
0.0
210
0.0
220
0.0
230
1.0
  2
SOLID
 70
     1
 71
     1
 91
        1
 92
        1
 93
        3
 72
     1
 10
19.70025782849686
 20
133.3394333113253
 11
20.52880331979776
 21
133.9053893782213
 72
     1
 10
20.52880331979776
 20
133.9053893782213
 11
19.62439824278968
 21
134.339952788431
 72
     1
 10
19.62439824278968
 20
134.339952788431
 11
19.70025782849686
 21
133.3394333113253
 97
        1
330
1259
 75
     0
 76
     1
 98
        1
 10
-2110.514518531061
 20
-91.62164239444621
1001
ACAD
1010
0.0
1020
0.0
1030
0.0
  0
LWPOLYLINE
  5
1259
102
{ACAD_REACTORS
330
1258
102
}
330
1F
100
AcDbEntity
  8
Detail
 62
     7
100
AcDbPolyline
 90
        3
 70
     1
 43
0.0
 10
19.70025782849686
 20
133.3394333113253
 10
20.52880331979776
 20
133.9053893782213
 10
19.62439824278968
 20
134.339952788431
  0
HATCH
  5
125A
330
1F
100
AcDbEntity
  8
Detail
 62
     7
100
AcDbHatch
 10
0.0
 20
0.0
 30
0.0
210
0.0
220
0.0
230
1.0
  2
SOLID
 70
     1
 71
     1
 91
        1
 92
        1
 93
        3
 72
     1
 10
50.06933566118678
 20
115.1447435084802
 11
50.89788115248768
 21
115.7106995753762
 72
     1
 10
50.89788115248768
 20
115.7106995753762
 11
49.99347607547961
 21
116.1452629855859
 72
     1
 10
49.99347607547961
 20
116.1452629855859
 11
50.06933566118678
 21
115.1447435084802
 97
        1
330
125B
 75
     0
 76
     1
 98
        1
 10
-2080.145440698371
 20
-109.8163321972913
1001
ACAD
1010
0.0
1020
0.0
1030
0.0
  0
LWPOLYLINE
  5
125B
102
{ACAD_REACTORS
330
125A
102
}
330
1F
100
AcDbEntity
  8
Detail
 62
     7
100
AcDbPolyline
 90
        3
 70
     1
 43
0.0
 10
50.06933566118678
 20
115.1447435084802
 10
50.89788115248768
 20
115.7106995753762
 10
49.99347607547961
 20
116.1452629855859
  0
HATCH
  5
125C
330
1F
100
AcDbEntity
  8
Detail
 62
     7
100
AcDbHatch
 10
0.0
 20
0.0
 30
0.0
210
0.0
220
0.0
230
1.0
  2
SOLID
 70
     1
 71
     1
 91
        1
 92
        1
 93
        3
 72
     1
 10
51.27339601578683
 20
116.0812348953914
 11
52.10194150708773
 21
116.6471909622874
 72
     1
 10
52.10194150708773
 20
116.6471909622874
 11
51.19753643007965
 21
117.081754372497
 72
     1
 10
51.19753643007965
 20
117.081754372497
 11
51.27339601578683
 21
116.0812348953914
 97
        1
330
125D
 75
     0
 76
     1
 98
        1
 10
-2078.941380343771
 20
-108.8798408103801
1001
ACAD
1010
0.0
1020
0.0
1030
0.0
  0
LWPOLYLINE
  5
125D
102
{ACAD_REACTORS
330
125C
102
}
330
1F
100
AcDbEntity
  8
Detail
 62
     7
100
AcDbPolyline
 90
        3
 70
     1
 43
0.0
 10
51.27339601578683
 20
116.0812348953914
 10
52.10194150708773
 20
116.6471909622874
 10
51.19753643007965
 20
117.081754372497
  0
HATCH
  5
125E
330
1F
100
AcDbEntity
  8
Detail
 62
     7
100
AcDbHatch
 10
0.0
 20
0.0
 30
0.0
210
0.0
220
0.0
230
1.0
  2
SOLID
 70
     1
 71
     1
 91
        1
 92
        1
 93
        3
 72
     1
 10
-1.220157005037066
 20
137.5456431788805
 11
-0.5427150560948064
 21
136.8054632638431
 72
     1
 10
-0.5427150560948064
 20
136.8054632638431
 11
-0.240421420772492
 21
137.7622351587348
 72
     1
 10
-0.240421420772492
 20
137.7622351587348
 11
-1.220157005037066
 21
137.5456431788805
 97
        1
330
125F
 75
     0
 76
     1
 98
        1
 10
-525.1781227429642
 20
2214.536381998645
1001
ACAD
1010
0.0
1020
0.0
1030
0.0
  0
LWPOLYLINE
  5
125F
102
{ACAD_REACTORS
330
125E
102
}
330
1F
100
AcDbEntity
  8
Detail
 62
     7
100
AcDbPolyline
 90
        3
 70
     1
 43
0.0
 10
-1.220157005037066
 20
137.5456431788805
 10
-0.5427150560948064
 20
136.8054632638431
 10
-0.240421420772492
 20
137.7622351587348
  0
HATCH
  5
1260
330
1F
100
AcDbEntity
  8
Detail
 62
     7
100
AcDbHatch
 10
0.0
 20
0.0
 30
0.0
210
0.0
220
0.0
230
1.0
  2
SOLID
 70
     1
 71
     1
 91
        1
 92
        1
 93
        3
 72
     1
 10
0.2514723172518813
 20
136.3415828242805
 11
0.9289142661941412
 21
135.6014029092431
 72
     1
 10
0.9289142661941412
 20
135.6014029092431
 11
1.231207901516456
 21
136.5581748041348
 72
     1
 10
1.231207901516456
 20
136.5581748041348
 11
0.2514723172518813
 21
136.3415828242805
 97
        1
330
1261
 75
     0
 76
     1
 98
        1
 10
-523.7064934206753
 20
2213.332321644045
1001
ACAD
1010
0.0
1020
0.0
1030
0.0
  0
LWPOLYLINE
  5
1261
102
{ACAD_REACTORS
330
1260
102
}
330
1F
100
AcDbEntity
  8
Detail
 62
     7
100
AcDbPolyline
 90
        3
 70
     1
 43
0.0
 10
0.2514723172518813
 20
136.3415828242805
 10
0.9289142661941412
 20
135.6014029092431
 10
1.231207901516456
 20
136.5581748041348
  0
HATCH
  5
1262
330
1F
100
AcDbEntity
  8
Detail
 62
     7
100
AcDbHatch
 10
0.0
 20
0.0
 30
0.0
210
0.0
220
0.0
230
1.0
  2
SOLID
 70
     1
 71
     1
 91
        1
 92
        1
 93
        3
 72
     1
 10
45.20305888898673
 20
115.6049878283908
 11
45.88050083792899
 21
114.8648079133534
 72
     1
 10
45.88050083792899
 20
114.8648079133534
 11
46.18279447325131
 21
115.8215798082451
 72
     1
 10
46.18279447325131
 20
115.8215798082451
 11
45.20305888898673
 21
115.6049878283908
 97
        1
330
1263
 75
     0
 76
     1
 98
        1
 10
-478.7549068489404
 20
2192.595726648156
1001
ACAD
1010
0.0
1020
0.0
1030
0.0
  0
LWPOLYLINE
  5
1263
102
{ACAD_REACTORS
330
1262
102
}
330
1F
100
AcDbEntity
  8
Detail
 62
     7
100
AcDbPolyline
 90
        3
 70
     1
 43
0.0
 10
45.20305888898673
 20
115.6049878283908
 10
45.88050083792899
 20
114.8648079133534
 10
46.18279447325131
 20
115.8215798082451
  0
HATCH
  5
1264
330
1F
100
AcDbEntity
  8
Detail
 62
     7
100
AcDbHatch
 10
0.0
 20
0.0
 30
0.0
210
0.0
220
0.0
230
1.0
  2
SOLID
 70
     1
 71
     1
 91
        1
 92
        1
 93
        3
 72
     1
 10
43.73142956669778
 20
116.4076947314576
 11
44.40887151564004
 21
115.6675148164202
 72
     1
 10
44.40887151564004
 20
115.6675148164202
 11
44.71116515096236
 21
116.6242867113118
 72
     1
 10
44.71116515096236
 20
116.6242867113118
 11
43.73142956669778
 21
116.4076947314576
 97
        1
330
1265
 75
     0
 76
     1
 98
        1
 10
-480.2265361712294
 20
2193.398433551222
1001
ACAD
1010
0.0
1020
0.0
1030
0.0
  0
LWPOLYLINE
  5
1265
102
{ACAD_REACTORS
330
1264
102
}
330
1F
100
AcDbEntity
  8
Detail
 62
     7
100
AcDbPolyline
 90
        3
 70
     1
 43
0.0
 10
43.73142956669778
 20
116.4076947314576
 10
44.40887151564004
 20
115.6675148164202
 10
44.71116515096236
 20
116.6242867113118
  0
HATCH
  5
1266
330
1F
100
AcDbEntity
  8
Detail
 62
     7
100
AcDbHatch
 10
0.0
 20
0.0
 30
0.0
210
0.0
220
0.0
230
1.0
  2
SOLID
 70
     1
 71
     1
 91
        1
 92
        1
 93
        3
 72
     1
 10
13.41084576097654
 20
131.6268995310664
 11
13.08928889819686
 21
130.6764285505464
 72
     1
 10
13.08928889819686
 20
130.6764285505464
 11
14.07319934427676
 21
130.8731876288778
 72
     1
 10
14.07319934427676
 20
130.8731876288778
 11
13.41084576097654
 21
131.6268995310664
 97
        1
330
1267
 75
     0
 76
     1
 98
        1
 10
1579.985727015175
 20
1592.539498021029
1001
ACAD
1010
0.0
1020
0.0
1030
0.0
  0
LWPOLYLINE
  5
1267
102
{ACAD_REACTORS
330
1266
102
}
330
1F
100
AcDbEntity
  8
Detail
 62
     7
100
AcDbPolyline
 90
        3
 70
     1
 43
0.0
 10
13.41084576097654
 20
131.6268995310664
 10
13.08928889819686
 20
130.6764285505464
 10
14.07319934427676
 20
130.8731876288778
  0
HATCH
  5
1268
330
1F
100
AcDbEntity
  8
Detail
 62
     7
100
AcDbHatch
 10
0.0
 20
0.0
 30
0.0
210
0.0
220
0.0
230
1.0
  2
SOLID
 70
     1
 71
     1
 91
        1
 92
        1
 93
        3
 72
     1
 10
16.75545785708778
 20
131.6268995310664
 11
16.43390099430809
 21
130.6764285505464
 72
     1
 10
16.43390099430809
 20
130.6764285505464
 11
17.41781144038799
 21
130.8731876288778
 72
     1
 10
17.41781144038799
 20
130.8731876288778
 11
16.75545785708778
 21
131.6268995310664
 97
        1
330
1269
 75
     0
 76
     1
 98
        1
 10
1583.330339111286
 20
1592.539498021029
1001
ACAD
1010
0.0
1020
0.0
1030
0.0
  0
LWPOLYLINE
  5
1269
102
{ACAD_REACTORS
330
1268
102
}
330
1F
100
AcDbEntity
  8
Detail
 62
     7
100
AcDbPolyline
 90
        3
 70
     1
 43
0.0
 10
16.75545785708778
 20
131.6268995310664
 10
16.43390099430809
 20
130.6764285505464
 10
17.41781144038799
 20
130.8731876288778
  0
HATCH
  5
126A
330
1F
100
AcDbEntity
  8
Detail
 62
     7
100
AcDbHatch
 10
0.0
 20
0.0
 30
0.0
210
0.0
220
0.0
230
1.0
  2
SOLID
 70
     1
 71
     1
 91
        1
 92
        1
 93
        3
 72
     1
 10
10.1657682189213
 20
131.331041475364
 11
9.713026270299906
 21
130.4355982171002
 72
     1
 10
9.713026270299906
 20
130.4355982171002
 11
10.71487385391427
 21
130.491233817367
 72
     1
 10
10.71487385391427
 20
130.491233817367
 11
10.1657682189213
 21
131.331041475364
 97
        1
330
126B
 75
     0
 76
     1
 98
        1
 10
1767.60001972144
 20
1356.01358427945
1001
ACAD
1010
0.0
1020
0.0
1030
0.0
  0
LWPOLYLINE
  5
126B
102
{ACAD_REACTORS
330
126A
102
}
330
1F
100
AcDbEntity
  8
Detail
 62
     7
100
AcDbPolyline
 90
        3
 70
     1
 43
0.0
 10
10.1657682189213
 20
131.331041475364
 10
9.713026270299906
 20
130.4355982171002
 10
10.71487385391427
 20
130.491233817367
  0
HATCH
  5
126C
330
1F
100
AcDbEntity
  8
Detail
 62
     7
100
AcDbHatch
 10
0.0
 20
0.0
 30
0.0
210
0.0
220
0.0
230
1.0
  2
SOLID
 70
     1
 71
     1
 91
        1
 92
        1
 93
        3
 72
     1
 10
7.423186300110103
 20
132.836116918614
 11
6.970444351488709
 21
131.9406736603502
 72
     1
 10
6.970444351488709
 20
131.9406736603502
 11
7.972291935103073
 21
131.996309260617
 72
     1
 10
7.972291935103073
 20
131.996309260617
 11
7.423186300110103
 21
132.836116918614
 97
        1
330
126D
 75
     0
 76
     1
 98
        1
 10
1764.857437802629
 20
1357.5186597227
1001
ACAD
1010
0.0
1020
0.0
1030
0.0
  0
LWPOLYLINE
  5
126D
102
{ACAD_REACTORS
330
126C
102
}
330
1F
100
AcDbEntity
  8
Detail
 62
     7
100
AcDbPolyline
 90
        3
 70
     1
 43
0.0
 10
7.423186300110103
 20
132.836116918614
 10
6.970444351488709
 20
131.9406736603502
 10
7.972291935103073
 20
131.996309260617
  0
LINE
  5
126F
330
1F
100
AcDbEntity
  8
Detail
  6
Continuous
100
AcDbLine
 10
-0.7188943616277683
 20
137.5013620865262
 30
0.0
 11
0.4182737510500445
 21
138.1033922638262
 31
0.0
  0
LINE
  5
1270
330
1F
100
AcDbEntity
  8
Detail
  6
Continuous
100
AcDbLine
 10
0.8865194445056161
 20
135.8290560384706
 30
0.0
 11
2.893286702172354
 21
137.2337931188373
 31
0.0
  0
LINE
  5
1271
330
1F
100
AcDbEntity
  8
Detail
  6
Continuous
100
AcDbLine
 10
7.508851394805838
 20
132.1499827327483
 30
0.0
 11
7.508851394805838
 21
135.2939181030928
 31
0.0
  0
LINE
  5
1272
330
1F
100
AcDbEntity
  8
Detail
  6
Continuous
100
AcDbLine
 10
10.25143331361705
 20
130.9459223781482
 30
0.0
 11
9.716295378239252
 21
134.2905344742595
 31
0.0
  0
LINE
  5
1273
330
1F
100
AcDbEntity
  8
Detail
  6
Continuous
100
AcDbLine
 10
13.3953686839616
 20
131.2803835877593
 30
0.0
 11
12.92712299050603
 21
134.6918879257928
 31
0.0
  0
LINE
  5
1274
330
1F
100
AcDbEntity
  8
Detail
  6
Continuous
100
AcDbLine
 10
16.9406575058395
 20
131.1465991039149
 30
0.0
 11
15.66970490931723
 21
134.4912112000261
 31
0.0
  0
LINE
  5
1275
330
1F
100
AcDbEntity
  8
Detail
  6
Continuous
100
AcDbLine
 10
19.88391615041738
 20
134.2236422323372
 30
0.0
 11
18.27850234428399
 21
136.5648706996151
 31
0.0
  0
LINE
  5
1276
330
1F
100
AcDbEntity
  8
Detail
  6
Continuous
100
AcDbLine
 10
24.43258860112864
 20
137.3006853607596
 30
0.0
 11
23.16163600460637
 21
137.3006853607596
 31
0.0
  0
LINE
  5
1277
330
1F
100
AcDbEntity
  8
Detail
  6
Continuous
100
AcDbLine
 10
23.83055842382862
 20
134.9594568934817
 30
0.0
 11
23.09474376268415
 21
136.4979784576929
 31
0.0
  0
LINE
  5
1278
330
1F
100
AcDbEntity
  8
Detail
  6
Continuous
100
AcDbLine
 10
44.43336893587377
 20
116.3634136391033
 30
0.0
 11
45.70432153239603
 21
117.7012584775478
 31
0.0
  0
LINE
  5
1279
330
1F
100
AcDbEntity
  8
Detail
  6
Continuous
100
AcDbLine
 10
45.83810601624048
 20
115.4269222521921
 30
0.0
 11
46.97527412891829
 21
116.6309826067922
 31
0.0
  0
LINE
  5
127A
330
1F
100
AcDbEntity
  8
Detail
  6
Continuous
100
AcDbLine
 10
48.38001120928501
 20
114.1559696556699
 30
0.0
 11
48.38001120928501
 21
116.2965213971811
 31
0.0
  0
LINE
  5
127B
330
1F
100
AcDbEntity
  8
Detail
  6
Continuous
100
AcDbLine
 10
50.31988622502952
 20
115.4938144941144
 30
0.0
 11
49.4502870800406
 21
116.9654438164033
 31
0.0
  0
LINE
  5
127C
330
1F
100
AcDbEntity
  8
Detail
  6
Continuous
100
AcDbLine
 10
51.32326985386289
 20
116.56409036487
 30
0.0
 11
50.72123967656287
 21
117.4336895098589
 31
0.0
  0
LINE
  5
127D
330
1F
100
AcDbEntity
  8
Detail
  6
Continuous
100
AcDbLine
 10
78.61530455813048
 20
126.0627887178258
 30
0.0
 11
84.83628305689737
 21
126.0627887178258
 31
0.0
  0
LINE
  5
127E
330
1F
100
AcDbEntity
  8
Detail
  6
Continuous
100
AcDbLine
 10
81.4247787188639
 20
120.443840396359
 30
0.0
 11
85.03695978266404
 21
121.9823619605701
 31
0.0
  0
LINE
  5
127F
330
1F
100
AcDbEntity
  8
Detail
  6
Continuous
100
AcDbLine
 10
86.10723565341962
 20
114.5573231072032
 30
0.0
 11
88.11400291108637
 21
115.6275989779588
 31
0.0
  0
LINE
  5
1280
330
1F
100
AcDbEntity
  8
Detail
  6
Continuous
100
AcDbLine
 10
91.85996845873092
 20
109.3397282372697
 30
0.0
 11
94.53565813561991
 21
114.1559696556699
 31
0.0
  0
LINE
  5
1281
330
1F
100
AcDbEntity
  8
Detail
  6
Continuous
100
AcDbLine
 10
97.41202453827557
 20
107.934991156903
 30
0.0
 11
97.41202453827557
 21
114.2228618975921
 31
0.0
  0
LINE
  5
1282
330
1F
100
AcDbEntity
  8
Detail
  6
Continuous
100
AcDbLine
 10
102.897188375898
 20
113.1525860268365
 30
0.0
 11
100.4890676666979
 21
116.3634136391033
 31
0.0
  0
LINE
  5
1283
330
1F
100
AcDbEntity
  8
Detail
  6
Continuous
100
AcDbLine
 10
107.5796453104537
 20
118.3032886548478
 30
0.0
 11
104.3688176981869
 21
119.3735645256034
 31
0.0
  0
LINE
  5
1284
330
1F
100
AcDbEntity
  8
Detail
  6
Continuous
100
AcDbLine
 10
108.5161366973648
 20
122.9188533474813
 30
0.0
 11
103.8336797628091
 21
122.3837154121035
 31
0.0
  0
LINE
  5
1285
330
1F
100
AcDbEntity
  8
Detail
  6
Continuous
100
AcDbLine
 10
108.0478910039093
 20
126.7317111370481
 30
0.0
 11
104.4357099401091
 21
126.1965732016703
 31
0.0
  0
VIEWPORT
  5
2F6
330
2F4
100
AcDbEntity
 67
     1
  8
0
100
AcDbViewport
 10
0.0
 20
0.0
 30
0.0
 40
465.7524475524476
 41
193.8
 68
     1
 69
     1
 12
147.3473932347496
 22
106.7761622067302
 13
0.0
 23
0.0
 14
0.5
 24
0.5
 15
0.0
 25
0.0
 16
0.0
 26
0.0
 36
1.0
 17
0.0
 27
0.0
 37
0.0
 42
50.0
 43
0.0
 44
0.0
 45
193.8
 50
0.0
 51
0.0
 72
   100
 90
   557168
  1

281
     0
 71
     1
 74
     0
110
0.0
120
0.0
130
0.0
111
1.0
121
0.0
131
0.0
112
0.0
122
1.0
132
0.0
 79
     0
146
0.0
170
     0
 61
     5
348
9F
292
     1
282
     1
141
0.0
142
0.0
 63
   256
361
2F8
  0
LWPOLYLINE
  5
2F9
330
2F4
100
AcDbEntity
 67
     1
  8
Viewport
370
     5
100
AcDbPolyline
 90
        4
 70
     1
 43
0.0
 10
7.347393234749618
 20
11.77616220673023
 10
7.347393234749618
 20
201.7761622067301
 10
227.3473932347497
 20
201.7761622067301
 10
227.3473932347497
 20
11.77616220673023
  0
LWPOLYLINE
  5
2FD
330
2F4
100
AcDbEntity
 67
     1
  8
Viewport
370
     5
100
AcDbPolyline
 90
        4
 70
     1
 43
0.0
 10
227.3473932347497
 20
191.7761622067302
 10
227.3473932347497
 20
201.7761622067301
 10
287.3473932347496
 20
201.7761622067301
 10
287.3473932347496
 20
191.7761622067302
  0
LWPOLYLINE
  5
2FE
330
2F4
100
AcDbEntity
 67
     1
  8
Viewport
370
     5
100
AcDbPolyline
 90
        4
 70
     1
 43
0.0
 10
227.3473932347497
 20
11.7761622067302
 10
227.3473932347497
 20
191.7761622067302
 10
287.3473932347496
 20
191.7761622067302
 10
287.3473932347496
 20
11.7761622067302
  0
LWPOLYLINE
  5
2FF
330
2F4
100
AcDbEntity
 67
     1
  8
Viewport
370
     5
100
AcDbPolyline
 90
        4
 70
     1
 43
0.0
 10
227.3473932347497
 20
31.77616220673019
 10
227.3473932347497
 20
46.77616220673018
 10
287.3473932347496
 20
46.77616220673018
 10
287.3473932347496
 20
31.77616220673019
  0
LWPOLYLINE
  5
300
330
2F4
100
AcDbEntity
 67
     1
  8
Viewport
370
     5
100
AcDbPolyline
 90
        4
 70
     1
 43
0.0
 10
257.3473932347495
 20
11.7761622067302
 10
257.3473932347495
 20
31.77616220673019
 10
287.3473932347496
 20
31.77616220673019
 10
287.3473932347496
 20
11.7761622067302
  0
MTEXT
  5
301
330
2F4
100
AcDbEntity
 67
     1
  8
Viewport
100
AcDbMText
 10
228.4637950029855
 20
200.1450608537263
 30
0.0
 40
2.0
 41
56.04853669998488
 46
5.488501246672561
 71
     1
 72
     5
  1
{\fArial|b1|i0|c0|p0;Figure ??: Plan of Area 1 showing Late Iron Age features}
 73
     1
 44
1.0
  0
IMAGE
  5
303
330
2F4
100
AcDbEntity
 67
     1
  8
Viewport
 62
     7
420
 16777215
160
               140
310
8C00000001000000840000000600000005000000BE739F3FC16B714056F4A9C808B1414000000000000000000548B448C1CB714056F4A9C808B1414000000000000000000548B448C1CB7140DDA10605597B45400000000000000000BE739F3FC16B7140DDA10605597B45400000000000000000BE739F3FC16B714056F4A9
310
C808B141400000000000000000
100
AcDbRasterImage
 90
        0
 10
278.7346798161124
 20
35.38308056162411
 30
0.0
 11
0.01534529069223452
 21
0.0
 31
0.0
 12
0.0
 22
0.01534529069223453
 32
0.0
 13
391.0
 23
494.0
340
304
 70
     7
280
     0
281
    50
282
    50
283
     0
360
306
 71
     1
 91
        2
 14
-0.5
 24
-0.5
 14
390.5
 24
493.5
290
     0
  0
MTEXT
  5
307
330
2F4
100
AcDbEntity
 67
     1
  8
Viewport
100
AcDbMText
 10
259.5956867283755
 20
30.51033688715233
 30
0.0
 40
1.0
 41
29.31550485951386
 46
0.0508
 71
     1
 72
     5
  1
{\fArial|b1|i0|c0|p0;Archaeological Research Services Ltd}
 73
     1
 44
1.0
  0
MTEXT
  5
308
330
2F4
100
AcDbEntity
 67
     1
  8
Viewport
100
AcDbMText
 10
259.7029665297401
 20
26.73376285153269
 30
0.0
 40
1.0
 41
12.65005683911096
 46
9.452
 71
     1
 72
     5
  1
{Aizlewood’s Mill\PNursery Street\PSheffield\PS3 8GG\P\PTel:  0114 2750140}
 73
     1
 44
1.0
  0
MTEXT
  5
309
330
2F4
100
AcDbEntity
 67
     1
  8
Viewport
100
AcDbMText
 10
259.762460958706
 20
13.98124774404435
 30
0.0
 40
1.0
 41
28.29156985215156
 46
0.0508
 71
     1
 72
     5
  1
{www.archaeologicalresearchservices.com}
 73
     1
 44
1.0
  0
IMAGE
  5
30A
330
2F4
100
AcDbEntity
 67
     1
  8
Viewport
 62
     7
420
 16777215
160
               140
310
8C00000001000000840000000600000005000000319979B8F019714041D9519FDF0D2D400000000000000000FC77819B9ACC714041D9519FDF0D2D400000000000000000FC77819B9ACC714080D86CBCC1CA3C400000000000000000319979B8F019714080D86CBCC1CA3C400000000000000000319979B8F019714041D951
310
9FDF0D2D400000000000000000
100
AcDbRasterImage
 90
        0
 10
273.6212696790636
 20
14.52709672807816
 30
0.0
 11
0.02011977707930428
 21
0.0
 31
0.0
 12
0.0
 22
0.02011977707930428
 32
0.0
 13
555.0
 23
709.0
340
30B
 70
     7
280
     0
281
    50
282
    50
283
     0
360
30C
 71
     1
 91
        2
 14
-0.5
 24
-0.5
 14
554.5
 24
708.5
290
     0
  0
MTEXT
  5
30D
330
2F4
100
AcDbEntity
 67
     1
  8
Viewport
100
AcDbMText
 10
227.8074521448654
 20
21.38214163523372
 30
0.0
 40
0.9
 41
28.5197276735399
 46
0.4717666666666667
 71
     1
 72
     5
  1
{This drawing © ARS Ltd\POrdnance Survey mapping (if applicable):\PCrown Copyright\PAll rights reserved.\PReproduced with permission.\PLicence no. 100045420}
 73
     1
 44
1.0
  0
MTEXT
  5
30E
330
2F4
100
AcDbEntity
 67
     1
  8
Viewport
100
AcDbMText
 10
228.422290520826
 20
30.33023984491069
 30
0.0
 40
1.5
 41
14.04609750873072
 46
0.6248914348466075
 71
     1
 72
     1
  1
Site name:\PDate: \PDrawn by:  
 73
     1
 44
1.0
  0
MTEXT
  5
30F
330
2F4
100
AcDbEntity
 67
     1
  8
Viewport
100
AcDbMText
 10
242.9308020463149
 20
30.22731048477224
 30
0.0
 40
1.5
 41
26.93066027556533
 46
0.0
 71
     1
 72
     1
  1
Site name\PDate\PInitials
 73
     1
 44
1.0
  0
LWPOLYLINE
  5
310
330
2F4
100
AcDbEntity
 67
     1
  8
Viewport
  6
DASHDOT
 62
     3
 48
10.0
100
AcDbPolyline
 90
        4
 70
   129
 43
0.0
 10
231.7456326953709
 20
185.1153467498634
 10
231.7456326953709
 20
180.4038249453928
 10
238.8587077963176
 20
180.4038249453929
 10
238.8587077963176
 20
185.1153467498635
  0
MTEXT
  5
312
330
2F4
100
AcDbEntity
 67
     1
  8
Viewport
100
AcDbMText
 10
242.2652241956519
 20
183.680388633017
 30
0.0
 40
2.0
 41
39.95218639810391
 46
0.2016
 71
     1
 72
     5
  1
Limit of Excavation}
 73
     1
 44
1.0
  0
LINE
  5
313
330
2F4
100
AcDbEntity
 67
     1
  8
Viewport
  6
DASHED
 62
     1
 48
10.0
100
AcDbLine
 10
231.9063149424439
 20
175.52319470701
 30
0.0
 11
239.190461711233
 21
175.52319470701
 31
0.0
  0
MTEXT
  5
315
330
2F4
100
AcDbEntity
 67
     1
  8
Viewport
100
AcDbMText
 10
242.2629987372777
 20
176.7940173603337
 30
0.0
 40
2.0
 41
39.95218639810391
 46
0.2016
 71
     1
 72
     5
  1
Section Line
 73
     1
 44
1.0
  0
VIEWPORT
  5
316
102
{ACAD_XDICTIONARY
360
317
102
}
330
2F4
100
AcDbEntity
 67
     1
  8
Viewport
370
     5
100
AcDbViewport
 10
117.3473932347496
 20
106.7761622067302
 30
0.0
 40
220.0
 41
190.0
 68
     2
 69
     2
 12
50.63507582640864
 22
27.72352701592062
 13
0.0
 23
0.0
 14
0.5
 24
0.5
 15
0.5
 25
0.5
 16
0.0
 26
0.0
 36
1.0
 17
0.0
 27
0.0
 37
0.0
 42
50.0
 43
0.0
 44
0.0
 45
87.53028026708222
 50
0.0
 51
0.0
 72
   100
 90
   557168
  1

281
     0
 71
     1
 74
     0
110
0.0
120
0.0
130
0.0
111
1.0
121
0.0
131
0.0
112
0.0
122
1.0
132
0.0
 79
     0
146
0.0
170
     0
 61
     5
348
9F
292
     1
282
     1
141
0.0
142
0.0
 63
   256
361
31A
  0
LWPOLYLINE
  5
31B
330
2F4
100
AcDbEntity
 67
     1
  8
Viewport
370
     5
100
AcDbPolyline
 90
        4
 70
     1
 43
0.0
 10
227.3473932347497
 20
31.77616220673019
 10
227.3473932347497
 20
21.7761622067302
 10
257.3473932347495
 20
21.7761622067302
 10
257.3473932347495
 20
31.77616220673019
  0
LWPOLYLINE
  5
31C
330
2F4
100
AcDbEntity
 67
     1
  8
Viewport
370
     5
100
AcDbPolyline
 90
        4
 70
     1
 43
0.0
 10
227.3473932347497
 20
21.7761622067302
 10
227.3473932347497
 20
11.7761622067302
 10
257.3473932347495
 20
11.7761622067302
 10
257.3473932347495
 20
21.7761622067302
  0
ENDSEC
  0
SECTION
  2
OBJECTS
  0
DICTIONARY
  5
C
330
0
100
AcDbDictionary
281
     1
  3
ACAD_COLOR
350
73
  3
ACAD_DETAILVIEWSTYLE
350
122
  3
ACAD_GROUP
350
D
  3
ACAD_IMAGE_DICT
350
305
  3
ACAD_IMAGE_VARS
350
DC
  3
ACAD_LAYOUT
350
1A
  3
ACAD_MATERIAL
350
72
  3
ACAD_MLEADERSTYLE
350
B5
  3
ACAD_MLINESTYLE
350
17
  3
ACAD_PLOTSETTINGS
350
19
  3
ACAD_PLOTSTYLENAME
350
E
  3
ACAD_SCALELIST
350
B6
  3
ACAD_SECTIONVIEWSTYLE
350
123
  3
ACAD_TABLESTYLE
350
86
  3
ACAD_VISUALSTYLE
350
99
  3
ACDB_RECOMPOSE_DATA
350
12B2
  3
AcDbVariableDictionary
350
66
  3
APPDATA
350
E1
  0
SUN
  5
ED
330
94
100
AcDbSun
 90
        1
290
     0
 63
     7
421
 16777215
 40
1.0
291
     1
 91
  2455826
 92
 54000000
292
     0
 70
     2
 71
   256
280
     1
  0
DICTIONARY
  5
12A
330
2
100
AcDbDictionary
280
     1
281
     1
  3
ACAD_LAYERSTATES
360
12B
  3
ACLYDICTIONARY
360
10C7
  0
DICTIONARY
  5
46C
330
1F
100
AcDbDictionary
280
     1
281
     1
  3
ACAD_SORTENTS
360
46D
  0
SUN
  5
3B3
330
3AF
100
AcDbSun
 90
        1
290
     0
 63
     7
421
 16777215
 40
1.0
291
     1
 91
  2455826
 92
 54000000
292
     0
 70
     2
 71
   256
280
     1
  0
DICTIONARY
  5
3EB
330
3EA
100
AcDbDictionary
280
     1
281
     1
  3
ASDK_XREC_ANNOTATION_SCALE_INFO
360
3EC
  0
SUN
  5
3ED
330
3EA
100
AcDbSun
 90
        1
290
     0
 63
     7
421
 16777215
 40
1.0
291
     1
 91
  2455826
 92
 54000000
292
     0
 70
     2
 71
   256
280
     1
  0
IMAGEDEF_REACTOR
  5
3F0
330
3EF
100
AcDbRasterImageDefReactor
 90
        2
330
3EF
  0
IMAGEDEF_REACTOR
  5
3F7
330
3F6
100
AcDbRasterImageDefReactor
 90
        2
330
3F6
  0
SUN
  5
324
330
322
100
AcDbSun
 90
        1
290
     0
 63
     7
421
 16777215
 40
1.0
291
     1
 91
  2455826
 92
 54000000
292
     0
 70
     2
 71
   256
280
     1
  0
DICTIONARY
  5
32C
330
32B
100
AcDbDictionary
280
     1
281
     1
  3
ASDK_XREC_ANNOTATION_SCALE_INFO
360
32D
  0
SUN
  5
32F
330
32B
100
AcDbSun
 90
        1
290
     0
 63
     7
421
 16777215
 40
1.0
291
     1
 91
  2455826
 92
 54000000
292
     0
 70
     2
 71
   256
280
     1
  0
IMAGEDEF_REACTOR
  5
337
330
335
100
AcDbRasterImageDefReactor
 90
        2
330
335
  0
IMAGEDEF_REACTOR
  5
33F
330
33D
100
AcDbRasterImageDefReactor
 90
        2
330
33D
  0
SUN
  5
35F
330
35B
100
AcDbSun
 90
        1
290
     0
 63
     7
421
 16777215
 40
1.0
291
     1
 91
  2455826
 92
 54000000
292
     0
 70
     2
 71
   256
280
     1
  0
IMAGEDEF_REACTOR
  5
394
330
393
100
AcDbRasterImageDefReactor
 90
        2
330
393
  0
IMAGEDEF_REACTOR
  5
399
330
398
100
AcDbRasterImageDefReactor
 90
        2
330
398
  0
DICTIONARY
  5
3A2
330
3A1
100
AcDbDictionary
280
     1
281
     1
  3
ASDK_XREC_ANNOTATION_SCALE_INFO
360
3A3
  0
SUN
  5
3A4
330
3A1
100
AcDbSun
 90
        1
290
     0
 63
     7
421
 16777215
 40
1.0
291
     1
 91
  2455826
 92
 54000000
292
     0
 70
     2
 71
   256
280
     1
  0
SUN
  5
128A
330
1288
100
AcDbSun
 90
        1
290
     0
 63
     7
421
 16777215
 40
1.0
291
     1
 91
  2455826
 92
 54000000
292
     0
 70
     2
 71
   256
280
     1
  0
IMAGEDEF_REACTOR
  5
1297
330
1295
100
AcDbRasterImageDefReactor
 90
        2
330
1295
  0
IMAGEDEF_REACTOR
  5
129D
330
129B
100
AcDbRasterImageDefReactor
 90
        2
330
129B
  0
DICTIONARY
  5
12A8
330
12A7
100
AcDbDictionary
280
     1
281
     1
  3
ASDK_XREC_ANNOTATION_SCALE_INFO
360
12A9
  0
SUN
  5
12AB
330
12A7
100
AcDbSun
 90
        1
290
     0
 63
     7
421
 16777215
 40
1.0
291
     1
 91
  2455826
 92
 54000000
292
     0
 70
     2
 71
   256
280
     1
  0
IMAGEDEF_REACTOR
  5
10DE
330
10DD
100
AcDbRasterImageDefReactor
 90
        2
330
10DD
  0
SUN
  5
2F8
330
2F6
100
AcDbSun
 90
        1
290
     0
 63
     7
421
 16777215
 40
1.0
291
     1
 91
  2455826
 92
 54000000
292
     0
 70
     2
 71
   256
280
     1
  0
IMAGEDEF_REACTOR
  5
306
330
303
100
AcDbRasterImageDefReactor
 90
        2
330
303
  0
IMAGEDEF_REACTOR
  5
30C
330
30A
100
AcDbRasterImageDefReactor
 90
        2
330
30A
  0
DICTIONARY
  5
317
330
316
100
AcDbDictionary
280
     1
281
     1
  3
ASDK_XREC_ANNOTATION_SCALE_INFO
360
318
  0
SUN
  5
31A
330
316
100
AcDbSun
 90
        1
290
     0
 63
     7
421
 16777215
 40
1.0
291
     1
 91
  2455826
 92
 54000000
292
     0
 70
     2
 71
   256
280
     1
  0
DICTIONARY
  5
73
102
{ACAD_REACTORS
330
C
102
}
330
C
100
AcDbDictionary
281
     1
  0
DICTIONARY
  5
122
102
{ACAD_REACTORS
330
C
102
}
330
C
100
AcDbDictionary
281
     1
  0
DICTIONARY
  5
D
102
{ACAD_REACTORS
330
C
102
}
330
C
100
AcDbDictionary
281
     1
  0
DICTIONARY
  5
305
102
{ACAD_REACTORS
330
C
102
}
330
C
100
AcDbDictionary
281
     1
  3
BAT3EX_15_Drawing_Sheet_3
350
10DC
  3
Logo new design name below with strapline
350
30B
  3
North Arrow 3, Simple Triangular Symmetric
350
304
  0
RASTERVARIABLES
  5
DC
102
{ACAD_REACTORS
330
C
102
}
330
C
100
AcDbRasterVariables
 90
        0
 70
     1
 71
     1
 72
     5
  0
DICTIONARY
  5
1A
102
{ACAD_REACTORS
330
C
102
}
330
C
100
AcDbDictionary
281
     1
  3
A3 Landscape
350
358
  3
A3 Portrait
350
3AC
  3
A4 Landscape
350
31E
  3
A4 Portrait
350
34C
  3
Model
350
22
  3
Sheet1-A3 Landscape
350
12AF
  0
DICTIONARY
  5
72
102
{ACAD_REACTORS
330
C
102
}
330
C
100
AcDbDictionary
281
     1
  3
ByBlock
350
E2
  3
ByLayer
350
96
  3
Global
350
98
  0
DICTIONARY
  5
B5
102
{ACAD_REACTORS
330
C
102
}
330
C
100
AcDbDictionary
281
     1
  3
Annotative
350
129
  3
Standard
350
124
  0
DICTIONARY
  5
17
102
{ACAD_REACTORS
330
C
102
}
330
C
100
AcDbDictionary
281
     1
  3
Standard
350
18
  0
DICTIONARY
  5
19
102
{ACAD_REACTORS
330
C
102
}
330
C
100
AcDbDictionary
281
     1
  0
ACDBDICTIONARYWDFLT
  5
E
102
{ACAD_REACTORS
330
C
102
}
330
C
100
AcDbDictionary
281
     1
  3
Normal
350
F
100
AcDbDictionaryWithDefault
340
F
  0
DICTIONARY
  5
B6
102
{ACAD_REACTORS
330
C
102
}
330
C
100
AcDbDictionary
281
     1
  3
A0
350
B7
  3
A1
350
B8
  3
A2
350
B9
  3
A3
350
BA
  3
A4
350
BB
  3
A5
350
BC
  3
A6
350
BD
  3
A7
350
BE
  3
A8
350
BF
  3
A9
350
C0
  3
B0
350
C1
  3
B1
350
C2
  3
B2
350
C3
  3
B3
350
C4
  3
B4
350
C5
  3
B5
350
C6
  3
B6
350
C7
  3
B7
350
C8
  3
B8
350
C9
  3
B9
350
CA
  3
C0
350
CB
  3
C1
350
CC
  3
C2
350
CD
  3
C3
350
CE
  3
C4
350
CF
  3
C5
350
D0
  3
C6
350
D1
  3
C7
350
D2
  3
C8
350
D3
  3
C9
350
D4
  3
D0
350
D5
  3
D1
350
D6
  3
D2
350
D7
  0
DICTIONARY
  5
123
102
{ACAD_REACTORS
330
C
102
}
330
C
100
AcDbDictionary
281
     1
  0
DICTIONARY
  5
86
102
{ACAD_REACTORS
330
C
102
}
330
C
100
AcDbDictionary
281
     1
  3
Standard
350
87
  0
DICTIONARY
  5
99
102
{ACAD_REACTORS
330
C
102
}
330
C
100
AcDbDictionary
281
     1
  3
2dWireframe
350
9F
  3
3D Hidden
350
A1
  3
3dWireframe
350
A0
  3
Basic
350
9E
  3
Brighten
350
A5
  3
ColorChange
350
A9
  3
Conceptual
350
A2
  3
Dim
350
A4
  3
EdgeColorOff
350
E7
  3
Facepattern
350
A8
  3
Flat
350
9A
  3
FlatWithEdges
350
9B
  3
Gouraud
350
9C
  3
GouraudWithEdges
350
9D
  3
Hidden
350
E4
  3
JitterOff
350
E5
  3
Linepattern
350
A7
  3
OverhangOff
350
E6
  3
Realistic
350
A3
  3
Shaded
350
EC
  3
Shaded with edges
350
EB
  3
Shades of Gray
350
E8
  3
Sketchy
350
E9
  3
Thicken
350
A6
  3
Wireframe
350
E3
  3
X-Ray
350
EA
  0
XRECORD
  5
12B2
102
{ACAD_REACTORS
330
C
102
}
330
C
100
AcDbXrecord
280
     1
 90
        1
330
87
  0
DICTIONARY
  5
66
102
{ACAD_REACTORS
330
C
102
}
330
C
100
AcDbDictionary
281
     1
  3
CANNOSCALE
350
D8
  3
CMLEADERSTYLE
350
128
  3
CTABLESTYLE
350
89
  3
DIMASSOC
350
67
  3
HIDETEXT
350
6B
  3
LIGHTSINBLOCKS
350
DF
  3
XCLIPFRAME
350
E0
  0
DICTIONARY
  5
E1
102
{ACAD_REACTORS
330
C
102
}
330
C
100
AcDbDictionary
281
     1
  0
DICTIONARY
  5
12B
102
{ACAD_REACTORS
330
12A
102
}
330
12A
100
AcDbDictionary
281
     1
  0
DICTIONARY
  5
10C7
102
{ACAD_REACTORS
330
12A
102
}
330
12A
100
AcDbDictionary
281
     1
1001
ACAD
1000
<All
  0
SORTENTSTABLE
  5
46D
102
{ACAD_REACTORS
330
46C
102
}
330
46C
100
AcDbSortentsTable
330
1F
331
0
  5
46A
  0
XRECORD
  5
3EC
102
{ACAD_REACTORS
330
3EB
102
}
330
3EB
100
AcDbXrecord
280
     1
 90
        1
340
B7
  0
XRECORD
  5
32D
102
{ACAD_REACTORS
330
32C
102
}
330
32C
100
AcDbXrecord
280
     1
 90
        1
340
B7
  0
XRECORD
  5
3A3
102
{ACAD_REACTORS
330
3A2
102
}
330
3A2
100
AcDbXrecord
280
     1
 90
        1
340
B7
  0
XRECORD
  5
12A9
102
{ACAD_REACTORS
330
12A8
102
}
330
12A8
100
AcDbXrecord
280
     1
 90
        1
340
B7
  0
XRECORD
  5
318
102
{ACAD_REACTORS
330
317
102
}
330
317
100
AcDbXrecord
280
     1
 90
        1
340
B7
  0
IMAGEDEF
  5
10DC
102
{ACAD_REACTORS
330
305
330
10DE
102
}
330
305
100
AcDbRasterImageDef
 90
        0
  1
Z:/HS2/Mitigation/BAT Palaeolithic sites/Field 15/Fieldwork/Post_Excavation/Draftsight/Scanned_Drawings/BAT3EX_15_Drawing_Sheet_3.tif
 10
1653.0
 20
2338.0
 11
0.127000254000508
 21
0.127000254000508
280
     1
281
     3
  0
IMAGEDEF
  5
30B
102
{ACAD_REACTORS
330
30C
330
305
330
337
330
399
330
3F0
330
129D
102
}
330
305
100
AcDbRasterImageDef
 90
        0
  1
Z:\Guidance, Resources, Data (Company)\Templates\DraftSight Templates\Reference_Images\Logo new design name below with strapline.JPG
 10
555.0
 20
709.0
 11
0.08466683600033867
 21
0.08466683600033867
280
     1
281
     3
  0
IMAGEDEF
  5
304
102
{ACAD_REACTORS
330
306
330
305
330
33F
330
394
330
3F7
330
1297
102
}
330
305
100
AcDbRasterImageDef
 90
        0
  1
Z:\Guidance, Resources, Data (Company)\Templates\DraftSight Templates\Reference_Images\North Arrow 3, Simple Triangular Symmetric.jpg
 10
391.0
 20
494.0
 11
0.2646202699126753
 21
0.2646202699126753
280
     1
281
     3
  0
LAYOUT
  5
358
102
{ACAD_REACTORS
330
1A
102
}
330
1A
100
AcDbPlotSettings
  1

  2
none_device
  4
ANSI_A_(11.00_x_8.50_Inches)
  6

 40
6.35
 41
19.05
 42
6.35
 43
19.05
 44
279.4
 45
215.9
 46
0.0
 47
0.0
 48
0.0
 49
0.0
140
0.0
141
0.0
142
1.0
143
1.0
 70
   688
 72
     0
 73
     0
 74
     5
  7

 75
    16
 76
     0
 77
     2
 78
   300
147
1.0
148
0.0
149
0.0
100
AcDbLayout
  1
A3 Landscape
 70
     1
 71
     3
 10
-0.25
 20
-0.7499999999999999
 11
10.75
 21
7.75
 12
0.0
 22
0.0
 32
0.0
 14
7.347393234749617
 24
11.77616220673019
 34
0.0
 15
287.3473932347496
 25
201.7761622067302
 35
0.0
146
0.0
 13
0.0
 23
0.0
 33
0.0
 16
1.0
 26
0.0
 36
0.0
 17
0.0
 27
1.0
 37
0.0
 76
     0
330
357
331
35B
  0
LAYOUT
  5
3AC
102
{ACAD_REACTORS
330
1A
102
}
330
1A
100
AcDbPlotSettings
  1

  2
none_device
  4
ANSI_A_(11.00_x_8.50_Inches)
  6

 40
6.35
 41
19.05
 42
6.35
 43
19.05
 44
279.4
 45
215.9
 46
0.0
 47
0.0
 48
0.0
 49
0.0
140
0.0
141
0.0
142
1.0
143
1.0
 70
   688
 72
     0
 73
     0
 74
     5
  7

 75
    16
 76
     0
 77
     2
 78
   300
147
1.0
148
0.0
149
0.0
100
AcDbLayout
  1
A3 Portrait
 70
     1
 71
     4
 10
-10.0
 20
-13.0
 11
10.75
 21
7.75
 12
0.0
 22
0.0
 32
0.0
 14
-0.000000000070834
 24
-0.0000000000869065
 34
0.0
 15
269.9629629628922
 25
393.9999999999131
 35
0.0
146
0.0
 13
0.0
 23
0.0
 33
0.0
 16
1.0
 26
0.0
 36
0.0
 17
0.0
 27
1.0
 37
0.0
 76
     0
330
3AB
331
3AF
  0
LAYOUT
  5
31E
102
{ACAD_REACTORS
330
1A
102
}
330
1A
100
AcDbPlotSettings
  1

  2
none_device
  4
ANSI_A_(11.00_x_8.50_Inches)
  6

 40
6.35
 41
19.05
 42
6.35
 43
19.05
 44
279.4
 45
215.9
 46
0.0
 47
0.0
 48
0.0
 49
0.0
140
0.0
141
0.0
142
1.0
143
1.0
 70
   688
 72
     0
 73
     0
 74
     5
  7

 75
    16
 76
     0
 77
     2
 78
   300
147
1.0
148
0.0
149
0.0
100
AcDbLayout
  1
A4 Landscape
 70
     1
 71
     1
 10
-1.152606765250368
 20
1.77616220673019
 11
10.75
 21
7.75
 12
0.0
 22
0.0
 32
0.0
 14
7.347393234749617
 24
11.77616220673019
 34
0.0
 15
287.3473932347496
 25
201.7761622067302
 35
0.0
146
0.0
 13
0.0
 23
0.0
 33
0.0
 16
1.0
 26
0.0
 36
0.0
 17
0.0
 27
1.0
 37
0.0
 76
     0
330
2F4
331
2F6
  0
LAYOUT
  5
34C
102
{ACAD_REACTORS
330
1A
102
}
330
1A
100
AcDbPlotSettings
  1

  2
none_device
  4
ANSI_A_(11.00_x_8.50_Inches)
  6

 40
6.35
 41
19.05
 42
6.35
 43
19.05
 44
279.4
 45
215.9
 46
0.0
 47
0.0
 48
0.0
 49
0.0
140
0.0
141
0.0
142
1.0
143
1.0
 70
   688
 72
     0
 73
     0
 74
     5
  7

 75
    16
 76
     0
 77
     2
 78
   300
147
1.0
148
0.0
149
0.0
100
AcDbLayout
  1
A4 Portrait
 70
     1
 71
     2
 10
-11.44492708080785
 20
-15.83312114781517
 11
10.75
 21
7.75
 12
0.0
 22
0.0
 32
0.0
 14
1.055072948167748
 24
-2.333121196830589
 34
0.0
 15
186.055072948168
 25
267.6668788031697
 35
0.0
146
0.0
 13
0.0
 23
0.0
 33
0.0
 16
1.0
 26
0.0
 36
0.0
 17
0.0
 27
1.0
 37
0.0
 76
     0
330
320
331
322
  0
LAYOUT
  5
22
102
{ACAD_REACTORS
330
1A
102
}
330
1A
100
AcDbPlotSettings
  1

  2
none_device
  4
ANSI_A_(8.50_x_11.00_Inches)
  6

 40
6.35
 41
19.05
 42
6.35
 43
19.05
 44
215.9
 45
279.4
 46
11.11250000000003
 47
0.0000000000000142
 48
0.0
 49
0.0
140
0.0
141
0.0
142
1.0
143
1.263157894736842
 70
 11444
 72
     0
 73
     1
 74
     1
  7
monochrome.ctb
 75
     0
 76
     0
 77
     2
 78
   300
147
0.7916666666666665
148
-702.8076765758875
149
-496.2830551296954
100
AcDbLayout
  1
Model
 70
     1
 71
     0
 10
0.0
 20
0.0
 11
12.0
 21
9.0
 12
0.0
 22
0.0
 32
0.0
 14
-13.3675637425028
 24
77.90355800930354
 34
0.0
 15
136.2630875596145
 25
183.6946044602873
 35
0.0
146
0.0
 13
0.0
 23
0.0
 33
0.0
 16
1.0
 26
0.0
 36
0.0
 17
0.0
 27
1.0
 37
0.0
 76
     0
330
1F
331
94
  0
LAYOUT
  5
12AF
102
{ACAD_REACTORS
330
1A
102
}
330
1A
100
AcDbPlotSettings
  1

  2
none_device
  4
ANSI_A_(11.00_x_8.50_Inches)
  6

 40
6.35
 41
19.05
 42
6.35
 43
19.05
 44
279.4
 45
215.9
 46
0.0
 47
0.0
 48
0.0
 49
0.0
140
0.0
141
0.0
142
1.0
143
1.0
 70
   688
 72
     0
 73
     0
 74
     5
  7

 75
    16
 76
     0
 77
     2
 78
   300
147
1.0
148
0.0
149
0.0
100
AcDbLayout
  1
Sheet1-A3 Landscape
 70
     1
 71
     5
 10
-10.0
 20
-13.0
 11
10.75
 21
7.75
 12
0.0
 22
0.0
 32
0.0
 14
-0.0000000006695018
 24
0.0000000008568577
 34
0.0
 15
399.9999999993305
 25
271.4285714294281
 35
0.0
146
0.0
 13
0.0
 23
0.0
 33
0.0
 16
1.0
 26
0.0
 36
0.0
 17
0.0
 27
1.0
 37
0.0
 76
     0
330
1286
331
1288
  0
MATERIAL
  5
E2
102
{ACAD_REACTORS
330
72
102
}
330
72
100
AcDbMaterial
  1
ByBlock
 72
     1
 94
      127
  0
MATERIAL
  5
96
102
{ACAD_REACTORS
330
72
102
}
330
72
100
AcDbMaterial
  1
ByLayer
 72
     1
 94
       63
  0
MATERIAL
  5
98
102
{ACAD_REACTORS
330
72
102
}
330
72
100
AcDbMaterial
  1
Global
 72
     1
 94
       63
  0
MLEADERSTYLE
  5
129
102
{ACAD_REACTORS
330
B5
102
}
330
B5
100
AcDbMLeaderStyle
179
     2
170
     2
171
     1
172
     0
 90
        2
 40
0.0
 41
0.0
173
     1
 91
-1056964608
340
14
 92
       -2
290
     1
 42
0.09
291
     1
 43
0.36
  3
Annotative
341
0
 44
0.18
300

342
11
174
     1
178
     1
175
     1
176
     0
 93
-1056964608
 45
0.18
292
     0
297
     0
 46
0.18
343
0
 94
-1056964608
 47
1.0
 49
1.0
140
1.0
293
     1
141
0.0
294
     1
177
     0
142
1.0
295
     0
296
     1
143
0.125
271
     0
272
     9
273
     9
298
     0
  0
MLEADERSTYLE
  5
124
102
{ACAD_REACTORS
330
B5
102
}
330
B5
100
AcDbMLeaderStyle
179
     2
170
     2
171
     1
172
     0
 90
        2
 40
0.0
 41
0.0
173
     1
 91
-1056964608
340
14
 92
       -2
290
     1
 42
0.09
291
     1
 43
0.36
  3
Standard
341
0
 44
0.18
300

342
11
174
     1
178
     6
175
     1
176
     0
 93
-1056964608
 45
0.18
292
     0
297
     0
 46
0.18
343
0
 94
-1056964608
 47
1.0
 49
1.0
140
1.0
293
     1
141
0.0
294
     1
177
     0
142
1.0
295
     0
296
     0
143
0.125
271
     0
272
     9
273
     9
298
     0
  0
MLINESTYLE
  5
18
102
{ACAD_REACTORS
330
17
102
}
330
17
100
AcDbMlineStyle
  2
STANDARD
 70
     0
  3

 62
   256
 51
90.0
 52
90.0
 71
     2
 49
0.5
 62
   256
  6
BYLAYER
 49
-0.5
 62
   256
  6
BYLAYER
  0
ACDBPLACEHOLDER
  5
F
102
{ACAD_REACTORS
330
E
102
}
330
E
  0
SCALE
  5
B7
102
{ACAD_REACTORS
330
B6
102
}
330
B6
100
AcDbScale
 70
     0
300
1:1
140
1.0
141
1.0
290
     1
  0
SCALE
  5
B8
102
{ACAD_REACTORS
330
B6
102
}
330
B6
100
AcDbScale
 70
     0
300
1:2
140
1.0
141
2.0
290
     0
  0
SCALE
  5
B9
102
{ACAD_REACTORS
330
B6
102
}
330
B6
100
AcDbScale
 70
     0
300
1:4
140
1.0
141
4.0
290
     0
  0
SCALE
  5
BA
102
{ACAD_REACTORS
330
B6
102
}
330
B6
100
AcDbScale
 70
     0
300
1:5
140
1.0
141
5.0
290
     0
  0
SCALE
  5
BB
102
{ACAD_REACTORS
330
B6
102
}
330
B6
100
AcDbScale
 70
     0
300
1:8
140
1.0
141
8.0
290
     0
  0
SCALE
  5
BC
102
{ACAD_REACTORS
330
B6
102
}
330
B6
100
AcDbScale
 70
     0
300
1:10
140
1.0
141
10.0
290
     0
  0
SCALE
  5
BD
102
{ACAD_REACTORS
330
B6
102
}
330
B6
100
AcDbScale
 70
     0
300
1:16
140
1.0
141
16.0
290
     0
  0
SCALE
  5
BE
102
{ACAD_REACTORS
330
B6
102
}
330
B6
100
AcDbScale
 70
     0
300
1:20
140
1.0
141
20.0
290
     0
  0
SCALE
  5
BF
102
{ACAD_REACTORS
330
B6
102
}
330
B6
100
AcDbScale
 70
     0
300
1:30
140
1.0
141
30.0
290
     0
  0
SCALE
  5
C0
102
{ACAD_REACTORS
330
B6
102
}
330
B6
100
AcDbScale
 70
     0
300
1:40
140
1.0
141
40.0
290
     0
  0
SCALE
  5
C1
102
{ACAD_REACTORS
330
B6
102
}
330
B6
100
AcDbScale
 70
     0
300
1:50
140
1.0
141
50.0
290
     0
  0
SCALE
  5
C2
102
{ACAD_REACTORS
330
B6
102
}
330
B6
100
AcDbScale
 70
     0
300
1:100
140
1.0
141
100.0
290
     0
  0
SCALE
  5
C3
102
{ACAD_REACTORS
330
B6
102
}
330
B6
100
AcDbScale
 70
     0
300
2:1
140
2.0
141
1.0
290
     0
  0
SCALE
  5
C4
102
{ACAD_REACTORS
330
B6
102
}
330
B6
100
AcDbScale
 70
     0
300
4:1
140
4.0
141
1.0
290
     0
  0
SCALE
  5
C5
102
{ACAD_REACTORS
330
B6
102
}
330
B6
100
AcDbScale
 70
     0
300
8:1
140
8.0
141
1.0
290
     0
  0
SCALE
  5
C6
102
{ACAD_REACTORS
330
B6
102
}
330
B6
100
AcDbScale
 70
     0
300
10:1
140
10.0
141
1.0
290
     0
  0
SCALE
  5
C7
102
{ACAD_REACTORS
330
B6
102
}
330
B6
100
AcDbScale
 70
     0
300
100:1
140
100.0
141
1.0
290
     0
  0
SCALE
  5
C8
102
{ACAD_REACTORS
330
B6
102
}
330
B6
100
AcDbScale
 70
     0
300
1/128" = 1'-0"
140
0.0078125
141
12.0
290
     0
  0
SCALE
  5
C9
102
{ACAD_REACTORS
330
B6
102
}
330
B6
100
AcDbScale
 70
     0
300
1/64" = 1'-0"
140
0.015625
141
12.0
290
     0
  0
SCALE
  5
CA
102
{ACAD_REACTORS
330
B6
102
}
330
B6
100
AcDbScale
 70
     0
300
1/32" = 1'-0"
140
0.03125
141
12.0
290
     0
  0
SCALE
  5
CB
102
{ACAD_REACTORS
330
B6
102
}
330
B6
100
AcDbScale
 70
     0
300
1/16" = 1'-0"
140
0.0625
141
12.0
290
     0
  0
SCALE
  5
CC
102
{ACAD_REACTORS
330
B6
102
}
330
B6
100
AcDbScale
 70
     0
300
3/32" = 1'-0"
140
0.09375
141
12.0
290
     0
  0
SCALE
  5
CD
102
{ACAD_REACTORS
330
B6
102
}
330
B6
100
AcDbScale
 70
     0
300
1/8" = 1'-0"
140
0.125
141
12.0
290
     0
  0
SCALE
  5
CE
102
{ACAD_REACTORS
330
B6
102
}
330
B6
100
AcDbScale
 70
     0
300
3/16" = 1'-0"
140
0.1875
141
12.0
290
     0
  0
SCALE
  5
CF
102
{ACAD_REACTORS
330
B6
102
}
330
B6
100
AcDbScale
 70
     0
300
1/4" = 1'-0"
140
0.25
141
12.0
290
     0
  0
SCALE
  5
D0
102
{ACAD_REACTORS
330
B6
102
}
330
B6
100
AcDbScale
 70
     0
300
3/8" = 1'-0"
140
0.375
141
12.0
290
     0
  0
SCALE
  5
D1
102
{ACAD_REACTORS
330
B6
102
}
330
B6
100
AcDbScale
 70
     0
300
1/2" = 1'-0"
140
0.5
141
12.0
290
     0
  0
SCALE
  5
D2
102
{ACAD_REACTORS
330
B6
102
}
330
B6
100
AcDbScale
 70
     0
300
3/4" = 1'-0"
140
0.75
141
12.0
290
     0
  0
SCALE
  5
D3
102
{ACAD_REACTORS
330
B6
102
}
330
B6
100
AcDbScale
 70
     0
300
1" = 1'-0"
140
1.0
141
12.0
290
     0
  0
SCALE
  5
D4
102
{ACAD_REACTORS
330
B6
102
}
330
B6
100
AcDbScale
 70
     0
300
1-1/2" = 1'-0"
140
1.5
141
12.0
290
     0
  0
SCALE
  5
D5
102
{ACAD_REACTORS
330
B6
102
}
330
B6
100
AcDbScale
 70
     0
300
3" = 1'-0"
140
3.0
141
12.0
290
     0
  0
SCALE
  5
D6
102
{ACAD_REACTORS
330
B6
102
}
330
B6
100
AcDbScale
 70
     0
300
6" = 1'-0"
140
6.0
141
12.0
290
     0
  0
SCALE
  5
D7
102
{ACAD_REACTORS
330
B6
102
}
330
B6
100
AcDbScale
 70
     0
300
1'-0" = 1'-0"
140
12.0
141
12.0
290
     0
  0
TABLESTYLE
  5
87
102
{ACAD_REACTORS
330
86
102
}
102
{ACAD_XDICTIONARY
360
12B0
102
}
330
86
100
AcDbTableStyle
  3
Standard
 70
     0
 71
     0
 40
0.06
 41
0.06
280
     0
281
     0
  7
Standard
140
0.18
170
     2
 62
     0
 63
   257
283
     0
 90
      512
 91
        0
  1

274
    -2
284
     1
 64
     0
275
    -2
285
     1
 65
     0
276
    -2
286
     1
 66
     0
277
    -2
287
     1
 67
     0
278
    -2
288
     1
 68
     0
279
    -2
289
     1
 69
     0
  7
Standard
140
0.25
170
     5
 62
     0
 63
   257
283
     0
 90
      512
 91
        0
  1

274
    -2
284
     1
 64
     0
275
    -2
285
     1
 65
     0
276
    -2
286
     1
 66
     0
277
    -2
287
     1
 67
     0
278
    -2
288
     1
 68
     0
279
    -2
289
     1
 69
     0
  7
Standard
140
0.18
170
     5
 62
     0
 63
   257
283
     0
 90
      512
 91
        0
  1

274
    -2
284
     1
 64
     0
275
    -2
285
     1
 65
     0
276
    -2
286
     1
 66
     0
277
    -2
287
     1
 67
     0
278
    -2
288
     1
 68
     0
279
    -2
289
     1
 69
     0
  0
VISUALSTYLE
  5
9F
102
{ACAD_REACTORS
330
99
102
}
330
99
100
AcDbVisualStyle
  2
2dWireframe
 70
     4
177
     3
291
     0
 70
    58
 90
        0
176
     1
 90
        2
176
     1
 90
        1
176
     1
 90
        0
176
     1
 40
-0.6
176
     1
 40
-30.0
176
     1
 62
     7
420
 16777215
176
     1
 90
        1
176
     1
 90
        4
176
     1
 62
     7
176
     1
 62
   257
176
     1
 90
        1
176
     1
 90
        1
176
     1
 40
1.0
176
     1
 90
        0
176
     1
 62
   257
176
     1
 40
1.0
176
     1
 90
        1
176
     1
 90
        6
176
     1
 90
        2
176
     1
 62
     7
176
     1
 90
        5
176
     1
 90
        0
176
     1
 90
        0
176
     1
290
     0
176
     1
 90
        1
176
     1
 40
0.0
176
     1
 90
        0
176
     1
290
     1
176
     1
290
     1
176
     1
290
     0
176
     1
290
     0
176
     1
290
     0
176
     1
290
     0
176
     1
290
     0
176
     1
290
     0
176
     1
290
     0
176
     1
 90
       50
176
     1
 40
0.0
176
     1
 40
1.0
176
     1
 90
        0
176
     1
 62
    18
420
        0
176
     1
 90
       50
176
     1
 90
        3
176
     1
 62
     5
420
      255
176
     1
290
     0
176
     1
 90
       50
176
     1
 90
       50
176
     1
 90
       50
176
     1
290
     0
176
     1
 90
       50
176
     1
 62
   256
176
     0
 40
1.0
176
     0
 90
        2
176
     1
  1
strokes_ogs.tif
176
     1
290
     0
176
     1
 40
1.0
176
     1
 40
1.0
176
     1
  0
VISUALSTYLE
  5
A1
102
{ACAD_REACTORS
330
99
102
}
330
99
100
AcDbVisualStyle
  2
3D Hidden
 70
     6
177
     3
291
     0
 70
    58
 90
        1
176
     1
 90
        2
176
     1
 90
        2
176
     1
 90
        0
176
     1
 40
-0.6
176
     1
 40
-30.0
176
     1
 62
     7
420
 16777215
176
     1
 90
        2
176
     1
 90
        2
176
     1
 62
     7
176
     1
 62
   257
176
     1
 90
        2
176
     1
 90
        1
176
     1
 40
40.0
176
     1
 90
        0
176
     1
 62
   257
176
     1
 40
1.0
176
     1
 90
        1
176
     1
 90
        6
176
     1
 90
        2
176
     1
 62
     7
176
     1
 90
        3
176
     1
 90
        0
176
     1
 90
        0
176
     1
290
     0
176
     1
 90
        1
176
     1
 40
0.0
176
     1
 90
        0
176
     1
290
     0
176
     1
290
     1
176
     1
290
     1
176
     1
290
     0
176
     1
290
     0
176
     1
290
     0
176
     1
290
     0
176
     1
290
     0
176
     1
290
     0
176
     1
 90
       50
176
     1
 40
0.0
176
     1
 40
1.0
176
     1
 90
        0
176
     1
 62
    18
420
        0
176
     1
 90
       50
176
     1
 90
        3
176
     1
 62
     5
420
      255
176
     1
290
     0
176
     1
 90
       50
176
     1
 90
       50
176
     1
 90
       50
176
     1
290
     0
176
     1
 90
       50
176
     1
 62
   256
176
     0
 40
1.0
176
     0
 90
        2
176
     1
  1
strokes_ogs.tif
176
     1
290
     0
176
     1
 40
1.0
176
     1
 40
1.0
176
     1
  0
VISUALSTYLE
  5
A0
102
{ACAD_REACTORS
330
99
102
}
330
99
100
AcDbVisualStyle
  2
3dWireframe
 70
     5
177
     3
291
     0
 70
    58
 90
        0
176
     1
 90
        2
176
     1
 90
        1
176
     1
 90
        0
176
     1
 40
-0.6
176
     1
 40
-30.0
176
     1
 62
     7
420
 16777215
176
     1
 90
        1
176
     1
 90
        4
176
     1
 62
     7
176
     1
 62
   257
176
     1
 90
        1
176
     1
 90
        1
176
     1
 40
1.0
176
     1
 90
        0
176
     1
 62
   257
176
     1
 40
1.0
176
     1
 90
        1
176
     1
 90
        6
176
     1
 90
        2
176
     1
 62
     7
176
     1
 90
        5
176
     1
 90
        0
176
     1
 90
        0
176
     1
290
     0
176
     1
 90
        1
176
     1
 40
0.0
176
     1
 90
        0
176
     1
290
     0
176
     1
290
     1
176
     1
290
     1
176
     1
290
     0
176
     1
290
     0
176
     1
290
     0
176
     1
290
     0
176
     1
290
     0
176
     1
290
     0
176
     1
 90
       50
176
     1
 40
0.0
176
     1
 40
1.0
176
     1
 90
        0
176
     1
 62
    18
420
        0
176
     1
 90
       50
176
     1
 90
        3
176
     1
 62
     5
420
      255
176
     1
290
     0
176
     1
 90
       50
176
     1
 90
       50
176
     1
 90
       50
176
     1
290
     0
176
     1
 90
       50
176
     1
 62
   256
176
     0
 40
1.0
176
     0
 90
        2
176
     1
  1
strokes_ogs.tif
176
     1
290
     0
176
     1
 40
1.0
176
     1
 40
1.0
176
     1
  0
VISUALSTYLE
  5
9E
102
{ACAD_REACTORS
330
99
102
}
330
99
100
AcDbVisualStyle
  2
Basic
 70
     7
177
     3
291
     1
 70
    58
 90
        1
176
     1
 90
        0
176
     1
 90
        1
176
     1
 90
        0
176
     1
 40
-0.6
176
     1
 40
-30.0
176
     1
 62
     7
420
 16777215
176
     1
 90
        0
176
     1
 90
        4
176
     1
 62
     7
176
     1
 62
   257
176
     1
 90
        1
176
     1
 90
        1
176
     1
 40
1.0
176
     1
 90
        8
176
     1
 62
     7
176
     1
 40
1.0
176
     1
 90
        1
176
     1
 90
        6
176
     1
 90
        2
176
     1
 62
     7
176
     1
 90
        5
176
     1
 90
        0
176
     1
 90
        0
176
     1
290
     0
176
     1
 90
        1
176
     1
 40
0.0
176
     1
 90
        0
176
     1
290
     0
176
     1
290
     1
176
     1
290
     1
176
     1
290
     0
176
     1
290
     0
176
     1
290
     0
176
     1
290
     0
176
     1
290
     0
176
     1
290
     0
176
     1
 90
       50
176
     1
 40
0.0
176
     1
 40
1.0
176
     1
 90
        0
176
     1
 62
    18
420
        0
176
     1
 90
       50
176
     1
 90
        3
176
     1
 62
     5
420
      255
176
     1
290
     0
176
     1
 90
       50
176
     1
 90
       50
176
     1
 90
       50
176
     1
290
     0
176
     1
 90
       50
176
     1
 62
   256
176
     0
 40
1.0
176
     0
 90
        2
176
     1
  1
strokes_ogs.tif
176
     1
290
     0
176
     1
 40
1.0
176
     1
 40
1.0
176
     1
  0
VISUALSTYLE
  5
A5
102
{ACAD_REACTORS
330
99
102
}
330
99
100
AcDbVisualStyle
  2
Brighten
 70
    12
177
     3
291
     1
 70
    58
 90
        2
176
     1
 90
        2
176
     1
 90
        1
176
     1
 90
        0
176
     1
 40
-0.6
176
     1
 40
-30.0
176
     1
 62
     7
420
 16777215
176
     1
 90
        1
176
     1
 90
        4
176
     1
 62
     7
176
     1
 62
   257
176
     1
 90
        1
176
     1
 90
        1
176
     1
 40
1.0
176
     1
 90
        8
176
     1
 62
     7
176
     1
 40
1.0
176
     1
 90
        1
176
     1
 90
        6
176
     1
 90
        2
176
     1
 62
     7
176
     1
 90
        5
176
     1
 90
        0
176
     1
 90
        0
176
     1
290
     0
176
     1
 90
        1
176
     1
 40
50.0
176
     1
 90
        0
176
     1
290
     0
176
     1
290
     1
176
     1
290
     1
176
     1
290
     0
176
     1
290
     0
176
     1
290
     0
176
     1
290
     0
176
     1
290
     0
176
     1
290
     0
176
     1
 90
       50
176
     1
 40
0.0
176
     1
 40
1.0
176
     1
 90
        0
176
     1
 62
    18
420
        0
176
     1
 90
       50
176
     1
 90
        3
176
     1
 62
     5
420
      255
176
     1
290
     0
176
     1
 90
       50
176
     1
 90
       50
176
     1
 90
       50
176
     1
290
     0
176
     1
 90
       50
176
     1
 62
   256
176
     0
 40
1.0
176
     0
 90
        2
176
     1
  1
strokes_ogs.tif
176
     1
290
     0
176
     1
 40
1.0
176
     1
 40
1.0
176
     1
  0
VISUALSTYLE
  5
A9
102
{ACAD_REACTORS
330
99
102
}
330
99
100
AcDbVisualStyle
  2
ColorChange
 70
    16
177
     3
291
     1
 70
    58
 90
        2
176
     1
 90
        2
176
     1
 90
        3
176
     1
 90
        0
176
     1
 40
-0.6
176
     1
 40
-30.0
176
     1
 62
     8
420
  8421504
176
     1
 90
        1
176
     1
 90
        4
176
     1
 62
     7
176
     1
 62
   257
176
     1
 90
        1
176
     1
 90
        1
176
     1
 40
1.0
176
     1
 90
        8
176
     1
 62
     8
420
  8421504
176
     1
 40
1.0
176
     1
 90
        1
176
     1
 90
        6
176
     1
 90
        2
176
     1
 62
     7
176
     1
 90
        5
176
     1
 90
        0
176
     1
 90
        0
176
     1
290
     0
176
     1
 90
        1
176
     1
 40
0.0
176
     1
 90
        0
176
     1
290
     0
176
     1
290
     1
176
     1
290
     1
176
     1
290
     0
176
     1
290
     0
176
     1
290
     0
176
     1
290
     0
176
     1
290
     0
176
     1
290
     0
176
     1
 90
       50
176
     1
 40
0.0
176
     1
 40
1.0
176
     1
 90
        0
176
     1
 62
    18
420
        0
176
     1
 90
       50
176
     1
 90
        3
176
     1
 62
     5
420
      255
176
     1
290
     0
176
     1
 90
       50
176
     1
 90
       50
176
     1
 90
       50
176
     1
290
     0
176
     1
 90
       50
176
     1
 62
   256
176
     0
 40
1.0
176
     0
 90
        2
176
     1
  1
strokes_ogs.tif
176
     1
290
     0
176
     1
 40
1.0
176
     1
 40
1.0
176
     1
  0
VISUALSTYLE
  5
A2
102
{ACAD_REACTORS
330
99
102
}
330
99
100
AcDbVisualStyle
  2
Conceptual
 70
     9
177
     3
291
     0
 70
    58
 90
        3
176
     1
 90
        2
176
     1
 90
        1
176
     1
 90
        0
176
     1
 40
-0.6
176
     1
 40
-30.0
176
     1
 62
     7
420
 16777215
176
     1
 90
        2
176
     1
 90
        2
176
     1
 62
     7
176
     1
 62
   257
176
     1
 90
        1
176
     1
 90
        1
176
     1
 40
40.0
176
     1
 90
        8
176
     1
 62
     7
176
     1
 40
1.0
176
     1
 90
        1
176
     1
 90
        6
176
     1
 90
        2
176
     1
 62
     7
176
     1
 90
        3
176
     1
 90
        0
176
     1
 90
        0
176
     1
290
     0
176
     1
 90
        1
176
     1
 40
0.0
176
     1
 90
        0
176
     1
290
     0
176
     1
290
     1
176
     1
290
     1
176
     1
290
     0
176
     1
290
     0
176
     1
290
     0
176
     1
290
     0
176
     1
290
     0
176
     1
290
     0
176
     1
 90
       50
176
     1
 40
0.0
176
     1
 40
1.0
176
     1
 90
        0
176
     1
 62
    18
420
        0
176
     1
 90
       50
176
     1
 90
        3
176
     1
 62
     5
420
      255
176
     1
290
     0
176
     1
 90
       50
176
     1
 90
       50
176
     1
 90
       50
176
     1
290
     0
176
     1
 90
       50
176
     1
 62
   256
176
     0
 40
1.0
176
     0
 90
        2
176
     1
  1
strokes_ogs.tif
176
     1
290
     0
176
     1
 40
1.0
176
     1
 40
1.0
176
     1
  0
VISUALSTYLE
  5
A4
102
{ACAD_REACTORS
330
99
102
}
330
99
100
AcDbVisualStyle
  2
Dim
 70
    11
177
     3
291
     1
 70
    58
 90
        2
176
     1
 90
        2
176
     1
 90
        1
176
     1
 90
        0
176
     1
 40
-0.6
176
     1
 40
-30.0
176
     1
 62
     7
420
 16777215
176
     1
 90
        1
176
     1
 90
        4
176
     1
 62
     7
176
     1
 62
   257
176
     1
 90
        1
176
     1
 90
        1
176
     1
 40
1.0
176
     1
 90
        8
176
     1
 62
     7
176
     1
 40
1.0
176
     1
 90
        1
176
     1
 90
        6
176
     1
 90
        2
176
     1
 62
     7
176
     1
 90
        5
176
     1
 90
        0
176
     1
 90
        0
176
     1
290
     0
176
     1
 90
        1
176
     1
 40
-50.0
176
     1
 90
        0
176
     1
290
     0
176
     1
290
     1
176
     1
290
     1
176
     1
290
     0
176
     1
290
     0
176
     1
290
     0
176
     1
290
     0
176
     1
290
     0
176
     1
290
     0
176
     1
 90
       50
176
     1
 40
0.0
176
     1
 40
1.0
176
     1
 90
        0
176
     1
 62
    18
420
        0
176
     1
 90
       50
176
     1
 90
        3
176
     1
 62
     5
420
      255
176
     1
290
     0
176
     1
 90
       50
176
     1
 90
       50
176
     1
 90
       50
176
     1
290
     0
176
     1
 90
       50
176
     1
 62
   256
176
     0
 40
1.0
176
     0
 90
        2
176
     1
  1
strokes_ogs.tif
176
     1
290
     0
176
     1
 40
1.0
176
     1
 40
1.0
176
     1
  0
VISUALSTYLE
  5
E7
102
{ACAD_REACTORS
330
99
102
}
330
99
100
AcDbVisualStyle
  2
EdgeColorOff
 70
    22
177
     3
291
     1
 70
    58
 90
        2
176
     0
 90
        2
176
     0
 90
        0
176
     0
 90
        0
176
     0
 40
0.6
176
     0
 40
30.0
176
     0
 62
     7
420
 16777215
176
     0
 90
        1
176
     0
 90
        4
176
     0
 62
     7
176
     0
 62
   257
176
     0
 90
        1
176
     0
 90
        1
176
     0
 40
1.0
176
     0
 90
        8
176
     2
 62
     7
176
     0
 40
1.0
176
     0
 90
        1
176
     0
 90
        6
176
     0
 90
        2
176
     0
 62
     7
176
     0
 90
        5
176
     0
 90
        0
176
     0
 90
        0
176
     0
290
     0
176
     0
 90
        1
176
     0
 40
0.0
176
     0
 90
        0
176
     0
290
     0
176
     0
290
     1
176
     0
290
     1
176
     0
290
     0
176
     0
290
     0
176
     0
290
     0
176
     0
290
     0
176
     0
290
     0
176
     0
290
     0
176
     0
 90
       50
176
     0
 40
0.0
176
     0
 40
1.0
176
     0
 90
        0
176
     0
 62
    18
420
        0
176
     0
 90
       50
176
     0
 90
        3
176
     0
 62
     5
420
      255
176
     0
290
     0
176
     0
 90
       50
176
     0
 90
       50
176
     0
 90
       50
176
     0
290
     0
176
     0
 90
       50
176
     0
 62
   256
176
     0
 40
1.0
176
     0
 90
        2
176
     0
  1
strokes_ogs.tif
176
     0
290
     0
176
     0
 40
1.0
176
     0
 40
1.0
176
     0
  0
VISUALSTYLE
  5
A8
102
{ACAD_REACTORS
330
99
102
}
330
99
100
AcDbVisualStyle
  2
Facepattern
 70
    15
177
     3
291
     1
 70
    58
 90
        2
176
     1
 90
        2
176
     1
 90
        1
176
     1
 90
        0
176
     1
 40
-0.6
176
     1
 40
-30.0
176
     1
 62
     7
420
 16777215
176
     1
 90
        1
176
     1
 90
        4
176
     1
 62
     7
176
     1
 62
   257
176
     1
 90
        1
176
     1
 90
        1
176
     1
 40
1.0
176
     1
 90
        8
176
     1
 62
     7
176
     1
 40
1.0
176
     1
 90
        1
176
     1
 90
        6
176
     1
 90
        2
176
     1
 62
     7
176
     1
 90
        5
176
     1
 90
        0
176
     1
 90
        0
176
     1
290
     0
176
     1
 90
        1
176
     1
 40
0.0
176
     1
 90
        0
176
     1
290
     0
176
     1
290
     1
176
     1
290
     1
176
     1
290
     0
176
     1
290
     0
176
     1
290
     0
176
     1
290
     0
176
     1
290
     0
176
     1
290
     0
176
     1
 90
       50
176
     1
 40
0.0
176
     1
 40
1.0
176
     1
 90
        0
176
     1
 62
    18
420
        0
176
     1
 90
       50
176
     1
 90
        3
176
     1
 62
     5
420
      255
176
     1
290
     0
176
     1
 90
       50
176
     1
 90
       50
176
     1
 90
       50
176
     1
290
     0
176
     1
 90
       50
176
     1
 62
   256
176
     0
 40
1.0
176
     0
 90
        2
176
     1
  1
strokes_ogs.tif
176
     1
290
     0
176
     1
 40
1.0
176
     1
 40
1.0
176
     1
  0
VISUALSTYLE
  5
9A
102
{ACAD_REACTORS
330
99
102
}
330
99
100
AcDbVisualStyle
  2
Flat
 70
     0
177
     3
291
     1
 70
    58
 90
        2
176
     1
 90
        1
176
     1
 90
        1
176
     1
 90
        2
176
     1
 40
-0.6
176
     1
 40
30.0
176
     1
 62
     7
420
 16777215
176
     1
 90
        0
176
     1
 90
        4
176
     1
 62
     7
176
     1
 62
   257
176
     1
 90
        1
176
     1
 90
        1
176
     1
 40
1.0
176
     1
 90
        8
176
     1
 62
     7
176
     1
 40
1.0
176
     1
 90
        1
176
     1
 90
        6
176
     1
 90
        2
176
     1
 62
     7
176
     1
 90
        5
176
     1
 90
        0
176
     1
 90
        0
176
     1
290
     0
176
     1
 90
        1
176
     1
 40
0.0
176
     1
 90
        0
176
     1
290
     0
176
     1
290
     1
176
     1
290
     1
176
     1
290
     0
176
     1
290
     0
176
     1
290
     0
176
     1
290
     0
176
     1
290
     0
176
     1
290
     0
176
     1
 90
       50
176
     1
 40
0.0
176
     1
 40
1.0
176
     1
 90
        0
176
     1
 62
    18
420
        0
176
     1
 90
       50
176
     1
 90
        3
176
     1
 62
     5
420
      255
176
     1
290
     0
176
     1
 90
       50
176
     1
 90
       50
176
     1
 90
       50
176
     1
290
     0
176
     1
 90
       50
176
     1
 62
   256
176
     0
 40
1.0
176
     0
 90
        2
176
     1
  1
strokes_ogs.tif
176
     1
290
     0
176
     1
 40
1.0
176
     1
 40
1.0
176
     1
  0
VISUALSTYLE
  5
9B
102
{ACAD_REACTORS
330
99
102
}
330
99
100
AcDbVisualStyle
  2
FlatWithEdges
 70
     1
177
     3
291
     1
 70
    58
 90
        2
176
     1
 90
        1
176
     1
 90
        1
176
     1
 90
        2
176
     1
 40
-0.6
176
     1
 40
30.0
176
     1
 62
     7
420
 16777215
176
     1
 90
        1
176
     1
 90
        4
176
     1
 62
     7
176
     1
 62
   257
176
     1
 90
        1
176
     1
 90
        1
176
     1
 40
1.0
176
     1
 90
        0
176
     1
 62
   257
176
     1
 40
1.0
176
     1
 90
        1
176
     1
 90
        6
176
     1
 90
        2
176
     1
 62
     7
176
     1
 90
        5
176
     1
 90
        0
176
     1
 90
        0
176
     1
290
     0
176
     1
 90
        1
176
     1
 40
0.0
176
     1
 90
        0
176
     1
290
     0
176
     1
290
     1
176
     1
290
     1
176
     1
290
     0
176
     1
290
     0
176
     1
290
     0
176
     1
290
     0
176
     1
290
     0
176
     1
290
     0
176
     1
 90
       50
176
     1
 40
0.0
176
     1
 40
1.0
176
     1
 90
        0
176
     1
 62
    18
420
        0
176
     1
 90
       50
176
     1
 90
        3
176
     1
 62
     5
420
      255
176
     1
290
     0
176
     1
 90
       50
176
     1
 90
       50
176
     1
 90
       50
176
     1
290
     0
176
     1
 90
       50
176
     1
 62
   256
176
     0
 40
1.0
176
     0
 90
        2
176
     1
  1
strokes_ogs.tif
176
     1
290
     0
176
     1
 40
1.0
176
     1
 40
1.0
176
     1
  0
VISUALSTYLE
  5
9C
102
{ACAD_REACTORS
330
99
102
}
330
99
100
AcDbVisualStyle
  2
Gouraud
 70
     2
177
     3
291
     1
 70
    58
 90
        2
176
     1
 90
        2
176
     1
 90
        1
176
     1
 90
        2
176
     1
 40
-0.6
176
     1
 40
30.0
176
     1
 62
     7
420
 16777215
176
     1
 90
        0
176
     1
 90
        4
176
     1
 62
     7
176
     1
 62
   257
176
     1
 90
        1
176
     1
 90
        1
176
     1
 40
1.0
176
     1
 90
        0
176
     1
 62
     7
176
     1
 40
1.0
176
     1
 90
        1
176
     1
 90
        6
176
     1
 90
        2
176
     1
 62
     7
176
     1
 90
        5
176
     1
 90
        0
176
     1
 90
        0
176
     1
290
     0
176
     1
 90
        1
176
     1
 40
0.0
176
     1
 90
        0
176
     1
290
     0
176
     1
290
     1
176
     1
290
     1
176
     1
290
     0
176
     1
290
     0
176
     1
290
     0
176
     1
290
     0
176
     1
290
     0
176
     1
290
     0
176
     1
 90
       50
176
     1
 40
0.0
176
     1
 40
1.0
176
     1
 90
        0
176
     1
 62
    18
420
        0
176
     1
 90
       50
176
     1
 90
        3
176
     1
 62
     5
420
      255
176
     1
290
     0
176
     1
 90
       50
176
     1
 90
       50
176
     1
 90
       50
176
     1
290
     0
176
     1
 90
       50
176
     1
 62
   256
176
     0
 40
1.0
176
     0
 90
        2
176
     1
  1
strokes_ogs.tif
176
     1
290
     0
176
     1
 40
1.0
176
     1
 40
1.0
176
     1
  0
VISUALSTYLE
  5
9D
102
{ACAD_REACTORS
330
99
102
}
330
99
100
AcDbVisualStyle
  2
GouraudWithEdges
 70
     3
177
     3
291
     1
 70
    58
 90
        2
176
     1
 90
        2
176
     1
 90
        1
176
     1
 90
        2
176
     1
 40
-0.6
176
     1
 40
30.0
176
     1
 62
     7
420
 16777215
176
     1
 90
        1
176
     1
 90
        4
176
     1
 62
     7
176
     1
 62
   257
176
     1
 90
        1
176
     1
 90
        1
176
     1
 40
1.0
176
     1
 90
        0
176
     1
 62
   257
176
     1
 40
1.0
176
     1
 90
        1
176
     1
 90
        6
176
     1
 90
        2
176
     1
 62
     7
176
     1
 90
        5
176
     1
 90
        0
176
     1
 90
        0
176
     1
290
     0
176
     1
 90
        1
176
     1
 40
0.0
176
     1
 90
        0
176
     1
290
     0
176
     1
290
     1
176
     1
290
     1
176
     1
290
     0
176
     1
290
     0
176
     1
290
     0
176
     1
290
     0
176
     1
290
     0
176
     1
290
     0
176
     1
 90
       50
176
     1
 40
0.0
176
     1
 40
1.0
176
     1
 90
        0
176
     1
 62
    18
420
        0
176
     1
 90
       50
176
     1
 90
        3
176
     1
 62
     5
420
      255
176
     1
290
     0
176
     1
 90
       50
176
     1
 90
       50
176
     1
 90
       50
176
     1
290
     0
176
     1
 90
       50
176
     1
 62
   256
176
     0
 40
1.0
176
     0
 90
        2
176
     1
  1
strokes_ogs.tif
176
     1
290
     0
176
     1
 40
1.0
176
     1
 40
1.0
176
     1
  0
VISUALSTYLE
  5
E4
102
{ACAD_REACTORS
330
99
102
}
330
99
100
AcDbVisualStyle
  2
Hidden
 70
     6
177
     3
291
     0
 70
    58
 90
        1
176
     1
 90
        2
176
     1
 90
        2
176
     1
 90
        0
176
     1
 40
0.6
176
     1
 40
30.0
176
     1
 62
     7
420
 16777215
176
     1
 90
        2
176
     1
 90
        2
176
     1
 62
     7
176
     1
 62
   257
176
     1
 90
        2
176
     1
 90
        1
176
     1
 40
40.0
176
     1
 90
        0
176
     1
 62
   257
176
     1
 40
1.0
176
     1
 90
        1
176
     1
 90
        6
176
     1
 90
        2
176
     1
 62
     7
176
     1
 90
        3
176
     1
 90
        0
176
     1
 90
        0
176
     1
290
     0
176
     1
 90
        1
176
     1
 40
0.0
176
     1
 90
        0
176
     1
290
     0
176
     1
290
     1
176
     1
290
     1
176
     1
290
     0
176
     1
290
     0
176
     1
290
     0
176
     1
290
     0
176
     1
290
     0
176
     1
290
     0
176
     1
 90
       50
176
     1
 40
0.0
176
     1
 40
1.0
176
     1
 90
        0
176
     1
 62
    18
420
        0
176
     1
 90
       50
176
     1
 90
        3
176
     1
 62
     5
420
      255
176
     1
290
     0
176
     1
 90
       50
176
     1
 90
       50
176
     1
 90
       50
176
     1
290
     0
176
     1
 90
       50
176
     1
 62
   256
176
     0
 40
1.0
176
     0
 90
        2
176
     1
  1
strokes_ogs.tif
176
     1
290
     0
176
     1
 40
1.0
176
     1
 40
1.0
176
     1
  0
VISUALSTYLE
  5
E5
102
{ACAD_REACTORS
330
99
102
}
330
99
100
AcDbVisualStyle
  2
JitterOff
 70
    20
177
     3
291
     1
 70
    58
 90
        2
176
     0
 90
        2
176
     0
 90
        0
176
     0
 90
        0
176
     0
 40
0.6
176
     0
 40
30.0
176
     0
 62
     7
420
 16777215
176
     0
 90
        1
176
     0
 90
        4
176
     0
 62
     7
176
     0
 62
   257
176
     0
 90
        1
176
     0
 90
        1
176
     0
 40
1.0
176
     0
 90
       10
176
     2
 62
     7
176
     0
 40
1.0
176
     0
 90
        1
176
     0
 90
        6
176
     0
 90
        2
176
     0
 62
     7
176
     0
 90
        5
176
     0
 90
        0
176
     0
 90
        0
176
     0
290
     0
176
     0
 90
        1
176
     0
 40
0.0
176
     0
 90
        0
176
     0
290
     0
176
     0
290
     1
176
     0
290
     1
176
     0
290
     0
176
     0
290
     0
176
     0
290
     0
176
     0
290
     0
176
     0
290
     0
176
     0
290
     0
176
     0
 90
       50
176
     0
 40
0.0
176
     0
 40
1.0
176
     0
 90
        0
176
     0
 62
    18
420
        0
176
     0
 90
       50
176
     0
 90
        3
176
     0
 62
     5
420
      255
176
     0
290
     0
176
     0
 90
       50
176
     0
 90
       50
176
     0
 90
       50
176
     0
290
     0
176
     0
 90
       50
176
     0
 62
   256
176
     0
 40
1.0
176
     0
 90
        2
176
     0
  1
strokes_ogs.tif
176
     0
290
     0
176
     0
 40
1.0
176
     0
 40
1.0
176
     0
  0
VISUALSTYLE
  5
A7
102
{ACAD_REACTORS
330
99
102
}
330
99
100
AcDbVisualStyle
  2
Linepattern
 70
    14
177
     3
291
     1
 70
    58
 90
        2
176
     1
 90
        2
176
     1
 90
        1
176
     1
 90
        0
176
     1
 40
-0.6
176
     1
 40
-30.0
176
     1
 62
     7
420
 16777215
176
     1
 90
        1
176
     1
 90
        4
176
     1
 62
     7
176
     1
 62
   257
176
     1
 90
        7
176
     1
 90
        7
176
     1
 40
1.0
176
     1
 90
        8
176
     1
 62
     7
176
     1
 40
1.0
176
     1
 90
        1
176
     1
 90
        6
176
     1
 90
        2
176
     1
 62
     7
176
     1
 90
        5
176
     1
 90
        0
176
     1
 90
        0
176
     1
290
     0
176
     1
 90
        1
176
     1
 40
0.0
176
     1
 90
        0
176
     1
290
     0
176
     1
290
     1
176
     1
290
     1
176
     1
290
     0
176
     1
290
     0
176
     1
290
     0
176
     1
290
     0
176
     1
290
     0
176
     1
290
     0
176
     1
 90
       50
176
     1
 40
0.0
176
     1
 40
1.0
176
     1
 90
        0
176
     1
 62
    18
420
        0
176
     1
 90
       50
176
     1
 90
        3
176
     1
 62
     5
420
      255
176
     1
290
     0
176
     1
 90
       50
176
     1
 90
       50
176
     1
 90
       50
176
     1
290
     0
176
     1
 90
       50
176
     1
 62
   256
176
     0
 40
1.0
176
     0
 90
        2
176
     1
  1
strokes_ogs.tif
176
     1
290
     0
176
     1
 40
1.0
176
     1
 40
1.0
176
     1
  0
VISUALSTYLE
  5
E6
102
{ACAD_REACTORS
330
99
102
}
330
99
100
AcDbVisualStyle
  2
OverhangOff
 70
    21
177
     3
291
     1
 70
    58
 90
        2
176
     0
 90
        2
176
     0
 90
        0
176
     0
 90
        0
176
     0
 40
0.6
176
     0
 40
30.0
176
     0
 62
     7
420
 16777215
176
     0
 90
        1
176
     0
 90
        4
176
     0
 62
     7
176
     0
 62
   257
176
     0
 90
        1
176
     0
 90
        1
176
     0
 40
1.0
176
     0
 90
        9
176
     2
 62
     7
176
     0
 40
1.0
176
     0
 90
        1
176
     0
 90
        6
176
     0
 90
        2
176
     0
 62
     7
176
     0
 90
        5
176
     0
 90
        0
176
     0
 90
        0
176
     0
290
     0
176
     0
 90
        1
176
     0
 40
0.0
176
     0
 90
        0
176
     0
290
     0
176
     0
290
     1
176
     0
290
     1
176
     0
290
     0
176
     0
290
     0
176
     0
290
     0
176
     0
290
     0
176
     0
290
     0
176
     0
290
     0
176
     0
 90
       50
176
     0
 40
0.0
176
     0
 40
1.0
176
     0
 90
        0
176
     0
 62
    18
420
        0
176
     0
 90
       50
176
     0
 90
        3
176
     0
 62
     5
420
      255
176
     0
290
     0
176
     0
 90
       50
176
     0
 90
       50
176
     0
 90
       50
176
     0
290
     0
176
     0
 90
       50
176
     0
 62
   256
176
     0
 40
1.0
176
     0
 90
        2
176
     0
  1
strokes_ogs.tif
176
     0
290
     0
176
     0
 40
1.0
176
     0
 40
1.0
176
     0
  0
VISUALSTYLE
  5
A3
102
{ACAD_REACTORS
330
99
102
}
330
99
100
AcDbVisualStyle
  2
Realistic
 70
     8
177
     3
291
     0
 70
    58
 90
        2
176
     1
 90
        2
176
     1
 90
        1
176
     1
 90
        0
176
     1
 40
-0.6
176
     1
 40
-30.0
176
     1
 62
     7
420
 16777215
176
     1
 90
        1
176
     1
 90
        0
176
     1
 62
     7
176
     1
 62
   257
176
     1
 90
        1
176
     1
 90
        1
176
     1
 40
1.0
176
     1
 90
        8
176
     1
 62
     8
420
  7895160
176
     1
 40
1.0
176
     1
 90
        1
176
     1
 90
        6
176
     1
 90
        2
176
     1
 62
     7
176
     1
 90
        5
176
     1
 90
        0
176
     1
 90
        0
176
     1
290
     0
176
     1
 90
       13
176
     1
 40
0.0
176
     1
 90
        0
176
     1
290
     0
176
     1
290
     1
176
     1
290
     1
176
     1
290
     0
176
     1
290
     0
176
     1
290
     0
176
     1
290
     0
176
     1
290
     0
176
     1
290
     0
176
     1
 90
       50
176
     1
 40
0.0
176
     1
 40
1.0
176
     1
 90
        0
176
     1
 62
    18
420
        0
176
     1
 90
       50
176
     1
 90
        3
176
     1
 62
     5
420
      255
176
     1
290
     0
176
     1
 90
       50
176
     1
 90
       50
176
     1
 90
       50
176
     1
290
     0
176
     1
 90
       50
176
     1
 62
   256
176
     0
 40
1.0
176
     0
 90
        2
176
     1
  1
strokes_ogs.tif
176
     1
290
     0
176
     1
 40
1.0
176
     1
 40
1.0
176
     1
  0
VISUALSTYLE
  5
EC
102
{ACAD_REACTORS
330
99
102
}
330
99
100
AcDbVisualStyle
  2
Shaded
 70
    27
177
     3
291
     0
 70
    58
 90
        2
176
     1
 90
        2
176
     1
 90
        1
176
     1
 90
        2
176
     1
 40
0.6
176
     1
 40
30.0
176
     1
 62
     7
420
 16777215
176
     1
 90
        0
176
     1
 90
        4
176
     1
 62
     7
176
     1
 62
   257
176
     1
 90
        1
176
     1
 90
        1
176
     1
 40
1.0
176
     1
 90
        8
176
     1
 62
   257
176
     1
 40
1.0
176
     1
 90
        1
176
     1
 90
        6
176
     1
 90
        2
176
     1
 62
     8
420
  7895160
176
     1
 90
        3
176
     1
 90
        0
176
     1
 90
        0
176
     1
290
     0
176
     1
 90
        5
176
     1
 40
0.0
176
     1
 90
        0
176
     1
290
     0
176
     1
290
     1
176
     1
290
     1
176
     1
290
     0
176
     1
290
     0
176
     1
290
     0
176
     1
290
     0
176
     1
290
     0
176
     1
290
     0
176
     1
 90
       50
176
     1
 40
0.0
176
     1
 40
1.0
176
     1
 90
        0
176
     1
 62
    18
420
        0
176
     1
 90
       50
176
     1
 90
        3
176
     1
 62
     5
420
      255
176
     1
290
     0
176
     1
 90
       50
176
     1
 90
       50
176
     1
 90
       50
176
     1
290
     0
176
     1
 90
       50
176
     1
 62
   256
176
     0
 40
1.0
176
     0
 90
        2
176
     1
  1
strokes_ogs.tif
176
     1
290
     0
176
     1
 40
1.0
176
     1
 40
1.0
176
     1
  0
VISUALSTYLE
  5
EB
102
{ACAD_REACTORS
330
99
102
}
330
99
100
AcDbVisualStyle
  2
Shaded with edges
 70
    26
177
     3
291
     0
 70
    58
 90
        2
176
     1
 90
        2
176
     1
 90
        1
176
     1
 90
        2
176
     1
 40
0.6
176
     1
 40
30.0
176
     1
 62
     7
420
 16777215
176
     1
 90
        1
176
     1
 90
       10
176
     1
 62
     7
176
     1
 62
   257
176
     1
 90
        2
176
     1
 90
        1
176
     1
 40
1.0
176
     1
 90
        8
176
     1
 62
   257
176
     1
 40
1.0
176
     1
 90
        1
176
     1
 90
        6
176
     1
 90
        2
176
     1
 62
     7
176
     1
 90
        3
176
     1
 90
        0
176
     1
 90
        0
176
     1
290
     0
176
     1
 90
        5
176
     1
 40
0.0
176
     1
 90
        0
176
     1
290
     0
176
     1
290
     1
176
     1
290
     1
176
     1
290
     0
176
     1
290
     0
176
     1
290
     0
176
     1
290
     0
176
     1
290
     0
176
     1
290
     0
176
     1
 90
       50
176
     1
 40
0.0
176
     1
 40
1.0
176
     1
 90
        0
176
     1
 62
    18
420
        0
176
     1
 90
       50
176
     1
 90
        3
176
     1
 62
     5
420
      255
176
     1
290
     0
176
     1
 90
       50
176
     1
 90
       50
176
     1
 90
       50
176
     1
290
     0
176
     1
 90
       50
176
     1
 62
   256
176
     0
 40
1.0
176
     0
 90
        2
176
     1
  1
strokes_ogs.tif
176
     1
290
     0
176
     1
 40
1.0
176
     1
 40
1.0
176
     1
  0
VISUALSTYLE
  5
E8
102
{ACAD_REACTORS
330
99
102
}
330
99
100
AcDbVisualStyle
  2
Shades of Gray
 70
    23
177
     3
291
     0
 70
    58
 90
        2
176
     1
 90
        2
176
     1
 90
        3
176
     1
 90
        0
176
     1
 40
0.6
176
     1
 40
30.0
176
     1
 62
     7
420
 16777215
176
     1
 90
        2
176
     1
 90
        2
176
     1
 62
     7
176
     1
 62
     7
176
     1
 90
        1
176
     1
 90
        1
176
     1
 40
40.0
176
     1
 90
        8
176
     1
 62
     7
176
     1
 40
1.0
176
     1
 90
        1
176
     1
 90
        6
176
     1
 90
        2
176
     1
 62
     7
176
     1
 90
        3
176
     1
 90
        0
176
     1
 90
        0
176
     1
290
     0
176
     1
 90
        1
176
     1
 40
0.0
176
     1
 90
        0
176
     1
290
     0
176
     1
290
     1
176
     1
290
     1
176
     1
290
     0
176
     1
290
     0
176
     1
290
     0
176
     1
290
     0
176
     1
290
     0
176
     1
290
     0
176
     1
 90
       50
176
     1
 40
0.0
176
     1
 40
1.0
176
     1
 90
        0
176
     1
 62
    18
420
        0
176
     1
 90
       50
176
     1
 90
        3
176
     1
 62
     5
420
      255
176
     1
290
     0
176
     1
 90
       50
176
     1
 90
       50
176
     1
 90
       50
176
     1
290
     0
176
     1
 90
       50
176
     1
 62
   256
176
     0
 40
1.0
176
     0
 90
        2
176
     1
  1
strokes_ogs.tif
176
     1
290
     0
176
     1
 40
1.0
176
     1
 40
1.0
176
     1
  0
VISUALSTYLE
  5
E9
102
{ACAD_REACTORS
330
99
102
}
330
99
100
AcDbVisualStyle
  2
Sketchy
 70
    24
177
     3
291
     0
 70
    58
 90
        1
176
     1
 90
        2
176
     1
 90
        2
176
     1
 90
        0
176
     1
 40
0.6
176
     1
 40
30.0
176
     1
 62
     7
420
 16777215
176
     1
 90
        2
176
     1
 90
        2
176
     1
 62
     7
176
     1
 62
     7
176
     1
 90
        1
176
     1
 90
        1
176
     1
 40
40.0
176
     1
 90
       11
176
     1
 62
     7
176
     1
 40
1.0
176
     1
 90
        1
176
     1
 90
        6
176
     1
 90
        2
176
     1
 62
     7
176
     1
 90
        6
176
     1
 90
        0
176
     1
 90
        0
176
     1
290
     0
176
     1
 90
        1
176
     1
 40
0.0
176
     1
 90
        0
176
     1
290
     0
176
     1
290
     1
176
     1
290
     1
176
     1
290
     0
176
     1
290
     0
176
     1
290
     0
176
     1
290
     0
176
     1
290
     0
176
     1
290
     0
176
     1
 90
       50
176
     1
 40
0.0
176
     1
 40
1.0
176
     1
 90
        0
176
     1
 62
    18
420
        0
176
     1
 90
       50
176
     1
 90
        3
176
     1
 62
     5
420
      255
176
     1
290
     0
176
     1
 90
       50
176
     1
 90
       50
176
     1
 90
       50
176
     1
290
     0
176
     1
 90
       50
176
     1
 62
   256
176
     0
 40
1.0
176
     0
 90
        2
176
     1
  1
strokes_ogs.tif
176
     1
290
     0
176
     1
 40
1.0
176
     1
 40
1.0
176
     1
  0
VISUALSTYLE
  5
A6
102
{ACAD_REACTORS
330
99
102
}
330
99
100
AcDbVisualStyle
  2
Thicken
 70
    13
177
     3
291
     1
 70
    58
 90
        2
176
     1
 90
        2
176
     1
 90
        1
176
     1
 90
        0
176
     1
 40
-0.6
176
     1
 40
-30.0
176
     1
 62
     7
420
 16777215
176
     1
 90
        1
176
     1
 90
        4
176
     1
 62
     7
176
     1
 62
   257
176
     1
 90
        1
176
     1
 90
        1
176
     1
 40
1.0
176
     1
 90
       12
176
     1
 62
     7
176
     1
 40
1.0
176
     1
 90
        1
176
     1
 90
        6
176
     1
 90
        2
176
     1
 62
     7
176
     1
 90
        5
176
     1
 90
        0
176
     1
 90
        0
176
     1
290
     0
176
     1
 90
        1
176
     1
 40
0.0
176
     1
 90
        0
176
     1
290
     0
176
     1
290
     1
176
     1
290
     1
176
     1
290
     0
176
     1
290
     0
176
     1
290
     0
176
     1
290
     0
176
     1
290
     0
176
     1
290
     0
176
     1
 90
       50
176
     1
 40
0.0
176
     1
 40
1.0
176
     1
 90
        0
176
     1
 62
    18
420
        0
176
     1
 90
       50
176
     1
 90
        3
176
     1
 62
     5
420
      255
176
     1
290
     0
176
     1
 90
       50
176
     1
 90
       50
176
     1
 90
       50
176
     1
290
     0
176
     1
 90
       50
176
     1
 62
   256
176
     0
 40
1.0
176
     0
 90
        2
176
     1
  1
strokes_ogs.tif
176
     1
290
     0
176
     1
 40
1.0
176
     1
 40
1.0
176
     1
  0
VISUALSTYLE
  5
E3
102
{ACAD_REACTORS
330
99
102
}
330
99
100
AcDbVisualStyle
  2
Wireframe
 70
     5
177
     3
291
     0
 70
    58
 90
        0
176
     1
 90
        2
176
     1
 90
        0
176
     1
 90
        0
176
     1
 40
0.6
176
     1
 40
30.0
176
     1
 62
     7
420
 16777215
176
     1
 90
        1
176
     1
 90
        4
176
     1
 62
     7
176
     1
 62
   257
176
     1
 90
        1
176
     1
 90
        1
176
     1
 40
1.0
176
     1
 90
        0
176
     1
 62
   257
176
     1
 40
1.0
176
     1
 90
        1
176
     1
 90
        6
176
     1
 90
        2
176
     1
 62
     7
176
     1
 90
        3
176
     1
 90
        0
176
     1
 90
        0
176
     1
290
     0
176
     1
 90
        1
176
     1
 40
0.0
176
     1
 90
        0
176
     1
290
     0
176
     1
290
     1
176
     1
290
     1
176
     1
290
     0
176
     1
290
     0
176
     1
290
     0
176
     1
290
     0
176
     1
290
     0
176
     1
290
     0
176
     1
 90
       50
176
     1
 40
0.0
176
     1
 40
1.0
176
     1
 90
        0
176
     1
 62
    18
420
        0
176
     1
 90
       50
176
     1
 90
        3
176
     1
 62
     5
420
      255
176
     1
290
     0
176
     1
 90
       50
176
     1
 90
       50
176
     1
 90
       50
176
     1
290
     0
176
     1
 90
       50
176
     1
 62
   256
176
     0
 40
1.0
176
     0
 90
        2
176
     1
  1
strokes_ogs.tif
176
     1
290
     0
176
     1
 40
1.0
176
     1
 40
1.0
176
     1
  0
VISUALSTYLE
  5
EA
102
{ACAD_REACTORS
330
99
102
}
330
99
100
AcDbVisualStyle
  2
X-Ray
 70
    25
177
     3
291
     0
 70
    58
 90
        2
176
     1
 90
        2
176
     1
 90
        1
176
     1
 90
        1
176
     1
 40
0.5
176
     1
 40
30.0
176
     1
 62
     7
420
 16777215
176
     1
 90
        1
176
     1
 90
        0
176
     1
 62
     7
176
     1
 62
   257
176
     1
 90
        1
176
     1
 90
        1
176
     1
 40
1.0
176
     1
 90
        8
176
     1
 62
     7
176
     1
 40
1.0
176
     1
 90
        1
176
     1
 90
        6
176
     1
 90
        2
176
     1
 62
     7
176
     1
 90
        3
176
     1
 90
        0
176
     1
 90
        0
176
     1
290
     0
176
     1
 90
       13
176
     1
 40
0.0
176
     1
 90
        0
176
     1
290
     0
176
     1
290
     1
176
     1
290
     1
176
     1
290
     0
176
     1
290
     0
176
     1
290
     0
176
     1
290
     0
176
     1
290
     0
176
     1
290
     0
176
     1
 90
       50
176
     1
 40
0.0
176
     1
 40
1.0
176
     1
 90
        0
176
     1
 62
    18
420
        0
176
     1
 90
       50
176
     1
 90
        3
176
     1
 62
     5
420
      255
176
     1
290
     0
176
     1
 90
       50
176
     1
 90
       50
176
     1
 90
       50
176
     1
290
     0
176
     1
 90
       50
176
     1
 62
   256
176
     0
 40
1.0
176
     0
 90
        2
176
     1
  1
strokes_ogs.tif
176
     1
290
     0
176
     1
 40
1.0
176
     1
 40
1.0
176
     1
  0
DICTIONARYVAR
  5
D8
102
{ACAD_REACTORS
330
66
102
}
330
66
100
DictionaryVariables
280
     0
  1
1:1
  0
DICTIONARYVAR
  5
128
102
{ACAD_REACTORS
330
66
102
}
330
66
100
DictionaryVariables
280
     0
  1
Standard
  0
DICTIONARYVAR
  5
89
102
{ACAD_REACTORS
330
66
102
}
330
66
100
DictionaryVariables
280
     0
  1
Standard
  0
DICTIONARYVAR
  5
67
102
{ACAD_REACTORS
330
66
102
}
330
66
100
DictionaryVariables
280
     0
  1
2
  0
DICTIONARYVAR
  5
6B
102
{ACAD_REACTORS
330
66
102
}
330
66
100
DictionaryVariables
280
     0
  1
1
  0
DICTIONARYVAR
  5
DF
102
{ACAD_REACTORS
330
66
102
}
330
66
100
DictionaryVariables
280
     0
  1
0
  0
DICTIONARYVAR
  5
E0
102
{ACAD_REACTORS
330
66
102
}
330
66
100
DictionaryVariables
280
     0
  1
0
  0
DICTIONARY
  5
12B0
330
87
100
AcDbDictionary
280
     1
281
     1
  3
ACAD_ROUNDTRIP_2008_TABLESTYLE_CELLSTYLEMAP
360
12B1
  0
CELLSTYLEMAP
  5
12B1
102
{ACAD_REACTORS
330
12B0
102
}
330
12B0
100
AcDbCellStyleMap
 90
        3
300
CELLSTYLE
  1
TABLEFORMAT_BEGIN
 90
        5
170
     1
 91
        0
 92
    32768
 62
   257
 93
        1
300
CONTENTFORMAT
  1
CONTENTFORMAT_BEGIN
 90
        0
 91
        0
 92
      512
 93
        0
300

 40
0.0
140
1.0
 94
        5
 62
     0
340
11
144
0.25
309
CONTENTFORMAT_END
171
     0
 94
        6
 95
        1
302
GRIDFORMAT
  1
GRIDFORMAT_BEGIN
 90
        0
 91
        1
 62
     0
 92
       -2
340
0
 93
        0
 40
0.045
309
GRIDFORMAT_END
 95
        2
302
GRIDFORMAT
  1
GRIDFORMAT_BEGIN
 90
        0
 91
        1
 62
     0
 92
       -2
340
0
 93
        0
 40
0.045
309
GRIDFORMAT_END
 95
        4
302
GRIDFORMAT
  1
GRIDFORMAT_BEGIN
 90
        0
 91
        1
 62
     0
 92
       -2
340
0
 93
        0
 40
0.045
309
GRIDFORMAT_END
 95
        8
302
GRIDFORMAT
  1
GRIDFORMAT_BEGIN
 90
        0
 91
        1
 62
     0
 92
       -2
340
0
 93
        0
 40
0.045
309
GRIDFORMAT_END
 95
       16
302
GRIDFORMAT
  1
GRIDFORMAT_BEGIN
 90
        0
 91
        1
 62
     0
 92
       -2
340
0
 93
        0
 40
0.045
309
GRIDFORMAT_END
 95
       32
302
GRIDFORMAT
  1
GRIDFORMAT_BEGIN
 90
        0
 91
        1
 62
     0
 92
       -2
340
0
 93
        0
 40
0.045
309
GRIDFORMAT_END
309
TABLEFORMAT_END
  1
CELLSTYLE_BEGIN
 90
        1
 91
        1
300
_TITLE
309
CELLSTYLE_END
300
CELLSTYLE
  1
TABLEFORMAT_BEGIN
 90
        5
170
     1
 91
        0
 92
        0
 62
   257
 93
        1
300
CONTENTFORMAT
  1
CONTENTFORMAT_BEGIN
 90
        0
 91
        0
 92
      512
 93
        0
300

 40
0.0
140
1.0
 94
        5
 62
     0
340
11
144
0.18
309
CONTENTFORMAT_END
171
     0
 94
        6
 95
        1
302
GRIDFORMAT
  1
GRIDFORMAT_BEGIN
 90
        0
 91
        1
 62
     0
 92
       -2
340
0
 93
        0
 40
0.045
309
GRIDFORMAT_END
 95
        2
302
GRIDFORMAT
  1
GRIDFORMAT_BEGIN
 90
        0
 91
        1
 62
     0
 92
       -2
340
0
 93
        0
 40
0.045
309
GRIDFORMAT_END
 95
        4
302
GRIDFORMAT
  1
GRIDFORMAT_BEGIN
 90
        0
 91
        1
 62
     0
 92
       -2
340
0
 93
        0
 40
0.045
309
GRIDFORMAT_END
 95
        8
302
GRIDFORMAT
  1
GRIDFORMAT_BEGIN
 90
        0
 91
        1
 62
     0
 92
       -2
340
0
 93
        0
 40
0.045
309
GRIDFORMAT_END
 95
       16
302
GRIDFORMAT
  1
GRIDFORMAT_BEGIN
 90
        0
 91
        1
 62
     0
 92
       -2
340
0
 93
        0
 40
0.045
309
GRIDFORMAT_END
 95
       32
302
GRIDFORMAT
  1
GRIDFORMAT_BEGIN
 90
        0
 91
        1
 62
     0
 92
       -2
340
0
 93
        0
 40
0.045
309
GRIDFORMAT_END
309
TABLEFORMAT_END
  1
CELLSTYLE_BEGIN
 90
        2
 91
        1
300
_HEADER
309
CELLSTYLE_END
300
CELLSTYLE
  1
TABLEFORMAT_BEGIN
 90
        5
170
     1
 91
        0
 92
        0
 62
   257
 93
        1
300
CONTENTFORMAT
  1
CONTENTFORMAT_BEGIN
 90
        0
 91
        0
 92
      512
 93
        0
300

 40
0.0
140
1.0
 94
        2
 62
     0
340
11
144
0.18
309
CONTENTFORMAT_END
171
     0
 94
        6
 95
        1
302
GRIDFORMAT
  1
GRIDFORMAT_BEGIN
 90
        0
 91
        1
 62
     0
 92
       -2
340
0
 93
        0
 40
0.045
309
GRIDFORMAT_END
 95
        2
302
GRIDFORMAT
  1
GRIDFORMAT_BEGIN
 90
        0
 91
        1
 62
     0
 92
       -2
340
0
 93
        0
 40
0.045
309
GRIDFORMAT_END
 95
        4
302
GRIDFORMAT
  1
GRIDFORMAT_BEGIN
 90
        0
 91
        1
 62
     0
 92
       -2
340
0
 93
        0
 40
0.045
309
GRIDFORMAT_END
 95
        8
302
GRIDFORMAT
  1
GRIDFORMAT_BEGIN
 90
        0
 91
        1
 62
     0
 92
       -2
340
0
 93
        0
 40
0.045
309
GRIDFORMAT_END
 95
       16
302
GRIDFORMAT
  1
GRIDFORMAT_BEGIN
 90
        0
 91
        1
 62
     0
 92
       -2
340
0
 93
        0
 40
0.045
309
GRIDFORMAT_END
 95
       32
302
GRIDFORMAT
  1
GRIDFORMAT_BEGIN
 90
        0
 91
        1
 62
     0
 92
       -2
340
0
 93
        0
 40
0.045
309
GRIDFORMAT_END
309
TABLEFORMAT_END
  1
CELLSTYLE_BEGIN
 90
        3
 91
        2
300
_DATA
309
CELLSTYLE_END
  0
ENDSEC
  0
SECTION
  2
ACDSDATA
 70
     2
 71
     2
  0
ACDSSCHEMA
 90
        0
  1
AcDb_Thumbnail_Schema
  2
AcDbDs::ID
280
    10
 91
        8
  2
Thumbnail_Data
280
    15
 91
        0
101
ACDSRECORD
 95
        0
 90
        2
  2
AcDbDs::TreatedAsObjectData
280
     1
291
     1
101
ACDSRECORD
 95
        0
 90
        3
  2
AcDbDs::Legacy
280
     1
291
     1
101
ACDSRECORD
  1
AcDbDs::ID
 90
        4
  2
AcDs:Indexable
280
     1
291
     1
101
ACDSRECORD
  1
AcDbDs::ID
 90
        5
  2
AcDbDs::HandleAttribute
280
     7
282
     1
  0
ACDSSCHEMA
 90
        1
  1
AcDb3DSolid_ASM_Data
  2
AcDbDs::ID
280
    10
 91
        8
  2
ASM_Data
280
    15
 91
        0
101
ACDSRECORD
 95
        1
 90
        2
  2
AcDbDs::TreatedAsObjectData
280
     1
291
     1
101
ACDSRECORD
 95
        1
 90
        3
  2
AcDbDs::Legacy
280
     1
291
     1
101
ACDSRECORD
  1
AcDbDs::ID
 90
        4
  2
AcDs:Indexable
280
     1
291
     1
101
ACDSRECORD
  1
AcDbDs::ID
 90
        5
  2
AcDbDs::HandleAttribute
280
     7
282
     1
  0
ACDSSCHEMA
 90
        2
  1
AcDbDs::TreatedAsObjectDataSchema
  2
AcDbDs::TreatedAsObjectData
280
     1
 91
        0
  0
ACDSSCHEMA
 90
        3
  1
AcDbDs::LegacySchema
  2
AcDbDs::Legacy
280
     1
 91
        0
  0
ACDSSCHEMA
 90
        4
  1
AcDbDs::IndexedPropertySchema
  2
AcDs:Indexable
280
     1
 91
        0
  0
ACDSSCHEMA
 90
        5
  1
AcDbDs::HandleAttributeSchema
  2
AcDbDs::HandleAttribute
280
     7
 91
        1
284
     1
  0
ACDSRECORD
 90
        0
  2
AcDbDs::ID
280
    10
320
22
  2
Thumbnail_Data
280
    15
 94
    24737
310
89504E470D0A1A0A0000000D4948445200000100000000620802000000305B9AD4000000097048597300000EC400000EC401952B0E1B0000200049444154789CECBD498C2559762576CEBDCFCCFEE0DFDDC33D3CE6888CCCC879A8813592552C0E0D92552C0E0D41E826A4167A29402D416A0214444854375A9B067A214102
310
24408B862089020448DA34458AEA2645362992CD62B18A55C91A728E8C8CC923C2C3A73F98D97BF768619ED2469BCA45251CC8BBF9111E70F71FF6EF797687738E51124E5594520E0E0E3EEC77F151FCFFC4C6C686BB7FD8EFE2078BF461BF811F386EDEBC79F3C1EDD16CBDA91BA713CA80484B2E908A3E9751628A289117
310
795196C7E6A9AE262A0B6FCE9A5741161A4311650441EA1519E60C451841A02D98240F5A010A28B08212E042AFA0B18099B2A202D450E95AC20A05B380042798733F328402B00C155AA287C215392221440BB2484570A345109260A4C84C93584A69CC1202C62294E8DC2B9126E41209610A4030CB22DD42043DABD4900152
310
36A445C49441A1778BC24299D14AA6A20809321A61A27A392C021EA5CFD127C944315C7AB47F581992590FE40C1F8FEBA64964A272EE4DF9EACE93376EDCF8B013E4078BD3070000B3CDF5F1C6B637A9B6AAA1E70824A7A54C515C4499998F54B2CAA43FEEDA395912ADE219369BC9EA622C661454CA98802468051020C260
310
062DA59925D17A2280001BC1290722E4C60C6652924289B2D21BD4C9480659A2882805131724091D1456B9910A4891734DC93C6011395B4D83770BF74680990D28CD64DFF76B4E4338BDC844160343A2A2A8A14C7285C08E08F3429890C5C6E062898E561D176D3881E8C9020B28C1A0486494521302084AEA08772B412947
310
94505FC3147D0A9C399A778B23096D1F77EFDCB97AFDE2C6F67695BC02A2A852397A7CFC61A7C60F1CA71200B20A563958D38D6E8423399000293AA9062A9A53B99A288200DAC7AC93D34890A84204427048501000193D2D91E6425131A02300466EC3AB303720A43C1CCF60010964C215A489841064108241018A2238BCB8
310
505CA94095A2381D5ECC8D8035A2EAA03C190256D39C401812081A2D3591490B0E3F9A4623D5A19066C800C02A082704C0646101C010AC5D0C23CC208529C402103278200ABD2728912C44072578CF200C102C0900BD7747EA46D38DE3A3E3665A5FBC72F9C1A30793AD0D0FCFC8A225DA8797111F3C4E25004883D1BD96B9
310
01A419C340C8C2C0AE6F52B556A5E4D349290FAC31A16AB66A6A85012F20688224A70404910250111315A5F45C65ACAD191110D388400002C5E1406750053041A4835BA329C9BDE5711B99510260A86BFBD1A81185928328B476F5C89A495F72A49191089568330DA5F4B1B4DC1503C7E792103CC165695BB9179A8B840834
310
B4CDA629A10765A1E8092328CAA0800761B082700001420195B68DF19A88907AB2484080AC547A184083307CBBA2073A9A0B2C4B473F6A2663DFEC7277A0F9DAC666B3BE363F3858ACBA513D4AAC050693728EF411007E58D1E68C821C4A1229852AA40A5A314ACE8BFD033BC369350340C55161212AA009ADA0A4D29B5381
310
50409DA4100A5ABAA1520981EA75BCF788A9425507D1A348AC8D591291851411406F74314B63E3706B515E1E1DDDC3F2506BE743F5E26099B666545722FAE5638DCE9061F33DAF1AA8425585A2E492F351EE96297751BA66B2A11A8959F09E6A57CBA3470FB7CE5F6A921B94C120CE7832D29C2B45E9FBE41508959201A114
310
738059312A5988C3FDC7E37AEDF0F1BE5F4A5E7B270672217B2845E9D5B7A81ACAA318A2D03B05540AC0904571E39566BDB254BB3FDEDF5BE6562458717DD3C107C70BAA75A6E8BBDAB98E53D601E39402608C189B55C96B38289A4680D3C76E3925DFDE9E255F742B98CD4375828155A0B1540924330D2698227CC2105548
310
A3D11C010330AAECC2C5B5AA924AB6BA020A5013156850846AB0336452622804ADFA4CA82F799C4CCD38F2B1596ACE5F9832BAC59EAF8E6894F5298D5DC9535550265664D57CF5A8E2A86BC63E9E987253254B6E8C200B7D52AFD7755A4BA93653E44C02D6A91CF65D8E12B4715DD702CC29EB15619149D2B2D818218CB6CE
310
D656F964B6512700BDB107024100962AD5554163A122A384AAA6DCD84A6625149535ABBCAAEA69D7CDB766A3B551C01AA51A3ECA348390EBE41EDD6A5455F347F30F39337EF03895002000D1045A98AC404ECA8D50022AF70606A81341D42183468A0414416E06B88606B654B44215C800880E0122644E8BD27B0245003083
310
8CC5048161C31761501026CCFB36F2025553D757FBBC40E9653593BB5233BD68EBD77A5A4F389329CCC022238236DA7C5232481500442585E47048995284BB3B3D49C124081060F39215328928042D9C8C4C19CC498124093384A746202B109069B87801738882481848B2AA0C2904CA489E947C691C657ED8DBB2284AD1B8
310
0E443EBE93D62FA46AD6A35084C1A3B364F41AF808003F94C860362528C95BC88430822C808504100AB20C9FB142D1D15C320BE49C2BAF0048889229A7BA8424074100261968C1E408805201C0A038FC64A9500E929201943254414C1308704BB691210A5D084EB7286401448A2C309304644140114B948E20981401135000
310
0DDD06202022F76E4904248820C020863E5B30B2904E90340081704934C3F05F0813DC6CB8344530C286665D2025C800D28DA28AC1139409A40AD10494A3A35555B3DD38EBF1B9200B05D442A1D57D3E8A7EAEB2FA70B3E283C5A90440081008CB54E4DEAD2A18A69943ABAA2C65308325729F736328A5C85404D13A05050A
310
0176084414AA0B19C22C091C3AC52C1620439265A00701120CA8070AD89209CA82831930B2282C22141982BC44C9E6460638A475411808A090A60820C4E16E545424014582D30048000851EE3982501F2D4B7833094220E88089458A00875541F114280A181520480154401C8EFF61D161A07472D56443C75D862FC08200E1
310
C1A04D439D234908456818033BC85021E532AFD6E9EB30031E7E8859F1C1E25402400054182804BD9210C2D1E1C1B2EDA6D3E9E1629EC8DED14C277DC9A5E4AC94E82AB92F7DE25806CA42C1080025D427090873214EAA0445902100C880A4CC6242A1814621108015B04899A8864C551420147DF4649DC9AC4059D19A2C64
310
6332CF0AA8EC3D7ADC44A4C968D5B6ACC66DC46CB646A84821541684B552809D649203810878899C4A2E9680E8210059560310B2C2882C157AA630E4BF042947B4848385EA691D0734CA650519A24956B2D17A40059916640F0848A8555AA1E450A1839E69B9E44E72A8022214B014F9434C890F1CA71200009C0C6318EB20
310
A862FCA33FF8C33FFFE33F7EF9E31FFBE7BFFBBBE7B6B75E78E9A59FF9E55F2AED225589695437B55555E523980D758B2300AB89F09A34D2387402840B2DD12828884685410D588386524AA9DC7B88114ECB400292C2884018AD80B05AB927595B3256A1E8739FEA910386A854FEE0B77FFB8DEF7DF7DA134F7CF32FBF71F5
310
E9A7AF5CBBF6635FFCE29973E71DC11246178BC124203AF8B0658041568D9C1549019545051854895401411A68202025C470D003A0B126998BA524C2481B9A09532F6F2037379E6C116A5A07F546C8139904B311DA8396314AE3904830D525E00A93121530323EE49CF840714A019009330E35891C12305BDF68D6D63EF785
310
2F7CECB39FBEF3C69BEB9B1BEF7EF77B745FF6F9F9975F5C2CBAF58D51013094C2160C0A516843511084478EC8F4FAFDC93A4C5148D2286028BE252348385899094392160E6F86897422C8B0AA29A550E6344AC97D95A3AEAA020076F6C2A5C70F1E5CBE72F9339FFEEC723EEFD4EDEFDE6B92BD75FBD6BBEFBC3B6E9AA3E3
310
238CC6EB5B5B93E96C797CF4C51FFF7128C0900C281C6E3E20890464C0E001245891820CB058652141260B41205205A908394A224543085108E864178CE1D5C45432E84E19E9A2EA0DEF572681AAE1A6E849874345848044960F37293E509C5200408A90420029C984CB57AE3CF9D453CD6874F7DEEDCB172F9EBB7489D329
310
C84C1F19C7342711C100288065804F4828D1F76C26F4A6285BE44CCB91E189021446938930898015C2234427294AA082437F1992833053C9035E82160841C839F75D24872243EDE270365D9BAD6F6C6C9F194FD7D26C6A64A9EB7B77EFBFFDE6DB972F5F7AF4706FB2B1D94CD7A63396A240720BC12C86139E66B4C050E20F
310
E96D0112460296290D8D0E4C8001006DE83D20BD7FD8074E3629801B8A4008543848AB2074D1576D578FA6A28C1E2CC66A683F5CA27A94257D6460CACBEE434E8A0F12A7120025B4824219B20296C5CA4D559D7EE157FEF69D37DFFEFDDFF9DD5FFEE5BFF9F8E0B03D38EADA9666C9D900156D5EC2DD029222A2571793BA06
310
A230F5A0A72AA207698179DF1F240F226839D4196A5A05526ABBAEB130AFB39BC02218992228752A955701F6A50FA98D32764F24426D2E1D515595C8689737DF7CE747BFF4E3CFBCF44206F7BEF77A329F6EACAF0EE66D97BFF1B5AFDFBD73E7CEADF75EF9D48F44F2AFFDE99F2D0E8FBFFD97DF383ED8CFB9FFB92F7FE5B3
310
3FFE05048AD80BC918208440144491F54081B2C204441412B41EEC812C65460E05B832560A883D64744314C9C502F44044C98C0E46AB384AAD22C89636161421638E68DB3D8B4C6FC412FDA25FDE359CFBB053E3078E530900A75590D312CCC9E3E5E2E1E1E3B5C91A53BAFAF48D9FFFEA2F3DF3F22B349B9772E7E6CDA3E3
310
6319EB3E9B298746E371108C5272595F9F5D3A7F01A5633D5946A47A0C9452BA84EAFBAF7D1FE2E699AD6A3CEEFB7CF7C1EE64B6BEB5B9593923FAB11BE05D72C2B3C2811441C5E3E57C6BB226DAD2C1CCB6E4B5645E2281C7A5EB2CD52999394B991F1E5F3C7FA13F3AAA535D3749E4C19D7B17AE5DDA585BFFE99FFBB9A6
310
695E7EE9E5CD73E7F6F71FAF6F6EFEEC97BFDCAF5A1257AF5C315A0240C2BD164EEA2B93CB2DDC06AA102D4E983C4E8549A4392932818082F0616A4C4243B147A31B44C1494657AC2151492041738583A63ED9A88B8545241FA5BA126430D66B6BA3E78F77F73EECD4F881E35402202891883EDC0D69B6B3BD7EE11CC90816
310
EAE67BEFBDFAEAB79F7AE1B9F16C7D7367FBCCC54B6E6A4A24A205DA55DBA3B0745FFBA33F6917CBA7AE3F0133739B2F57A3F13A460D2AB86CE3CC99B5F1786F7FFFF8EE3D593A7FFD7ABB5CBCF9FDEF3EDEBDDF47595F9B9A5756D75D2E79B56A26E394121511BA55A5BEEBC213CD97C7F3EDD95A935248CBBEDBB97479E1
310
9EEAA66DE7D7AE5E5DEDED8FB636502355B5255F3FBF0D4F878BF96AB5DABD734790DCDFBEF9CEF9ABD712E1E3667D7DFDDCF90BC992C944BAA2930C010CE50C35ACF0E0AEF75B98A1045290100D50403D94693252433DC8007BB23A2198A240258D830CB2B7FFAF3F280849B9ACC2AA70F6CA90D14C38593E7CD879F141E2
310
5402401025638219011F3E5BB03750FCF44FFCC4D6DAE49DD75F3F5E2DEFDC7CAFA99B0B572F8F9AAAAE2AC0C675DDA928CAC73FF3B98DCD8D499D4ABB32DA929E4613D21EDEBEF5EE3BB71EEEED7FE7FEBD173FF6D2F6D6E6D685CB2D39994CB6D666F76EDF3673F3EAE58F7FB21E8F0F8E8F6FDFBBFBE4534FA1EFA35DF6
310
7D3B1E8D5355A11E07D8966E622945DC7CFBEDC3E3A3C3C78FABBA2E10222CF9D32F3CAB28EFDD7CFBF8D17ED058A5543528A569EABB77EFFCEAAFFDDAEFFCCEFF71F5FCC5EB2FBFECF0DFFD9DFFFD539FF9FCEEAD3BAF7EEB5B5FF9EA576F3CF76C0C4451044086400CF300A8C490953CE90D608E28A020B8504108D05020
310
008520877F54A0C0D2C014B4611400138251540EB89C473D3556C3964D56170E13012122ACFAB0F3E283C4A90480C90C4459994F6C58EA0C2340C988345BAB933DF3C2733DB822576DDE7DF7E6FD833DD0DA5C46C946D3F1D6B90B1B3B67A10050356394BE49B53CE59C8F0E0EBFF627FF77B5315B377FB4FBE0D2136BF024
310
2268E3C9E44B5FF9EAB7FFEC4F9E7BF6F9514D29ACB4E83AF7CACC982C0E974626AB7B50D06AD5DF7AF78DE3FDC7379E7CF2DA93D7038E2A0DEBE452020A375FDFDE5A3F77E170D1CD8F0EB72E5FBCF1CC33FB07075FF8E28F5FBFFEE457BEF2F3F376B9F3CC73D38A93D9DAA58B971FEDEE5EB97AEDDAE54B034D3A4526CD
310
20876C203A00002A20033E9038A40018277F0DD08518A01102512491C321420C9713A20C3480D17A7F001BD1C6188DE9245C24492A0050C35814C153262D1C82A74E12F9D65B6FDD5E1D4ECF5EA9478D27AB0100E64E5A27515A94720610548096EC4583468223BA288C78BCBFBFF7DE9DC3D2C53253FDF6F699ADCD8D7A73
310
3BD575A6B5CBE3C8B15CCE2F9FBD4037C057D0C1E16100C777EFE4B6ED7269DC8C2C11610AC12C95088B8CBEADAB7A349ED1D3BC5BAE727EE6F917674D9308093D294BA22864C5483495FD478FAAA69EE7BC7FF7CEFA95AB6BB30D2B1A3B54C25312F158B19692490C00A188B1916067EC623809CC25274AA04290CCB0164A
310
3442050ADA2AC786C34429A858D21C0A28CC3B59455020648A028C600545EADBE5AE570D4667A924685E6283704186908E606688002084A6C6B87FFF2345D80F239CAC98476CDCAC120C7280800305706302878F2604981C4C8A0A34B927F3B3DB5B3B3B1216F3E3EFFCD99F9F3DBB7D787F77F1EEDD5C79472BDD2A2F578B
310
AE7DB071CB8DCC9185B5D96C3C9D5EBD7E6D346AD047CD2221972C30A72AA50478ED86BE4F267ADD812DD5E53C363720094288032761984AD2822E46C9F76FDD5DBF70B1EBFAE5EEBDE3470F27A3E9DDBD879B9B672E5FB95280CACC06BD0EE1301015394CECC3AD329368904B468DE8C3F5419C081F0C0298898A665491F5
310
ABD52435741673C01225CA45179DDE2BA64409F565E993F34C8D48825428509B559241850C894010050095C88FC6A03FA4B022154981419B12AA11613030000F0D47549140862806241099A214504180C649F3F0C1FD79FFCCD5175EEC11A0777D2EA5A7A1CB79CD9C58A56A1469DC924E9A7908AC2BB92855B41E12580692
310
9A4A20AA40E495CCB2FBAA6403EB81731639D3448946B097402569EBDCB9F1649C9BE6FA2BAF2C97F3F1746DB5E8CE9C3B3B726B2111BD90200A019942840904B258A84248AA06E1B2944E78220A08F2304608400E648309453A6ABB29EB448500631003E3832757971121454AEB854830008A4244920DAB4070805C503E90
310
67334FA884A72E4E2500DE9F0359BC5FBE4983A2172948300D1DE2500A4B267A204108D4108165943EFA94FC639FFE4C7B3C4FE7CDE804DC139A914874AB69D580B394CB92EE9E2A335718A9900B0C18213B21CC70A0990D7F32C1E943850C94E17B4ADFE7A8302A1EB2A488C0F08E39DADC5884DC7D3CAA0536A9AA48A904
310
101898FBCC0C032200A9180C08A85330866D1E1C26C98C8C10D90F0BC240018A62AE529760A857F425F697F3AAA952AA24160748973AA00242D9100606D4098A00433083074B2784728D1452805589300DEA19F84753A01F56E488BEB4DE554DDD84250FF54605321452A75891E9FD8F2354442B224A049168394A1051E2F8
310
E0E84FFFE51F3F71FD8977BEF7FA677EF2A7E707FB67AE5E3277D1548F7A7A8528C94C608188220851908C4A163A6155224918A0E88D995842B262484A9555A6A088F0E58387BEB5B53C3C1A9D3FBF6A57FDA3C75B17CE576E87BBBBD5CE398184FAB6EB8FE7F5D619C2A1583DDEEBEB26666BA01DEE3E88C5F1F4C2C536B0
310
BCFF70B4B5B95A2E10AACF6C68D5758B45BDBED9F66D59F5E3C9A443D4115C9BB6394BA278BC585A09918F7777A767B727E3F162B1108D9335A21C1E1D4FA693285D1F84593B5F8CD726077BFBE371C394BAE5AA39BB7D7C70D8F7EDDA64DA5403723CA05EEC306CE6E3F4E9C14E2900521453AE91139B8A80B136926C6319
310
AC2AA1364B80500806EA41919ECCA4A84A270568ABAEED8F8F5FFBEB6FCF0F0F1EDEBBF7992FFC98E7BEC9E15E0509F8986660056504C034C844986A61443A8C503AE1189842C3C47C043279192A75AA76CD1F1FA8EB9A2ACD36CFB8716D7D2D39D3A8A92E9D4F30371F9D3FB73477B2A7F9C84675DD108E2081E9B4B7D400
310
8138B3B3456D15684CCCAE5C16619311CD0BC2AA345D9F95A27A52F90C94455E85524A29012423B436DA4842516CCCD6043654355B2B9E7AC0E0CDD626A39420C966D48CEB5A8ACDB31BF40A804FC6663EDAD8D830774582EEBE77C79A51BB5A34EBB3425675E5F5E8434E8B0F14A71200321AEB424FC420E6086130EF0950
310
88A2A120B5003265C440955441F254588AA2599BC5A347FFC17FF21BC8D90DB9EDDA6E9509112164A1052AC9234EC836A1302F3811120C5C9B413F76E2C4004924210192080560F8C7FFE93F78F1A517BFFDCD6F2E16F35FFCA55FBE74E3A9973FFE4A106615A3B84098038918883B011AE420A5A6AA2BA1027264B0B281DC
310
1F022928C1432A5D867BA0E45C465ED340A9A96B8381549D207ACE3442707865EC87EDEED03F03062997704B93C9A0958387C9DC6A1A65291933A08CA08CB698CF7FE3EFFFFDBFF3EFFE3BBFF7CF7E2BC8279F7FEE277FE11766E7C71F6E567CB03895006029C3871BFD02D5A4CFAD5763C0C34EB89083D88343DA8201B393
310
429D82C1184E06B6AF5D1DA5DA223CFA52B0B9B353522D300028531E54460E56217408321511881A0A68E8B98775ACC1304887053142C84006B270E3996746D3E9AFFFC37F385B9FA5BAC964568928C59C38911C201060288294440CCE0D4365A508816E1101B8E8A44B52E98507776FFFE3DFF807ABF9FCD295ABBFF82BBF
310
F2B1975F5E1B8F06E2AA1905B82889928386008118DC5B6822201BE06B148C03D8A31324B820B20A6380863005CD4C56257FF2C51716ABF637FEC93FE9A94C860659C4E98B53098012D9544C4511A8CC984ADF55F5E8E4F06DDB321E3910860003E4C90E0885E1036D9946033CC919F4A4D65CA91AD1EC64F96F096E906406
310
0E9C6203643C9189A5417A060828184629E9C4594E18EE06010570E1896BA5CF7DC907074767761A91857596892604010A2D94A41E2258C01E1AA80A03372193813059442B788642D6AB84389BCEFEFDFFE83F5E5F5F2BA128D1F73946A486FD303824FC708F1A28D10442269951069312C2A285358088F012891EEA595A78
310
6D5292044928808B4038E3931FFFF8A5733B6F7CEFBB4F3CFF9C011125ACFAA807F8214596BA0C47C5BAC942592D0C36A2B59EBA9C8F1F3F4AB613EE8232AC256C581E971683B915914D45CA20832E80954A29250FAE6999D645D485848A90855E00E364E2D2F7E65614900AAC0541EB45A0B0602951914D1DB902A1F8D257
310
BFAA55FBCFFFD7FFA51E8D5EFCC4C7E95E2CB53937EEA692008B5880C93D1321A9A0A19C04C5D07ED8A4B20C207A2D1F82DEF8D4AC12B0827B72D5F5FEAA8590BBBECDF9C1C38752EE84CA6B11992C52DBB6D32A39427086FAE86B4F03F7B9CDD9537D2268286DE418573515045752321A2DA84C6F17F37A3C352095F6A997
310
5E7EEBEDB76EBFFDF6FACE8E6D9C51E44CCD3EECC4F800712A01D0A434ADD2B8AA534A06EE1E3D5E9F9ED9AA9ADED8A7343E7771D3530509E81549D92D198812CE6A642840EF5684DE6264AE506D15CC8DC8361CB75819D7CC1234F8A02C0CE636A8684B4A638A024B14450D151FBD2FA62C139A197BA0271234A219E993C9
310
2FFEF2DF9CAF166777CE16329B67C1892455808516CA96EA0C0550C4A9D1250F09D89326558AA1AF284FE5EE68E24D4A239273C9CC420C9404CFD2C8984250B48A6429888E10B0ECFA71F24608C2A422D4623604D4D21C03912D5C402E4D724226769013847AAF02EC72544E0A75E95DBAFEE4F5FBEFBDB7B5B595898854DB
310
69BC019C4E0090292851224BE9EBF1FADA6C6390738B2C3E28A43094D4641A7647A91A8524C040830A684CC3B14E51B0C170901C08040004C82591CAC5CC0AE4A57324038C66865C56F4A65200749A4C464272B228A862B0049A309D4EC7D3894B6156898A9C4087D26041055425080DBDAA07078EA5A454C23D4EF87E9658
310
CD8C83AE9DE4C0814375E252819317C10445A13B4F58A284747C747CEFDEFD06D1E5E246D122E270B54A84A544330BF5ABD56C3ACD7D87012D065892A700FA522A52B92BABE3FD83C5B2EB9BBAB2A649A91A9DDDFC6811F6438CAA822589112172BAB91DE6050C204B110C530E09CC42A106A3410643CC264AD9AC80A1C8E6
310
0AB9142485021432D38B4A564088DCDFDF7DF0E8E0E0E9975E2421AB73A8CF7D3207E93E6A07BB85936F1FFA45E1C4D084ABE56A7E7434699A5953ED1F1F9F99CD0804954B26D9AD968F0E8F37676B913C7B16C054FB49E687484A204CAA1405301548B5424608B586C9D6C004C583FBF7C6E7CF5BC43B6FBFF9F0E1A3B5F5
310
99A734EFBA022DDB6E56A5E9FA991BCF3EE5815E1C198A108636E4400C06A64C0A8D4D2A857DDF290E0E0EF7F6F650FA4EA55F76361E554D3D5DBFF8FC8BDB7DAA2A4BFB7B8F0FF6F7273B67F0FF72F14E559C4A00B0A0489DC215C644A91F58EC600714A09532695132D989835D4EA64931CC105B28340862078A1987B56B
310
86FAC805D60A4978F3B5D7D52D578BD58D4F7DBA93200EBE256E951859102D0318E6274248AE800A653D2307E6FBFBB7DF7EB72C8E9E79F1D9B62B776EDD56F22EE783C7076FBEF6BDB2589CDBD9D9B978C147F5683C0E419E68C9CD1A6394DEC966637B55251F4FC61BB31022943928E6D94B1611742876EFDEFBF37FF947
310
9FFFC28F1EEDEF5FBFF6C4F9279E4C4E803D2D13ABAE9B56C9030A0D1201061C6051F4BDA564E63DE983D3510944C9397FF7FBAFED9C39F3DCB3CF235980C7B91F7912D008165D919358DBDEACCF6DA1848A4EE32DE07402800069242D0D8377A39C36ACF461099487C400FDFDF3D18719CE40DBB108D1058639151C14F200
310
C0A095619900FFE3FFEBF72EEC9CFB1B3FFFD5558464383153B00C0D56222746B936684F58061FAA41BB4E2B8C33172E6E9DBF98A230CA7C7E7CFEC2B900B35B163EF9C51F8BE5E2EDEF7E3F54661B679EB8715DE6D9538023C0434478E87B77EF567DFFAF7EFFB766172FB0CFEB3B67B746A34B172FD5933AACA279A8485A
310
B6EDF5179E5B9BCD2E5FBC6842AF70D93054CD21309DD03520E45EE68C9004374F9599014862815822E7D5F17CBE7BE7CE2B2FBD0423892C0D463072BDBFF5E6D02843605148F8C81DFA87174683BB1B0D04094BA443847A9A516E6608844970D3A01C311088C3BDBDDD7B7773AA0A7D353FDEDADEBE74ED090EE69A649046
310
BA105DFB8D3FF9FA97BEFC95735BDB5EA7323F8E5C5593E9408C1C964A27CC1F9C20834091111AAAA19E66A011279EECD05BAFBFBE3919874A544D5DD57D29065DB872A94EBC7FF7C1AB5FFB7A3D9D3CF5CAC7E98984430637C6C54B9736DC7FF2CB5F79EFD67B51CAD32FBDD228DFBDF55ED7B68BD52A35751F72F7AB4F91
310
4D633A00002000494441543E75E5FAB5B1CC078B23D1DE9741D26CD1171BD25CF2AA628403460FFAEDD7BFB773F1E2DAC61912AEE8D5AFE6F307F7765F7AE1A50C2466231C8279718ECC2534A049221CE1642232D8E02336E80F2B48B831C94C83FDF7D012FAE0E319B9635513021D0C0CE4B0AEBFFDC66BF3A3A34B172E3C
310
FBE24BBD31BB75AB0EA5BCF1AD6F5655BD5A2E22F26CE3CCE5679F857BD7B5EFBCF6FDF3972F4DA6A3E5F1F1E3070F67DB6756AB55EEB399FB6A518DC74DD31C1CECAF9FBFB0FFF02E691B3B3B10C3C4888C202C10220270300C57AE5D659466326973591CAF6ACB1BDB5B470FF70AD3DA6CE399573E76B4387EF3D55757B9
310
5CBD7EFDCCC6ACF1EAC4ACC86CB6B3F3FCCE8E80AE64833D71E30694DB5CD43427B22CE2E8E8B890D3C984C162365CA8C1E20EA28442645A1D0540662298A1FBF776F70F0E5EFCDCE721CC8F0F6FBDFEE6EA60FF0B5FFC52102A7D9849596C0A86E71E5044810D3E1880117ADFE2F154F600A75210B3D71DAF9DBD30998CE8
310
D5C00D1E9189ECC93EF4DEC1E1B98D59923C94A3EC1E1DBEF5FAEB95DB73CFBD58251F390576B4302EFA32AE6A4354022007DA5CDE7CE30DD6D5D6D5EB13A7E55EAB76399F3F3E3CA8EA66349A685CD7F568B97BBFE47EB6B9116DBBE8F268367BFCE0E1F6B5AB75336A54D07722ADAA8E144D334AB2A4A0E2F557BF53FAAE
310
9E8CFFEAAFBE75FBCEEDE4C9DC1E3F7878F5DAB58D0B17BAC3C34F7CEE337555B5B447B76E51D83C73E6DCC50BB9AAB7D7A6C154482AFA28CDE0CA197977EF71E569F7D183EF7CEB554FD5134F3DB5B5B676F9C9EB06E59C2B4F8FF71EDDBB73A75A9BED5CBB36AE3C053A6AAC284515313F9ADFB97B77F7E1A3C96C6AB547
310
DB8F3636CEEF5C581D1E7CE72FFFE24B3FF5539E2C0C294DC259805589513289B5E851DAC849C82A3D4B9657A6D87DFC9120E68711A5A82FEA04D740F1518210B1948A19DDBA9243F028B76EDEDCDDDB7BEEE5973C5506F57D698F97559D7A4FCBBE3F3C3C3C7BE162333C35669887BA5D7FEEF907FB8FBFF7177FFECAA73F
310
5596EDFC704FB9A4D1B89E4C7D3AE951966D3BDA3C939CB9CB1B17B6BA07BBADA259DFEC4AD9BF77A73F3EAEAB44B38D33DBB7F71E5DBDF604CC4458299B3B5B0E79555F7FE6469A8EB7363697ED6AFCCA4BEA4B3D5B3B0632393F3CEE4B3E77EDFAA54B978E1F3FFAFE5FFFF5E383A3173FF6D2D6E5AB4A89503F2C73A1A0
310
15B294FCDA6BAFDFBB7D47C94BDF6DFDD88F2D739F68598AD0EBAFBF7EFBD67B5B67B71E1E1DCE929B30374BA5CB45EBA91EAD4D2F3C73E3DCB3CF0D9AE29E2098C5D9A4D9BC7CE9DBDFFDCED3CFDFA8C7EB45CAA13E97DE3C0B266484217284290ACA8913ABBCF9B013E303C4A9044032ABCD1A3A69EF7B99812A968BD78D
310
E57EACCAA21CEE1FE476F5B11FF964D000A650CFBC7BF7F65FFEC55FBC7DF3DD07F7767FEE977F716B7DB35E9F55217258E4B0359EDBDE8AE79EDF7BEF3615EDE2E8DA95271EECEDAD0E0F4AE93AA93F38B6E9B49039F7E3CD75F6B9F6D4D71C257F7C34AF54923CBAB65D2DA7E351E356D10C24E3E8F1413B3FAEEAFAB56F
310
FDD56FFE77FFC39527AEEEEFEF9FDFB9B07D76FBF060FFBD776F7DEAF39FFDF6B7BE7DF9E9A77FE6677FF6C6E54BD3AD333B9FFFFC7E2E77BEF79D47777747EBEB4F3CFD54E35505365411B6B6B6E0F6D3BFF00B83E95556A972A9526551A088769997CB4BE7CF9DBD7C797276E7CCC686434B622675A1D1B0F975F4B980A6
310
A19D52B84A8578E2CAE5FFF6BFFCAF8E7EF3E0ECB98B3FFA133FF9C9CF7D6E71FF7E73F9920D2D1698E2C4280B2038AC374E592931C4A904809136B49E27761D4004C5AE942662783AD7EDB76E2EBAC573CFBEB014EC7D67F0C4EAD2952B6DD73EF9C2738F0F8E9A54CF66338211DDA0A3D4D057031B1B9BB7DFBB9D6A5B9B
310
6E00D83E77B174ABF962B9369BACB246D3E9DA6472F7BD77771FECA6D1A89B1F9FB974F9E1EEFD7A32B2AE4D75E5AC578BC5F695ABC9CC45434071E9D285C6FDF0F8E8139FF9CC74736B71743C5D5BDB589F45C9EFDDBEF39FFF37FFF59D878FB6CF5FEC72EE177333373119ABCA3EF1894F65E2B8EBDE7DEBEDAEED2C4A4D
310
D47533DADADA3E7F0E00A52442ACAA642AAEF2977FF8870F761FFCE4CFFC8DF573E7B2578B5C6A3329462099872D1E0B18251B8D96892405E4244B6BB9FBD19FF8A9F6E0E1B9CB57CCAB87EFBE5B6F6DA1EB6D924E9E974006CC1983F22280C4D338053D9D008881DCC5A864990A4517F168EFC19DBBF76FBCF042B4DD9F7E
310
EB8F9FB9FED4B34F3EA961A314C1E18118D478B2F6D2CB1FCF546F9E019011919034781C8201399800AFD3AC6996ABF6FECD77ABB5D9687D9DA34A4546832495E9645C57D5E3FD033635428A48C9B6D7778CEADB6E6B7BBD33DAC96FC80E1D1E1D35E47CB9387CF050C0D6CEF6DD9BEF8E2BACADCD26E386C0D9B3672D4A32
310
4EA653966CF6BED3092172DC34CF3DFF7C89520349C8A5BC7DEBD66B5FFF46A646E3E9D527AFBBFBD1DEE3BDBBF7FABE1B8D47FFDADFFADBA9AE7A326809012281900659BE0989CC74A79174298814425ED5D68CA79B3FFAF9CF2F57C74D3312685E659455DF278C41F830624249187C155DA4E3A331E80F2D060E8070FFE1
310
83FFE99FFED31BCF3DF7EDAF7FFD787FFFD39FFDCCB96BD7FEE05FFC8B9FFDCACF8DABAA4406582240D15D42E4385C1D8DC733B987298A568B83F178AD57498181F2106E7DD767C4CEF9F38BC3831B379E5A1D1FBD7B77F7CDB7FFEAFFFCEDDFBA72F5EA83477BB3C9F8E2B9733FF2A94F53DAB87CE9E1FD7BCBA3E365BB7A
310
E2C597D7DC2D3A4CC6B9F4DDE2C8934477AB0B625C7B55A5F16CFCC65B6FEEEDEDBDF6EAABBFFAEBFFE1FFF69BBF99BBD5DFFBD55F25E21FFDDAAF7FEE0B5F3C5CCEDFFDFEF7FFCEDFFDBB4F3E797DD03D536E27CE9FC3E201A4A564D79EB886EBD7B2984BB9F5CECDF6F87867E7EC8D179FAFE9A148E63C21C20E1B3C5183
310
15B031C2C9383112D5402D2F2A51E6F209594DD72BA9D493316399EA19683DA172B29C1E86AB4E0246F57C9F727A1AE3544E811E75F3C9D6B9F164DC76F9B56FBF7AFDA5E7BFFFAFBEA6D2CF36B6762E5FFE9FFFC7FF3E4AF9F82BAF3CF9F453A5CB9D50923BE9F23EFA14B9AA4705083BD9FB78AAF262D1A45437F56AD571
310
3C6A97ABE3AEBBF7D65BFD62F1239FFDF4A307BB6FBFF6C6F39FF844E4BCBEB5F5CE5B6F996136597BF9D39F54DBF5C6FEF888E68BD5F1689A4634AA2360693A671A8F266E4EAB4CBAFDF65BDD7C79E599A7EFDCBCF5E0607F736B13A5247034AA2E5CB9EAA9CA8130EF4B3194D1F0E8EAAC03B333EEC5BC870951C41AA805
310
225A09C68C1363F288D23091AA4259918C4EEBA9CE7CD9E771953CD003354A2968DE7F5C4627A81CE5E8880059D834563B06AD827CE0D212BDA77989943C800660515FFA264A41D70AADA24995ED1E9CBA29D0A904C0E37E3EDB3A3F5A9BD14D421FD148B5A10019BC7DFFFE1FFCD63FFBE48F7CACAEEABECD179F79C6C763
310
0C2672450D615031EF8D45A80D2C855277BC98CED648EBC816F8F637BEF917BFFF7B5FFA999FF9F88B2F4AF99DB7DFBEFCE4537BB76F6D9E3BFFEE1BAF756D77FEE2D9E9B8198D479D8CC662959B77B91F11C99CB0B074243455635002500251868D52072EBBDE0C91F364D4C46A95C6E39ADE9B15A8172A45051072E100B6
310
6514D15A12D04B0D510B54B421187B32040332A2193C8214117DE56EB00C755ECDA34C3C792847D444A718C386B37F259031183FF41042231528531125523D763AE8BD735122B933A2526B815CA29605D1D23AA276CF77774F1D004E650964212AA04CD51ADCFACD0D82589491DB7FFDDFFA37FF8B7FF49FBDFCE2CB6BB3B5
310
6F7DF31B32FFF2DFFA378A8AB9B97B2820585891480F059900DD7CE38DEB4F3F4315B3F4F677FEFA339FFDEC732FBD1880C32E5FBD12ABC351C37EB977FEDAE5C5FE5EEDA96B330D47ABB94AA927935035D99851D94072D8D165226CE0A912701F064DC9508D472418E1443D9916054F1E80379CB8D450EF40140A013A8032
310
38180A4527153781C1E45CC68841B932E8701083FC854680324A45C3A65A8321EEC9430F54A02860580220C6206DA182069D2CBF6C5881051D6E297C30A31E4CEA8747CC479CB2937488530980300D8B5F4036F02008D3F0283B8D2723A8FD7BFFDEBFDDF79152FAEEEBAFCF8FE7EF7CEF3BF5A8B974F5EAA25D18554FD6EF
310
DC7E6FF3C2B9F0B4B777B0B3BD3D5A5BEB6FDDBC7BEBDDADCB97BAC5617B7470F189ABA6E060629546EDAADDDB9F8F666BBBF76F8DEBF4EA37BFBBBE319B4C26A91E45DF9DB97879F3DCBA548CAE81AB01C887CBCBFF87BD370FD62BBBAEFBD6DAE7DC7BBFE1CD0FC0031E861E007403CD9EBB49C994680E5224D1A65D522C
310
4F94EDC88E2DDA2A279EE22ABB623BAA24562C29E538563976C58A62572A558E1259535152C848D444D1A62851DDCD6EF40474030D3466BCF97DDFBDF79CBDF2C7F960FF6DB9AA59AFAACF9FC02BBC0FEF9D7DEF397BAFB57E9A51B567BB8E2820C6FB5B1E845C0C7467B1F4820696CC1D53011979A0B9E47295FF6B8982C1
310
CC982C2755E6CE72B86044B87F2E178B92494A840A55B0E898E492035ECCEF049DA118EB8AAFCDBC4425966CAF0211BC9F0C04CCECCF847430A37181F0033FF0035FEFCFF01FB6363636F6BDAB87735555C9A21319341A81DE73CEFDBDBBB7E6061563339A9BB3A6192F1F3AB27EE285DFFAF2F2F2A185E5A5FDDD9D3B376E
310
8F57963736363D7B33AC2EBDF6DAF2D202B24FFBEE1FFFD03F48FB93494ECF7DE23F593A7C84EA81304B41ABABA5C36BCDFCE2FFF1CF7FECF25B97E616173FFB533F7DFBF6AD93A7CF7CE94B5F5A3B796A716DADE8948B4E3F9353215814CD414919080C029CD6923EDBFD332C6439C36486BEDC314B7A27D40AB55979AA67
310
A0E3CCDFEC442F11E8C9DE98A0347B3D603A6D9D340B99EC8D3DD8E65E16129866583180727906125C56250B09C86416443894803E2790C9CC8904EC4B245AC0C92C4CA14CB8D0125DF14EEC4D565656BECEFBE33F701DC837404088642401CF0846544425910AC4FCDCB88A356566D1523F08F185DFFEF2377CC387FED98F
310
FE933FFAA7FEE4D9071EBA7EE7D5F8F0A9F5C32B6FBC79F1D0E1C3EBC74FDEBD7E7D6171697F6BF3EFFDB77FDF06CD0B2FBEE8EDB49E9FB7D0447825EB8C0CB553D1F3EAA143F38366EDF0CA1FFB337FDA5C5FFEE2BF79F891B3D7AE5EFDC2E73F3F6A06DD64726CFDE8FAD163BFF99B5F3CF5F81393ED9DF17074FDDAB5EF
310
FAA3DFBD7AF8500D8930F840E681700BC801E652200BF7B2008B0219C100F46484444BA0C85AFEEFFE8AB440C8ACDBDB6DB7776FDCBAB9B2BCBCBDB1118318E3B933E78CAC1CADA1B7583308CAB428471966D1403868160299190A392F224704400A88E56D45826C1C351960B59CC10454422882C0D91F1CBC75200BA068BB
310
42894D305032C94A4E8959DDD46230E59CA6FD345DBEF4F6F56B37283B717CFD4BBFF485774EBDF9F6A54B8F3EF7D4BDDBF77EE25FFCCBBFF3238F2F2F2EFED77FFB6F7FCFF7FED9C71E3BBFB2BCDC52BB1B77DF7DFDD5F9C160383786086577AF3873D77FE45BBEE56B5FF9CAED5B1BA3E1E0D0CAEAE1D5E5F9A6593DBE8E
310
9C0675E57DDADED8585A5E3A7FFE310C47ABC3E1CADAD14153856094AC48F7680EC84595A4435105705D223F5DC69FFFD73FFDCA4B2F7DC3377EE8EAF51B270E1F595D5B7BE6F90F8A2C28C644061721165EE9B4435D2F2FAFFCE2CFFDECC50B17E6E6E69E7AFEB9F3671EA51CB42212B4129C0ACD529D29E53E8468E00FFD
310
DDFF66EDF87A2FBC7BE3C6A38F3FFECC73CF9C79F80C0119BDD4D8FD5C0167E16B84823A26EE5F71CA5DE200AE03D905DAE976E6578FCE8FC616AA14E8EE3550C9B37B8B7E6FBA17EA71ED3D9D5B9BDB9FFBDCE707F3F31FFBE427E97AFBF5D7E7C7F5CFFFF4CF3DFFA10FA2AADDA2799E6C6F79D0079FFFD07838249081DD
310
BDE9DD76FAE3FFF01F9D7DECB16E7FEF0F7FD71F59595DAE2C2858B6F02F7FECC75FF8AD2F2FCECFFFEE57BEF2E93FF53D9FFBDCE77EDF377DF39FFF2FFF8B1EF0D407C1E08192F34E3F1DC52A84BA6FF7AB1843A8876614DC3885DCCC85D92C29A7C698C99ED64B0178F9B7BE72E8D02ADC5BD1F777D7D68FAF1C59EB895E
310
AA0893452ABB6AB2BD1F01DD79D6B41D0E86413E99EC2E8EE6222C1399DCCE7918A304876A2979AE908342A04D0CD7DEBC74E8C4F1CD8D8DFD763AE9FA13274FCE8F4610240FE53A6FE6D48E6B1043224D0C5297732D99720226EE0DA59B77DEEF02BD17CB0B87118ED9F37366871514404FB9A94156342C2C2EFCC1EFFE6E
310
ABA2BB5BE0C3674F0F0C9FF9FEBF2865C4AAA3192977CFC972128C66EAF3F55BB776B676AA6133AC22EA66676F7775F590D1B2E7407EE0FCB92387560CF8EF7FF887FEE71FFAE17FF2E33FBE301EBF7EF1CD8DAD9D4B17DF7CF4DCF9BB37DEFDE8C73EEA9EFB9DEDA985D1F2A1AE6DE11E47B515BEB59C6094B23CD00CC890
310
291B2A7856DE07C3531F7CB60220BEFCE20B4F3DF9A468BDF72967850A2CDA0AC0732043096B51CAAE41DD180061D48CE0F78350281413B0835452F2AEF35005CAE1E67CF8E1879C76E9F69D734F3E916951089E0128BB194AB86F19270717A9489808204A313BE895BBD9FB94C8F76AF519939C2A47924CC850054C5DEE98
310
F6DDBDADFD053616A2A764663D92F782DC4A906546659518B334052B196446D1627601EC7346CECDA1D5EFFDAB7FBD9B4CE7C67377DE7D77D3D118C8CAB346478E545B9B738BCB3BD90F1F3D7AF9CA3B271E79B40BD56E4A8B478E6E6F6DCEAF1EDACE4ED18723D583298C730B9DABEF7357BC39F009827946EE683501C922
310
E9CAEE5DBBFD8EE6D686B2EDAEBFF5CE3BBFF0F3BFD0F6497DF73B5FF96D85B07A78EDA1471E51DB5595DDD9DCAAE4DB7BFB0F3C7A7EEA099E07A1F6D4DDBD7DA74F1DDC1716E6EEDEBC5B0DEA2B172F3DFBE10F33EBCA3B978F1D5FBB79E5EA83E7CFD3F1DA4B2F9C38FFC4C268D84E26BFF1EBBF8EA6597DF874430617A0
310
DE35305A0893FD7D56711F1C0D42962240296545C85C09ECB3A2E12046C31DC823D076BFBBB8BAB6309EA3554EB8BCD12CC4B3A3EF4CFB6130F924A872EF3B460F414444E85337F414698875065B285A7477A3D1F3C000580F250BBBA91F0542A0E78A958860A16800A6F29A16944D32A0178259063A32A51CDD4DAD4944DC
310
CC3E37A8AD58DB25CF6930BB48842932AD9266521F771F12499CA6AEEF3611E3B05E3650F22B57DE7DE0E47AF6FC2B5FF8D5663058593FFEC8E9470804E436E55B57DF397EEA2442BCF6EEBB7B93F6D133A70906F9BB37AEADADAE3555BC72F59D36E7B7AFBEFBE18F7C7310AFDFBAB679E3C691E327B7EEDEDDBC73F7477E
310
F007FFF4F77DE6537FE85332BB76F5DADAA913D7AEBE9B26FBA1EF47F3E3CD9D5D0B6C2C5675DD66A7E75367CE64200A2674EE8D1CC859982855B0E9ED7B07EE087420DBA0AD7783D1DCA0AA64A51B8D0896FC12A725A07053A2455249AE102905406020739A58A8B24559B84F9F1021238D9451B41E6A420CA2192383973C
310
521A6C06032E42D41238672C485E25CFD160F20807AD259A1049DBDADCFC3FFFC58F8FC7A3238757C108B35C88BE9A612FE4B37045B360D538C6B159201019AB85C571082154CB470EFDE80FFDC8F90F7C6067777BF3D69DBBB7AFDFBD7DE7F8FAF166304839BFF9E69B5D373D76EC984180C6A3A68AD188F98585F9D5D5D5
310
E3279A60840673736B6B47AF5DBDB6B676E4F4C3673EF9A94F7DF98BBF319A1F2F1D3E3CBFB80089C608FCD83FFF5F5F7FE5C2A5D75EFBC97FF57F6D6D6E468B6FBEFE1AEAE6F8891339E7E9FE6E1563CEC972BAB775AF6E06190AF0B4DFBEDF067D2F5609774892C9DDCCF1EFA69525BE1C35CC66FC6773E4DCEF86307665
310
97E77E1739BB273138632831A2456F49DCC70CA024050939B5D3AA196521C89D842303117207E046E402578479699F8B01B87B6763697939439DEBA517BFD6F7ED534F3FF6D0D9D3422020792EDFD120479835540022C372B1DE9394B99240B012343FBFF467FFD25F3CFFEC739166DE59ACE5DE584872068B451FC7020C10
310
5122ADCA8FA66041DC3043CB3C70FAE10109F8FCFCF891A79EEAB33C258B91401834D75F79F5DCB9F3870FAD1C3DB67AEEB147A6936E343FAEB637376EDEFAED7FF3A5130F3ED84FF66FCBF676B696C773A371D37B9FC068EFAB41DFABE5522F7512EEA79B146770027AA015CA699D4AAE9C10933179AA72EA3C959129C044
310
F65289CAA2BCC45F4628913DD06216341ACDA6292550165D19B05E029C82C97BA007BAEC6E4852EAFB4BAFBF99BC9B1FCFBD73F376981B3E74F2F8D5AB976FDFBCF5E9EFFD336E5587D95E6C353B7E06672212E8B3FC4DCF8268268F02C44EDE2A3B90A5E1EAEAAD9B37578F1E0D560701EE0412BC07CF3EFBAC0B53954E80
310
44CB40281944F2B6C4E54A990A4AC95D060AFB3BBBEF5CB9BCF0E4532944002E6F81F9B52377BEF4C5DFFC37BF391A0FD78E1E0DE02F7EEEF3674F9FBEB5B7B3B6B2F0E1F889738F3D6EB159C57A03EE6CDDED94BA12B87100D7812C80F2188B12C43C03B23893DE7AE3F5F1CACA5637599A5BE894C6C366E3D6CD85D59510
310
6BD11C993453A8C21008056C4B968073C2115850931E2CD253B01AB0C8B8BDB9D9A6B4B2B46C465475BBBD5DCD8DDF79EBAD977EF77717E6E77AC791C387EBE160F1D0EAC58B179F7AEA994115CD25A4776EDF7EE3A5573EF1B18FC5D1F8AD372E6EDEBB5BC25A46A3E1CDBBF79E7DFE7986303FBF1818A44C63740F506B51
310
9EE9C92C90216405F5453CF1E0F1F5DF7DE1AB470E1F2E9AA294BAEC3E6C863039AC04FB146FBA3BCD5849A9B4C8844A705870DDBDBDF1CEE52B7321B2B2DFF9B75FDEEBD3F973E7E92E2283A1CBC3BA1EC430AAEAE5F1C2D5372E9D3F7FFED1D367960F1FFA737FE3AF0DAD55580C6690BA9CA3B0BCB0DA1BB27B607ABF0B
310
F41EAD2084A2652748B821C02E5C78E19FFEB3FFE5FC934FBDFEDA8585858533A71FFE968F7F74B2B733B7BC20B879A8C860A1AEEBA80A24ACA0706506891E68409C717715CC2A235D7FEDFBBF7FEDD8D1DD9DDDBAAAEA41F3C4334F3FFD0D1FAA82F676B6EEDDBAB9B830BFBFB7FDF6F6C6C9474EEF5EDE7EE6B90F3275FF
310
F68BBFB675FB5EDB4D4E3E7AEEDC995397DFBA78FAB1F3D7DEBA78E5CA95F5A34736EEDDDDDBDB7EF0CC59E56E7B6B777E6E18ACA2AC9226799F211294291250678A8619930B88A10AEB274E5C7BE7EDD543876E5CBCB4BDBFFBC0A993C3E3A74833A2522ED26500916A58547930C8A050D2DC89F5236B870F1F19C0093C7E
310
EEFCCBAFBE5A87E0281C1BC8533FDD3B7A62FDC489E35DEEBFF9E31F41C6DAD1637051EA5AEDEE5E991FCE41613037AACD54800646B0FE7AEF8BDFCB3A905DA0DDE9C6DCA16373E33985480BD9BD221B47EF792FF7DBB95D8861BAB73D1A0C72DFED4EDAE1C29C318A55124716C24CCDA296885665C81C5969C8502275136D
310
DBBD8921B8EF6E6D5431ECEF4F9647A377EFDC5C585C1A2D2CD3609E83146993BEABAA78EBF6ADFDA4D54387373737BEFC2B5FD8BC73A7190C96D6D73FF8CC1355AC6F5EBFF1D0E987B3FBC0D475FBB16E14461E82E4310473813178DBA6D6EA41B69AF00857EE09EEF7FDCA60C14182ADB1EBFBFFEFE77EF6852F7FE52FFF
310
CDBF3E5C981B841A0E374B541206145005C0912B5820339181ED948755B8AF6D5396576000B6363777B777D71F3809C0E182A6F29D5BB77EFD977FF92BBFF19BA3F1DCDFFDEFFEDEDFFAAB7FF37BFFC29F7FF2B9E77FF52BBFF5EE6B2F5F78E595C7CF9DD8DDEF3FFDE7BEAF460443A2EDD12B9ABF7BF0E4D007B20076DAAD
310
B9D5A30BE33142D5932E1F621677DC0AAFBE75F1EC03A7AA9C1CEE39DFDDDA1DAD2CC97350C8E0208400124C864E0821CAB3C4AC7E240452C69EB697F33056F05C416D3BDDB873F7C4B113D900F81481A63A6779A6F737EE6C1C3D7CE4C597BF76FA038FF52963320DC16288A9EFB7BB49902F2DADBCFCD24BA7CF3CB4B3B9
310
7D7C7DDD0058D55BA099E7291D2134D9B3F94422E2C02D96DE94C925DF4DBE1AA39B819C427D72647FEDC5AF3EF1E453606E429D8B9E13FED24B2F7BDF3D74FACCCACAAADC2B062353E9EAF6DDA8AA043A91DBF6E26BAFD5313EF4D0036FBC7CE1DC131F08559309931C9A4A79731348C1C2BD3B775656979BAAC9CE2E2BCC
310
8F9BAA92A7CABB2E6DCB35A896803A05EEBB5766FEEEFB9CE0F764F5B40E98428032CC110065696F6FFFE6F51B9FFD7F7EF25BBFFDDB468326F7D310AA7B1BF7169757F726FB4D33C80CB554C59026D3666EBC3D9D5A0831C6DC251003B3DC7583C16067B2DF59A84A6AB477776FDEBC75EBF677FC814F0E971633943C51F0
310
9C273BDBAF5DB8F0F69B6F9D7FFCB177AF5EED51D049DCBC7B7361D0D7E3A3DBFBEDE26870EBD6BDCDEDBD2FFCD2AF6EDEDBF8D64F7EC7B1C3AB524E025C4EB33848F00435682C0637EB670D211656BB935315EC1352088960151F38F7C41B97DE7EE8CCC3A5CF23E5CE73EABA479E7AFAC2575F38FFC460346860A144E73A
310
D4C1AA129F21B0AE1F3CFF98BAE92FFFE2E75E7EF1C5334F7C00CA492ACF42775DBEFCB6A5EEA1C7CE03F5C6BDADBDBDC9D2EAA13E63500F5437B0CA5121C694A79D8BE6D9AD975B3E90F1D007B20082BCA6020CB422C08F50209746A3FAECE94F7DFA8F3F74FC84415172E198F77BDB3BEBCBCBEC534B1BC99553F64CC639
310
77907BBBBB7B3B7BDBBB1BB9AADCFB76D21196DA1EA3A689F5E99367CE3C7266EBEEC6DCFC1C052199484F9510E7E69F7FFA99D16074FEFCB9B6EF8C69FDE8DAD5B7AE2F0D7C656174F4A1B3BBCE3B572FBFF6CA85AEEB3EF16DDF7EEDEAD513C7D60DCA9E246708193168E6AFAD0D206426D82C71D14121D22A33813264B0
310
A205B3E178DCCECF6DDCBE7DECE851B83259D39A7AF8CEEB6F1C5F3F363F9EA772B1F627A227A391295B0C510414C8D034EB274F3DF1F89321D40821820092BC323EF6F893E5FBD60FCE99AB222C4486B855A441B0CA001B04D64DE90697047A1EC868B803590044760972485618C134CA1341E1F0E123191EC10CB8B4BDB9
310
75F9CD37AD6EAAAA6EDD6BA202E0DE75A91E8F72D73A6C5035CBABAB63F1A77FE2FFFEDA8B2F0E87C36FFB137FF4234F7FCC53BE74F1D289E3C7970E1D369AE4C61020B346C886E0D2A9074E747B571E3B77AACDF6C69B573EFF333FF3D4B34F339C58735CBA78E9B77FF55786C3C1777CE77785C1E8CCF90F048B01300B0E
310
182394E55DF64C07EA60203CCFF27E69C122C49055D11C8043860E1E60461E5B5F7FED950B6B2BAB21C66EDA4EBBE9B9273F409A3118093102C121C24D84DFB8766DF5D0E16A3872F9DEDEB64C5CAA0000200049444154DE5B2FBF72F6FCB9D160588131AB373A54011DC9AAAADCF7B6F79AB971658C61E67D8952A59975A1
310
0C4C9C56F2508B8BED2076810EE41D60ABBD33B7B2363F5E42A869EC811AAC21B83AB3CD7EDA80B7DF7D6777777F7B7363637B67FDC8E1389A3BF9D0C38936202A40CA5DD75FBD7E7DF3D6CD499F0A352C424C69381CF45D7BE5D69DA3EBC79AD12864F7BEFFC033CF34B1AA801E692A8F2C01D484F7936E9FFD340C167208
310
D33EF56DFB0B3FF953CF7CF0B9F168FC3BAFBCBA18E2131F7C7E796DCDBBC41046B37E8E5AD248F7444F99046C6066B00CF4208C24CD49F87EF6A51024B9B14371B597D68EB7A9FBD2177EF9FAB5EB4F3DF5F4234F3EEE6681024210A01CC80AECA514C2764AC360975E7975E9F0E1375EF9DAC6AD9B4F3FF7A1930F3CA09C
310
54C5CA4266717AA9072BE5CAFDB5575EDDDBDD7BF4D1B30B8BCB22CDC216BCA6E97EB3B5F73C9020656A0FA869FDF5EBEFDF01DE9B15400B72692A55609C317E287977E7FAD5BDED9D53A71E583F7E0AC85DCA54BE7EEBEE6FFCF22F2D2CAFD47595537FE5B5D73DE78F7FEA0F1D3A72E4FFFDEC679B580F4683679E7DF6D0
310
E26288F6F6E5B7571E3C7D6CFD28188231BA92FBCCA78B608AA0110E8A44D50CEBC130BBE510CCAD1E84EFFC137F7CEBEEBD0B2F7D6D6F6B3B0CEAF9F9852FFFEAAF767D6EF7F73FF62D1F1D35C360C1E56048025907A37B2E99252AF945984D888D7231C30D3415A76561B72B4A049E7AF6D98D7BBFF4E807CE833372370C
310
72BF7EF5EAF2E2FCF2FCE2CBAF7CEDCC134F4B04C38933677FF8EFFCED8F7CFC131FFBC3DF79F9C2ABEDEB6FAC9F385E5731DFB79265C891B33284D38F9D7BF1AB5F7DF9C285BA6E9E7EEE79C15DCA860296FCF7147B154AA4E78339093B900520228BADE768514246EE8B3943CAE0CADAFADAF118C556D93C79CA8A61E9E8
310
B1F5E9140C0F9E3A59B93F74F2C12FFDC6AFBDF2E20B8F3CFEC4A5D75F15FCC4FAB137C7CD9B66EDB41B0E87D97178FDD86F7DF137961697BA497BE6B1F39BEDF4D0EA2147480040930564C27AC9643DD54B9924236258397AEC2347D7B7727EFB85AFBEFAFAABBFF35B5FD99F4C2E5FBC78FAF4A953A74EC6C12021B27463
310
93475042802077B243B14B6631C0D5C3FB6C2009B550820B3031293B7C7171E99B3FF1F16B37AE1F593FDE9111544A39A76B37AFAF1D3F369567B1772528C93D84E563C79EFFFD1FB3D89C7AE4CCE77FE6E7B677B7CF3FFB6CB2422043464A796A8AD90CF2D34F3C7DE7E6F59FFCDFFEF76A34BAFCF6DBE79F7976757D1D2C
310
99D7CA522B40E8C5CE51ECFF076E1DC823D04EBF3D5A5A591A8D42A8DC42CF508B55E103C03752AECDCC3348A44EA2911D95193636B66F5EB97CF6F4D9F9D1E0DED6E6677FE6671F7DFAC947CF9DA552EA275FFCE55FFBA60F7FE8ADB72E3DF6C4732FBC7CA96AAACFFFFC2F4CF6F6DF7AFDB5BFFE033FB0D40C4E9F399D80
310
168C2CBEF26CEE190C42863AE5A92BC8CAE0C9C41DF9A2B153BE75E7CEFCFC52DB4ED4EE1F3DB216634C20439DC1026782D49094B2BC9750C2DA6854EA922FC458E24FB3715F1E610489AC9C07B08C7CF7D69D493B5D3E712286E0D2C50B17D6D60E1D5E391C800B175E39F3D8E3C5CB72EDF295D834EB6B6B596AC094BA7B
310
77EE6C6C6E3CFCE839A7FA3EA59CB736EE1C3E74345415E170051A73AEABEAE73FFBD9530F3CF0E0534F965C4A882E0F522525DA3EBCA1E56BEFBE7F047A2F5656A65484C58401F0FB7CF6921AE7251D24674FAD60A68C3870C3FCC2E2F2E38F5FBD74F1F5BDDD08DA7078F1D5D7AF5FBC9452EA0DDFF2B10F5FBDFCC68913
310
2780FD734F3C3A1CCCAF9D7C606971B99BECEDED4F6A394459691796638A89D8DEDEBA77E7F6A01E242A0C86A9ED2D70D43431C4EDC9BECC625D1F3D760250331AE4BD2A868645EB0620B76280052B990A33E69DBB8ADAB4848D642A3A85FB62BD0C45C1802C823070E5F0CAADBBB72FBDF4D2E9C7CE4DDB7EEBF6ED871F39
310
2D52AE94BD6807BD4D1BF7EE7EE09967292724A20E716979E9AF7CE63387D78EDCBD73E707FFD1FFB4BDBDBD72F2C4D6E69DD5D5233104A76A32D6B5C83FF887FFD096BC2036663AD82C2BA973F032813E8897E0035900941C242AD0C419926816FF59F4C99EEFDCB8D12BEFDEBBB7B27278308C9BDB770683119A06EE2B47
310
8EAE47DBDDDE7DE8B127087FFBAD4B93DDBD3868E6578FAD2C1FF2DC5A685286A95F595922399A9FB7BA1EC31C2A27744119053BC1E4AAAA26D675D3D47B29EFEFEF2BF713DADC78D4A7B4D3B6AB6B6BE6397B06349A1BBB673319CC529E4E3763BD200834573688023D855067CA81C028C88D26A8D879A94033871BC099FE
310
95F223CBABE3F9C58BAFBFFE4F7FE41FFE679FF98CCB3CBBFABE6BDB6E3A4D16DE7EE595734F3E297996927B6D06A2B6F017FED2670EAD1E6AE5A3B97980FDFE5E480A2126639D3388301BC9B1A2C6F28E56A28A68343989280416D0F7C15B07B2009C74C4563211EE1D2D08024CE650A7ECDE279FD2060B878F2256753312
310
DBEDDDBDD160D44F276AD875A9CDDD2846234F3E7A1EB977598622A282F5529B1D699A7CD7938F478B553443E898097381F45CD212E083D1A8DDDBB3A6AA47634F79500F91BABDDDAD3818CD8550A5767F6F1775B571F76EACEB713308C4DEF6D6E2DAD1A00C36C9087719EFF716214615A330E99417E31B0497035ECC3532
310
6677B9CF085D2EC24275FAD147FFD68FFC83EB972FBF71E195DA42047EF65FFFD437DEB839BFBEBEB6B2220BB99C7AE5B9E0746278EEA31F1D36C3104CE2C2CA52EFAA2CF480B93A32C02398241049E8E9FD0CBAA6BEE02525407D49BF3B80EB407E6C5A150D81DE94E12B2922028148622377B3A52347366EDF5B9A5F0C61
310
D0EF6FAFAF9FC8C61E0CF38B7DD7765B5BEB478EEE4E277DEEDBFD5D59558F9A142CF5DDDCDCE2ED1BEFDEDDDA595A18C7605DDF0E42B0AA8A61600A20135364E514C400CB6DBA77FBA66EA34BBD55F5787E696F678BD2FCDCDCD6BD5B0B310E9A2A2A45606F7B7BCA2D0306551DE475A842A8C4505468464428081DE87032
310
42E88868A8946309C40633600C82022D41915629E4FBD69A6038BA7AE4F0EA2148B531F4FDF77EEF9FDEDEDA1E1C5E3DBABC1CE4150303C5380083049A0D060DCD193295184340552A0C964D35186985363C953716EB3250262AA881071222951B68EBEBBD317E0FEB401600902118CCE942C84050513483F05EB8F4CA1B69
310
BA7FE5AD8B061E3A727450859DDDC903671FB1D1686E3CDEBA71636E71616B676B3269BBE9FEFCE2B207DBDDDCF6DC77FBFBC7D7D9B5FDDCFC3CD5EFB73D521F492276DD46708566312002391210823088FCC73FF43F3E78FA6186F0D65B978F9F38FEFBBEE9C33FF5133FF197FFDA5FA996960F2DAF5475450B93C1746175
310
796836D9DD4D3957244963C8C6E822BCD27D270E696622125079C105CF2E3625F58DCAB1C0C3CA69DE48A791594201DE93743554D53467CF9E75867B398F2C3840572493DC0801864CC1CD05034BB0406170CE8219853C0BDD63D9F74A500021D8ECB2C54CF7BC9FDE27C5BF678B640E2684028934C00996AD02F493EE5FFD
310
D88F7FC3377DE3ED5B1B572E5E7CE8F4E96FFEC837BD76E18D6FF8B66FEFFBBEAA06A307EA8AB6BBB579ECE4A9066821D15AA8861AA7E76E7E38DA818DCDA77DDBF72DEBDA53172CB67BD7824F502F1B470E0A04529FFA8F7CE263EBC78ECD2F2F6D6DEDEC4E279B9BF7BEF50F7CFB0B5FFDDD8DCDAD4FFFC93FB13C588E66
310
4B2BAB7D4E6671BCDC548297E07FF4AE28A3141C0A25B10722D8E33E7112B9049B13927274570842411930192D971743901461344BD0FDC05C37982003A2592659CE2C542ABE36889429001985986133C8B7C00CB927598599CC499548B32C39D103824765B843CE83B9970EE487962830CD323451E6383D69390739021E7E
310
F491BD697BEBC68D47CE9D7DF0E1D3BFFE6BBFEE167FF47FF8C18DADDD9327D691341C0F366EDD9E76FD5FFDAFFE46B5309F61F40C9AAB37B360C0EE9E8F06A119C6A6318694FBA66AAAF1C9FDC9D5BEDDE3C229848193EEE8BBEEF8F113172F5D1CDF1EEFEC6C8BB6B0B878F5CA95C585C5B66B536A25A5FBBE78D02A95C8
310
4340CCF7CFFAA583AE82EC2624156EB15CDD74EAE3B1958BB72B29050818808900B30479728BA1442C6A260F51691165CA11723BF51801030298E1A2190AD41E0EB823A8FC5C5552190114F0F2A088E81CC86D9B46439F89EA1484585E56306868EFBF01DEB3D54B6D4E8DE78A00D012E56D1CBCCB5DBB7BE7CEE2EAD2F6D6
310
DEFA430FC5A6B9B3BB77FCCCD96B57AE3EF2CCB3F570DC4D27D6A7BD9DADB3C74F564D33A5797287F7F25EA86906794AF736B79743C581412472B2209721281E9EEE5FD7CE5D1BAD2836BD271B8D7EE1177F71BABFEF8E575E7CF1BBBEE7D36FBF75F9D4430F7EC7A73EB971E74E351E778252EE2967489E7B894476995927
310
3744310BAA498A26F5822C937428B7FDEEC6066318541594DD35154C207A12EE9E2897A05C7998004DCE994A9875C37A4ACA3975F7B637A381CD2859E17B5BE70A72D2A6620D2798A90CCF640B93E0841C31A8150D9E53BEB775AFC7521CD40965FE850055B973A86DEFB4C18883570307B2006AE3889AA75516DC18880056
310
1219D1C4CDF9F6ADD7DEBC7AE5CAB069EABA595C5E9EECED7DE71FFB631F78FEB99C1568A68CD40D43358555C6447730C90239900C6E7168C78E8D9A2603F4CEA004462A22A4E0D221EF3642179AEA7088A155FA039FFCB67B77EFAD1C3E3CFF7DFFF95B6F5D7EF4E31F7BF4FCF91B572EDFBA7367E3DD1BA3B9B969DF3DFD
310
8DDFE860A11B193C99CC42834A64964C5EA138F93195D38CA4033608F591B585A621527696780B234D262597D7C1E062352468506470B32C141C5865848247A6436BE33A00262228F4D480080A065450855074183DB203611632403754E400828CB5F1D0E1F9AAEA6D7648EAB26A6533F4DDED106313ABFD03380938900540
310
152C222427ACE4DC8B3244300FE7E7BFF9E31FBFF2C6EB4F7FF0F9C9FEF4D7BFF02BDFF5DDFFE9A3E71FFBF99FFDB9B9A5E5B9B9F1E6DD7BA7D6D7CF9F7FC4950DC15C6E2460E5CD0F020A2190A0CB104080C92892B59AE1B09AE47DCF134F9310E788341E8EEEEA9E593CFED083172EBC366D5B92BB7BBBA977E6FEDD77DF
310
3DF1E083BA9FFBE072CE46783478CF022862F127431E24094E9121530831234704336916EE52A2457B3190815539DBCC488026EF4B3C35AC9E0DA7C8501994C8F2A4372183E52620D18B8E04804AC2BA50BE851C50462881EE1EEB4CB2B86A04A7324D6862B3DEFB4404B0F7F5D910FF11EB601600DC847248D67DDA838941
310
CC0C4D8C87D6D68655180E062B8BCB1FFCE073F3A33991C71E7830069B9B9FDBDFDD5D3FB1AE72D8A548339A970BA8661661D09C061365801B2D100666A368C3B9E3D37E4B02E14AF9A1330F9F7CE8D4E2CA1155D51FF99E4F175DFCB9C7CEEDB996AC52B06C96CB20D7BD6C7657D98B4049FB2FD114100C72967E107D7640
310
0F60616288C834994567B071A95CC220CFCCB964C1C820516EB3C1A0FD3B977C29C2206528CC54CD2A44F9722F29776B53CEF2503E1B4B0CA2A964AC90A9E4D183656ACD92C564162DBE5F00EFD5121D8050E02424CB4EC9045C093AFBC899EDEDD5C9F66E68E2873EFAFB078C2E7FECC9C793BC86AF1F3F5AB3BA8F64A123
310
AB60B6A4642C57C30CC11DB4042F89B93EFB1A871B42157C3499DCB2702233D8A0A97393919424C9620352A4C393B295DBA5E412ADCCAD91E4CAA6802C2F462D00060790311384F6145D49DE3B4B0280C312C002B5D60C5A07F3C2DB48CAA6984D3D0A4A0F9934B9683D90A44CA1C08F4480C58BD397181538A4A494522764
310
8581B37218202F1C602017DD980828817D31F0281194E03C90888C035900D995734A4AF40853165CE5F7E294DC7302AB6AB895B6E6E717F6F65B35BEB7B7538D17DAAEE3B08198910BF421D05DF49C92925908300106CF39250647A0447A2F8F624124F6C821333110C376BADDA7B0B3B1B9BABAB2BFB39F4398EEEE8D46A3
310
D1DC5C0CC1651EE882674F65E00B5259922B4B5D56140268B9C86CA042F52A8917B3B022EF332B91627696AACDB31EBDDC29739372369398999382BCC024B395B78B0877B719F905454B525E33A52C67EEA2E44AAE5431F44255A2BF80207710A08952A14E5280B980043919CABFF9F5DA0FFF31EB401680C1CD584135CBD9
310
874EABC04005CF016A68080665CF3EE9776317A7FB7B920FC60B3154101C6A442857648677ED1E43154B32A2DCDC63F6008779496F0BEE4E544E14981715040F3594AA581D5E3D246038AAFB8CD43482ACA8F12029B03C6F0BF7C2E5AE802C89C8D667B7CACDE09495683A8F0E47706683652565B809C8C141CBD1A9101C24
310
CBD69E097A832B4B0830997B76330A428668509007A193871005F87DBA02E1F4D2FACF1422E98864A848213B101967006049054A42161A9591513082C801AA58B75FEF8DF17B5807B200B2B7722FE796FB075909E559E6EDCECEE6D6BB3156C36630DDDA519F76CB5672B4DB93F1FCBC4BC1D00914FA0087A59C7B75A9EA2B
310
337A4FF99ECB033223E460F66C35D943CABEBBBF530D873473D2DD3DEF8610E02617929A3A86AC767F2F403D39B5C01808F4A0E4CEC0D4960774E156644D4048D6138185E01E4003530299B0B3B7B13D4D81C195E7969642552304C80A011906AA6883985C2150083D5D604B3843E1564C53AE6325A2A751F219AA43337B3E
310
2D0326CF64A2A4D681E2C0B1504594611A533B0D478E16A8581092DCDC039C08540E78FF0DF05E2D77644F0939D2209902E82C83242218EBE1A8770F2186E0FB6DBB301CA449DBD595B73D87C3D16000A986BBA389C8B9F5306E0D2655F02033AA4B7964C856159E4AF25C9390ABEFA6EA9AF180B1EA81A8EC5951DEB5A96A
310
9ADE150173A5AEAF878DC02AA00A518031B844A8DD6AAB2A96FB00DD1D9405739096DA6E617E41416210447741751E87D0D74D933D0DC6E330681402DC8CEAC52A2048948B169DD1209899275945D4A0DC03507B1E5A4804CD00252F2ACE3246548519F22E13BDBC30C4828584505955D30260C29E046502563A65650E29C9
310
5394CCDFBF03BC672B98207764CA917A080C01903CBAF709CDDC5C65E6A2E57E3C9C23BC6E4634B33964707FD21239C193ACEB3CF5DB8C9850511DDD09AF6CB00BE4109C192EC8DD532C17EEEC5DAB6A24E48CD20D94086B53D754213B05EBE539A74A7582E44CA5F54265CF116E16633300CD4C0E2382E4F044F5B9EB7BEF
310
C9A860F7E7AF92717C683596B75DAC7A3101519E4B32BBCFF4F98092666FC5569010C40C29F70AC185E4399573BACC856833144D57FEA8F821858EAC6589C8622F4ACE503AC1E85C53952F4B62EC69C111958D55E793C2663D70EB401640B06821D242A019433203CD24D22AC8C4DB97AF40960C95C5BEDD5F3FB63E680651
310
84127D278426330639A19AB1AE961391E9705960E490DE56CE410C89AE60E66CC1C010E5F22E984A0BBFE4119914E426D19D1243CD8CD24632B82156CA057C97D01BA89CFBB615603401BD67D1E0CEDCAAEF4C0916021D6032C955C3A25930330441846A590A06B0F2446370234A5624029088A1D8533518213744A8F2549B
310
059A33C290BC9CDD1568317B650808823B3C90540C041808AB80BADCAF841D720C240B19E6F02098217A0812C360C8F8FE1DE03D5B199891A28B1A5A00CCCC25BA5576E8C43A2D785116E43C1A0D48C1AA4A901A0BF38057EE496C42E5943912B2B1AE1903CC389F721A18134BFBD299AC3633214756D3643407DB49AB7E4A
310
6767682713B8679890B2E46DA24D3BE4A95932AB4723408620783D1E14A95905B8BC6BBB7A34EF48D11B6B06C60A3E4BEC0DA02B8B20653063F1AD175876D121CB44BBCF944F651646406E6574E02EB94C2261A5B32F3A2888060691B45994348BD814A405950E27541AACA549E428A79C52CEC81250066A74E58337040670
310
400BC04B5A824A6FDD4D959BA9481F3372D73306B967314321E5EDED0EC81E9B9C7A317B20807D972B4F032DCBE11D68865D8B8610A07DCF3D2573C824E69462C99056CAD3B65E9C0FB06A8858577D4AA4A79462D3507033935C1E074DE33E080C2CA8823200B03CEDDCDD677750A4B6874D84ECCE60AAAB86E54C0F4A89EE
310
50824C0C80CFE65612E89E331C66B5EE6383011741172179A688597E7009ADA27176F326DCE94420049090CD665BB180B28BE925888E321886C3A1444F64CC4472167F5CB10320177DDFC15B07B3009093BB432ABC51B897AC1E5030ABEAAD3BB7DBAEA505F63E9A1B6EEDEF1E3B766C30376831340B89D173575B94FB2018
310
3C8B6CE51EAAC868E5E8D2F773C1B35018D75DCED11044B84F108C01845925233191BBD1CDE0B26055522A8C1A58B1D0180097234B669E53356C00D6848BAC0343301B1AADDBDB76C9CA9398A632FC121C8A90646580460314B277EA3A27CC2A8A82DC735212D8BB3AEF590F07B45232EE5400C0C2434820C53CB371156325
310
32661DCEFB7600CF80A1345A6786BB440A4591C15CC6C0F028B1D0F80EE03A90050007A00E39A8325A121399E4413225473AF4C0C90C13E0CAF234CF234676B06E264380C32826D264C6D96833D18A0ED9901D72D9AC710FB98B5689428083B91C0DC404B9351114AB6C55CEB3D7524E7D865C9E9D249C52F6AEDF57DAF5D6
310
1046C62A55B59473EA83D54932B5094CEE446F984190939833FA94B229405076C12CF614400FF5D465B9652EEA7D5A30B7E09668D1C55E04E08EE4EAFA24A28CBA933B2C8074D2C5CC1C6804DD95CA4542A0B73D634670B9B91BC30418087024220B2D3C4844EE65AEEC3A88A92807B300CCCC880AACA84045434783541983
310
0CC9DBEDFD8C9CA10A9652B2181C82424B19E916A5ECFF9ECFAE42484F6612A14CE4362994996D0C70EB7372B3B2EBD3A46DE6C7650820BAD18255B4684284044F403433308A413079344B0CB11E5B88D37EA7DBDB719F44D0E27CEF08BDD3A2C9231143105449A2F7C8945237D9BCBDE7B0D1B0A145870C74A847967B452B
310
D0F828F4164A1B34912E447A6794BC824FFB3E8620B28CF1B2408B047A63061ACCB01A10FA102A798290BBCEEA10ACB87248F55D5B9134C2600E390248F7C0005845EBBECEFBE2F7B20E6401C8BBECD3A4D8F72DAA4A18B9D1C8A42C00316E5CBF8ECA06CDDCFCFA514FFB8330A024338329103229D74202C6162807D84A1E
310
1825CB0966753B1D060941A176619ADADA00319AED17D92430D9DF49EE7205A2DBDD413F281AC984CC89BBEDA79C61398430188D60D1108D1C8C05CFE01273EB69AFEDF6636C2193458BC394F64DEC88220975EFE9D3C9CE9E82E6EB952A566215424CA119D0E1B4108C21D002D98BC1205A4F6630D22A807283A34F8B3114
310
FFB1D392A0327263907C506E0A92A0CE4290BCE4362A478B0396BC39E48C381B37D2E4952B20BB5285D013D581BC021CCC02F03C656A3C35199EDAABCDF8B411640D98E0004F9C3D0BA2A372EA1D05700D0982D3CBEC589295B389410E97DCB2C18293CA2903729899DC459141069315795CC9B21ACECF6731A51C4965AF07
310
552F1248EE405F8D861002A6D1CBAE712795FBE9CEAE3184AA31D16CA91E2CD02CCBD9A7C9DECE70AE4D5250EA95C8DADDB34F570ECD310E22834030022130CA2C1713409998011930770F6533C3E932C8CB2D06EE92B913924384920BC198A4AC1C65050F45C96602D2721B2F89158424CF0605181C5DBA45CC4B13282044
310
661DC81BC0012D0088D973CA9DA5696C16F63521AAA04E88416ADBBDDDAD2D9AB9C08AB03835D105B35EC640216429D0A03CB14094A8D74E211A8C9229B5C9DB8072BA10D065C48A9005F8FEFEFE683CA4C50C64780E46299B25062903CC744191CCDED3626697730B0E4442C9E183D198A16EC258648065B3F26B483B3B36
310
1C4A6EEE3572829472DEF59D7DC62A954E0E9518284E7B79006806178D4C79DAB94554CD4060220358D13DE750C59DDD495BC760C1C3FFDFDDD92547721B4138AB0AC0F40C87A476A50DCBB22EE047E9FEA75138C20A490E2F97CBE91FA032FD009EC02F8A11CED0095457657DE949C1CB0C1D0353F0378D5A9730C0709885
310
725AE80EF5E26589128299BFAEEB87E70F9206D87BA76D233F473C8B23A5B8CB39D89D0A20CC89C23C3F7C6FDA07A661CB1C708D4B6DB7ADC33812DF5C3FD4D3B95A16CC18B9C8E28479BE83161E6292D8D03914E10888AE7CCB7C7CF74BBB3C36AA9462822B9B7933C7BB4359C63429A03ACD99EA8BB88144C638506A2D0B
310
FBCD7258AD39FA58BFE6294C5D5A521DB14456864FC69B935237D1AC8441E1ADB47FFFF2AFCBD363785DDF6E90C223CECBCBDBEDF1D4E61B052147B712DB6DBB5C1E4626DD95793E35655EBFFD70BCBEFD7A5B6BF1382FDB7694562D75BE9CAD955BEFFCFCE59F3FFF740A279862C01861F0BDAFE6768E563C024586C55D86
310
84BB8F5E4AF52BD08A45DAA851FFECCFE2FF39772980B030372B4B896200FCA41907270BAF6EE5D33F7ED0E41FC8949D863189CBAE1C6EF07C4F4D44C2C0417817C03474080EF43E0E07ADC832C99E9949989C7DDFD7563D4CDDC01CC7E8E606B37DDFD893C8D95D396E2BC95D543731E57D0C01D5EBE3D7AF69CAAD6C8632
310
748382EE81089B7068CEDE3A6189E4D0DF7EFC318FDDE497EF3EEEFB115E60B65CCEC7BAAD2F5FBEF9F84CA23C9C4B6B7C1A7DA4E09D69D4C3F581C7B19C5A8EF1B03490BE94F3B91D07FDE4514BCE41EFD3E3CB7FFF536B55EE69F01C2C27F3D2C75AEAB5DB1630B8BDBDBEE4F564D6F671787C82552B3509B2A7709F6EE8
310
FB1400BC44BD4639439465E6E7129F4C6148C350F1EDEB6B9A0FB827956A2603CD71C8E99AFBC37DE605B9CDA950A7326615E00EECEC2582E04C84D8A96A5D92A9D753CB81C49EA6247B761FCE718C3C9029A4C9114E823427D2CDBD22493B20F8529BF9DC822714DE66BB282008A914595CB0200CE6F1FCD4C24D59CD0473
310
B9B9CDF5AE9E87FDF09D01F33D22590C561758AC1C05568A832AEE7559CE11EC832E8AE9EEE146A95411CDCDDD94090B9FE0887178501E811E510155F3CBB71F53DD667B56A3B3179444258EC1AC71972991772980DBDB9EFA427937087DCFB7BA84CF40DCD4DAF71691D1C6FC454486E850C20E4D88680006914263A48D24
310
12222D66910D643F1445660917FA60CE5B196466CA36A7D1D1C93E761A94C9DB26118EB9534E77937B948C3290947526B941DAB99B07E354CA2535526B7A38E4123844F5523C3A11891C0C2B5E64BBD13509702E337A748EA2232953566F2965B8EB181E7C5793931C11EB31C0FD8FDF7E1F4887A5E17A7D785D778706E139
310
5A69DBD89ACB3DDCE48661D6C701B4C7D372308D7AFAFEEF0C909B010000002F49444154A535655FF7DB72B96ECCB4A42D40B5DE7BDCEEB106BA3F3C7A66BEBCDC2384EFAF7F9E9F9F23EE8C8CF23FB5F54FB3BCF58EB10000000049454E44AE426082
  0
ACDSRECORD
 90
        0
  2
AcDbDs::ID
280
    10
320
31E
  2
Thumbnail_Data
280
    15
 94
     4635
310
89504E470D0A1A0A0000000D49484452000001000000006A0802000000DC0818B9000000097048597300000EC400000EC401952B0E1B000011CD49444154789CEDDD79501367DC07F02709E420619310C4240884235C724839828A0241C7D7AAB4286AF1A8383A5AA7536D6D3B8E8E4EC7DA6AEBD869D169C776AA759CA99D
310
6AEBF1DA5AD40E52C11630506E902B186248B89270E42061F3FEB1BE19C6B68B2D98CD9AE7F38743364F9EFC76CC37BB9BDD7D1ECAB973E7807B30994CBB76EDC2FE76381C288A125B0F3483A8542A8542C1FEBE72E5CAF0F030B1F53879115DC0DFD36AB59F7EFAE9AA55AB882EE4F9D7D5D5653299BCBCBCA2A3A3B12506
310
83A1BFBF9FCFE70F0F0FA3281A1111812D1F1818181E1E0E0B0BC31E0E0D0D21086232991004C11EFAF9F9592C161445994C26954A75BE454F4F4F7676B6482472ED9A3D15370D000020222262D1A2454457F1FCE3F178376FDE3C7DFA7440400000203C3C3C2A2AAABABA9AC3E1582C1687C3A1D168D2D2D23A3A3A66CF9E
310
7DE7CE9D989818A3D1989B9B6BB3D97EFEF9E7DEDEDED8D8D8BEBEBEC1C1C1A8A82804414422D18F3FFE2893C97EF8E107EC2D1E3C7840E82AE271DF00402E939999B964C992EAEAEA98981893C9141F1FBF61C3869A9A9A8C8C0CBD5EDFDBDB1B1D1D3D3636C662B10E1F3E3C32320200E0F1786C367BD3A64D5AAD164110
310
6C97A6BDBD3D2626C66EB7171414F8FBFB13BD5A4FC57D03201008882EC153DCBE7DFBA79F7E4251B4B0B0B0A8A848ABD5CAE5F2FAFA7AB3D9ECFCB83B1C8E8686062E973BF9850882848484381FCA643257973E6DEE1B80E1E1E1D2D252A2AB78FE2995CA9D3B771E3870007BB879F3E6A6A6A6B4B43462AB7219F70D80CD
310
66CBCACA22BA8AE79F4020B877EF1E7620EB34B35F3D6AB53A272767063B9C41EE1B00C865162E5CF84C7738DDF920983A7513087A7EC100401E0D06007AAC0254F4809E4130A802AA5FC02F0000BD5E6F369BB17FCD66736F6FAFC16070B61F1C1CB45AADC4D53B33E03100F4980558824010004000045DA00B0070F8F0E1
310
FAFA7A93C92493C92A2A2AF2F2F23A3B3BFBFBFB3B3A3AD86C764B4B4B4242426464E4D9B36789AEFDBF8301801E1B024376606F012DB120D607F80000DE7DF75D3A9D8E3D3B3E3ECEE170C6C7C7B16F7D068381FDC162B108AC79FA6000A0C75683D5008078100F004803690080C0C040826B7AF648790CD0D3D3336FDEBC
310
CCCC4CA9547AF5EA559C96656565F9F9F94F2CCCC9C9696C6C7C96053E272E5CB8A0D56ADBDADA6A6A6A944AE5A3478FD46AB54EA7EBEFEF27BAB41943CA2DC0471F7DB465CB963D7BF6949494BCF5D65B2B57AE1C1A1ABA78F1626A6AAA4C26D3E974376FDE74381C6BD6AC191F1F371A8D0080CACACAAAAAAA152B568485
310
85E9F5FADF7EFBADAEAE6EF5EAD52C16ABABABEBFAF5EB73E7CE5DB264894AA56A6E6EB6582C8B162DBA74E9524C4C4C666626D1ABEB2A8D8D606000242682BA3A909000FCFC4E9E3C79ECD8311E8FA756AB0502C19A356B6A6B6B1F3E7C989B9BEB3C734C76A40C404646C6912347FAFBFB333333CBCBCBAD56AB5C2ECFC9
310
C93973E6CC9B6FBE79F0E0C1356BD668349AE2E2E2EDDBB70300AE5DBBF6DE7BEFC9E5F2FCFCFC8B172F02008A8B8B7D7D7D2F5EBCF8E1871FE6E7E7BFF8E28B67CF9E3D72E4C8D5AB576FDDBA55505070E2C489C4C4C46FBEF966E3C68DBB77EF267A8D5D222EEEF11FFF7F02BEBCBC1CFBC362B1B0D96CABD56AB7DBD96C
310
F6C4C40411F53D13A40C404141417878F8D5AB57F7EDDBC7E3F1DE78E38DC8C8C8A2A2A28E8E0EBBDDBE77EF5EBBDDFEE0C1038BC582B53F73E64C6C6CAC482462B3D9D7AE5D633018A74F9F9E356B565454944EA7DBB66D1B0080C9645EBE7C994AA51E3E7C78DBB66D0B162C50ABD50505057FDD83F21C5E5E8F3F1E1C0E
310
0700C064329F58FE1C20E531C0E2C58BBDBCBC8E1E3D5A5353535B5B6B3018BCBDBD0100369BADA4A4E4830F3E60B3D9D9D9D9CEF6369B2D3232322E2E2E2323233D3D1D45518BC542A150180C466D6DEDB973E7C2C2C2929292B02F361A8D66B15876EDDAB565CB96E2E2E27DFBF611B69ED0B347CA00ECD9B367DDBA755B
310
B76ECDCECE96CBE57979794AA5F2EDB7DF2E2C2C1C1919E172B9434343B76EDD72DE77F7EAABAF7EF7DD770A85E2FBEFBFA752A9369BADB0B070EBD6ADB1B1B162B19846A3D5D7D797959539FB4751F4FDF7DFAFAAAA623299E9E9E904AD25E40A14F7BC27B8B7B7F7FAF5EB3B76ECF8A7C62A95AABDBD9DC3E1A4A6A652A9
310
5483C1505D5D8D20484A4A4A7777775757974422E9EEEE4E4A4A7AF8F0E1BC79F33A3A3A542A557878B84422A9A9A9F1F1F1E9EBEBCBC8C8A050281515152693492291609B053E9F2F12894647472B2B2B7D7C7CD2D3D39D37B33E971A1A1AC462F1B3BE180EBB530C7B08EF099E01C1C1C1C1C1C1CE873C1ECF79C16D6868
310
6868682800203C3C1C00E0E7E70700904AA552A9146BF0C20B2F00009CB7C0CE9F3FFFAFFD73381CB7BD82179A41A4DC0582A09902030079341800C8A3C100401E0D0600F268300090478301803C1A0C00E4D16000208F06030079341800C8A3C100401E0D0600F268300090478301803C1A0C00E4D16000208F0603007934
310
B2DE1289F9EAABAF6834DABC79F392939389AE0522257207E0EEDDBB5151511A8DE6C68D1BCE25376EDCC0464981A029913B00F9F9F9B9B9B993971C3C7870F2200E0E87A3A8A8283B3B3B3131D1E5D5412440EE009C3B77EEE4C993F86D92939327CF5A0E4193913800288A1E3F7E3C3232729AFD381C8EB6B63600404848
310
089D4E8769F12824FECF6E6E6EDEBF7FFFF4FB191D1DDDB871E38A152B56AE5CA9542AA7DF21442224DE02C4C5C521082297CB51144D4A4AA2D168D5D5D5140A85C562C5C4C4180C86AEAE2E00C0ECD9B3F1277AB0D96C6BD7AE5DBF7EBDB7B7379C9EDED390380000809D3B775A2C16B3D9DCDADA0A00C8CCCCF4F5F5D5E9
310
741A8D26303070D3A64D0080F6F6F6D1D151FC7E7272722412890B0A86DC0DB903E01CB976F9F2E5FFD4064E370FE120F13100044D1F0C00E4D1C81D00E71C3010F4DF9038005F7EF9E5AE5DBB264F6CE1FE8A8A8AE472F9EDDBB7376CD870FFFE7DBBDD6EB7DB274FBF0EB918890F826FDDBAF5FAEBAF5FBE7C79D1A24544
310
D7F2B43A3B3BC562F1D75F7FBD7FFFFEE3C78FEBF5FA818101269379EDDA356C1E03C8C548BC05080B0BBB71E30636DB05594446462627272B148ACECE4EBBDDBE6EDD3A5F5FDFD0D0D0B1B131A24BF35024DE021C3D7AF4D75F7F5DB66C19D185FC0BD9D9D9252525959595972E5DFAE4934F6C365B7070B08F8F0F3C0147
310
141207C0DBDB3B2626E695575EC16F46A5525F7BED35FC36EDEDEDB76FDFC66F231008D6AF5F8FDFA6AAAA4AA150E0B759B870A1BFBFBF7336B4B0B030FCF6D03345E20000000C06437373338D46C369633299EAEBEBF1FBA9AFAF7FF0E0017E1B3A9D1E131383DFA6AAAAAABDBD1DBFCDAC59B3F01B40AE44EE00B058AC13
310
274E382770FE5B6D6D6DA74F9FC6EF074190A2A222FC3665656553CEA829954AA7EC67646404BF01E44AE40E405454545454147E9BACAC2C9CE9569F5E5656D6A14387A6DF0FE45648FC2B10044D1F0C00E4D16000208F06030079341800C8A39135004D4D4D2FBFFCF2DEBD7BFBFAFA88AE05223152060045D1CD9B371714
310
14F0F9FC23478E105D0E4462A43C0FD0D2D262341A57AF5EADD7EBE572B9CD668343C141FF0D29B7000000168BE5EDED1D1010A056AB4D2613D1E5406445CA2D008D4673381C288AF6F6F686848470381CA22B82C88A9401888E8EF6F6F6FEECB3CF060707E3E3E3F12F8683201C64DD05BA7EFDBA52A9B45AADA74E9D22BA
310
1688C448B90500000405059D3A75EAD2A54BCE81D1FFC9AC59B3E8743A4E036C576ACA77148944F8C3865AADD6818101FC4EA854AA48249AF2BD5C49A9543E31C2B647216B00303B77EED4EBF5F86DEEDEBD8B7FD3B056ABCDC9C999F2BD060606F0EFDB2A2929C1C6A2C3111010A0D3E9A67C2F57F2F09BD1C8BA0B044133
310
82DC5B803D7BF6E0DF5288A2687E7E3E83C1C069333131F1F1C71FE3EF99A8D5EAC4C444FC5DA0F1F1F1F3E7CFE317AC5028828383F1DBB898CD666B6C6C24BA0AC2903B00999999F8437FDAEDF6C2C2C229FBC9CDCD8D8E8EC669D0D0D070E0C001FC4EA854EAE6CD9BF1DBD0E9F42967F4805C89DC01D0EBF5A5A5A5380D
310
1C0E87F3F6731CEDEDED5AAD16A781D1689CB21F0A85825F0C00607C7CFC69EA71A5A1A121A24B2012B90390979737659BECECEC1979AF975E7A6946FA99722BE1620D0D0D4497402478100C79341800C8A3C100401E0D0600F268300090478301803C9AFBFE0CDAD7D737E5CFEAD0F429954A81408020C8B37B0BB55AFD34
310
575B11C27D03B076EDDA29873D84A64F201088C5E2677A49DC94030F1308EE02411ECD7D03505353437409D0B47CFBEDB7F7EEDD23BA8A29B8EF2E101C469CEC4243439FE9A1C58C70DF2D00446A0E874320105CB87081E842A6E0BE018043FD90DAE8E8A88F8F8F4C2673F3B99CDD771768C18205449700FD77BEBEBEBEBE
310
BE41414144173205F70D00E4321A8DC66C363FBBFE753A9DDB1E0CB86F00AC562BD125788ABABA3ABBDD9E909060369BAD562B83C1080808A050282A958A4EA7B3582C8BC5C26432190C06361D5B6565656060E09D3B77B85C2E363EDFA3478FB0AFFCC1C1415F5F5FA3D148A3D1984CA6C160904AA5F893B811CB7D035051
310
519190904074151EC16AB55EB870213939B9A1A101FBAC5FB97285C9641617177FF1C517CB962DABACAC64B158CB972F7FE79D7700006AB53A3C3CBCBBBB1B7B794B4B8B4422110A855AAD96CD663318747F819F75DC66B55AF87CBE9F9F9FBFBF3F91AB87CB7D0300B94C4D4D0D97CB6D6D6DFDFCF3CF270F323067CE9C94
310
9494818181DF7FFFFD899770B95C2E971B1717070090C9644D4D4D32998CCFE70300B46D4D8A5F2EFCCF2BAFDFBB72262D7E4940CA7C773E130C0300818080003F3F3F0441EEDFBF5F5A5A3A77EE5C994C0600E0F3F9A1A1A15C2EB7ACACEC89B1959A9A9ACACACA6A6B6BC7C6C60C068350285CBA7429F654C5EFFF6BD0AA
310
A8566B5F7FCF1F75252FA5CC2760959E9AFB06402C16135D82A7108BC5068301455114459B9A9AB85C2E160093C9D4DFDFDFDFDF4FA552FF3AB8584D4D8DDD6E4F4C4C5CBA74E99C3973B85C2EB63C48181AED23EEFFF1E27C71DC1897E5EA95F997DC370052A994E8123C455555954020100A859D9D9D140AE5E6CD9B77EE
310
DCF1F7F7CFCACA5AB76E1DD666F295B9232323341A4DAFD71B8D46A954BA7EFDFAC9BD4978818FFEB8EAD0F68D078A8411CB5CB922FF81FB06007299B6B6360A850200E8E9E9118BC50882582C162E974BA5525114C59EE2F3F9BB77EFC6DA979696A6A4A45CB972657474D4CFCFEF89DEE8B1714289C45055214C95717CB9
310
2E5E977FCB7D03A056ABE1E5D0AE21140A994CA6D56AA5D168131313DBB76F8F8888E070388D8D8DD80F713C1ECF60304C7E496363E3B163C7525353793C9E46A3A9ABAB0B0A0A5AB972E582050BC6AD3693C5DE45F3F6576B11C4240E74EBC1EBDD37009D9D9D6E7B17C5F347A7D30505050507070F0F0FD7D6D6E6E6E68E
310
8D8DAD5AB5CAD9C0B98B8F494A4A3A7FFE3C8D46A3D168E3E3E300001A8DE6E5E53561B3D9C7C67CA85EF191717416930228A8C5ADCFE7B86F002097B1582C7ABD1EFB883F7CF8B0BBBB7BC58A1522914822911C3A74E86F47441D1919696D6D451044A5524DDE3E200862341A6DB671BB7D42201058CC663687C3E3F15CBA
310
3EFF86FB06A0A3A3A3BCBC9CE82A9E7F5D5D5D8383832C168B4EA7633F0761DFE8F1F1F16969697F3D030000686868D0EBF50A85A2B9B959AFD77B7979D1E9746CAA420E8733323282A2A85028040050A9548D469397973753E3EACD38370D805028CCCBCBC366BF130A85D8C180D96CAEAAAAC21A04060646444400004647
310
47ABABABB185090909D8B918954AA5542AB185494949D885284AA552A552610B535252D86C360040A1508C8D8D0100180C467A7A3AF66C656525760DA38F8F4F6A6A2A00606C6C4CA15060CF06050561678B868787FFFCF34F6CA144220909090100E8F5FAFAFA7A6C61727232367F596767A75AADC616A6A5A5B1582C0040
310
5B5B1B3631078BC54A4B4BC39EFDE38F3FB0CF1F87C3494E4EC6169697974F4C4C000042424224120900C06834D6D6D662CF86858561D79C0D0D0D39C739944AA5D8EFC8EDEDED1A8D065B2893C9B0AB125A5B5B9DD314AC5DBB76C3860D00807BF7EED9EDF6C58B172308929494843D7BF7EE5D87C30100E0F3F9D8F1008A
310
A2D8552A72B97CC78E1D8181810080818181A6A626EC25515151D8A75FA7D3B5B6B6620BFF7AACEC26FE0F48D2A49CF4C1B5F60000000049454E44AE426082
  0
ACDSRECORD
 90
        0
  2
AcDbDs::ID
280
    10
320
34C
  2
Thumbnail_Data
280
    15
 94
     3252
310
89504E470D0A1A0A0000000D49484452000001000000006A0802000000DC0818B9000000097048597300000EC400000EC401952B0E1B00000C6649444154789CEDDD7F4C1B751F07F0EFB5BD96EB6F286D61F4070C067665A3C2803D1B28CCC46CE88C99D1453213E3A2311A8D31C63FF40F1313A77FE8FE53F3248F06CD63
310
A6D18CC425E89E3C61CC6DC52CFB2163D980FD28035A4A29D7AEB4A5BDDEF59E3FEE797874DCF8B11FDCB1EFE7F5D7F5DB5EEF9DD237ED5DEF07D1D5D585B097CD665F79E595F99B1CC74918E6FE512814044108D33FFFFC732C1693368F1CA8A40E20475F7DF595C7E3913AC53D76F4E8D1FDFBF7575454481D445EA00022
310
AAABAB5B5B5BA54E718F050201A923C89142EA000048090A800B8AA2B45AADD42964070A800BABD56AB7DBA54E213B5000803528002ED2E9743299943A85EC400170118D46A7A7A7A54E213B500080352800C01A140017168BC56AB54A9D4276A000B8D0E9747ABD5EEA14B2030500588302E0221A8D462211A953C80E1400
310
17E9743A954A499D4276A000006B5000803528002E9C4EA7DBED963A85EC40017041108442017FEE5BC12B02B00605C0C5D4D4D4E4E4A4D42964070A808B6C369BC964A44E213B5000803528002E0A0A0A288A923A85EC40017061B3D94A4A4AA44E213B5000803528002EF2F9FC837ACAC7BB0105C0C5C4C4C4D8D898D429
310
64070A00B0060500588302E0C262B11417174B9D4276A000B8D0E974068341EA14B2030500588302E022994C261209A953C80E140017344DCFCCCC489D4276A000006B5000803528002EE098605150005CC031C1A2E01501588302E0221289C031C10BC1758297D0D3D323AB8B2B0E0E0EBEF6DA6B4AA572A5336632193826
310
782128C012B45A6D5B5B9BD429FE0FBEC7DF5BF06A2ED7C0C0C0D0D090301D0804388EBB7EFD7A3E9F9736D58A1004217504D9814F80E5FAE1871F82C1A0D3E9E438EED75F7F6D6E6E1E1919696868989C9C34180CB158ECDD77DFADAFAF973AE66DB95CAEF2F272A953C80E1460B9AAABAB799ECFE572C964D2ED761B0C86
310
5DBB76CDCCCCF03C6F369B53A9145C80682D82022CD78B2FBE287584BB221C137C076BCF0F365807C0051C132C0A0A00B0060500588302E0022E932A0A0AB0029F7CF2C9D5AB57D7D6B6FF7970A16C51B0156805AE5EBD7AE0C00197CB150C06DF79E79D9A9A1A845028142A2828282A2A923A1DB81350801530994C46A311
310
21E47038BEFFFE7B61906198C71F7FFCD1471F9534DAD292C9E4ECEC2C9C18E216508015F8ECB3CFA48E70E7689A8E46A350805BC03AC072DDB871A3ABAB6BA573251209BBDDDED1D1D1DFDF7F1F4281BB059F00CB55565676FEFCF923478E08375B5B5B851D33C7C6C602818030E8F3F94C26134288A6E9C1C1418410CBB2
310
9D9D9D4F3FFD34EC87234F5080E552A9549D9D9D0B8F2971B95C2D2D2D0B077D3E9F305D5B5B5B5555B51A111765B55A6D369BD42964070AB002CDCDCD5247B8731445E9743AA953C80E1460B9BEFEFAEB783CFEF6DB6FAFC2B28687870F1E3CA8542AA7A7A77D3E9F4AA5DAB871E3EEDDBB857B3FFFFCF39E9E1EAFD7EBF7
310
FBDF7AEBADBD7BF7AE42A40715AC042FD7E4E4642C165B9D65D5D4D4A452A96834CAF37C30181C1F1F3F71E2C4FCBD2E97CBE3F11416163635351D3C78F0C08103C16070C9E78C4422E170F87EA65E93E01360B9DE78E38D9D3B770A1B73D6AD5BF7D24B2F09E3DF7DF79DB0124C10C4FBEFBF2F0CF6F6F6FAFD7E61FAE597
310
5FB6DBED2B5DDC9B6FBEF9F0C30F8B1E006930189E78E209615AF8581819193976ECD8BE7DFB1679C24C26333737B7D2180F3C28C072198DC6BABA3AE1ADECF7FB1F7BEC3161BCA5A5A5BDBD1D21140804E6072B2B2B3B3B3B1142D96C569858A99F7EFAA9A9A949F42E8220E61734AFAFAFEF0E9602A0002BF0E5975F2EFE
310
806FBEF966E1E0C71F7F7C3FC28C8E8EC2A6D5BB07EB006BD54ADFFD2E97ABA2A2E2FE6459C3E0136009050505B2FA76313B3BEB72B916464AA55252C459F3A0004BD8BA75ABD411C07D045F8170110E8797B3B5143750005C300CC3308CD42964070A00B00605C08556AB857D81168202E0A2B8B818F6065D080A00B00605
310
C005CBB2B95C4EEA14B20305C04528149A9898903A85EC400100D6A000006B50005CC056205150005CC0EF00A2A000006B50005C241289783C2E750AD98102E0221E8FAFDA41FD6B081400600D0A00B00605C0051C132C0A0A00B0060500588302E0221C0E874221A953C80E1400170CC364B359A953C80E1400600D0A800B
310
8542A1542AA54E213B50005C381C0E97CB25750AD98133C389181A1A5AE92C9148643577368E44221445A9D56A822010422449E672B9E9E9699BCD4692A4F075DF6030300CA352A952A99452A91C1B1B6B6B6B5BB5846B051440447979792C16DBB66D1B4DD314459D3E7DBABEBE9E2449B55A5D5A5A2A3A4B5F5F5F616121
310
41102693A9A0A020140AE9F57A9AA6CBCBCBA7A6A60A0B0B2D160B4DD31CC7A552299BCD363D3DAD5028E2F1384110994CA6B2B2B2ACAC6CC960994C06FDEF74A5344D9F3A754A2840381CB6DBEDA150C8E17068349A4C2663B3D912894426932149922088F6F6F60D1B36B02CAB52C15FFC2FE0E510313B3BDBD5D5E5F7FB
310
BD5EAFC964EAE9E9F1FBFD3E9FAFA8A8E8A9A79EBADD5C344D7FF8E18766B379FBF6ED6EB79B65D9EEEE6EB55A4D92A44EA7ABA8A83873E68CC5626118A6BABA7A7878786666C6ED760F0D0DF13CFFEAABAF2EA7003FFEF8636565E5B66DDB10427BF6ECD9B3678FE8C3388E1B3EDD5B55DF3A397A49C5E4CB366D41087DFB
310
EDB7E3E3E3F063F02DA0002272B91C49921A8D8665D9EAEAEA783CCEF37C5B5BDBE267246F6F6F17AE9431EFF9E79FBFB7C1BC5EEFF5EBD785E973E7CE7DF4D1479B376F46088542218BC5E2F3F99E7BEE3984D0C57F770F75FFD35458327CE81F9C4AB5AEB641F8A0000B410144188DC67DFBF60967D24CA7D32FBCF04236
310
9B957C13CACD9B37DD6E777F7F3FCFF308A1818181F2F2729EE7D56A35C771F97C5E78F72384920A366D2D628321E7C6C663977A398E55A94849B3CB171440845EAF7FF2C927E76F3636364A18669E7009EED75F7F5DB859575777E2C489D1D1D17C3EDFDDDDFDE74796E94AB27136F3CB11269779C4B94178F7EBF57A83C1
310
B0FAB1650E0A20E2C2850BC160D06C362384689A665956A3D1AC5BB76E9159060606222882109A425395A8528BB44B2E258552299422113981261E420F916805FFA4E3F1B8D168148EF05A7829319B67536CE76E2E3C6DADF3B1548130585454545C5CBCFC4560020A20626A6AEAD34F3F8DC7E3A5A5A5C160309BCD6EDDBA
310
F599679E11EEB5DBEDA25FEED936763BDA9E46691552FD7EF4F740201008046A6B6B474646743A5D6161612291989B9B6B6C6CDCB56B1742A80FF5ED403B14484123BA1015FEF6AFDF8E1F3FAE50280C06C3A54B975A5A5A92C96432996418E6D9679FDDB469D39F97D5D7D7575F5F7FF8F061D1FC6A83D1D1B83D7533CE92
310
64B14D7CB31510400144984C268BC5C2B26C3A9DAEA9A979EFBDF7842D39D96C966559E1ABC8421AA4A1111D42213BB2BB5C2E96659D4EA75EAF5FBF7E3D4DD304419496962A954AABD52A3CDE899C31149B41333114AB437576BBBDB9B959A9541A8DC6CD9B37731CC7719CF048D18BA51E3B76EC8B2FBED8B973E7A953A7
310
4C26D38D1B37DC6EB75EAFFFE0830FAE8C8C249349A5524951143F1DB5D99414452512899B376FDE2E3CB6A00022341A4D555595D56A6518269FCF87C361AFD7CBF37C4747C7227335A3661EF12664A210A5F4283D1ECFE24BA944950C624CC8C4235E8BB4757575757575CB0F39BFD169FFFEFD7F1E9F4BA7C381D12A8F27
310
3D9B2009452691604C668AA2E2F1384DD350805B400144CCCCCCD4D6D6CEDF8C46A367CF9E6D6D6D5D7C2E75FF5984900621E4749E09870F1F3E2CFC584B922442C8E7F3EDD8B1E32F3364B3EA73E7D4C2747DFDDFBBBA3299CCE5CB97DD6E774545C5952B57F6EEDD5B5D5D7DBBC58D8E8E1E3A74C86C36070201954A45D3
310
B4B0D262329972B9DC2FC78F1B8DC644226134180885C26C36C31AB02828800887C3B171E3C65B0619863979F2E4ED66191C1C5479BDFFBD71ED5A3416234992E3B8B9B9398D46138FC72F5FBEAC56ABFF320FCFA3F9D3359F3E9DCFE7699AB6DBED994C666A6A8A65D98B172F462291DB2D4EA15034373723846A6A6A84C1
310
C5AF1CDCDBDBBB648731040510E1F57A859D0EB45AEDFC3650BFDF2F9C5EDC6030D4D7D723841289C4F9F3E7857B3B3A3ADC6E374228168B5DB870C160303CF2C8230D0D0D7ABD1E2174EDDAB58989096177FCA6A6268AA2104223232393939308218AA29A9A9AB6FEED6F08A1FEFE7EE1F707BD5EDFD0D0203CF9C9932785
310
F501B7DB2DBCC53D1ECF1F7FFC21DCBB7EFD7AA7D3891072381CE3E3E3C2E0962D5B84F3C05DB97245380EA6BDBDBDA4A4E4FEBE706BD07F000DA44B60D3B274CF0000000049454E44AE426082
  0
ACDSRECORD
 90
        0
  2
AcDbDs::ID
280
    10
320
358
  2
Thumbnail_Data
280
    15
 94
     1970
310
89504E470D0A1A0A0000000D4948445200000100000000620802000000305B9AD4000000097048597300000EC400000EC401952B0E1B0000076449444154789CEDDA4D4FDBD81EC7F1E3633BB673120379308F2D8D289445A9AA4E9FD407A9426C7A576DD7F30EFAA6E8BE9BBB426A2B559A0D12ABEA863B05414740B8A5E5
310
260412DBC7B163FB2E3CAA3A33BD23D2217533E7F75985C83AFA9F90AF30B6A5E5E5653208E238761C27ED29E05418639224A53DC5A928690F705AAEEB72CEB3D96CDA83FC4DD4EBF566B3393E3E9ECBE508216118D66AB5A1A121CEB961182323238410DBB63DCF334D3393C910425AAD562E97731C279FCFFBBE4F08C964
310
328EE330C66CDB4ED62184B8AE2B4912632CBDCDF5606002208464B3D941F958BF7F8EE3ACAEAE3E7BF6ECE2C58B9CF3A5A525D7756BB55A2E97DBDEDEE69CCFCECE56ABD5DBB76FBF7AF5CAB6EDF9F9F952A9B4B6B64608A194DAB69DC9643A9DCEAD5BB75657575BADD6D3A74FC7C7C7D3DE56CFA44139054ACE7F10C059
310
393C3CDCDEDED634AD542A1D1F1F9BA629CBF2EEEEAE6559AD56CB344D42482E979B9C9CFC93451A8D46B158FCDD9B83F59B1AA4BF0070B628A5C997B5DD6EBF7EFD7A61618110F2E6CD1BC3303E7EFC284952B158FCF300FEF8ED1F38084050711CDFB871E3D38FF7EFDFFFE2616118F6BA721886B22C7FFD64DF16021054
310
1004C7C7C7FD58D975DD42A1D08F95FB0101082A93C9F4E90446D7F57E2CDB2734ED0100D284BF0042B3355B8E6425549AD9A612290577604E5DCE0A02109AABBA966D11422CDBF2659F10B2B2B2A228CAF6F6F6E2E2E2870F1F76767626272793DB5E711C8761582C16EFDEBD9BF2DC670701082DD7C97195776997AB3CDF
310
C993902C2C2C30C6161616745D9F9A9A9A9B9BD334CDF33CC658A7D32184689A96F6D4670901082D1BFCFA6849BE934F5E4C4D4D7D7EC0A0DCCFFA6A08007E637D7DFDFCF9F3070707BAAE27CFB4351A8D72B99C3C1DF4F78300C41645D9663396E548966349F273B95AAD56AD564DD3E49C4F4C4C148BC5CDCDCDF5F5F527
310
4F9EA43D6B5F2000B151EAFEF66EC0C3870F7F77C8A54B97BEE140DF1AEE0380D01000080D0180D01000080D0180D01000080D0180D01000080D0180D01000080D0180D01000080D0180D01000080D0180D01000080D0180D01000080D0180D01000080D0180D01000080D0180D01000080D0180D01000080D0180D0100008
310
0D0180D01000080D0180D01000080D0180D01000080D0180D01000080D0180D01000080D0180D01000080D0180D01000080D0180D01000080D0180D01000080D0180D01000080D0180D01000080D0180D01000080D0180D01000080D0180D01000080D0180D01000080D0180D01000080D0180D01000080D0180D094B40780
310
74743A9DC3C3C37EACCC392F954AFD58B91F1080A0344DB32CAB1F2B3B8ED38F65FB04A74070062A95CAD8D8D8E8E8E8F5EBD7D39EA5370800CE0063AC52A9789E37323292F62CBD41007036CAE5F2CACA4ADA53F40C01C01908C3D075DD3B77EEECEDEDA53D4B6FF04F309C81ADADAD9D9D1DC330767676D29EA537084050
310
3D5D068DE35892A4531E8CCBA03000344DABD7EB2323239452D775755DB72C4B96E5BDBD3DDFF7C7C7C7A3288AA2289FCF534A0F0F0F0B85C2DADA5A14456118524AC3309465595194288A28A5AAAA3A8E639AA6AAAA954A25EDCDF50001886B6B6B8B31363C3CECBAAE2449E5729910727474B4B5B575727252ABD55455BD
310
77EFDED0D01021248EE3B9B9B9300C09219C73C33064590EC3F0E6CD9BCDF73B85C90B2747FFD5298DF5DCBB77EF52DE582F1080B8A228AAD56A6363639F5FBC0F82E0E8E8A8582C3E7AF4E8F38329A5D56A9531C618B36DBBDD6E2F2D2D11426EFE70F5E5EA3FC7C62CFF3F3FEB8631F3F047040083C1711CC658B55ADDDF
310
DFB72CEBDAB56B8410D77539E78D46637777777A7AFAD3C14110ECEFEFEBBAAEAAAAEBBA939393C9FB1DBFB317342F36EAA5D10BFF3AF8F74C3A5BF97A084050BEEF2F2E2E26AF29A54110341A0D42C8ECECECCCCC4C1CC7AAAA26EF10425AAD96699A922471CEB3D9ECE3C78F15E5D76F8E395C5C3891A59F7EEA76DC6BB3
310
9752D9CB5F810004E579DEC6C686699AAD564BD3B4300CE3383E77EEDCECEC6C72C1278A22455192D74110504A2726269ACDE6FCFCBC61189FD691A95CFEC72395FB25CBD2ADD138B50D7D25042028DBB66BB59A2CCB8CB16EB75B28141863070707EFDFBF5714258EE36EB73B3737975CD2A194CAB27CF9F2654DD33CCF3B
310
3838F03CCF300CCBB2624266EE2CB6DB27AAAAE9867174749CF6CE7A334801B8AECB1823849C9C9C249726E0AB699A46295514A5D3E970CE8787873F9D117D11A5747F7F3F9FCF8761989C0BD5EBF572B9FCCBC6C6C97173A454AE7FFC45CF64BAA7BE5DF09D18A4001E3C78905CAF78FBF6EDDADA5ADAE30C36CFF32A958A
310
A669B22CBBAE4B297DF1E2451886E572F98B4F744A9294FC979CDC01F07D3FB90CDA2584A899B6EBC68AA29BE671ABF5AD77F2D70C5200B66D379B4D4248BBDD1EAC87CEBF43DD6E9773EEFB3E638C52EA380EE7FCCA952BD3D3D37FFC6C39E7ED76FBE5CB97D96C36088276BB4D298DA24855D5E7CF9FEBBA4E294D4E9382
310
20B87AF56A724B612048CBCBCB69CF702A41106C6E6E524A092151145DB87021ED89E0FF628C9DFED18974FD0FF983A8BC777BCF320000000049454E44AE426082
  0
ACDSRECORD
 90
        0
  2
AcDbDs::ID
280
    10
320
3AC
  2
Thumbnail_Data
280
    15
 94
     3147
310
89504E470D0A1A0A0000000D49484452000001000000006A0802000000DC0818B9000000097048597300000EC400000EC401952B0E1B00000BFD49444154789CEDDD5B4C1B571E06F0638FC76303C636061BC2CD10D6606C08218B42C2259017B64DB69582A208A54855A4A895F2D04A7D885455AA9287A80FAD52A995A2AD
310
16958755515435484DDB68579B5D474D20452135095747A9695CC0C6CEF8C2CD1ECFD8FB3095E59209215960C639FFDF13631F7B3E2E1F1ECF8CCFC8FAFBFB11400821E4F1783EF8E0038410C7716267D94604412084BEF8E20B8AA2C4CE223E85D801A4A8AFAFCF6AB58A9D628B399DCE868686E9E9E9D3A74F8B9D4542A0
310
00022C164B5B5B9BD829B618C7716D6D6D2FF78BDB0B908B1D0000314101F0929F9F2F7604698102E0C56EB78B1D415AA000006B5000BC2C2E2E8A1D415AA00078999C9C143B82B4400100D6A000006B5000BCD4D4D4881D415AA00078292C2C143B82B4400100D6A00078999898103B82B44001F0E2F7FBC58E202D500080
310
352800C01A14002F2FDFE71CFE4F5000BCF09F8704295000803528005E9C4EA7D811A4050A8097502824760469810200AC4101F0623018C48E202D5000BCD4D5D5891D415AA000006B5000BC300C237604698102E065686848EC08D202050058830200AC4101F0525D5D2D7604698102E0A5A8A848EC08D2020500588302E0
310
657E7E5EEC08D20205C08BCBE5123B82B4400100D6E0124902A6A7A7C58EF06C2B2B2B478E1C113B45C6830208A8A9A9E9E8E8103BC533381C8E1778546B6BEB5607C96CB00984178502FEE5FD011400600D0A8097B1B131B123480B14002FC16050EC08D2020500588302E0452E87DFF81FC08F032FEDEDED624790162800
310
C01A14002FF1785CEC08D20205C0CBAD5BB7C48E202D500080352800C01A14002F269349EC08D20205C08BD56A153B82B4400100D6A00078595858103B82B44001F032333323760469810200AC410100D6A00078B1DBED6247901628005EF2F3F3C58E202D500080359823E0B90D0E0E7EF5D557C160D06C36D7D5D5BDF3CE
310
3B62277A0EF7EEDDABAFAF173B858440019E9B5AAD361A8DD5D5D5244966DC64CB344D8B1D415AA000023EFAE8A373E7CEA516C3E1B04EA74B1FD0D5D575F6ECD91DCF05B61E144080D56ACDCBCB4B5F5CF7DEB1ACAC6CC7436D0D994C2676046981020878FDF5D7A53F35E28B3974E890D811A405F60201ACC12B80848442
310
A19B376F5654545CBE7CF9D4A953DF7EFB6D7D7DFD06AF451CC75DBA748924C9B2B2B26432190804AAAAAA0A0B0B2B2B2B77307566830248C8D5AB57C7C7C7BFF9E69BDEDEDE9E9E9E3367CE7CF7DD775F7EF92549928140E0C2850BB5B5B5E9E31389442010B87EFDBADD6E9F9C9CA4695AAFD79F3A756A83028C8E8EEEDB
310
B76FFBBF958C01059090DEDEDE73E7CEC5623184D0AFBFFE4A51944AA5F2783C6AB5FABDF7DEF3783CEB0A4010446969E9850B17A2D1E85B6FBDC530CCD8D898CFE7BB7EFDBA4EA7339BCD068361DD2A96969676EEFBC904500069A9ADADEDEAEABA72E5CAB56BD7FAFBFB9B9B9B4992542A9546A39165D975831389C4F7DF
310
7FDFD7D797959565341A7FFCF1C7CACACA898989828202954A75F6ECD9C3870FCBE57238FD6103500001E95788F17ABDE7CF9F5F37E0D34F3F552A95DBB16AABD56AB7DB9B9B9B1142172F5EDC78703299ECEEEEDEBB77EFD3060402819F7FFEF9E4C993A95B8C46E356457D394001040C0F0FDFBD7B97FF3A180CD6D6D652
310
1495BA97A6E98181019224B763D5478F1E7DAE1336CD66F3BAEDA275161717D317371E8C21288080F1F1F14020905AFCFCF3CF351A4D6A717676F6C30F3FDCA655BFF6DA6BDBF4CC40101440C0279F7CB2F181B037DF7C7387A26C0ECBB2B76FDFDECCF5BFD6D6D6D46AF50E44CA147020EC65108FC72F5FBEBC99913FFDF4
310
D37687C92C508097815AADFEECB3CFC44E9191601348C0DCDCDCC4C484D8299EC1EFF72384DC6EF7BA3355D7F9EDB7DF762A5146820208C8CDCD95FEEEC29292128542D1D5D5B5F1B0575E79257DD166B36D67A8CC030510A0D1680A0A0AC44EB129CF9B3353BEAF1D03EF0100D6A0007879F4E891D811A4050A80975F7EF9
310
45EC08D202050058830200AC4101F0F2B27ED6F985410100D6A000006B5000BC8C8E8E8A1D415AA0007881CF04AF030500588302E0659B3EC999B9A00078696969113B82B4C0D9A002D26785D8A4C5C5C59D3C837A717151AD562B954A7EB25B9224E3F1B8DFEF371A8D2449320C138BC5341A0DC3300A8562656585208847
310
8F1EC141802741010498CDE6603078F0E0419AA6D56AF5C8C8486363233F3FCFD32E08E07038F47ABD4C26D36AB52A956A7E7E3E272787A669B3D9ECF3F9F47ABDC160A0699AE3B8959515A3D1E8F7FBE57279281492C964D16874F7EEDDC5C5C5CF0C168D4611422A95CAE170D0347DEBD62DBE005EAFD76432CDCFCF9794
310
945014158D468D466324128946A32449CA64B2CECECE9A9A1AFE19542AD596FEB4321B1440C0D2D2527F7FFFD0D090CD66D36AB53FFCF0C3D0D0504343435E5EDE06B336D0347DFEFC799D4ED7D2D2525E5ECEB2ECE0E0A052A92449323B3BBBA2A2E2CE9D3B06838161188BC5323333F3F8F1E3F2F2F2E9E9E96432F9F6DB
310
6F6FA6005F7FFDF5EEDDBB0F1E3C88103A76ECD8B163C70487711C3733F29FAAC6B685D949059328AEFB3342C8E17020846EDFBE0DAF03E9A00002E2F13849921445B12C6BB15842A1503299ECE8E8309BCD1B3CAAB3B3B3B3B333FD969E9E9EAD0D66B3D952A7730E0D0D5DBA74092164B55A17161642A1504F4FCFABAFBE
310
8A101AFFF7E0F4E03FB4FAC29981BF730AC52EFB3EB82CC0D3400104E4E6E6BEF1C61B0CC320845657577B7B7B63B1184110E2A60A87C3E5E5E5C3C3C3C9641221E4F57A239148381CE638CEE7F31D3870A0ADAD8D1FB92C67570BF2D8B9F9D2DAA6FF4EFE87E358850276FE08830208C8C9C9397AF4686AB1A9A949C43029
310
5AAD162174E6CC197E311C0E87C3E1442291979777F1E245922453B377156717C6426CF4DA55261E6D2FFD53FA5FFFAE5DBB763EB994410104DCBB776F6E6E8E9F6D81A6699665298ADAF84F676C6CCC8DDC59286B15AD9A90290B653D732D2B6865112D3288D123BD1EE949F41CFFA443A1104248A9542E2D2D592C1693C9
310
947EAFD15A17FCCB5F39AFBF604F03ABFEC35B5E8BC5B2F9B5E0000A20C0E7F37DFCF1C7A150A8A8A8686E6E2E168B353737777777F3F79A4C26C18DFB6847B41DB54751741ECDCFFD73CEED76BBDD6EBBDDEE72B9B2B3B3F57A7D2412595B5B6B6A6AE2676A70204737EA4EA0441005B351B6F35FCE1B376EC8E5728D4633
310
3939D9DADABABCBCBCBCBCCC30CCF1E3C7EBEAEAD2D7E570388E1C3972E2C40996659F3CB6A5D4E49634B5AC84432C49E61B33EC3A963B0C0A2040ABD51A0C069665575757ABABABDF7FFF7D7E4F4E2C16635996DF147952312A9E42532AA4E210575656C6B26C6969694E4E4E6565254DD33299ACA8A8882088D4BC0C1664
310
59400B14A2FCC89F85B24C26D3FEFDFB0982C8CDCDADAFAFE7388EE3387EA45C2E70BC726060A0AFAFAFA3A3C3E572151717BBDD6E954AB577EFDE77DF7DF781CBB5BCBC4C10845AAD4EFA034623919A0ED1E3F19496966EC3CF2C534101045014555555555050C0304C2291F07ABD369B2D994CF2FB589EA61A5533882110
310
A1466A644556AB75E3B514A2423DD2CB906C17DAA5444AD31ED39E3D7B361FF2E4C993C78F1F27493291481004914C26F95D3D4C2CE675CF5659ADAB4B1152268F46228C56972AC0C3870FA100E9A000021E3F7E9C3E47792010181D1D4DED63791AE5F0E8EF970C282DBDE3F55EB972853F58CB6FA23434341C3E7C387DBC
310
3C1657DF75FEBED0D8F8B7FEFE68343A3535555E5E5E5151F1E0C18313274E6CB0C9EEF178060606743A9DDBED562814344DF36F5AB45A6D3C1EBF76E3466E6E6E2412C9D5686472B94EA78329B1044101049494943C398F3EC330376FDE7CDA43EEDFBFAF48FD853D7C1808064992E4386E6D6D8DA2A85028343535B5FE9A
310
1AC9248AC77FFF7A64249148D0346D3299A2D1A8CFE76359767C7C7CDDECFEE9AB93CBE5FBF7EF4708555757F337CECECE6E70A4C2E572C121B027410104D86C36FEA483ACACACD43ED0C9C9497E3A4E84505B5B1BBF5D7EFFFE7D9AA6F98734B7B7F3F73A9D4E0DCBB6B7B72B148AD4C967A3A3A3CBCBCB08218AA2F80BC0
310
2084464646D6D6D61042590AC5E9D3A7F91B878787F943101A8DA6B1B191BF31B52284D0A14387F867703A9DE17018214410446B6B6B7B7B7BFA8A944AE5810307522BAAAAAA72381C701EC43AFF03E9FBF607EAB307CD0000000049454E44AE426082
  0
ENDSEC
  0
EOF
