  0
SECTION
  2
HEADER
  9
$ACADVER
  1
AC1032
  9
$ACADMAINTVER
 90
       55
  9
$DWGCODEPAGE
  3
ANSI_1252
  9
$LASTSAVEDBY
  1
eac573
  9
$REQUIREDVERSIONS
160
                 0
  9
$INSBASE
 10
0.0
 20
0.0
 30
0.0
  9
$EXTMIN
 10
-56.92275457042879
 20
76.71215454805007
 30
-1763.891889891658
  9
$EXTMAX
 10
459.2428032891437
 20
261.2811875754891
 30
0.0
  9
$LIMMIN
 10
0.0
 20
0.0
  9
$LIMMAX
 10
12.0
 20
9.0
  9
$ORTHOMODE
 70
     0
  9
$REGENMODE
 70
     1
  9
$FILLMODE
 70
     1
  9
$QTEXTMODE
 70
     0
  9
$MIRRTEXT
 70
     0
  9
$LTSCALE
 40
1.0
  9
$ATTMODE
 70
     1
  9
$TEXTSIZE
 40
0.2
  9
$TRACEWID
 40
0.05
  9
$TEXTSTYLE
  7
Standard
  9
$CLAYER
  8
Detail
  9
$CELTYPE
  6
Continuous
  9
$CECOLOR
 62
   256
  9
$CELTSCALE
 40
1.0
  9
$DISPSILH
 70
     0
  9
$DIMSCALE
 40
1.0
  9
$DIMASZ
 40
0.18
  9
$DIMEXO
 40
0.0625
  9
$DIMDLI
 40
0.38
  9
$DIMRND
 40
0.0
  9
$DIMDLE
 40
0.0
  9
$DIMEXE
 40
0.18
  9
$DIMTP
 40
0.0
  9
$DIMTM
 40
0.0
  9
$DIMTXT
 40
0.18
  9
$DIMCEN
 40
-0.09
  9
$DIMTSZ
 40
0.0
  9
$DIMTOL
 70
     0
  9
$DIMLIM
 70
     0
  9
$DIMTIH
 70
     1
  9
$DIMTOH
 70
     1
  9
$DIMSE1
 70
     0
  9
$DIMSE2
 70
     0
  9
$DIMTAD
 70
     0
  9
$DIMZIN
 70
     0
  9
$DIMBLK
  1

  9
$DIMASO
 70
     1
  9
$DIMSHO
 70
     1
  9
$DIMPOST
  1

  9
$DIMAPOST
  1

  9
$DIMALT
 70
     0
  9
$DIMALTD
 70
     2
  9
$DIMALTF
 40
25.4
  9
$DIMLFAC
 40
1.0
  9
$DIMTOFL
 70
     0
  9
$DIMTVP
 40
0.0
  9
$DIMTIX
 70
     0
  9
$DIMSOXD
 70
     0
  9
$DIMSAH
 70
     0
  9
$DIMBLK1
  1

  9
$DIMBLK2
  1

  9
$DIMSTYLE
  2
Standard
  9
$DIMCLRD
 70
     0
  9
$DIMCLRE
 70
     0
  9
$DIMCLRT
 70
     0
  9
$DIMTFAC
 40
1.0
  9
$DIMGAP
 40
0.09
  9
$DIMJUST
 70
     0
  9
$DIMSD1
 70
     0
  9
$DIMSD2
 70
     0
  9
$DIMTOLJ
 70
     1
  9
$DIMTZIN
 70
     0
  9
$DIMALTZ
 70
     0
  9
$DIMALTTZ
 70
     0
  9
$DIMUPT
 70
     0
  9
$DIMDEC
 70
     4
  9
$DIMTDEC
 70
     4
  9
$DIMALTU
 70
     2
  9
$DIMALTTD
 70
     2
  9
$DIMTXSTY
  7
Standard
  9
$DIMAUNIT
 70
     0
  9
$DIMADEC
 70
     0
  9
$DIMALTRND
 40
0.0
  9
$DIMAZIN
 70
     0
  9
$DIMDSEP
 70
    46
  9
$DIMATFIT
 70
     3
  9
$DIMFRAC
 70
     0
  9
$DIMLDRBLK
  1

  9
$DIMLUNIT
 70
     2
  9
$DIMLWD
 70
    -2
  9
$DIMLWE
 70
    -2
  9
$DIMTMOVE
 70
     0
  9
$DIMFXL
 40
1.0
  9
$DIMFXLON
 70
     0
  9
$DIMJOGANG
 40
0.7853981633974483
  9
$DIMTFILL
 70
     0
  9
$DIMTFILLCLR
 70
     0
  9
$DIMARCSYM
 70
     0
  9
$DIMLTYPE
  6

  9
$DIMLTEX1
  6

  9
$DIMLTEX2
  6

  9
$DIMTXTDIRECTION
 70
     0
  9
$LUNITS
 70
     2
  9
$LUPREC
 70
     4
  9
$SKETCHINC
 40
0.1
  9
$FILLETRAD
 40
0.0
  9
$AUNITS
 70
     0
  9
$AUPREC
 70
     0
  9
$MENU
  1
.
  9
$ELEVATION
 40
0.0
  9
$PELEVATION
 40
0.0
  9
$THICKNESS
 40
0.0
  9
$LIMCHECK
 70
     0
  9
$CHAMFERA
 40
0.0
  9
$CHAMFERB
 40
0.0
  9
$CHAMFERC
 40
0.0
  9
$CHAMFERD
 40
0.0
  9
$SKPOLY
 70
     0
  9
$TDCREATE
 40
2452643.105050938
  9
$TDUCREATE
 40
2452643.063384271
  9
$TDUPDATE
 40
2460088.581884885
  9
$TDUUPDATE
 40
2460088.540218218
  9
$TDINDWG
 40
0.0107148958
  9
$TDUSRTIMER
 40
2459802.485105359
  9
$USRTIMER
 70
     1
  9
$ANGBASE
 50
0.0
  9
$ANGDIR
 70
     0
  9
$PDMODE
 70
     0
  9
$PDSIZE
 40
0.0
  9
$PLINEWID
 40
0.0
  9
$SPLFRAME
 70
     0
  9
$SPLINETYPE
 70
     6
  9
$SPLINESEGS
 70
     8
  9
$HANDSEED
  5
116D
  9
$SURFTAB1
 70
     6
  9
$SURFTAB2
 70
     6
  9
$SURFTYPE
 70
     6
  9
$SURFU
 70
     6
  9
$SURFV
 70
     6
  9
$UCSBASE
  2

  9
$UCSNAME
  2

  9
$UCSORG
 10
0.0
 20
0.0
 30
0.0
  9
$UCSXDIR
 10
1.0
 20
0.0
 30
0.0
  9
$UCSYDIR
 10
0.0
 20
1.0
 30
0.0
  9
$UCSORTHOREF
  2

  9
$UCSORTHOVIEW
 70
     0
  9
$UCSORGTOP
 10
0.0
 20
0.0
 30
0.0
  9
$UCSORGBOTTOM
 10
0.0
 20
0.0
 30
0.0
  9
$UCSORGLEFT
 10
0.0
 20
0.0
 30
0.0
  9
$UCSORGRIGHT
 10
0.0
 20
0.0
 30
0.0
  9
$UCSORGFRONT
 10
0.0
 20
0.0
 30
0.0
  9
$UCSORGBACK
 10
0.0
 20
0.0
 30
0.0
  9
$PUCSBASE
  2

  9
$PUCSNAME
  2

  9
$PUCSORG
 10
0.0
 20
0.0
 30
0.0
  9
$PUCSXDIR
 10
1.0
 20
0.0
 30
0.0
  9
$PUCSYDIR
 10
0.0
 20
1.0
 30
0.0
  9
$PUCSORTHOREF
  2

  9
$PUCSORTHOVIEW
 70
     0
  9
$PUCSORGTOP
 10
0.0
 20
0.0
 30
0.0
  9
$PUCSORGBOTTOM
 10
0.0
 20
0.0
 30
0.0
  9
$PUCSORGLEFT
 10
0.0
 20
0.0
 30
0.0
  9
$PUCSORGRIGHT
 10
0.0
 20
0.0
 30
0.0
  9
$PUCSORGFRONT
 10
0.0
 20
0.0
 30
0.0
  9
$PUCSORGBACK
 10
0.0
 20
0.0
 30
0.0
  9
$USERI1
 70
     0
  9
$USERI2
 70
     0
  9
$USERI3
 70
     0
  9
$USERI4
 70
     0
  9
$USERI5
 70
     0
  9
$USERR1
 40
0.0
  9
$USERR2
 40
0.0
  9
$USERR3
 40
0.0
  9
$USERR4
 40
0.0
  9
$USERR5
 40
0.0
  9
$WORLDVIEW
 70
     1
  9
$SHADEDGE
 70
     3
  9
$SHADEDIF
 70
    70
  9
$TILEMODE
 70
     1
  9
$MAXACTVP
 70
    64
  9
$PINSBASE
 10
0.0
 20
0.0
 30
0.0
  9
$PLIMCHECK
 70
     0
  9
$PEXTMIN
 10
7.347393234749617
 20
11.77616220673019
 30
0.0
  9
$PEXTMAX
 10
287.3473932347496
 20
201.7761622067302
 30
0.0
  9
$PLIMMIN
 10
-1.152606765250368
 20
1.77616220673019
  9
$PLIMMAX
 10
10.75
 20
7.75
  9
$UNITMODE
 70
     0
  9
$VISRETAIN
 70
     1
  9
$PLINEGEN
 70
     0
  9
$PSLTSCALE
 70
     1
  9
$TREEDEPTH
 70
  3020
  9
$CMLSTYLE
  2
Standard
  9
$CMLJUST
 70
     0
  9
$CMLSCALE
 40
1.0
  9
$PROXYGRAPHICS
 70
     1
  9
$MEASUREMENT
 70
     0
  9
$CELWEIGHT
370
    -1
  9
$ENDCAPS
280
     0
  9
$JOINSTYLE
280
     0
  9
$LWDISPLAY
290
     0
  9
$INSUNITS
 70
     6
  9
$HYPERLINKBASE
  1

  9
$STYLESHEET
  1

  9
$XEDIT
290
     1
  9
$CEPSNTYPE
380
     0
  9
$PSTYLEMODE
290
     1
  9
$FINGERPRINTGUID
  2
{FDEAD576-A652-11D2-9A35-0060089B3A3F}
  9
$VERSIONGUID
  2
{FBC2AE19-5C5C-49EC-81BC-71B1A3362A02}
  9
$EXTNAMES
290
     1
  9
$PSVPSCALE
 40
0.0
  9
$OLESTARTUP
290
     0
  9
$SORTENTS
280
   127
  9
$INDEXCTL
280
     0
  9
$HIDETEXT
280
     1
  9
$XCLIPFRAME
280
     0
  9
$HALOGAP
280
     0
  9
$OBSCOLOR
 70
   257
  9
$OBSLTYPE
280
     0
  9
$INTERSECTIONDISPLAY
280
     0
  9
$INTERSECTIONCOLOR
 70
   257
  9
$DIMASSOC
280
     2
  9
$PROJECTNAME
  1

  9
$CAMERADISPLAY
290
     0
  9
$LENSLENGTH
 40
50.0
  9
$CAMERAHEIGHT
 40
0.0
  9
$STEPSPERSEC
 40
2.0
  9
$STEPSIZE
 40
6.0
  9
$3DDWFPREC
 40
2.0
  9
$PSOLWIDTH
 40
0.25
  9
$PSOLHEIGHT
 40
4.0
  9
$LOFTANG1
 40
1.570796326794897
  9
$LOFTANG2
 40
1.570796326794897
  9
$LOFTMAG1
 40
0.0
  9
$LOFTMAG2
 40
0.0
  9
$LOFTPARAM
 70
     7
  9
$LOFTNORMALS
280
     1
  9
$LATITUDE
 40
37.795
  9
$LONGITUDE
 40
-122.394
  9
$NORTHDIRECTION
 40
0.0
  9
$TIMEZONE
 70
 -8000
  9
$LIGHTGLYPHDISPLAY
280
     1
  9
$TILEMODELIGHTSYNCH
280
     1
  9
$CMATERIAL
347
96
  9
$SOLIDHIST
280
     1
  9
$SHOWHIST
280
     1
  9
$DWFFRAME
280
     2
  9
$DGNFRAME
280
     2
  9
$REALWORLDSCALE
290
     1
  9
$INTERFERECOLOR
 62
     1
  9
$CSHADOW
280
     0
  9
$SHADOWPLANELOCATION
 40
0.0
  0
ENDSEC
  0
SECTION
  2
CLASSES
  0
CLASS
  1
ACDBDICTIONARYWDFLT
  2
AcDbDictionaryWithDefault
  3
ObjectDBX Classes
 90
        0
 91
        3
280
     0
281
     0
  0
CLASS
  1
ACDBPLACEHOLDER
  2
AcDbPlaceHolder
  3
ObjectDBX Classes
 90
        0
 91
        1
280
     0
281
     0
  0
CLASS
  1
LAYOUT
  2
AcDbLayout
  3
ObjectDBX Classes
 90
        0
 91
        1
280
     0
281
     0
  0
CLASS
  1
DICTIONARYVAR
  2
AcDbDictionaryVar
  3
ObjectDBX Classes
 90
        0
 91
        3
280
     0
281
     0
  0
CLASS
  1
TABLESTYLE
  2
AcDbTableStyle
  3
ObjectDBX Classes
 90
     4095
 91
        3
280
     0
281
     0
  0
CLASS
  1
MATERIAL
  2
AcDbMaterial
  3
ObjectDBX Classes
 90
     1153
 91
        3
280
     0
281
     0
  0
CLASS
  1
VISUALSTYLE
  2
AcDbVisualStyle
  3
ObjectDBX Classes
 90
     4095
 91
        3
280
     0
281
     0
  0
CLASS
  1
SCALE
  2
AcDbScale
  3
ObjectDBX Classes
 90
     1153
 91
        3
280
     0
281
     0
  0
CLASS
  1
CELLSTYLEMAP
  2
AcDbCellStyleMap
  3
ObjectDBX Classes
 90
     1152
 91
        3
280
     0
281
     0
  0
CLASS
  1
RASTERVARIABLES
  2
AcDbRasterVariables
  3
ISM
 90
        0
 91
        3
280
     0
281
     0
  0
CLASS
  1
SUN
  2
AcDbSun
  3
SCENEOE
 90
     1153
 91
        3
280
     0
281
     0
  0
CLASS
  1
MLEADERSTYLE
  2
AcDbMLeaderStyle
  3
ACDB_MLEADERSTYLE_CLASS
 90
     4095
 91
        3
280
     0
281
     0
  0
CLASS
  1
IMAGE
  2
AcDbRasterImage
  3
ISM
 90
      127
 91
        4
280
     0
281
     1
  0
CLASS
  1
IMAGEDEF
  2
AcDbRasterImageDef
  3
ISM
 90
        0
 91
        3
280
     0
281
     0
  0
CLASS
  1
IMAGEDEF_REACTOR
  2
AcDbRasterImageDefReactor
  3
ISM
 90
        1
 91
        3
280
     0
281
     0
  0
CLASS
  1
SORTENTSTABLE
  2
AcDbSortentsTable
  3
ObjectDBX Classes
 90
        0
 91
        3
280
     0
281
     0
  0
ENDSEC
  0
SECTION
  2
TABLES
  0
TABLE
  2
VPORT
  5
8
330
0
100
AcDbSymbolTable
 70
     1
  0
VPORT
  5
94
330
8
100
AcDbSymbolTableRecord
100
AcDbViewportTableRecord
  2
*Active
 70
     0
 10
0.0
 20
0.0
 11
1.0
 21
1.0
 12
7.246109357768304
 22
223.8881571040252
 13
0.0
 23
0.0
 14
0.5
 24
0.5
 15
0.5
 25
0.5
 16
0.0
 26
0.0
 36
1.0
 17
-27.66959356597999
 27
-19.538702957862
 37
0.0
 40
105.764096336629
 41
2.111594202898551
 42
50.0
 43
0.0
 44
0.0
 50
0.0
 51
0.0
 71
    16
 72
  1000
 73
     1
 74
     3
 75
     0
 76
     0
 77
     0
 78
     0
281
     0
 65
     1
110
0.0
120
0.0
130
0.0
111
1.0
121
0.0
131
0.0
112
0.0
122
1.0
132
0.0
 79
     0
146
0.0
348
9F
 60
     2
 61
     5
292
     1
282
     1
141
0.0
142
0.0
 63
   250
421
  3355443
361
ED
  0
ENDTAB
  0
TABLE
  2
LTYPE
  5
5
330
0
100
AcDbSymbolTable
 70
     5
  0
LTYPE
  5
14
330
5
100
AcDbSymbolTableRecord
100
AcDbLinetypeTableRecord
  2
ByBlock
 70
     0
  3

 72
    65
 73
     0
 40
0.0
  0
LTYPE
  5
15
330
5
100
AcDbSymbolTableRecord
100
AcDbLinetypeTableRecord
  2
ByLayer
 70
     0
  3

 72
    65
 73
     0
 40
0.0
  0
LTYPE
  5
16
330
5
100
AcDbSymbolTableRecord
100
AcDbLinetypeTableRecord
  2
Continuous
 70
     0
  3
Solid line
 72
    65
 73
     0
 40
0.0
  0
LTYPE
  5
13A
330
5
100
AcDbSymbolTableRecord
100
AcDbLinetypeTableRecord
  2
1
 70
     0
  3
SOLID
 72
    65
 73
     0
 40
0.0
  0
LTYPE
  5
2EC
330
5
100
AcDbSymbolTableRecord
100
AcDbLinetypeTableRecord
  2
DASH2DOT
 70
     0
  3
 DashDotDot ____ . . ____ . . ____ . . ____ . .
 72
    65
 73
     6
 40
1.25
 49
0.5
 74
     0
 49
-0.25
 74
     0
 49
0.0
 74
     0
 49
-0.25
 74
     0
 49
0.0
 74
     0
 49
-0.25
 74
     0
  0
LTYPE
  5
2ED
330
5
100
AcDbSymbolTableRecord
100
AcDbLinetypeTableRecord
  2
DASHDOT
 70
     0
  3
 DashDot __ . __ . __ . __ . __ . __ . __ . __ 
 72
    65
 73
     4
 40
1.0
 49
0.5
 74
     0
 49
-0.25
 74
     0
 49
0.0
 74
     0
 49
-0.25
 74
     0
  0
LTYPE
  5
2EE
330
5
100
AcDbSymbolTableRecord
100
AcDbLinetypeTableRecord
  2
DASHED
 70
     0
  3
 Dashed __ __ __ __ __ __ __ __ __ __ __ __ __ 
 72
    65
 73
     2
 40
0.375
 49
0.25
 74
     0
 49
-0.125
 74
     0
  0
ENDTAB
  0
TABLE
  2
LAYER
  5
2
102
{ACAD_XDICTIONARY
360
12A
102
}
330
0
100
AcDbSymbolTable
 70
    11
  0
LAYER
  5
10
330
2
100
AcDbSymbolTableRecord
100
AcDbLayerTableRecord
  2
0
 70
     0
 62
     7
  6
Continuous
370
    -3
390
F
347
98
348
0
  0
LAYER
  5
12D
330
2
100
AcDbSymbolTableRecord
100
AcDbLayerTableRecord
  2
Context
 70
     0
 62
     7
  6
Continuous
370
    -3
390
F
347
98
348
0
1001
AcAecLayerStandard
1000

1000

  0
LAYER
  5
12F
330
2
100
AcDbSymbolTableRecord
100
AcDbLayerTableRecord
  2
Detail
 70
     0
 62
     7
  6
Continuous
370
    -3
390
F
347
98
348
0
1001
AcAecLayerStandard
1000

1000

  0
LAYER
  5
130
330
2
100
AcDbSymbolTableRecord
100
AcDbLayerTableRecord
  2
Limits
 70
     0
 62
     7
  6
Continuous
370
    -3
390
F
347
98
348
0
1001
AcAecLayerStandard
1000

1000

  0
LAYER
  5
131
330
2
100
AcDbSymbolTableRecord
100
AcDbLayerTableRecord
  2
Labels
 70
     0
 62
     7
  6
Continuous
370
    -3
390
F
347
98
348
0
1001
AcAecLayerStandard
1000

1000

  0
LAYER
  5
132
330
2
100
AcDbSymbolTableRecord
100
AcDbLayerTableRecord
  2
Heights
 70
     0
 62
     7
  6
Continuous
370
    -3
390
F
347
98
348
0
1001
AcAecLayerStandard
1000

1000

  0
LAYER
  5
134
330
2
100
AcDbSymbolTableRecord
100
AcDbLayerTableRecord
  2
Scanned Sheet
 70
     0
 62
     7
  6
Continuous
370
    -3
390
F
347
98
348
0
1001
AcAecLayerStandard
1000

1000

  0
LAYER
  5
135
330
2
100
AcDbSymbolTableRecord
100
AcDbLayerTableRecord
  2
Viewport
 70
     0
 62
     7
  6
Continuous
370
    -3
390
F
347
98
348
0
1001
AcAecLayerStandard
1000

1000

  0
LAYER
  5
138
330
2
100
AcDbSymbolTableRecord
100
AcDbLayerTableRecord
  2
Scalebar
 70
     0
 62
     7
  6
1
370
    -3
390
F
347
98
348
0
1001
AcAecLayerStandard
1000

1000

  0
LAYER
  5
27D
330
2
100
AcDbSymbolTableRecord
100
AcDbLayerTableRecord
  2
W.Station
 70
     0
 62
     7
  6
Continuous
370
    -3
390
F
347
98
348
0
1001
AcAecLayerStandard
1000

1000

  0
LAYER
  5
2F3
330
2
100
AcDbSymbolTableRecord
100
AcDbLayerTableRecord
  2
Defpoints
 70
     0
 62
     7
  6
Continuous
290
     0
370
    -3
390
F
347
98
348
0
  0
ENDTAB
  0
TABLE
  2
STYLE
  5
3
330
0
100
AcDbSymbolTable
 70
     2
  0
STYLE
  5
11
330
3
100
AcDbSymbolTableRecord
100
AcDbTextStyleTableRecord
  2
Standard
 70
     0
 40
0.0
 41
1.0
 50
0.0
 71
     0
 42
0.2
  3
arial.ttf
  4

1001
ACAD
1000
Arial
1071
        0
  0
STYLE
  5
125
330
3
100
AcDbSymbolTableRecord
100
AcDbTextStyleTableRecord
  2
Annotative
 70
     0
 40
0.0
 41
1.0
 50
0.0
 71
     0
 42
0.2
  3
arial.ttf
  4

1001
ACAD
1000
Arial
1071
        0
1001
AcadAnnotative
1000
AnnotativeData
1002
{
1070
     1
1070
     1
1002
}
  0
ENDTAB
  0
TABLE
  2
VIEW
  5
6
330
0
100
AcDbSymbolTable
 70
     0
  0
ENDTAB
  0
TABLE
  2
UCS
  5
7
330
0
100
AcDbSymbolTable
 70
     0
  0
ENDTAB
  0
TABLE
  2
APPID
  5
9
330
0
100
AcDbSymbolTable
 70
     4
  0
APPID
  5
12
330
9
100
AcDbSymbolTableRecord
100
AcDbRegAppTableRecord
  2
ACAD
 70
     0
  0
APPID
  5
126
330
9
100
AcDbSymbolTableRecord
100
AcDbRegAppTableRecord
  2
AcadAnnotative
 70
     0
  0
APPID
  5
12E
330
9
100
AcDbSymbolTableRecord
100
AcDbRegAppTableRecord
  2
AcAecLayerStandard
 70
     0
  0
APPID
  5
31F
330
9
100
AcDbSymbolTableRecord
100
AcDbRegAppTableRecord
  2
PLOTTRANSPARENCY
 70
     0
  0
ENDTAB
  0
TABLE
  2
DIMSTYLE
  5
A
330
0
100
AcDbSymbolTable
 70
     3
100
AcDbDimStyleTable
  0
DIMSTYLE
105
27
330
A
100
AcDbSymbolTableRecord
100
AcDbDimStyleTableRecord
  2
Standard
 70
     0
141
-0.09
178
     0
340
11
  0
DIMSTYLE
105
127
330
A
100
AcDbSymbolTableRecord
100
AcDbDimStyleTableRecord
  2
Annotative
 70
     0
 40
0.0
141
-0.09
178
     0
340
11
1001
AcadAnnotative
1000
AnnotativeData
1002
{
1070
     1
1070
     1
1002
}
  0
DIMSTYLE
105
13E
330
A
100
AcDbSymbolTableRecord
100
AcDbDimStyleTableRecord
  2
ISO-25
 70
     0
 41
2.5
 42
0.625
 43
3.75
 44
1.25
 73
     0
 74
     0
 77
     1
 78
     8
140
2.5
141
2.5
143
0.03937007874016
147
0.625
171
     3
172
     1
178
     0
271
     2
272
     2
274
     3
278
    44
283
     0
284
     8
340
11
  0
ENDTAB
  0
TABLE
  2
BLOCK_RECORD
  5
1
330
0
100
AcDbSymbolTable
 70
     4
  0
BLOCK_RECORD
  5
1F
102
{ACAD_XDICTIONARY
360
46C
102
}
330
1
100
AcDbSymbolTableRecord
100
AcDbBlockTableRecord
  2
*Model_Space
340
22
 70
     0
280
     1
281
     0
  0
BLOCK_RECORD
  5
2F4
330
1
100
AcDbSymbolTableRecord
100
AcDbBlockTableRecord
  2
*Paper_Space
340
31E
 70
     0
280
     1
281
     0
  0
BLOCK_RECORD
  5
3AB
330
1
100
AcDbSymbolTableRecord
100
AcDbBlockTableRecord
  2
*Paper_Space10
340
3AC
 70
     0
280
     1
281
     0
  0
BLOCK_RECORD
  5
320
330
1
100
AcDbSymbolTableRecord
100
AcDbBlockTableRecord
  2
*Paper_Space11
340
34C
 70
     0
280
     1
281
     0
  0
BLOCK_RECORD
  5
357
330
1
100
AcDbSymbolTableRecord
100
AcDbBlockTableRecord
  2
*Paper_Space13
340
358
 70
     0
280
     1
281
     0
  0
BLOCK_RECORD
  5
1140
330
1
100
AcDbSymbolTableRecord
100
AcDbBlockTableRecord
  2
*Paper_Space14
340
1169
 70
     0
280
     1
281
     0
  0
ENDTAB
  0
ENDSEC
  0
SECTION
  2
BLOCKS
  0
BLOCK
  5
20
330
1F
100
AcDbEntity
  8
0
100
AcDbBlockBegin
  2
*Model_Space
 70
     0
 10
0.0
 20
0.0
 30
0.0
  3
*Model_Space
  1

  0
ENDBLK
  5
21
330
1F
100
AcDbEntity
  8
0
100
AcDbBlockEnd
  0
BLOCK
  5
2F5
330
2F4
100
AcDbEntity
 67
     1
  8
0
100
AcDbBlockBegin
  2
*Paper_Space
 70
     0
 10
0.0
 20
0.0
 30
0.0
  3
*Paper_Space
  1

  0
ENDBLK
  5
31D
330
2F4
100
AcDbEntity
 67
     1
  8
0
100
AcDbBlockEnd
  0
BLOCK
  5
3AD
330
3AB
100
AcDbEntity
  8
0
100
AcDbBlockBegin
  2
*Paper_Space10
 70
     0
 10
0.0
 20
0.0
 30
0.0
  3
*Paper_Space10
  1

  0
VIEWPORT
  5
3AF
330
3AB
100
AcDbEntity
  8
0
100
AcDbViewport
 10
0.0
 20
0.0
 30
0.0
 40
965.8234965034966
 41
401.8800000000001
 68
     1
 69
     1
 12
134.9814814814106
 22
196.9999999999131
 13
0.0
 23
0.0
 14
0.5
 24
0.5
 15
0.0
 25
0.0
 16
0.0
 26
0.0
 36
1.0
 17
0.0
 27
0.0
 37
0.0
 42
50.0
 43
0.0
 44
0.0
 45
401.8800000000001
 50
0.0
 51
0.0
 72
   100
 90
   557168
  1

281
     0
 71
     1
 74
     0
110
0.0
120
0.0
130
0.0
111
1.0
121
0.0
131
0.0
112
0.0
122
1.0
132
0.0
 79
     0
146
0.0
170
     0
 61
     5
348
9F
292
     1
282
     1
141
0.0
142
0.0
 63
   256
361
3B3
  0
LWPOLYLINE
  5
3E4
330
3AB
100
AcDbEntity
  8
Scanned Sheet
100
AcDbPolyline
 90
        4
 70
     1
 43
0.0
 10
-0.0000000000709126
 20
43.77777777769096
 10
-0.0000000000709126
 20
393.999999999913
 10
269.9629629628922
 20
393.999999999913
 10
269.9629629628922
 20
43.77777777769096
  0
LWPOLYLINE
  5
3E5
330
3AB
100
AcDbEntity
  8
Scanned Sheet
370
     5
100
AcDbPolyline
 90
        4
 70
     1
 43
0.0
 10
65.66666666659589
 20
-0.0000000000869049
 10
65.66666666659589
 20
21.88888888880203
 10
204.2962962962257
 20
21.88888888880203
 10
204.2962962962257
 20
-0.0000000000869049
  0
LWPOLYLINE
  5
3E6
330
3AB
100
AcDbEntity
  8
Scanned Sheet
370
     5
100
AcDbPolyline
 90
        4
 70
     1
 43
0.0
 10
65.66666666659589
 20
21.88888888880254
 10
65.66666666659589
 20
43.77777777769121
 10
204.2962962962257
 20
43.77777777769121
 10
204.2962962962257
 20
21.88888888880254
  0
LWPOLYLINE
  5
3E7
330
3AB
100
AcDbEntity
  8
Scanned Sheet
370
     5
100
AcDbPolyline
 90
        4
 70
     1
 43
0.0
 10
-0.000000000070643
 20
21.88888888880254
 10
-0.000000000070643
 20
43.77777777769121
 10
65.66666666659589
 20
43.77777777769121
 10
65.66666666659589
 20
21.88888888880254
  0
LWPOLYLINE
  5
3E8
330
3AB
100
AcDbEntity
  8
Scanned Sheet
370
     5
100
AcDbPolyline
 90
        4
 70
     1
 43
0.0
 10
-0.000000000070643
 20
-0.0000000000869049
 10
-0.000000000070643
 20
21.88888888880203
 10
65.66666666659589
 20
21.88888888880203
 10
65.66666666659589
 20
-0.0000000000869049
  0
LWPOLYLINE
  5
3E9
330
3AB
100
AcDbEntity
  8
Scanned Sheet
370
     5
100
AcDbPolyline
 90
        4
 70
     1
 43
0.0
 10
204.2962962962257
 20
-0.0000000000869049
 10
204.2962962962257
 20
43.77777777769096
 10
269.9629629628922
 20
43.77777777769096
 10
269.9629629628922
 20
-0.0000000000869049
  0
VIEWPORT
  5
3EA
102
{ACAD_XDICTIONARY
360
3EB
102
}
330
3AB
100
AcDbEntity
  8
Scanned Sheet
370
     5
100
AcDbViewport
 10
134.9814814814106
 20
218.8888888888021
 30
0.0
 40
269.9629629629629
 41
350.2222222222221
 68
     2
 69
     2
 12
101.3981279257675
 22
51.38149272808087
 13
0.0
 23
0.0
 14
0.5
 24
0.5
 15
0.5
 25
0.5
 16
0.0
 26
0.0
 36
1.0
 17
0.0
 27
0.0
 37
0.0
 42
50.0
 43
0.0
 44
0.0
 45
154.0293622555533
 50
0.0
 51
0.0
 72
   100
 90
   557168
  1

281
     0
 71
     1
 74
     0
110
0.0
120
0.0
130
0.0
111
1.0
121
0.0
131
0.0
112
0.0
122
1.0
132
0.0
 79
     0
146
0.0
170
     0
 61
     5
348
9F
292
     1
282
     1
141
0.0
142
0.0
 63
   256
361
3ED
  0
MTEXT
  5
3EE
330
3AB
100
AcDbEntity
  8
Scanned Sheet
100
AcDbMText
 10
209.4617261392634
 20
5.966262546801595
 30
0.0
 40
2.188888888888887
 41
60.07427917750473
 46
0.0508
 71
     1
 72
     5
  1
{www.archaeologicalresearchservices.com}
 73
     1
 44
1.0
  0
IMAGE
  5
3EF
330
3AB
100
AcDbEntity
  8
Scanned Sheet
 62
     7
420
 16777215
160
               140
310
8C00000001000000840000000600000005000000327D82CA76DC6D4084E7433B53801C400000000000000000ABD2CC289B69704084E7433B53801C400000000000000000ABD2CC289B69704076B033E42CB542400000000000000000327D82CA76DC6D4076B033E42CB542400000000000000000327D82CA76DC6D4084E743
310
3B53801C400000000000000000
100
AcDbRasterImage
 90
        0
 10
238.8895008610357
 20
7.125317502994108
 30
0.0
 11
0.04272230602853472
 21
0.0
 31
0.0
 12
0.0
 22
0.04272230602853471
 32
0.0
 13
555.0
 23
709.0
340
30B
 70
     7
280
     0
281
    50
282
    50
283
     0
360
3F0
 71
     1
 91
        2
 14
-0.5
 24
-0.5
 14
554.5
 24
708.5
290
     0
  0
MTEXT
  5
3F1
330
3AB
100
AcDbEntity
  8
Scanned Sheet
100
AcDbMText
 10
208.9324191621133
 20
32.47979546384732
 30
0.0
 40
2.188888888888887
 41
26.86111269665938
 46
20.68937777777776
 71
     1
 72
     5
  1
{Aizlewood’s Mill\PNursery Street\PSheffield\PS3 8GG\P\PTel:  0114 2750140}
 73
     1
 44
1.0
  0
MTEXT
  5
3F2
330
3AB
100
AcDbEntity
  8
Scanned Sheet
100
AcDbMText
 10
208.5425671213595
 20
41.5318068070051
 30
0.0
 40
2.188888888888887
 41
62.24850131552529
 46
0.0508
 71
     1
 72
     5
  1
{\fArial|b1|i0|c0|p0;Archaeological Research Services Ltd}
 73
     1
 44
1.0
  0
MTEXT
  5
3F3
330
3AB
100
AcDbEntity
  8
Scanned Sheet
100
AcDbMText
 10
3.054636623396342
 20
38.8223870797995
 30
0.0
 40
2.188888888888887
 41
22.99556757120291
 46
0.6248914348466075
 71
     1
 72
     1
  1
Site name:\PDate: \PDrawn by:  
 73
     1
 44
1.0
  0
MTEXT
  5
3F4
330
3AB
100
AcDbEntity
  8
Scanned Sheet
100
AcDbMText
 10
18.68281663386969
 20
38.75726929004567
 30
0.0
 40
2.188888888888887
 41
44.0895286195286
 46
6.5665
 71
     1
 72
     1
  1
{Site name\PDate\PInitials}
 73
     1
 44
1.0
  0
MTEXT
  5
3F5
330
3AB
100
AcDbEntity
  8
Scanned Sheet
100
AcDbMText
 10
2.312876595177352
 20
18.6532173507205
 30
0.0
 40
1.459259259259258
 41
46.69107020092559
 46
10.7219696969697
 71
     1
 72
     5
  1
{This drawing © ARS Ltd\POrdnance Survey mapping (if applicable):\PCrown Copyright\PAll rights reserved.\PReproduced with permission.\PLicence no. 100045420}
 73
     1
 44
1.0
  0
IMAGE
  5
3F6
330
3AB
100
AcDbEntity
  8
Scanned Sheet
 62
     7
420
 16777215
160
               140
310
8C0000000100000084000000060000000500000002D64ECB04C16740B9C3F918DE3F3A4000000000000000004C278F1A5AFB6840B9C3F918DE3F3A4000000000000000004C278F1A5AFB684038BA4C7A7B544340000000000000000002D64ECB04C1674038BA4C7A7B544340000000000000000002D64ECB04C16740B9C3F9
310
18DE3F3A400000000000000000
100
AcDbRasterImage
 90
        0
 10
190.0318352260365
 20
26.24948268983619
 30
0.0
 11
0.02512254160229857
 21
0.0
 31
0.0
 12
0.0
 22
0.02512254160229858
 32
0.0
 13
391.0
 23
494.0
340
304
 70
     7
280
     0
281
    50
282
    50
283
     0
360
3F7
 71
     1
 91
        2
 14
-0.5
 24
-0.5
 14
390.5
 24
493.5
290
     0
  0
MTEXT
  5
3F8
330
3AB
100
AcDbEntity
  8
Scanned Sheet
100
AcDbMText
 10
69.06260116054014
 20
38.40053052741111
 30
0.0
 40
2.918518518518516
 41
104.2140455401472
 46
2.564
 71
     1
 72
     5
  1
{\fArial|b1|i0|c0|p0;Figure ??: Section and plan of pit [100]}
 73
     1
 44
1.0
  0
LWPOLYLINE
  5
3F9
330
3AB
100
AcDbEntity
  8
Scanned Sheet
  6
DASHDOT
 62
     3
 48
10.0
100
AcDbPolyline
 90
        4
 70
   129
 43
0.0
 10
67.59479770222826
 20
19.46688835641198
 10
67.59479770222826
 20
11.75342075798789
 10
79.23996811494912
 20
11.75342075798796
 10
79.23996811494912
 20
19.46688835641204
  0
MTEXT
  5
3FA
330
3AB
100
AcDbEntity
  8
Scanned Sheet
100
AcDbMText
 10
84.8169462040312
 20
17.11764677402394
 30
0.0
 40
2.918518518518516
 41
65.40771921623322
 46
0.2016
 71
     1
 72
     5
  1
Limit of Excavation}
 73
     1
 44
1.0
  0
LINE
  5
3FB
330
3AB
100
AcDbEntity
  8
Scanned Sheet
  6
DASHED
 62
     1
 48
10.0
100
AcDbLine
 10
67.85785863198217
 20
3.76309729860517
 30
0.0
 11
79.78309901395544
 21
3.76309729860517
 31
0.0
  0
MTEXT
  5
3FC
330
3AB
100
AcDbEntity
  8
Scanned Sheet
100
AcDbMText
 10
84.81330279500673
 20
5.843624518166071
 30
0.0
 40
2.918518518518516
 41
65.40771921623322
 46
0.2016
 71
     1
 72
     5
  1
Section Line
 73
     1
 44
1.0
  0
LWPOLYLINE
  5
3FD
330
3AB
100
AcDbEntity
  8
Scanned Sheet
  6
DASHDOT
 62
     3
 48
10.0
100
AcDbPolyline
 90
        4
 70
   129
 43
0.0
 10
130.7103464096414
 20
19.46688835641198
 10
130.7103464096414
 20
11.75342075798789
 10
142.3555168223622
 20
11.75342075798796
 10
142.3555168223622
 20
19.46688835641204
  0
MTEXT
  5
3FE
330
3AB
100
AcDbEntity
  8
Scanned Sheet
100
AcDbMText
 10
147.9324949114443
 20
17.11764677402394
 30
0.0
 40
2.918518518518516
 41
65.40771921623322
 46
0.2016
 71
     1
 72
     5
  1
Limit of Excavation}
 73
     1
 44
1.0
  0
LINE
  5
3FF
330
3AB
100
AcDbEntity
  8
Scanned Sheet
  6
DASHED
 62
     1
 48
10.0
100
AcDbLine
 10
130.9734073393953
 20
3.76309729860517
 30
0.0
 11
142.8986477213686
 21
3.76309729860517
 31
0.0
  0
MTEXT
  5
400
330
3AB
100
AcDbEntity
  8
Scanned Sheet
100
AcDbMText
 10
147.9288515024199
 20
5.843624518166071
 30
0.0
 40
2.918518518518516
 41
65.40771921623322
 46
0.2016
 71
     1
 72
     5
  1
Section Line
 73
     1
 44
1.0
  0
ENDBLK
  5
3AE
330
3AB
100
AcDbEntity
  8
0
100
AcDbBlockEnd
  0
BLOCK
  5
321
330
320
100
AcDbEntity
  8
0
100
AcDbBlockBegin
  2
*Paper_Space11
 70
     0
 10
0.0
 20
0.0
 30
0.0
  3
*Paper_Space11
  1

  0
VIEWPORT
  5
322
330
320
100
AcDbEntity
  8
0
100
AcDbViewport
 10
0.0
 20
0.0
 30
0.0
 40
661.8587412587418
 41
275.4000000000003
 68
     1
 69
     1
 12
93.55507294816788
 22
132.6668788031695
 13
0.0
 23
0.0
 14
0.5
 24
0.5
 15
0.0
 25
0.0
 16
0.0
 26
0.0
 36
1.0
 17
0.0
 27
0.0
 37
0.0
 42
50.0
 43
0.0
 44
0.0
 45
275.4000000000003
 50
0.0
 51
0.0
 72
   100
 90
   557168
  1

281
     0
 71
     1
 74
     0
110
0.0
120
0.0
130
0.0
111
1.0
121
0.0
131
0.0
112
0.0
122
1.0
132
0.0
 79
     0
146
0.0
170
     0
 61
     5
348
9F
292
     1
282
     1
141
0.0
142
0.0
 63
   256
361
324
  0
LWPOLYLINE
  5
325
330
320
100
AcDbEntity
  8
Scanned Sheet
100
AcDbPolyline
 90
        4
 70
     1
 43
0.0
 10
1.055072948167755
 20
27.6668788031695
 10
1.055072948167755
 20
267.6668788031697
 10
186.055072948168
 20
267.6668788031697
 10
186.055072948168
 20
27.6668788031695
  0
LWPOLYLINE
  5
326
330
320
100
AcDbEntity
  8
Scanned Sheet
370
     5
100
AcDbPolyline
 90
        4
 70
     1
 43
0.0
 10
46.05507294816788
 20
-2.333121196830589
 10
46.05507294816788
 20
12.66687880316945
 10
141.0550729481681
 20
12.66687880316945
 10
141.0550729481681
 20
-2.333121196830589
  0
LWPOLYLINE
  5
327
330
320
100
AcDbEntity
  8
Scanned Sheet
370
     5
100
AcDbPolyline
 90
        4
 70
     1
 43
0.0
 10
46.05507294816788
 20
12.66687880316981
 10
46.05507294816788
 20
27.66687880316967
 10
141.0550729481681
 20
27.66687880316967
 10
141.0550729481681
 20
12.66687880316981
  0
LWPOLYLINE
  5
328
330
320
100
AcDbEntity
  8
Scanned Sheet
370
     5
100
AcDbPolyline
 90
        4
 70
     1
 43
0.0
 10
1.05507294816794
 20
12.66687880316981
 10
1.05507294816794
 20
27.66687880316967
 10
46.05507294816788
 20
27.66687880316967
 10
46.05507294816788
 20
12.66687880316981
  0
LWPOLYLINE
  5
329
330
320
100
AcDbEntity
  8
Scanned Sheet
370
     5
100
AcDbPolyline
 90
        4
 70
     1
 43
0.0
 10
1.05507294816794
 20
-2.333121196830589
 10
1.05507294816794
 20
12.66687880316945
 10
46.05507294816788
 20
12.66687880316945
 10
46.05507294816788
 20
-2.333121196830589
  0
LWPOLYLINE
  5
32A
330
320
100
AcDbEntity
  8
Scanned Sheet
370
     5
100
AcDbPolyline
 90
        4
 70
     1
 43
0.0
 10
141.0550729481681
 20
-2.333121196830589
 10
141.0550729481681
 20
27.6668788031695
 10
186.055072948168
 20
27.6668788031695
 10
186.055072948168
 20
-2.333121196830589
  0
VIEWPORT
  5
32B
102
{ACAD_XDICTIONARY
360
32C
102
}
330
320
100
AcDbEntity
  8
Scanned Sheet
370
     5
100
AcDbViewport
 10
93.55507294816789
 20
147.6668788031697
 30
0.0
 40
185.0000000000001
 41
240.0000000000001
 68
     2
 69
     2
 12
87.08729213446298
 22
53.57713490356373
 13
0.0
 23
0.0
 14
0.5
 24
0.5
 15
0.5
 25
0.5
 16
0.0
 26
0.0
 36
1.0
 17
0.0
 27
0.0
 37
0.0
 42
50.0
 43
0.0
 44
0.0
 45
257.6980377600001
 50
0.0
 51
0.0
 72
   100
 90
   557168
  1

281
     0
 71
     1
 74
     0
110
0.0
120
0.0
130
0.0
111
1.0
121
0.0
131
0.0
112
0.0
122
1.0
132
0.0
 79
     0
146
0.0
170
     0
 61
     5
348
9F
292
     1
282
     1
141
0.0
142
0.0
 63
   256
361
32F
  0
MTEXT
  5
330
330
320
100
AcDbEntity
  8
Scanned Sheet
100
AcDbMText
 10
144.594834515732
 20
1.755434355605695
 30
0.0
 40
1.5
 41
41.16765324346775
 46
0.0508
 71
     1
 72
     5
  1
{www.archaeologicalresearchservices.com}
 73
     1
 44
1.0
  0
IMAGE
  5
335
330
320
100
AcDbEntity
  8
Scanned Sheet
 62
     7
420
 16777215
160
               140
310
8C00000001000000840000000600000005000000643437BC5A986440784A11ABCE6504400000000000000000A3F37E0A4FA06640784A11ABCE6504400000000000000000A3F37E0A4FA06640EF7C32BC904E37400000000000000000643437BC5A986440EF7C32BC904E37400000000000000000643437BC5A986440784A11
310
ABCE6504400000000000000000
100
AcDbRasterImage
 90
        0
 10
164.7610760763374
 20
2.549710594620871
 30
0.0
 11
0.02927670717691468
 21
0.0
 31
0.0
 12
0.0
 22
0.02927670717691468
 32
0.0
 13
555.0
 23
709.0
340
30B
 70
     7
280
     0
281
    50
282
    50
283
     0
360
337
 71
     1
 91
        2
 14
-0.5
 24
-0.5
 14
554.5
 24
708.5
290
     0
  0
MTEXT
  5
338
330
320
100
AcDbEntity
  8
Scanned Sheet
100
AcDbMText
 10
144.5030589215162
 20
20.31580636635823
 30
0.0
 40
1.5
 41
18.40736149263461
 46
14.178
 71
     1
 72
     5
  1
{Aizlewood’s Mill\PNursery Street\PSheffield\PS3 8GG\P\PTel:  0114 2750140}
 73
     1
 44
1.0
  0
MTEXT
  5
339
330
320
100
AcDbEntity
  8
Scanned Sheet
100
AcDbMText
 10
143.9649539704679
 20
26.12776164051675
 30
0.0
 40
1.5
 41
42.65760242434478
 46
0.0508
 71
     1
 72
     5
  1
{\fArial|b1|i0|c0|p0;Archaeological Research Services Ltd}
 73
     1
 44
1.0
  0
MTEXT
  5
33A
330
320
100
AcDbEntity
  8
Scanned Sheet
100
AcDbMText
 10
3.148351852574251
 20
24.27105269040124
 30
0.0
 40
1.5
 41
15.75838386859084
 46
0.6248914348466075
 71
     1
 72
     1
  1
Site name:\PDate: \PDrawn by:  
 73
     1
 44
1.0
  0
MTEXT
  5
33B
330
320
100
AcDbEntity
  8
Scanned Sheet
100
AcDbMText
 10
13.85801835721336
 20
24.22642882432628
 30
0.0
 40
1.5
 41
30.21363636363638
 46
6.5665
 71
     1
 72
     1
  1
{Site name\PDate\PInitials}
 73
     1
 44
1.0
  0
MTEXT
  5
33C
330
320
100
AcDbEntity
  8
Scanned Sheet
100
AcDbMText
 10
2.640039142881035
 20
10.44954043950952
 30
0.0
 40
1.0
 41
31.99641866560894
 46
10.7219696969697
 71
     1
 72
     5
  1
{This drawing © ARS Ltd\POrdnance Survey mapping (if applicable):\PCrown Copyright\PAll rights reserved.\PReproduced with permission.\PLicence no. 100045420}
 73
     1
 44
1.0
  0
IMAGE
  5
33D
330
320
100
AcDbEntity
  8
Scanned Sheet
 62
     7
420
 16777215
160
               140
310
8C0000000100000084000000060000000500000070908339F5686040C87A72A8694F2F4000000000000000009A36F32A5D406140C87A72A8694F2F4000000000000000009A36F32A5D406140ABFC80A6E7283840000000000000000070908339F5686040ABFC80A6E7283840000000000000000070908339F5686040C87A72
310
A8694F2F400000000000000000
100
AcDbRasterImage
 90
        0
 10
131.279934651338
 20
15.65510298154312
 30
0.0
 11
0.01721595490512848
 21
0.0
 31
0.0
 12
0.0
 22
0.01721595490512848
 32
0.0
 13
391.0
 23
494.0
340
304
 70
     7
280
     0
281
    50
282
    50
283
     0
360
33F
 71
     1
 91
        2
 14
-0.5
 24
-0.5
 14
390.5
 24
493.5
290
     0
  0
MTEXT
  5
340
330
320
100
AcDbEntity
  8
Scanned Sheet
100
AcDbMText
 10
48.38223618005862
 20
23.98196317480513
 30
0.0
 40
2.0
 41
71.415716486903
 46
2.564
 71
     1
 72
     5
  1
{\fArial|b1|i0|c0|p0;Figure ??: Section and plan of pit [100]}
 73
     1
 44
1.0
  0
LWPOLYLINE
  5
341
330
320
100
AcDbEntity
  8
Scanned Sheet
  6
DASHDOT
 62
     3
 48
10.0
100
AcDbPolyline
 90
        4
 70
   129
 43
0.0
 10
47.3763810182713
 20
11.00713224544023
 10
47.3763810182713
 20
5.721253434337427
 10
55.35657394069423
 20
5.72125343433747
 10
55.35657394069423
 20
11.00713224544027
  0
MTEXT
  5
343
330
320
100
AcDbEntity
  8
Scanned Sheet
100
AcDbMText
 10
59.17836095605504
 20
9.397245881874824
 30
0.0
 40
2.0
 41
44.82254870147966
 46
0.2016
 71
     1
 72
     5
  1
Limit of Excavation}
 73
     1
 44
1.0
  0
LINE
  5
344
330
320
100
AcDbEntity
  8
Scanned Sheet
  6
DASHED
 62
     1
 48
10.0
100
AcDbLine
 10
47.5566511985595
 20
0.2456510636944387
 30
0.0
 11
55.72877024204373
 21
0.2456510636944387
 31
0.0
  0
MTEXT
  5
346
330
320
100
AcDbEntity
  8
Scanned Sheet
100
AcDbMText
 10
59.17586420367787
 20
1.671393066946834
 30
0.0
 40
2.0
 41
44.82254870147966
 46
0.2016
 71
     1
 72
     5
  1
Section Line
 73
     1
 44
1.0
  0
LWPOLYLINE
  5
347
330
320
100
AcDbEntity
  8
Scanned Sheet
  6
DASHDOT
 62
     3
 48
10.0
100
AcDbPolyline
 90
        4
 70
   129
 43
0.0
 10
90.62815297512803
 20
11.00713224544023
 10
90.62815297512803
 20
5.721253434337427
 10
98.60834589755096
 20
5.72125343433747
 10
98.60834589755096
 20
11.00713224544027
  0
MTEXT
  5
348
330
320
100
AcDbEntity
  8
Scanned Sheet
100
AcDbMText
 10
102.4301329129118
 20
9.397245881874824
 30
0.0
 40
2.0
 41
44.82254870147966
 46
0.2016
 71
     1
 72
     5
  1
Limit of Excavation}
 73
     1
 44
1.0
  0
LINE
  5
349
330
320
100
AcDbEntity
  8
Scanned Sheet
  6
DASHED
 62
     1
 48
10.0
100
AcDbLine
 10
90.80842315541625
 20
0.2456510636944387
 30
0.0
 11
98.98054219890048
 21
0.2456510636944387
 31
0.0
  0
MTEXT
  5
34A
330
320
100
AcDbEntity
  8
Scanned Sheet
100
AcDbMText
 10
102.4276361605346
 20
1.671393066946834
 30
0.0
 40
2.0
 41
44.82254870147966
 46
0.2016
 71
     1
 72
     5
  1
Section Line
 73
     1
 44
1.0
  0
ENDBLK
  5
34B
330
320
100
AcDbEntity
  8
0
100
AcDbBlockEnd
  0
BLOCK
  5
359
330
357
100
AcDbEntity
  8
0
100
AcDbBlockBegin
  2
*Paper_Space13
 70
     0
 10
0.0
 20
0.0
 30
0.0
  3
*Paper_Space13
  1

  0
VIEWPORT
  5
35B
330
357
100
AcDbEntity
  8
0
100
AcDbViewport
 10
0.0
 20
0.0
 30
0.0
 40
665.360639360639
 41
276.8571428571427
 68
     1
 69
     1
 12
199.9999999993305
 22
135.7142857151425
 13
0.0
 23
0.0
 14
0.5
 24
0.5
 15
0.0
 25
0.0
 16
0.0
 26
0.0
 36
1.0
 17
0.0
 27
0.0
 37
0.0
 42
50.0
 43
0.0
 44
0.0
 45
276.8571428571427
 50
0.0
 51
0.0
 72
   100
 90
   557168
  1

281
     0
 71
     1
 74
     0
110
0.0
120
0.0
130
0.0
111
1.0
121
0.0
131
0.0
112
0.0
122
1.0
132
0.0
 79
     0
146
0.0
170
     0
 61
     5
348
9F
292
     1
282
     1
141
0.0
142
0.0
 63
   256
361
35F
  0
LWPOLYLINE
  5
38D
330
357
100
AcDbEntity
  8
Viewport
370
     5
100
AcDbPolyline
 90
        4
 70
     1
 43
0.0
 10
-0.0000000006694913
 20
0.0000000008569023
 10
-0.0000000006694913
 20
271.4285714294281
 10
314.2857142850448
 20
271.4285714294281
 10
314.2857142850448
 20
0.0000000008569023
  0
LWPOLYLINE
  5
38E
330
357
100
AcDbEntity
  8
Viewport
370
     5
100
AcDbPolyline
 90
        4
 70
     1
 43
0.0
 10
314.2857142850448
 20
257.1428571437139
 10
314.2857142850448
 20
271.4285714294281
 10
399.9999999993305
 20
271.4285714294281
 10
399.9999999993305
 20
257.1428571437139
  0
LWPOLYLINE
  5
38F
330
357
100
AcDbEntity
  8
Viewport
370
     5
100
AcDbPolyline
 90
        4
 70
     1
 43
0.0
 10
314.2857142850448
 20
0.0000000008568668
 10
314.2857142850448
 20
257.1428571437139
 10
399.9999999993305
 20
257.1428571437139
 10
399.9999999993305
 20
0.0000000008568668
  0
LWPOLYLINE
  5
390
330
357
100
AcDbEntity
  8
Viewport
370
     5
100
AcDbPolyline
 90
        4
 70
     1
 43
0.0
 10
314.2857142850448
 20
28.57142857228542
 10
314.2857142850448
 20
50.00000000085682
 10
399.9999999993305
 20
50.00000000085682
 10
399.9999999993305
 20
28.57142857228542
  0
LWPOLYLINE
  5
391
330
357
100
AcDbEntity
  8
Viewport
370
     5
100
AcDbPolyline
 90
        4
 70
     1
 43
0.0
 10
357.1428571421876
 20
0.0000000008568668
 10
357.1428571421876
 20
28.57142857228542
 10
399.9999999993305
 20
28.57142857228542
 10
399.9999999993305
 20
0.0000000008568668
  0
MTEXT
  5
392
330
357
100
AcDbEntity
  8
Viewport
100
AcDbMText
 10
315.8805739539533
 20
269.0984266394228
 30
0.0
 40
2.857142857142856
 41
80.06933814283552
 46
5.488501246672561
 71
     1
 72
     5
  1
{\fArial|b1|i0|c0|p0;Figure ??: Plan of Area 1 showing Late Iron Age features}
 73
     1
 44
1.0
  0
IMAGE
  5
393
330
357
100
AcDbEntity
  8
Viewport
 62
     7
420
 16777215
160
               140
310
8C0000000100000084000000060000000500000099599752233B78404E228892B1DC404000000000000000006CADD9F147C478404E228892B1DC404000000000000000006CADD9F147C478407BAC550DDB464640000000000000000099599752233B78407BAC550DDB464640000000000000000099599752233B78404E2288
310
92B1DC40400000000000000000
100
AcDbRasterImage
 90
        0
 10
387.6961236869916
 20
33.72416907927673
 30
0.0
 11
0.02192184384604931
 21
0.0
 31
0.0
 12
0.0
 22
0.02192184384604931
 32
0.0
 13
391.0
 23
494.0
340
304
 70
     7
280
     0
281
    50
282
    50
283
     0
360
394
 71
     1
 91
        2
 14
-0.5
 24
-0.5
 14
390.5
 24
493.5
290
     0
  0
MTEXT
  5
395
330
357
100
AcDbEntity
  8
Viewport
100
AcDbMText
 10
360.3547049902247
 20
26.76310668717419
 30
0.0
 40
1.428571428571428
 41
41.87929265644836
 46
0.0508
 71
     1
 72
     5
  1
{\fArial|b1|i0|c0|p0;Archaeological Research Services Ltd}
 73
     1
 44
1.0
  0
MTEXT
  5
396
330
357
100
AcDbEntity
  8
Viewport
100
AcDbMText
 10
360.4119152818465
 20
21.01133847788062
 30
0.0
 40
1.428571428571428
 41
18.07150977015851
 46
13.50285714285714
 71
     1
 72
     5
  1
{Aizlewood’s Mill\PNursery Street\PSheffield\PS3 8GG\P\PTel:  0114 2750140}
 73
     1
 44
1.0
  0
MTEXT
  5
397
330
357
100
AcDbEntity
  8
Viewport
100
AcDbMText
 10
360.5929538906967
 20
3.150122197019938
 30
0.0
 40
1.428571428571428
 41
40.41652836021651
 46
0.0508
 71
     1
 72
     5
  1
{www.archaeologicalresearchservices.com}
 73
     1
 44
1.0
  0
IMAGE
  5
398
330
357
100
AcDbEntity
  8
Viewport
 62
     7
420
 16777215
160
               140
310
8C000000010000008400000006000000050000003DD8859142C67740D0BF4DCC72700F400000000000000000A75F23687EC57840D0BF4DCC72700F400000000000000000A75F23687EC57840EF087D19F14E384000000000000000003DD8859142C67740EF087D19F14E384000000000000000003DD8859142C67740D0BF4D
310
CC72700F400000000000000000
100
AcDbRasterImage
 90
        0
 10
380.3912520626362
 20
3.929906459925382
 30
0.0
 11
0.02874253868472039
 21
0.0
 31
0.0
 12
0.0
 22
0.02874253868472039
 32
0.0
 13
555.0
 23
709.0
340
30B
 70
     7
280
     0
281
    50
282
    50
283
     0
360
399
 71
     1
 91
        2
 14
-0.5
 24
-0.5
 14
554.5
 24
708.5
290
     0
  0
MTEXT
  5
39A
330
357
100
AcDbEntity
  8
Viewport
100
AcDbMText
 10
314.9429412994959
 20
13.72282775586189
 30
0.0
 40
1.285714285714285
 41
40.74246810505699
 46
0.4717666666666667
 71
     1
 72
     5
  1
{This drawing © ARS Ltd\POrdnance Survey mapping (if applicable):\PCrown Copyright\PAll rights reserved.\PReproduced with permission.\PLicence no. 100045420}
 73
     1
 44
1.0
  0
MTEXT
  5
39B
330
357
100
AcDbEntity
  8
Viewport
100
AcDbMText
 10
315.8212818365825
 20
26.50582519825755
 30
0.0
 40
2.142857142857142
 41
20.06585358390103
 46
0.6248914348466075
 71
     1
 72
     1
  1
Site name:\PDate: \PDrawn by:  
 73
     1
 44
1.0
  0
MTEXT
  5
39C
330
357
100
AcDbEntity
  8
Viewport
100
AcDbMText
 10
336.5477268729952
 20
26.35878325520263
 30
0.0
 40
2.142857142857142
 41
38.47237182223618
 46
0.0
 71
     1
 72
     1
  1
Site name\PDate\PInitials
 73
     1
 44
1.0
  0
LWPOLYLINE
  5
39D
330
357
100
AcDbEntity
  8
Viewport
  6
DASHDOT
 62
     3
 48
10.0
100
AcDbPolyline
 90
        4
 70
   129
 43
0.0
 10
320.5689135145037
 20
247.6274064910471
 10
320.5689135145037
 20
240.8966610560891
 10
330.7304493729991
 20
240.8966610560892
 10
330.7304493729991
 20
247.6274064910472
  0
MTEXT
  5
39E
330
357
100
AcDbEntity
  8
Viewport
100
AcDbMText
 10
335.5969013720481
 20
245.5774663241236
 30
0.0
 40
2.857142857142856
 41
57.07455199729129
 46
0.2016
 71
     1
 72
     5
  1
Limit of Excavation}
 73
     1
 44
1.0
  0
LINE
  5
39F
330
357
100
AcDbEntity
  8
Viewport
  6
DASHED
 62
     1
 48
10.0
100
AcDbLine
 10
320.7984595817509
 20
233.9243321441137
 30
0.0
 11
331.2043835371639
 21
233.9243321441137
 31
0.0
  0
MTEXT
  5
3A0
330
357
100
AcDbEntity
  8
Viewport
100
AcDbMText
 10
335.5937221457992
 20
235.7397930774332
 30
0.0
 40
2.857142857142856
 41
57.07455199729129
 46
0.2016
 71
     1
 72
     5
  1
Section Line
 73
     1
 44
1.0
  0
VIEWPORT
  5
3A1
102
{ACAD_XDICTIONARY
360
3A2
102
}
330
357
100
AcDbEntity
  8
Viewport
370
     5
100
AcDbViewport
 10
157.1428571421876
 20
135.7142857151425
 30
0.0
 40
314.2857142857143
 41
271.4285714285713
 68
     2
 69
     2
 12
111.6395425235914
 22
36.70041488829291
 13
0.0
 23
0.0
 14
0.5
 24
0.5
 15
0.5
 25
0.5
 16
0.0
 26
0.0
 36
1.0
 17
0.0
 27
0.0
 37
0.0
 42
50.0
 43
0.0
 44
0.0
 45
80.02768481561797
 50
0.0
 51
0.0
 72
   100
 90
   557168
  1

281
     0
 71
     1
 74
     0
110
0.0
120
0.0
130
0.0
111
1.0
121
0.0
131
0.0
112
0.0
122
1.0
132
0.0
 79
     0
146
0.0
170
     0
 61
     5
348
9F
292
     1
282
     1
141
0.0
142
0.0
 63
   256
361
3A4
  0
LWPOLYLINE
  5
3A5
330
357
100
AcDbEntity
  8
Viewport
370
     5
100
AcDbPolyline
 90
        4
 70
     1
 43
0.0
 10
314.2857142850448
 20
28.57142857228542
 10
314.2857142850448
 20
14.28571428657115
 10
357.1428571421876
 20
14.28571428657115
 10
357.1428571421876
 20
28.57142857228542
  0
LWPOLYLINE
  5
3A6
330
357
100
AcDbEntity
  8
Viewport
370
     5
100
AcDbPolyline
 90
        4
 70
     1
 43
0.0
 10
314.2857142850448
 20
14.28571428657115
 10
314.2857142850448
 20
0.0000000008568668
 10
357.1428571421876
 20
0.0000000008568668
 10
357.1428571421876
 20
14.28571428657115
  0
ENDBLK
  5
35A
330
357
100
AcDbEntity
  8
0
100
AcDbBlockEnd
  0
BLOCK
  5
1141
330
1140
100
AcDbEntity
  8
0
100
AcDbBlockBegin
  2
*Paper_Space14
 70
     0
 10
0.0
 20
0.0
 30
0.0
  3
*Paper_Space14
  1

  0
VIEWPORT
  5
1142
330
1140
100
AcDbEntity
  8
0
100
AcDbViewport
 10
0.0
 20
0.0
 30
0.0
 40
665.360639360639
 41
276.8571428571427
 68
     1
 69
     1
 12
199.9999999993305
 22
135.7142857151425
 13
0.0
 23
0.0
 14
0.5
 24
0.5
 15
0.0
 25
0.0
 16
0.0
 26
0.0
 36
1.0
 17
0.0
 27
0.0
 37
0.0
 42
50.0
 43
0.0
 44
0.0
 45
276.8571428571427
 50
0.0
 51
0.0
 72
   100
 90
   557168
  1

281
     0
 71
     1
 74
     0
110
0.0
120
0.0
130
0.0
111
1.0
121
0.0
131
0.0
112
0.0
122
1.0
132
0.0
 79
     0
146
0.0
170
     0
 61
     5
348
9F
292
     1
282
     1
141
0.0
142
0.0
 63
   256
361
1144
  0
LWPOLYLINE
  5
1145
330
1140
100
AcDbEntity
  8
Viewport
370
     5
100
AcDbPolyline
 90
        4
 70
     1
 43
0.0
 10
-0.0000000006694913
 20
0.0000000008569023
 10
-0.0000000006694913
 20
271.4285714294281
 10
314.2857142850448
 20
271.4285714294281
 10
314.2857142850448
 20
0.0000000008569023
  0
LWPOLYLINE
  5
1149
330
1140
100
AcDbEntity
  8
Viewport
370
     5
100
AcDbPolyline
 90
        4
 70
     1
 43
0.0
 10
314.2857142850448
 20
257.1428571437139
 10
314.2857142850448
 20
271.4285714294281
 10
399.9999999993305
 20
271.4285714294281
 10
399.9999999993305
 20
257.1428571437139
  0
LWPOLYLINE
  5
114A
330
1140
100
AcDbEntity
  8
Viewport
370
     5
100
AcDbPolyline
 90
        4
 70
     1
 43
0.0
 10
314.2857142850448
 20
0.0000000008568668
 10
314.2857142850448
 20
257.1428571437139
 10
399.9999999993305
 20
257.1428571437139
 10
399.9999999993305
 20
0.0000000008568668
  0
LWPOLYLINE
  5
114B
330
1140
100
AcDbEntity
  8
Viewport
370
     5
100
AcDbPolyline
 90
        4
 70
     1
 43
0.0
 10
314.2857142850448
 20
28.57142857228542
 10
314.2857142850448
 20
50.00000000085682
 10
399.9999999993305
 20
50.00000000085682
 10
399.9999999993305
 20
28.57142857228542
  0
LWPOLYLINE
  5
114C
330
1140
100
AcDbEntity
  8
Viewport
370
     5
100
AcDbPolyline
 90
        4
 70
     1
 43
0.0
 10
357.1428571421876
 20
0.0000000008568668
 10
357.1428571421876
 20
28.57142857228542
 10
399.9999999993305
 20
28.57142857228542
 10
399.9999999993305
 20
0.0000000008568668
  0
MTEXT
  5
114D
330
1140
100
AcDbEntity
  8
Viewport
100
AcDbMText
 10
315.8805739539533
 20
269.0984266394228
 30
0.0
 40
2.857142857142856
 41
80.06933814283552
 46
5.488501246672561
 71
     1
 72
     5
  1
{\fArial|b1|i0|c0|p0;Figure ??: Plan of Area 1 showing Late Iron Age features}
 73
     1
 44
1.0
  0
IMAGE
  5
114F
330
1140
100
AcDbEntity
  8
Viewport
 62
     7
420
 16777215
160
               140
310
8C0000000100000084000000060000000500000099599752233B78404E228892B1DC404000000000000000006CADD9F147C478404E228892B1DC404000000000000000006CADD9F147C478407BAC550DDB464640000000000000000099599752233B78407BAC550DDB464640000000000000000099599752233B78404E2288
310
92B1DC40400000000000000000
100
AcDbRasterImage
 90
        0
 10
387.6961236869916
 20
33.72416907927673
 30
0.0
 11
0.02192184384604931
 21
0.0
 31
0.0
 12
0.0
 22
0.02192184384604931
 32
0.0
 13
391.0
 23
494.0
340
304
 70
     7
280
     0
281
    50
282
    50
283
     0
360
1151
 71
     1
 91
        2
 14
-0.5
 24
-0.5
 14
390.5
 24
493.5
290
     0
  0
MTEXT
  5
1152
330
1140
100
AcDbEntity
  8
Viewport
100
AcDbMText
 10
360.3547049902247
 20
26.76310668717419
 30
0.0
 40
1.428571428571428
 41
41.87929265644836
 46
0.0508
 71
     1
 72
     5
  1
{\fArial|b1|i0|c0|p0;Archaeological Research Services Ltd}
 73
     1
 44
1.0
  0
MTEXT
  5
1153
330
1140
100
AcDbEntity
  8
Viewport
100
AcDbMText
 10
360.4119152818465
 20
21.01133847788062
 30
0.0
 40
1.428571428571428
 41
18.07150977015851
 46
13.50285714285714
 71
     1
 72
     5
  1
{Aizlewood’s Mill\PNursery Street\PSheffield\PS3 8GG\P\PTel:  0114 2750140}
 73
     1
 44
1.0
  0
MTEXT
  5
1154
330
1140
100
AcDbEntity
  8
Viewport
100
AcDbMText
 10
360.5929538906967
 20
3.150122197019938
 30
0.0
 40
1.428571428571428
 41
40.41652836021651
 46
0.0508
 71
     1
 72
     5
  1
{www.archaeologicalresearchservices.com}
 73
     1
 44
1.0
  0
IMAGE
  5
1155
330
1140
100
AcDbEntity
  8
Viewport
 62
     7
420
 16777215
160
               140
310
8C000000010000008400000006000000050000003DD8859142C67740D0BF4DCC72700F400000000000000000A75F23687EC57840D0BF4DCC72700F400000000000000000A75F23687EC57840EF087D19F14E384000000000000000003DD8859142C67740EF087D19F14E384000000000000000003DD8859142C67740D0BF4D
310
CC72700F400000000000000000
100
AcDbRasterImage
 90
        0
 10
380.3912520626362
 20
3.929906459925382
 30
0.0
 11
0.02874253868472039
 21
0.0
 31
0.0
 12
0.0
 22
0.02874253868472039
 32
0.0
 13
555.0
 23
709.0
340
30B
 70
     7
280
     0
281
    50
282
    50
283
     0
360
1157
 71
     1
 91
        2
 14
-0.5
 24
-0.5
 14
554.5
 24
708.5
290
     0
  0
MTEXT
  5
1158
330
1140
100
AcDbEntity
  8
Viewport
100
AcDbMText
 10
314.9429412994959
 20
13.72282775586189
 30
0.0
 40
1.285714285714285
 41
40.74246810505699
 46
0.4717666666666667
 71
     1
 72
     5
  1
{This drawing © ARS Ltd\POrdnance Survey mapping (if applicable):\PCrown Copyright\PAll rights reserved.\PReproduced with permission.\PLicence no. 100045420}
 73
     1
 44
1.0
  0
MTEXT
  5
1159
330
1140
100
AcDbEntity
  8
Viewport
100
AcDbMText
 10
315.8212818365825
 20
26.50582519825755
 30
0.0
 40
2.142857142857142
 41
20.06585358390103
 46
0.6248914348466075
 71
     1
 72
     1
  1
Site name:\PDate: \PDrawn by:  
 73
     1
 44
1.0
  0
MTEXT
  5
115A
330
1140
100
AcDbEntity
  8
Viewport
100
AcDbMText
 10
336.5477268729952
 20
26.35878325520263
 30
0.0
 40
2.142857142857142
 41
38.47237182223618
 46
0.0
 71
     1
 72
     1
  1
Site name\PDate\PInitials
 73
     1
 44
1.0
  0
LWPOLYLINE
  5
115B
330
1140
100
AcDbEntity
  8
Viewport
  6
DASHDOT
 62
     3
 48
10.0
100
AcDbPolyline
 90
        4
 70
   129
 43
0.0
 10
320.5689135145037
 20
247.6274064910471
 10
320.5689135145037
 20
240.8966610560891
 10
330.7304493729991
 20
240.8966610560892
 10
330.7304493729991
 20
247.6274064910472
  0
MTEXT
  5
115D
330
1140
100
AcDbEntity
  8
Viewport
100
AcDbMText
 10
335.5969013720481
 20
245.5774663241236
 30
0.0
 40
2.857142857142856
 41
57.07455199729129
 46
0.2016
 71
     1
 72
     5
  1
Limit of Excavation}
 73
     1
 44
1.0
  0
LINE
  5
115E
330
1140
100
AcDbEntity
  8
Viewport
  6
DASHED
 62
     1
 48
10.0
100
AcDbLine
 10
320.7984595817509
 20
233.9243321441137
 30
0.0
 11
331.2043835371639
 21
233.9243321441137
 31
0.0
  0
MTEXT
  5
1160
330
1140
100
AcDbEntity
  8
Viewport
100
AcDbMText
 10
335.5937221457992
 20
235.7397930774332
 30
0.0
 40
2.857142857142856
 41
57.07455199729129
 46
0.2016
 71
     1
 72
     5
  1
Section Line
 73
     1
 44
1.0
  0
VIEWPORT
  5
1161
102
{ACAD_XDICTIONARY
360
1162
102
}
330
1140
100
AcDbEntity
  8
Viewport
370
     5
100
AcDbViewport
 10
157.1428571421876
 20
135.7142857151425
 30
0.0
 40
314.2857142857143
 41
271.4285714285713
 68
     2
 69
     2
 12
111.6395425235914
 22
36.70041488829291
 13
0.0
 23
0.0
 14
0.5
 24
0.5
 15
0.5
 25
0.5
 16
0.0
 26
0.0
 36
1.0
 17
0.0
 27
0.0
 37
0.0
 42
50.0
 43
0.0
 44
0.0
 45
80.02768481561797
 50
0.0
 51
0.0
 72
   100
 90
   557168
  1

281
     0
 71
     1
 74
     0
110
0.0
120
0.0
130
0.0
111
1.0
121
0.0
131
0.0
112
0.0
122
1.0
132
0.0
 79
     0
146
0.0
170
     0
 61
     5
348
9F
292
     1
282
     1
141
0.0
142
0.0
 63
   256
361
1165
  0
LWPOLYLINE
  5
1166
330
1140
100
AcDbEntity
  8
Viewport
370
     5
100
AcDbPolyline
 90
        4
 70
     1
 43
0.0
 10
314.2857142850448
 20
28.57142857228542
 10
314.2857142850448
 20
14.28571428657115
 10
357.1428571421876
 20
14.28571428657115
 10
357.1428571421876
 20
28.57142857228542
  0
LWPOLYLINE
  5
1167
330
1140
100
AcDbEntity
  8
Viewport
370
     5
100
AcDbPolyline
 90
        4
 70
     1
 43
0.0
 10
314.2857142850448
 20
14.28571428657115
 10
314.2857142850448
 20
0.0000000008568668
 10
357.1428571421876
 20
0.0000000008568668
 10
357.1428571421876
 20
14.28571428657115
  0
ENDBLK
  5
1168
330
1140
100
AcDbEntity
  8
0
100
AcDbBlockEnd
  0
ENDSEC
  0
SECTION
  2
ENTITIES
  0
IMAGE
  5
10DD
330
1F
100
AcDbEntity
  8
Scanned Sheet
160
               140
310
8C00000001000000840000000600000005000000BCA3B385E2B37C40A764ABF0932D53400000000000000000BCA3B385E2B37C40460C8BBE7F54704000000000000000006A861BFF09C66840470C8BBE7F54704000000000000000006A861BFF09C66840A864ABF0932D53400000000000000000BCA3B385E2B37C40A764AB
310
F0932D53400000000000000000
100
AcDbRasterImage
 90
        0
 10
459.2428032891437
 20
76.71215454805007
 30
0.0
 11
6.837019828154124E-18
 21
0.1116570072761277
 31
0.0
 12
-0.1116570072761277
 22
6.837019828154124E-18
 32
0.0
 13
1653.0
 23
2338.0
340
10DC
 70
     7
280
     0
281
    50
282
    50
283
     0
360
10DE
 71
     1
 91
        2
 14
-0.5
 24
-0.5
 14
1652.5
 24
2337.5
290
     0
  0
LINE
  5
10E0
330
1F
100
AcDbEntity
  8
Context
100
AcDbLine
 10
-44.53582127975695
 20
239.7124290260106
 30
0.0
 11
-35.43959124903311
 21
237.8266252391532
 31
0.0
  0
LINE
  5
10E1
330
1F
100
AcDbEntity
  8
Context
100
AcDbLine
 10
-35.43959124903311
 20
237.8266252391532
 30
0.0
 11
-26.34336121830929
 21
234.3878065690015
 31
0.0
  0
LINE
  5
10E2
330
1F
100
AcDbEntity
  8
Context
100
AcDbLine
 10
-26.34336121830929
 20
234.3878065690015
 30
0.0
 11
-14.58481995908094
 21
232.5020027821441
 31
0.0
  0
LINE
  5
10E3
330
1F
100
AcDbEntity
  8
Context
100
AcDbLine
 10
-14.58481995908094
 20
232.5020027821441
 30
0.0
 11
-8.039971522340622
 21
232.05828424406
 31
0.0
  0
LINE
  5
10E5
330
1F
100
AcDbEntity
  8
Context
100
AcDbLine
 10
-8.039971522340622
 20
232.05828424406
 30
0.0
 11
-0.9404749129951995
 21
232.05828424406
 31
0.0
  0
LINE
  5
10E6
330
1F
100
AcDbEntity
  8
Context
100
AcDbLine
 10
-0.9404749129951995
 20
232.05828424406
 30
0.0
 11
2.387414122635462
 21
232.05828424406
 31
0.0
  0
LINE
  5
10E7
330
1F
100
AcDbEntity
  8
Context
100
AcDbLine
 10
2.387414122635462
 20
232.05828424406
 30
0.0
 11
9.37598109745987
 21
233.5003694928333
 31
0.0
  0
LINE
  5
10E8
330
1F
100
AcDbEntity
  8
Context
100
AcDbLine
 10
9.37598109745987
 20
233.5003694928333
 30
0.0
 11
25.01705956492401
 21
231.947354609539
 31
0.0
  0
LINE
  5
10E9
330
1F
100
AcDbEntity
  8
Context
100
AcDbLine
 10
25.01705956492401
 20
231.947354609539
 30
0.0
 11
28.78866713863877
 21
232.8347916857072
 31
0.0
  0
LINE
  5
10EA
330
1F
100
AcDbEntity
  8
Context
100
AcDbLine
 10
28.78866713863877
 20
232.8347916857072
 30
0.0
 11
34.77886740277397
 21
234.8315251070856
 31
0.0
  0
LINE
  5
10EB
330
1F
100
AcDbEntity
  8
Context
100
AcDbLine
 10
34.77886740277397
 20
234.8315251070856
 30
0.0
 11
43.20951962637166
 21
233.5003694928333
 31
0.0
  0
LINE
  5
10EC
330
1F
100
AcDbEntity
  8
Context
100
AcDbLine
 10
43.20951962637166
 20
233.5003694928333
 30
0.0
 11
53.63690527134774
 21
234.6096658380435
 31
0.0
  0
LINE
  5
10ED
330
1F
100
AcDbEntity
  8
Context
100
AcDbLine
 10
53.63690527134774
 20
234.6096658380435
 30
0.0
 11
61.73476859138236
 21
234.6096658380435
 31
0.0
  0
LINE
  5
10EE
330
1F
100
AcDbEntity
  8
Context
100
AcDbLine
 10
61.73476859138236
 20
234.6096658380435
 30
0.0
 11
69.16705410429086
 21
237.7156956046322
 31
0.0
  0
LINE
  5
10EF
330
1F
100
AcDbEntity
  8
Context
100
AcDbLine
 10
69.16705410429086
 20
237.7156956046322
 30
0.0
 11
71.27471716019028
 21
237.7156956046322
 31
0.0
  0
LINE
  5
10F0
330
1F
100
AcDbEntity
  8
Context
100
AcDbLine
 10
71.27471716019028
 20
237.7156956046322
 30
0.0
 11
77.93049523145163
 21
239.2687104879265
 31
0.0
  0
LINE
  5
10F1
330
1F
100
AcDbEntity
  8
Context
100
AcDbLine
 10
-37.32539503589049
 20
238.2703437772373
 30
0.0
 11
-27.56358719804054
 21
239.7124290260106
 31
0.0
  0
LINE
  5
10F2
330
1F
100
AcDbEntity
  8
Context
100
AcDbLine
 10
-27.56358719804054
 20
239.7124290260106
 30
0.0
 11
-15.36132740072809
 21
239.7124290260106
 31
0.0
  0
LINE
  5
10F3
330
1F
100
AcDbEntity
  8
Context
100
AcDbLine
 10
-15.36132740072809
 20
239.7124290260106
 30
0.0
 11
-2.382560161768481
 21
241.1545142747838
 31
0.0
  0
LINE
  5
10F4
330
1F
100
AcDbEntity
  8
Context
100
AcDbLine
 10
-2.382560161768481
 20
241.1545142747838
 30
0.0
 11
2.609273391677519
 21
241.1545142747838
 31
0.0
  0
LINE
  5
10F5
330
1F
100
AcDbEntity
  8
Context
100
AcDbLine
 10
2.609273391677519
 20
241.1545142747838
 30
0.0
 11
11.26178488431725
 21
239.9342882950526
 31
0.0
  0
LINE
  5
10F6
330
1F
100
AcDbEntity
  8
Context
100
AcDbLine
 10
11.26178488431725
 20
239.9342882950526
 30
0.0
 11
26.90286335178139
 21
240.8217253712208
 31
0.0
  0
LINE
  5
10F7
330
1F
100
AcDbEntity
  8
Context
100
AcDbLine
 10
26.90286335178139
 20
240.8217253712208
 30
0.0
 11
44.873464144187
 21
238.1594141427163
 31
0.0
  0
LINE
  5
10F8
330
1F
100
AcDbEntity
  8
Context
100
AcDbLine
 10
44.873464144187
 20
238.1594141427163
 30
0.0
 11
53.8587645403898
 21
239.8233586605316
 31
0.0
  0
LINE
  5
10F9
330
1F
100
AcDbEntity
  8
Context
100
AcDbLine
 10
53.8587645403898
 20
239.8233586605316
 30
0.0
 11
70.8309986221062
 21
241.931021716431
 31
0.0
  0
LINE
  5
10FA
330
1F
100
AcDbEntity
  8
Context
100
AcDbLine
 10
70.8309986221062
 20
241.931021716431
 30
0.0
 11
73.04959131252664
 21
241.931021716431
 31
0.0
  0
LINE
  5
10FB
330
1F
100
AcDbEntity
  8
Context
100
AcDbLine
 10
73.04959131252664
 20
241.931021716431
 30
0.0
 11
79.26165084570388
 21
238.6031326808003
 31
0.0
  0
LINE
  5
10FC
330
1F
100
AcDbEntity
  8
Context
100
AcDbLine
 10
79.26165084570388
 20
238.6031326808003
 30
0.0
 11
84.14255476462887
 21
240.1561475640947
 31
0.0
  0
LINE
  5
10FE
330
1F
100
AcDbEntity
  8
W.Station
  6
DASHED
100
AcDbLine
 10
-43.8702434726308
 20
243.8168255032884
 30
0.0
 11
82.81139915037662
 21
243.8168255032884
 31
0.0
  0
MTEXT
  5
1100
330
1F
100
AcDbEntity
  8
Labels
  6
Continuous
100
AcDbMText
 10
-56.92275457042879
 20
221.1685871731584
 30
0.0
 40
2.142407095531314
 41
365.9909115979017
 46
13.07296809693208
 71
     1
 72
     5
  1
{1C21ILFCI\PDWG# 016\PNW section of stony pit [025]\P10.11.21^IJKF}
 73
     1
 44
1.0
  0
MTEXT
  5
1101
330
1F
100
AcDbEntity
  8
Labels
  6
Continuous
100
AcDbMText
 10
-41.72539464104875
 20
234.2582840466391
 30
0.0
 40
2.142407095531314
 41
365.9909115979017
 46
2.735853860993489
 71
     1
 72
     5
  1
{[025]}
 73
     1
 44
1.0
  0
MTEXT
  5
1102
330
1F
100
AcDbEntity
  8
Labels
  6
Continuous
100
AcDbMText
 10
-22.31270859986985
 20
238.3626805239169
 30
0.0
 40
2.142407095531314
 41
365.9909115979017
 46
2.772274781617521
 71
     1
 72
     5
  1
{(026)}
 73
     1
 44
1.0
  0
MTEXT
  5
1103
330
1F
100
AcDbEntity
  8
Labels
  6
Continuous
100
AcDbMText
 10
-51.48720247889869
 20
250.8977292247924
 30
0.0
 40
2.142407095531314
 41
365.9909115979017
 46
5.773787122456892
 71
     1
 72
     5
  1
{SP 016.1\PNE}
 73
     1
 44
1.0
  0
MTEXT
  5
1104
330
1F
100
AcDbEntity
  8
Labels
  6
Continuous
100
AcDbMText
 10
84.40159980935357
 20
250.8977292247924
 30
0.0
 40
2.142407095531314
 41
365.9909115979017
 46
5.810208043080925
 71
     1
 72
     5
  1
{SP 016.2\PSW}
 73
     1
 44
1.0
  0
ELLIPSE
  5
1106
330
1F
100
AcDbEntity
  8
Detail
  6
Continuous
100
AcDbEllipse
 10
-29.06113726407433
 20
237.9098224650439
 30
0.0
 11
1.871026132858293
 21
0.3844574245599311
 31
0.0
210
0.0
220
0.0
230
1.0
 40
0.4591215308621203
 41
0.0
 42
6.283185307179586
  0
ELLIPSE
  5
1107
330
1F
100
AcDbEntity
  8
Detail
  6
Continuous
100
AcDbEllipse
 10
-8.711826722324304
 20
234.4622452954032
 30
0.0
 11
-1.908644798847138
 21
0.07497554915890481
 31
0.0
210
0.0
220
0.0
230
1.0
 40
0.4591215308621204
 41
0.0
 42
6.283185307179586
  0
CIRCLE
  5
1108
330
1F
100
AcDbEntity
  8
Detail
  6
Continuous
100
AcDbCircle
 10
-1.384193451079284
 20
235.524835322842
 30
0.0
 40
1.14343650035335
  0
LINE
  5
1109
330
1F
100
AcDbEntity
  8
Detail
  6
Continuous
100
AcDbLine
 10
7.767501396905054
 20
233.250777815161
 30
0.0
 11
6.103556879089716
 21
235.524835322842
 31
0.0
  0
LINE
  5
110A
330
1F
100
AcDbEntity
  8
Detail
  6
Continuous
100
AcDbLine
 10
6.103556879089716
 20
235.524835322842
 30
0.0
 11
7.933895848686582
 21
236.1904131299681
 31
0.0
  0
LINE
  5
110B
330
1F
100
AcDbEntity
  8
Detail
  6
Continuous
100
AcDbLine
 10
7.933895848686582
 20
236.1904131299681
 30
0.0
 11
10.041558904586
 21
233.5281019014636
 31
0.0
  0
LINE
  5
110C
330
1F
100
AcDbEntity
  8
Detail
  6
Continuous
100
AcDbLine
 10
10.041558904586
 20
233.5281019014636
 30
0.0
 11
13.20305348843514
 21
236.6895964853127
 31
0.0
  0
LINE
  5
110D
330
1F
100
AcDbEntity
  8
Detail
  6
Continuous
100
AcDbLine
 10
13.20305348843514
 20
236.6895964853127
 30
0.0
 11
15.53257581337661
 21
239.6292318001198
 31
0.0
  0
LINE
  5
110E
330
1F
100
AcDbEntity
  8
Detail
  6
Continuous
100
AcDbLine
 10
15.53257581337661
 20
239.6292318001198
 30
0.0
 11
14.81153318898996
 21
240.1838799727249
 31
0.0
  0
LINE
  5
110F
330
1F
100
AcDbEntity
  8
Detail
  6
Continuous
100
AcDbLine
 10
7.933895848686582
 20
236.1904131299681
 30
0.0
 11
11.87189787418287
 21
239.9342882950526
 31
0.0
  0
LINE
  5
1110
330
1F
100
AcDbEntity
  8
Detail
  6
Continuous
100
AcDbLine
 10
16.69733697584734
 20
232.7515944598164
 30
0.0
 11
21.85556498107487
 21
238.353541003128
 31
0.0
  0
LINE
  5
1111
330
1F
100
AcDbEntity
  8
Detail
  6
Continuous
100
AcDbLine
 10
21.85556498107487
 20
238.353541003128
 30
0.0
 11
22.9648613262851
 21
239.9620207036829
 31
0.0
  0
LINE
  5
1112
330
1F
100
AcDbEntity
  8
Detail
  6
Continuous
100
AcDbLine
 10
22.9648613262851
 20
239.9620207036829
 30
0.0
 11
24.57334102683992
 21
237.9098224650439
 31
0.0
  0
LINE
  5
1113
330
1F
100
AcDbEntity
  8
Detail
  6
Continuous
100
AcDbLine
 10
24.57334102683992
 20
237.9098224650439
 30
0.0
 11
25.23891883396606
 21
235.2475112365394
 31
0.0
  0
LINE
  5
1114
330
1F
100
AcDbEntity
  8
Detail
  6
Continuous
100
AcDbLine
 10
25.23891883396606
 20
235.2475112365394
 30
0.0
 11
23.63043913341124
 21
232.1414814699508
 31
0.0
  0
LINE
  5
1115
330
1F
100
AcDbEntity
  8
Detail
  6
Continuous
100
AcDbLine
 10
41.10185657047224
 20
233.8608908050266
 30
0.0
 11
41.10185657047224
 21
236.0794834954471
 31
0.0
  0
LINE
  5
1116
330
1F
100
AcDbEntity
  8
Detail
  6
Continuous
100
AcDbLine
 10
41.10185657047224
 20
236.0794834954471
 30
0.0
 11
45.70543640309466
 21
236.0794834954471
 31
0.0
  0
LINE
  5
1117
330
1F
100
AcDbEntity
  8
Detail
  6
Continuous
100
AcDbLine
 10
45.70543640309466
 20
236.0794834954471
 30
0.0
 11
45.70543640309466
 21
233.7499611705056
 31
0.0
  0
CIRCLE
  5
1118
330
1F
100
AcDbEntity
  8
Detail
  6
Continuous
100
AcDbCircle
 10
27.4575115243865
 20
233.6944963532451
 30
0.0
 40
0.8874370761681689
  0
CIRCLE
  5
1119
330
1F
100
AcDbEntity
  8
Detail
  6
Continuous
100
AcDbCircle
 10
36.38734710332879
 20
235.5803001401025
 30
0.0
 40
1.046508079057252
  0
ELLIPSE
  5
111A
330
1F
100
AcDbEntity
  8
Detail
  6
Continuous
100
AcDbEllipse
 10
-0.3781231006616181
 20
233.2847200417719
 30
0.0
 11
0.87334616437168
 21
0.9414511404924142
 31
0.0
210
0.0
220
0.0
230
1.0
 40
0.3828431883470633
 41
0.0
 42
6.283185307179586
  0
ELLIPSE
  5
111B
330
1F
100
AcDbEntity
  8
Detail
  6
Continuous
100
AcDbEllipse
 10
-2.222443102844501
 20
234.0185267573191
 30
0.0
 11
-1.283169144037152
 21
0.05040556068685902
 31
0.0
210
0.0
220
0.0
230
1.0
 40
0.3828431883470633
 41
0.0
 42
6.283185307179586
  0
LINE
  5
111C
330
1F
100
AcDbEntity
  8
Detail
  6
Continuous
100
AcDbLine
 10
63.28778347467669
 20
241.0158522316326
 30
0.0
 11
63.28778347467669
 21
238.5199354549096
 31
0.0
  0
LINE
  5
111D
330
1F
100
AcDbEntity
  8
Detail
  6
Continuous
100
AcDbLine
 10
63.28778347467669
 20
238.5199354549096
 30
0.0
 11
68.66787074894626
 21
238.5199354549096
 31
0.0
  0
LINE
  5
111E
330
1F
100
AcDbEntity
  8
Detail
  6
Continuous
100
AcDbLine
 10
68.66787074894626
 20
238.5199354549096
 30
0.0
 11
68.66787074894626
 21
241.7368948560193
 31
0.0
  0
LINE
  5
111F
330
1F
100
AcDbEntity
  8
Detail
  6
Continuous
100
AcDbLine
 10
68.50147629716474
 20
238.8527243584727
 30
0.0
 11
71.10832270840876
 21
238.8527243584727
 31
0.0
  0
LINE
  5
1120
330
1F
100
AcDbEntity
  8
Detail
  6
Continuous
100
AcDbLine
 10
71.10832270840876
 20
238.8527243584727
 30
0.0
 11
69.832631911417
 21
237.6324983787414
 31
0.0
  0
LINE
  5
1121
330
1F
100
AcDbEntity
  8
Detail
  6
Continuous
100
AcDbLine
 10
68.05775775908064
 20
238.5754002721701
 30
0.0
 11
69.00065965250934
 21
237.7434280132624
 31
0.0
  0
CIRCLE
  5
1125
330
1F
100
AcDbEntity
  8
W.Station
 62
     7
100
AcDbCircle
 10
81.90016566073851
 20
243.8168255032884
 30
0.0
 40
0.3942837214778271
  0
LWPOLYLINE
  5
1126
330
1F
100
AcDbEntity
  8
W.Station
 62
     7
100
AcDbPolyline
 90
        2
 70
     0
 43
0.0
 10
81.90016566073851
 20
244.8288203884154
 10
81.90016566073851
 20
242.8048306181613
  0
LWPOLYLINE
  5
1127
330
1F
100
AcDbEntity
  8
W.Station
 62
     7
100
AcDbPolyline
 90
        2
 70
     0
 43
0.0
 10
80.9889321711004
 20
243.8168255032884
 10
82.81139915037662
 20
243.8168255032884
  0
CIRCLE
  5
1128
330
1F
100
AcDbEntity
  8
W.Station
 62
     7
100
AcDbCircle
 10
-44.78147696226893
 20
243.8168255032884
 30
0.0
 40
0.3942837214778271
  0
LWPOLYLINE
  5
1129
330
1F
100
AcDbEntity
  8
W.Station
 62
     7
100
AcDbPolyline
 90
        2
 70
     0
 43
0.0
 10
-44.78147696226893
 20
244.8288203884154
 10
-44.78147696226893
 20
242.8048306181614
  0
LWPOLYLINE
  5
112A
330
1F
100
AcDbEntity
  8
W.Station
 62
     7
100
AcDbPolyline
 90
        2
 70
     0
 43
0.0
 10
-45.69271045190703
 20
243.8168255032884
 10
-43.87024347263082
 20
243.8168255032884
  0
LWPOLYLINE
  5
112B
330
1F
100
AcDbEntity
  8
Scalebar
100
AcDbPolyline
 90
        4
 70
     1
 43
0.0
 10
-41.2948540267567
 20
114.511003713643
 10
-41.2948540267567
 20
116.1761515059527
 10
-32.96911506278371
 20
116.1761515059527
 10
-32.96911506278371
 20
114.511003713643
  0
HATCH
  5
112C
330
1F
100
AcDbEntity
  8
Scalebar
100
AcDbHatch
 10
0.0
 20
0.0
 30
-1763.891889891658
210
0.0
220
0.0
230
1.0
  2
SOLID
 70
     1
 71
     1
 91
        1
 92
        1
 93
        4
 72
     1
 10
-41.2948540267567
 20
116.1761515059527
 11
-41.2948540267567
 21
117.8412992982623
 72
     1
 10
-41.2948540267567
 20
117.8412992982623
 11
-32.96911506278371
 21
117.8412992982623
 72
     1
 10
-32.96911506278371
 20
117.8412992982623
 11
-32.96911506278371
 21
116.1761515059527
 72
     1
 10
-32.96911506278371
 20
116.1761515059527
 11
-41.2948540267567
 21
116.1761515059527
 97
        1
330
112D
 75
     0
 76
     1
 98
        1
 10
-49776638.11722788
 20
-16833129.51233995
1001
ACAD
1010
0.0
1020
0.0
1030
0.0
  0
LWPOLYLINE
  5
112D
102
{ACAD_REACTORS
330
112C
102
}
330
1F
100
AcDbEntity
  8
Scalebar
100
AcDbPolyline
 90
        4
 70
     1
 43
0.0
 10
-41.2948540267567
 20
116.1761515059527
 10
-41.2948540267567
 20
117.8412992982623
 10
-32.96911506278371
 20
117.8412992982623
 10
-32.96911506278371
 20
116.1761515059527
  0
HATCH
  5
112E
330
1F
100
AcDbEntity
  8
Scalebar
100
AcDbHatch
 10
0.0
 20
0.0
 30
-1763.891889891658
210
0.0
220
0.0
230
1.0
  2
SOLID
 70
     1
 71
     1
 91
        1
 92
        1
 93
        4
 72
     1
 10
-32.96911506278371
 20
114.511003713643
 11
-32.96911506278371
 21
116.1761515059527
 72
     1
 10
-32.96911506278371
 20
116.1761515059527
 11
-24.64337609881437
 21
116.1761515059527
 72
     1
 10
-24.64337609881437
 20
116.1761515059527
 11
-24.64337609881437
 21
114.511003713643
 72
     1
 10
-24.64337609881437
 20
114.511003713643
 11
-32.96911506278371
 21
114.511003713643
 97
        1
330
112F
 75
     0
 76
     1
 98
        1
 10
-49776638.11722788
 20
-16833129.51233995
1001
ACAD
1010
0.0
1020
0.0
1030
0.0
  0
LWPOLYLINE
  5
112F
102
{ACAD_REACTORS
330
112E
102
}
330
1F
100
AcDbEntity
  8
Scalebar
100
AcDbPolyline
 90
        4
 70
     1
 43
0.0
 10
-32.96911506278371
 20
114.511003713643
 10
-32.96911506278371
 20
116.1761515059527
 10
-24.64337609881437
 20
116.1761515059527
 10
-24.64337609881437
 20
114.511003713643
  0
LWPOLYLINE
  5
1130
330
1F
100
AcDbEntity
  8
Scalebar
100
AcDbPolyline
 90
        4
 70
     1
 43
0.0
 10
-32.96911506278371
 20
116.1761515059527
 10
-32.96911506278371
 20
117.8412992982623
 10
-24.64337609881437
 20
117.8412992982623
 10
-24.64337609881437
 20
116.1761515059527
  0
LWPOLYLINE
  5
1131
330
1F
100
AcDbEntity
  8
Scalebar
100
AcDbPolyline
 90
        4
 70
     1
 43
0.0
 10
-24.64337609881437
 20
114.511003713643
 10
-24.64337609881437
 20
116.1761515059527
 10
-16.31763713484139
 20
116.1761515059527
 10
-16.31763713484139
 20
114.511003713643
  0
HATCH
  5
1132
330
1F
100
AcDbEntity
  8
Scalebar
100
AcDbHatch
 10
0.0
 20
0.0
 30
-1763.891889891658
210
0.0
220
0.0
230
1.0
  2
SOLID
 70
     1
 71
     1
 91
        1
 92
        1
 93
        4
 72
     1
 10
-24.64337609881437
 20
116.1761515059527
 11
-24.64337609881437
 21
117.8412992982623
 72
     1
 10
-24.64337609881437
 20
117.8412992982623
 11
-16.31763713484139
 21
117.8412992982623
 72
     1
 10
-16.31763713484139
 20
117.8412992982623
 11
-16.31763713484139
 21
116.1761515059527
 72
     1
 10
-16.31763713484139
 20
116.1761515059527
 11
-24.64337609881437
 21
116.1761515059527
 97
        1
330
1133
 75
     0
 76
     1
 98
        1
 10
-49776638.11722788
 20
-16833129.51233995
1001
ACAD
1010
0.0
1020
0.0
1030
0.0
  0
LWPOLYLINE
  5
1133
102
{ACAD_REACTORS
330
1132
102
}
330
1F
100
AcDbEntity
  8
Scalebar
100
AcDbPolyline
 90
        4
 70
     1
 43
0.0
 10
-24.64337609881437
 20
116.1761515059527
 10
-24.64337609881437
 20
117.8412992982623
 10
-16.31763713484139
 20
117.8412992982623
 10
-16.31763713484139
 20
116.1761515059527
  0
HATCH
  5
1134
330
1F
100
AcDbEntity
  8
Scalebar
100
AcDbHatch
 10
0.0
 20
0.0
 30
-1763.891889891658
210
0.0
220
0.0
230
1.0
  2
SOLID
 70
     1
 71
     1
 91
        1
 92
        1
 93
        4
 72
     1
 10
-16.31763713484139
 20
114.511003713643
 11
-16.31763713484139
 21
116.1761515059527
 72
     1
 10
-16.31763713484139
 20
116.1761515059527
 11
-7.99189817086841
 21
116.1761515059527
 72
     1
 10
-7.99189817086841
 20
116.1761515059527
 11
-7.99189817086841
 21
114.511003713643
 72
     1
 10
-7.99189817086841
 20
114.511003713643
 11
-16.31763713484139
 21
114.511003713643
 97
        1
330
1135
 75
     0
 76
     1
 98
        1
 10
-49776638.11722788
 20
-16833129.51233995
1001
ACAD
1010
0.0
1020
0.0
1030
0.0
  0
LWPOLYLINE
  5
1135
102
{ACAD_REACTORS
330
1134
102
}
330
1F
100
AcDbEntity
  8
Scalebar
100
AcDbPolyline
 90
        4
 70
     1
 43
0.0
 10
-16.31763713484139
 20
114.511003713643
 10
-16.31763713484139
 20
116.1761515059527
 10
-7.99189817086841
 20
116.1761515059527
 10
-7.99189817086841
 20
114.511003713643
  0
LWPOLYLINE
  5
1136
330
1F
100
AcDbEntity
  8
Scalebar
100
AcDbPolyline
 90
        4
 70
     1
 43
0.0
 10
-16.31763713484139
 20
116.1761515059527
 10
-16.31763713484139
 20
117.8412992982623
 10
-7.99189817086841
 20
117.8412992982623
 10
-7.99189817086841
 20
116.1761515059527
  0
LWPOLYLINE
  5
1137
330
1F
100
AcDbEntity
  8
Scalebar
100
AcDbPolyline
 90
        4
 70
     1
 43
0.0
 10
-7.99189817086841
 20
114.511003713643
 10
-7.99189817086841
 20
116.1761515059527
 10
0.3338407931045708
 20
116.1761515059527
 10
0.3338407931045708
 20
114.511003713643
  0
HATCH
  5
1138
330
1F
100
AcDbEntity
  8
Scalebar
100
AcDbHatch
 10
0.0
 20
0.0
 30
-1763.891889891658
210
0.0
220
0.0
230
1.0
  2
SOLID
 70
     1
 71
     1
 91
        1
 92
        1
 93
        4
 72
     1
 10
-7.99189817086841
 20
116.1761515059527
 11
-7.99189817086841
 21
117.8412992982623
 72
     1
 10
-7.99189817086841
 20
117.8412992982623
 11
0.3338407931045708
 21
117.8412992982623
 72
     1
 10
0.3338407931045708
 20
117.8412992982623
 11
0.3338407931045708
 21
116.1761515059527
 72
     1
 10
0.3338407931045708
 20
116.1761515059527
 11
-7.99189817086841
 21
116.1761515059527
 97
        1
330
1139
 75
     0
 76
     1
 98
        1
 10
-49776638.11722788
 20
-16833129.51233995
1001
ACAD
1010
0.0
1020
0.0
1030
0.0
  0
LWPOLYLINE
  5
1139
102
{ACAD_REACTORS
330
1138
102
}
330
1F
100
AcDbEntity
  8
Scalebar
100
AcDbPolyline
 90
        4
 70
     1
 43
0.0
 10
-7.99189817086841
 20
116.1761515059527
 10
-7.99189817086841
 20
117.8412992982623
 10
0.3338407931045708
 20
117.8412992982623
 10
0.3338407931045708
 20
116.1761515059527
  0
LWPOLYLINE
  5
113A
330
1F
100
AcDbEntity
  8
Scalebar
100
AcDbPolyline
 90
        4
 70
     1
 43
0.0
 10
0.3338407931045708
 20
116.1761515059527
 10
0.3338407931045708
 20
116.1761515059527
 10
0.3338407931045708
 20
116.1761515059527
 10
0.3338407931045708
 20
116.1761515059527
  0
LWPOLYLINE
  5
113B
330
1F
100
AcDbEntity
  8
Scalebar
100
AcDbPolyline
 90
        4
 70
     1
 43
0.0
 10
0.3338407931045708
 20
116.1761515059527
 10
0.3338407931045708
 20
117.8412992982623
 10
41.96253562265377
 20
117.8412992982623
 10
41.96253562265377
 20
116.1761515059527
  0
HATCH
  5
113C
330
1F
100
AcDbEntity
  8
Scalebar
100
AcDbHatch
 10
0.0
 20
0.0
 30
-1763.891889891658
210
0.0
220
0.0
230
1.0
  2
SOLID
 70
     1
 71
     1
 91
        1
 92
        1
 93
        4
 72
     1
 10
0.3338407931045708
 20
114.511003713643
 11
0.3338407931045708
 21
116.1761515059527
 72
     1
 10
0.3338407931045708
 20
116.1761515059527
 11
41.96253562265377
 21
116.1761515059527
 72
     1
 10
41.96253562265377
 20
116.1761515059527
 11
41.96253562265377
 21
114.511003713643
 72
     1
 10
41.96253562265377
 20
114.511003713643
 11
0.3338407931045708
 21
114.511003713643
 97
        1
330
113D
 75
     0
 76
     1
 98
        1
 10
-49776638.11722788
 20
-16833129.51233995
1001
ACAD
1010
0.0
1020
0.0
1030
0.0
  0
LWPOLYLINE
  5
113D
102
{ACAD_REACTORS
330
113C
102
}
330
1F
100
AcDbEntity
  8
Scalebar
100
AcDbPolyline
 90
        4
 70
     1
 43
0.0
 10
0.3338407931045708
 20
114.511003713643
 10
0.3338407931045708
 20
116.1761515059527
 10
41.96253562265377
 20
116.1761515059527
 10
41.96253562265377
 20
114.511003713643
  0
MTEXT
  5
113E
330
1F
100
AcDbEntity
  8
Scalebar
100
AcDbMText
 10
-42.8847509323237
 20
122.9631522905213
 30
0.0
 40
4.162869482955162
 41
5.844694106007362
 46
0.05085
 71
     1
 72
     5
  1
{0}
 73
     1
 44
1.0
  0
MTEXT
  5
113F
330
1F
100
AcDbEntity
  8
Scalebar
100
AcDbMText
 10
40.99546507590679
 20
123.104444965734
 30
0.0
 40
4.162869482955162
 41
5.844694106007362
 46
0.05085
 71
     1
 72
     5
  1
{1m}
 73
     1
 44
1.0
  0
VIEWPORT
  5
2F6
330
2F4
100
AcDbEntity
 67
     1
  8
0
100
AcDbViewport
 10
0.0
 20
0.0
 30
0.0
 40
465.7524475524476
 41
193.8
 68
     1
 69
     1
 12
147.3473932347496
 22
106.7761622067302
 13
0.0
 23
0.0
 14
0.5
 24
0.5
 15
0.0
 25
0.0
 16
0.0
 26
0.0
 36
1.0
 17
0.0
 27
0.0
 37
0.0
 42
50.0
 43
0.0
 44
0.0
 45
193.8
 50
0.0
 51
0.0
 72
   100
 90
   557168
  1

281
     0
 71
     1
 74
     0
110
0.0
120
0.0
130
0.0
111
1.0
121
0.0
131
0.0
112
0.0
122
1.0
132
0.0
 79
     0
146
0.0
170
     0
 61
     5
348
9F
292
     1
282
     1
141
0.0
142
0.0
 63
   256
361
2F8
  0
LWPOLYLINE
  5
2F9
330
2F4
100
AcDbEntity
 67
     1
  8
Viewport
370
     5
100
AcDbPolyline
 90
        4
 70
     1
 43
0.0
 10
7.347393234749618
 20
11.77616220673023
 10
7.347393234749618
 20
201.7761622067301
 10
227.3473932347497
 20
201.7761622067301
 10
227.3473932347497
 20
11.77616220673023
  0
LWPOLYLINE
  5
2FD
330
2F4
100
AcDbEntity
 67
     1
  8
Viewport
370
     5
100
AcDbPolyline
 90
        4
 70
     1
 43
0.0
 10
227.3473932347497
 20
191.7761622067302
 10
227.3473932347497
 20
201.7761622067301
 10
287.3473932347496
 20
201.7761622067301
 10
287.3473932347496
 20
191.7761622067302
  0
LWPOLYLINE
  5
2FE
330
2F4
100
AcDbEntity
 67
     1
  8
Viewport
370
     5
100
AcDbPolyline
 90
        4
 70
     1
 43
0.0
 10
227.3473932347497
 20
11.7761622067302
 10
227.3473932347497
 20
191.7761622067302
 10
287.3473932347496
 20
191.7761622067302
 10
287.3473932347496
 20
11.7761622067302
  0
LWPOLYLINE
  5
2FF
330
2F4
100
AcDbEntity
 67
     1
  8
Viewport
370
     5
100
AcDbPolyline
 90
        4
 70
     1
 43
0.0
 10
227.3473932347497
 20
31.77616220673019
 10
227.3473932347497
 20
46.77616220673018
 10
287.3473932347496
 20
46.77616220673018
 10
287.3473932347496
 20
31.77616220673019
  0
LWPOLYLINE
  5
300
330
2F4
100
AcDbEntity
 67
     1
  8
Viewport
370
     5
100
AcDbPolyline
 90
        4
 70
     1
 43
0.0
 10
257.3473932347495
 20
11.7761622067302
 10
257.3473932347495
 20
31.77616220673019
 10
287.3473932347496
 20
31.77616220673019
 10
287.3473932347496
 20
11.7761622067302
  0
MTEXT
  5
301
330
2F4
100
AcDbEntity
 67
     1
  8
Viewport
100
AcDbMText
 10
228.4637950029855
 20
200.1450608537263
 30
0.0
 40
2.0
 41
56.04853669998488
 46
5.488501246672561
 71
     1
 72
     5
  1
{\fArial|b1|i0|c0|p0;Figure ??: Plan of Area 1 showing Late Iron Age features}
 73
     1
 44
1.0
  0
IMAGE
  5
303
330
2F4
100
AcDbEntity
 67
     1
  8
Viewport
 62
     7
420
 16777215
160
               140
310
8C00000001000000840000000600000005000000BE739F3FC16B714056F4A9C808B1414000000000000000000548B448C1CB714056F4A9C808B1414000000000000000000548B448C1CB7140DDA10605597B45400000000000000000BE739F3FC16B7140DDA10605597B45400000000000000000BE739F3FC16B714056F4A9
310
C808B141400000000000000000
100
AcDbRasterImage
 90
        0
 10
278.7346798161124
 20
35.38308056162411
 30
0.0
 11
0.01534529069223452
 21
0.0
 31
0.0
 12
0.0
 22
0.01534529069223453
 32
0.0
 13
391.0
 23
494.0
340
304
 70
     7
280
     0
281
    50
282
    50
283
     0
360
306
 71
     1
 91
        2
 14
-0.5
 24
-0.5
 14
390.5
 24
493.5
290
     0
  0
MTEXT
  5
307
330
2F4
100
AcDbEntity
 67
     1
  8
Viewport
100
AcDbMText
 10
259.5956867283755
 20
30.51033688715233
 30
0.0
 40
1.0
 41
29.31550485951386
 46
0.0508
 71
     1
 72
     5
  1
{\fArial|b1|i0|c0|p0;Archaeological Research Services Ltd}
 73
     1
 44
1.0
  0
MTEXT
  5
308
330
2F4
100
AcDbEntity
 67
     1
  8
Viewport
100
AcDbMText
 10
259.7029665297401
 20
26.73376285153269
 30
0.0
 40
1.0
 41
12.65005683911096
 46
9.452
 71
     1
 72
     5
  1
{Aizlewood’s Mill\PNursery Street\PSheffield\PS3 8GG\P\PTel:  0114 2750140}
 73
     1
 44
1.0
  0
MTEXT
  5
309
330
2F4
100
AcDbEntity
 67
     1
  8
Viewport
100
AcDbMText
 10
259.762460958706
 20
13.98124774404435
 30
0.0
 40
1.0
 41
28.29156985215156
 46
0.0508
 71
     1
 72
     5
  1
{www.archaeologicalresearchservices.com}
 73
     1
 44
1.0
  0
IMAGE
  5
30A
330
2F4
100
AcDbEntity
 67
     1
  8
Viewport
 62
     7
420
 16777215
160
               140
310
8C00000001000000840000000600000005000000319979B8F019714041D9519FDF0D2D400000000000000000FC77819B9ACC714041D9519FDF0D2D400000000000000000FC77819B9ACC714080D86CBCC1CA3C400000000000000000319979B8F019714080D86CBCC1CA3C400000000000000000319979B8F019714041D951
310
9FDF0D2D400000000000000000
100
AcDbRasterImage
 90
        0
 10
273.6212696790636
 20
14.52709672807816
 30
0.0
 11
0.02011977707930428
 21
0.0
 31
0.0
 12
0.0
 22
0.02011977707930428
 32
0.0
 13
555.0
 23
709.0
340
30B
 70
     7
280
     0
281
    50
282
    50
283
     0
360
30C
 71
     1
 91
        2
 14
-0.5
 24
-0.5
 14
554.5
 24
708.5
290
     0
  0
MTEXT
  5
30D
330
2F4
100
AcDbEntity
 67
     1
  8
Viewport
100
AcDbMText
 10
227.8074521448654
 20
21.38214163523372
 30
0.0
 40
0.9
 41
28.5197276735399
 46
0.4717666666666667
 71
     1
 72
     5
  1
{This drawing © ARS Ltd\POrdnance Survey mapping (if applicable):\PCrown Copyright\PAll rights reserved.\PReproduced with permission.\PLicence no. 100045420}
 73
     1
 44
1.0
  0
MTEXT
  5
30E
330
2F4
100
AcDbEntity
 67
     1
  8
Viewport
100
AcDbMText
 10
228.422290520826
 20
30.33023984491069
 30
0.0
 40
1.5
 41
14.04609750873072
 46
0.6248914348466075
 71
     1
 72
     1
  1
Site name:\PDate: \PDrawn by:  
 73
     1
 44
1.0
  0
MTEXT
  5
30F
330
2F4
100
AcDbEntity
 67
     1
  8
Viewport
100
AcDbMText
 10
242.9308020463149
 20
30.22731048477224
 30
0.0
 40
1.5
 41
26.93066027556533
 46
0.0
 71
     1
 72
     1
  1
Site name\PDate\PInitials
 73
     1
 44
1.0
  0
LWPOLYLINE
  5
310
330
2F4
100
AcDbEntity
 67
     1
  8
Viewport
  6
DASHDOT
 62
     3
 48
10.0
100
AcDbPolyline
 90
        4
 70
   129
 43
0.0
 10
231.7456326953709
 20
185.1153467498634
 10
231.7456326953709
 20
180.4038249453928
 10
238.8587077963176
 20
180.4038249453929
 10
238.8587077963176
 20
185.1153467498635
  0
MTEXT
  5
312
330
2F4
100
AcDbEntity
 67
     1
  8
Viewport
100
AcDbMText
 10
242.2652241956519
 20
183.680388633017
 30
0.0
 40
2.0
 41
39.95218639810391
 46
0.2016
 71
     1
 72
     5
  1
Limit of Excavation}
 73
     1
 44
1.0
  0
LINE
  5
313
330
2F4
100
AcDbEntity
 67
     1
  8
Viewport
  6
DASHED
 62
     1
 48
10.0
100
AcDbLine
 10
231.9063149424439
 20
175.52319470701
 30
0.0
 11
239.190461711233
 21
175.52319470701
 31
0.0
  0
MTEXT
  5
315
330
2F4
100
AcDbEntity
 67
     1
  8
Viewport
100
AcDbMText
 10
242.2629987372777
 20
176.7940173603337
 30
0.0
 40
2.0
 41
39.95218639810391
 46
0.2016
 71
     1
 72
     5
  1
Section Line
 73
     1
 44
1.0
  0
VIEWPORT
  5
316
102
{ACAD_XDICTIONARY
360
317
102
}
330
2F4
100
AcDbEntity
 67
     1
  8
Viewport
370
     5
100
AcDbViewport
 10
117.3473932347496
 20
106.7761622067302
 30
0.0
 40
220.0
 41
190.0
 68
     2
 69
     2
 12
50.63507582640864
 22
27.72352701592062
 13
0.0
 23
0.0
 14
0.5
 24
0.5
 15
0.5
 25
0.5
 16
0.0
 26
0.0
 36
1.0
 17
0.0
 27
0.0
 37
0.0
 42
50.0
 43
0.0
 44
0.0
 45
87.53028026708222
 50
0.0
 51
0.0
 72
   100
 90
   557168
  1

281
     0
 71
     1
 74
     0
110
0.0
120
0.0
130
0.0
111
1.0
121
0.0
131
0.0
112
0.0
122
1.0
132
0.0
 79
     0
146
0.0
170
     0
 61
     5
348
9F
292
     1
282
     1
141
0.0
142
0.0
 63
   256
361
31A
  0
LWPOLYLINE
  5
31B
330
2F4
100
AcDbEntity
 67
     1
  8
Viewport
370
     5
100
AcDbPolyline
 90
        4
 70
     1
 43
0.0
 10
227.3473932347497
 20
31.77616220673019
 10
227.3473932347497
 20
21.7761622067302
 10
257.3473932347495
 20
21.7761622067302
 10
257.3473932347495
 20
31.77616220673019
  0
LWPOLYLINE
  5
31C
330
2F4
100
AcDbEntity
 67
     1
  8
Viewport
370
     5
100
AcDbPolyline
 90
        4
 70
     1
 43
0.0
 10
227.3473932347497
 20
21.7761622067302
 10
227.3473932347497
 20
11.7761622067302
 10
257.3473932347495
 20
11.7761622067302
 10
257.3473932347495
 20
21.7761622067302
  0
ENDSEC
  0
SECTION
  2
OBJECTS
  0
DICTIONARY
  5
C
330
0
100
AcDbDictionary
281
     1
  3
ACAD_COLOR
350
73
  3
ACAD_DETAILVIEWSTYLE
350
122
  3
ACAD_GROUP
350
D
  3
ACAD_IMAGE_DICT
350
305
  3
ACAD_IMAGE_VARS
350
DC
  3
ACAD_LAYOUT
350
1A
  3
ACAD_MATERIAL
350
72
  3
ACAD_MLEADERSTYLE
350
B5
  3
ACAD_MLINESTYLE
350
17
  3
ACAD_PLOTSETTINGS
350
19
  3
ACAD_PLOTSTYLENAME
350
E
  3
ACAD_SCALELIST
350
B6
  3
ACAD_SECTIONVIEWSTYLE
350
123
  3
ACAD_TABLESTYLE
350
86
  3
ACAD_VISUALSTYLE
350
99
  3
ACDB_RECOMPOSE_DATA
350
116C
  3
AcDbVariableDictionary
350
66
  3
APPDATA
350
E1
  0
SUN
  5
ED
330
94
100
AcDbSun
 90
        1
290
     0
 63
     7
421
 16777215
 40
1.0
291
     1
 91
  2455826
 92
 54000000
292
     0
 70
     2
 71
   256
280
     1
  0
DICTIONARY
  5
12A
330
2
100
AcDbDictionary
280
     1
281
     1
  3
ACAD_LAYERSTATES
360
12B
  3
ACLYDICTIONARY
360
10C7
  0
DICTIONARY
  5
46C
330
1F
100
AcDbDictionary
280
     1
281
     1
  3
ACAD_SORTENTS
360
46D
  0
SUN
  5
3B3
330
3AF
100
AcDbSun
 90
        1
290
     0
 63
     7
421
 16777215
 40
1.0
291
     1
 91
  2455826
 92
 54000000
292
     0
 70
     2
 71
   256
280
     1
  0
DICTIONARY
  5
3EB
330
3EA
100
AcDbDictionary
280
     1
281
     1
  3
ASDK_XREC_ANNOTATION_SCALE_INFO
360
3EC
  0
SUN
  5
3ED
330
3EA
100
AcDbSun
 90
        1
290
     0
 63
     7
421
 16777215
 40
1.0
291
     1
 91
  2455826
 92
 54000000
292
     0
 70
     2
 71
   256
280
     1
  0
IMAGEDEF_REACTOR
  5
3F0
330
3EF
100
AcDbRasterImageDefReactor
 90
        2
330
3EF
  0
IMAGEDEF_REACTOR
  5
3F7
330
3F6
100
AcDbRasterImageDefReactor
 90
        2
330
3F6
  0
SUN
  5
324
330
322
100
AcDbSun
 90
        1
290
     0
 63
     7
421
 16777215
 40
1.0
291
     1
 91
  2455826
 92
 54000000
292
     0
 70
     2
 71
   256
280
     1
  0
DICTIONARY
  5
32C
330
32B
100
AcDbDictionary
280
     1
281
     1
  3
ASDK_XREC_ANNOTATION_SCALE_INFO
360
32D
  0
SUN
  5
32F
330
32B
100
AcDbSun
 90
        1
290
     0
 63
     7
421
 16777215
 40
1.0
291
     1
 91
  2455826
 92
 54000000
292
     0
 70
     2
 71
   256
280
     1
  0
IMAGEDEF_REACTOR
  5
337
330
335
100
AcDbRasterImageDefReactor
 90
        2
330
335
  0
IMAGEDEF_REACTOR
  5
33F
330
33D
100
AcDbRasterImageDefReactor
 90
        2
330
33D
  0
SUN
  5
35F
330
35B
100
AcDbSun
 90
        1
290
     0
 63
     7
421
 16777215
 40
1.0
291
     1
 91
  2455826
 92
 54000000
292
     0
 70
     2
 71
   256
280
     1
  0
IMAGEDEF_REACTOR
  5
394
330
393
100
AcDbRasterImageDefReactor
 90
        2
330
393
  0
IMAGEDEF_REACTOR
  5
399
330
398
100
AcDbRasterImageDefReactor
 90
        2
330
398
  0
DICTIONARY
  5
3A2
330
3A1
100
AcDbDictionary
280
     1
281
     1
  3
ASDK_XREC_ANNOTATION_SCALE_INFO
360
3A3
  0
SUN
  5
3A4
330
3A1
100
AcDbSun
 90
        1
290
     0
 63
     7
421
 16777215
 40
1.0
291
     1
 91
  2455826
 92
 54000000
292
     0
 70
     2
 71
   256
280
     1
  0
SUN
  5
1144
330
1142
100
AcDbSun
 90
        1
290
     0
 63
     7
421
 16777215
 40
1.0
291
     1
 91
  2455826
 92
 54000000
292
     0
 70
     2
 71
   256
280
     1
  0
IMAGEDEF_REACTOR
  5
1151
330
114F
100
AcDbRasterImageDefReactor
 90
        2
330
114F
  0
IMAGEDEF_REACTOR
  5
1157
330
1155
100
AcDbRasterImageDefReactor
 90
        2
330
1155
  0
DICTIONARY
  5
1162
330
1161
100
AcDbDictionary
280
     1
281
     1
  3
ASDK_XREC_ANNOTATION_SCALE_INFO
360
1163
  0
SUN
  5
1165
330
1161
100
AcDbSun
 90
        1
290
     0
 63
     7
421
 16777215
 40
1.0
291
     1
 91
  2455826
 92
 54000000
292
     0
 70
     2
 71
   256
280
     1
  0
IMAGEDEF_REACTOR
  5
10DE
330
10DD
100
AcDbRasterImageDefReactor
 90
        2
330
10DD
  0
SUN
  5
2F8
330
2F6
100
AcDbSun
 90
        1
290
     0
 63
     7
421
 16777215
 40
1.0
291
     1
 91
  2455826
 92
 54000000
292
     0
 70
     2
 71
   256
280
     1
  0
IMAGEDEF_REACTOR
  5
306
330
303
100
AcDbRasterImageDefReactor
 90
        2
330
303
  0
IMAGEDEF_REACTOR
  5
30C
330
30A
100
AcDbRasterImageDefReactor
 90
        2
330
30A
  0
DICTIONARY
  5
317
330
316
100
AcDbDictionary
280
     1
281
     1
  3
ASDK_XREC_ANNOTATION_SCALE_INFO
360
318
  0
SUN
  5
31A
330
316
100
AcDbSun
 90
        1
290
     0
 63
     7
421
 16777215
 40
1.0
291
     1
 91
  2455826
 92
 54000000
292
     0
 70
     2
 71
   256
280
     1
  0
DICTIONARY
  5
73
102
{ACAD_REACTORS
330
C
102
}
330
C
100
AcDbDictionary
281
     1
  0
DICTIONARY
  5
122
102
{ACAD_REACTORS
330
C
102
}
330
C
100
AcDbDictionary
281
     1
  0
DICTIONARY
  5
D
102
{ACAD_REACTORS
330
C
102
}
330
C
100
AcDbDictionary
281
     1
  0
DICTIONARY
  5
305
102
{ACAD_REACTORS
330
C
102
}
330
C
100
AcDbDictionary
281
     1
  3
BAT3EX_15_Drawing_Sheet_8
350
10DC
  3
Logo new design name below with strapline
350
30B
  3
North Arrow 3, Simple Triangular Symmetric
350
304
  0
RASTERVARIABLES
  5
DC
102
{ACAD_REACTORS
330
C
102
}
330
C
100
AcDbRasterVariables
 90
        0
 70
     1
 71
     1
 72
     5
  0
DICTIONARY
  5
1A
102
{ACAD_REACTORS
330
C
102
}
330
C
100
AcDbDictionary
281
     1
  3
A3 Landscape
350
358
  3
A3 Portrait
350
3AC
  3
A4 Landscape
350
31E
  3
A4 Portrait
350
34C
  3
Model
350
22
  3
Sheet1-A3 Landscape
350
1169
  0
DICTIONARY
  5
72
102
{ACAD_REACTORS
330
C
102
}
330
C
100
AcDbDictionary
281
     1
  3
ByBlock
350
E2
  3
ByLayer
350
96
  3
Global
350
98
  0
DICTIONARY
  5
B5
102
{ACAD_REACTORS
330
C
102
}
330
C
100
AcDbDictionary
281
     1
  3
Annotative
350
129
  3
Standard
350
124
  0
DICTIONARY
  5
17
102
{ACAD_REACTORS
330
C
102
}
330
C
100
AcDbDictionary
281
     1
  3
Standard
350
18
  0
DICTIONARY
  5
19
102
{ACAD_REACTORS
330
C
102
}
330
C
100
AcDbDictionary
281
     1
  0
ACDBDICTIONARYWDFLT
  5
E
102
{ACAD_REACTORS
330
C
102
}
330
C
100
AcDbDictionary
281
     1
  3
Normal
350
F
100
AcDbDictionaryWithDefault
340
F
  0
DICTIONARY
  5
B6
102
{ACAD_REACTORS
330
C
102
}
330
C
100
AcDbDictionary
281
     1
  3
A0
350
B7
  3
A1
350
B8
  3
A2
350
B9
  3
A3
350
BA
  3
A4
350
BB
  3
A5
350
BC
  3
A6
350
BD
  3
A7
350
BE
  3
A8
350
BF
  3
A9
350
C0
  3
B0
350
C1
  3
B1
350
C2
  3
B2
350
C3
  3
B3
350
C4
  3
B4
350
C5
  3
B5
350
C6
  3
B6
350
C7
  3
B7
350
C8
  3
B8
350
C9
  3
B9
350
CA
  3
C0
350
CB
  3
C1
350
CC
  3
C2
350
CD
  3
C3
350
CE
  3
C4
350
CF
  3
C5
350
D0
  3
C6
350
D1
  3
C7
350
D2
  3
C8
350
D3
  3
C9
350
D4
  3
D0
350
D5
  3
D1
350
D6
  3
D2
350
D7
  0
DICTIONARY
  5
123
102
{ACAD_REACTORS
330
C
102
}
330
C
100
AcDbDictionary
281
     1
  0
DICTIONARY
  5
86
102
{ACAD_REACTORS
330
C
102
}
330
C
100
AcDbDictionary
281
     1
  3
Standard
350
87
  0
DICTIONARY
  5
99
102
{ACAD_REACTORS
330
C
102
}
330
C
100
AcDbDictionary
281
     1
  3
2dWireframe
350
9F
  3
3D Hidden
350
A1
  3
3dWireframe
350
A0
  3
Basic
350
9E
  3
Brighten
350
A5
  3
ColorChange
350
A9
  3
Conceptual
350
A2
  3
Dim
350
A4
  3
EdgeColorOff
350
E7
  3
Facepattern
350
A8
  3
Flat
350
9A
  3
FlatWithEdges
350
9B
  3
Gouraud
350
9C
  3
GouraudWithEdges
350
9D
  3
Hidden
350
E4
  3
JitterOff
350
E5
  3
Linepattern
350
A7
  3
OverhangOff
350
E6
  3
Realistic
350
A3
  3
Shaded
350
EC
  3
Shaded with edges
350
EB
  3
Shades of Gray
350
E8
  3
Sketchy
350
E9
  3
Thicken
350
A6
  3
Wireframe
350
E3
  3
X-Ray
350
EA
  0
XRECORD
  5
116C
102
{ACAD_REACTORS
330
C
102
}
330
C
100
AcDbXrecord
280
     1
 90
        1
330
87
  0
DICTIONARY
  5
66
102
{ACAD_REACTORS
330
C
102
}
330
C
100
AcDbDictionary
281
     1
  3
CANNOSCALE
350
D8
  3
CMLEADERSTYLE
350
128
  3
CTABLESTYLE
350
89
  3
DIMASSOC
350
67
  3
HIDETEXT
350
6B
  3
LIGHTSINBLOCKS
350
DF
  3
XCLIPFRAME
350
E0
  0
DICTIONARY
  5
E1
102
{ACAD_REACTORS
330
C
102
}
330
C
100
AcDbDictionary
281
     1
  0
DICTIONARY
  5
12B
102
{ACAD_REACTORS
330
12A
102
}
330
12A
100
AcDbDictionary
281
     1
  0
DICTIONARY
  5
10C7
102
{ACAD_REACTORS
330
12A
102
}
330
12A
100
AcDbDictionary
281
     1
1001
ACAD
1000
<All
  0
SORTENTSTABLE
  5
46D
102
{ACAD_REACTORS
330
46C
102
}
330
46C
100
AcDbSortentsTable
330
1F
331
0
  5
46A
  0
XRECORD
  5
3EC
102
{ACAD_REACTORS
330
3EB
102
}
330
3EB
100
AcDbXrecord
280
     1
 90
        1
340
B7
  0
XRECORD
  5
32D
102
{ACAD_REACTORS
330
32C
102
}
330
32C
100
AcDbXrecord
280
     1
 90
        1
340
B7
  0
XRECORD
  5
3A3
102
{ACAD_REACTORS
330
3A2
102
}
330
3A2
100
AcDbXrecord
280
     1
 90
        1
340
B7
  0
XRECORD
  5
1163
102
{ACAD_REACTORS
330
1162
102
}
330
1162
100
AcDbXrecord
280
     1
 90
        1
340
B7
  0
XRECORD
  5
318
102
{ACAD_REACTORS
330
317
102
}
330
317
100
AcDbXrecord
280
     1
 90
        1
340
B7
  0
IMAGEDEF
  5
10DC
102
{ACAD_REACTORS
330
305
330
10DE
102
}
330
305
100
AcDbRasterImageDef
 90
        0
  1
Z:/HS2/Mitigation/BAT Palaeolithic sites/Field 15/Fieldwork/Post_Excavation/Draftsight/Scanned_Drawings/BAT3EX_15_Drawing_Sheet_8.tif
 10
1653.0
 20
2338.0
 11
0.127000254000508
 21
0.127000254000508
280
     1
281
     3
  0
IMAGEDEF
  5
30B
102
{ACAD_REACTORS
330
30C
330
305
330
337
330
399
330
3F0
330
1157
102
}
330
305
100
AcDbRasterImageDef
 90
        0
  1
Z:\Guidance, Resources, Data (Company)\Templates\DraftSight Templates\Reference_Images\Logo new design name below with strapline.JPG
 10
555.0
 20
709.0
 11
0.08466683600033867
 21
0.08466683600033867
280
     1
281
     3
  0
IMAGEDEF
  5
304
102
{ACAD_REACTORS
330
306
330
305
330
33F
330
394
330
3F7
330
1151
102
}
330
305
100
AcDbRasterImageDef
 90
        0
  1
Z:\Guidance, Resources, Data (Company)\Templates\DraftSight Templates\Reference_Images\North Arrow 3, Simple Triangular Symmetric.jpg
 10
391.0
 20
494.0
 11
0.2646202699126753
 21
0.2646202699126753
280
     1
281
     3
  0
LAYOUT
  5
358
102
{ACAD_REACTORS
330
1A
102
}
330
1A
100
AcDbPlotSettings
  1

  2
none_device
  4
ANSI_A_(11.00_x_8.50_Inches)
  6

 40
6.35
 41
19.05
 42
6.35
 43
19.05
 44
279.4
 45
215.9
 46
0.0
 47
0.0
 48
0.0
 49
0.0
140
0.0
141
0.0
142
1.0
143
1.0
 70
   688
 72
     0
 73
     0
 74
     5
  7

 75
    16
 76
     0
 77
     2
 78
   300
147
1.0
148
0.0
149
0.0
100
AcDbLayout
  1
A3 Landscape
 70
     1
 71
     3
 10
-10.0
 20
-13.0
 11
10.75
 21
7.75
 12
0.0
 22
0.0
 32
0.0
 14
-0.0000000006695018
 24
0.0000000008568577
 34
0.0
 15
399.9999999993305
 25
271.4285714294281
 35
0.0
146
0.0
 13
0.0
 23
0.0
 33
0.0
 16
1.0
 26
0.0
 36
0.0
 17
0.0
 27
1.0
 37
0.0
 76
     0
330
357
331
35B
  0
LAYOUT
  5
3AC
102
{ACAD_REACTORS
330
1A
102
}
330
1A
100
AcDbPlotSettings
  1

  2
none_device
  4
ANSI_A_(11.00_x_8.50_Inches)
  6

 40
6.35
 41
19.05
 42
6.35
 43
19.05
 44
279.4
 45
215.9
 46
0.0
 47
0.0
 48
0.0
 49
0.0
140
0.0
141
0.0
142
1.0
143
1.0
 70
   688
 72
     0
 73
     0
 74
     5
  7

 75
    16
 76
     0
 77
     2
 78
   300
147
1.0
148
0.0
149
0.0
100
AcDbLayout
  1
A3 Portrait
 70
     1
 71
     4
 10
-10.0
 20
-13.0
 11
10.75
 21
7.75
 12
0.0
 22
0.0
 32
0.0
 14
-0.000000000070834
 24
-0.0000000000869065
 34
0.0
 15
269.9629629628922
 25
393.9999999999131
 35
0.0
146
0.0
 13
0.0
 23
0.0
 33
0.0
 16
1.0
 26
0.0
 36
0.0
 17
0.0
 27
1.0
 37
0.0
 76
     0
330
3AB
331
3AF
  0
LAYOUT
  5
31E
102
{ACAD_REACTORS
330
1A
102
}
330
1A
100
AcDbPlotSettings
  1

  2
none_device
  4
ANSI_A_(11.00_x_8.50_Inches)
  6

 40
6.35
 41
19.05
 42
6.35
 43
19.05
 44
279.4
 45
215.9
 46
0.0
 47
0.0
 48
0.0
 49
0.0
140
0.0
141
0.0
142
1.0
143
1.0
 70
   688
 72
     0
 73
     0
 74
     5
  7

 75
    16
 76
     0
 77
     2
 78
   300
147
1.0
148
0.0
149
0.0
100
AcDbLayout
  1
A4 Landscape
 70
     1
 71
     1
 10
-1.152606765250368
 20
1.77616220673019
 11
10.75
 21
7.75
 12
0.0
 22
0.0
 32
0.0
 14
7.347393234749617
 24
11.77616220673019
 34
0.0
 15
287.3473932347496
 25
201.7761622067302
 35
0.0
146
0.0
 13
0.0
 23
0.0
 33
0.0
 16
1.0
 26
0.0
 36
0.0
 17
0.0
 27
1.0
 37
0.0
 76
     0
330
2F4
331
2F6
  0
LAYOUT
  5
34C
102
{ACAD_REACTORS
330
1A
102
}
330
1A
100
AcDbPlotSettings
  1

  2
none_device
  4
ANSI_A_(11.00_x_8.50_Inches)
  6

 40
6.35
 41
19.05
 42
6.35
 43
19.05
 44
279.4
 45
215.9
 46
0.0
 47
0.0
 48
0.0
 49
0.0
140
0.0
141
0.0
142
1.0
143
1.0
 70
   688
 72
     0
 73
     0
 74
     5
  7

 75
    16
 76
     0
 77
     2
 78
   300
147
1.0
148
0.0
149
0.0
100
AcDbLayout
  1
A4 Portrait
 70
     1
 71
     2
 10
-11.44492708080785
 20
-15.83312114781517
 11
10.75
 21
7.75
 12
0.0
 22
0.0
 32
0.0
 14
1.055072948167748
 24
-2.333121196830589
 34
0.0
 15
186.055072948168
 25
267.6668788031697
 35
0.0
146
0.0
 13
0.0
 23
0.0
 33
0.0
 16
1.0
 26
0.0
 36
0.0
 17
0.0
 27
1.0
 37
0.0
 76
     0
330
320
331
322
  0
LAYOUT
  5
22
102
{ACAD_REACTORS
330
1A
102
}
330
1A
100
AcDbPlotSettings
  1

  2
none_device
  4
ANSI_A_(8.50_x_11.00_Inches)
  6

 40
6.35
 41
19.05
 42
6.35
 43
19.05
 44
215.9
 45
279.4
 46
11.11250000000003
 47
0.0000000000000142
 48
0.0
 49
0.0
140
0.0
141
0.0
142
1.0
143
1.263157894736842
 70
 11444
 72
     0
 73
     1
 74
     1
  7
monochrome.ctb
 75
     0
 76
     0
 77
     2
 78
   300
147
0.7916666666666665
148
-702.8076765758875
149
-496.2830551296954
100
AcDbLayout
  1
Model
 70
     1
 71
     0
 10
0.0
 20
0.0
 11
12.0
 21
9.0
 12
0.0
 22
0.0
 32
0.0
 14
-56.92275457042879
 24
76.71215454805007
 34
-1763.891889891658
 15
459.2428032891437
 25
261.2811875754891
 35
0.0
146
0.0
 13
0.0
 23
0.0
 33
0.0
 16
1.0
 26
0.0
 36
0.0
 17
0.0
 27
1.0
 37
0.0
 76
     0
330
1F
331
94
  0
LAYOUT
  5
1169
102
{ACAD_REACTORS
330
1A
102
}
330
1A
100
AcDbPlotSettings
  1

  2
none_device
  4
ANSI_A_(11.00_x_8.50_Inches)
  6

 40
6.35
 41
19.05
 42
6.35
 43
19.05
 44
279.4
 45
215.9
 46
0.0
 47
0.0
 48
0.0
 49
0.0
140
0.0
141
0.0
142
1.0
143
1.0
 70
   688
 72
     0
 73
     0
 74
     5
  7

 75
    16
 76
     0
 77
     2
 78
   300
147
1.0
148
0.0
149
0.0
100
AcDbLayout
  1
Sheet1-A3 Landscape
 70
     1
 71
     5
 10
-10.0
 20
-13.0
 11
10.75
 21
7.75
 12
0.0
 22
0.0
 32
0.0
 14
-0.0000000006695018
 24
0.0000000008568577
 34
0.0
 15
399.9999999993305
 25
271.4285714294281
 35
0.0
146
0.0
 13
0.0
 23
0.0
 33
0.0
 16
1.0
 26
0.0
 36
0.0
 17
0.0
 27
1.0
 37
0.0
 76
     0
330
1140
331
1142
  0
MATERIAL
  5
E2
102
{ACAD_REACTORS
330
72
102
}
330
72
100
AcDbMaterial
  1
ByBlock
 72
     1
 94
      127
  0
MATERIAL
  5
96
102
{ACAD_REACTORS
330
72
102
}
330
72
100
AcDbMaterial
  1
ByLayer
 72
     1
 94
       63
  0
MATERIAL
  5
98
102
{ACAD_REACTORS
330
72
102
}
330
72
100
AcDbMaterial
  1
Global
 72
     1
 94
       63
  0
MLEADERSTYLE
  5
129
102
{ACAD_REACTORS
330
B5
102
}
330
B5
100
AcDbMLeaderStyle
179
     2
170
     2
171
     1
172
     0
 90
        2
 40
0.0
 41
0.0
173
     1
 91
-1056964608
340
14
 92
       -2
290
     1
 42
0.09
291
     1
 43
0.36
  3
Annotative
341
0
 44
0.18
300

342
11
174
     1
178
     1
175
     1
176
     0
 93
-1056964608
 45
0.18
292
     0
297
     0
 46
0.18
343
0
 94
-1056964608
 47
1.0
 49
1.0
140
1.0
293
     1
141
0.0
294
     1
177
     0
142
1.0
295
     0
296
     1
143
0.125
271
     0
272
     9
273
     9
298
     0
  0
MLEADERSTYLE
  5
124
102
{ACAD_REACTORS
330
B5
102
}
330
B5
100
AcDbMLeaderStyle
179
     2
170
     2
171
     1
172
     0
 90
        2
 40
0.0
 41
0.0
173
     1
 91
-1056964608
340
14
 92
       -2
290
     1
 42
0.09
291
     1
 43
0.36
  3
Standard
341
0
 44
0.18
300

342
11
174
     1
178
     6
175
     1
176
     0
 93
-1056964608
 45
0.18
292
     0
297
     0
 46
0.18
343
0
 94
-1056964608
 47
1.0
 49
1.0
140
1.0
293
     1
141
0.0
294
     1
177
     0
142
1.0
295
     0
296
     0
143
0.125
271
     0
272
     9
273
     9
298
     0
  0
MLINESTYLE
  5
18
102
{ACAD_REACTORS
330
17
102
}
330
17
100
AcDbMlineStyle
  2
STANDARD
 70
     0
  3

 62
   256
 51
90.0
 52
90.0
 71
     2
 49
0.5
 62
   256
  6
BYLAYER
 49
-0.5
 62
   256
  6
BYLAYER
  0
ACDBPLACEHOLDER
  5
F
102
{ACAD_REACTORS
330
E
102
}
330
E
  0
SCALE
  5
B7
102
{ACAD_REACTORS
330
B6
102
}
330
B6
100
AcDbScale
 70
     0
300
1:1
140
1.0
141
1.0
290
     1
  0
SCALE
  5
B8
102
{ACAD_REACTORS
330
B6
102
}
330
B6
100
AcDbScale
 70
     0
300
1:2
140
1.0
141
2.0
290
     0
  0
SCALE
  5
B9
102
{ACAD_REACTORS
330
B6
102
}
330
B6
100
AcDbScale
 70
     0
300
1:4
140
1.0
141
4.0
290
     0
  0
SCALE
  5
BA
102
{ACAD_REACTORS
330
B6
102
}
330
B6
100
AcDbScale
 70
     0
300
1:5
140
1.0
141
5.0
290
     0
  0
SCALE
  5
BB
102
{ACAD_REACTORS
330
B6
102
}
330
B6
100
AcDbScale
 70
     0
300
1:8
140
1.0
141
8.0
290
     0
  0
SCALE
  5
BC
102
{ACAD_REACTORS
330
B6
102
}
330
B6
100
AcDbScale
 70
     0
300
1:10
140
1.0
141
10.0
290
     0
  0
SCALE
  5
BD
102
{ACAD_REACTORS
330
B6
102
}
330
B6
100
AcDbScale
 70
     0
300
1:16
140
1.0
141
16.0
290
     0
  0
SCALE
  5
BE
102
{ACAD_REACTORS
330
B6
102
}
330
B6
100
AcDbScale
 70
     0
300
1:20
140
1.0
141
20.0
290
     0
  0
SCALE
  5
BF
102
{ACAD_REACTORS
330
B6
102
}
330
B6
100
AcDbScale
 70
     0
300
1:30
140
1.0
141
30.0
290
     0
  0
SCALE
  5
C0
102
{ACAD_REACTORS
330
B6
102
}
330
B6
100
AcDbScale
 70
     0
300
1:40
140
1.0
141
40.0
290
     0
  0
SCALE
  5
C1
102
{ACAD_REACTORS
330
B6
102
}
330
B6
100
AcDbScale
 70
     0
300
1:50
140
1.0
141
50.0
290
     0
  0
SCALE
  5
C2
102
{ACAD_REACTORS
330
B6
102
}
330
B6
100
AcDbScale
 70
     0
300
1:100
140
1.0
141
100.0
290
     0
  0
SCALE
  5
C3
102
{ACAD_REACTORS
330
B6
102
}
330
B6
100
AcDbScale
 70
     0
300
2:1
140
2.0
141
1.0
290
     0
  0
SCALE
  5
C4
102
{ACAD_REACTORS
330
B6
102
}
330
B6
100
AcDbScale
 70
     0
300
4:1
140
4.0
141
1.0
290
     0
  0
SCALE
  5
C5
102
{ACAD_REACTORS
330
B6
102
}
330
B6
100
AcDbScale
 70
     0
300
8:1
140
8.0
141
1.0
290
     0
  0
SCALE
  5
C6
102
{ACAD_REACTORS
330
B6
102
}
330
B6
100
AcDbScale
 70
     0
300
10:1
140
10.0
141
1.0
290
     0
  0
SCALE
  5
C7
102
{ACAD_REACTORS
330
B6
102
}
330
B6
100
AcDbScale
 70
     0
300
100:1
140
100.0
141
1.0
290
     0
  0
SCALE
  5
C8
102
{ACAD_REACTORS
330
B6
102
}
330
B6
100
AcDbScale
 70
     0
300
1/128" = 1'-0"
140
0.0078125
141
12.0
290
     0
  0
SCALE
  5
C9
102
{ACAD_REACTORS
330
B6
102
}
330
B6
100
AcDbScale
 70
     0
300
1/64" = 1'-0"
140
0.015625
141
12.0
290
     0
  0
SCALE
  5
CA
102
{ACAD_REACTORS
330
B6
102
}
330
B6
100
AcDbScale
 70
     0
300
1/32" = 1'-0"
140
0.03125
141
12.0
290
     0
  0
SCALE
  5
CB
102
{ACAD_REACTORS
330
B6
102
}
330
B6
100
AcDbScale
 70
     0
300
1/16" = 1'-0"
140
0.0625
141
12.0
290
     0
  0
SCALE
  5
CC
102
{ACAD_REACTORS
330
B6
102
}
330
B6
100
AcDbScale
 70
     0
300
3/32" = 1'-0"
140
0.09375
141
12.0
290
     0
  0
SCALE
  5
CD
102
{ACAD_REACTORS
330
B6
102
}
330
B6
100
AcDbScale
 70
     0
300
1/8" = 1'-0"
140
0.125
141
12.0
290
     0
  0
SCALE
  5
CE
102
{ACAD_REACTORS
330
B6
102
}
330
B6
100
AcDbScale
 70
     0
300
3/16" = 1'-0"
140
0.1875
141
12.0
290
     0
  0
SCALE
  5
CF
102
{ACAD_REACTORS
330
B6
102
}
330
B6
100
AcDbScale
 70
     0
300
1/4" = 1'-0"
140
0.25
141
12.0
290
     0
  0
SCALE
  5
D0
102
{ACAD_REACTORS
330
B6
102
}
330
B6
100
AcDbScale
 70
     0
300
3/8" = 1'-0"
140
0.375
141
12.0
290
     0
  0
SCALE
  5
D1
102
{ACAD_REACTORS
330
B6
102
}
330
B6
100
AcDbScale
 70
     0
300
1/2" = 1'-0"
140
0.5
141
12.0
290
     0
  0
SCALE
  5
D2
102
{ACAD_REACTORS
330
B6
102
}
330
B6
100
AcDbScale
 70
     0
300
3/4" = 1'-0"
140
0.75
141
12.0
290
     0
  0
SCALE
  5
D3
102
{ACAD_REACTORS
330
B6
102
}
330
B6
100
AcDbScale
 70
     0
300
1" = 1'-0"
140
1.0
141
12.0
290
     0
  0
SCALE
  5
D4
102
{ACAD_REACTORS
330
B6
102
}
330
B6
100
AcDbScale
 70
     0
300
1-1/2" = 1'-0"
140
1.5
141
12.0
290
     0
  0
SCALE
  5
D5
102
{ACAD_REACTORS
330
B6
102
}
330
B6
100
AcDbScale
 70
     0
300
3" = 1'-0"
140
3.0
141
12.0
290
     0
  0
SCALE
  5
D6
102
{ACAD_REACTORS
330
B6
102
}
330
B6
100
AcDbScale
 70
     0
300
6" = 1'-0"
140
6.0
141
12.0
290
     0
  0
SCALE
  5
D7
102
{ACAD_REACTORS
330
B6
102
}
330
B6
100
AcDbScale
 70
     0
300
1'-0" = 1'-0"
140
12.0
141
12.0
290
     0
  0
TABLESTYLE
  5
87
102
{ACAD_REACTORS
330
86
102
}
102
{ACAD_XDICTIONARY
360
116A
102
}
330
86
100
AcDbTableStyle
  3
Standard
 70
     0
 71
     0
 40
0.06
 41
0.06
280
     0
281
     0
  7
Standard
140
0.18
170
     2
 62
     0
 63
   257
283
     0
 90
      512
 91
        0
  1

274
    -2
284
     1
 64
     0
275
    -2
285
     1
 65
     0
276
    -2
286
     1
 66
     0
277
    -2
287
     1
 67
     0
278
    -2
288
     1
 68
     0
279
    -2
289
     1
 69
     0
  7
Standard
140
0.25
170
     5
 62
     0
 63
   257
283
     0
 90
      512
 91
        0
  1

274
    -2
284
     1
 64
     0
275
    -2
285
     1
 65
     0
276
    -2
286
     1
 66
     0
277
    -2
287
     1
 67
     0
278
    -2
288
     1
 68
     0
279
    -2
289
     1
 69
     0
  7
Standard
140
0.18
170
     5
 62
     0
 63
   257
283
     0
 90
      512
 91
        0
  1

274
    -2
284
     1
 64
     0
275
    -2
285
     1
 65
     0
276
    -2
286
     1
 66
     0
277
    -2
287
     1
 67
     0
278
    -2
288
     1
 68
     0
279
    -2
289
     1
 69
     0
  0
VISUALSTYLE
  5
9F
102
{ACAD_REACTORS
330
99
102
}
330
99
100
AcDbVisualStyle
  2
2dWireframe
 70
     4
177
     3
291
     0
 70
    58
 90
        0
176
     1
 90
        2
176
     1
 90
        1
176
     1
 90
        0
176
     1
 40
-0.6
176
     1
 40
-30.0
176
     1
 62
     7
420
 16777215
176
     1
 90
        1
176
     1
 90
        4
176
     1
 62
     7
176
     1
 62
   257
176
     1
 90
        1
176
     1
 90
        1
176
     1
 40
1.0
176
     1
 90
        0
176
     1
 62
   257
176
     1
 40
1.0
176
     1
 90
        1
176
     1
 90
        6
176
     1
 90
        2
176
     1
 62
     7
176
     1
 90
        5
176
     1
 90
        0
176
     1
 90
        0
176
     1
290
     0
176
     1
 90
        1
176
     1
 40
0.0
176
     1
 90
        0
176
     1
290
     1
176
     1
290
     1
176
     1
290
     0
176
     1
290
     0
176
     1
290
     0
176
     1
290
     0
176
     1
290
     0
176
     1
290
     0
176
     1
290
     0
176
     1
 90
       50
176
     1
 40
0.0
176
     1
 40
1.0
176
     1
 90
        0
176
     1
 62
    18
420
        0
176
     1
 90
       50
176
     1
 90
        3
176
     1
 62
     5
420
      255
176
     1
290
     0
176
     1
 90
       50
176
     1
 90
       50
176
     1
 90
       50
176
     1
290
     0
176
     1
 90
       50
176
     1
 62
   256
176
     0
 40
1.0
176
     0
 90
        2
176
     1
  1
strokes_ogs.tif
176
     1
290
     0
176
     1
 40
1.0
176
     1
 40
1.0
176
     1
  0
VISUALSTYLE
  5
A1
102
{ACAD_REACTORS
330
99
102
}
330
99
100
AcDbVisualStyle
  2
3D Hidden
 70
     6
177
     3
291
     0
 70
    58
 90
        1
176
     1
 90
        2
176
     1
 90
        2
176
     1
 90
        0
176
     1
 40
-0.6
176
     1
 40
-30.0
176
     1
 62
     7
420
 16777215
176
     1
 90
        2
176
     1
 90
        2
176
     1
 62
     7
176
     1
 62
   257
176
     1
 90
        2
176
     1
 90
        1
176
     1
 40
40.0
176
     1
 90
        0
176
     1
 62
   257
176
     1
 40
1.0
176
     1
 90
        1
176
     1
 90
        6
176
     1
 90
        2
176
     1
 62
     7
176
     1
 90
        3
176
     1
 90
        0
176
     1
 90
        0
176
     1
290
     0
176
     1
 90
        1
176
     1
 40
0.0
176
     1
 90
        0
176
     1
290
     0
176
     1
290
     1
176
     1
290
     1
176
     1
290
     0
176
     1
290
     0
176
     1
290
     0
176
     1
290
     0
176
     1
290
     0
176
     1
290
     0
176
     1
 90
       50
176
     1
 40
0.0
176
     1
 40
1.0
176
     1
 90
        0
176
     1
 62
    18
420
        0
176
     1
 90
       50
176
     1
 90
        3
176
     1
 62
     5
420
      255
176
     1
290
     0
176
     1
 90
       50
176
     1
 90
       50
176
     1
 90
       50
176
     1
290
     0
176
     1
 90
       50
176
     1
 62
   256
176
     0
 40
1.0
176
     0
 90
        2
176
     1
  1
strokes_ogs.tif
176
     1
290
     0
176
     1
 40
1.0
176
     1
 40
1.0
176
     1
  0
VISUALSTYLE
  5
A0
102
{ACAD_REACTORS
330
99
102
}
330
99
100
AcDbVisualStyle
  2
3dWireframe
 70
     5
177
     3
291
     0
 70
    58
 90
        0
176
     1
 90
        2
176
     1
 90
        1
176
     1
 90
        0
176
     1
 40
-0.6
176
     1
 40
-30.0
176
     1
 62
     7
420
 16777215
176
     1
 90
        1
176
     1
 90
        4
176
     1
 62
     7
176
     1
 62
   257
176
     1
 90
        1
176
     1
 90
        1
176
     1
 40
1.0
176
     1
 90
        0
176
     1
 62
   257
176
     1
 40
1.0
176
     1
 90
        1
176
     1
 90
        6
176
     1
 90
        2
176
     1
 62
     7
176
     1
 90
        5
176
     1
 90
        0
176
     1
 90
        0
176
     1
290
     0
176
     1
 90
        1
176
     1
 40
0.0
176
     1
 90
        0
176
     1
290
     0
176
     1
290
     1
176
     1
290
     1
176
     1
290
     0
176
     1
290
     0
176
     1
290
     0
176
     1
290
     0
176
     1
290
     0
176
     1
290
     0
176
     1
 90
       50
176
     1
 40
0.0
176
     1
 40
1.0
176
     1
 90
        0
176
     1
 62
    18
420
        0
176
     1
 90
       50
176
     1
 90
        3
176
     1
 62
     5
420
      255
176
     1
290
     0
176
     1
 90
       50
176
     1
 90
       50
176
     1
 90
       50
176
     1
290
     0
176
     1
 90
       50
176
     1
 62
   256
176
     0
 40
1.0
176
     0
 90
        2
176
     1
  1
strokes_ogs.tif
176
     1
290
     0
176
     1
 40
1.0
176
     1
 40
1.0
176
     1
  0
VISUALSTYLE
  5
9E
102
{ACAD_REACTORS
330
99
102
}
330
99
100
AcDbVisualStyle
  2
Basic
 70
     7
177
     3
291
     1
 70
    58
 90
        1
176
     1
 90
        0
176
     1
 90
        1
176
     1
 90
        0
176
     1
 40
-0.6
176
     1
 40
-30.0
176
     1
 62
     7
420
 16777215
176
     1
 90
        0
176
     1
 90
        4
176
     1
 62
     7
176
     1
 62
   257
176
     1
 90
        1
176
     1
 90
        1
176
     1
 40
1.0
176
     1
 90
        8
176
     1
 62
     7
176
     1
 40
1.0
176
     1
 90
        1
176
     1
 90
        6
176
     1
 90
        2
176
     1
 62
     7
176
     1
 90
        5
176
     1
 90
        0
176
     1
 90
        0
176
     1
290
     0
176
     1
 90
        1
176
     1
 40
0.0
176
     1
 90
        0
176
     1
290
     0
176
     1
290
     1
176
     1
290
     1
176
     1
290
     0
176
     1
290
     0
176
     1
290
     0
176
     1
290
     0
176
     1
290
     0
176
     1
290
     0
176
     1
 90
       50
176
     1
 40
0.0
176
     1
 40
1.0
176
     1
 90
        0
176
     1
 62
    18
420
        0
176
     1
 90
       50
176
     1
 90
        3
176
     1
 62
     5
420
      255
176
     1
290
     0
176
     1
 90
       50
176
     1
 90
       50
176
     1
 90
       50
176
     1
290
     0
176
     1
 90
       50
176
     1
 62
   256
176
     0
 40
1.0
176
     0
 90
        2
176
     1
  1
strokes_ogs.tif
176
     1
290
     0
176
     1
 40
1.0
176
     1
 40
1.0
176
     1
  0
VISUALSTYLE
  5
A5
102
{ACAD_REACTORS
330
99
102
}
330
99
100
AcDbVisualStyle
  2
Brighten
 70
    12
177
     3
291
     1
 70
    58
 90
        2
176
     1
 90
        2
176
     1
 90
        1
176
     1
 90
        0
176
     1
 40
-0.6
176
     1
 40
-30.0
176
     1
 62
     7
420
 16777215
176
     1
 90
        1
176
     1
 90
        4
176
     1
 62
     7
176
     1
 62
   257
176
     1
 90
        1
176
     1
 90
        1
176
     1
 40
1.0
176
     1
 90
        8
176
     1
 62
     7
176
     1
 40
1.0
176
     1
 90
        1
176
     1
 90
        6
176
     1
 90
        2
176
     1
 62
     7
176
     1
 90
        5
176
     1
 90
        0
176
     1
 90
        0
176
     1
290
     0
176
     1
 90
        1
176
     1
 40
50.0
176
     1
 90
        0
176
     1
290
     0
176
     1
290
     1
176
     1
290
     1
176
     1
290
     0
176
     1
290
     0
176
     1
290
     0
176
     1
290
     0
176
     1
290
     0
176
     1
290
     0
176
     1
 90
       50
176
     1
 40
0.0
176
     1
 40
1.0
176
     1
 90
        0
176
     1
 62
    18
420
        0
176
     1
 90
       50
176
     1
 90
        3
176
     1
 62
     5
420
      255
176
     1
290
     0
176
     1
 90
       50
176
     1
 90
       50
176
     1
 90
       50
176
     1
290
     0
176
     1
 90
       50
176
     1
 62
   256
176
     0
 40
1.0
176
     0
 90
        2
176
     1
  1
strokes_ogs.tif
176
     1
290
     0
176
     1
 40
1.0
176
     1
 40
1.0
176
     1
  0
VISUALSTYLE
  5
A9
102
{ACAD_REACTORS
330
99
102
}
330
99
100
AcDbVisualStyle
  2
ColorChange
 70
    16
177
     3
291
     1
 70
    58
 90
        2
176
     1
 90
        2
176
     1
 90
        3
176
     1
 90
        0
176
     1
 40
-0.6
176
     1
 40
-30.0
176
     1
 62
     8
420
  8421504
176
     1
 90
        1
176
     1
 90
        4
176
     1
 62
     7
176
     1
 62
   257
176
     1
 90
        1
176
     1
 90
        1
176
     1
 40
1.0
176
     1
 90
        8
176
     1
 62
     8
420
  8421504
176
     1
 40
1.0
176
     1
 90
        1
176
     1
 90
        6
176
     1
 90
        2
176
     1
 62
     7
176
     1
 90
        5
176
     1
 90
        0
176
     1
 90
        0
176
     1
290
     0
176
     1
 90
        1
176
     1
 40
0.0
176
     1
 90
        0
176
     1
290
     0
176
     1
290
     1
176
     1
290
     1
176
     1
290
     0
176
     1
290
     0
176
     1
290
     0
176
     1
290
     0
176
     1
290
     0
176
     1
290
     0
176
     1
 90
       50
176
     1
 40
0.0
176
     1
 40
1.0
176
     1
 90
        0
176
     1
 62
    18
420
        0
176
     1
 90
       50
176
     1
 90
        3
176
     1
 62
     5
420
      255
176
     1
290
     0
176
     1
 90
       50
176
     1
 90
       50
176
     1
 90
       50
176
     1
290
     0
176
     1
 90
       50
176
     1
 62
   256
176
     0
 40
1.0
176
     0
 90
        2
176
     1
  1
strokes_ogs.tif
176
     1
290
     0
176
     1
 40
1.0
176
     1
 40
1.0
176
     1
  0
VISUALSTYLE
  5
A2
102
{ACAD_REACTORS
330
99
102
}
330
99
100
AcDbVisualStyle
  2
Conceptual
 70
     9
177
     3
291
     0
 70
    58
 90
        3
176
     1
 90
        2
176
     1
 90
        1
176
     1
 90
        0
176
     1
 40
-0.6
176
     1
 40
-30.0
176
     1
 62
     7
420
 16777215
176
     1
 90
        2
176
     1
 90
        2
176
     1
 62
     7
176
     1
 62
   257
176
     1
 90
        1
176
     1
 90
        1
176
     1
 40
40.0
176
     1
 90
        8
176
     1
 62
     7
176
     1
 40
1.0
176
     1
 90
        1
176
     1
 90
        6
176
     1
 90
        2
176
     1
 62
     7
176
     1
 90
        3
176
     1
 90
        0
176
     1
 90
        0
176
     1
290
     0
176
     1
 90
        1
176
     1
 40
0.0
176
     1
 90
        0
176
     1
290
     0
176
     1
290
     1
176
     1
290
     1
176
     1
290
     0
176
     1
290
     0
176
     1
290
     0
176
     1
290
     0
176
     1
290
     0
176
     1
290
     0
176
     1
 90
       50
176
     1
 40
0.0
176
     1
 40
1.0
176
     1
 90
        0
176
     1
 62
    18
420
        0
176
     1
 90
       50
176
     1
 90
        3
176
     1
 62
     5
420
      255
176
     1
290
     0
176
     1
 90
       50
176
     1
 90
       50
176
     1
 90
       50
176
     1
290
     0
176
     1
 90
       50
176
     1
 62
   256
176
     0
 40
1.0
176
     0
 90
        2
176
     1
  1
strokes_ogs.tif
176
     1
290
     0
176
     1
 40
1.0
176
     1
 40
1.0
176
     1
  0
VISUALSTYLE
  5
A4
102
{ACAD_REACTORS
330
99
102
}
330
99
100
AcDbVisualStyle
  2
Dim
 70
    11
177
     3
291
     1
 70
    58
 90
        2
176
     1
 90
        2
176
     1
 90
        1
176
     1
 90
        0
176
     1
 40
-0.6
176
     1
 40
-30.0
176
     1
 62
     7
420
 16777215
176
     1
 90
        1
176
     1
 90
        4
176
     1
 62
     7
176
     1
 62
   257
176
     1
 90
        1
176
     1
 90
        1
176
     1
 40
1.0
176
     1
 90
        8
176
     1
 62
     7
176
     1
 40
1.0
176
     1
 90
        1
176
     1
 90
        6
176
     1
 90
        2
176
     1
 62
     7
176
     1
 90
        5
176
     1
 90
        0
176
     1
 90
        0
176
     1
290
     0
176
     1
 90
        1
176
     1
 40
-50.0
176
     1
 90
        0
176
     1
290
     0
176
     1
290
     1
176
     1
290
     1
176
     1
290
     0
176
     1
290
     0
176
     1
290
     0
176
     1
290
     0
176
     1
290
     0
176
     1
290
     0
176
     1
 90
       50
176
     1
 40
0.0
176
     1
 40
1.0
176
     1
 90
        0
176
     1
 62
    18
420
        0
176
     1
 90
       50
176
     1
 90
        3
176
     1
 62
     5
420
      255
176
     1
290
     0
176
     1
 90
       50
176
     1
 90
       50
176
     1
 90
       50
176
     1
290
     0
176
     1
 90
       50
176
     1
 62
   256
176
     0
 40
1.0
176
     0
 90
        2
176
     1
  1
strokes_ogs.tif
176
     1
290
     0
176
     1
 40
1.0
176
     1
 40
1.0
176
     1
  0
VISUALSTYLE
  5
E7
102
{ACAD_REACTORS
330
99
102
}
330
99
100
AcDbVisualStyle
  2
EdgeColorOff
 70
    22
177
     3
291
     1
 70
    58
 90
        2
176
     0
 90
        2
176
     0
 90
        0
176
     0
 90
        0
176
     0
 40
0.6
176
     0
 40
30.0
176
     0
 62
     7
420
 16777215
176
     0
 90
        1
176
     0
 90
        4
176
     0
 62
     7
176
     0
 62
   257
176
     0
 90
        1
176
     0
 90
        1
176
     0
 40
1.0
176
     0
 90
        8
176
     2
 62
     7
176
     0
 40
1.0
176
     0
 90
        1
176
     0
 90
        6
176
     0
 90
        2
176
     0
 62
     7
176
     0
 90
        5
176
     0
 90
        0
176
     0
 90
        0
176
     0
290
     0
176
     0
 90
        1
176
     0
 40
0.0
176
     0
 90
        0
176
     0
290
     0
176
     0
290
     1
176
     0
290
     1
176
     0
290
     0
176
     0
290
     0
176
     0
290
     0
176
     0
290
     0
176
     0
290
     0
176
     0
290
     0
176
     0
 90
       50
176
     0
 40
0.0
176
     0
 40
1.0
176
     0
 90
        0
176
     0
 62
    18
420
        0
176
     0
 90
       50
176
     0
 90
        3
176
     0
 62
     5
420
      255
176
     0
290
     0
176
     0
 90
       50
176
     0
 90
       50
176
     0
 90
       50
176
     0
290
     0
176
     0
 90
       50
176
     0
 62
   256
176
     0
 40
1.0
176
     0
 90
        2
176
     0
  1
strokes_ogs.tif
176
     0
290
     0
176
     0
 40
1.0
176
     0
 40
1.0
176
     0
  0
VISUALSTYLE
  5
A8
102
{ACAD_REACTORS
330
99
102
}
330
99
100
AcDbVisualStyle
  2
Facepattern
 70
    15
177
     3
291
     1
 70
    58
 90
        2
176
     1
 90
        2
176
     1
 90
        1
176
     1
 90
        0
176
     1
 40
-0.6
176
     1
 40
-30.0
176
     1
 62
     7
420
 16777215
176
     1
 90
        1
176
     1
 90
        4
176
     1
 62
     7
176
     1
 62
   257
176
     1
 90
        1
176
     1
 90
        1
176
     1
 40
1.0
176
     1
 90
        8
176
     1
 62
     7
176
     1
 40
1.0
176
     1
 90
        1
176
     1
 90
        6
176
     1
 90
        2
176
     1
 62
     7
176
     1
 90
        5
176
     1
 90
        0
176
     1
 90
        0
176
     1
290
     0
176
     1
 90
        1
176
     1
 40
0.0
176
     1
 90
        0
176
     1
290
     0
176
     1
290
     1
176
     1
290
     1
176
     1
290
     0
176
     1
290
     0
176
     1
290
     0
176
     1
290
     0
176
     1
290
     0
176
     1
290
     0
176
     1
 90
       50
176
     1
 40
0.0
176
     1
 40
1.0
176
     1
 90
        0
176
     1
 62
    18
420
        0
176
     1
 90
       50
176
     1
 90
        3
176
     1
 62
     5
420
      255
176
     1
290
     0
176
     1
 90
       50
176
     1
 90
       50
176
     1
 90
       50
176
     1
290
     0
176
     1
 90
       50
176
     1
 62
   256
176
     0
 40
1.0
176
     0
 90
        2
176
     1
  1
strokes_ogs.tif
176
     1
290
     0
176
     1
 40
1.0
176
     1
 40
1.0
176
     1
  0
VISUALSTYLE
  5
9A
102
{ACAD_REACTORS
330
99
102
}
330
99
100
AcDbVisualStyle
  2
Flat
 70
     0
177
     3
291
     1
 70
    58
 90
        2
176
     1
 90
        1
176
     1
 90
        1
176
     1
 90
        2
176
     1
 40
-0.6
176
     1
 40
30.0
176
     1
 62
     7
420
 16777215
176
     1
 90
        0
176
     1
 90
        4
176
     1
 62
     7
176
     1
 62
   257
176
     1
 90
        1
176
     1
 90
        1
176
     1
 40
1.0
176
     1
 90
        8
176
     1
 62
     7
176
     1
 40
1.0
176
     1
 90
        1
176
     1
 90
        6
176
     1
 90
        2
176
     1
 62
     7
176
     1
 90
        5
176
     1
 90
        0
176
     1
 90
        0
176
     1
290
     0
176
     1
 90
        1
176
     1
 40
0.0
176
     1
 90
        0
176
     1
290
     0
176
     1
290
     1
176
     1
290
     1
176
     1
290
     0
176
     1
290
     0
176
     1
290
     0
176
     1
290
     0
176
     1
290
     0
176
     1
290
     0
176
     1
 90
       50
176
     1
 40
0.0
176
     1
 40
1.0
176
     1
 90
        0
176
     1
 62
    18
420
        0
176
     1
 90
       50
176
     1
 90
        3
176
     1
 62
     5
420
      255
176
     1
290
     0
176
     1
 90
       50
176
     1
 90
       50
176
     1
 90
       50
176
     1
290
     0
176
     1
 90
       50
176
     1
 62
   256
176
     0
 40
1.0
176
     0
 90
        2
176
     1
  1
strokes_ogs.tif
176
     1
290
     0
176
     1
 40
1.0
176
     1
 40
1.0
176
     1
  0
VISUALSTYLE
  5
9B
102
{ACAD_REACTORS
330
99
102
}
330
99
100
AcDbVisualStyle
  2
FlatWithEdges
 70
     1
177
     3
291
     1
 70
    58
 90
        2
176
     1
 90
        1
176
     1
 90
        1
176
     1
 90
        2
176
     1
 40
-0.6
176
     1
 40
30.0
176
     1
 62
     7
420
 16777215
176
     1
 90
        1
176
     1
 90
        4
176
     1
 62
     7
176
     1
 62
   257
176
     1
 90
        1
176
     1
 90
        1
176
     1
 40
1.0
176
     1
 90
        0
176
     1
 62
   257
176
     1
 40
1.0
176
     1
 90
        1
176
     1
 90
        6
176
     1
 90
        2
176
     1
 62
     7
176
     1
 90
        5
176
     1
 90
        0
176
     1
 90
        0
176
     1
290
     0
176
     1
 90
        1
176
     1
 40
0.0
176
     1
 90
        0
176
     1
290
     0
176
     1
290
     1
176
     1
290
     1
176
     1
290
     0
176
     1
290
     0
176
     1
290
     0
176
     1
290
     0
176
     1
290
     0
176
     1
290
     0
176
     1
 90
       50
176
     1
 40
0.0
176
     1
 40
1.0
176
     1
 90
        0
176
     1
 62
    18
420
        0
176
     1
 90
       50
176
     1
 90
        3
176
     1
 62
     5
420
      255
176
     1
290
     0
176
     1
 90
       50
176
     1
 90
       50
176
     1
 90
       50
176
     1
290
     0
176
     1
 90
       50
176
     1
 62
   256
176
     0
 40
1.0
176
     0
 90
        2
176
     1
  1
strokes_ogs.tif
176
     1
290
     0
176
     1
 40
1.0
176
     1
 40
1.0
176
     1
  0
VISUALSTYLE
  5
9C
102
{ACAD_REACTORS
330
99
102
}
330
99
100
AcDbVisualStyle
  2
Gouraud
 70
     2
177
     3
291
     1
 70
    58
 90
        2
176
     1
 90
        2
176
     1
 90
        1
176
     1
 90
        2
176
     1
 40
-0.6
176
     1
 40
30.0
176
     1
 62
     7
420
 16777215
176
     1
 90
        0
176
     1
 90
        4
176
     1
 62
     7
176
     1
 62
   257
176
     1
 90
        1
176
     1
 90
        1
176
     1
 40
1.0
176
     1
 90
        0
176
     1
 62
     7
176
     1
 40
1.0
176
     1
 90
        1
176
     1
 90
        6
176
     1
 90
        2
176
     1
 62
     7
176
     1
 90
        5
176
     1
 90
        0
176
     1
 90
        0
176
     1
290
     0
176
     1
 90
        1
176
     1
 40
0.0
176
     1
 90
        0
176
     1
290
     0
176
     1
290
     1
176
     1
290
     1
176
     1
290
     0
176
     1
290
     0
176
     1
290
     0
176
     1
290
     0
176
     1
290
     0
176
     1
290
     0
176
     1
 90
       50
176
     1
 40
0.0
176
     1
 40
1.0
176
     1
 90
        0
176
     1
 62
    18
420
        0
176
     1
 90
       50
176
     1
 90
        3
176
     1
 62
     5
420
      255
176
     1
290
     0
176
     1
 90
       50
176
     1
 90
       50
176
     1
 90
       50
176
     1
290
     0
176
     1
 90
       50
176
     1
 62
   256
176
     0
 40
1.0
176
     0
 90
        2
176
     1
  1
strokes_ogs.tif
176
     1
290
     0
176
     1
 40
1.0
176
     1
 40
1.0
176
     1
  0
VISUALSTYLE
  5
9D
102
{ACAD_REACTORS
330
99
102
}
330
99
100
AcDbVisualStyle
  2
GouraudWithEdges
 70
     3
177
     3
291
     1
 70
    58
 90
        2
176
     1
 90
        2
176
     1
 90
        1
176
     1
 90
        2
176
     1
 40
-0.6
176
     1
 40
30.0
176
     1
 62
     7
420
 16777215
176
     1
 90
        1
176
     1
 90
        4
176
     1
 62
     7
176
     1
 62
   257
176
     1
 90
        1
176
     1
 90
        1
176
     1
 40
1.0
176
     1
 90
        0
176
     1
 62
   257
176
     1
 40
1.0
176
     1
 90
        1
176
     1
 90
        6
176
     1
 90
        2
176
     1
 62
     7
176
     1
 90
        5
176
     1
 90
        0
176
     1
 90
        0
176
     1
290
     0
176
     1
 90
        1
176
     1
 40
0.0
176
     1
 90
        0
176
     1
290
     0
176
     1
290
     1
176
     1
290
     1
176
     1
290
     0
176
     1
290
     0
176
     1
290
     0
176
     1
290
     0
176
     1
290
     0
176
     1
290
     0
176
     1
 90
       50
176
     1
 40
0.0
176
     1
 40
1.0
176
     1
 90
        0
176
     1
 62
    18
420
        0
176
     1
 90
       50
176
     1
 90
        3
176
     1
 62
     5
420
      255
176
     1
290
     0
176
     1
 90
       50
176
     1
 90
       50
176
     1
 90
       50
176
     1
290
     0
176
     1
 90
       50
176
     1
 62
   256
176
     0
 40
1.0
176
     0
 90
        2
176
     1
  1
strokes_ogs.tif
176
     1
290
     0
176
     1
 40
1.0
176
     1
 40
1.0
176
     1
  0
VISUALSTYLE
  5
E4
102
{ACAD_REACTORS
330
99
102
}
330
99
100
AcDbVisualStyle
  2
Hidden
 70
     6
177
     3
291
     0
 70
    58
 90
        1
176
     1
 90
        2
176
     1
 90
        2
176
     1
 90
        0
176
     1
 40
0.6
176
     1
 40
30.0
176
     1
 62
     7
420
 16777215
176
     1
 90
        2
176
     1
 90
        2
176
     1
 62
     7
176
     1
 62
   257
176
     1
 90
        2
176
     1
 90
        1
176
     1
 40
40.0
176
     1
 90
        0
176
     1
 62
   257
176
     1
 40
1.0
176
     1
 90
        1
176
     1
 90
        6
176
     1
 90
        2
176
     1
 62
     7
176
     1
 90
        3
176
     1
 90
        0
176
     1
 90
        0
176
     1
290
     0
176
     1
 90
        1
176
     1
 40
0.0
176
     1
 90
        0
176
     1
290
     0
176
     1
290
     1
176
     1
290
     1
176
     1
290
     0
176
     1
290
     0
176
     1
290
     0
176
     1
290
     0
176
     1
290
     0
176
     1
290
     0
176
     1
 90
       50
176
     1
 40
0.0
176
     1
 40
1.0
176
     1
 90
        0
176
     1
 62
    18
420
        0
176
     1
 90
       50
176
     1
 90
        3
176
     1
 62
     5
420
      255
176
     1
290
     0
176
     1
 90
       50
176
     1
 90
       50
176
     1
 90
       50
176
     1
290
     0
176
     1
 90
       50
176
     1
 62
   256
176
     0
 40
1.0
176
     0
 90
        2
176
     1
  1
strokes_ogs.tif
176
     1
290
     0
176
     1
 40
1.0
176
     1
 40
1.0
176
     1
  0
VISUALSTYLE
  5
E5
102
{ACAD_REACTORS
330
99
102
}
330
99
100
AcDbVisualStyle
  2
JitterOff
 70
    20
177
     3
291
     1
 70
    58
 90
        2
176
     0
 90
        2
176
     0
 90
        0
176
     0
 90
        0
176
     0
 40
0.6
176
     0
 40
30.0
176
     0
 62
     7
420
 16777215
176
     0
 90
        1
176
     0
 90
        4
176
     0
 62
     7
176
     0
 62
   257
176
     0
 90
        1
176
     0
 90
        1
176
     0
 40
1.0
176
     0
 90
       10
176
     2
 62
     7
176
     0
 40
1.0
176
     0
 90
        1
176
     0
 90
        6
176
     0
 90
        2
176
     0
 62
     7
176
     0
 90
        5
176
     0
 90
        0
176
     0
 90
        0
176
     0
290
     0
176
     0
 90
        1
176
     0
 40
0.0
176
     0
 90
        0
176
     0
290
     0
176
     0
290
     1
176
     0
290
     1
176
     0
290
     0
176
     0
290
     0
176
     0
290
     0
176
     0
290
     0
176
     0
290
     0
176
     0
290
     0
176
     0
 90
       50
176
     0
 40
0.0
176
     0
 40
1.0
176
     0
 90
        0
176
     0
 62
    18
420
        0
176
     0
 90
       50
176
     0
 90
        3
176
     0
 62
     5
420
      255
176
     0
290
     0
176
     0
 90
       50
176
     0
 90
       50
176
     0
 90
       50
176
     0
290
     0
176
     0
 90
       50
176
     0
 62
   256
176
     0
 40
1.0
176
     0
 90
        2
176
     0
  1
strokes_ogs.tif
176
     0
290
     0
176
     0
 40
1.0
176
     0
 40
1.0
176
     0
  0
VISUALSTYLE
  5
A7
102
{ACAD_REACTORS
330
99
102
}
330
99
100
AcDbVisualStyle
  2
Linepattern
 70
    14
177
     3
291
     1
 70
    58
 90
        2
176
     1
 90
        2
176
     1
 90
        1
176
     1
 90
        0
176
     1
 40
-0.6
176
     1
 40
-30.0
176
     1
 62
     7
420
 16777215
176
     1
 90
        1
176
     1
 90
        4
176
     1
 62
     7
176
     1
 62
   257
176
     1
 90
        7
176
     1
 90
        7
176
     1
 40
1.0
176
     1
 90
        8
176
     1
 62
     7
176
     1
 40
1.0
176
     1
 90
        1
176
     1
 90
        6
176
     1
 90
        2
176
     1
 62
     7
176
     1
 90
        5
176
     1
 90
        0
176
     1
 90
        0
176
     1
290
     0
176
     1
 90
        1
176
     1
 40
0.0
176
     1
 90
        0
176
     1
290
     0
176
     1
290
     1
176
     1
290
     1
176
     1
290
     0
176
     1
290
     0
176
     1
290
     0
176
     1
290
     0
176
     1
290
     0
176
     1
290
     0
176
     1
 90
       50
176
     1
 40
0.0
176
     1
 40
1.0
176
     1
 90
        0
176
     1
 62
    18
420
        0
176
     1
 90
       50
176
     1
 90
        3
176
     1
 62
     5
420
      255
176
     1
290
     0
176
     1
 90
       50
176
     1
 90
       50
176
     1
 90
       50
176
     1
290
     0
176
     1
 90
       50
176
     1
 62
   256
176
     0
 40
1.0
176
     0
 90
        2
176
     1
  1
strokes_ogs.tif
176
     1
290
     0
176
     1
 40
1.0
176
     1
 40
1.0
176
     1
  0
VISUALSTYLE
  5
E6
102
{ACAD_REACTORS
330
99
102
}
330
99
100
AcDbVisualStyle
  2
OverhangOff
 70
    21
177
     3
291
     1
 70
    58
 90
        2
176
     0
 90
        2
176
     0
 90
        0
176
     0
 90
        0
176
     0
 40
0.6
176
     0
 40
30.0
176
     0
 62
     7
420
 16777215
176
     0
 90
        1
176
     0
 90
        4
176
     0
 62
     7
176
     0
 62
   257
176
     0
 90
        1
176
     0
 90
        1
176
     0
 40
1.0
176
     0
 90
        9
176
     2
 62
     7
176
     0
 40
1.0
176
     0
 90
        1
176
     0
 90
        6
176
     0
 90
        2
176
     0
 62
     7
176
     0
 90
        5
176
     0
 90
        0
176
     0
 90
        0
176
     0
290
     0
176
     0
 90
        1
176
     0
 40
0.0
176
     0
 90
        0
176
     0
290
     0
176
     0
290
     1
176
     0
290
     1
176
     0
290
     0
176
     0
290
     0
176
     0
290
     0
176
     0
290
     0
176
     0
290
     0
176
     0
290
     0
176
     0
 90
       50
176
     0
 40
0.0
176
     0
 40
1.0
176
     0
 90
        0
176
     0
 62
    18
420
        0
176
     0
 90
       50
176
     0
 90
        3
176
     0
 62
     5
420
      255
176
     0
290
     0
176
     0
 90
       50
176
     0
 90
       50
176
     0
 90
       50
176
     0
290
     0
176
     0
 90
       50
176
     0
 62
   256
176
     0
 40
1.0
176
     0
 90
        2
176
     0
  1
strokes_ogs.tif
176
     0
290
     0
176
     0
 40
1.0
176
     0
 40
1.0
176
     0
  0
VISUALSTYLE
  5
A3
102
{ACAD_REACTORS
330
99
102
}
330
99
100
AcDbVisualStyle
  2
Realistic
 70
     8
177
     3
291
     0
 70
    58
 90
        2
176
     1
 90
        2
176
     1
 90
        1
176
     1
 90
        0
176
     1
 40
-0.6
176
     1
 40
-30.0
176
     1
 62
     7
420
 16777215
176
     1
 90
        1
176
     1
 90
        0
176
     1
 62
     7
176
     1
 62
   257
176
     1
 90
        1
176
     1
 90
        1
176
     1
 40
1.0
176
     1
 90
        8
176
     1
 62
     8
420
  7895160
176
     1
 40
1.0
176
     1
 90
        1
176
     1
 90
        6
176
     1
 90
        2
176
     1
 62
     7
176
     1
 90
        5
176
     1
 90
        0
176
     1
 90
        0
176
     1
290
     0
176
     1
 90
       13
176
     1
 40
0.0
176
     1
 90
        0
176
     1
290
     0
176
     1
290
     1
176
     1
290
     1
176
     1
290
     0
176
     1
290
     0
176
     1
290
     0
176
     1
290
     0
176
     1
290
     0
176
     1
290
     0
176
     1
 90
       50
176
     1
 40
0.0
176
     1
 40
1.0
176
     1
 90
        0
176
     1
 62
    18
420
        0
176
     1
 90
       50
176
     1
 90
        3
176
     1
 62
     5
420
      255
176
     1
290
     0
176
     1
 90
       50
176
     1
 90
       50
176
     1
 90
       50
176
     1
290
     0
176
     1
 90
       50
176
     1
 62
   256
176
     0
 40
1.0
176
     0
 90
        2
176
     1
  1
strokes_ogs.tif
176
     1
290
     0
176
     1
 40
1.0
176
     1
 40
1.0
176
     1
  0
VISUALSTYLE
  5
EC
102
{ACAD_REACTORS
330
99
102
}
330
99
100
AcDbVisualStyle
  2
Shaded
 70
    27
177
     3
291
     0
 70
    58
 90
        2
176
     1
 90
        2
176
     1
 90
        1
176
     1
 90
        2
176
     1
 40
0.6
176
     1
 40
30.0
176
     1
 62
     7
420
 16777215
176
     1
 90
        0
176
     1
 90
        4
176
     1
 62
     7
176
     1
 62
   257
176
     1
 90
        1
176
     1
 90
        1
176
     1
 40
1.0
176
     1
 90
        8
176
     1
 62
   257
176
     1
 40
1.0
176
     1
 90
        1
176
     1
 90
        6
176
     1
 90
        2
176
     1
 62
     8
420
  7895160
176
     1
 90
        3
176
     1
 90
        0
176
     1
 90
        0
176
     1
290
     0
176
     1
 90
        5
176
     1
 40
0.0
176
     1
 90
        0
176
     1
290
     0
176
     1
290
     1
176
     1
290
     1
176
     1
290
     0
176
     1
290
     0
176
     1
290
     0
176
     1
290
     0
176
     1
290
     0
176
     1
290
     0
176
     1
 90
       50
176
     1
 40
0.0
176
     1
 40
1.0
176
     1
 90
        0
176
     1
 62
    18
420
        0
176
     1
 90
       50
176
     1
 90
        3
176
     1
 62
     5
420
      255
176
     1
290
     0
176
     1
 90
       50
176
     1
 90
       50
176
     1
 90
       50
176
     1
290
     0
176
     1
 90
       50
176
     1
 62
   256
176
     0
 40
1.0
176
     0
 90
        2
176
     1
  1
strokes_ogs.tif
176
     1
290
     0
176
     1
 40
1.0
176
     1
 40
1.0
176
     1
  0
VISUALSTYLE
  5
EB
102
{ACAD_REACTORS
330
99
102
}
330
99
100
AcDbVisualStyle
  2
Shaded with edges
 70
    26
177
     3
291
     0
 70
    58
 90
        2
176
     1
 90
        2
176
     1
 90
        1
176
     1
 90
        2
176
     1
 40
0.6
176
     1
 40
30.0
176
     1
 62
     7
420
 16777215
176
     1
 90
        1
176
     1
 90
       10
176
     1
 62
     7
176
     1
 62
   257
176
     1
 90
        2
176
     1
 90
        1
176
     1
 40
1.0
176
     1
 90
        8
176
     1
 62
   257
176
     1
 40
1.0
176
     1
 90
        1
176
     1
 90
        6
176
     1
 90
        2
176
     1
 62
     7
176
     1
 90
        3
176
     1
 90
        0
176
     1
 90
        0
176
     1
290
     0
176
     1
 90
        5
176
     1
 40
0.0
176
     1
 90
        0
176
     1
290
     0
176
     1
290
     1
176
     1
290
     1
176
     1
290
     0
176
     1
290
     0
176
     1
290
     0
176
     1
290
     0
176
     1
290
     0
176
     1
290
     0
176
     1
 90
       50
176
     1
 40
0.0
176
     1
 40
1.0
176
     1
 90
        0
176
     1
 62
    18
420
        0
176
     1
 90
       50
176
     1
 90
        3
176
     1
 62
     5
420
      255
176
     1
290
     0
176
     1
 90
       50
176
     1
 90
       50
176
     1
 90
       50
176
     1
290
     0
176
     1
 90
       50
176
     1
 62
   256
176
     0
 40
1.0
176
     0
 90
        2
176
     1
  1
strokes_ogs.tif
176
     1
290
     0
176
     1
 40
1.0
176
     1
 40
1.0
176
     1
  0
VISUALSTYLE
  5
E8
102
{ACAD_REACTORS
330
99
102
}
330
99
100
AcDbVisualStyle
  2
Shades of Gray
 70
    23
177
     3
291
     0
 70
    58
 90
        2
176
     1
 90
        2
176
     1
 90
        3
176
     1
 90
        0
176
     1
 40
0.6
176
     1
 40
30.0
176
     1
 62
     7
420
 16777215
176
     1
 90
        2
176
     1
 90
        2
176
     1
 62
     7
176
     1
 62
     7
176
     1
 90
        1
176
     1
 90
        1
176
     1
 40
40.0
176
     1
 90
        8
176
     1
 62
     7
176
     1
 40
1.0
176
     1
 90
        1
176
     1
 90
        6
176
     1
 90
        2
176
     1
 62
     7
176
     1
 90
        3
176
     1
 90
        0
176
     1
 90
        0
176
     1
290
     0
176
     1
 90
        1
176
     1
 40
0.0
176
     1
 90
        0
176
     1
290
     0
176
     1
290
     1
176
     1
290
     1
176
     1
290
     0
176
     1
290
     0
176
     1
290
     0
176
     1
290
     0
176
     1
290
     0
176
     1
290
     0
176
     1
 90
       50
176
     1
 40
0.0
176
     1
 40
1.0
176
     1
 90
        0
176
     1
 62
    18
420
        0
176
     1
 90
       50
176
     1
 90
        3
176
     1
 62
     5
420
      255
176
     1
290
     0
176
     1
 90
       50
176
     1
 90
       50
176
     1
 90
       50
176
     1
290
     0
176
     1
 90
       50
176
     1
 62
   256
176
     0
 40
1.0
176
     0
 90
        2
176
     1
  1
strokes_ogs.tif
176
     1
290
     0
176
     1
 40
1.0
176
     1
 40
1.0
176
     1
  0
VISUALSTYLE
  5
E9
102
{ACAD_REACTORS
330
99
102
}
330
99
100
AcDbVisualStyle
  2
Sketchy
 70
    24
177
     3
291
     0
 70
    58
 90
        1
176
     1
 90
        2
176
     1
 90
        2
176
     1
 90
        0
176
     1
 40
0.6
176
     1
 40
30.0
176
     1
 62
     7
420
 16777215
176
     1
 90
        2
176
     1
 90
        2
176
     1
 62
     7
176
     1
 62
     7
176
     1
 90
        1
176
     1
 90
        1
176
     1
 40
40.0
176
     1
 90
       11
176
     1
 62
     7
176
     1
 40
1.0
176
     1
 90
        1
176
     1
 90
        6
176
     1
 90
        2
176
     1
 62
     7
176
     1
 90
        6
176
     1
 90
        0
176
     1
 90
        0
176
     1
290
     0
176
     1
 90
        1
176
     1
 40
0.0
176
     1
 90
        0
176
     1
290
     0
176
     1
290
     1
176
     1
290
     1
176
     1
290
     0
176
     1
290
     0
176
     1
290
     0
176
     1
290
     0
176
     1
290
     0
176
     1
290
     0
176
     1
 90
       50
176
     1
 40
0.0
176
     1
 40
1.0
176
     1
 90
        0
176
     1
 62
    18
420
        0
176
     1
 90
       50
176
     1
 90
        3
176
     1
 62
     5
420
      255
176
     1
290
     0
176
     1
 90
       50
176
     1
 90
       50
176
     1
 90
       50
176
     1
290
     0
176
     1
 90
       50
176
     1
 62
   256
176
     0
 40
1.0
176
     0
 90
        2
176
     1
  1
strokes_ogs.tif
176
     1
290
     0
176
     1
 40
1.0
176
     1
 40
1.0
176
     1
  0
VISUALSTYLE
  5
A6
102
{ACAD_REACTORS
330
99
102
}
330
99
100
AcDbVisualStyle
  2
Thicken
 70
    13
177
     3
291
     1
 70
    58
 90
        2
176
     1
 90
        2
176
     1
 90
        1
176
     1
 90
        0
176
     1
 40
-0.6
176
     1
 40
-30.0
176
     1
 62
     7
420
 16777215
176
     1
 90
        1
176
     1
 90
        4
176
     1
 62
     7
176
     1
 62
   257
176
     1
 90
        1
176
     1
 90
        1
176
     1
 40
1.0
176
     1
 90
       12
176
     1
 62
     7
176
     1
 40
1.0
176
     1
 90
        1
176
     1
 90
        6
176
     1
 90
        2
176
     1
 62
     7
176
     1
 90
        5
176
     1
 90
        0
176
     1
 90
        0
176
     1
290
     0
176
     1
 90
        1
176
     1
 40
0.0
176
     1
 90
        0
176
     1
290
     0
176
     1
290
     1
176
     1
290
     1
176
     1
290
     0
176
     1
290
     0
176
     1
290
     0
176
     1
290
     0
176
     1
290
     0
176
     1
290
     0
176
     1
 90
       50
176
     1
 40
0.0
176
     1
 40
1.0
176
     1
 90
        0
176
     1
 62
    18
420
        0
176
     1
 90
       50
176
     1
 90
        3
176
     1
 62
     5
420
      255
176
     1
290
     0
176
     1
 90
       50
176
     1
 90
       50
176
     1
 90
       50
176
     1
290
     0
176
     1
 90
       50
176
     1
 62
   256
176
     0
 40
1.0
176
     0
 90
        2
176
     1
  1
strokes_ogs.tif
176
     1
290
     0
176
     1
 40
1.0
176
     1
 40
1.0
176
     1
  0
VISUALSTYLE
  5
E3
102
{ACAD_REACTORS
330
99
102
}
330
99
100
AcDbVisualStyle
  2
Wireframe
 70
     5
177
     3
291
     0
 70
    58
 90
        0
176
     1
 90
        2
176
     1
 90
        0
176
     1
 90
        0
176
     1
 40
0.6
176
     1
 40
30.0
176
     1
 62
     7
420
 16777215
176
     1
 90
        1
176
     1
 90
        4
176
     1
 62
     7
176
     1
 62
   257
176
     1
 90
        1
176
     1
 90
        1
176
     1
 40
1.0
176
     1
 90
        0
176
     1
 62
   257
176
     1
 40
1.0
176
     1
 90
        1
176
     1
 90
        6
176
     1
 90
        2
176
     1
 62
     7
176
     1
 90
        3
176
     1
 90
        0
176
     1
 90
        0
176
     1
290
     0
176
     1
 90
        1
176
     1
 40
0.0
176
     1
 90
        0
176
     1
290
     0
176
     1
290
     1
176
     1
290
     1
176
     1
290
     0
176
     1
290
     0
176
     1
290
     0
176
     1
290
     0
176
     1
290
     0
176
     1
290
     0
176
     1
 90
       50
176
     1
 40
0.0
176
     1
 40
1.0
176
     1
 90
        0
176
     1
 62
    18
420
        0
176
     1
 90
       50
176
     1
 90
        3
176
     1
 62
     5
420
      255
176
     1
290
     0
176
     1
 90
       50
176
     1
 90
       50
176
     1
 90
       50
176
     1
290
     0
176
     1
 90
       50
176
     1
 62
   256
176
     0
 40
1.0
176
     0
 90
        2
176
     1
  1
strokes_ogs.tif
176
     1
290
     0
176
     1
 40
1.0
176
     1
 40
1.0
176
     1
  0
VISUALSTYLE
  5
EA
102
{ACAD_REACTORS
330
99
102
}
330
99
100
AcDbVisualStyle
  2
X-Ray
 70
    25
177
     3
291
     0
 70
    58
 90
        2
176
     1
 90
        2
176
     1
 90
        1
176
     1
 90
        1
176
     1
 40
0.5
176
     1
 40
30.0
176
     1
 62
     7
420
 16777215
176
     1
 90
        1
176
     1
 90
        0
176
     1
 62
     7
176
     1
 62
   257
176
     1
 90
        1
176
     1
 90
        1
176
     1
 40
1.0
176
     1
 90
        8
176
     1
 62
     7
176
     1
 40
1.0
176
     1
 90
        1
176
     1
 90
        6
176
     1
 90
        2
176
     1
 62
     7
176
     1
 90
        3
176
     1
 90
        0
176
     1
 90
        0
176
     1
290
     0
176
     1
 90
       13
176
     1
 40
0.0
176
     1
 90
        0
176
     1
290
     0
176
     1
290
     1
176
     1
290
     1
176
     1
290
     0
176
     1
290
     0
176
     1
290
     0
176
     1
290
     0
176
     1
290
     0
176
     1
290
     0
176
     1
 90
       50
176
     1
 40
0.0
176
     1
 40
1.0
176
     1
 90
        0
176
     1
 62
    18
420
        0
176
     1
 90
       50
176
     1
 90
        3
176
     1
 62
     5
420
      255
176
     1
290
     0
176
     1
 90
       50
176
     1
 90
       50
176
     1
 90
       50
176
     1
290
     0
176
     1
 90
       50
176
     1
 62
   256
176
     0
 40
1.0
176
     0
 90
        2
176
     1
  1
strokes_ogs.tif
176
     1
290
     0
176
     1
 40
1.0
176
     1
 40
1.0
176
     1
  0
DICTIONARYVAR
  5
D8
102
{ACAD_REACTORS
330
66
102
}
330
66
100
DictionaryVariables
280
     0
  1
1:1
  0
DICTIONARYVAR
  5
128
102
{ACAD_REACTORS
330
66
102
}
330
66
100
DictionaryVariables
280
     0
  1
Standard
  0
DICTIONARYVAR
  5
89
102
{ACAD_REACTORS
330
66
102
}
330
66
100
DictionaryVariables
280
     0
  1
Standard
  0
DICTIONARYVAR
  5
67
102
{ACAD_REACTORS
330
66
102
}
330
66
100
DictionaryVariables
280
     0
  1
2
  0
DICTIONARYVAR
  5
6B
102
{ACAD_REACTORS
330
66
102
}
330
66
100
DictionaryVariables
280
     0
  1
1
  0
DICTIONARYVAR
  5
DF
102
{ACAD_REACTORS
330
66
102
}
330
66
100
DictionaryVariables
280
     0
  1
0
  0
DICTIONARYVAR
  5
E0
102
{ACAD_REACTORS
330
66
102
}
330
66
100
DictionaryVariables
280
     0
  1
0
  0
DICTIONARY
  5
116A
330
87
100
AcDbDictionary
280
     1
281
     1
  3
ACAD_ROUNDTRIP_2008_TABLESTYLE_CELLSTYLEMAP
360
116B
  0
CELLSTYLEMAP
  5
116B
102
{ACAD_REACTORS
330
116A
102
}
330
116A
100
AcDbCellStyleMap
 90
        3
300
CELLSTYLE
  1
TABLEFORMAT_BEGIN
 90
        5
170
     1
 91
        0
 92
    32768
 62
   257
 93
        1
300
CONTENTFORMAT
  1
CONTENTFORMAT_BEGIN
 90
        0
 91
        0
 92
      512
 93
        0
300

 40
0.0
140
1.0
 94
        5
 62
     0
340
11
144
0.25
309
CONTENTFORMAT_END
171
     0
 94
        6
 95
        1
302
GRIDFORMAT
  1
GRIDFORMAT_BEGIN
 90
        0
 91
        1
 62
     0
 92
       -2
340
0
 93
        0
 40
0.045
309
GRIDFORMAT_END
 95
        2
302
GRIDFORMAT
  1
GRIDFORMAT_BEGIN
 90
        0
 91
        1
 62
     0
 92
       -2
340
0
 93
        0
 40
0.045
309
GRIDFORMAT_END
 95
        4
302
GRIDFORMAT
  1
GRIDFORMAT_BEGIN
 90
        0
 91
        1
 62
     0
 92
       -2
340
0
 93
        0
 40
0.045
309
GRIDFORMAT_END
 95
        8
302
GRIDFORMAT
  1
GRIDFORMAT_BEGIN
 90
        0
 91
        1
 62
     0
 92
       -2
340
0
 93
        0
 40
0.045
309
GRIDFORMAT_END
 95
       16
302
GRIDFORMAT
  1
GRIDFORMAT_BEGIN
 90
        0
 91
        1
 62
     0
 92
       -2
340
0
 93
        0
 40
0.045
309
GRIDFORMAT_END
 95
       32
302
GRIDFORMAT
  1
GRIDFORMAT_BEGIN
 90
        0
 91
        1
 62
     0
 92
       -2
340
0
 93
        0
 40
0.045
309
GRIDFORMAT_END
309
TABLEFORMAT_END
  1
CELLSTYLE_BEGIN
 90
        1
 91
        1
300
_TITLE
309
CELLSTYLE_END
300
CELLSTYLE
  1
TABLEFORMAT_BEGIN
 90
        5
170
     1
 91
        0
 92
        0
 62
   257
 93
        1
300
CONTENTFORMAT
  1
CONTENTFORMAT_BEGIN
 90
        0
 91
        0
 92
      512
 93
        0
300

 40
0.0
140
1.0
 94
        5
 62
     0
340
11
144
0.18
309
CONTENTFORMAT_END
171
     0
 94
        6
 95
        1
302
GRIDFORMAT
  1
GRIDFORMAT_BEGIN
 90
        0
 91
        1
 62
     0
 92
       -2
340
0
 93
        0
 40
0.045
309
GRIDFORMAT_END
 95
        2
302
GRIDFORMAT
  1
GRIDFORMAT_BEGIN
 90
        0
 91
        1
 62
     0
 92
       -2
340
0
 93
        0
 40
0.045
309
GRIDFORMAT_END
 95
        4
302
GRIDFORMAT
  1
GRIDFORMAT_BEGIN
 90
        0
 91
        1
 62
     0
 92
       -2
340
0
 93
        0
 40
0.045
309
GRIDFORMAT_END
 95
        8
302
GRIDFORMAT
  1
GRIDFORMAT_BEGIN
 90
        0
 91
        1
 62
     0
 92
       -2
340
0
 93
        0
 40
0.045
309
GRIDFORMAT_END
 95
       16
302
GRIDFORMAT
  1
GRIDFORMAT_BEGIN
 90
        0
 91
        1
 62
     0
 92
       -2
340
0
 93
        0
 40
0.045
309
GRIDFORMAT_END
 95
       32
302
GRIDFORMAT
  1
GRIDFORMAT_BEGIN
 90
        0
 91
        1
 62
     0
 92
       -2
340
0
 93
        0
 40
0.045
309
GRIDFORMAT_END
309
TABLEFORMAT_END
  1
CELLSTYLE_BEGIN
 90
        2
 91
        1
300
_HEADER
309
CELLSTYLE_END
300
CELLSTYLE
  1
TABLEFORMAT_BEGIN
 90
        5
170
     1
 91
        0
 92
        0
 62
   257
 93
        1
300
CONTENTFORMAT
  1
CONTENTFORMAT_BEGIN
 90
        0
 91
        0
 92
      512
 93
        0
300

 40
0.0
140
1.0
 94
        2
 62
     0
340
11
144
0.18
309
CONTENTFORMAT_END
171
     0
 94
        6
 95
        1
302
GRIDFORMAT
  1
GRIDFORMAT_BEGIN
 90
        0
 91
        1
 62
     0
 92
       -2
340
0
 93
        0
 40
0.045
309
GRIDFORMAT_END
 95
        2
302
GRIDFORMAT
  1
GRIDFORMAT_BEGIN
 90
        0
 91
        1
 62
     0
 92
       -2
340
0
 93
        0
 40
0.045
309
GRIDFORMAT_END
 95
        4
302
GRIDFORMAT
  1
GRIDFORMAT_BEGIN
 90
        0
 91
        1
 62
     0
 92
       -2
340
0
 93
        0
 40
0.045
309
GRIDFORMAT_END
 95
        8
302
GRIDFORMAT
  1
GRIDFORMAT_BEGIN
 90
        0
 91
        1
 62
     0
 92
       -2
340
0
 93
        0
 40
0.045
309
GRIDFORMAT_END
 95
       16
302
GRIDFORMAT
  1
GRIDFORMAT_BEGIN
 90
        0
 91
        1
 62
     0
 92
       -2
340
0
 93
        0
 40
0.045
309
GRIDFORMAT_END
 95
       32
302
GRIDFORMAT
  1
GRIDFORMAT_BEGIN
 90
        0
 91
        1
 62
     0
 92
       -2
340
0
 93
        0
 40
0.045
309
GRIDFORMAT_END
309
TABLEFORMAT_END
  1
CELLSTYLE_BEGIN
 90
        3
 91
        2
300
_DATA
309
CELLSTYLE_END
  0
ENDSEC
  0
SECTION
  2
ACDSDATA
 70
     2
 71
     2
  0
ACDSSCHEMA
 90
        0
  1
AcDb_Thumbnail_Schema
  2
AcDbDs::ID
280
    10
 91
        8
  2
Thumbnail_Data
280
    15
 91
        0
101
ACDSRECORD
 95
        0
 90
        2
  2
AcDbDs::TreatedAsObjectData
280
     1
291
     1
101
ACDSRECORD
 95
        0
 90
        3
  2
AcDbDs::Legacy
280
     1
291
     1
101
ACDSRECORD
  1
AcDbDs::ID
 90
        4
  2
AcDs:Indexable
280
     1
291
     1
101
ACDSRECORD
  1
AcDbDs::ID
 90
        5
  2
AcDbDs::HandleAttribute
280
     7
282
     1
  0
ACDSSCHEMA
 90
        1
  1
AcDb3DSolid_ASM_Data
  2
AcDbDs::ID
280
    10
 91
        8
  2
ASM_Data
280
    15
 91
        0
101
ACDSRECORD
 95
        1
 90
        2
  2
AcDbDs::TreatedAsObjectData
280
     1
291
     1
101
ACDSRECORD
 95
        1
 90
        3
  2
AcDbDs::Legacy
280
     1
291
     1
101
ACDSRECORD
  1
AcDbDs::ID
 90
        4
  2
AcDs:Indexable
280
     1
291
     1
101
ACDSRECORD
  1
AcDbDs::ID
 90
        5
  2
AcDbDs::HandleAttribute
280
     7
282
     1
  0
ACDSSCHEMA
 90
        2
  1
AcDbDs::TreatedAsObjectDataSchema
  2
AcDbDs::TreatedAsObjectData
280
     1
 91
        0
  0
ACDSSCHEMA
 90
        3
  1
AcDbDs::LegacySchema
  2
AcDbDs::Legacy
280
     1
 91
        0
  0
ACDSSCHEMA
 90
        4
  1
AcDbDs::IndexedPropertySchema
  2
AcDs:Indexable
280
     1
 91
        0
  0
ACDSSCHEMA
 90
        5
  1
AcDbDs::HandleAttributeSchema
  2
AcDbDs::HandleAttribute
280
     7
 91
        1
284
     1
  0
ACDSRECORD
 90
        0
  2
AcDbDs::ID
280
    10
320
22
  2
Thumbnail_Data
280
    15
 94
     3991
310
89504E470D0A1A0A0000000D49484452000001000000006A0802000000DC0818B9000000097048597300000EC400000EC401952B0E1B00000F4949444154789CEDDD79505357FB07F09385A8A0014492B2541B40521C170C148C30550195562DA4C254188A5A171C3B38DA8A75A06E20B1022DCA326335D516B16A155B542A
310
6A19820B027141AB06DA028682EC10124042CCCDFBC79D1FE3EF0D7D7BB340C0FB7CFECA9CDCFB9C93902FF726773914AD568BFE3FAD568B61180260A45028142A956A96AEE9BA4D3D3D3D67CF9EE572B9233F1A404EEDEDED0281C02C5D0F11008490A7A7A7B7B7F7080F059096582C3657D7E6D9EE00304A400000A94100
310
00A9410000A9410000A9410000A9410000A9410000A9191580969696BFFEFA4B2693115FA5A3A3A3B3B353B75DA3D1D4D6D61A3318000C607800B2B3B3391CCEF4E9D3DDDCDC56AF5EFDE2C50B226B454444646767EBB65FBB76ED9D77DE3178300018C6C00048A5D2EDDBB71716163E7FFEBCAAAAEAFAF5EB274E9C20B2A2
310
4AA5D2AB1D8061656000944A258D4653A9540E0E0EAEAEAEC78F1F9F376F1E42E8D0A1438E8E8E2C166BC1820572B9BCA6A686CFE7B3582C168B9594943478E62986617BF6ECC1DBA3A3A3F1AD8752A99C3B772E8BC50A0D0DEDEAEA52ABD55BB76EC597F1F1F1696E6EAEADADF5F0F0E0F1783C1EEFCA952B4E4E4E2C168B
310
C7E35556569AEAED0064636000BCBCBC366FDEBC62C50A6767E7A8A828B55ACDE3F16432D98E1D3BB2B3B3A552A98585C5D1A347D7AE5D1B181828954AD3D3D377EFDE3DB87A4141414646467979F9E3C78F6532D9DEBD7B114218862524243C7AF4A8B9B9392929A9B8B8383737F7FEFDFB52A99446A3A5A7A7BF7CF9B2AA
310
AA2A2A2A2A2525E5F3CF3FDFBC79B3542A0D0E0E2E2A2A32C97B014868E8B341FF158D464B494959B76E5D7171714949497878F89E3D7B6C6C6CDCDDDD434242A8546A41410186616BD6ACC9CFCF4F4A4ABA7BF7EEABAB9795955958586CDDBA1521D4D8D828954AF97CBEB5B5755858184228363676E7CE9D5F7DF5954824
310
FAE9A79FCACBCB1B1B1BDBDBDB1142B6B6B6EBD7AF673299A1A1A1898989A5A5A5CB962D8B8C8C34FA7D00246560004422515959994824E272B99B366DDAB76FDFA953A762626268341A7E65435D5D9D46A3898D8DA5D1689E9E9ECB972FBF7DFBF6AB159C9D9D376CD88010522A956E6E6E8D8D8D834FBD78F1C2D2D2F2E2
310
C58B515151EBD7AF5FBC7831FEE94708D9DBDB33994C84507C7CFCFBEFBF5F505090969676E9D2A52B57AE18F64200C919B80BC4E1707EFCF1C7A3478FB6B7B7DFBB77EFF6EDDB7E7E7E4B972E954AA5B76EDDEAE9E9D9B163071E920D1B36A4A6A652289457579F356B566363A3ABABEB7BEFBD77FAF4E923478E2084944A
310
E5CD9B37D56AF5E9D3A7434242AE5DBB161414949595B574E9D2870F1FFED7007C7D7D1F3C7870E0C081D5AB57B7B6B61AF62A00405A1D0A85422291E8B6BF0AC3B043870ED9DBDBD3E974845064646453539356AB3D7DFAB4BDBDBD8585C592254B9A9A9AF6EDDB47A7D3190C464444848D8D8D582C7EF7DD77131313D56A
310
754C4C8C8D8D0D83C158BC78715757D7CF3FFF3C79F2642727270B0B8BE5CB972B148ADADA5A0E87C360303C3C3C828282828282AAABABDDDDDDF1019C3B776ECA94290C06C3D9D9592C16FFEFD18251AEB8B8D85C5D53B43AD7042B95CAEAEA6A22578469341A7C751A8D36F83F1E6FA452A9F8BED0CB972FF105300CA352
310
A918860D5E008A2F89AF8B61185E6AB0E5D55208210CC368349A46A3C123A7DB1118BBC462F1C2850BCDD2B581DF0170341AED5F1B073FAF78FBABCFBEFA78C80FB1EE0283D5FEA97700F402FF3B01A9410000A9410000A9410000A9410000A9410000A9410000A9410000A9410000A9410000A9410000A9410000A9410000
310
A9410000A9410000A9410000A9410000A9410000A9410000A9410000A9410000A9410000A9410000A99920004F9F3E158BC5030303C6970260841975632C5C6565E59F7FFE5952523271E2C42D5BB6585858185F138091618200D4D7D7CF9933077F5C505030D87EFEFCF913274E401EC068668200AC59B3A6A5A545B73D25
310
2545F7D3AFD56A150A85B5B5B5F1FD02603C1304E0C89123AB56ADB2B5B5D57D4A37189D9D9DA1A1A16FBDF5D6D5AB578DEF1A0023992000FEFEFEFBF6ED2B2D2D55ABD57E7E7ED5D5D5EDEDEDFEFEFE4F9F3E1D7246D4E4E4E4B56BD71ADF2F00C633410066CC98919B9B3B4CF76AAEADADA5D3E9743ADDD1D17138EA0392
310
33F667D0E6E6E6C4C4C4B6B636938C46577171F1C68D1B3FFBECB3E0E0E0EBD7AF0F532F80B48CDD02D8D9D98D1F3F3E2F2F6FC28409F87C2D08A18181818686067C010E8783CF76313811BCA3A3E3F8F1E309D6BF7DFB76444444434383A3A3E39B6FBE69E46801F82FC606C0C2C282C7E31D3F7E1C21D4DBDBCBE5721142
310
9D9D9D0A85824EA72B140A2E978BEF1D3D7EFCD8C6C646ABD58E1B378EC56211ACAFD16856AF5E6DE42001F82726F80EB072E5CAA0A020E3EB0C09A68101C3CA0401B0B2B2B2B2B232BE0E00230F4E8603A4060100A4060100A4060100A4666C00EAEAEA366FDE9C95956592D18C6612894428145EB870A1AAAA4A2814B6B7
310
B79B7B44C0048C0DC0AE5DBBE2E3E3EFDCB9D3DBDB6B92018D5A070F1E94CBE56C367BDBB66D010101717171972F5F4E4E4E2E2929C9CCCCC4A7B907638EB101D06AB5542AF5E5CB97AF7D00582C1686613939392A956ADEBC7932992C2B2B6BC284095F7FFDF5FDFBF7C562B1B907080C61EC71005B5BDBCB972F0F0C0CD8
310
D8D8986440A31683C1484848080D0D6530186D6D6D4C26B3BFBFDFD3D3B3B3B393C160987B74C040C606203535353B3B5B2814BEF61F82458B16AD5FBF3E2D2DADABAB2B3A3A3A3131B1A8A8C8C5C5E5EFBFFFB6B3B39B3C79B2B907080C41D1DD79552A95D5D5D5DEDEDEC4AB141515A9542A820BD368B471E3C6112FDEDF
310
DF8F61D86828CE6432FDFDFD8917070489C5E2850B179AA76FAD0E854221914874DBFF07369B4DBCC7C0C040BD8A73381CE2C5F97CBE5EC567CC9841BCB8A7A7A75EC50141C5C5C5E6EADA04E7022184BCBDBDE974A2A57A7B7BB76DDB46BCF8D4A95367CF9E4D70E19E9E1EBD8AB3D9ECE9D3A7135C78D2A449C42B8331C1
310
3401D8B469139FCF27B8B05028FCE69B6F8817CFC8C8888C8C24B8707A7A7A727232F1E2070F1E5CB76E1DC185CBCBCB895706638269BE03545555A9D56A930E6C349A3061829B9B9BB947F11A32E37700D36C01DE7EFB6D93D4016084C1B94080D4200080D4200080D4200080D4200080D4200080D48C0A406767E7B7DF7E
310
FBDD77DFC9E572530D0898DD83070FE2E3E3F1C73D3D3D494949616161717171F819EF1886EDDEBD3B2C2C2C3E3EFEC58B17A6ED3A2D2D2D20204020100804020CC3EAEAEAD0FFDD6259A3D1B4B5B5656565D5D6D6E22D72B99CF81968FFC4F0036172B99CCFE7CF9C397360604026939596965A5A5A1A391A607662B1383A
310
3ADAC9C9E9CE9D3B08A1848484BCBCBC03070E9C3C79D2C9C929333373FFFEFDE7CF9FDFB3678F4824B2B5B5CDCDCD3549A7F881B0C4C4C44993265DBA740921B46CD9B23367CEAC5DBBF6EAD5AB6C36FBDEBD7B13274E747070E8EDEDB5B6B67677777FFAF4694747879137CC347C0B909B9B3B6EDCB8B367CF5EB8708146
310
A39D3B77CE987180D1E0E4C99351515153A74E1D6C1189449999990281E08B2FBE3876EC587777F7B163C78442A14020C8CCCCCCCBCB6B6D6DDDB56B574646C6AA55ABD6AD5B575E5E1E1313131E1E8EE7C700AEAEAE78A89A9B9B391C4E4B4B4B42420293C97476769E3B776E7373B352A9FCE4934F2412898B8BCB1B6FBC
310
61E44B36FC4870454585B7B737954A4508B9B9B9555454C03D0CC73A3F3F3F8944929393F3CB2FBFE02D1D1D1DF8698E5E5E5E2A95EADEBD7BF5F5F576767608213B3BBBFEFEFEE7CF9FE7E7E7B7B6B6666666A6A7A72F5CB8302121C1D2D272C58A15353535FACE84327FFEFCC0C0400A8512131383107277774708393838
310
040606F2F97C070787E0E060B95CEEE1E111111171F4E851FCE3670CD39C0A015E0F2E2E2E86AD181F1F1F1E1EAE56AB737272BEFCF2CBFAFAFA43870E757575E91B80C17B6C7EF4D147AFB6EBDE17392222C2D9D979DAB469860D7810FC0A0488A250284C2673C8A7F0FFC4542AD5C82BE3BABBBBB76FDFBE61C386EEEEEE
310
7F1D0C9D4EAFA8A8282D2D35A647C3B70073E6CC292C2CC4BF43CB6432BDCE1E0563C59C39739E3D7B8610CACFCF9F32658A979797AFAF6F494989AFAFEF8D1B37ACACAC5C5D5D4DD8DDE1C387232323ADADAD8B8A8A4E9D3AE5EFEF7FF3E6CDBEBE3E3E9F1F1C1C5C5858F8E4C9131F1F9FD2D2D2BEBEBE8E8E8E458B163D
310
79F2242B2B6BE9D2A5656565F5F5F54B962C292C2C4C4E4EE6F178447A343C001F7EF8615252526A6A6A5F5F5F6D6D2DF153F6C118B277EFDEE8E8E8EFBFFFFED1A347595959140A65EFDEBD515151050505757575C9C9C9A6BD4808BF81FEB367CF7EF8E187B8B838FCD28ED9B3676BB5DA2D5BB6B8B8B83C7BF6ACB4B474
310
FEFCF91C0EA7BFBF7FFCF8F1870F1F9648241B376E5CB060414F4F8F5C2E673299BABF6DFE13A3AE0778F8F0616A6A2A8D46DBB973A7878787BEAF168C4E0D0D0D1D1D1D8353DFFEFEFBEF172F5E0C090999397326DE52535373E6CC99A0A0205F5F5F84D083070FD86CB6A3A3635B5B5B67672797CB55A9541289C4DBDB9B
310
E04C28833F83E2BB403636369F7EFA69464686979757434383BDBD7D40408048248A8D8D150A857C3EBFA9A9C9CECE8E42A19494942C59B2E4C68D1B1F7CF0414B4B4B5F5F9FA5A5654545C5CE9D3B9D9C9C88746D820B62542A9546A321B83018FDE874FA08DFE3633000C5C5C5F87C4226D7D8D8281008740F5599669EE0
310
3367CE105C9842A1949595112FBE7FFF7EFCB00841376FDE24FEC74B4B4BD3EBF0C56FBFFD4686CB829B9A9A424242CCD235854219A64BC3EEDEBD3BE4BFE991FE199442A1F8F8F8105FDEDEDE5EAFFAC437BB0821E23335E1783CDE90D321BF664875973BF81914909A6926CAF6F3F323B8F01F7FFC316BD62CE2C5F1F34F
310
082E5C5757E7EDED4D7C2792CD66132FDED8D8E8E7E7478639CB5C5C5CCC769BAA91A77BAB207D6F8CA5D75D8D8A8A8AF41ADEC71F7F4CBCB8BEC74456AE5C49BC786565A55EC5C72E1F1F1FE26F8B490C7E8486EF0E59128944A150E8B6C32E10203513EC0231994CE25F9B542A954824225E7CD2A449C3577CE2C489C48B
310
0F0C0CE8557CECD2F7878731CD04012078CC19805108768100A94100C018909393835F216072100030063C7AF42827276738262684008031203636F6D75F7F1D8E69B8E08A3030064C9B36CDF88BBF86045B00406A1000406A1000406A437F07A8ACACECEFEF1FE1A100D2EAEAEAC21F747777DFBA756B38BAA8AAAAE272B9
310
BAED435C11A6D56AE10A2F3092A8542A7E5F090CC388CF5AAB2F1A8DA67BA6F07F007A6D5AF080CD80770000000049454E44AE426082
  0
ACDSRECORD
 90
        0
  2
AcDbDs::ID
280
    10
320
31E
  2
Thumbnail_Data
280
    15
 94
     4635
310
89504E470D0A1A0A0000000D49484452000001000000006A0802000000DC0818B9000000097048597300000EC400000EC401952B0E1B000011CD49444154789CEDDD79501367DC07F02709E420619310C4240884235C724839828A0241C7D7AAB4286AF1A8383A5AA7536D6D3B8E8E4EC7DA6AEBD869D169C776AA759CA99D
310
6AEBF1DA5AD40E52C11630506E902B186248B89270E42061F3FEB1BE19C6B68B2D98CD9AE7F38743364F9EFC76CC37BB9BDD7D1ECAB973E7807B30994CBB76EDC2FE76381C288A125B0F3483A8542A8542C1FEBE72E5CAF0F030B1F53879115DC0DFD36AB59F7EFAE9AA55AB882EE4F9D7D5D5653299BCBCBCA2A3A3B12506
310
83A1BFBF9FCFE70F0F0FA3281A1111812D1F1818181E1E0E0B0BC31E0E0D0D21086232991004C11EFAF9F9592C161445994C26954A75BE454F4F4F7676B6482472ED9A3D15370D000020222262D1A2454457F1FCE3F178376FDE3C7DFA7440400000203C3C3C2A2AAABABA9AC3E1582C1687C3A1D168D2D2D23A3A3A66CF9E
310
7DE7CE9D989818A3D1989B9B6BB3D97EFEF9E7DEDEDED8D8D8BEBEBEC1C1C1A8A82804414422D18F3FFE2893C97EF8E107EC2D1E3C7840E82AE271DF00402E939999B964C992EAEAEA98981893C9141F1FBF61C3869A9A9A8C8C0CBD5EDFDBDB1B1D1D3D3636C662B10E1F3E3C32320200E0F1786C367BD3A64D5AAD164110
310
6C97A6BDBD3D2626C66EB7171414F8FBFB13BD5A4FC57D03201008882EC153DCBE7DFBA79F7E4251B4B0B0B0A8A848ABD5CAE5F2FAFA7AB3D9ECFCB83B1C8E8686062E973BF9850882848484381FCA643257973E6DEE1B80E1E1E1D2D252A2AB78FE2995CA9D3B771E3870007BB879F3E6A6A6A6B4B43462AB7219F70D80CD
310
66CBCACA22BA8AE79F4020B877EF1E7620EB34B35F3D6AB53A272767063B9C41EE1B00C865162E5CF84C7738DDF920983A7513087A7EC100401E0D06007AAC0254F4809E4130A802AA5FC02F0000BD5E6F369BB17FCD66736F6FAFC16070B61F1C1CB45AADC4D53B33E03100F4980558824010004000045DA00B0070F8F0E1
310
FAFA7A93C92493C92A2A2AF2F2F23A3B3BFBFBFB3B3A3AD86C764B4B4B4242426464E4D9B36789AEFDBF8301801E1B024376606F012DB120D607F80000DE7DF75D3A9D8E3D3B3E3ECEE170C6C7C7B16F7D068381FDC162B108AC79FA6000A0C75683D5008078100F004803690080C0C040826B7AF648790CD0D3D3336FDEBC
310
CCCC4CA9547AF5EA559C96656565F9F9F94F2CCCC9C9696C6C7C96053E272E5CB8A0D56ADBDADA6A6A6A944AE5A3478FD46AB54EA7EBEFEF27BAB41943CA2DC0471F7DB465CB963D7BF6949494BCF5D65B2B57AE1C1A1ABA78F1626A6AAA4C26D3E974376FDE74381C6BD6AC191F1F371A8D0080CACACAAAAAAA152B568485
310
85E9F5FADF7EFBADAEAE6EF5EAD52C16ABABABEBFAF5EB73E7CE5DB264894AA56A6E6EB6582C8B162DBA74E9524C4C4C666626D1ABEB2A8D8D606000242682BA3A909000FCFC4E9E3C79ECD8311E8FA756AB0502C19A356B6A6B6B1F3E7C989B9BEB3C734C76A40C404646C6912347FAFBFB333333CBCBCBAD56AB5C2ECFC9
310
C93973E6CC9B6FBE79F0E0C1356BD668349AE2E2E2EDDBB70300AE5DBBF6DE7BEFC9E5F2FCFCFC8B172F02008A8B8B7D7D7D2F5EBCF8E1871FE6E7E7BFF8E28B67CF9E3D72E4C8D5AB576FDDBA55505070E2C489C4C4C46FBEF966E3C68DBB77EF267A8D5D222EEEF11FFF7F02BEBCBC1CFBC362B1B0D96CABD56AB7DBD96C
310
F6C4C40411F53D13A40C404141417878F8D5AB57F7EDDBC7E3F1DE78E38DC8C8C8A2A2A28E8E0EBBDDBE77EF5EBBDDFEE0C1038BC582B53F73E64C6C6CAC482462B3D9D7AE5D633018A74F9F9E356B565454944EA7DBB66D1B0080C9645EBE7C994AA51E3E7C78DBB66D0B162C50ABD50505057FDD83F21C5E5E8F3F1E1C0E
310
0700C064329F58FE1C20E531C0E2C58BBDBCBC8E1E3D5A5353535B5B6B3018BCBDBD0100369BADA4A4E4830F3E60B3D9D9D9D9CEF6369B2D3232322E2E2E2323233D3D1D45518BC542A150180C466D6DEDB973E7C2C2C2929292B02F361A8D66B15876EDDAB565CB96E2E2E27DFBF611B69ED0B347CA00ECD9B367DDBA755B
310
B76ECDCECE96CBE57979794AA5F2EDB7DF2E2C2C1C1919E172B9434343B76EDD72DE77F7EAABAF7EF7DD770A85E2FBEFBFA752A9369BADB0B070EBD6ADB1B1B162B19846A3D5D7D797959539FB4751F4FDF7DFAFAAAA623299E9E9E904AD25E40A14F7BC27B8B7B7F7FAF5EB3B76ECF8A7C62A95AABDBD9DC3E1A4A6A652A9
310
5483C1505D5D8D20484A4A4A7777775757974422E9EEEE4E4A4A7AF8F0E1BC79F33A3A3A542A557878B84422A9A9A9F1F1F1E9EBEBCBC8C8A050281515152693492291609B053E9F2F12894647472B2B2B7D7C7CD2D3D39D37B33E971A1A1AC462F1B3BE180EBB530C7B08EF099E01C1C1C1C1C1C1CE873C1ECF79C16D6868
310
6868682800203C3C1C00E0E7E70700904AA552A9146BF0C20B2F00009CB7C0CE9F3FFFAFFD73381CB7BD82179A41A4DC0582A09902030079341800C8A3C100401E0D0600F268300090478301803C1A0C00E4D16000208F06030079341800C8A3C100401E0D0600F268300090478301803C1A0C00E4D16000208F0603007934
310
B2DE1289F9EAABAF6834DABC79F392939389AE0522257207E0EEDDBB5151511A8DE6C68D1BCE25376EDCC0464981A029913B00F9F9F9B9B9B993971C3C7870F2200E0E87A3A8A8283B3B3B3131D1E5D5412440EE009C3B77EEE4C993F86D92939327CF5A0E4193913800288A1E3F7E3C3232729AFD381C8EB6B63600404848
310
089D4E8769F12824FECF6E6E6EDEBF7FFFF4FB191D1DDDB871E38A152B56AE5CA9542AA7DF21442224DE02C4C5C521082297CB51144D4A4AA2D168D5D5D5140A85C562C5C4C4180C86AEAE2E00C0ECD9B3F1277AB0D96C6BD7AE5DBF7EBDB7B7379C9EDED390380000809D3B775A2C16B3D9DCDADA0A00C8CCCCF4F5F5D5E9
310
741A8D26303070D3A64D0080F6F6F6D1D151FC7E7272722412890B0A86DC0DB903E01CB976F9F2E5FFD4064E370FE120F13100044D1F0C00E4D1C81D00E71C3010F4DF9038005F7EF9E5AE5DBB264F6CE1FE8A8A8AE472F9EDDBB7376CD870FFFE7DBBDD6EB7DB274FBF0EB918890F826FDDBAF5FAEBAF5FBE7C79D1A24544
310
D7F2B43A3B3BC562F1D75F7FBD7FFFFEE3C78FEBF5FA818101269379EDDA356C1E03C8C548BC05080B0BBB71E30636DB05594446462627272B148ACECE4EBBDDBE6EDD3A5F5FDFD0D0D0B1B131A24BF35024DE021C3D7AF4D75F7F5DB66C19D185FC0BD9D9D9252525959595972E5DFAE4934F6C365B7070B08F8F0F3C0147
310
141207C0DBDB3B2626E695575EC16F46A5525F7BED35FC36EDEDEDB76FDFC66F231008D6AF5F8FDFA6AAAA4AA150E0B759B870A1BFBFBF7336B4B0B030FCF6D03345E20000000C06437373338D46C369633299EAEBEBF1FBA9AFAF7FF0E0017E1B3A9D1E131383DFA6AAAAAABDBD1DBFCDAC59B3F01B40AE44EE00B058AC13
310
274E382770FE5B6D6D6DA74F9FC6EF074190A2A222FC3665656553CEA829954AA7EC67646404BF01E44AE40E405454545454147E9BACAC2C9CE9569F5E5656D6A14387A6DF0FE45648FC2B10044D1F0C00E4D16000208F06030079341800C8A39135004D4D4D2FBFFCF2DEBD7BFBFAFA88AE05223152060045D1CD9B371714
310
14F0F9FC23478E105D0E4462A43C0FD0D2D262341A57AF5EADD7EBE572B9CD668343C141FF0D29B7000000168BE5EDED1D1010A056AB4D2613D1E5406445CA2D008D4673381C288AF6F6F686848470381CA22B82C88A9401888E8EF6F6F6FEECB3CF060707E3E3E3F12F8683201C64DD05BA7EFDBA52A9B45AADA74E9D22BA
310
1688C448B90500000405059D3A75EAD2A54BCE81D1FFC9AC59B3E8743A4E036C576ACA77148944F8C3865AADD6818101FC4EA854AA48249AF2BD5C49A9543E31C2B647216B00303B77EED4EBF5F86DEEDEBD8B7FD3B056ABCDC9C999F2BD060606F0EFDB2A2929C1C6A2C3111010A0D3E9A67C2F57F2F09BD1C8BA0B044133
310
82DC5B803D7BF6E0DF5288A2687E7E3E83C1C069333131F1F1C71FE3EF99A8D5EAC4C444FC5DA0F1F1F1F3E7CFE317AC5028828383F1DBB898CD666B6C6C24BA0AC2903B00999999F8437FDAEDF6C2C2C229FBC9CDCD8D8E8EC669D0D0D070E0C001FC4EA854EAE6CD9BF1DBD0E9F42967F4805C89DC01D0EBF5A5A5A5380D
310
1C0E87F3F6731CEDEDED5AAD16A781D1689CB21F0A85825F0C00607C7CFC69EA71A5A1A121A24B2012B90390979737659BECECEC1979AF975E7A6946FA99722BE1620D0D0D4497402478100C79341800C8A3C100401E0D0600F268300090478301803C9AFBFE0CDAD7D737E5CFEAD0F429954A81408020C8B37B0BB55AFD34
310
575B11C27D03B076EDDA29873D84A64F201088C5E2677A49DC94030F1308EE02411ECD7D03505353437409D0B47CFBEDB7F7EEDD23BA8A29B8EF2E101C469CEC4243439FE9A1C58C70DF2D00446A0E874320105CB87081E842A6E0BE018043FD90DAE8E8A88F8F8F4C2673F3B99CDD771768C18205449700FD77BEBEBEBEBE
310
BE41414144173205F70D00E4321A8DC66C363FBBFE753A9DDB1E0CB86F00AC562BD125788ABABA3ABBDD9E909060369BAD562B83C1080808A050282A958A4EA7B3582C8BC5C26432190C06361D5B6565656060E09D3B77B85C2E363EDFA3478FB0AFFCC1C1415F5F5FA3D148A3D1984CA6C160904AA5F893B811CB7D035051
310
519190904074151EC16AB55EB870213939B9A1A101FBAC5FB97285C9641617177FF1C517CB962DABACAC64B158CB972F7FE79D7700006AB53A3C3CBCBBBB1B7B794B4B8B4422110A855AAD96CD663318747F819F75DC66B55AF87CBE9F9F9FBFBF3F91AB87CB7D0300B94C4D4D0D97CB6D6D6DFDFCF3CF270F323067CE9C94
310
9494818181DF7FFFFD899770B95C2E971B1717070090C9644D4D4D32998CCFE70300B46D4D8A5F2EFCCF2BAFDFBB72262D7E4940CA7C773E130C0300818080003F3F3F0441EEDFBF5F5A5A3A77EE5C994C0600E0F3F9A1A1A15C2EB7ACACEC89B1959A9A9ACACACA6A6B6BC7C6C60C068350285CBA7429F654C5EFFF6BD0AA
310
A8566B5F7FCF1F75252FA5CC2760959E9AFB06402C16135D82A7108BC5068301455114459B9A9AB85C2E160093C9D4DFDFDFDFDF4FA552FF3AB8584D4D8DDD6E4F4C4C5CBA74E99C3973B85C2EB63C48181AED23EEFFF1E27C71DC1897E5EA95F997DC370052A994E8123C455555954020100A859D9D9D140AE5E6CD9B77EE
310
DCF1F7F7CFCACA5AB76E1DD666F295B9232323341A4DAFD71B8D46A954BA7EFDFAC9BD4978818FFEB8EAD0F68D078A8411CB5CB922FF81FB06007299B6B6360A850200E8E9E9118BC50882582C162E974BA5525114C59EE2F3F9BB77EFC6DA979696A6A4A45CB972657474D4CFCFEF89DEE8B1714289C45055214C95717CB9
310
2E5E977FCB7D03A056ABE1E5D0AE21140A994CA6D56AA5D168131313DBB76F8F8888E070388D8D8DD80F713C1ECF60304C7E496363E3B163C7525353793C9E46A3A9ABAB0B0A0A5AB972E582050BC6AD3693C5DE45F3F6576B11C4240E74EBC1EBDD37009D9D9D6E7B17C5F347A7D30505050507070F0F0FD7D6D6E6E6E68E
310
8D8DAD5AB5CAD9C0B98B8F494A4A3A7FFE3C8D46A3D168E3E3E300001A8DE6E5E53561B3D9C7C67CA85EF191717416930228A8C5ADCFE7B86F002097B1582C7ABD1EFB883F7CF8B0BBBB7BC58A1522914822911C3A74E86F47441D1919696D6D451044A5524DDE3E200862341A6DB671BB7D42201058CC663687C3E3F15CBA
310
3EFF86FB06A0A3A3A3BCBC9CE82A9E7F5D5D5D8383832C168B4EA7633F0761DFE8F1F1F16969697F3D030000686868D0EBF50A85A2B9B959AFD77B7979D1E9746CAA420E8733323282A2A85028040050A9548D469397973753E3EACD38370D805028CCCBCBC366BF130A85D8C180D96CAEAAAAC21A04060646444400004647
310
47ABABABB185090909D8B918954AA5542AB185494949D885284AA552A552610B535252D86C360040A1508C8D8D0100180C467A7A3AF66C656525760DA38F8F4F6A6A2A00606C6C4CA15060CF06050561678B868787FFFCF34F6CA144220909090100E8F5FAFAFA7A6C61727232367F596767A75AADC616A6A5A5B1582C0040
310
5B5B1B3631078BC54A4B4BC39EFDE38F3FB0CF1F87C3494E4EC6169697974F4C4C000042424224120900C06834D6D6D662CF86858561D79C0D0D0D39C739944AA5D8EFC8EDEDED1A8D065B2893C9B0AB125A5B5B9DD314AC5DBB76C3860D00807BF7EED9EDF6C58B172308929494843D7BF7EE5D87C30100E0F3F9D8F1008A
310
A2D8552A72B97CC78E1D8181810080818181A6A626EC25515151D8A75FA7D3B5B6B6620BFF7AACEC26FE0F48D2A49CF4C1B5F60000000049454E44AE426082
  0
ACDSRECORD
 90
        0
  2
AcDbDs::ID
280
    10
320
34C
  2
Thumbnail_Data
280
    15
 94
     3252
310
89504E470D0A1A0A0000000D49484452000001000000006A0802000000DC0818B9000000097048597300000EC400000EC401952B0E1B00000C6649444154789CEDDD7F4C1B751F07F0EFB5BD96EB6F286D61F4070C067665A3C2803D1B28CCC46CE88C99D1453213E3A2311A8D31C63FF40F1313A77FE8FE53F3248F06CD63
310
A6D18CC425E89E3C61CC6DC52CFB2163D980FD28035A4A29D7AEB4A5BDDEF59E3FEE797874DCF8B11FDCB1EFE7F5D7F5DB5EEF9DD237ED5DEF07D1D5D585B097CD665F79E595F99B1CC74918E6FE512814044108D33FFFFC732C1693368F1CA8A40E20475F7DF595C7E3913AC53D76F4E8D1FDFBF7575454481D445EA00022
310
AAABAB5B5B5BA54E718F050201A923C89142EA000048090A800B8AA2B45AADD42964070A800BABD56AB7DBA54E213B5000803528002ED2E9743299943A85EC400170118D46A7A7A7A54E213B500080352800C01A140017168BC56AB54A9D4276A000B8D0E9747ABD5EEA14B2030500588302E0221A8D462211A953C80E1400
310
17E9743A954A499D4276A000006B5000803528002E9C4EA7DBED963A85EC40017041108442017FEE5BC12B02B00605C0C5D4D4D4E4E4A4D42964070A808B6C369BC964A44E213B5000803528002E0A0A0A288A923A85EC40017061B3D94A4A4AA44E213B5000803528002EF2F9FC837ACAC7BB0105C0C5C4C4C4D8D898D429
310
64070A00B0060500588302E0C262B11417174B9D4276A000B8D0E974068341EA14B2030500588302E022994C261209A953C80E140017344DCFCCCC489D4276A000006B5000803528002EE098605150005CC031C1A2E01501588302E0221289C031C10BC1758297D0D3D323AB8B2B0E0E0EBEF6DA6B4AA572A5336632193826
310
782128C012B45A6D5B5B9BD429FE0FBEC7DF5BF06A2ED7C0C0C0D0D090301D0804388EBB7EFD7A3E9F9736D58A1004217504D9814F80E5FAE1871F82C1A0D3E9E438EED75F7F6D6E6E1E1919696868989C9C34180CB158ECDD77DFADAFAF973AE66DB95CAEF2F272A953C80E1460B9AAABAB799ECFE572C964D2ED761B0C86
310
5DBB76CDCCCCF03C6F369B53A9145C80682D82022CD78B2FBE287584BB221C137C076BCF0F365807C0051C132C0A0A00B0060500588302E0022E932A0A0AB0029F7CF2C9D5AB57D7D6B6FF7970A16C51B0156805AE5EBD7AE0C00197CB150C06DF79E79D9A9A1A845028142A2828282A2A923A1DB81350801530994C46A311
310
21E47038BEFFFE7B61906198C71F7FFCD1471F9534DAD292C9E4ECEC2C9C18E216508015F8ECB3CFA48E70E7689A8E46A350805BC03AC072DDB871A3ABAB6BA573251209BBDDDED1D1D1DFDF7F1F4281BB059F00CB55565676FEFCF923478E08375B5B5B851D33C7C6C602818030E8F3F94C26134288A6E9C1C1418410CBB2
310
9D9D9D4F3FFD34EC87234F5080E552A9549D9D9D0B8F2971B95C2D2D2D0B077D3E9F305D5B5B5B5555B51A111765B55A6D369BD42964070AB002CDCDCD5247B8731445E9743AA953C80E1460B9BEFEFAEB783CFEF6DB6FAFC2B28687870F1E3CA8542AA7A7A77D3E9F4AA5DAB871E3EEDDBB857B3FFFFCF39E9E1EAFD7EBF7
310
FBDF7AEBADBD7BF7AE42A40715AC042FD7E4E4642C165B9D65D5D4D4A452A96834CAF37C30181C1F1F3F71E2C4FCBD2E97CBE3F11416163635351D3C78F0C08103C16070C9E78C4422E170F87EA65E93E01360B9DE78E38D9D3B770A1B73D6AD5BF7D24B2F09E3DF7DF79DB0124C10C4FBEFBF2F0CF6F6F6FAFD7E61FAE597
310
5FB6DBED2B5DDC9B6FBEF9F0C30F8B1E006930189E78E209615AF8581819193976ECD8BE7DFB1679C24C26333737B7D2180F3C28C072198DC6BABA3AE1ADECF7FB1F7BEC3161BCA5A5A5BDBD1D21140804E6072B2B2B3B3B3B1142D96C569858A99F7EFAA9A9A949F42E8220E61734AFAFAFEF0E9602A0002BF0E5975F2EFE
310
806FBEF966E1E0C71F7F7C3FC28C8E8EC2A6D5BB07EB006BD54ADFFD2E97ABA2A2E2FE6459C3E0136009050505B2FA76313B3BEB72B916464AA55252C459F3A0004BD8BA75ABD411C07D045F8170110E8797B3B5143750005C300CC3308CD42964070A00B00605C08556AB857D81168202E0A2B8B818F6065D080A00B00605
310
C005CBB2B95C4EEA14B20305C04528149A9898903A85EC400100D6A000006B50005CC056205150005CC0EF00A2A000006B50005C241289783C2E750AD98102E0221E8FAFDA41FD6B081400600D0A00B00605C0051C132C0A0A00B0060500588302E0221C0E874221A953C80E1400170CC364B359A953C80E1400600D0A800B
310
8542A1542AA54E213B50005C381C0E97CB25750AD98133C389181A1A5AE92C9148643577368E44221445A9D56A822010422449E672B9E9E9699BCD4692A4F075DF6030300CA352A952A99452A91C1B1B6B6B6B5BB5846B051440447979792C16DBB66D1B4DD314459D3E7DBABEBE9E2449B55A5D5A5A2A3A4B5F5F5F616121
310
41102693A9A0A020140AE9F57A9AA6CBCBCBA7A6A60A0B0B2D160B4DD31CC7A552299BCD363D3DAD5028E2F1384110994CA6B2B2B2ACAC6CC960994C06FDEF74A5344D9F3A754A2840381CB6DBEDA150C8E17068349A4C2663B3D912894426932149922088F6F6F60D1B36B02CAB52C15FFC2FE0E510313B3BDBD5D5E5F7FB
310
BD5EAFC964EAE9E9F1FBFD3E9FAFA8A8E8A9A79EBADD5C344D7FF8E18766B379FBF6ED6EB79B65D9EEEE6EB55A4D92A44EA7ABA8A83873E68CC5626118A6BABA7A7878786666C6ED760F0D0DF13CFFEAABAF2EA7003FFEF8636565E5B66DDB10427BF6ECD9B3678FE8C3388E1B3EDD5B55DF3A397A49C5E4CB366D41087DFB
310
EDB7E3E3E3F063F02DA0002272B91C49921A8D8665D9EAEAEA783CCEF37C5B5BDBE267246F6F6F17AE9431EFF9E79FBFB7C1BC5EEFF5EBD785E973E7CE7DF4D1479B376F46088542218BC5E2F3F99E7BEE3984D0C57F770F75FFD35458327CE81F9C4AB5AEB641F8A0000B410144188DC67DFBF60967D24CA7D32FBCF04236
310
9B957C13CACD9B37DD6E777F7F3FCFF308A1818181F2F2729EE7D56A35C771F97C5E78F72384920A366D2D628321E7C6C663977A398E55A94849B3CB171440845EAF7FF2C927E76F3636364A18669E7009EED75F7F5DB859575777E2C489D1D1D17C3EDFDDDDFDE74796E94AB27136F3CB11269779C4B94178F7EBF57A83C1
310
B0FAB1650E0A20E2C2850BC160D06C362384689A665956A3D1AC5BB76E9159060606222882109A425395A8528BB44B2E258552299422113981261E420F916805FFA4E3F1B8D168148EF05A7829319B67536CE76E2E3C6DADF3B1548130585454545C5CBCFC4560020A20626A6AEAD34F3F8DC7E3A5A5A5C160309BCD6EDDBA
310
F599679E11EEB5DBEDA25FEED936763BDA9E46691552FD7EF4F740201008046A6B6B474646743A5D6161612291989B9B6B6C6CDCB56B1742A80FF5ED403B14484123BA1015FEF6AFDF8E1F3FAE50280C06C3A54B975A5A5A92C96432996418E6D9679FDDB469D39F97D5D7D7575F5F7FF8F061D1FC6A83D1D1B83D7533CE92
310
64B14D7CB31510400144984C268BC5C2B26C3A9DAEA9A979EFBDF7842D39D96C966559E1ABC8421AA4A1111D42213BB2BB5C2E96659D4EA75EAF5FBF7E3D4DD304419496962A954AABD52A3CDE899C31149B41333114AB437576BBBDB9B959A9541A8DC6CD9B37731CC7719CF048D18BA51E3B76EC8B2FBED8B973E7A953A7
310
4C26D38D1B37DC6EB75EAFFFE0830FAE8C8C249349A5524951143F1DB5D99414452512899B376FDE2E3CB6A00022341A4D555595D56A6518269FCF87C361AFD7CBF37C4747C7227335A3661EF12664A210A5F4283D1ECFE24BA944950C624CC8C4235E8BB4757575757575CB0F39BFD169FFFEFD7F1E9F4BA7C381D12A8F27
310
3D9B2009452691604C668AA2E2F1384DD350805B400144CCCCCCD4D6D6CEDF8C46A367CF9E6D6D6D5D7C2E75FF5984900621E4749E09870F1F3E2CFC584B922442C8E7F3EDD8B1E32F3364B3EA73E7D4C2747DFDDFBBBA3299CCE5CB97DD6E774545C5952B57F6EEDD5B5D5D7DBBC58D8E8E1E3A74C86C36070201954A45D3
310
B4B0D262329972B9DC2FC78F1B8DC644226134180885C26C36C31AB02828800887C3B171E3C65B0619863979F2E4ED66191C1C5479BDFFBD71ED5A3416234992E3B8B9B9398D46138FC72F5FBEAC56ABFF320FCFA3F9D3359F3E9DCFE7699AB6DBED994C666A6A8A65D98B172F462291DB2D4EA15034373723846A6A6A84C1
310
C5AF1CDCDBDBBB648731040510E1F57A859D0EB45AEDFC3650BFDF2F9C5EDC6030D4D7D723841289C4F9F3E7857B3B3A3ADC6E374228168B5DB870C160303CF2C8230D0D0D7ABD1E2174EDDAB58989096177FCA6A6268AA2104223232393939308218AA29A9A9AB6FEED6F08A1FEFE7EE1F707BD5EDFD0D0203CF9C9932785
310
F501B7DB2DBCC53D1ECF1F7FFC21DCBB7EFD7AA7D3891072381CE3E3E3C2E0962D5B84F3C05DB97245380EA6BDBDBDA4A4E4FEBE706BD07F000DA44B60D3B274CF0000000049454E44AE426082
  0
ACDSRECORD
 90
        0
  2
AcDbDs::ID
280
    10
320
358
  2
Thumbnail_Data
280
    15
 94
     4268
310
89504E470D0A1A0A0000000D49484452000001000000006A0802000000DC0818B9000000097048597300000EC400000EC401952B0E1B0000105E49444154789CEDDD7B4C53F7DF07F00FA5F4CE296DB19416A4821D8242AC5CCA8617867717DC1AB7E59999913F3617B364FB63BAC52D8BD365FAB75B346EC963D4652CD925
310
7B9C9767B0E4910D1441406CAD562E564AE985527BA1A5177AF9FDF1DD8FC7B8ED3714E8F95ABEAFBFEAF79473DEC5F3A6E79C9ED39376FAF469C00645515AAD16001289443C1EA73B0E3167180C465A5A1A00E874BAB6B63681404077A23F30E90EF0D7EC76FBDEBD7B2B2B2B0140269315171703403018ECEAEA424F5028
310
144B972E0500BFDFDFD3D38306CBCBCB4522110098CD6693C98406D56A35455100603299CC66331AACACACE4F3F900D0DDDD1D08040080CD66D7D4D4A0A99D9D9DA1500800783C5E55551500040281EEEE6E34353F3FBFB0B010007C3EDF8D1B37D0A052A92C28280000B7DBADD3E9D0E0AA55AB32333301606868C862B1A0
310
C1AAAA2A1E8F0700FDFDFD369B0D00B85C6E7575359ADAD1D111894400402010545454A0C1F6F6F6582C06000505054AA51200BC5E6F5F5F1F9A5A5858989F9F0F000F1E3CD0EBF56850A552C9E57200181818B05AAD6850A3D170381C00301A8D0E87030DCA64B2A9A9292693E972B9A2D12800C4E3F1BCBC3C9148E4F3F9
310
5A5B5B8B8A8A00402412C9E5729FCFA7542ADBDADAD0E2D46AB5582CA628CAE974B6B7B78BC5E25028A452A9944A2583C170381C46A311005C2ED7FBEFBF9F9B9BFB58EB4072A4E1F90E60B3D9CE9F3FBF67CF1EBA13A53EBD5EDFDCDC7CF2E449A9540A00454545C5C5C53D3D3D028120140A251209ABD55A5D5D3D383898
310
939373F9F2E5929212AFD7BB7DFBF6A9A9A98B172FDA6CB6D2D2D2B1B13197CB555C5C4C51546E6EEE8F3FFEA8D1687EF8E107B488BB77EFA27120EF000486D6AD5BB761C3869E9E9E929292C9C9C9B2B2B29D3B77F6F6F6AE5EBDDAED76DB6CB665CB960502012E977BE8D0A189890900C8CACAE2F3F9AFBFFEBADD6EA728
310
CAE7F301C0C0C040494949341A7DEDB5D7B2B3B3E97E5933826F01241209DD11168A5F7FFDF5C2850BF178BCB1B1F1D8B16376BBBDBEBE5EA7D30583C1E9D53D9148E8F57AA150F8F00F52148536FC108D4693ECE8B3866F0156AC5841778485E2ADB7DEFAF0C30FD1E35DBB76190C86E97D9294876F0188A4B972E50A3A4E
310
30ADB5B5750EE76FB158D6AF5F3F87339C43F816001D0C2192A0B6B6765E3738EFDEBD3B7F339F2506DD01FE56474707DD1188D4876F01082209F0DD042292EC1A5CE302570CE22118A2805A05ABDC6E3787C3098542E8E3338FC7C3E572B3B2B2D0F35D2E97402060B3D9B4A69E2D7C0B2093C9E88EB0B084205403350090
310
0FF977E00E001C3A7448A7D34D4E4E6A349A6BD7AE69B5DAA1A121A7D3393838C8E7F3EFDCB9535E5EFECC33CF9C3A758AEEEC4F0EDF02B0582C9C779E924C2C162F5AB4685E17910FF9E3307E07EEC420560CC500B07FFF7E168B85A64622118140108944C2E13000B0D96CF480CBE5CE6BAAF9866F010402C123C7E616B2
310
DEDEDECD9B37CFEB228AA00800D6C09AE911854231AF4BC401BE05884422789E3E450B5ADE0C9B9A9AEAEBEB7D3E9FDFEF1789442C162B914864646430188CF97E3B4A1A7C0B303838585F5F4F778A85E4D62D181FFFE3F1E2C55058F8F9E79F1F3D7A342B2BCB62B14824921D3B76F4F5F50D0F0F6FDFBE7DFA93E3A71DBE
310
052092ED4FE79EB4B7B7A307A15088CFE787C3E16834CAE7F3D1B9D9A9811480F85B4CE61FAB073A7B191D0C7D783C05E0FB4158595919DD1188D4876F01C46231DD1188D4876F01082209F02DC0CD9B37E98E40A43E7C0BE0F178E88E40A43E7C0B401049806F01D2D3D3E98E40A43E7C0BB07AF56ABA2310A90FDF021044
310
12E05B80A9A929BA2310A90FDF025CBD7A95EE0844EAC3B700049104A400C482866F01727272E88E40A43E7C0BB06CD932BA2310A90FDF02104412E05B80E9DB3A10C4FCC1B700030303744720521FBE0520882420052016347C0B406E90412401BE0520B748229200DF02104412E05B80E9BBED12C4FCC1B7006EB79BEE08
310
44EAC3B700049104F81680C1C0371B9132F05DC9D6AC59F3CF4F2288D9C1B700049104A400C482866F01BABBBBE98E40A43E7C0B100804E88E40A43E7C0B401049806F01C835C14412E05B00724D309104F81680209200DF02048341BA2310A90FDF02747575D11D81487DF81680209280148058D0F02DC0F2E5CBE98E40A4
310
3E7C0B909D9D4D770422F5E15B008248027C0B60369BE98E40A43E7C0B603299E88E40A43E7C0B401049806F01EEDDBB974824E84E41A4387C0BD0DCDC3C383848770A22C5E15B00A15048770422F5E15B8003070EE4E7E7D39D824871F816C0E57271381CBA5310290EDF02F8FD7EBA2310A90FDF02104412E05B00A9544A
310
770422F5E15B80929212BA2310A90FDF02104412E05B80502844770422F5E15B80CECE4EBA2310A90FDF021044129002CC8D442231363636FDCFFBF7EF3F3C75686868AEB6E80C0683C9647A64FEC8C301881962D21DE06F959696D21DE131ECDFBF3F3333F3E0C183B1586CC3860D76BB9DC7E37DFFFDF70505056FBFFDF6
310
6FBFFD969191F1E5975F3EFBECB3B35CD0A79F7ECA64325B5A5ABEFDF65B9BCDC6E17022910893C98CC562131313E170B8B0B0302D2D6D7474F4CD37DF9C939796DAF02DC0A2458BE88E30533B76EC686969D9B76F1F00343535C5E371BD5E7FE6CC99C3870F6FDBB64DAFD7EBF5FA93274F1E3972E4ECD9B3E3E3E3F7EEDD
310
73B95C0D0D0D172F5E944AA5F5F5F5335F96D3E9DCB871E3F0F0F0D9B367FBFAFA1A1A1A62B1587A7A7A2C169B9A9ABA7DFBB6C3E158BD7AB5DBED260598097C0BF01479E9A597A6DFAF8C46E3962D5B984CA64C263B77EE9C442279FEF9E7994CE6CB2FBF7CF8F0E1969696C6C646AD567BEBD6AD8F3EFA68DBB66D3FFFFC
310
F3575F7DB575EBD6192EEB830F3ED8B46993502874BBDD72B97CEDDAB5D39342A1506969A9DFEFEFE8E8B87DFBF6DCBFCE54846F014646468A8B8BE94E3123BB76EDFAE4934FFE3C1E8D46E1DFB7BC6732FFF8556765653535359D3973A6A5A5E5F8F1E37EBFDFE974CE7C599B366D0280BD7BF7FE87E7A8D56A3E9F3FF379
310
2E64F816E0DEBD7B744778425EAF173D58BC783145517ABD1E007C3EDFC3CF494F4F4F4F4F7F82991F3D7AB4A7A7E7E0C1830C0643A15058AD568542211008EC767B3C1EA728CA62B1A4A7A77774745014158FC77372727C3E9F542A359BCD2A956AF6AF2EC5E05B80A7544343C3EEDDBBF7EEDD7BE9D2A5BABABABABABA5D
310
BB760D0F0F9F3871A2A1A161F6F377381CDF7DF7DDE1C38763B198C160C8CBCBB3582C2B57AE3C7FFEBC5C2E37180CCB972FF7F97C656565CDCDCD0A85E2E6CD9B353535C160D068345EBA7489CBE5CE3E432A218741E78652A9542A9500A0D168DE7BEFBDC6C6C6482472E4C891B56BD77EF6D9678D8D8DA3A3A3C78E1D53
310
A95468733F272707DD0061D9B2658F752B908989897DFBF6DDBF7FDF62B1C4E371AD56AB56AB2F5CB8F0EEBBEF1A0C062E97BB72E54AA15068369B63B198CFE7CBCDCDADA8A8A028CAE3F1783C9EF979F54FB1B4D3A74FD39DE1FF5114A5D56A01C066B38D8C8C545757D39D0817ADADAD7575750070EEDCB9B9BA58341289
310
6CDAB449AFD79B4C268AA2E6649E7FC962B1AC5FBF3E37371700743A5D5B5B9B402098BFC53D167C3781FAFBFB272727E94E31536EB71B5577BE098542D484D96B6D6D450F6A6B6BD19EFA3CB97BF7EEFCCD7C96F02D405555D5D37214081E5A9988A70BBE053873E6CC73CF3D47778A99B25AAD73F58739657CF3CD374AA5
310
B2B6B696EE20FF09BE05387AF428DD111EC3BA75EBF6ECD943770ABC2C59B2645E772DE604390A44CC8B44222191489A9A9AE80EF20FF07D07A8A9A9C9CBCBA33BC54C3D455B6BC9E1F7FB793C9E46A3C1FCC2267C0B70FAF4E9A76827987844666666666626FE5F6D866F018819B25AAD1D1D1D1B376E7CE20D6EABD53AAF
310
37A575381CD8EE0CE05B8070384C7784A7834EA73B7EFCF88E1D3B9E780E376FDE8C46A3E5E5E5C160301C0EB3D96CA9549A969666369B592C1697CB0D85421C0E87CD66A3EFEAEBECEC542814972F5F160A8519191952A974747414FDC977B95C9999995EAF373D3D9DC3E1783C1E954A85F337FCE15B806BD7AE959797D3
310
9DE229A05028944AE5E8E8A842A178B23984C3E1A6A6A68A8A0ABD5E8FD6F59F7EFA89C3E1FCF2CB2F274E9CD8BC797367672797CBDDBA752BBAE6C162B11415154D5F9576E7CE1DA5522993C9EC763B9FCF67B359D912713832150E87442291582CC6F9766FF8168098A1B2B2B253A74ECD660EBDBDBD42A1D068341E3F7E
310
BCB0B0707A3C2F2FAFB2B2727C7CFCEAD5AB8FFC88582CAEADAD552814C160106D3E2D5AB488CD660380BDDFD0FDBF4D5BFEEBED2B3FFD7775D90669E5B3E49360026B52A9542C16531475FDFAF5D6D6D6E5CB976B341A001089444B962C110A856D6D6D6BD6AC79F847743ADD8103072412C9D8D8D8962D5B7A7B7BBFF8E2
310
0BB95C0E00D7AEFEECB19B19E1F09873A4E3E6FFBD5839DBAB40E715BE0540BF4D2209E472B9C7E389C7E3F178DC60300885425480C9C949A7D3E9743A190CC6230570B95C232323E3E3E32525251E8F67CB962DD3FF5FF9B225CB7872E78FDF3D2B5F1110E27EF635BE0520576F244D575797442291C964434343696969CD
310
CDCD972F5FCECECEAEABAB7BF5D557D1731E3ED9696262223B3B7BC58A155EAFB7BEBEFE91CBD394598AD18EFF49D8C7228A5CD9D2CDC97C214F00DF025CBF7EDD66B3D19D02173C1E0F3D70B95C7375E2DDF4A1CFFEFEFEB4B4340018191991CBE51445854221A150C86030E2F1389A241289DE79E71DF4FCD6D6D6254B96
310
34363602405959D923B36595AE9029959EAE6BB22A8D2013F7DBFCE05B80DCDC5C727AD99FCDE670E7DF91C9641C0E271C0EA36F9778E38D37962E5D2A10086EDDBA850EC46565653D7231CDC8C888D16854A9545F7FFDF5D8D898D3E9CCCECEDEBD7B77696969243C35198ADE4BCFC8B6D8296A52AE78922B3F9306DF020C
310
0D0DAD5FBF9EEE140B85C3E1C8CFCF5FBC78B1CFE7EBEBEBDBBE7D7B201078F81ACE47AEC251ABD568A37FDDBA75E170D8E3F1F0783C8944C2CEC88806023C06B3EC99152C2E270DD2E221AC3FCFC1B70044D2844221B7DB8D56F1E1E1E1FBF7EFBFF0C20BB9B9B94AA5F2E38F3F6630FEE28CC9898909B3D94C5194D96C7E
310
F8FD81A228AFD73B3515894663128924140CF20582ACACACA4BE9EC7816F01060707DBDBDBE94E91FAD0B77471B95C168B850E0745221100282B2BABAEAEFEF3270000A0D7EBDD6E777777F7EDDBB7DD6E3793C964B1585353531919190281606262221E8FCB64320060301856AB55ABD5BEF8E28BC97E6133836901643299
310
56AB459744CA643274565C3018ECEAEA424F5028144B972E0500BFDFDFD3D38306CBCBCB4522110098CD6693C98406D56A353A11C5643299CD663458595989BE39A7BBBB3B100800009BCDAEA9A941533B3B3BD1398C3C1EAFAAAA0A000281407777379A9A9F9F8F3E2DF2F97C376EDC40834AA5B2A0A00000DC6EB74EA743
310
83151515E8E2D7A1A1218BC58206ABABABD15733F4F7F7A3BD7C2E973B7DF5734747075AFF0402414545051A6C6F6F8FC56200505050802EBDF77ABD7D7D7D686A6161213AE7ECC18307E82B580040A552A14D94818101ABD58A06351A0D3A2BC168343A1C0E34F8CA2BAFECDCB91300AE5CB9128D46D7AE5D4B51945AAD46
310
537FFFFD7774BB72914884F607E2F1383A4BA5BEBE7ECF9E3DE8E3E7F1F17183C1807EA4B8B818ADFD0E87C36834A241B158FC0FFFE534F917B164F56C6869EDB20000000049454E44AE426082
  0
ACDSRECORD
 90
        0
  2
AcDbDs::ID
280
    10
320
3AC
  2
Thumbnail_Data
280
    15
 94
     3147
310
89504E470D0A1A0A0000000D49484452000001000000006A0802000000DC0818B9000000097048597300000EC400000EC401952B0E1B00000BFD49444154789CEDDD5B4C1B571E06F0638FC76303C636061BC2CD10D6606C08218B42C2259017B64DB69582A208A54855A4A895F2D04A7D885455AA9287A80FAD52A995A2AD
310
16958755515435484DDB68579B5D474D20452135095747A9695CC0C6CEF8C2CD1ECFD8FB3095E59209215960C639FFDF13631F7B3E2E1F1ECF8CCFC8FAFBFB11400821E4F1783EF8E0038410C7716267D94604412084BEF8E20B8AA2C4CE223E85D801A4A8AFAFCF6AB58A9D628B399DCE868686E9E9E9D3A74F8B9D4542A0
310
00022C164B5B5B9BD829B618C7716D6D6D2FF78BDB0B908B1D0000314101F0929F9F2F7604698102E0C56EB78B1D415AA000006B5000BC2C2E2E8A1D415AA00078999C9C143B82B4400100D6A000006B5000BCD4D4D4881D415AA00078292C2C143B82B4400100D6A00078999898103B82B44001F0E2F7FBC58E202D500080
310
352800C01A14002F2FDFE71CFE4F5000BCF09F8704295000803528005E9C4EA7D811A4050A8097502824760469810200AC4101F0623018C48E202D5000BCD4D5D5891D415AA000006B5000BC300C237604698102E065686848EC08D202050058830200AC4101F0525D5D2D7604698102E0A5A8A848EC08D2020500588302E0
310
657E7E5EEC08D20205C08BCBE5123B82B4400100D6E0124902A6A7A7C58EF06C2B2B2B478E1C113B45C6830208A8A9A9E9E8E8103BC533381C8E1778546B6BEB5607C96CB00984178502FEE5FD011400600D0A8097B1B131B123480B14002FC16050EC08D2020500588302E0452E87DFF81FC08F032FEDEDED624790162800
310
C01A14002FF1785CEC08D20205C0CBAD5BB7C48E202D500080352800C01A14002F269349EC08D20205C08BD56A153B82B4400100D6A00078595858103B82B44001F032333323760469810200AC410100D6A00078B1DBED6247901628005EF2F3F3C58E202D500080359823E0B90D0E0E7EF5D557C160D06C36D7D5D5BDF3CE
310
3B62277A0EF7EEDDABAFAF173B858440019E9B5AAD361A8DD5D5D5244966DC64CB344D8B1D415AA000023EFAE8A373E7CEA516C3E1B04EA74B1FD0D5D575F6ECD91DCF05B61E144080D56ACDCBCB4B5F5CF7DEB1ACAC6CC7436D0D994C2676046981020878FDF5D7A53F35E28B3974E890D811A405F60201ACC12B80848442
310
A19B376F5654545CBE7CF9D4A953DF7EFB6D7D7DFD06AF451CC75DBA748924C9B2B2B26432190804AAAAAA0A0B0B2B2B2B77307566830248C8D5AB57C7C7C7BFF9E69BDEDEDE9E9E9E3367CE7CF7DD775F7EF92549928140E0C2850BB5B5B5E9E31389442010B87EFDBADD6E9F9C9CA4695AAFD79F3A756A83028C8E8EEEDB
310
B76FFBBF958C01059090DEDEDE73E7CEC5623184D0AFBFFE4A51944AA5F2783C6AB5FABDF7DEF3783CEB0A4010446969E9850B17A2D1E85B6FBDC530CCD8D898CFE7BB7EFDBA4EA7339BCD068361DD2A96969676EEFBC904500069A9ADADEDEAEABA72E5CAB56BD7FAFBFB9B9B9B4992542A9546A39165D975831389C4F7DF
310
7FDFD7D797959565341A7FFCF1C7CACACA898989828202954A75F6ECD9C3870FCBE57238FD6103500001E95788F17ABDE7CF9F5F37E0D34F3F552A95DBB16AABD56AB7DB9B9B9B1142172F5EDC78703299ECEEEEDEBB77EFD3060402819F7FFEF9E4C993A95B8C46E356457D394001040C0F0FDFBD7B97FF3A180CD6D6D652
310
1495BA97A6E98181019224B763D5478F1E7DAE1336CD66F3BAEDA275161717D317371E8C21288080F1F1F14020905AFCFCF3CF351A4D6A717676F6C30F3FDCA655BFF6DA6BDBF4CC40101440C0279F7CB2F181B037DF7C7387A26C0ECBB2B76FDFDECCF5BFD6D6D6D46AF50E44CA147020EC65108FC72F5FBEBC99913FFDF4
310
D37687C92C508097815AADFEECB3CFC44E9191601348C0DCDCDCC4C484D8299EC1EFF72384DC6EF7BA3355D7F9EDB7DF762A5146820208C8CDCD95FEEEC29292128542D1D5D5B5F1B0575E79257DD166B36D67A8CC030510A0D1680A0A0AC44EB129CF9B3353BEAF1D03EF0100D6A0007879F4E891D811A4050A80975F7EF9
310
45EC08D202050058830200AC4101F0F2B27ED6F985410100D6A000006B5000BC8C8E8E8A1D415AA0007881CF04AF030500588302E0659B3EC999B9A00078696969113B82B4C0D9A002D26785D8A4C5C5C59D3C837A717151AD562B954A7EB25B9224E3F1B8DFEF371A8D2449320C138BC5341A0DC3300A8562656585208847
310
8F1EC141802741010498CDE6603078F0E0419AA6D56AF5C8C8486363233F3FCFD32E08E07038F47ABD4C26D36AB52A956A7E7E3E272787A669B3D9ECF3F9F47ABDC160A0699AE3B8959515A3D1E8F7FBE57279281492C964D16874F7EEDDC5C5C5CF0C168D4611422A95CAE170D0347DEBD62DBE005EAFD76432CDCFCF9794
310
945014158D468D466324128946A32449CA64B2CECECE9A9A1AFE19542AD596FEB4321B1440C0D2D2527F7FFFD0D090CD66D36AB53FFCF0C3D0D0504343435E5EDE06B336D0347DFEFC799D4ED7D2D2525E5ECEB2ECE0E0A052A92449323B3BBBA2A2E2CE9D3B06838161188BC5323333F3F8F1E3F2F2F2E9E9E96432F9F6DB
310
6F6FA6005F7FFDF5EEDDBB0F1E3C88103A76ECD8B163C70487711C3733F29FAAC6B685D949059328AEFB3342C8E17020846EDFBE0DAF03E9A00002E2F13849921445B12C6BB15842A1503299ECE8E8309BCD1B3CAAB3B3B3B3B333FD969E9E9EAD0D66B3D952A7730E0D0D5DBA74092164B55A17161642A1504F4FCFABAFBE
310
8A101AFFF7E0F4E03FB4FAC29981BF730AC52EFB3EB82CC0D3400104E4E6E6BEF1C61B0CC320845657577B7B7B63B1184110E2A60A87C3E5E5E5C3C3C3C9641221E4F57A239148381CE638CEE7F31D3870A0ADAD8D1FB92C67570BF2D8B9F9D2DAA6FF4EFE87E358850276FE08830208C8C9C9397AF4686AB1A9A949C43029
310
5AAD162174E6CC197E311C0E87C3E1442291979777F1E245922453B377156717C6426CF4DA55261E6D2FFD53FA5FFFAE5DBB763EB994410104DCBB776F6E6E8E9F6D81A6699665298ADAF84F676C6CCC8DDC59286B15AD9A90290B653D732D2B6865112D3288D123BD1EE949F41CFFA443A1104248A9542E2D2D592C1693C9
310
947EAFD15A17FCCB5F39AFBF604F03ABFEC35B5E8BC5B2F9B5E0000A20C0E7F37DFCF1C7A150A8A8A8686E6E2E168B353737777777F3F79A4C26C18DFB6847B41DB54751741ECDCFFD73CEED76BBDD6EBBDDEE72B9B2B3B3F57A7D2412595B5B6B6A6AE2676A70204737EA4EA0441005B351B6F35FCE1B376EC8E5728D4633
310
3939D9DADABABCBCBCBCBCCC30CCF1E3C7EBEAEAD2D7E570388E1C3972E2C40996659F3CB6A5D4E49634B5AC84432C49E61B33EC3A963B0C0A2040ABD51A0C069665575757ABABABDF7FFF7D7E4F4E2C16635996DF147952312A9E42532AA4E210575656C6B26C6969694E4E4E6565254DD33299ACA8A8882088D4BC0C1664
310
59400B14A2FCC89F85B24C26D3FEFDFB0982C8CDCDADAFAFE7388EE3387EA45C2E70BC726060A0AFAFAFA3A3C3E572151717BBDD6E954AB577EFDE77DF7DF781CBB5BCBC4C10845AAD4EFA034623919A0ED1E3F19496966EC3CF2C534101045014555555555050C0304C2291F07ABD369B2D994CF2FB589EA61A5533882110
310
A1466A644556AB75E3B514A2423DD2CB906C17DAA5444AD31ED39E3D7B361FF2E4C993C78F1F27493291481004914C26F95D3D4C2CE675CF5659ADAB4B1152268F46228C56972AC0C3870FA100E9A000021E3F7E9C3E47792010181D1D4DED63791AE5F0E8EF970C282DBDE3F55EB972853F58CB6FA23434341C3E7C387DBC
310
3C1657DF75FEBED0D8F8B7FEFE68343A3535555E5E5E5151F1E0C18313274E6CB0C9EEF178060606743A9DDBED562814344DF36F5AB45A6D3C1EBF76E3466E6E6E2412C9D5686472B94EA78329B1044101049494943C398F3EC330376FDE7CDA43EEDFBFAF48FD853D7C1808064992E4386E6D6D8DA2A85028343535B5FE9A
310
1AC9248AC77FFF7A64249148D0346D3299A2D1A8CFE76359767C7C7CDDECFEE9AB93CBE5FBF7EF4708555757F337CECECE6E70A4C2E572C121B027410104D86C36FEA483ACACACD43ED0C9C9497E3A4E84505B5B1BBF5D7EFFFE7D9AA6F98734B7B7F3F73A9D4E0DCBB6B7B72B148AD4C967A3A3A3CBCBCB08218AA2F80BC0
310
2084464646D6D6D61042590AC5E9D3A7F91B878787F943101A8DA6B1B191BF31B52284D0A14387F867703A9DE17018214410446B6B6B7B7B7BFA8A944AE5810307522BAAAAAA72381C701EC43AFF03E9FBF607EAB307CD0000000049454E44AE426082
  0
ENDSEC
  0
EOF
