  0
SECTION
  2
HEADER
  9
$ACADVER
  1
AC1032
  9
$ACADMAINTVER
 90
       55
  9
$DWGCODEPAGE
  3
ANSI_1252
  9
$LASTSAVEDBY
  1
eac573
  9
$REQUIREDVERSIONS
160
                 0
  9
$INSBASE
 10
0.0
 20
0.0
 30
0.0
  9
$EXTMIN
 10
459478.372798
 20
233455.003816
 30
0.0
  9
$EXTMAX
 10
467616.447315
 20
238939.725584
 30
136.517525
  9
$LIMMIN
 10
0.0
 20
0.0
  9
$LIMMAX
 10
0.0
 20
0.0
  9
$ORTHOMODE
 70
     0
  9
$REGENMODE
 70
     1
  9
$FILLMODE
 70
     1
  9
$QTEXTMODE
 70
     0
  9
$MIRRTEXT
 70
     1
  9
$LTSCALE
 40
0.1
  9
$ATTMODE
 70
     1
  9
$TEXTSIZE
 40
0.2
  9
$TRACEWID
 40
0.05
  9
$TEXTSTYLE
  7
STANDARD
  9
$CLAYER
  8
CONTEXT
  9
$CELTYPE
  6
ByLayer
  9
$CECOLOR
 62
     0
  9
$CELTSCALE
 40
1.0
  9
$DISPSILH
 70
     0
  9
$DIMSCALE
 40
1.0
  9
$DIMASZ
 40
0.18
  9
$DIMEXO
 40
0.0625
  9
$DIMDLI
 40
0.38
  9
$DIMRND
 40
0.0
  9
$DIMDLE
 40
0.0
  9
$DIMEXE
 40
0.18
  9
$DIMTP
 40
0.0
  9
$DIMTM
 40
0.0
  9
$DIMTXT
 40
0.18
  9
$DIMCEN
 40
0.09
  9
$DIMTSZ
 40
0.0
  9
$DIMTOL
 70
     0
  9
$DIMLIM
 70
     0
  9
$DIMTIH
 70
     1
  9
$DIMTOH
 70
     1
  9
$DIMSE1
 70
     0
  9
$DIMSE2
 70
     0
  9
$DIMTAD
 70
     0
  9
$DIMZIN
 70
     0
  9
$DIMBLK
  1

  9
$DIMASO
 70
     1
  9
$DIMSHO
 70
     1
  9
$DIMPOST
  1

  9
$DIMAPOST
  1

  9
$DIMALT
 70
     0
  9
$DIMALTD
 70
     2
  9
$DIMALTF
 40
25.4
  9
$DIMLFAC
 40
1.0
  9
$DIMTOFL
 70
     0
  9
$DIMTVP
 40
0.0
  9
$DIMTIX
 70
     0
  9
$DIMSOXD
 70
     0
  9
$DIMSAH
 70
     0
  9
$DIMBLK1
  1

  9
$DIMBLK2
  1

  9
$DIMSTYLE
  2
ISO-25
  9
$DIMCLRD
 70
     0
  9
$DIMCLRE
 70
     0
  9
$DIMCLRT
 70
     0
  9
$DIMTFAC
 40
1.0
  9
$DIMGAP
 40
0.09
  9
$DIMJUST
 70
     0
  9
$DIMSD1
 70
     0
  9
$DIMSD2
 70
     0
  9
$DIMTOLJ
 70
     1
  9
$DIMTZIN
 70
     0
  9
$DIMALTZ
 70
     0
  9
$DIMALTTZ
 70
     0
  9
$DIMUPT
 70
     0
  9
$DIMDEC
 70
     3
  9
$DIMTDEC
 70
     3
  9
$DIMALTU
 70
     2
  9
$DIMALTTD
 70
     2
  9
$DIMTXSTY
  7
STANDARD
  9
$DIMAUNIT
 70
     0
  9
$DIMADEC
 70
     0
  9
$DIMALTRND
 40
0.0
  9
$DIMAZIN
 70
     0
  9
$DIMDSEP
 70
    46
  9
$DIMATFIT
 70
     3
  9
$DIMFRAC
 70
     0
  9
$DIMLDRBLK
  1

  9
$DIMLUNIT
 70
     2
  9
$DIMLWD
 70
    -2
  9
$DIMLWE
 70
    -2
  9
$DIMTMOVE
 70
     2
  9
$DIMFXL
 40
1.0
  9
$DIMFXLON
 70
     0
  9
$DIMJOGANG
 40
0.7853981633974483
  9
$DIMTFILL
 70
     0
  9
$DIMTFILLCLR
 70
     0
  9
$DIMARCSYM
 70
     0
  9
$DIMLTYPE
  6

  9
$DIMLTEX1
  6

  9
$DIMLTEX2
  6

  9
$DIMTXTDIRECTION
 70
     0
  9
$LUNITS
 70
     2
  9
$LUPREC
 70
     3
  9
$SKETCHINC
 40
0.1
  9
$FILLETRAD
 40
0.5
  9
$AUNITS
 70
     0
  9
$AUPREC
 70
     4
  9
$MENU
  1
.
  9
$ELEVATION
 40
0.0
  9
$PELEVATION
 40
0.0
  9
$THICKNESS
 40
0.0
  9
$LIMCHECK
 70
     0
  9
$CHAMFERA
 40
0.0
  9
$CHAMFERB
 40
0.0
  9
$CHAMFERC
 40
0.0
  9
$CHAMFERD
 40
0.0
  9
$SKPOLY
 70
     0
  9
$TDCREATE
 40
2459529.705443461
  9
$TDUCREATE
 40
2459529.663776794
  9
$TDUPDATE
 40
2460088.581887593
  9
$TDUUPDATE
 40
2460088.540220926
  9
$TDINDWG
 40
0.030521088
  9
$TDUSRTIMER
 40
0.0004230556
  9
$USRTIMER
 70
     1
  9
$ANGBASE
 50
0.0
  9
$ANGDIR
 70
     0
  9
$PDMODE
 70
     2
  9
$PDSIZE
 40
0.1
  9
$PLINEWID
 40
0.0
  9
$SPLFRAME
 70
     0
  9
$SPLINETYPE
 70
     6
  9
$SPLINESEGS
 70
     8
  9
$HANDSEED
  5
525
  9
$SURFTAB1
 70
     6
  9
$SURFTAB2
 70
     6
  9
$SURFTYPE
 70
     6
  9
$SURFU
 70
     6
  9
$SURFV
 70
     6
  9
$UCSBASE
  2

  9
$UCSNAME
  2

  9
$UCSORG
 10
0.0
 20
0.0
 30
0.0
  9
$UCSXDIR
 10
1.0
 20
0.0
 30
0.0
  9
$UCSYDIR
 10
0.0
 20
1.0
 30
0.0
  9
$UCSORTHOREF
  2

  9
$UCSORTHOVIEW
 70
     0
  9
$UCSORGTOP
 10
0.0
 20
0.0
 30
0.0
  9
$UCSORGBOTTOM
 10
0.0
 20
0.0
 30
0.0
  9
$UCSORGLEFT
 10
0.0
 20
0.0
 30
0.0
  9
$UCSORGRIGHT
 10
0.0
 20
0.0
 30
0.0
  9
$UCSORGFRONT
 10
0.0
 20
0.0
 30
0.0
  9
$UCSORGBACK
 10
0.0
 20
0.0
 30
0.0
  9
$PUCSBASE
  2

  9
$PUCSNAME
  2

  9
$PUCSORG
 10
0.0
 20
0.0
 30
0.0
  9
$PUCSXDIR
 10
1.0
 20
0.0
 30
0.0
  9
$PUCSYDIR
 10
0.0
 20
1.0
 30
0.0
  9
$PUCSORTHOREF
  2

  9
$PUCSORTHOVIEW
 70
     0
  9
$PUCSORGTOP
 10
0.0
 20
0.0
 30
0.0
  9
$PUCSORGBOTTOM
 10
0.0
 20
0.0
 30
0.0
  9
$PUCSORGLEFT
 10
0.0
 20
0.0
 30
0.0
  9
$PUCSORGRIGHT
 10
0.0
 20
0.0
 30
0.0
  9
$PUCSORGFRONT
 10
0.0
 20
0.0
 30
0.0
  9
$PUCSORGBACK
 10
0.0
 20
0.0
 30
0.0
  9
$USERI1
 70
     0
  9
$USERI2
 70
     0
  9
$USERI3
 70
     0
  9
$USERI4
 70
     0
  9
$USERI5
 70
     0
  9
$USERR1
 40
0.0
  9
$USERR2
 40
0.0
  9
$USERR3
 40
0.0
  9
$USERR4
 40
0.0
  9
$USERR5
 40
0.0
  9
$WORLDVIEW
 70
     1
  9
$SHADEDGE
 70
     3
  9
$SHADEDIF
 70
    70
  9
$TILEMODE
 70
     1
  9
$MAXACTVP
 70
    64
  9
$PINSBASE
 10
0.0
 20
0.0
 30
0.0
  9
$PLIMCHECK
 70
     0
  9
$PEXTMIN
 10
1.05
 20
0.6999999999999997
 30
0.0
  9
$PEXTMAX
 10
9.45
 20
6.300000000000001
 30
0.0
  9
$PLIMMIN
 10
0.0
 20
0.0
  9
$PLIMMAX
 10
0.0
 20
0.0
  9
$UNITMODE
 70
     0
  9
$VISRETAIN
 70
     1
  9
$PLINEGEN
 70
     1
  9
$PSLTSCALE
 70
     1
  9
$TREEDEPTH
 70
  3020
  9
$CMLSTYLE
  2
Standard
  9
$CMLJUST
 70
     0
  9
$CMLSCALE
 40
1.0
  9
$PROXYGRAPHICS
 70
     1
  9
$MEASUREMENT
 70
     0
  9
$CELWEIGHT
370
    -1
  9
$ENDCAPS
280
     0
  9
$JOINSTYLE
280
     0
  9
$LWDISPLAY
290
     0
  9
$INSUNITS
 70
     0
  9
$HYPERLINKBASE
  1

  9
$STYLESHEET
  1

  9
$XEDIT
290
     1
  9
$CEPSNTYPE
380
     0
  9
$PSTYLEMODE
290
     1
  9
$FINGERPRINTGUID
  2
{0408fd2b-59a8-46f7-9fe9-0872e04bdc9f}
  9
$VERSIONGUID
  2
{FAEB1C32-E019-11D5-929B-00C0DF256EC4}
  9
$EXTNAMES
290
     1
  9
$PSVPSCALE
 40
0.0
  9
$OLESTARTUP
290
     0
  9
$SORTENTS
280
   127
  9
$INDEXCTL
280
     0
  9
$HIDETEXT
280
     1
  9
$XCLIPFRAME
280
     2
  9
$HALOGAP
280
     0
  9
$OBSCOLOR
 70
   257
  9
$OBSLTYPE
280
     0
  9
$INTERSECTIONDISPLAY
280
     0
  9
$INTERSECTIONCOLOR
 70
   257
  9
$DIMASSOC
280
     2
  9
$PROJECTNAME
  1

  9
$CAMERADISPLAY
290
     0
  9
$LENSLENGTH
 40
50.0
  9
$CAMERAHEIGHT
 40
0.0
  9
$STEPSPERSEC
 40
2.0
  9
$STEPSIZE
 40
6.0
  9
$3DDWFPREC
 40
2.0
  9
$PSOLWIDTH
 40
0.25
  9
$PSOLHEIGHT
 40
4.0
  9
$LOFTANG1
 40
1.570796326794897
  9
$LOFTANG2
 40
1.570796326794897
  9
$LOFTMAG1
 40
0.0
  9
$LOFTMAG2
 40
0.0
  9
$LOFTPARAM
 70
     7
  9
$LOFTNORMALS
280
     1
  9
$LATITUDE
 40
37.795
  9
$LONGITUDE
 40
-122.394
  9
$NORTHDIRECTION
 40
0.0
  9
$TIMEZONE
 70
 -8000
  9
$LIGHTGLYPHDISPLAY
280
     1
  9
$TILEMODELIGHTSYNCH
280
     1
  9
$CMATERIAL
347
41A
  9
$SOLIDHIST
280
     0
  9
$SHOWHIST
280
     1
  9
$DWFFRAME
280
     2
  9
$DGNFRAME
280
     2
  9
$REALWORLDSCALE
290
     1
  9
$INTERFERECOLOR
 62
   256
  9
$CSHADOW
280
     0
  9
$SHADOWPLANELOCATION
 40
0.0
  0
ENDSEC
  0
SECTION
  2
CLASSES
  0
CLASS
  1
ACDBDICTIONARYWDFLT
  2
AcDbDictionaryWithDefault
  3
ObjectDBX Classes
 90
        0
 91
        3
280
     0
281
     0
  0
CLASS
  1
MATERIAL
  2
AcDbMaterial
  3
ObjectDBX Classes
 90
     1153
 91
        3
280
     0
281
     0
  0
CLASS
  1
SCALE
  2
AcDbScale
  3
ObjectDBX Classes
 90
     1153
 91
        3
280
     0
281
     0
  0
CLASS
  1
VISUALSTYLE
  2
AcDbVisualStyle
  3
ObjectDBX Classes
 90
     4095
 91
        3
280
     0
281
     0
  0
CLASS
  1
TABLESTYLE
  2
AcDbTableStyle
  3
ObjectDBX Classes
 90
     4095
 91
        3
280
     0
281
     0
  0
CLASS
  1
MLEADERSTYLE
  2
AcDbMLeaderStyle
  3
ACDB_MLEADERSTYLE_CLASS
 90
     4095
 91
        3
280
     0
281
     0
  0
CLASS
  1
DICTIONARYVAR
  2
AcDbDictionaryVar
  3
ObjectDBX Classes
 90
        0
 91
        3
280
     0
281
     0
  0
CLASS
  1
SUN
  2
AcDbSun
  3
SCENEOE
 90
     1153
 91
        3
280
     0
281
     0
  0
CLASS
  1
CELLSTYLEMAP
  2
AcDbCellStyleMap
  3
ObjectDBX Classes
 90
     1152
 91
        3
280
     0
281
     0
  0
ENDSEC
  0
SECTION
  2
TABLES
  0
TABLE
  2
VPORT
  5
3FA
330
0
100
AcDbSymbolTable
 70
     1
  0
VPORT
  5
411
330
3FA
100
AcDbSymbolTableRecord
100
AcDbViewportTableRecord
  2
*ACTIVE
 70
     0
 10
0.0
 20
0.0
 11
1.0
 21
1.0
 12
459515.8530978647
 22
238898.9941401212
 13
0.0
 23
0.0
 14
10.0
 24
10.0
 15
10.0
 25
10.0
 16
0.0
 26
0.0
 36
1.0
 17
0.0
 27
0.0
 37
0.0
 40
83.34920701521827
 41
2.307936507936508
 42
50.0
 43
0.0
 44
0.0
 50
0.0
 51
0.0
 71
    16
 72
   100
 73
     1
 74
     3
 75
     0
 76
     0
 77
     0
 78
     0
281
     0
 65
     0
110
0.0
120
0.0
130
0.0
111
1.0
121
0.0
131
0.0
112
0.0
122
1.0
132
0.0
 79
     0
146
0.0
348
44D
 60
     3
 61
     5
292
     1
282
     1
141
0.0
142
0.0
 63
   256
361
4F3
  0
ENDTAB
  0
TABLE
  2
LTYPE
  5
3F7
330
0
100
AcDbSymbolTable
 70
     6
  0
LTYPE
  5
405
330
3F7
100
AcDbSymbolTableRecord
100
AcDbLinetypeTableRecord
  2
ByBlock
 70
     0
  3

 72
    65
 73
     0
 40
0.0
  0
LTYPE
  5
406
330
3F7
100
AcDbSymbolTableRecord
100
AcDbLinetypeTableRecord
  2
ByLayer
 70
     0
  3

 72
    65
 73
     0
 40
0.0
  0
LTYPE
  5
407
330
3F7
100
AcDbSymbolTableRecord
100
AcDbLinetypeTableRecord
  2
CONTINUOUS
 70
     0
  3
Solid line
 72
    65
 73
     0
 40
0.0
  0
LTYPE
  5
413
330
3F7
100
AcDbSymbolTableRecord
100
AcDbLinetypeTableRecord
  2
SOLID_LINE
 70
     0
  3
Solid Line
 72
    65
 73
     0
 40
0.0
  0
LTYPE
  5
414
330
3F7
100
AcDbSymbolTableRecord
100
AcDbLinetypeTableRecord
  2
DASHED_LINE
 70
     0
  3
Dashed Line
 72
    65
 73
     2
 40
0.75
 49
0.5
 74
     0
 49
-0.25
 74
     0
  0
LTYPE
  5
415
330
3F7
100
AcDbSymbolTableRecord
100
AcDbLinetypeTableRecord
  2
DOTTED_LINE
 70
     0
  3
Dotted Line
 72
    65
 73
     2
 40
0.25
 49
0.0
 74
     0
 49
-0.25
 74
     0
  0
LTYPE
  5
416
330
3F7
100
AcDbSymbolTableRecord
100
AcDbLinetypeTableRecord
  2
DASHDOT_LINE
 70
     0
  3
DashDot Line
 72
    65
 73
     4
 40
18.0
 49
12.0
 74
     0
 49
-3.0
 74
     0
 49
0.0
 74
     0
 49
-3.0
 74
     0
  0
LTYPE
  5
417
330
3F7
100
AcDbSymbolTableRecord
100
AcDbLinetypeTableRecord
  2
DASHDOTDOT_LINE
 70
     0
  3
DashDotDot Line
 72
    65
 73
     6
 40
21.0
 49
12.0
 74
     0
 49
-3.0
 74
     0
 49
0.0
 74
     0
 49
-3.0
 74
     0
 49
0.0
 74
     0
 49
-3.0
 74
     0
  0
ENDTAB
  0
TABLE
  2
LAYER
  5
3F5
102
{ACAD_XDICTIONARY
360
466
102
}
330
0
100
AcDbSymbolTable
 70
     9
  0
LAYER
  5
402
330
3F5
100
AcDbSymbolTableRecord
100
AcDbLayerTableRecord
  2
0
 70
     0
 62
    -7
  6
CONTINUOUS
370
    -3
390
401
347
41C
348
0
  0
LAYER
  5
41D
330
3F5
100
AcDbSymbolTableRecord
100
AcDbLayerTableRecord
  2
POINT_CODE
 70
     0
 62
     7
  6
CONTINUOUS
370
    -3
390
401
347
41C
348
0
  0
LAYER
  5
41E
330
3F5
100
AcDbSymbolTableRecord
100
AcDbLayerTableRecord
  2
HEIGHT
 70
     0
 62
    -7
  6
CONTINUOUS
370
    -3
390
401
347
41C
348
0
  0
LAYER
  5
41F
330
3F5
100
AcDbSymbolTableRecord
100
AcDbLayerTableRecord
  2
COORDINATES
 70
     0
 62
    -7
  6
CONTINUOUS
370
    -3
390
401
347
41C
348
0
  0
LAYER
  5
420
330
3F5
100
AcDbSymbolTableRecord
100
AcDbLayerTableRecord
  2
POINT_ID
 70
     0
 62
    -7
  6
CONTINUOUS
370
    -3
390
401
347
41C
348
0
  0
LAYER
  5
46B
330
3F5
100
AcDbSymbolTableRecord
100
AcDbLayerTableRecord
  2
CONTEXT
 70
     0
 62
     7
  6
CONTINUOUS
370
    -3
390
401
347
41C
348
0
1001
AcAecLayerStandard
1000

1000

  0
LAYER
  5
46D
330
3F5
100
AcDbSymbolTableRecord
100
AcDbLayerTableRecord
  2
LIMITS
 70
     0
 62
     7
  6
CONTINUOUS
370
    -3
390
401
347
41C
348
0
1001
AcAecLayerStandard
1000

1000

  0
LAYER
  5
46E
330
3F5
100
AcDbSymbolTableRecord
100
AcDbLayerTableRecord
  2
LABELS
 70
     0
 62
     7
  6
CONTINUOUS
370
    -3
390
401
347
41C
348
0
1001
AcAecLayerStandard
1000

1000

  0
LAYER
  5
46F
330
3F5
100
AcDbSymbolTableRecord
100
AcDbLayerTableRecord
  2
DETAIL
 70
     0
 62
     7
  6
CONTINUOUS
370
    -3
390
401
347
41C
348
0
1001
AcAecLayerStandard
1000

1000

  0
ENDTAB
  0
TABLE
  2
STYLE
  5
3F6
330
0
100
AcDbSymbolTable
 70
     1
  0
STYLE
  5
403
330
3F6
100
AcDbSymbolTableRecord
100
AcDbTextStyleTableRecord
  2
STANDARD
 70
     0
 40
0.0
 41
1.0
 50
0.0
 71
     0
 42
0.2
  3
txt
  4

  0
ENDTAB
  0
TABLE
  2
VIEW
  5
3F8
330
0
100
AcDbSymbolTable
 70
     0
  0
ENDTAB
  0
TABLE
  2
UCS
  5
3F9
330
0
100
AcDbSymbolTable
 70
     0
  0
ENDTAB
  0
TABLE
  2
APPID
  5
3FB
330
0
100
AcDbSymbolTable
 70
     3
  0
APPID
  5
404
330
3FB
100
AcDbSymbolTableRecord
100
AcDbRegAppTableRecord
  2
ACAD
 70
     0
  0
APPID
  5
46C
330
3FB
100
AcDbSymbolTableRecord
100
AcDbRegAppTableRecord
  2
AcAecLayerStandard
 70
     0
  0
APPID
  5
4F6
330
3FB
100
AcDbSymbolTableRecord
100
AcDbRegAppTableRecord
  2
PLOTTRANSPARENCY
 70
     0
  0
ENDTAB
  0
TABLE
  2
DIMSTYLE
  5
3FC
330
0
100
AcDbSymbolTable
 70
     1
100
AcDbDimStyleTable
  0
DIMSTYLE
105
423
330
3FC
100
AcDbSymbolTableRecord
100
AcDbDimStyleTableRecord
  2
ISO-25
 70
     0
 41
2.5
 42
0.625
 43
3.75
 44
1.25
 73
     0
 74
     0
 77
     1
 78
     8
140
2.5
141
2.5
143
0.03937007874016
147
0.625
171
     3
172
     1
178
     0
340
403
  0
ENDTAB
  0
TABLE
  2
BLOCK_RECORD
  5
3F4
330
0
100
AcDbSymbolTable
 70
     2
  0
BLOCK_RECORD
  5
40E
102
{ACAD_XDICTIONARY
360
4F1
102
}
330
3F4
100
AcDbSymbolTableRecord
100
AcDbBlockTableRecord
  2
*Model_Space
340
40F
 70
     0
280
     1
281
     0
  0
BLOCK_RECORD
  5
40C
330
3F4
100
AcDbSymbolTableRecord
100
AcDbBlockTableRecord
  2
*Paper_Space
340
40D
 70
     0
280
     1
281
     0
  0
BLOCK_RECORD
  5
47F
102
{ACAD_XDICTIONARY
360
4A3
102
}
330
3F4
100
AcDbSymbolTableRecord
100
AcDbBlockTableRecord
  2
WGaPnC
340
0
 70
     0
280
     1
281
     0
  0
BLOCK_RECORD
  5
4AA
102
{ACAD_XDICTIONARY
360
4CE
102
}
330
3F4
100
AcDbSymbolTableRecord
100
AcDbBlockTableRecord
  2
AFrXEE
340
0
 70
     0
280
     1
281
     0
  0
ENDTAB
  0
ENDSEC
  0
SECTION
  2
BLOCKS
  0
BLOCK
  5
424
330
40E
100
AcDbEntity
  8
0
100
AcDbBlockBegin
  2
*Model_Space
 70
     0
 10
0.0
 20
0.0
 30
0.0
  3
*Model_Space
  1

  0
ENDBLK
  5
3CD
330
40E
100
AcDbEntity
  8
0
100
AcDbBlockEnd
  0
BLOCK
  5
425
330
40C
100
AcDbEntity
 67
     1
  8
0
100
AcDbBlockBegin
  2
*Paper_Space
 70
     0
 10
0.0
 20
0.0
 30
0.0
  3
*Paper_Space
  1

  0
ENDBLK
  5
3CF
330
40C
100
AcDbEntity
 67
     1
  8
0
100
AcDbBlockEnd
  0
BLOCK
  5
4A6
330
47F
100
AcDbEntity
  8
0
100
AcDbBlockBegin
  2
WGaPnC
 70
     0
 10
0.0
 20
0.0
 30
0.0
  3
WGaPnC
  1

  0
LWPOLYLINE
  5
4A5
330
47F
100
AcDbEntity
  8
CONTEXT
 62
     0
100
AcDbPolyline
 90
       44
 70
   129
 43
0.0
 10
0.0
 20
0.0
 10
1.001018000009935
 20
1.964600999985123
 10
-3.990625999984331
 20
4.764625999989221
 10
-10.29246099997545
 20
8.194290999992518
 10
-15.22838899999624
 20
10.96863699998357
 10
-19.15186500002164
 20
12.98148599997512
 10
-23.33664300001692
 20
15.35820199997397
 10
-28.05479399999604
 20
18.05925500000012
 10
-33.29302400001325
 20
21.04537499998696
 10
-39.09435500000836
 20
24.36162899999181
 10
-44.17366299999412
 20
27.44320599999628
 10
-48.54822300001979
 20
29.96979599999031
 10
-52.4882440000074
 20
32.45148099999642
 10
-55.63160800002515
 20
34.46934899999178
 10
-60.63554300001124
 20
37.34906799998134
 10
-68.81930999999167
 20
42.96369699999923
 10
-76.77721999998903
 20
48.78013199998531
 10
-82.46243399998639
 20
52.95186299999477
 10
-77.4741539999959
 20
60.07014499997604
 10
-72.02272300003096
 20
68.00330499999109
 10
-66.94416200002888
 20
75.24602999998024
 10
-64.58595899998909
 20
79.05637399997795
 10
-65.40105699998094
 20
79.78883599999244
 10
-66.38926600001287
 20
80.39739699999336
 10
-68.00290100002894
 20
78.31045999997878
 10
-72.84335400001146
 20
71.40294599998742
 10
-77.48642700002529
 20
64.59230599997682
 10
-82.2949699999881
 20
57.73990499999491
 10
-85.6885679999832
 20
52.36145699999179
 10
-81.79652199998964
 20
49.2039919999952
 10
-77.24334500002442
 20
45.80056999999215
 10
-72.26882900000783
 20
42.277328999975
 10
-66.45512100000633
 20
38.11978799998178
 10
-60.51101800001925
 20
34.16017999997712
 10
-55.6169579999987
 20
31.22114799998235
 10
-49.02738300000783
 20
27.22508099998231
 10
-42.70160400000168
 20
23.55255699998816
 10
-36.77220200002193
 20
20.04152899998007
 10
-30.464347000001
 20
16.347374999983
 10
-24.20880100002978
 20
12.83288899998297
 10
-18.62153399997624
 20
9.788000000000466
 10
-12.05290900002001
 20
6.267558999999892
 10
-6.579703000024892
 20
3.343530999991344
 10
-2.824814999999944
 20
1.368816000001971
  0
ENDBLK
  5
4A7
330
47F
100
AcDbEntity
  8
0
100
AcDbBlockEnd
  0
BLOCK
  5
4DD
330
4AA
100
AcDbEntity
  8
0
100
AcDbBlockBegin
  2
AFrXEE
 70
     0
 10
0.0
 20
0.0
 30
0.0
  3
AFrXEE
  1

  0
LWPOLYLINE
  5
4D0
330
4AA
100
AcDbEntity
  8
CONTEXT
 62
     0
100
AcDbPolyline
 90
       19
 70
   129
 43
0.0
 38
134.634592
 10
62.95771299995249
 20
0.0
 10
63.32351550360909
 20
0.2072294295358006
 10
63.45489899994573
 20
0.3608550000062678
 10
63.48578293219907
 20
0.6548637152882293
 10
63.37387436075369
 20
1.091307143884478
 10
63.24199899996165
 20
1.385671000025468
 10
62.99898064642912
 20
1.533346001058817
 10
62.61461199994665
 20
1.821200000005774
 10
62.38348350353772
 20
1.874667143943952
 10
62.10884099995019
 20
1.929606999998214
 10
61.65048236062285
 20
1.723590572510147
 10
61.44345150346635
 20
1.477391715336125
 10
61.40383899997687
 20
1.330997000011848
 10
61.54976464633364
 20
1.203215715329861
 10
61.81834521779092
 20
1.018566572456621
 10
62.22121607494773
 20
0.6884362866985612
 10
62.34637499996461
 20
0.6077170000062324
 10
62.61289607500657
 20
0.3750922867038753
 10
62.84405653749127
 20
0.0588512861868367
  0
LWPOLYLINE
  5
4D1
330
4AA
100
AcDbEntity
  8
CONTEXT
 62
     0
100
AcDbPolyline
 90
       10
 70
   129
 43
0.0
 38
134.911459
 10
54.41760699998122
 20
4.311779000010574
 10
54.42800548759988
 20
4.4767851838551
 10
54.39577581902267
 20
4.770433275290998
 10
54.31981699995231
 20
5.068271000025561
 10
54.17733028758084
 20
5.253878303890815
 10
53.96604690467939
 20
5.386378052469809
 10
53.81071999995038
 20
5.407242000015685
 10
53.66200944670709
 20
5.344970792968525
 10
53.48260187607957
 20
5.08914888673462
 10
53.27020400000038
 20
4.881223000003956
  0
LWPOLYLINE
  5
4D2
330
4AA
100
AcDbEntity
  8
CONTEXT
 62
     0
100
AcDbPolyline
 90
       19
 70
   129
 43
0.0
 38
135.258431
 10
43.06100999994669
 20
11.83754000000772
 10
43.21507547103101
 20
11.79165726297651
 10
43.37557899998501
 20
11.7781440000108
 10
43.48204455908854
 20
11.88444289774634
 10
43.56585899996571
 20
11.98648900000262
 10
43.70664953830419
 20
12.15488562779501
 10
43.78437599999597
 20
12.28846000001067
 10
43.8052007026854
 20
12.42532835787279
 10
43.8214619999635
 20
12.55377399999998
 10
43.71581708849408
 20
12.70723052567337
 10
43.59439199999906
 20
12.79744799999753
 10
43.31932054355275
 20
12.96850570559036
 10
43.24460999999428
 20
12.99599200001103
 10
43.17951540346257
 20
12.94100305507891
 10
43.07638046389911
 20
12.7874465897039
 10
43.01116999995429
 20
12.67364200000884
 10
42.98241307475837
 20
12.47116610876401
 10
42.97329899994656
 20
12.2548990000214
 10
43.00074817507993
 20
12.01508048767573
  0
LWPOLYLINE
  5
4D3
330
4AA
100
AcDbEntity
  8
CONTEXT
 62
     0
100
AcDbPolyline
 90
       12
 70
   129
 43
0.0
 38
135.323292
 10
39.35436199995456
 20
15.13746200001333
 10
39.36851110879797
 20
14.7586536865565
 10
39.36476699996274
 20
14.51963100000285
 10
39.78698399994755
 20
14.12940900001558
 10
39.76578653743491
 20
13.89695768652018
 10
39.68520199996419
 20
13.55562200001441
 10
39.94484025170095
 20
13.35979654360563
 10
40.45530799997505
 20
13.28999600000679
 10
40.8306060989853
 20
13.34202394599561
 10
41.11677299998701
 20
13.39248200002476
 10
41.31572025181958
 20
13.58920911504538
 10
41.51068599999417
 20
13.7915230000217
  0
LWPOLYLINE
  5
4D4
330
4AA
100
AcDbEntity
  8
CONTEXT
 62
     0
100
AcDbPolyline
 90
       10
 70
   129
 43
0.0
 38
135.559461
 10
28.89378699997906
 20
21.70191500001238
 10
28.35466199996881
 20
20.89903900001082
 10
27.73961399996188
 20
19.87566400002106
 10
29.57960999995703
 20
18.7507040000055
 10
31.33819499996025
 20
17.70766800001729
 10
33.47321799997007
 20
16.36005300001125
 10
34.03901799995219
 20
17.33144200002425
 10
34.48147599998629
 20
18.20398099999875
 10
32.66474099998595
 20
19.31137700000545
 10
30.26419299998088
 20
20.80922700001975
  0
LWPOLYLINE
  5
4D5
330
4AA
100
AcDbEntity
  8
CONTEXT
 62
     0
100
AcDbPolyline
 90
       14
 70
   129
 43
0.0
 38
135.862154
 10
11.76230299996678
 20
32.11418400000548
 10
11.73790098074824
 20
31.91640231039491
 10
11.61784899997292
 20
31.61179000002448
 10
11.37979355215793
 20
31.60986235149903
 10
11.07499199995073
 20
31.64050100001623
 10
10.97298351326026
 20
31.94505090467283
 10
10.92269999999553
 20
32.07810800001607
 10
10.95006463781465
 20
32.30029347384698
 10
11.09617246867856
 20
32.53521194698988
 10
11.18834100000095
 20
32.64058100001421
 10
11.38552327099023
 20
32.61829287043656
 10
11.52640899998369
 20
32.5361200000043
 10
11.6404957601917
 20
32.40629327271017
 10
11.73656399996253
 20
32.27726500001154
  0
LWPOLYLINE
  5
4D6
330
4AA
100
AcDbEntity
  8
CONTEXT
 62
     0
100
AcDbPolyline
 90
       19
 70
   129
 43
0.0
 38
135.968916
 10
2.381640999985393
 20
38.78079700001399
 10
2.666394101921469
 20
38.7971752443118
 10
3.177586999954656
 20
38.80524200000218
 10
3.399395244836342
 20
38.6964575300226
 10
3.690357530605979
 20
38.35513638713746
 10
3.773532999970485
 20
38.14925500002573
 10
3.634403244883288
 20
37.76761638707831
 10
3.388565999979619
 20
37.44539700000314
 10
3.08343202463584
 20
37.17954076098977
 10
2.984735999954864
 20
37.07895100000314
 10
2.400318999949377
 20
37.49692299999879
 10
2.400318999949377
 20
37.49692299999879
 10
1.70109299995238
 20
37.95788800000446
 10
0.8547609999659471
 20
38.63704400000279
 10
0.0
 20
39.35319000002346
 10
0.4955463102087379
 20
39.34776933258399
 10
0.9809979999554344
 20
39.30029300000751
 10
1.387317738845013
 20
39.09422647542669
 10
1.773037999984808
 20
38.9519540000183
  0
LWPOLYLINE
  5
4D7
330
4AA
100
AcDbEntity
  8
CONTEXT
 62
     0
100
AcDbPolyline
 90
       16
 70
   129
 43
0.0
 38
136.043783
 10
3.349257999972906
 20
42.97861499999999
 10
2.91439070913475
 20
43.20363535176148
 10
2.678842999972403
 20
43.42113200001768
 10
3.026299280580133
 20
43.95901820895961
 10
3.409944999963045
 20
44.5204650000087
 10
4.033002232026774
 20
45.47419372963486
 10
4.20963399996981
 20
45.75890100002289
 10
4.515328174864408
 20
46.16243144398322
 10
4.716722999990452
 20
46.42969200000516
 10
4.87279070931254
 20
46.32308678055415
 10
5.08802199998172
 20
46.15501800001948
 10
5.383217342139687
 20
45.91015444754157
 10
5.477506999974139
 20
45.82350300002145
 10
4.706154999963474
 20
44.60401200002525
 10
3.68673299998045
 20
43.09487400000216
 10
3.551117803435773
 20
42.9206893008668
  0
LWPOLYLINE
  5
4D8
330
4AA
100
AcDbEntity
  8
CONTEXT
 62
     0
100
AcDbPolyline
 90
       12
 70
   128
 43
0.0
 38
136.098392
 10
6.088079999957699
 20
48.3933230000257
 10
7.026169999968261
 20
49.85776700000861
 10
7.026169999968261
 20
49.85776700000861
 10
7.897956999950111
 20
51.22222900000634
 10
7.897956999950111
 20
51.22222900000634
 10
8.761079999967478
 20
50.5780730000115
 10
8.761079999967478
 20
50.5780730000115
 10
8.095891999953892
 20
49.56336800000281
 10
7.356784999952652
 20
48.53831000000355
 10
7.360958999954164
 20
48.52876800001832
 10
6.855396999977529
 20
47.80471900000703
 10
6.088079999957699
 20
48.3933230000257
  0
LWPOLYLINE
  5
4D9
330
4AA
100
AcDbEntity
  8
CONTEXT
 62
     0
100
AcDbPolyline
 90
       16
 70
   129
 43
0.0
 38
136.064388
 10
8.94766599999275
 20
54.40781200001948
 10
8.920751143188681
 20
54.21277074853424
 10
8.954527170339134
 20
53.88593575890991
 10
8.994198000000324
 20
53.80116600001929
 10
9.267192864208482
 20
53.82562510480057
 10
9.546016314998269
 20
53.89782031168579
 10
9.6330719999969
 20
53.95103799999924
 10
9.692567192192655
 20
54.11165267016622
 10
9.736571433022618
 20
54.26126708896481
 10
9.752694999973755
 20
54.3612350000185
 10
9.695999464893248
 20
54.4988091874402
 10
9.586737999983598
 20
54.64670900002238
 10
9.374269850202836
 20
54.68810822500382
 10
9.136626999999862
 20
54.69541100002243
 10
9.017835499544162
 20
54.57223039082601
 10
8.94766599999275
 20
54.40781200001948
  0
LWPOLYLINE
  5
4DA
330
4AA
100
AcDbEntity
  8
CONTEXT
 62
     0
100
AcDbPolyline
 90
       19
 70
   129
 43
0.0
 38
136.084794
 10
12.05679199995939
 20
56.7932060000021
 10
11.82812911452493
 20
56.81676234462066
 10
11.60131899995031
 20
56.81587200000649
 10
11.13429597159848
 20
56.5369909160072
 10
10.99763899995014
 20
56.44524600001751
 10
10.83214282873087
 20
56.0725703445496
 10
10.74486899998737
 20
55.72022400001879
 10
10.68219277152093
 20
55.3844154579856
 10
10.66987540014088
 20
55.07098863020656
 10
10.67332699999679
 20
54.905872000003
 10
11.10631882876623
 20
54.91991205877275
 10
11.48357299994677
 20
54.92070100002456
 10
11.7945565431146
 20
55.14372920163441
 10
12.12517699995078
 20
55.55841100000544
 10
12.36529025743948
 20
55.9214937731158
 10
12.51208099996438
 20
56.19436000002315
 10
12.47094034194015
 20
56.55353659827961
 10
12.47094034194015
 20
56.55353659827961
 10
12.424246999959
 20
56.78999300001306
  0
LWPOLYLINE
  5
4DB
330
4AA
100
AcDbEntity
  8
CONTEXT
 62
     0
100
AcDbPolyline
 90
       15
 70
   129
 43
0.0
 38
136.137217
 10
13.73872099997243
 20
58.78304999999818
 10
14.1048250690219
 20
58.88589307846269
 10
14.37032399995951
 20
59.10536600000341
 10
14.57484106905758
 20
59.32233650708804
 10
14.71695699996781
 20
59.63889500001096
 10
14.76380048476858
 20
59.93133015013882
 10
14.77627649763599
 20
60.12807822143077
 10
14.75395699997898
 20
60.26722000000882
 10
14.57484106905758
 20
60.23439136426896
 10
14.37756107572932
 20
60.17024287563981
 10
14.1087819999666
 20
59.99863500002539
 10
13.88315175083699
 20
59.71445116013638
 10
13.69029099994805
 20
59.36350500001572
 10
13.63564999995288
 20
59.01194799999939
 10
13.63564999995288
 20
59.01194799999939
  0
LWPOLYLINE
  5
4DC
330
4AA
100
AcDbEntity
  8
CONTEXT
 62
     0
100
AcDbPolyline
 90
       13
 70
   129
 43
0.0
 38
136.159919
 10
13.68956899998011
 20
60.63509700002032
 10
13.84054101043148
 20
60.60588277125498
 10
13.98905532323988
 20
60.61688383147703
 10
14.0609359999653
 20
60.65431900002295
 10
14.13573612598702
 20
60.72139390342636
 10
14.17275199998403
 20
60.8121000000101
 10
14.15223771630554
 20
60.89191033662064
 10
14.10639996541431
 20
60.9744182881841
 10
14.04859699995723
 20
61.01997300001676
 10
13.85154207062442
 20
61.01108848885633
 10
13.7731189999613
 20
60.96404700001585
 10
13.72319636825705
 20
60.8809092764277
 10
13.6845692046918
 20
60.72535877148039
  0
ENDBLK
  5
4DE
330
4AA
100
AcDbEntity
  8
0
100
AcDbBlockEnd
  0
ENDSEC
  0
SECTION
  2
ENTITIES
  0
POINT
  5
27
330
40E
100
AcDbEntity
  8
0
  6
SOLID_LINE
 62
     0
100
AcDbPoint
 10
459544.778223
 20
238872.365909
 30
134.659357
  0
TEXT
  5
28
330
40E
100
AcDbEntity
  8
POINT_ID
  6
SOLID_LINE
 62
     1
100
AcDbText
 10
459543.028223
 20
238872.465909
 30
134.659357
 40
0.3
  1
DP017.5
 72
     2
 11
459544.678223
 21
238872.465909
 31
134.659357
100
AcDbText
  0
TEXT
  5
29
330
40E
100
AcDbEntity
  8
COORDINATES
  6
SOLID_LINE
 62
    70
100
AcDbText
 10
459544.878223
 20
238872.465909
 30
134.659357
 40
0.3
  1
459544.78;238872.37
100
AcDbText
  0
TEXT
  5
2A
330
40E
100
AcDbEntity
  8
HEIGHT
  6
SOLID_LINE
 62
     4
100
AcDbText
 10
459544.878223
 20
238871.965909
 30
134.659357
 40
0.3
  1
134.659
 11
459544.878223
 21
238872.265909
 31
134.659357
100
AcDbText
 73
     3
  0
TEXT
  5
2B
330
40E
100
AcDbEntity
  8
POINT_CODE
  6
SOLID_LINE
 62
     5
100
AcDbText
 10
459544.678223
 20
238871.965909
 30
134.659357
 40
0.3
  1

 72
     2
 11
459544.678223
 21
238872.265909
 31
134.659357
100
AcDbText
 73
     3
  0
POINT
  5
2C
330
40E
100
AcDbEntity
  8
0
  6
SOLID_LINE
 62
     0
100
AcDbPoint
 10
459544.895286
 20
238872.299546
 30
134.733742
  0
TEXT
  5
2D
330
40E
100
AcDbEntity
  8
POINT_ID
  6
SOLID_LINE
 62
     1
100
AcDbText
 10
459543.145286
 20
238872.399546
 30
134.733742
 40
0.3
  1
DP017.4
 72
     2
 11
459544.795286
 21
238872.399546
 31
134.733742
100
AcDbText
  0
TEXT
  5
2E
330
40E
100
AcDbEntity
  8
COORDINATES
  6
SOLID_LINE
 62
    70
100
AcDbText
 10
459544.995286
 20
238872.399546
 30
134.733742
 40
0.3
  1
459544.90;238872.30
100
AcDbText
  0
TEXT
  5
2F
330
40E
100
AcDbEntity
  8
HEIGHT
  6
SOLID_LINE
 62
     4
100
AcDbText
 10
459544.995286
 20
238871.899546
 30
134.733742
 40
0.3
  1
134.734
 11
459544.995286
 21
238872.199546
 31
134.733742
100
AcDbText
 73
     3
  0
TEXT
  5
30
330
40E
100
AcDbEntity
  8
POINT_CODE
  6
SOLID_LINE
 62
     5
100
AcDbText
 10
459544.795286
 20
238871.899546
 30
134.733742
 40
0.3
  1

 72
     2
 11
459544.795286
 21
238872.199546
 31
134.733742
100
AcDbText
 73
     3
  0
POINT
  5
31
330
40E
100
AcDbEntity
  8
0
  6
SOLID_LINE
 62
     0
100
AcDbPoint
 10
459544.846062
 20
238872.332645
 30
134.802511
  0
TEXT
  5
32
330
40E
100
AcDbEntity
  8
POINT_ID
  6
SOLID_LINE
 62
     1
100
AcDbText
 10
459543.096062
 20
238872.432645
 30
134.802511
 40
0.3
  1
DP017.3
 72
     2
 11
459544.746062
 21
238872.432645
 31
134.802511
100
AcDbText
  0
TEXT
  5
33
330
40E
100
AcDbEntity
  8
COORDINATES
  6
SOLID_LINE
 62
    70
100
AcDbText
 10
459544.946062
 20
238872.432645
 30
134.802511
 40
0.3
  1
459544.85;238872.33
100
AcDbText
  0
TEXT
  5
34
330
40E
100
AcDbEntity
  8
HEIGHT
  6
SOLID_LINE
 62
     4
100
AcDbText
 10
459544.946062
 20
238871.932645
 30
134.802511
 40
0.3
  1
134.803
 11
459544.946062
 21
238872.232645
 31
134.802511
100
AcDbText
 73
     3
  0
TEXT
  5
35
330
40E
100
AcDbEntity
  8
POINT_CODE
  6
SOLID_LINE
 62
     5
100
AcDbText
 10
459544.746062
 20
238871.932645
 30
134.802511
 40
0.3
  1

 72
     2
 11
459544.746062
 21
238872.232645
 31
134.802511
100
AcDbText
 73
     3
  0
POINT
  5
36
330
40E
100
AcDbEntity
  8
0
  6
SOLID_LINE
 62
     0
100
AcDbPoint
 10
459544.310272
 20
238871.912164
 30
134.80726
  0
TEXT
  5
37
330
40E
100
AcDbEntity
  8
POINT_ID
  6
SOLID_LINE
 62
     1
100
AcDbText
 10
459542.560272
 20
238872.012164
 30
134.80726
 40
0.3
  1
DP017.2
 72
     2
 11
459544.210272
 21
238872.012164
 31
134.80726
100
AcDbText
  0
TEXT
  5
38
330
40E
100
AcDbEntity
  8
COORDINATES
  6
SOLID_LINE
 62
    70
100
AcDbText
 10
459544.410272
 20
238872.012164
 30
134.80726
 40
0.3
  1
459544.31;238871.91
100
AcDbText
  0
TEXT
  5
39
330
40E
100
AcDbEntity
  8
HEIGHT
  6
SOLID_LINE
 62
     4
100
AcDbText
 10
459544.410272
 20
238871.512164
 30
134.80726
 40
0.3
  1
134.807
 11
459544.410272
 21
238871.812164
 31
134.80726
100
AcDbText
 73
     3
  0
TEXT
  5
3A
330
40E
100
AcDbEntity
  8
POINT_CODE
  6
SOLID_LINE
 62
     5
100
AcDbText
 10
459544.210272
 20
238871.512164
 30
134.80726
 40
0.3
  1

 72
     2
 11
459544.210272
 21
238871.812164
 31
134.80726
100
AcDbText
 73
     3
  0
POINT
  5
3B
330
40E
100
AcDbEntity
  8
0
  6
SOLID_LINE
 62
     0
100
AcDbPoint
 10
459545.371157
 20
238872.83932
 30
134.810381
  0
TEXT
  5
3C
330
40E
100
AcDbEntity
  8
POINT_ID
  6
SOLID_LINE
 62
     1
100
AcDbText
 10
459543.721157
 20
238872.93932
 30
134.810381
 40
0.3
  1
DP017.1
 72
     2
 11
459545.271157
 21
238872.93932
 31
134.810381
100
AcDbText
  0
TEXT
  5
3D
330
40E
100
AcDbEntity
  8
COORDINATES
  6
SOLID_LINE
 62
    70
100
AcDbText
 10
459545.471157
 20
238872.93932
 30
134.810381
 40
0.3
  1
459545.37;238872.84
100
AcDbText
  0
TEXT
  5
3E
330
40E
100
AcDbEntity
  8
HEIGHT
  6
SOLID_LINE
 62
     4
100
AcDbText
 10
459545.471157
 20
238872.43932
 30
134.810381
 40
0.3
  1
134.810
 11
459545.471157
 21
238872.73932
 31
134.810381
100
AcDbText
 73
     3
  0
TEXT
  5
3F
330
40E
100
AcDbEntity
  8
POINT_CODE
  6
SOLID_LINE
 62
     5
100
AcDbText
 10
459545.271157
 20
238872.43932
 30
134.810381
 40
0.3
  1

 72
     2
 11
459545.271157
 21
238872.73932
 31
134.810381
100
AcDbText
 73
     3
  0
POINT
  5
40
330
40E
100
AcDbEntity
  8
0
  6
SOLID_LINE
 62
     0
100
AcDbPoint
 10
459483.897346
 20
238910.282925
 30
135.996158
  0
TEXT
  5
41
330
40E
100
AcDbEntity
  8
POINT_ID
  6
SOLID_LINE
 62
     1
100
AcDbText
 10
459481.747346
 20
238910.382925
 30
135.996158
 40
0.3
  1
LIN027.11
 72
     2
 11
459483.797346
 21
238910.382925
 31
135.996158
100
AcDbText
  0
TEXT
  5
42
330
40E
100
AcDbEntity
  8
COORDINATES
  6
SOLID_LINE
 62
    70
100
AcDbText
 10
459483.997346
 20
238910.382925
 30
135.996158
 40
0.3
  1
459483.90;238910.28
100
AcDbText
  0
TEXT
  5
43
330
40E
100
AcDbEntity
  8
HEIGHT
  6
SOLID_LINE
 62
     4
100
AcDbText
 10
459483.997346
 20
238909.882925
 30
135.996158
 40
0.3
  1
135.996
 11
459483.997346
 21
238910.182925
 31
135.996158
100
AcDbText
 73
     3
  0
TEXT
  5
44
330
40E
100
AcDbEntity
  8
POINT_CODE
  6
SOLID_LINE
 62
     5
100
AcDbText
 10
459483.797346
 20
238909.882925
 30
135.996158
 40
0.3
  1

 72
     2
 11
459483.797346
 21
238910.182925
 31
135.996158
100
AcDbText
 73
     3
  0
POINT
  5
45
330
40E
100
AcDbEntity
  8
0
  6
SOLID_LINE
 62
     0
100
AcDbPoint
 10
459483.105306
 20
238910.631264
 30
136.02144
  0
TEXT
  5
46
330
40E
100
AcDbEntity
  8
POINT_ID
  6
SOLID_LINE
 62
     1
100
AcDbText
 10
459480.905306
 20
238910.731264
 30
136.02144
 40
0.3
  1
LIN027.10
 72
     2
 11
459483.005306
 21
238910.731264
 31
136.02144
100
AcDbText
  0
TEXT
  5
47
330
40E
100
AcDbEntity
  8
COORDINATES
  6
SOLID_LINE
 62
    70
100
AcDbText
 10
459483.205306
 20
238910.731264
 30
136.02144
 40
0.3
  1
459483.11;238910.63
100
AcDbText
  0
TEXT
  5
48
330
40E
100
AcDbEntity
  8
HEIGHT
  6
SOLID_LINE
 62
     4
100
AcDbText
 10
459483.205306
 20
238910.231264
 30
136.02144
 40
0.3
  1
136.021
 11
459483.205306
 21
238910.531264
 31
136.02144
100
AcDbText
 73
     3
  0
TEXT
  5
49
330
40E
100
AcDbEntity
  8
POINT_CODE
  6
SOLID_LINE
 62
     5
100
AcDbText
 10
459483.005306
 20
238910.231264
 30
136.02144
 40
0.3
  1

 72
     2
 11
459483.005306
 21
238910.531264
 31
136.02144
100
AcDbText
 73
     3
  0
POINT
  5
4A
330
40E
100
AcDbEntity
  8
0
  6
SOLID_LINE
 62
     0
100
AcDbPoint
 10
459482.124308
 20
238910.684161
 30
136.031648
  0
TEXT
  5
4B
330
40E
100
AcDbEntity
  8
POINT_ID
  6
SOLID_LINE
 62
     1
100
AcDbText
 10
459480.074308
 20
238910.784161
 30
136.031648
 40
0.3
  1
LIN027.9
 72
     2
 11
459482.024308
 21
238910.784161
 31
136.031648
100
AcDbText
  0
TEXT
  5
4C
330
40E
100
AcDbEntity
  8
COORDINATES
  6
SOLID_LINE
 62
    70
100
AcDbText
 10
459482.224308
 20
238910.784161
 30
136.031648
 40
0.3
  1
459482.12;238910.68
100
AcDbText
  0
TEXT
  5
4D
330
40E
100
AcDbEntity
  8
HEIGHT
  6
SOLID_LINE
 62
     4
100
AcDbText
 10
459482.224308
 20
238910.284161
 30
136.031648
 40
0.3
  1
136.032
 11
459482.224308
 21
238910.584161
 31
136.031648
100
AcDbText
 73
     3
  0
TEXT
  5
4E
330
40E
100
AcDbEntity
  8
POINT_CODE
  6
SOLID_LINE
 62
     5
100
AcDbText
 10
459482.024308
 20
238910.284161
 30
136.031648
 40
0.3
  1

 72
     2
 11
459482.024308
 21
238910.584161
 31
136.031648
100
AcDbText
 73
     3
  0
POINT
  5
4F
330
40E
100
AcDbEntity
  8
0
  6
SOLID_LINE
 62
     0
100
AcDbPoint
 10
459482.979069
 20
238909.968015
 30
136.02987
  0
TEXT
  5
50
330
40E
100
AcDbEntity
  8
POINT_ID
  6
SOLID_LINE
 62
     1
100
AcDbText
 10
459480.929069
 20
238910.068015
 30
136.02987
 40
0.3
  1
LIN027.8
 72
     2
 11
459482.879069
 21
238910.068015
 31
136.02987
100
AcDbText
  0
TEXT
  5
51
330
40E
100
AcDbEntity
  8
COORDINATES
  6
SOLID_LINE
 62
    70
100
AcDbText
 10
459483.079069
 20
238910.068015
 30
136.02987
 40
0.3
  1
459482.98;238909.97
100
AcDbText
  0
TEXT
  5
52
330
40E
100
AcDbEntity
  8
HEIGHT
  6
SOLID_LINE
 62
     4
100
AcDbText
 10
459483.079069
 20
238909.568015
 30
136.02987
 40
0.3
  1
136.030
 11
459483.079069
 21
238909.868015
 31
136.02987
100
AcDbText
 73
     3
  0
TEXT
  5
53
330
40E
100
AcDbEntity
  8
POINT_CODE
  6
SOLID_LINE
 62
     5
100
AcDbText
 10
459482.879069
 20
238909.568015
 30
136.02987
 40
0.3
  1

 72
     2
 11
459482.879069
 21
238909.868015
 31
136.02987
100
AcDbText
 73
     3
  0
POINT
  5
54
330
40E
100
AcDbEntity
  8
0
  6
SOLID_LINE
 62
     0
100
AcDbPoint
 10
459483.825401
 20
238909.288859
 30
135.976312
  0
TEXT
  5
55
330
40E
100
AcDbEntity
  8
POINT_ID
  6
SOLID_LINE
 62
     1
100
AcDbText
 10
459481.775401
 20
238909.388859
 30
135.976312
 40
0.3
  1
LIN027.7
 72
     2
 11
459483.725401
 21
238909.388859
 31
135.976312
100
AcDbText
  0
TEXT
  5
56
330
40E
100
AcDbEntity
  8
COORDINATES
  6
SOLID_LINE
 62
    70
100
AcDbText
 10
459483.925401
 20
238909.388859
 30
135.976312
 40
0.3
  1
459483.83;238909.29
100
AcDbText
  0
TEXT
  5
57
330
40E
100
AcDbEntity
  8
HEIGHT
  6
SOLID_LINE
 62
     4
100
AcDbText
 10
459483.925401
 20
238908.888859
 30
135.976312
 40
0.3
  1
135.976
 11
459483.925401
 21
238909.188859
 31
135.976312
100
AcDbText
 73
     3
  0
TEXT
  5
58
330
40E
100
AcDbEntity
  8
POINT_CODE
  6
SOLID_LINE
 62
     5
100
AcDbText
 10
459483.725401
 20
238908.888859
 30
135.976312
 40
0.3
  1

 72
     2
 11
459483.725401
 21
238909.188859
 31
135.976312
100
AcDbText
 73
     3
  0
POINT
  5
59
330
40E
100
AcDbEntity
  8
0
  6
SOLID_LINE
 62
     0
100
AcDbPoint
 10
459484.524627
 20
238908.827894
 30
135.850024
  0
TEXT
  5
5A
330
40E
100
AcDbEntity
  8
POINT_ID
  6
SOLID_LINE
 62
     1
100
AcDbText
 10
459482.474627
 20
238908.927894
 30
135.850024
 40
0.3
  1
LIN027.6
 72
     2
 11
459484.424627
 21
238908.927894
 31
135.850024
100
AcDbText
  0
TEXT
  5
5B
330
40E
100
AcDbEntity
  8
COORDINATES
  6
SOLID_LINE
 62
    70
100
AcDbText
 10
459484.624627
 20
238908.927894
 30
135.850024
 40
0.3
  1
459484.52;238908.83
100
AcDbText
  0
TEXT
  5
5C
330
40E
100
AcDbEntity
  8
HEIGHT
  6
SOLID_LINE
 62
     4
100
AcDbText
 10
459484.624627
 20
238908.427894
 30
135.850024
 40
0.3
  1
135.850
 11
459484.624627
 21
238908.727894
 31
135.850024
100
AcDbText
 73
     3
  0
TEXT
  5
5D
330
40E
100
AcDbEntity
  8
POINT_CODE
  6
SOLID_LINE
 62
     5
100
AcDbText
 10
459484.424627
 20
238908.427894
 30
135.850024
 40
0.3
  1

 72
     2
 11
459484.424627
 21
238908.727894
 31
135.850024
100
AcDbText
 73
     3
  0
POINT
  5
5E
330
40E
100
AcDbEntity
  8
0
  6
SOLID_LINE
 62
     0
100
AcDbPoint
 10
459485.109044
 20
238908.409922
 30
135.974886
  0
TEXT
  5
5F
330
40E
100
AcDbEntity
  8
POINT_ID
  6
SOLID_LINE
 62
     1
100
AcDbText
 10
459483.059044
 20
238908.509922
 30
135.974886
 40
0.3
  1
LIN027.5
 72
     2
 11
459485.009044
 21
238908.509922
 31
135.974886
100
AcDbText
  0
TEXT
  5
60
330
40E
100
AcDbEntity
  8
COORDINATES
  6
SOLID_LINE
 62
    70
100
AcDbText
 10
459485.209044
 20
238908.509922
 30
135.974886
 40
0.3
  1
459485.11;238908.41
100
AcDbText
  0
TEXT
  5
61
330
40E
100
AcDbEntity
  8
HEIGHT
  6
SOLID_LINE
 62
     4
100
AcDbText
 10
459485.209044
 20
238908.009922
 30
135.974886
 40
0.3
  1
135.975
 11
459485.209044
 21
238908.309922
 31
135.974886
100
AcDbText
 73
     3
  0
TEXT
  5
62
330
40E
100
AcDbEntity
  8
POINT_CODE
  6
SOLID_LINE
 62
     5
100
AcDbText
 10
459485.009044
 20
238908.009922
 30
135.974886
 40
0.3
  1

 72
     2
 11
459485.009044
 21
238908.309922
 31
135.974886
100
AcDbText
 73
     3
  0
POINT
  5
63
330
40E
100
AcDbEntity
  8
0
  6
SOLID_LINE
 62
     0
100
AcDbPoint
 10
459485.512874
 20
238908.776368
 30
135.945645
  0
TEXT
  5
64
330
40E
100
AcDbEntity
  8
POINT_ID
  6
SOLID_LINE
 62
     1
100
AcDbText
 10
459483.462874
 20
238908.876368
 30
135.945645
 40
0.3
  1
LIN027.4
 72
     2
 11
459485.412874
 21
238908.876368
 31
135.945645
100
AcDbText
  0
TEXT
  5
65
330
40E
100
AcDbEntity
  8
COORDINATES
  6
SOLID_LINE
 62
    70
100
AcDbText
 10
459485.612874
 20
238908.876368
 30
135.945645
 40
0.3
  1
459485.51;238908.78
100
AcDbText
  0
TEXT
  5
66
330
40E
100
AcDbEntity
  8
HEIGHT
  6
SOLID_LINE
 62
     4
100
AcDbText
 10
459485.612874
 20
238908.376368
 30
135.945645
 40
0.3
  1
135.946
 11
459485.612874
 21
238908.676368
 31
135.945645
100
AcDbText
 73
     3
  0
TEXT
  5
67
330
40E
100
AcDbEntity
  8
POINT_CODE
  6
SOLID_LINE
 62
     5
100
AcDbText
 10
459485.412874
 20
238908.376368
 30
135.945645
 40
0.3
  1

 72
     2
 11
459485.412874
 21
238908.676368
 31
135.945645
100
AcDbText
 73
     3
  0
POINT
  5
68
330
40E
100
AcDbEntity
  8
0
  6
SOLID_LINE
 62
     0
100
AcDbPoint
 10
459485.897841
 20
238909.480226
 30
135.979436
  0
TEXT
  5
69
330
40E
100
AcDbEntity
  8
POINT_ID
  6
SOLID_LINE
 62
     1
100
AcDbText
 10
459483.847841
 20
238909.580226
 30
135.979436
 40
0.3
  1
LIN027.3
 72
     2
 11
459485.797841
 21
238909.580226
 31
135.979436
100
AcDbText
  0
TEXT
  5
6A
330
40E
100
AcDbEntity
  8
COORDINATES
  6
SOLID_LINE
 62
    70
100
AcDbText
 10
459485.997841
 20
238909.580226
 30
135.979436
 40
0.3
  1
459485.90;238909.48
100
AcDbText
  0
TEXT
  5
6B
330
40E
100
AcDbEntity
  8
HEIGHT
  6
SOLID_LINE
 62
     4
100
AcDbText
 10
459485.997841
 20
238909.080226
 30
135.979436
 40
0.3
  1
135.979
 11
459485.997841
 21
238909.380226
 31
135.979436
100
AcDbText
 73
     3
  0
TEXT
  5
6C
330
40E
100
AcDbEntity
  8
POINT_CODE
  6
SOLID_LINE
 62
     5
100
AcDbText
 10
459485.797841
 20
238909.080226
 30
135.979436
 40
0.3
  1

 72
     2
 11
459485.797841
 21
238909.380226
 31
135.979436
100
AcDbText
 73
     3
  0
POINT
  5
6D
330
40E
100
AcDbEntity
  8
0
  6
SOLID_LINE
 62
     0
100
AcDbPoint
 10
459485.301895
 20
238910.136213
 30
136.018808
  0
TEXT
  5
6E
330
40E
100
AcDbEntity
  8
POINT_ID
  6
SOLID_LINE
 62
     1
100
AcDbText
 10
459483.251895
 20
238910.236213
 30
136.018808
 40
0.3
  1
LIN027.2
 72
     2
 11
459485.201895
 21
238910.236213
 31
136.018808
100
AcDbText
  0
TEXT
  5
6F
330
40E
100
AcDbEntity
  8
COORDINATES
  6
SOLID_LINE
 62
    70
100
AcDbText
 10
459485.401895
 20
238910.236213
 30
136.018808
 40
0.3
  1
459485.30;238910.14
100
AcDbText
  0
TEXT
  5
70
330
40E
100
AcDbEntity
  8
HEIGHT
  6
SOLID_LINE
 62
     4
100
AcDbText
 10
459485.401895
 20
238909.736213
 30
136.018808
 40
0.3
  1
136.019
 11
459485.401895
 21
238910.036213
 31
136.018808
100
AcDbText
 73
     3
  0
TEXT
  5
71
330
40E
100
AcDbEntity
  8
POINT_CODE
  6
SOLID_LINE
 62
     5
100
AcDbText
 10
459485.201895
 20
238909.736213
 30
136.018808
 40
0.3
  1

 72
     2
 11
459485.201895
 21
238910.036213
 31
136.018808
100
AcDbText
 73
     3
  0
POINT
  5
72
330
40E
100
AcDbEntity
  8
0
  6
SOLID_LINE
 62
     0
100
AcDbPoint
 10
459484.505949
 20
238910.111768
 30
135.968916
  0
TEXT
  5
73
330
40E
100
AcDbEntity
  8
POINT_ID
  6
SOLID_LINE
 62
     1
100
AcDbText
 10
459482.555949
 20
238910.211768
 30
135.968916
 40
0.3
  1
LIN027.1
 72
     2
 11
459484.405949
 21
238910.211768
 31
135.968916
100
AcDbText
  0
TEXT
  5
74
330
40E
100
AcDbEntity
  8
COORDINATES
  6
SOLID_LINE
 62
    70
100
AcDbText
 10
459484.605949
 20
238910.211768
 30
135.968916
 40
0.3
  1
459484.51;238910.11
100
AcDbText
  0
TEXT
  5
75
330
40E
100
AcDbEntity
  8
HEIGHT
  6
SOLID_LINE
 62
     4
100
AcDbText
 10
459484.605949
 20
238909.711768
 30
135.968916
 40
0.3
  1
135.969
 11
459484.605949
 21
238910.011768
 31
135.968916
100
AcDbText
 73
     3
  0
TEXT
  5
76
330
40E
100
AcDbEntity
  8
POINT_CODE
  6
SOLID_LINE
 62
     5
100
AcDbText
 10
459484.405949
 20
238909.711768
 30
135.968916
 40
0.3
  1

 72
     2
 11
459484.405949
 21
238910.011768
 31
135.968916
100
AcDbText
 73
     3
  0
POINT
  5
77
330
40E
100
AcDbEntity
  8
0
  6
SOLID_LINE
 62
     0
100
AcDbPoint
 10
459484.263545
 20
238909.581989
 30
135.780493
  0
TEXT
  5
78
330
40E
100
AcDbEntity
  8
POINT_ID
  6
SOLID_LINE
 62
     1
100
AcDbText
 10
459482.513545
 20
238909.681989
 30
135.780493
 40
0.3
  1
DP021.5
 72
     2
 11
459484.163545
 21
238909.681989
 31
135.780493
100
AcDbText
  0
TEXT
  5
79
330
40E
100
AcDbEntity
  8
COORDINATES
  6
SOLID_LINE
 62
    70
100
AcDbText
 10
459484.363545
 20
238909.681989
 30
135.780493
 40
0.3
  1
459484.26;238909.58
100
AcDbText
  0
TEXT
  5
7A
330
40E
100
AcDbEntity
  8
HEIGHT
  6
SOLID_LINE
 62
     4
100
AcDbText
 10
459484.363545
 20
238909.181989
 30
135.780493
 40
0.3
  1
135.780
 11
459484.363545
 21
238909.481989
 31
135.780493
100
AcDbText
 73
     3
  0
TEXT
  5
7B
330
40E
100
AcDbEntity
  8
POINT_CODE
  6
SOLID_LINE
 62
     5
100
AcDbText
 10
459484.163545
 20
238909.181989
 30
135.780493
 40
0.3
  1

 72
     2
 11
459484.163545
 21
238909.481989
 31
135.780493
100
AcDbText
 73
     3
  0
POINT
  5
7C
330
40E
100
AcDbEntity
  8
0
  6
SOLID_LINE
 62
     0
100
AcDbPoint
 10
459484.18584
 20
238909.827993
 30
135.98684
  0
TEXT
  5
7D
330
40E
100
AcDbEntity
  8
POINT_ID
  6
SOLID_LINE
 62
     1
100
AcDbText
 10
459482.43584
 20
238909.927993
 30
135.98684
 40
0.3
  1
DP021.4
 72
     2
 11
459484.08584
 21
238909.927993
 31
135.98684
100
AcDbText
  0
TEXT
  5
7E
330
40E
100
AcDbEntity
  8
COORDINATES
  6
SOLID_LINE
 62
    70
100
AcDbText
 10
459484.28584
 20
238909.927993
 30
135.98684
 40
0.3
  1
459484.19;238909.83
100
AcDbText
  0
TEXT
  5
7F
330
40E
100
AcDbEntity
  8
HEIGHT
  6
SOLID_LINE
 62
     4
100
AcDbText
 10
459484.28584
 20
238909.427993
 30
135.98684
 40
0.3
  1
135.987
 11
459484.28584
 21
238909.727993
 31
135.98684
100
AcDbText
 73
     3
  0
TEXT
  5
80
330
40E
100
AcDbEntity
  8
POINT_CODE
  6
SOLID_LINE
 62
     5
100
AcDbText
 10
459484.08584
 20
238909.427993
 30
135.98684
 40
0.3
  1

 72
     2
 11
459484.08584
 21
238909.727993
 31
135.98684
100
AcDbText
 73
     3
  0
POINT
  5
81
330
40E
100
AcDbEntity
  8
0
  6
SOLID_LINE
 62
     0
100
AcDbPoint
 10
459484.267865
 20
238909.8181
 30
136.063844
  0
TEXT
  5
82
330
40E
100
AcDbEntity
  8
POINT_ID
  6
SOLID_LINE
 62
     1
100
AcDbText
 10
459482.517865
 20
238909.9181
 30
136.063844
 40
0.3
  1
DP021.3
 72
     2
 11
459484.167865
 21
238909.9181
 31
136.063844
100
AcDbText
  0
TEXT
  5
83
330
40E
100
AcDbEntity
  8
COORDINATES
  6
SOLID_LINE
 62
    70
100
AcDbText
 10
459484.367865
 20
238909.9181
 30
136.063844
 40
0.3
  1
459484.27;238909.82
100
AcDbText
  0
TEXT
  5
84
330
40E
100
AcDbEntity
  8
HEIGHT
  6
SOLID_LINE
 62
     4
100
AcDbText
 10
459484.367865
 20
238909.4181
 30
136.063844
 40
0.3
  1
136.064
 11
459484.367865
 21
238909.7181
 31
136.063844
100
AcDbText
 73
     3
  0
TEXT
  5
85
330
40E
100
AcDbEntity
  8
POINT_CODE
  6
SOLID_LINE
 62
     5
100
AcDbText
 10
459484.167865
 20
238909.4181
 30
136.063844
 40
0.3
  1

 72
     2
 11
459484.167865
 21
238909.7181
 31
136.063844
100
AcDbText
 73
     3
  0
POINT
  5
86
330
40E
100
AcDbEntity
  8
0
  6
SOLID_LINE
 62
     0
100
AcDbPoint
 10
459484.821216
 20
238910.770642
 30
136.088955
  0
TEXT
  5
87
330
40E
100
AcDbEntity
  8
POINT_ID
  6
SOLID_LINE
 62
     1
100
AcDbText
 10
459483.071216
 20
238910.870642
 30
136.088955
 40
0.3
  1
DP021.2
 72
     2
 11
459484.721216
 21
238910.870642
 31
136.088955
100
AcDbText
  0
TEXT
  5
88
330
40E
100
AcDbEntity
  8
COORDINATES
  6
SOLID_LINE
 62
    70
100
AcDbText
 10
459484.921216
 20
238910.870642
 30
136.088955
 40
0.3
  1
459484.82;238910.77
100
AcDbText
  0
TEXT
  5
89
330
40E
100
AcDbEntity
  8
HEIGHT
  6
SOLID_LINE
 62
     4
100
AcDbText
 10
459484.921216
 20
238910.370642
 30
136.088955
 40
0.3
  1
136.089
 11
459484.921216
 21
238910.670642
 31
136.088955
100
AcDbText
 73
     3
  0
TEXT
  5
8A
330
40E
100
AcDbEntity
  8
POINT_CODE
  6
SOLID_LINE
 62
     5
100
AcDbText
 10
459484.721216
 20
238910.370642
 30
136.088955
 40
0.3
  1

 72
     2
 11
459484.721216
 21
238910.670642
 31
136.088955
100
AcDbText
 73
     3
  0
POINT
  5
8B
330
40E
100
AcDbEntity
  8
0
  6
SOLID_LINE
 62
     0
100
AcDbPoint
 10
459483.967785
 20
238909.214013
 30
136.069221
  0
TEXT
  5
8C
330
40E
100
AcDbEntity
  8
POINT_ID
  6
SOLID_LINE
 62
     1
100
AcDbText
 10
459482.317785
 20
238909.314013
 30
136.069221
 40
0.3
  1
DP021.1
 72
     2
 11
459483.867785
 21
238909.314013
 31
136.069221
100
AcDbText
  0
TEXT
  5
8D
330
40E
100
AcDbEntity
  8
COORDINATES
  6
SOLID_LINE
 62
    70
100
AcDbText
 10
459484.067785
 20
238909.314013
 30
136.069221
 40
0.3
  1
459483.97;238909.21
100
AcDbText
  0
TEXT
  5
8E
330
40E
100
AcDbEntity
  8
HEIGHT
  6
SOLID_LINE
 62
     4
100
AcDbText
 10
459484.067785
 20
238908.814013
 30
136.069221
 40
0.3
  1
136.069
 11
459484.067785
 21
238909.114013
 31
136.069221
100
AcDbText
 73
     3
  0
TEXT
  5
8F
330
40E
100
AcDbEntity
  8
POINT_CODE
  6
SOLID_LINE
 62
     5
100
AcDbText
 10
459483.867785
 20
238908.814013
 30
136.069221
 40
0.3
  1

 72
     2
 11
459483.867785
 21
238909.114013
 31
136.069221
100
AcDbText
 73
     3
  0
POINT
  5
90
330
40E
100
AcDbEntity
  8
0
  6
SOLID_LINE
 62
     0
100
AcDbPoint
 10
459488.979705
 20
238919.13569
 30
136.076387
  0
TEXT
  5
91
330
40E
100
AcDbEntity
  8
POINT_ID
  6
SOLID_LINE
 62
     1
100
AcDbText
 10
459485.929705
 20
238919.23569
 30
136.076387
 40
0.3
  1
FURROW018.8
 72
     2
 11
459488.879705
 21
238919.23569
 31
136.076387
100
AcDbText
  0
TEXT
  5
92
330
40E
100
AcDbEntity
  8
COORDINATES
  6
SOLID_LINE
 62
    70
100
AcDbText
 10
459489.079705
 20
238919.23569
 30
136.076387
 40
0.3
  1
459488.98;238919.14
100
AcDbText
  0
TEXT
  5
93
330
40E
100
AcDbEntity
  8
HEIGHT
  6
SOLID_LINE
 62
     4
100
AcDbText
 10
459489.079705
 20
238918.73569
 30
136.076387
 40
0.3
  1
136.076
 11
459489.079705
 21
238919.03569
 31
136.076387
100
AcDbText
 73
     3
  0
TEXT
  5
94
330
40E
100
AcDbEntity
  8
POINT_CODE
  6
SOLID_LINE
 62
     5
100
AcDbText
 10
459488.879705
 20
238918.73569
 30
136.076387
 40
0.3
  1

 72
     2
 11
459488.879705
 21
238919.03569
 31
136.076387
100
AcDbText
 73
     3
  0
POINT
  5
95
330
40E
100
AcDbEntity
  8
0
  6
SOLID_LINE
 62
     0
100
AcDbPoint
 10
459489.481093
 20
238919.869281
 30
136.0567
  0
TEXT
  5
96
330
40E
100
AcDbEntity
  8
POINT_ID
  6
SOLID_LINE
 62
     1
100
AcDbText
 10
459486.431093
 20
238919.969281
 30
136.0567
 40
0.3
  1
FURROW018.7
 72
     2
 11
459489.381093
 21
238919.969281
 31
136.0567
100
AcDbText
  0
TEXT
  5
97
330
40E
100
AcDbEntity
  8
COORDINATES
  6
SOLID_LINE
 62
    70
100
AcDbText
 10
459489.581093
 20
238919.969281
 30
136.0567
 40
0.3
  1
459489.48;238919.87
100
AcDbText
  0
TEXT
  5
98
330
40E
100
AcDbEntity
  8
HEIGHT
  6
SOLID_LINE
 62
     4
100
AcDbText
 10
459489.581093
 20
238919.469281
 30
136.0567
 40
0.3
  1
136.057
 11
459489.581093
 21
238919.769281
 31
136.0567
100
AcDbText
 73
     3
  0
TEXT
  5
99
330
40E
100
AcDbEntity
  8
POINT_CODE
  6
SOLID_LINE
 62
     5
100
AcDbText
 10
459489.381093
 20
238919.469281
 30
136.0567
 40
0.3
  1

 72
     2
 11
459489.381093
 21
238919.769281
 31
136.0567
100
AcDbText
 73
     3
  0
POINT
  5
9A
330
40E
100
AcDbEntity
  8
0
  6
SOLID_LINE
 62
     0
100
AcDbPoint
 10
459489.485267
 20
238919.859739
 30
136.055492
  0
TEXT
  5
9B
330
40E
100
AcDbEntity
  8
POINT_ID
  6
SOLID_LINE
 62
     1
100
AcDbText
 10
459486.435267
 20
238919.959739
 30
136.055492
 40
0.3
  1
FURROW018.6
 72
     2
 11
459489.385267
 21
238919.959739
 31
136.055492
100
AcDbText
  0
TEXT
  5
9C
330
40E
100
AcDbEntity
  8
COORDINATES
  6
SOLID_LINE
 62
    70
100
AcDbText
 10
459489.585267
 20
238919.959739
 30
136.055492
 40
0.3
  1
459489.49;238919.86
100
AcDbText
  0
TEXT
  5
9D
330
40E
100
AcDbEntity
  8
HEIGHT
  6
SOLID_LINE
 62
     4
100
AcDbText
 10
459489.585267
 20
238919.459739
 30
136.055492
 40
0.3
  1
136.055
 11
459489.585267
 21
238919.759739
 31
136.055492
100
AcDbText
 73
     3
  0
TEXT
  5
9E
330
40E
100
AcDbEntity
  8
POINT_CODE
  6
SOLID_LINE
 62
     5
100
AcDbText
 10
459489.385267
 20
238919.459739
 30
136.055492
 40
0.3
  1

 72
     2
 11
459489.385267
 21
238919.759739
 31
136.055492
100
AcDbText
 73
     3
  0
POINT
  5
9F
330
40E
100
AcDbEntity
  8
0
  6
SOLID_LINE
 62
     0
100
AcDbPoint
 10
459490.2202
 20
238920.894339
 30
136.109411
  0
TEXT
  5
A0
330
40E
100
AcDbEntity
  8
POINT_ID
  6
SOLID_LINE
 62
     1
100
AcDbText
 10
459487.1702
 20
238920.994339
 30
136.109411
 40
0.3
  1
FURROW018.5
 72
     2
 11
459490.1202
 21
238920.994339
 31
136.109411
100
AcDbText
  0
TEXT
  5
A1
330
40E
100
AcDbEntity
  8
COORDINATES
  6
SOLID_LINE
 62
    70
100
AcDbText
 10
459490.3202
 20
238920.994339
 30
136.109411
 40
0.3
  1
459490.22;238920.89
100
AcDbText
  0
TEXT
  5
A2
330
40E
100
AcDbEntity
  8
HEIGHT
  6
SOLID_LINE
 62
     4
100
AcDbText
 10
459490.3202
 20
238920.494339
 30
136.109411
 40
0.3
  1
136.109
 11
459490.3202
 21
238920.794339
 31
136.109411
100
AcDbText
 73
     3
  0
TEXT
  5
A3
330
40E
100
AcDbEntity
  8
POINT_CODE
  6
SOLID_LINE
 62
     5
100
AcDbText
 10
459490.1202
 20
238920.494339
 30
136.109411
 40
0.3
  1

 72
     2
 11
459490.1202
 21
238920.794339
 31
136.109411
100
AcDbText
 73
     3
  0
POINT
  5
A4
330
40E
100
AcDbEntity
  8
0
  6
SOLID_LINE
 62
     0
100
AcDbPoint
 10
459490.885388
 20
238921.909044
 30
136.143023
  0
TEXT
  5
A5
330
40E
100
AcDbEntity
  8
POINT_ID
  6
SOLID_LINE
 62
     1
100
AcDbText
 10
459487.835388
 20
238922.009044
 30
136.143023
 40
0.3
  1
FURROW018.4
 72
     2
 11
459490.785388
 21
238922.009044
 31
136.143023
100
AcDbText
  0
TEXT
  5
A6
330
40E
100
AcDbEntity
  8
COORDINATES
  6
SOLID_LINE
 62
    70
100
AcDbText
 10
459490.985388
 20
238922.009044
 30
136.143023
 40
0.3
  1
459490.89;238921.91
100
AcDbText
  0
TEXT
  5
A7
330
40E
100
AcDbEntity
  8
HEIGHT
  6
SOLID_LINE
 62
     4
100
AcDbText
 10
459490.985388
 20
238921.509044
 30
136.143023
 40
0.3
  1
136.143
 11
459490.985388
 21
238921.809044
 31
136.143023
100
AcDbText
 73
     3
  0
TEXT
  5
A8
330
40E
100
AcDbEntity
  8
POINT_CODE
  6
SOLID_LINE
 62
     5
100
AcDbText
 10
459490.785388
 20
238921.509044
 30
136.143023
 40
0.3
  1

 72
     2
 11
459490.785388
 21
238921.809044
 31
136.143023
100
AcDbText
 73
     3
  0
POINT
  5
A9
330
40E
100
AcDbEntity
  8
0
  6
SOLID_LINE
 62
     0
100
AcDbPoint
 10
459490.022265
 20
238922.5532
 30
136.153402
  0
TEXT
  5
AA
330
40E
100
AcDbEntity
  8
POINT_ID
  6
SOLID_LINE
 62
     1
100
AcDbText
 10
459486.972265
 20
238922.6532
 30
136.153402
 40
0.3
  1
FURROW018.3
 72
     2
 11
459489.922265
 21
238922.6532
 31
136.153402
100
AcDbText
  0
TEXT
  5
AB
330
40E
100
AcDbEntity
  8
COORDINATES
  6
SOLID_LINE
 62
    70
100
AcDbText
 10
459490.122265
 20
238922.6532
 30
136.153402
 40
0.3
  1
459490.02;238922.55
100
AcDbText
  0
TEXT
  5
AC
330
40E
100
AcDbEntity
  8
HEIGHT
  6
SOLID_LINE
 62
     4
100
AcDbText
 10
459490.122265
 20
238922.1532
 30
136.153402
 40
0.3
  1
136.153
 11
459490.122265
 21
238922.4532
 31
136.153402
100
AcDbText
 73
     3
  0
TEXT
  5
AD
330
40E
100
AcDbEntity
  8
POINT_CODE
  6
SOLID_LINE
 62
     5
100
AcDbText
 10
459489.922265
 20
238922.1532
 30
136.153402
 40
0.3
  1

 72
     2
 11
459489.922265
 21
238922.4532
 31
136.153402
100
AcDbText
 73
     3
  0
POINT
  5
AE
330
40E
100
AcDbEntity
  8
0
  6
SOLID_LINE
 62
     0
100
AcDbPoint
 10
459489.150478
 20
238921.188738
 30
136.122938
  0
TEXT
  5
AF
330
40E
100
AcDbEntity
  8
POINT_ID
  6
SOLID_LINE
 62
     1
100
AcDbText
 10
459486.100478
 20
238921.288738
 30
136.122938
 40
0.3
  1
FURROW018.2
 72
     2
 11
459489.050478
 21
238921.288738
 31
136.122938
100
AcDbText
  0
TEXT
  5
B0
330
40E
100
AcDbEntity
  8
COORDINATES
  6
SOLID_LINE
 62
    70
100
AcDbText
 10
459489.250478
 20
238921.288738
 30
136.122938
 40
0.3
  1
459489.15;238921.19
100
AcDbText
  0
TEXT
  5
B1
330
40E
100
AcDbEntity
  8
HEIGHT
  6
SOLID_LINE
 62
     4
100
AcDbText
 10
459489.250478
 20
238920.788738
 30
136.122938
 40
0.3
  1
136.123
 11
459489.250478
 21
238921.088738
 31
136.122938
100
AcDbText
 73
     3
  0
TEXT
  5
B2
330
40E
100
AcDbEntity
  8
POINT_CODE
  6
SOLID_LINE
 62
     5
100
AcDbText
 10
459489.050478
 20
238920.788738
 30
136.122938
 40
0.3
  1

 72
     2
 11
459489.050478
 21
238921.088738
 31
136.122938
100
AcDbText
 73
     3
  0
POINT
  5
B3
330
40E
100
AcDbEntity
  8
0
  6
SOLID_LINE
 62
     0
100
AcDbPoint
 10
459488.212388
 20
238919.724294
 30
136.098392
  0
TEXT
  5
B4
330
40E
100
AcDbEntity
  8
POINT_ID
  6
SOLID_LINE
 62
     1
100
AcDbText
 10
459485.262388
 20
238919.824294
 30
136.098392
 40
0.3
  1
FURROW018.1
 72
     2
 11
459488.112388
 21
238919.824294
 31
136.098392
100
AcDbText
  0
TEXT
  5
B5
330
40E
100
AcDbEntity
  8
COORDINATES
  6
SOLID_LINE
 62
    70
100
AcDbText
 10
459488.312388
 20
238919.824294
 30
136.098392
 40
0.3
  1
459488.21;238919.72
100
AcDbText
  0
TEXT
  5
B6
330
40E
100
AcDbEntity
  8
HEIGHT
  6
SOLID_LINE
 62
     4
100
AcDbText
 10
459488.312388
 20
238919.324294
 30
136.098392
 40
0.3
  1
136.098
 11
459488.312388
 21
238919.624294
 31
136.098392
100
AcDbText
 73
     3
  0
TEXT
  5
B7
330
40E
100
AcDbEntity
  8
POINT_CODE
  6
SOLID_LINE
 62
     5
100
AcDbText
 10
459488.112388
 20
238919.324294
 30
136.098392
 40
0.3
  1

 72
     2
 11
459488.112388
 21
238919.624294
 31
136.098392
100
AcDbText
 73
     3
  0
POINT
  5
B8
330
40E
100
AcDbEntity
  8
0
  6
SOLID_LINE
 62
     0
100
AcDbPoint
 10
459485.557036
 20
238914.042557
 30
136.174575
  0
TEXT
  5
B9
330
40E
100
AcDbEntity
  8
POINT_ID
  6
SOLID_LINE
 62
     1
100
AcDbText
 10
459483.757036
 20
238914.142557
 30
136.174575
 40
0.3
  1
DP009.2
 72
     2
 11
459485.457036
 21
238914.142557
 31
136.174575
100
AcDbText
  0
TEXT
  5
BA
330
40E
100
AcDbEntity
  8
COORDINATES
  6
SOLID_LINE
 62
    70
100
AcDbText
 10
459485.657036
 20
238914.142557
 30
136.174575
 40
0.3
  1
459485.56;238914.04
100
AcDbText
  0
TEXT
  5
BB
330
40E
100
AcDbEntity
  8
HEIGHT
  6
SOLID_LINE
 62
     4
100
AcDbText
 10
459485.657036
 20
238913.642557
 30
136.174575
 40
0.3
  1
136.175
 11
459485.657036
 21
238913.942557
 31
136.174575
100
AcDbText
 73
     3
  0
TEXT
  5
BC
330
40E
100
AcDbEntity
  8
POINT_CODE
  6
SOLID_LINE
 62
     5
100
AcDbText
 10
459485.457036
 20
238913.642557
 30
136.174575
 40
0.3
  1

 72
     2
 11
459485.457036
 21
238913.942557
 31
136.174575
100
AcDbText
 73
     3
  0
POINT
  5
BD
330
40E
100
AcDbEntity
  8
0
  6
SOLID_LINE
 62
     0
100
AcDbPoint
 10
459487.630016
 20
238917.160136
 30
136.201607
  0
TEXT
  5
BE
330
40E
100
AcDbEntity
  8
POINT_ID
  6
SOLID_LINE
 62
     1
100
AcDbText
 10
459485.930016
 20
238917.260136
 30
136.201607
 40
0.3
  1
DP009.1
 72
     2
 11
459487.530016
 21
238917.260136
 31
136.201607
100
AcDbText
  0
TEXT
  5
BF
330
40E
100
AcDbEntity
  8
COORDINATES
  6
SOLID_LINE
 62
    70
100
AcDbText
 10
459487.730016
 20
238917.260136
 30
136.201607
 40
0.3
  1
459487.63;238917.16
100
AcDbText
  0
TEXT
  5
C0
330
40E
100
AcDbEntity
  8
HEIGHT
  6
SOLID_LINE
 62
     4
100
AcDbText
 10
459487.730016
 20
238916.760136
 30
136.201607
 40
0.3
  1
136.202
 11
459487.730016
 21
238917.060136
 31
136.201607
100
AcDbText
 73
     3
  0
TEXT
  5
C1
330
40E
100
AcDbEntity
  8
POINT_CODE
  6
SOLID_LINE
 62
     5
100
AcDbText
 10
459487.530016
 20
238916.760136
 30
136.201607
 40
0.3
  1

 72
     2
 11
459487.530016
 21
238917.060136
 31
136.201607
100
AcDbText
 73
     3
  0
POINT
  5
C2
330
40E
100
AcDbEntity
  8
0
  6
SOLID_LINE
 62
     0
100
AcDbPoint
 10
459485.811041
 20
238914.425845
 30
136.061934
  0
TEXT
  5
C3
330
40E
100
AcDbEntity
  8
POINT_ID
  6
SOLID_LINE
 62
     1
100
AcDbText
 10
459482.511041
 20
238914.525845
 30
136.061934
 40
0.3
  1
FEATURE009.9
 72
     2
 11
459485.711041
 21
238914.525845
 31
136.061934
100
AcDbText
  0
TEXT
  5
C4
330
40E
100
AcDbEntity
  8
COORDINATES
  6
SOLID_LINE
 62
    70
100
AcDbText
 10
459485.911041
 20
238914.525845
 30
136.061934
 40
0.3
  1
459485.81;238914.43
100
AcDbText
  0
TEXT
  5
C5
330
40E
100
AcDbEntity
  8
HEIGHT
  6
SOLID_LINE
 62
     4
100
AcDbText
 10
459485.911041
 20
238914.025845
 30
136.061934
 40
0.3
  1
136.062
 11
459485.911041
 21
238914.325845
 31
136.061934
100
AcDbText
 73
     3
  0
TEXT
  5
C6
330
40E
100
AcDbEntity
  8
POINT_CODE
  6
SOLID_LINE
 62
     5
100
AcDbText
 10
459485.711041
 20
238914.025845
 30
136.061934
 40
0.3
  1

 72
     2
 11
459485.711041
 21
238914.325845
 31
136.061934
100
AcDbText
 73
     3
  0
POINT
  5
C7
330
40E
100
AcDbEntity
  8
0
  6
SOLID_LINE
 62
     0
100
AcDbPoint
 10
459486.830463
 20
238915.934983
 30
136.056755
  0
TEXT
  5
C8
330
40E
100
AcDbEntity
  8
POINT_ID
  6
SOLID_LINE
 62
     1
100
AcDbText
 10
459483.530463
 20
238916.034983
 30
136.056755
 40
0.3
  1
FEATURE009.8
 72
     2
 11
459486.730463
 21
238916.034983
 31
136.056755
100
AcDbText
  0
TEXT
  5
C9
330
40E
100
AcDbEntity
  8
COORDINATES
  6
SOLID_LINE
 62
    70
100
AcDbText
 10
459486.930463
 20
238916.034983
 30
136.056755
 40
0.3
  1
459486.83;238915.93
100
AcDbText
  0
TEXT
  5
CA
330
40E
100
AcDbEntity
  8
HEIGHT
  6
SOLID_LINE
 62
     4
100
AcDbText
 10
459486.930463
 20
238915.534983
 30
136.056755
 40
0.3
  1
136.057
 11
459486.930463
 21
238915.834983
 31
136.056755
100
AcDbText
 73
     3
  0
TEXT
  5
CB
330
40E
100
AcDbEntity
  8
POINT_CODE
  6
SOLID_LINE
 62
     5
100
AcDbText
 10
459486.730463
 20
238915.534983
 30
136.056755
 40
0.3
  1

 72
     2
 11
459486.730463
 21
238915.834983
 31
136.056755
100
AcDbText
 73
     3
  0
POINT
  5
CC
330
40E
100
AcDbEntity
  8
0
  6
SOLID_LINE
 62
     0
100
AcDbPoint
 10
459487.601815
 20
238917.154474
 30
136.0882
  0
TEXT
  5
CD
330
40E
100
AcDbEntity
  8
POINT_ID
  6
SOLID_LINE
 62
     1
100
AcDbText
 10
459484.301815
 20
238917.254474
 30
136.0882
 40
0.3
  1
FEATURE009.7
 72
     2
 11
459487.501815
 21
238917.254474
 31
136.0882
100
AcDbText
  0
TEXT
  5
CE
330
40E
100
AcDbEntity
  8
COORDINATES
  6
SOLID_LINE
 62
    70
100
AcDbText
 10
459487.701815
 20
238917.254474
 30
136.0882
 40
0.3
  1
459487.60;238917.15
100
AcDbText
  0
TEXT
  5
CF
330
40E
100
AcDbEntity
  8
HEIGHT
  6
SOLID_LINE
 62
     4
100
AcDbText
 10
459487.701815
 20
238916.754474
 30
136.0882
 40
0.3
  1
136.088
 11
459487.701815
 21
238917.054474
 31
136.0882
100
AcDbText
 73
     3
  0
TEXT
  5
D0
330
40E
100
AcDbEntity
  8
POINT_CODE
  6
SOLID_LINE
 62
     5
100
AcDbText
 10
459487.501815
 20
238916.754474
 30
136.0882
 40
0.3
  1

 72
     2
 11
459487.501815
 21
238917.054474
 31
136.0882
100
AcDbText
 73
     3
  0
POINT
  5
D1
330
40E
100
AcDbEntity
  8
0
  6
SOLID_LINE
 62
     0
100
AcDbPoint
 10
459487.21233
 20
238917.485989
 30
136.112029
  0
TEXT
  5
D2
330
40E
100
AcDbEntity
  8
POINT_ID
  6
SOLID_LINE
 62
     1
100
AcDbText
 10
459483.91233
 20
238917.585989
 30
136.112029
 40
0.3
  1
FEATURE009.6
 72
     2
 11
459487.11233
 21
238917.585989
 31
136.112029
100
AcDbText
  0
TEXT
  5
D3
330
40E
100
AcDbEntity
  8
COORDINATES
  6
SOLID_LINE
 62
    70
100
AcDbText
 10
459487.31233
 20
238917.585989
 30
136.112029
 40
0.3
  1
459487.21;238917.49
100
AcDbText
  0
TEXT
  5
D4
330
40E
100
AcDbEntity
  8
HEIGHT
  6
SOLID_LINE
 62
     4
100
AcDbText
 10
459487.31233
 20
238917.085989
 30
136.112029
 40
0.3
  1
136.112
 11
459487.31233
 21
238917.385989
 31
136.112029
100
AcDbText
 73
     3
  0
TEXT
  5
D5
330
40E
100
AcDbEntity
  8
POINT_CODE
  6
SOLID_LINE
 62
     5
100
AcDbText
 10
459487.11233
 20
238917.085989
 30
136.112029
 40
0.3
  1

 72
     2
 11
459487.11233
 21
238917.385989
 31
136.112029
100
AcDbText
 73
     3
  0
POINT
  5
D6
330
40E
100
AcDbEntity
  8
0
  6
SOLID_LINE
 62
     0
100
AcDbPoint
 10
459486.841031
 20
238917.760663
 30
136.086387
  0
TEXT
  5
D7
330
40E
100
AcDbEntity
  8
POINT_ID
  6
SOLID_LINE
 62
     1
100
AcDbText
 10
459483.541031
 20
238917.860663
 30
136.086387
 40
0.3
  1
FEATURE009.5
 72
     2
 11
459486.741031
 21
238917.860663
 31
136.086387
100
AcDbText
  0
TEXT
  5
D8
330
40E
100
AcDbEntity
  8
COORDINATES
  6
SOLID_LINE
 62
    70
100
AcDbText
 10
459486.941031
 20
238917.860663
 30
136.086387
 40
0.3
  1
459486.84;238917.76
100
AcDbText
  0
TEXT
  5
D9
330
40E
100
AcDbEntity
  8
HEIGHT
  6
SOLID_LINE
 62
     4
100
AcDbText
 10
459486.941031
 20
238917.360663
 30
136.086387
 40
0.3
  1
136.086
 11
459486.941031
 21
238917.660663
 31
136.086387
100
AcDbText
 73
     3
  0
TEXT
  5
DA
330
40E
100
AcDbEntity
  8
POINT_CODE
  6
SOLID_LINE
 62
     5
100
AcDbText
 10
459486.741031
 20
238917.360663
 30
136.086387
 40
0.3
  1

 72
     2
 11
459486.741031
 21
238917.660663
 31
136.086387
100
AcDbText
 73
     3
  0
POINT
  5
DB
330
40E
100
AcDbEntity
  8
0
  6
SOLID_LINE
 62
     0
100
AcDbPoint
 10
459486.333942
 20
238917.089872
 30
136.033494
  0
TEXT
  5
DC
330
40E
100
AcDbEntity
  8
POINT_ID
  6
SOLID_LINE
 62
     1
100
AcDbText
 10
459483.033942
 20
238917.189872
 30
136.033494
 40
0.3
  1
FEATURE009.4
 72
     2
 11
459486.233942
 21
238917.189872
 31
136.033494
100
AcDbText
  0
TEXT
  5
DD
330
40E
100
AcDbEntity
  8
COORDINATES
  6
SOLID_LINE
 62
    70
100
AcDbText
 10
459486.433942
 20
238917.189872
 30
136.033494
 40
0.3
  1
459486.33;238917.09
100
AcDbText
  0
TEXT
  5
DE
330
40E
100
AcDbEntity
  8
HEIGHT
  6
SOLID_LINE
 62
     4
100
AcDbText
 10
459486.433942
 20
238916.689872
 30
136.033494
 40
0.3
  1
136.033
 11
459486.433942
 21
238916.989872
 31
136.033494
100
AcDbText
 73
     3
  0
TEXT
  5
DF
330
40E
100
AcDbEntity
  8
POINT_CODE
  6
SOLID_LINE
 62
     5
100
AcDbText
 10
459486.233942
 20
238916.689872
 30
136.033494
 40
0.3
  1

 72
     2
 11
459486.233942
 21
238916.989872
 31
136.033494
100
AcDbText
 73
     3
  0
POINT
  5
E0
330
40E
100
AcDbEntity
  8
0
  6
SOLID_LINE
 62
     0
100
AcDbPoint
 10
459485.534253
 20
238915.851436
 30
136.079242
  0
TEXT
  5
E1
330
40E
100
AcDbEntity
  8
POINT_ID
  6
SOLID_LINE
 62
     1
100
AcDbText
 10
459482.234253
 20
238915.951436
 30
136.079242
 40
0.3
  1
FEATURE009.3
 72
     2
 11
459485.434253
 21
238915.951436
 31
136.079242
100
AcDbText
  0
TEXT
  5
E2
330
40E
100
AcDbEntity
  8
COORDINATES
  6
SOLID_LINE
 62
    70
100
AcDbText
 10
459485.634253
 20
238915.951436
 30
136.079242
 40
0.3
  1
459485.53;238915.85
100
AcDbText
  0
TEXT
  5
E3
330
40E
100
AcDbEntity
  8
HEIGHT
  6
SOLID_LINE
 62
     4
100
AcDbText
 10
459485.634253
 20
238915.451436
 30
136.079242
 40
0.3
  1
136.079
 11
459485.634253
 21
238915.751436
 31
136.079242
100
AcDbText
 73
     3
  0
TEXT
  5
E4
330
40E
100
AcDbEntity
  8
POINT_CODE
  6
SOLID_LINE
 62
     5
100
AcDbText
 10
459485.434253
 20
238915.451436
 30
136.079242
 40
0.3
  1

 72
     2
 11
459485.434253
 21
238915.751436
 31
136.079242
100
AcDbText
 73
     3
  0
POINT
  5
E5
330
40E
100
AcDbEntity
  8
0
  6
SOLID_LINE
 62
     0
100
AcDbPoint
 10
459484.803151
 20
238914.752103
 30
136.061745
  0
TEXT
  5
E6
330
40E
100
AcDbEntity
  8
POINT_ID
  6
SOLID_LINE
 62
     1
100
AcDbText
 10
459481.503151
 20
238914.852103
 30
136.061745
 40
0.3
  1
FEATURE009.2
 72
     2
 11
459484.703151
 21
238914.852103
 31
136.061745
100
AcDbText
  0
TEXT
  5
E7
330
40E
100
AcDbEntity
  8
COORDINATES
  6
SOLID_LINE
 62
    70
100
AcDbText
 10
459484.903151
 20
238914.852103
 30
136.061745
 40
0.3
  1
459484.80;238914.75
100
AcDbText
  0
TEXT
  5
E8
330
40E
100
AcDbEntity
  8
HEIGHT
  6
SOLID_LINE
 62
     4
100
AcDbText
 10
459484.903151
 20
238914.352103
 30
136.061745
 40
0.3
  1
136.062
 11
459484.903151
 21
238914.652103
 31
136.061745
100
AcDbText
 73
     3
  0
TEXT
  5
E9
330
40E
100
AcDbEntity
  8
POINT_CODE
  6
SOLID_LINE
 62
     5
100
AcDbText
 10
459484.703151
 20
238914.352103
 30
136.061745
 40
0.3
  1

 72
     2
 11
459484.703151
 21
238914.652103
 31
136.061745
100
AcDbText
 73
     3
  0
POINT
  5
EA
330
40E
100
AcDbEntity
  8
0
  6
SOLID_LINE
 62
     0
100
AcDbPoint
 10
459485.473566
 20
238914.309586
 30
136.043783
  0
TEXT
  5
EB
330
40E
100
AcDbEntity
  8
POINT_ID
  6
SOLID_LINE
 62
     1
100
AcDbText
 10
459482.273566
 20
238914.409586
 30
136.043783
 40
0.3
  1
FEATURE009.1
 72
     2
 11
459485.373566
 21
238914.409586
 31
136.043783
100
AcDbText
  0
TEXT
  5
EC
330
40E
100
AcDbEntity
  8
COORDINATES
  6
SOLID_LINE
 62
    70
100
AcDbText
 10
459485.573566
 20
238914.409586
 30
136.043783
 40
0.3
  1
459485.47;238914.31
100
AcDbText
  0
TEXT
  5
ED
330
40E
100
AcDbEntity
  8
HEIGHT
  6
SOLID_LINE
 62
     4
100
AcDbText
 10
459485.573566
 20
238913.909586
 30
136.043783
 40
0.3
  1
136.044
 11
459485.573566
 21
238914.209586
 31
136.043783
100
AcDbText
 73
     3
  0
TEXT
  5
EE
330
40E
100
AcDbEntity
  8
POINT_CODE
  6
SOLID_LINE
 62
     5
100
AcDbText
 10
459485.373566
 20
238913.909586
 30
136.043783
 40
0.3
  1

 72
     2
 11
459485.373566
 21
238914.209586
 31
136.043783
100
AcDbText
 73
     3
  0
POINT
  5
EF
330
40E
100
AcDbEntity
  8
0
  6
SOLID_LINE
 62
     0
100
AcDbPoint
 10
459495.759958
 20
238930.342919
 30
136.136027
  0
TEXT
  5
F0
330
40E
100
AcDbEntity
  8
POINT_ID
  6
SOLID_LINE
 62
     1
100
AcDbText
 10
459493.109958
 20
238930.442919
 30
136.136027
 40
0.3
  1
BURIAL2?.7
 72
     2
 11
459495.659958
 21
238930.442919
 31
136.136027
100
AcDbText
  0
TEXT
  5
F1
330
40E
100
AcDbEntity
  8
COORDINATES
  6
SOLID_LINE
 62
    70
100
AcDbText
 10
459495.859958
 20
238930.442919
 30
136.136027
 40
0.3
  1
459495.76;238930.34
100
AcDbText
  0
TEXT
  5
F2
330
40E
100
AcDbEntity
  8
HEIGHT
  6
SOLID_LINE
 62
     4
100
AcDbText
 10
459495.859958
 20
238929.942919
 30
136.136027
 40
0.3
  1
136.136
 11
459495.859958
 21
238930.242919
 31
136.136027
100
AcDbText
 73
     3
  0
TEXT
  5
F3
330
40E
100
AcDbEntity
  8
POINT_CODE
  6
SOLID_LINE
 62
     5
100
AcDbText
 10
459495.659958
 20
238929.942919
 30
136.136027
 40
0.3
  1

 72
     2
 11
459495.659958
 21
238930.242919
 31
136.136027
100
AcDbText
 73
     3
  0
POINT
  5
F4
330
40E
100
AcDbEntity
  8
0
  6
SOLID_LINE
 62
     0
100
AcDbPoint
 10
459495.814599
 20
238930.694476
 30
136.110874
  0
TEXT
  5
F5
330
40E
100
AcDbEntity
  8
POINT_ID
  6
SOLID_LINE
 62
     1
100
AcDbText
 10
459493.164599
 20
238930.794476
 30
136.110874
 40
0.3
  1
BURIAL2?.6
 72
     2
 11
459495.714599
 21
238930.794476
 31
136.110874
100
AcDbText
  0
TEXT
  5
F6
330
40E
100
AcDbEntity
  8
COORDINATES
  6
SOLID_LINE
 62
    70
100
AcDbText
 10
459495.914599
 20
238930.794476
 30
136.110874
 40
0.3
  1
459495.81;238930.69
100
AcDbText
  0
TEXT
  5
F7
330
40E
100
AcDbEntity
  8
HEIGHT
  6
SOLID_LINE
 62
     4
100
AcDbText
 10
459495.914599
 20
238930.294476
 30
136.110874
 40
0.3
  1
136.111
 11
459495.914599
 21
238930.594476
 31
136.110874
100
AcDbText
 73
     3
  0
TEXT
  5
F8
330
40E
100
AcDbEntity
  8
POINT_CODE
  6
SOLID_LINE
 62
     5
100
AcDbText
 10
459495.714599
 20
238930.294476
 30
136.110874
 40
0.3
  1

 72
     2
 11
459495.714599
 21
238930.594476
 31
136.110874
100
AcDbText
 73
     3
  0
POINT
  5
F9
330
40E
100
AcDbEntity
  8
0
  6
SOLID_LINE
 62
     0
100
AcDbPoint
 10
459496.23309
 20
238931.329606
 30
136.145415
  0
TEXT
  5
FA
330
40E
100
AcDbEntity
  8
POINT_ID
  6
SOLID_LINE
 62
     1
100
AcDbText
 10
459493.58309
 20
238931.429606
 30
136.145415
 40
0.3
  1
BURIAL2?.5
 72
     2
 11
459496.13309
 21
238931.429606
 31
136.145415
100
AcDbText
  0
TEXT
  5
FB
330
40E
100
AcDbEntity
  8
COORDINATES
  6
SOLID_LINE
 62
    70
100
AcDbText
 10
459496.33309
 20
238931.429606
 30
136.145415
 40
0.3
  1
459496.23;238931.33
100
AcDbText
  0
TEXT
  5
FC
330
40E
100
AcDbEntity
  8
HEIGHT
  6
SOLID_LINE
 62
     4
100
AcDbText
 10
459496.33309
 20
238930.929606
 30
136.145415
 40
0.3
  1
136.145
 11
459496.33309
 21
238931.229606
 31
136.145415
100
AcDbText
 73
     3
  0
TEXT
  5
FD
330
40E
100
AcDbEntity
  8
POINT_CODE
  6
SOLID_LINE
 62
     5
100
AcDbText
 10
459496.13309
 20
238930.929606
 30
136.145415
 40
0.3
  1

 72
     2
 11
459496.13309
 21
238931.229606
 31
136.145415
100
AcDbText
 73
     3
  0
POINT
  5
FE
330
40E
100
AcDbEntity
  8
0
  6
SOLID_LINE
 62
     0
100
AcDbPoint
 10
459496.878265
 20
238931.598191
 30
136.18024
  0
TEXT
  5
FF
330
40E
100
AcDbEntity
  8
POINT_ID
  6
SOLID_LINE
 62
     1
100
AcDbText
 10
459494.228265
 20
238931.698191
 30
136.18024
 40
0.3
  1
BURIAL2?.4
 72
     2
 11
459496.778265
 21
238931.698191
 31
136.18024
100
AcDbText
  0
TEXT
  5
100
330
40E
100
AcDbEntity
  8
COORDINATES
  6
SOLID_LINE
 62
    70
100
AcDbText
 10
459496.978265
 20
238931.698191
 30
136.18024
 40
0.3
  1
459496.88;238931.60
100
AcDbText
  0
TEXT
  5
101
330
40E
100
AcDbEntity
  8
HEIGHT
  6
SOLID_LINE
 62
     4
100
AcDbText
 10
459496.978265
 20
238931.198191
 30
136.18024
 40
0.3
  1
136.180
 11
459496.978265
 21
238931.498191
 31
136.18024
100
AcDbText
 73
     3
  0
TEXT
  5
102
330
40E
100
AcDbEntity
  8
POINT_CODE
  6
SOLID_LINE
 62
     5
100
AcDbText
 10
459496.778265
 20
238931.198191
 30
136.18024
 40
0.3
  1

 72
     2
 11
459496.778265
 21
238931.498191
 31
136.18024
100
AcDbText
 73
     3
  0
POINT
  5
103
330
40E
100
AcDbEntity
  8
0
  6
SOLID_LINE
 62
     0
100
AcDbPoint
 10
459496.841265
 20
238930.969866
 30
136.131234
  0
TEXT
  5
104
330
40E
100
AcDbEntity
  8
POINT_ID
  6
SOLID_LINE
 62
     1
100
AcDbText
 10
459494.191265
 20
238931.069866
 30
136.131234
 40
0.3
  1
BURIAL2?.3
 72
     2
 11
459496.741265
 21
238931.069866
 31
136.131234
100
AcDbText
  0
TEXT
  5
105
330
40E
100
AcDbEntity
  8
COORDINATES
  6
SOLID_LINE
 62
    70
100
AcDbText
 10
459496.941265
 20
238931.069866
 30
136.131234
 40
0.3
  1
459496.84;238930.97
100
AcDbText
  0
TEXT
  5
106
330
40E
100
AcDbEntity
  8
HEIGHT
  6
SOLID_LINE
 62
     4
100
AcDbText
 10
459496.941265
 20
238930.569866
 30
136.131234
 40
0.3
  1
136.131
 11
459496.941265
 21
238930.869866
 31
136.131234
100
AcDbText
 73
     3
  0
TEXT
  5
107
330
40E
100
AcDbEntity
  8
POINT_CODE
  6
SOLID_LINE
 62
     5
100
AcDbText
 10
459496.741265
 20
238930.569866
 30
136.131234
 40
0.3
  1

 72
     2
 11
459496.741265
 21
238930.869866
 31
136.131234
100
AcDbText
 73
     3
  0
POINT
  5
108
330
40E
100
AcDbEntity
  8
0
  6
SOLID_LINE
 62
     0
100
AcDbPoint
 10
459496.494632
 20
238930.436337
 30
136.11274
  0
TEXT
  5
109
330
40E
100
AcDbEntity
  8
POINT_ID
  6
SOLID_LINE
 62
     1
100
AcDbText
 10
459493.844632
 20
238930.536337
 30
136.11274
 40
0.3
  1
BURIAL2?.2
 72
     2
 11
459496.394632
 21
238930.536337
 31
136.11274
100
AcDbText
  0
TEXT
  5
10A
330
40E
100
AcDbEntity
  8
COORDINATES
  6
SOLID_LINE
 62
    70
100
AcDbText
 10
459496.594632
 20
238930.536337
 30
136.11274
 40
0.3
  1
459496.49;238930.44
100
AcDbText
  0
TEXT
  5
10B
330
40E
100
AcDbEntity
  8
HEIGHT
  6
SOLID_LINE
 62
     4
100
AcDbText
 10
459496.594632
 20
238930.036337
 30
136.11274
 40
0.3
  1
136.113
 11
459496.594632
 21
238930.336337
 31
136.11274
100
AcDbText
 73
     3
  0
TEXT
  5
10C
330
40E
100
AcDbEntity
  8
POINT_CODE
  6
SOLID_LINE
 62
     5
100
AcDbText
 10
459496.394632
 20
238930.036337
 30
136.11274
 40
0.3
  1

 72
     2
 11
459496.394632
 21
238930.336337
 31
136.11274
100
AcDbText
 73
     3
  0
POINT
  5
10D
330
40E
100
AcDbEntity
  8
0
  6
SOLID_LINE
 62
     0
100
AcDbPoint
 10
459495.863029
 20
238930.114021
 30
136.137217
  0
TEXT
  5
10E
330
40E
100
AcDbEntity
  8
POINT_ID
  6
SOLID_LINE
 62
     1
100
AcDbText
 10
459493.313029
 20
238930.214021
 30
136.137217
 40
0.3
  1
BURIAL2?.1
 72
     2
 11
459495.763029
 21
238930.214021
 31
136.137217
100
AcDbText
  0
TEXT
  5
10F
330
40E
100
AcDbEntity
  8
COORDINATES
  6
SOLID_LINE
 62
    70
100
AcDbText
 10
459495.963029
 20
238930.214021
 30
136.137217
 40
0.3
  1
459495.86;238930.11
100
AcDbText
  0
TEXT
  5
110
330
40E
100
AcDbEntity
  8
HEIGHT
  6
SOLID_LINE
 62
     4
100
AcDbText
 10
459495.963029
 20
238929.714021
 30
136.137217
 40
0.3
  1
136.137
 11
459495.963029
 21
238930.014021
 31
136.137217
100
AcDbText
 73
     3
  0
TEXT
  5
111
330
40E
100
AcDbEntity
  8
POINT_CODE
  6
SOLID_LINE
 62
     5
100
AcDbText
 10
459495.763029
 20
238929.714021
 30
136.137217
 40
0.3
  1

 72
     2
 11
459495.763029
 21
238930.014021
 31
136.137217
100
AcDbText
 73
     3
  0
POINT
  5
112
330
40E
100
AcDbEntity
  8
0
  6
SOLID_LINE
 62
     0
100
AcDbPoint
 10
459494.548555
 20
238928.120964
 30
136.084794
  0
TEXT
  5
113
330
40E
100
AcDbEntity
  8
POINT_ID
  6
SOLID_LINE
 62
     1
100
AcDbText
 10
459491.998555
 20
238928.220964
 30
136.084794
 40
0.3
  1
BURIAL1?.9
 72
     2
 11
459494.448555
 21
238928.220964
 31
136.084794
100
AcDbText
  0
TEXT
  5
114
330
40E
100
AcDbEntity
  8
COORDINATES
  6
SOLID_LINE
 62
    70
100
AcDbText
 10
459494.648555
 20
238928.220964
 30
136.084794
 40
0.3
  1
459494.55;238928.12
100
AcDbText
  0
TEXT
  5
115
330
40E
100
AcDbEntity
  8
HEIGHT
  6
SOLID_LINE
 62
     4
100
AcDbText
 10
459494.648555
 20
238927.720964
 30
136.084794
 40
0.3
  1
136.085
 11
459494.648555
 21
238928.020964
 31
136.084794
100
AcDbText
 73
     3
  0
TEXT
  5
116
330
40E
100
AcDbEntity
  8
POINT_CODE
  6
SOLID_LINE
 62
     5
100
AcDbText
 10
459494.448555
 20
238927.720964
 30
136.084794
 40
0.3
  1

 72
     2
 11
459494.448555
 21
238928.020964
 31
136.084794
100
AcDbText
 73
     3
  0
POINT
  5
117
330
40E
100
AcDbEntity
  8
0
  6
SOLID_LINE
 62
     0
100
AcDbPoint
 10
459494.636389
 20
238927.525331
 30
136.105936
  0
TEXT
  5
118
330
40E
100
AcDbEntity
  8
POINT_ID
  6
SOLID_LINE
 62
     1
100
AcDbText
 10
459492.086389
 20
238927.625331
 30
136.105936
 40
0.3
  1
BURIAL1?.8
 72
     2
 11
459494.536389
 21
238927.625331
 31
136.105936
100
AcDbText
  0
TEXT
  5
119
330
40E
100
AcDbEntity
  8
COORDINATES
  6
SOLID_LINE
 62
    70
100
AcDbText
 10
459494.736389
 20
238927.625331
 30
136.105936
 40
0.3
  1
459494.64;238927.53
100
AcDbText
  0
TEXT
  5
11A
330
40E
100
AcDbEntity
  8
HEIGHT
  6
SOLID_LINE
 62
     4
100
AcDbText
 10
459494.736389
 20
238927.125331
 30
136.105936
 40
0.3
  1
136.106
 11
459494.736389
 21
238927.425331
 31
136.105936
100
AcDbText
 73
     3
  0
TEXT
  5
11B
330
40E
100
AcDbEntity
  8
POINT_CODE
  6
SOLID_LINE
 62
     5
100
AcDbText
 10
459494.536389
 20
238927.125331
 30
136.105936
 40
0.3
  1

 72
     2
 11
459494.536389
 21
238927.425331
 31
136.105936
100
AcDbText
 73
     3
  0
POINT
  5
11C
330
40E
100
AcDbEntity
  8
0
  6
SOLID_LINE
 62
     0
100
AcDbPoint
 10
459494.249485
 20
238926.889382
 30
136.176241
  0
TEXT
  5
11D
330
40E
100
AcDbEntity
  8
POINT_ID
  6
SOLID_LINE
 62
     1
100
AcDbText
 10
459491.699485
 20
238926.989382
 30
136.176241
 40
0.3
  1
BURIAL1?.7
 72
     2
 11
459494.149485
 21
238926.989382
 31
136.176241
100
AcDbText
  0
TEXT
  5
11E
330
40E
100
AcDbEntity
  8
COORDINATES
  6
SOLID_LINE
 62
    70
100
AcDbText
 10
459494.349485
 20
238926.989382
 30
136.176241
 40
0.3
  1
459494.25;238926.89
100
AcDbText
  0
TEXT
  5
11F
330
40E
100
AcDbEntity
  8
HEIGHT
  6
SOLID_LINE
 62
     4
100
AcDbText
 10
459494.349485
 20
238926.489382
 30
136.176241
 40
0.3
  1
136.176
 11
459494.349485
 21
238926.789382
 31
136.176241
100
AcDbText
 73
     3
  0
TEXT
  5
120
330
40E
100
AcDbEntity
  8
POINT_CODE
  6
SOLID_LINE
 62
     5
100
AcDbText
 10
459494.149485
 20
238926.489382
 30
136.176241
 40
0.3
  1

 72
     2
 11
459494.149485
 21
238926.789382
 31
136.176241
100
AcDbText
 73
     3
  0
POINT
  5
121
330
40E
100
AcDbEntity
  8
0
  6
SOLID_LINE
 62
     0
100
AcDbPoint
 10
459493.607881
 20
238926.251672
 30
136.14175
  0
TEXT
  5
122
330
40E
100
AcDbEntity
  8
POINT_ID
  6
SOLID_LINE
 62
     1
100
AcDbText
 10
459491.057881
 20
238926.351672
 30
136.14175
 40
0.3
  1
BURIAL1?.6
 72
     2
 11
459493.507881
 21
238926.351672
 31
136.14175
100
AcDbText
  0
TEXT
  5
123
330
40E
100
AcDbEntity
  8
COORDINATES
  6
SOLID_LINE
 62
    70
100
AcDbText
 10
459493.707881
 20
238926.351672
 30
136.14175
 40
0.3
  1
459493.61;238926.25
100
AcDbText
  0
TEXT
  5
124
330
40E
100
AcDbEntity
  8
HEIGHT
  6
SOLID_LINE
 62
     4
100
AcDbText
 10
459493.707881
 20
238925.851672
 30
136.14175
 40
0.3
  1
136.142
 11
459493.707881
 21
238926.151672
 31
136.14175
100
AcDbText
 73
     3
  0
TEXT
  5
125
330
40E
100
AcDbEntity
  8
POINT_CODE
  6
SOLID_LINE
 62
     5
100
AcDbText
 10
459493.507881
 20
238925.851672
 30
136.14175
 40
0.3
  1

 72
     2
 11
459493.507881
 21
238926.151672
 31
136.14175
100
AcDbText
 73
     3
  0
POINT
  5
126
330
40E
100
AcDbEntity
  8
0
  6
SOLID_LINE
 62
     0
100
AcDbPoint
 10
459492.797635
 20
238926.236843
 30
136.147799
  0
TEXT
  5
127
330
40E
100
AcDbEntity
  8
POINT_ID
  6
SOLID_LINE
 62
     1
100
AcDbText
 10
459490.247635
 20
238926.336843
 30
136.147799
 40
0.3
  1
BURIAL1?.5
 72
     2
 11
459492.697635
 21
238926.336843
 31
136.147799
100
AcDbText
  0
TEXT
  5
128
330
40E
100
AcDbEntity
  8
COORDINATES
  6
SOLID_LINE
 62
    70
100
AcDbText
 10
459492.897635
 20
238926.336843
 30
136.147799
 40
0.3
  1
459492.80;238926.24
100
AcDbText
  0
TEXT
  5
129
330
40E
100
AcDbEntity
  8
HEIGHT
  6
SOLID_LINE
 62
     4
100
AcDbText
 10
459492.897635
 20
238925.836843
 30
136.147799
 40
0.3
  1
136.148
 11
459492.897635
 21
238926.136843
 31
136.147799
100
AcDbText
 73
     3
  0
TEXT
  5
12A
330
40E
100
AcDbEntity
  8
POINT_CODE
  6
SOLID_LINE
 62
     5
100
AcDbText
 10
459492.697635
 20
238925.836843
 30
136.147799
 40
0.3
  1

 72
     2
 11
459492.697635
 21
238926.136843
 31
136.147799
100
AcDbText
 73
     3
  0
POINT
  5
12B
330
40E
100
AcDbEntity
  8
0
  6
SOLID_LINE
 62
     0
100
AcDbPoint
 10
459492.869177
 20
238927.051195
 30
136.159056
  0
TEXT
  5
12C
330
40E
100
AcDbEntity
  8
POINT_ID
  6
SOLID_LINE
 62
     1
100
AcDbText
 10
459490.319177
 20
238927.151195
 30
136.159056
 40
0.3
  1
BURIAL1?.4
 72
     2
 11
459492.769177
 21
238927.151195
 31
136.159056
100
AcDbText
  0
TEXT
  5
12D
330
40E
100
AcDbEntity
  8
COORDINATES
  6
SOLID_LINE
 62
    70
100
AcDbText
 10
459492.969177
 20
238927.151195
 30
136.159056
 40
0.3
  1
459492.87;238927.05
100
AcDbText
  0
TEXT
  5
12E
330
40E
100
AcDbEntity
  8
HEIGHT
  6
SOLID_LINE
 62
     4
100
AcDbText
 10
459492.969177
 20
238926.651195
 30
136.159056
 40
0.3
  1
136.159
 11
459492.969177
 21
238926.951195
 31
136.159056
100
AcDbText
 73
     3
  0
TEXT
  5
12F
330
40E
100
AcDbEntity
  8
POINT_CODE
  6
SOLID_LINE
 62
     5
100
AcDbText
 10
459492.769177
 20
238926.651195
 30
136.159056
 40
0.3
  1

 72
     2
 11
459492.769177
 21
238926.951195
 31
136.159056
100
AcDbText
 73
     3
  0
POINT
  5
130
330
40E
100
AcDbEntity
  8
0
  6
SOLID_LINE
 62
     0
100
AcDbPoint
 10
459493.121947
 20
238927.776217
 30
136.179974
  0
TEXT
  5
131
330
40E
100
AcDbEntity
  8
POINT_ID
  6
SOLID_LINE
 62
     1
100
AcDbText
 10
459490.571947
 20
238927.876217
 30
136.179974
 40
0.3
  1
BURIAL1?.3
 72
     2
 11
459493.021947
 21
238927.876217
 31
136.179974
100
AcDbText
  0
TEXT
  5
132
330
40E
100
AcDbEntity
  8
COORDINATES
  6
SOLID_LINE
 62
    70
100
AcDbText
 10
459493.221947
 20
238927.876217
 30
136.179974
 40
0.3
  1
459493.12;238927.78
100
AcDbText
  0
TEXT
  5
133
330
40E
100
AcDbEntity
  8
HEIGHT
  6
SOLID_LINE
 62
     4
100
AcDbText
 10
459493.221947
 20
238927.376217
 30
136.179974
 40
0.3
  1
136.180
 11
459493.221947
 21
238927.676217
 31
136.179974
100
AcDbText
 73
     3
  0
TEXT
  5
134
330
40E
100
AcDbEntity
  8
POINT_CODE
  6
SOLID_LINE
 62
     5
100
AcDbText
 10
459493.021947
 20
238927.376217
 30
136.179974
 40
0.3
  1

 72
     2
 11
459493.021947
 21
238927.676217
 31
136.179974
100
AcDbText
 73
     3
  0
POINT
  5
135
330
40E
100
AcDbEntity
  8
0
  6
SOLID_LINE
 62
     0
100
AcDbPoint
 10
459493.725627
 20
238928.146843
 30
136.165014
  0
TEXT
  5
136
330
40E
100
AcDbEntity
  8
POINT_ID
  6
SOLID_LINE
 62
     1
100
AcDbText
 10
459491.175627
 20
238928.246843
 30
136.165014
 40
0.3
  1
BURIAL1?.2
 72
     2
 11
459493.625627
 21
238928.246843
 31
136.165014
100
AcDbText
  0
TEXT
  5
137
330
40E
100
AcDbEntity
  8
COORDINATES
  6
SOLID_LINE
 62
    70
100
AcDbText
 10
459493.825627
 20
238928.246843
 30
136.165014
 40
0.3
  1
459493.73;238928.15
100
AcDbText
  0
TEXT
  5
138
330
40E
100
AcDbEntity
  8
HEIGHT
  6
SOLID_LINE
 62
     4
100
AcDbText
 10
459493.825627
 20
238927.746843
 30
136.165014
 40
0.3
  1
136.165
 11
459493.825627
 21
238928.046843
 31
136.165014
100
AcDbText
 73
     3
  0
TEXT
  5
139
330
40E
100
AcDbEntity
  8
POINT_CODE
  6
SOLID_LINE
 62
     5
100
AcDbText
 10
459493.625627
 20
238927.746843
 30
136.165014
 40
0.3
  1

 72
     2
 11
459493.625627
 21
238928.046843
 31
136.165014
100
AcDbText
 73
     3
  0
POINT
  5
13A
330
40E
100
AcDbEntity
  8
0
  6
SOLID_LINE
 62
     0
100
AcDbPoint
 10
459494.1811
 20
238928.124177
 30
136.104335
  0
TEXT
  5
13B
330
40E
100
AcDbEntity
  8
POINT_ID
  6
SOLID_LINE
 62
     1
100
AcDbText
 10
459491.7311
 20
238928.224177
 30
136.104335
 40
0.3
  1
BURIAL1?.1
 72
     2
 11
459494.0811
 21
238928.224177
 31
136.104335
100
AcDbText
  0
TEXT
  5
13C
330
40E
100
AcDbEntity
  8
COORDINATES
  6
SOLID_LINE
 62
    70
100
AcDbText
 10
459494.2811
 20
238928.224177
 30
136.104335
 40
0.3
  1
459494.18;238928.12
100
AcDbText
  0
TEXT
  5
13D
330
40E
100
AcDbEntity
  8
HEIGHT
  6
SOLID_LINE
 62
     4
100
AcDbText
 10
459494.2811
 20
238927.724177
 30
136.104335
 40
0.3
  1
136.104
 11
459494.2811
 21
238928.024177
 31
136.104335
100
AcDbText
 73
     3
  0
TEXT
  5
13E
330
40E
100
AcDbEntity
  8
POINT_CODE
  6
SOLID_LINE
 62
     5
100
AcDbText
 10
459494.0811
 20
238927.724177
 30
136.104335
 40
0.3
  1

 72
     2
 11
459494.0811
 21
238928.024177
 31
136.104335
100
AcDbText
 73
     3
  0
POINT
  5
13F
330
40E
100
AcDbEntity
  8
0
  6
SOLID_LINE
 62
     0
100
AcDbPoint
 10
459496.102405
 20
238932.119343
 30
136.07496
  0
TEXT
  5
140
330
40E
100
AcDbEntity
  8
POINT_ID
  6
SOLID_LINE
 62
     1
100
AcDbText
 10
459494.352405
 20
238932.219343
 30
136.07496
 40
0.3
  1
DP015.4
 72
     2
 11
459496.002405
 21
238932.219343
 31
136.07496
100
AcDbText
  0
TEXT
  5
141
330
40E
100
AcDbEntity
  8
COORDINATES
  6
SOLID_LINE
 62
    70
100
AcDbText
 10
459496.202405
 20
238932.219343
 30
136.07496
 40
0.3
  1
459496.10;238932.12
100
AcDbText
  0
TEXT
  5
142
330
40E
100
AcDbEntity
  8
HEIGHT
  6
SOLID_LINE
 62
     4
100
AcDbText
 10
459496.202405
 20
238931.719343
 30
136.07496
 40
0.3
  1
136.075
 11
459496.202405
 21
238932.019343
 31
136.07496
100
AcDbText
 73
     3
  0
TEXT
  5
143
330
40E
100
AcDbEntity
  8
POINT_CODE
  6
SOLID_LINE
 62
     5
100
AcDbText
 10
459496.002405
 20
238931.719343
 30
136.07496
 40
0.3
  1

 72
     2
 11
459496.002405
 21
238932.019343
 31
136.07496
100
AcDbText
 73
     3
  0
POINT
  5
144
330
40E
100
AcDbEntity
  8
0
  6
SOLID_LINE
 62
     0
100
AcDbPoint
 10
459496.060585
 20
238932.145315
 30
136.189627
  0
TEXT
  5
145
330
40E
100
AcDbEntity
  8
POINT_ID
  6
SOLID_LINE
 62
     1
100
AcDbText
 10
459494.310585
 20
238932.245315
 30
136.189627
 40
0.3
  1
DP015.3
 72
     2
 11
459495.960585
 21
238932.245315
 31
136.189627
100
AcDbText
  0
TEXT
  5
146
330
40E
100
AcDbEntity
  8
COORDINATES
  6
SOLID_LINE
 62
    70
100
AcDbText
 10
459496.160585
 20
238932.245315
 30
136.189627
 40
0.3
  1
459496.06;238932.15
100
AcDbText
  0
TEXT
  5
147
330
40E
100
AcDbEntity
  8
HEIGHT
  6
SOLID_LINE
 62
     4
100
AcDbText
 10
459496.160585
 20
238931.745315
 30
136.189627
 40
0.3
  1
136.190
 11
459496.160585
 21
238932.045315
 31
136.189627
100
AcDbText
 73
     3
  0
TEXT
  5
148
330
40E
100
AcDbEntity
  8
POINT_CODE
  6
SOLID_LINE
 62
     5
100
AcDbText
 10
459495.960585
 20
238931.745315
 30
136.189627
 40
0.3
  1

 72
     2
 11
459495.960585
 21
238932.045315
 31
136.189627
100
AcDbText
 73
     3
  0
POINT
  5
149
330
40E
100
AcDbEntity
  8
0
  6
SOLID_LINE
 62
     0
100
AcDbPoint
 10
459496.251526
 20
238932.347179
 30
136.235621
  0
TEXT
  5
14A
330
40E
100
AcDbEntity
  8
POINT_ID
  6
SOLID_LINE
 62
     1
100
AcDbText
 10
459494.501526
 20
238932.447179
 30
136.235621
 40
0.3
  1
DP015.2
 72
     2
 11
459496.151526
 21
238932.447179
 31
136.235621
100
AcDbText
  0
TEXT
  5
14B
330
40E
100
AcDbEntity
  8
COORDINATES
  6
SOLID_LINE
 62
    70
100
AcDbText
 10
459496.351526
 20
238932.447179
 30
136.235621
 40
0.3
  1
459496.25;238932.35
100
AcDbText
  0
TEXT
  5
14C
330
40E
100
AcDbEntity
  8
HEIGHT
  6
SOLID_LINE
 62
     4
100
AcDbText
 10
459496.351526
 20
238931.947179
 30
136.235621
 40
0.3
  1
136.236
 11
459496.351526
 21
238932.247179
 31
136.235621
100
AcDbText
 73
     3
  0
TEXT
  5
14D
330
40E
100
AcDbEntity
  8
POINT_CODE
  6
SOLID_LINE
 62
     5
100
AcDbText
 10
459496.151526
 20
238931.947179
 30
136.235621
 40
0.3
  1

 72
     2
 11
459496.151526
 21
238932.247179
 31
136.235621
100
AcDbText
 73
     3
  0
POINT
  5
14E
330
40E
100
AcDbEntity
  8
0
  6
SOLID_LINE
 62
     0
100
AcDbPoint
 10
459495.879441
 20
238931.88365
 30
136.261301
  0
TEXT
  5
14F
330
40E
100
AcDbEntity
  8
POINT_ID
  6
SOLID_LINE
 62
     1
100
AcDbText
 10
459494.229441
 20
238931.98365
 30
136.261301
 40
0.3
  1
DP015.1
 72
     2
 11
459495.779441
 21
238931.98365
 31
136.261301
100
AcDbText
  0
TEXT
  5
150
330
40E
100
AcDbEntity
  8
COORDINATES
  6
SOLID_LINE
 62
    70
100
AcDbText
 10
459495.979441
 20
238931.98365
 30
136.261301
 40
0.3
  1
459495.88;238931.88
100
AcDbText
  0
TEXT
  5
151
330
40E
100
AcDbEntity
  8
HEIGHT
  6
SOLID_LINE
 62
     4
100
AcDbText
 10
459495.979441
 20
238931.48365
 30
136.261301
 40
0.3
  1
136.261
 11
459495.979441
 21
238931.78365
 31
136.261301
100
AcDbText
 73
     3
  0
TEXT
  5
152
330
40E
100
AcDbEntity
  8
POINT_CODE
  6
SOLID_LINE
 62
     5
100
AcDbText
 10
459495.779441
 20
238931.48365
 30
136.261301
 40
0.3
  1

 72
     2
 11
459495.779441
 21
238931.78365
 31
136.261301
100
AcDbText
 73
     3
  0
POINT
  5
153
330
40E
100
AcDbEntity
  8
0
  6
SOLID_LINE
 62
     0
100
AcDbPoint
 10
459496.185244
 20
238931.98529
 30
136.182072
  0
TEXT
  5
154
330
40E
100
AcDbEntity
  8
POINT_ID
  6
SOLID_LINE
 62
     1
100
AcDbText
 10
459494.385244
 20
238932.08529
 30
136.182072
 40
0.3
  1
PH020.5
 72
     2
 11
459496.085244
 21
238932.08529
 31
136.182072
100
AcDbText
  0
TEXT
  5
155
330
40E
100
AcDbEntity
  8
COORDINATES
  6
SOLID_LINE
 62
    70
100
AcDbText
 10
459496.285244
 20
238932.08529
 30
136.182072
 40
0.3
  1
459496.19;238931.99
100
AcDbText
  0
TEXT
  5
156
330
40E
100
AcDbEntity
  8
HEIGHT
  6
SOLID_LINE
 62
     4
100
AcDbText
 10
459496.285244
 20
238931.58529
 30
136.182072
 40
0.3
  1
136.182
 11
459496.285244
 21
238931.88529
 31
136.182072
100
AcDbText
 73
     3
  0
TEXT
  5
157
330
40E
100
AcDbEntity
  8
POINT_CODE
  6
SOLID_LINE
 62
     5
100
AcDbText
 10
459496.085244
 20
238931.58529
 30
136.182072
 40
0.3
  1

 72
     2
 11
459496.085244
 21
238931.88529
 31
136.182072
100
AcDbText
 73
     3
  0
POINT
  5
158
330
40E
100
AcDbEntity
  8
0
  6
SOLID_LINE
 62
     0
100
AcDbPoint
 10
459496.29706
 20
238932.143071
 30
136.156502
  0
TEXT
  5
159
330
40E
100
AcDbEntity
  8
POINT_ID
  6
SOLID_LINE
 62
     1
100
AcDbText
 10
459494.49706
 20
238932.243071
 30
136.156502
 40
0.3
  1
PH020.4
 72
     2
 11
459496.19706
 21
238932.243071
 31
136.156502
100
AcDbText
  0
TEXT
  5
15A
330
40E
100
AcDbEntity
  8
COORDINATES
  6
SOLID_LINE
 62
    70
100
AcDbText
 10
459496.39706
 20
238932.243071
 30
136.156502
 40
0.3
  1
459496.30;238932.14
100
AcDbText
  0
TEXT
  5
15B
330
40E
100
AcDbEntity
  8
HEIGHT
  6
SOLID_LINE
 62
     4
100
AcDbText
 10
459496.39706
 20
238931.743071
 30
136.156502
 40
0.3
  1
136.157
 11
459496.39706
 21
238932.043071
 31
136.156502
100
AcDbText
 73
     3
  0
TEXT
  5
15C
330
40E
100
AcDbEntity
  8
POINT_CODE
  6
SOLID_LINE
 62
     5
100
AcDbText
 10
459496.19706
 20
238931.743071
 30
136.156502
 40
0.3
  1

 72
     2
 11
459496.19706
 21
238932.043071
 31
136.156502
100
AcDbText
 73
     3
  0
POINT
  5
15D
330
40E
100
AcDbEntity
  8
0
  6
SOLID_LINE
 62
     0
100
AcDbPoint
 10
459496.172905
 20
238932.350944
 30
136.187036
  0
TEXT
  5
15E
330
40E
100
AcDbEntity
  8
POINT_ID
  6
SOLID_LINE
 62
     1
100
AcDbText
 10
459494.372905
 20
238932.450944
 30
136.187036
 40
0.3
  1
PH020.3
 72
     2
 11
459496.072905
 21
238932.450944
 31
136.187036
100
AcDbText
  0
TEXT
  5
15F
330
40E
100
AcDbEntity
  8
COORDINATES
  6
SOLID_LINE
 62
    70
100
AcDbText
 10
459496.272905
 20
238932.450944
 30
136.187036
 40
0.3
  1
459496.17;238932.35
100
AcDbText
  0
TEXT
  5
160
330
40E
100
AcDbEntity
  8
HEIGHT
  6
SOLID_LINE
 62
     4
100
AcDbText
 10
459496.272905
 20
238931.950944
 30
136.187036
 40
0.3
  1
136.187
 11
459496.272905
 21
238932.250944
 31
136.187036
100
AcDbText
 73
     3
  0
TEXT
  5
161
330
40E
100
AcDbEntity
  8
POINT_CODE
  6
SOLID_LINE
 62
     5
100
AcDbText
 10
459496.072905
 20
238931.950944
 30
136.187036
 40
0.3
  1

 72
     2
 11
459496.072905
 21
238932.250944
 31
136.187036
100
AcDbText
 73
     3
  0
POINT
  5
162
330
40E
100
AcDbEntity
  8
0
  6
SOLID_LINE
 62
     0
100
AcDbPoint
 10
459495.897427
 20
238932.295018
 30
136.196516
  0
TEXT
  5
163
330
40E
100
AcDbEntity
  8
POINT_ID
  6
SOLID_LINE
 62
     1
100
AcDbText
 10
459494.097427
 20
238932.395018
 30
136.196516
 40
0.3
  1
PH020.2
 72
     2
 11
459495.797427
 21
238932.395018
 31
136.196516
100
AcDbText
  0
TEXT
  5
164
330
40E
100
AcDbEntity
  8
COORDINATES
  6
SOLID_LINE
 62
    70
100
AcDbText
 10
459495.997427
 20
238932.395018
 30
136.196516
 40
0.3
  1
459495.90;238932.30
100
AcDbText
  0
TEXT
  5
165
330
40E
100
AcDbEntity
  8
HEIGHT
  6
SOLID_LINE
 62
     4
100
AcDbText
 10
459495.997427
 20
238931.895018
 30
136.196516
 40
0.3
  1
136.197
 11
459495.997427
 21
238932.195018
 31
136.196516
100
AcDbText
 73
     3
  0
TEXT
  5
166
330
40E
100
AcDbEntity
  8
POINT_CODE
  6
SOLID_LINE
 62
     5
100
AcDbText
 10
459495.797427
 20
238931.895018
 30
136.196516
 40
0.3
  1

 72
     2
 11
459495.797427
 21
238932.195018
 31
136.196516
100
AcDbText
 73
     3
  0
POINT
  5
167
330
40E
100
AcDbEntity
  8
0
  6
SOLID_LINE
 62
     0
100
AcDbPoint
 10
459495.813877
 20
238931.966068
 30
136.159919
  0
TEXT
  5
168
330
40E
100
AcDbEntity
  8
POINT_ID
  6
SOLID_LINE
 62
     1
100
AcDbText
 10
459494.113877
 20
238932.066068
 30
136.159919
 40
0.3
  1
PH020.1
 72
     2
 11
459495.713877
 21
238932.066068
 31
136.159919
100
AcDbText
  0
TEXT
  5
169
330
40E
100
AcDbEntity
  8
COORDINATES
  6
SOLID_LINE
 62
    70
100
AcDbText
 10
459495.913877
 20
238932.066068
 30
136.159919
 40
0.3
  1
459495.81;238931.97
100
AcDbText
  0
TEXT
  5
16A
330
40E
100
AcDbEntity
  8
HEIGHT
  6
SOLID_LINE
 62
     4
100
AcDbText
 10
459495.913877
 20
238931.566068
 30
136.159919
 40
0.3
  1
136.160
 11
459495.913877
 21
238931.866068
 31
136.159919
100
AcDbText
 73
     3
  0
TEXT
  5
16B
330
40E
100
AcDbEntity
  8
POINT_CODE
  6
SOLID_LINE
 62
     5
100
AcDbText
 10
459495.713877
 20
238931.566068
 30
136.159919
 40
0.3
  1

 72
     2
 11
459495.713877
 21
238931.866068
 31
136.159919
100
AcDbText
 73
     3
  0
POINT
  5
16C
330
40E
100
AcDbEntity
  8
0
  6
SOLID_LINE
 62
     0
100
AcDbPoint
 10
459491.530768
 20
238925.680822
 30
136.056013
  0
TEXT
  5
16D
330
40E
100
AcDbEntity
  8
POINT_ID
  6
SOLID_LINE
 62
     1
100
AcDbText
 10
459489.880768
 20
238925.780822
 30
136.056013
 40
0.3
  1
DP011.4
 72
     2
 11
459491.430768
 21
238925.780822
 31
136.056013
100
AcDbText
  0
TEXT
  5
16E
330
40E
100
AcDbEntity
  8
COORDINATES
  6
SOLID_LINE
 62
    70
100
AcDbText
 10
459491.630768
 20
238925.780822
 30
136.056013
 40
0.3
  1
459491.53;238925.68
100
AcDbText
  0
TEXT
  5
16F
330
40E
100
AcDbEntity
  8
HEIGHT
  6
SOLID_LINE
 62
     4
100
AcDbText
 10
459491.630768
 20
238925.280822
 30
136.056013
 40
0.3
  1
136.056
 11
459491.630768
 21
238925.580822
 31
136.056013
100
AcDbText
 73
     3
  0
TEXT
  5
170
330
40E
100
AcDbEntity
  8
POINT_CODE
  6
SOLID_LINE
 62
     5
100
AcDbText
 10
459491.430768
 20
238925.280822
 30
136.056013
 40
0.3
  1

 72
     2
 11
459491.430768
 21
238925.580822
 31
136.056013
100
AcDbText
 73
     3
  0
POINT
  5
171
330
40E
100
AcDbEntity
  8
0
  6
SOLID_LINE
 62
     0
100
AcDbPoint
 10
459491.480877
 20
238925.817378
 30
136.127999
  0
TEXT
  5
172
330
40E
100
AcDbEntity
  8
POINT_ID
  6
SOLID_LINE
 62
     1
100
AcDbText
 10
459489.830877
 20
238925.917378
 30
136.127999
 40
0.3
  1
DP011.3
 72
     2
 11
459491.380877
 21
238925.917378
 31
136.127999
100
AcDbText
  0
TEXT
  5
173
330
40E
100
AcDbEntity
  8
COORDINATES
  6
SOLID_LINE
 62
    70
100
AcDbText
 10
459491.580877
 20
238925.917378
 30
136.127999
 40
0.3
  1
459491.48;238925.82
100
AcDbText
  0
TEXT
  5
174
330
40E
100
AcDbEntity
  8
HEIGHT
  6
SOLID_LINE
 62
     4
100
AcDbText
 10
459491.580877
 20
238925.417378
 30
136.127999
 40
0.3
  1
136.128
 11
459491.580877
 21
238925.717378
 31
136.127999
100
AcDbText
 73
     3
  0
TEXT
  5
175
330
40E
100
AcDbEntity
  8
POINT_CODE
  6
SOLID_LINE
 62
     5
100
AcDbText
 10
459491.380877
 20
238925.417378
 30
136.127999
 40
0.3
  1

 72
     2
 11
459491.380877
 21
238925.717378
 31
136.127999
100
AcDbText
 73
     3
  0
POINT
  5
176
330
40E
100
AcDbEntity
  8
0
  6
SOLID_LINE
 62
     0
100
AcDbPoint
 10
459491.94058
 20
238925.74211
 30
136.224598
  0
TEXT
  5
177
330
40E
100
AcDbEntity
  8
POINT_ID
  6
SOLID_LINE
 62
     1
100
AcDbText
 10
459490.29058
 20
238925.84211
 30
136.224598
 40
0.3
  1
DP011.2
 72
     2
 11
459491.84058
 21
238925.84211
 31
136.224598
100
AcDbText
  0
TEXT
  5
178
330
40E
100
AcDbEntity
  8
COORDINATES
  6
SOLID_LINE
 62
    70
100
AcDbText
 10
459492.04058
 20
238925.84211
 30
136.224598
 40
0.3
  1
459491.94;238925.74
100
AcDbText
  0
TEXT
  5
179
330
40E
100
AcDbEntity
  8
HEIGHT
  6
SOLID_LINE
 62
     4
100
AcDbText
 10
459492.04058
 20
238925.34211
 30
136.224598
 40
0.3
  1
136.225
 11
459492.04058
 21
238925.64211
 31
136.224598
100
AcDbText
 73
     3
  0
TEXT
  5
17A
330
40E
100
AcDbEntity
  8
POINT_CODE
  6
SOLID_LINE
 62
     5
100
AcDbText
 10
459491.84058
 20
238925.34211
 30
136.224598
 40
0.3
  1

 72
     2
 11
459491.84058
 21
238925.64211
 31
136.224598
100
AcDbText
 73
     3
  0
POINT
  5
17B
330
40E
100
AcDbEntity
  8
0
  6
SOLID_LINE
 62
     0
100
AcDbPoint
 10
459491.071974
 20
238925.738783
 30
136.176811
  0
TEXT
  5
17C
330
40E
100
AcDbEntity
  8
POINT_ID
  6
SOLID_LINE
 62
     1
100
AcDbText
 10
459489.521974
 20
238925.838783
 30
136.176811
 40
0.3
  1
DP011.1
 72
     2
 11
459490.971974
 21
238925.838783
 31
136.176811
100
AcDbText
  0
TEXT
  5
17D
330
40E
100
AcDbEntity
  8
COORDINATES
  6
SOLID_LINE
 62
    70
100
AcDbText
 10
459491.171974
 20
238925.838783
 30
136.176811
 40
0.3
  1
459491.07;238925.74
100
AcDbText
  0
TEXT
  5
17E
330
40E
100
AcDbEntity
  8
HEIGHT
  6
SOLID_LINE
 62
     4
100
AcDbText
 10
459491.171974
 20
238925.338783
 30
136.176811
 40
0.3
  1
136.177
 11
459491.171974
 21
238925.638783
 31
136.176811
100
AcDbText
 73
     3
  0
TEXT
  5
17F
330
40E
100
AcDbEntity
  8
POINT_CODE
  6
SOLID_LINE
 62
     5
100
AcDbText
 10
459490.971974
 20
238925.338783
 30
136.176811
 40
0.3
  1

 72
     2
 11
459490.971974
 21
238925.638783
 31
136.176811
100
AcDbText
 73
     3
  0
POINT
  5
180
330
40E
100
AcDbEntity
  8
0
  6
SOLID_LINE
 62
     0
100
AcDbPoint
 10
459491.260935
 20
238926.026382
 30
136.142359
  0
TEXT
  5
181
330
40E
100
AcDbEntity
  8
POINT_ID
  6
SOLID_LINE
 62
     1
100
AcDbText
 10
459488.110935
 20
238926.126382
 30
136.142359
 40
0.3
  1
DEPOSIT017.6
 72
     2
 11
459491.160935
 21
238926.126382
 31
136.142359
100
AcDbText
  0
TEXT
  5
182
330
40E
100
AcDbEntity
  8
COORDINATES
  6
SOLID_LINE
 62
    70
100
AcDbText
 10
459491.360935
 20
238926.126382
 30
136.142359
 40
0.3
  1
459491.26;238926.03
100
AcDbText
  0
TEXT
  5
183
330
40E
100
AcDbEntity
  8
HEIGHT
  6
SOLID_LINE
 62
     4
100
AcDbText
 10
459491.360935
 20
238925.626382
 30
136.142359
 40
0.3
  1
136.142
 11
459491.360935
 21
238925.926382
 31
136.142359
100
AcDbText
 73
     3
  0
TEXT
  5
184
330
40E
100
AcDbEntity
  8
POINT_CODE
  6
SOLID_LINE
 62
     5
100
AcDbText
 10
459491.160935
 20
238925.626382
 30
136.142359
 40
0.3
  1

 72
     2
 11
459491.160935
 21
238925.926382
 31
136.142359
100
AcDbText
 73
     3
  0
POINT
  5
185
330
40E
100
AcDbEntity
  8
0
  6
SOLID_LINE
 62
     0
100
AcDbPoint
 10
459491.711046
 20
238925.97768
 30
136.139954
  0
TEXT
  5
186
330
40E
100
AcDbEntity
  8
POINT_ID
  6
SOLID_LINE
 62
     1
100
AcDbText
 10
459488.561046
 20
238926.07768
 30
136.139954
 40
0.3
  1
DEPOSIT017.5
 72
     2
 11
459491.611046
 21
238926.07768
 31
136.139954
100
AcDbText
  0
TEXT
  5
187
330
40E
100
AcDbEntity
  8
COORDINATES
  6
SOLID_LINE
 62
    70
100
AcDbText
 10
459491.811046
 20
238926.07768
 30
136.139954
 40
0.3
  1
459491.71;238925.98
100
AcDbText
  0
TEXT
  5
188
330
40E
100
AcDbEntity
  8
HEIGHT
  6
SOLID_LINE
 62
     4
100
AcDbText
 10
459491.811046
 20
238925.57768
 30
136.139954
 40
0.3
  1
136.140
 11
459491.811046
 21
238925.87768
 31
136.139954
100
AcDbText
 73
     3
  0
TEXT
  5
189
330
40E
100
AcDbEntity
  8
POINT_CODE
  6
SOLID_LINE
 62
     5
100
AcDbText
 10
459491.611046
 20
238925.57768
 30
136.139954
 40
0.3
  1

 72
     2
 11
459491.611046
 21
238925.87768
 31
136.139954
100
AcDbText
 73
     3
  0
POINT
  5
18A
330
40E
100
AcDbEntity
  8
0
  6
SOLID_LINE
 62
     0
100
AcDbPoint
 10
459491.877003
 20
238925.692206
 30
136.142386
  0
TEXT
  5
18B
330
40E
100
AcDbEntity
  8
POINT_ID
  6
SOLID_LINE
 62
     1
100
AcDbText
 10
459488.727003
 20
238925.792206
 30
136.142386
 40
0.3
  1
DEPOSIT017.4
 72
     2
 11
459491.777003
 21
238925.792206
 31
136.142386
100
AcDbText
  0
TEXT
  5
18C
330
40E
100
AcDbEntity
  8
COORDINATES
  6
SOLID_LINE
 62
    70
100
AcDbText
 10
459491.977003
 20
238925.792206
 30
136.142386
 40
0.3
  1
459491.88;238925.69
100
AcDbText
  0
TEXT
  5
18D
330
40E
100
AcDbEntity
  8
HEIGHT
  6
SOLID_LINE
 62
     4
100
AcDbText
 10
459491.977003
 20
238925.292206
 30
136.142386
 40
0.3
  1
136.142
 11
459491.977003
 21
238925.592206
 31
136.142386
100
AcDbText
 73
     3
  0
TEXT
  5
18E
330
40E
100
AcDbEntity
  8
POINT_CODE
  6
SOLID_LINE
 62
     5
100
AcDbText
 10
459491.777003
 20
238925.292206
 30
136.142386
 40
0.3
  1

 72
     2
 11
459491.777003
 21
238925.592206
 31
136.142386
100
AcDbText
 73
     3
  0
POINT
  5
18F
330
40E
100
AcDbEntity
  8
0
  6
SOLID_LINE
 62
     0
100
AcDbPoint
 10
459491.75738
 20
238925.282009
 30
136.10979
  0
TEXT
  5
190
330
40E
100
AcDbEntity
  8
POINT_ID
  6
SOLID_LINE
 62
     1
100
AcDbText
 10
459488.60738
 20
238925.382009
 30
136.10979
 40
0.3
  1
DEPOSIT017.3
 72
     2
 11
459491.65738
 21
238925.382009
 31
136.10979
100
AcDbText
  0
TEXT
  5
191
330
40E
100
AcDbEntity
  8
COORDINATES
  6
SOLID_LINE
 62
    70
100
AcDbText
 10
459491.85738
 20
238925.382009
 30
136.10979
 40
0.3
  1
459491.76;238925.28
100
AcDbText
  0
TEXT
  5
192
330
40E
100
AcDbEntity
  8
HEIGHT
  6
SOLID_LINE
 62
     4
100
AcDbText
 10
459491.85738
 20
238924.882009
 30
136.10979
 40
0.3
  1
136.110
 11
459491.85738
 21
238925.182009
 31
136.10979
100
AcDbText
 73
     3
  0
TEXT
  5
193
330
40E
100
AcDbEntity
  8
POINT_CODE
  6
SOLID_LINE
 62
     5
100
AcDbText
 10
459491.65738
 20
238924.882009
 30
136.10979
 40
0.3
  1

 72
     2
 11
459491.65738
 21
238925.182009
 31
136.10979
100
AcDbText
 73
     3
  0
POINT
  5
194
330
40E
100
AcDbEntity
  8
0
  6
SOLID_LINE
 62
     0
100
AcDbPoint
 10
459491.118506
 20
238925.132137
 30
136.085294
  0
TEXT
  5
195
330
40E
100
AcDbEntity
  8
POINT_ID
  6
SOLID_LINE
 62
     1
100
AcDbText
 10
459487.968506
 20
238925.232137
 30
136.085294
 40
0.3
  1
DEPOSIT017.2
 72
     2
 11
459491.018506
 21
238925.232137
 31
136.085294
100
AcDbText
  0
TEXT
  5
196
330
40E
100
AcDbEntity
  8
COORDINATES
  6
SOLID_LINE
 62
    70
100
AcDbText
 10
459491.218506
 20
238925.232137
 30
136.085294
 40
0.3
  1
459491.12;238925.13
100
AcDbText
  0
TEXT
  5
197
330
40E
100
AcDbEntity
  8
HEIGHT
  6
SOLID_LINE
 62
     4
100
AcDbText
 10
459491.218506
 20
238924.732137
 30
136.085294
 40
0.3
  1
136.085
 11
459491.218506
 21
238925.032137
 31
136.085294
100
AcDbText
 73
     3
  0
TEXT
  5
198
330
40E
100
AcDbEntity
  8
POINT_CODE
  6
SOLID_LINE
 62
     5
100
AcDbText
 10
459491.018506
 20
238924.732137
 30
136.085294
 40
0.3
  1

 72
     2
 11
459491.018506
 21
238925.032137
 31
136.085294
100
AcDbText
 73
     3
  0
POINT
  5
199
330
40E
100
AcDbEntity
  8
0
  6
SOLID_LINE
 62
     0
100
AcDbPoint
 10
459490.991579
 20
238925.676887
 30
136.064388
  0
TEXT
  5
19A
330
40E
100
AcDbEntity
  8
POINT_ID
  6
SOLID_LINE
 62
     1
100
AcDbText
 10
459487.941579
 20
238925.776887
 30
136.064388
 40
0.3
  1
DEPOSIT017.1
 72
     2
 11
459490.891579
 21
238925.776887
 31
136.064388
100
AcDbText
  0
TEXT
  5
19B
330
40E
100
AcDbEntity
  8
COORDINATES
  6
SOLID_LINE
 62
    70
100
AcDbText
 10
459491.091579
 20
238925.776887
 30
136.064388
 40
0.3
  1
459490.99;238925.68
100
AcDbText
  0
TEXT
  5
19C
330
40E
100
AcDbEntity
  8
HEIGHT
  6
SOLID_LINE
 62
     4
100
AcDbText
 10
459491.091579
 20
238925.276887
 30
136.064388
 40
0.3
  1
136.064
 11
459491.091579
 21
238925.576887
 31
136.064388
100
AcDbText
 73
     3
  0
TEXT
  5
19D
330
40E
100
AcDbEntity
  8
POINT_CODE
  6
SOLID_LINE
 62
     5
100
AcDbText
 10
459490.891579
 20
238925.276887
 30
136.064388
 40
0.3
  1

 72
     2
 11
459490.891579
 21
238925.576887
 31
136.064388
100
AcDbText
 73
     3
  0
POINT
  5
19E
330
40E
100
AcDbEntity
  8
0
  6
SOLID_LINE
 62
     0
100
AcDbPoint
 10
459493.617669
 20
238903.539729
 30
135.660793
  0
TEXT
  5
19F
330
40E
100
AcDbEntity
  8
POINT_ID
  6
SOLID_LINE
 62
     1
100
AcDbText
 10
459491.867669
 20
238903.639729
 30
135.660793
 40
0.3
  1
DP013.4
 72
     2
 11
459493.517669
 21
238903.639729
 31
135.660793
100
AcDbText
  0
TEXT
  5
1A0
330
40E
100
AcDbEntity
  8
COORDINATES
  6
SOLID_LINE
 62
    70
100
AcDbText
 10
459493.717669
 20
238903.639729
 30
135.660793
 40
0.3
  1
459493.62;238903.54
100
AcDbText
  0
TEXT
  5
1A1
330
40E
100
AcDbEntity
  8
HEIGHT
  6
SOLID_LINE
 62
     4
100
AcDbText
 10
459493.717669
 20
238903.139729
 30
135.660793
 40
0.3
  1
135.661
 11
459493.717669
 21
238903.439729
 31
135.660793
100
AcDbText
 73
     3
  0
TEXT
  5
1A2
330
40E
100
AcDbEntity
  8
POINT_CODE
  6
SOLID_LINE
 62
     5
100
AcDbText
 10
459493.517669
 20
238903.139729
 30
135.660793
 40
0.3
  1

 72
     2
 11
459493.517669
 21
238903.439729
 31
135.660793
100
AcDbText
 73
     3
  0
POINT
  5
1A3
330
40E
100
AcDbEntity
  8
0
  6
SOLID_LINE
 62
     0
100
AcDbPoint
 10
459493.400455
 20
238903.418736
 30
135.885398
  0
TEXT
  5
1A4
330
40E
100
AcDbEntity
  8
POINT_ID
  6
SOLID_LINE
 62
     1
100
AcDbText
 10
459491.650455
 20
238903.518736
 30
135.885398
 40
0.3
  1
DP013.3
 72
     2
 11
459493.300455
 21
238903.518736
 31
135.885398
100
AcDbText
  0
TEXT
  5
1A5
330
40E
100
AcDbEntity
  8
COORDINATES
  6
SOLID_LINE
 62
    70
100
AcDbText
 10
459493.500455
 20
238903.518736
 30
135.885398
 40
0.3
  1
459493.40;238903.42
100
AcDbText
  0
TEXT
  5
1A6
330
40E
100
AcDbEntity
  8
HEIGHT
  6
SOLID_LINE
 62
     4
100
AcDbText
 10
459493.500455
 20
238903.018736
 30
135.885398
 40
0.3
  1
135.885
 11
459493.500455
 21
238903.318736
 31
135.885398
100
AcDbText
 73
     3
  0
TEXT
  5
1A7
330
40E
100
AcDbEntity
  8
POINT_CODE
  6
SOLID_LINE
 62
     5
100
AcDbText
 10
459493.300455
 20
238903.018736
 30
135.885398
 40
0.3
  1

 72
     2
 11
459493.300455
 21
238903.318736
 31
135.885398
100
AcDbText
 73
     3
  0
POINT
  5
1A8
330
40E
100
AcDbEntity
  8
0
  6
SOLID_LINE
 62
     0
100
AcDbPoint
 10
459493.79817
 20
238903.878208
 30
135.958032
  0
TEXT
  5
1A9
330
40E
100
AcDbEntity
  8
POINT_ID
  6
SOLID_LINE
 62
     1
100
AcDbText
 10
459492.04817
 20
238903.978208
 30
135.958032
 40
0.3
  1
DP013.2
 72
     2
 11
459493.69817
 21
238903.978208
 31
135.958032
100
AcDbText
  0
TEXT
  5
1AA
330
40E
100
AcDbEntity
  8
COORDINATES
  6
SOLID_LINE
 62
    70
100
AcDbText
 10
459493.89817
 20
238903.978208
 30
135.958032
 40
0.3
  1
459493.80;238903.88
100
AcDbText
  0
TEXT
  5
1AB
330
40E
100
AcDbEntity
  8
HEIGHT
  6
SOLID_LINE
 62
     4
100
AcDbText
 10
459493.89817
 20
238903.478208
 30
135.958032
 40
0.3
  1
135.958
 11
459493.89817
 21
238903.778208
 31
135.958032
100
AcDbText
 73
     3
  0
TEXT
  5
1AC
330
40E
100
AcDbEntity
  8
POINT_CODE
  6
SOLID_LINE
 62
     5
100
AcDbText
 10
459493.69817
 20
238903.478208
 30
135.958032
 40
0.3
  1

 72
     2
 11
459493.69817
 21
238903.778208
 31
135.958032
100
AcDbText
 73
     3
  0
POINT
  5
1AD
330
40E
100
AcDbEntity
  8
0
  6
SOLID_LINE
 62
     0
100
AcDbPoint
 10
459493.14557
 20
238902.915466
 30
135.988558
  0
TEXT
  5
1AE
330
40E
100
AcDbEntity
  8
POINT_ID
  6
SOLID_LINE
 62
     1
100
AcDbText
 10
459491.49557
 20
238903.015466
 30
135.988558
 40
0.3
  1
DP013.1
 72
     2
 11
459493.04557
 21
238903.015466
 31
135.988558
100
AcDbText
  0
TEXT
  5
1AF
330
40E
100
AcDbEntity
  8
COORDINATES
  6
SOLID_LINE
 62
    70
100
AcDbText
 10
459493.24557
 20
238903.015466
 30
135.988558
 40
0.3
  1
459493.15;238902.92
100
AcDbText
  0
TEXT
  5
1B0
330
40E
100
AcDbEntity
  8
HEIGHT
  6
SOLID_LINE
 62
     4
100
AcDbText
 10
459493.24557
 20
238902.515466
 30
135.988558
 40
0.3
  1
135.989
 11
459493.24557
 21
238902.815466
 31
135.988558
100
AcDbText
 73
     3
  0
TEXT
  5
1B1
330
40E
100
AcDbEntity
  8
POINT_CODE
  6
SOLID_LINE
 62
     5
100
AcDbText
 10
459493.04557
 20
238902.515466
 30
135.988558
 40
0.3
  1

 72
     2
 11
459493.04557
 21
238902.815466
 31
135.988558
100
AcDbText
 73
     3
  0
POINT
  5
1B2
330
40E
100
AcDbEntity
  8
0
  6
SOLID_LINE
 62
     0
100
AcDbPoint
 10
459493.860872
 20
238903.608236
 30
135.882717
  0
TEXT
  5
1B3
330
40E
100
AcDbEntity
  8
POINT_ID
  6
SOLID_LINE
 62
     1
100
AcDbText
 10
459491.910872
 20
238903.708236
 30
135.882717
 40
0.3
  1
PIT014.7
 72
     2
 11
459493.760872
 21
238903.708236
 31
135.882717
100
AcDbText
  0
TEXT
  5
1B4
330
40E
100
AcDbEntity
  8
COORDINATES
  6
SOLID_LINE
 62
    70
100
AcDbText
 10
459493.960872
 20
238903.708236
 30
135.882717
 40
0.3
  1
459493.86;238903.61
100
AcDbText
  0
TEXT
  5
1B5
330
40E
100
AcDbEntity
  8
HEIGHT
  6
SOLID_LINE
 62
     4
100
AcDbText
 10
459493.960872
 20
238903.208236
 30
135.882717
 40
0.3
  1
135.883
 11
459493.960872
 21
238903.508236
 31
135.882717
100
AcDbText
 73
     3
  0
TEXT
  5
1B6
330
40E
100
AcDbEntity
  8
POINT_CODE
  6
SOLID_LINE
 62
     5
100
AcDbText
 10
459493.760872
 20
238903.208236
 30
135.882717
 40
0.3
  1

 72
     2
 11
459493.760872
 21
238903.508236
 31
135.882717
100
AcDbText
 73
     3
  0
POINT
  5
1B7
330
40E
100
AcDbEntity
  8
0
  6
SOLID_LINE
 62
     0
100
AcDbPoint
 10
459493.650717
 20
238903.867091
 30
135.890977
  0
TEXT
  5
1B8
330
40E
100
AcDbEntity
  8
POINT_ID
  6
SOLID_LINE
 62
     1
100
AcDbText
 10
459491.700717
 20
238903.967091
 30
135.890977
 40
0.3
  1
PIT014.6
 72
     2
 11
459493.550717
 21
238903.967091
 31
135.890977
100
AcDbText
  0
TEXT
  5
1B9
330
40E
100
AcDbEntity
  8
COORDINATES
  6
SOLID_LINE
 62
    70
100
AcDbText
 10
459493.750717
 20
238903.967091
 30
135.890977
 40
0.3
  1
459493.65;238903.87
100
AcDbText
  0
TEXT
  5
1BA
330
40E
100
AcDbEntity
  8
HEIGHT
  6
SOLID_LINE
 62
     4
100
AcDbText
 10
459493.750717
 20
238903.467091
 30
135.890977
 40
0.3
  1
135.891
 11
459493.750717
 21
238903.767091
 31
135.890977
100
AcDbText
 73
     3
  0
TEXT
  5
1BB
330
40E
100
AcDbEntity
  8
POINT_CODE
  6
SOLID_LINE
 62
     5
100
AcDbText
 10
459493.550717
 20
238903.467091
 30
135.890977
 40
0.3
  1

 72
     2
 11
459493.550717
 21
238903.767091
 31
135.890977
100
AcDbText
 73
     3
  0
POINT
  5
1BC
330
40E
100
AcDbEntity
  8
0
  6
SOLID_LINE
 62
     0
100
AcDbPoint
 10
459493.312649
 20
238903.971552
 30
135.88693
  0
TEXT
  5
1BD
330
40E
100
AcDbEntity
  8
POINT_ID
  6
SOLID_LINE
 62
     1
100
AcDbText
 10
459491.362649
 20
238904.071552
 30
135.88693
 40
0.3
  1
PIT014.5
 72
     2
 11
459493.212649
 21
238904.071552
 31
135.88693
100
AcDbText
  0
TEXT
  5
1BE
330
40E
100
AcDbEntity
  8
COORDINATES
  6
SOLID_LINE
 62
    70
100
AcDbText
 10
459493.412649
 20
238904.071552
 30
135.88693
 40
0.3
  1
459493.31;238903.97
100
AcDbText
  0
TEXT
  5
1BF
330
40E
100
AcDbEntity
  8
HEIGHT
  6
SOLID_LINE
 62
     4
100
AcDbText
 10
459493.412649
 20
238903.571552
 30
135.88693
 40
0.3
  1
135.887
 11
459493.412649
 21
238903.871552
 31
135.88693
100
AcDbText
 73
     3
  0
TEXT
  5
1C0
330
40E
100
AcDbEntity
  8
POINT_CODE
  6
SOLID_LINE
 62
     5
100
AcDbText
 10
459493.212649
 20
238903.571552
 30
135.88693
 40
0.3
  1

 72
     2
 11
459493.212649
 21
238903.871552
 31
135.88693
100
AcDbText
 73
     3
  0
POINT
  5
1C1
330
40E
100
AcDbEntity
  8
0
  6
SOLID_LINE
 62
     0
100
AcDbPoint
 10
459493.047008
 20
238903.409079
 30
135.882201
  0
TEXT
  5
1C2
330
40E
100
AcDbEntity
  8
POINT_ID
  6
SOLID_LINE
 62
     1
100
AcDbText
 10
459491.097008
 20
238903.509079
 30
135.882201
 40
0.3
  1
PIT014.4
 72
     2
 11
459492.947008
 21
238903.509079
 31
135.882201
100
AcDbText
  0
TEXT
  5
1C3
330
40E
100
AcDbEntity
  8
COORDINATES
  6
SOLID_LINE
 62
    70
100
AcDbText
 10
459493.147008
 20
238903.509079
 30
135.882201
 40
0.3
  1
459493.05;238903.41
100
AcDbText
  0
TEXT
  5
1C4
330
40E
100
AcDbEntity
  8
HEIGHT
  6
SOLID_LINE
 62
     4
100
AcDbText
 10
459493.147008
 20
238903.009079
 30
135.882201
 40
0.3
  1
135.882
 11
459493.147008
 21
238903.309079
 31
135.882201
100
AcDbText
 73
     3
  0
TEXT
  5
1C5
330
40E
100
AcDbEntity
  8
POINT_CODE
  6
SOLID_LINE
 62
     5
100
AcDbText
 10
459492.947008
 20
238903.009079
 30
135.882201
 40
0.3
  1

 72
     2
 11
459492.947008
 21
238903.309079
 31
135.882201
100
AcDbText
 73
     3
  0
POINT
  5
1C6
330
40E
100
AcDbEntity
  8
0
  6
SOLID_LINE
 62
     0
100
AcDbPoint
 10
459493.1993
 20
238902.971472
 30
135.899213
  0
TEXT
  5
1C7
330
40E
100
AcDbEntity
  8
POINT_ID
  6
SOLID_LINE
 62
     1
100
AcDbText
 10
459491.2493
 20
238903.071472
 30
135.899213
 40
0.3
  1
PIT014.3
 72
     2
 11
459493.0993
 21
238903.071472
 31
135.899213
100
AcDbText
  0
TEXT
  5
1C8
330
40E
100
AcDbEntity
  8
COORDINATES
  6
SOLID_LINE
 62
    70
100
AcDbText
 10
459493.2993
 20
238903.071472
 30
135.899213
 40
0.3
  1
459493.20;238902.97
100
AcDbText
  0
TEXT
  5
1C9
330
40E
100
AcDbEntity
  8
HEIGHT
  6
SOLID_LINE
 62
     4
100
AcDbText
 10
459493.2993
 20
238902.571472
 30
135.899213
 40
0.3
  1
135.899
 11
459493.2993
 21
238902.871472
 31
135.899213
100
AcDbText
 73
     3
  0
TEXT
  5
1CA
330
40E
100
AcDbEntity
  8
POINT_CODE
  6
SOLID_LINE
 62
     5
100
AcDbText
 10
459493.0993
 20
238902.571472
 30
135.899213
 40
0.3
  1

 72
     2
 11
459493.0993
 21
238902.871472
 31
135.899213
100
AcDbText
 73
     3
  0
POINT
  5
1CB
330
40E
100
AcDbEntity
  8
0
  6
SOLID_LINE
 62
     0
100
AcDbPoint
 10
459493.742157
 20
238902.942761
 30
135.842754
  0
TEXT
  5
1CC
330
40E
100
AcDbEntity
  8
POINT_ID
  6
SOLID_LINE
 62
     1
100
AcDbText
 10
459491.792157
 20
238903.042761
 30
135.842754
 40
0.3
  1
PIT014.2
 72
     2
 11
459493.642157
 21
238903.042761
 31
135.842754
100
AcDbText
  0
TEXT
  5
1CD
330
40E
100
AcDbEntity
  8
COORDINATES
  6
SOLID_LINE
 62
    70
100
AcDbText
 10
459493.842157
 20
238903.042761
 30
135.842754
 40
0.3
  1
459493.74;238902.94
100
AcDbText
  0
TEXT
  5
1CE
330
40E
100
AcDbEntity
  8
HEIGHT
  6
SOLID_LINE
 62
     4
100
AcDbText
 10
459493.842157
 20
238902.542761
 30
135.842754
 40
0.3
  1
135.843
 11
459493.842157
 21
238902.842761
 31
135.842754
100
AcDbText
 73
     3
  0
TEXT
  5
1CF
330
40E
100
AcDbEntity
  8
POINT_CODE
  6
SOLID_LINE
 62
     5
100
AcDbText
 10
459493.642157
 20
238902.542761
 30
135.842754
 40
0.3
  1

 72
     2
 11
459493.642157
 21
238902.842761
 31
135.842754
100
AcDbText
 73
     3
  0
POINT
  5
1D0
330
40E
100
AcDbEntity
  8
0
  6
SOLID_LINE
 62
     0
100
AcDbPoint
 10
459493.886611
 20
238903.445155
 30
135.862154
  0
TEXT
  5
1D1
330
40E
100
AcDbEntity
  8
POINT_ID
  6
SOLID_LINE
 62
     1
100
AcDbText
 10
459492.036611
 20
238903.545155
 30
135.862154
 40
0.3
  1
PIT014.1
 72
     2
 11
459493.786611
 21
238903.545155
 31
135.862154
100
AcDbText
  0
TEXT
  5
1D2
330
40E
100
AcDbEntity
  8
COORDINATES
  6
SOLID_LINE
 62
    70
100
AcDbText
 10
459493.986611
 20
238903.545155
 30
135.862154
 40
0.3
  1
459493.89;238903.45
100
AcDbText
  0
TEXT
  5
1D3
330
40E
100
AcDbEntity
  8
HEIGHT
  6
SOLID_LINE
 62
     4
100
AcDbText
 10
459493.986611
 20
238903.045155
 30
135.862154
 40
0.3
  1
135.862
 11
459493.986611
 21
238903.345155
 31
135.862154
100
AcDbText
 73
     3
  0
TEXT
  5
1D4
330
40E
100
AcDbEntity
  8
POINT_CODE
  6
SOLID_LINE
 62
     5
100
AcDbText
 10
459493.786611
 20
238903.045155
 30
135.862154
 40
0.3
  1

 72
     2
 11
459493.786611
 21
238903.345155
 31
135.862154
100
AcDbText
 73
     3
  0
POINT
  5
1D5
330
40E
100
AcDbEntity
  8
0
  6
SOLID_LINE
 62
     0
100
AcDbPoint
 10
459535.942931
 20
238875.825841
 30
134.775505
  0
TEXT
  5
1D6
330
40E
100
AcDbEntity
  8
POINT_ID
  6
SOLID_LINE
 62
     1
100
AcDbText
 10
459534.192931
 20
238875.925841
 30
134.775505
 40
0.3
  1
DP019.3
 72
     2
 11
459535.842931
 21
238875.925841
 31
134.775505
100
AcDbText
  0
TEXT
  5
1D7
330
40E
100
AcDbEntity
  8
COORDINATES
  6
SOLID_LINE
 62
    70
100
AcDbText
 10
459536.042931
 20
238875.925841
 30
134.775505
 40
0.3
  1
459535.94;238875.83
100
AcDbText
  0
TEXT
  5
1D8
330
40E
100
AcDbEntity
  8
HEIGHT
  6
SOLID_LINE
 62
     4
100
AcDbText
 10
459536.042931
 20
238875.425841
 30
134.775505
 40
0.3
  1
134.776
 11
459536.042931
 21
238875.725841
 31
134.775505
100
AcDbText
 73
     3
  0
TEXT
  5
1D9
330
40E
100
AcDbEntity
  8
POINT_CODE
  6
SOLID_LINE
 62
     5
100
AcDbText
 10
459535.842931
 20
238875.425841
 30
134.775505
 40
0.3
  1

 72
     2
 11
459535.842931
 21
238875.725841
 31
134.775505
100
AcDbText
 73
     3
  0
POINT
  5
1DA
330
40E
100
AcDbEntity
  8
0
  6
SOLID_LINE
 62
     0
100
AcDbPoint
 10
459535.259906
 20
238876.087086
 30
135.062997
  0
TEXT
  5
1DB
330
40E
100
AcDbEntity
  8
POINT_ID
  6
SOLID_LINE
 62
     1
100
AcDbText
 10
459533.509906
 20
238876.187086
 30
135.062997
 40
0.3
  1
DP019.2
 72
     2
 11
459535.159906
 21
238876.187086
 31
135.062997
100
AcDbText
  0
TEXT
  5
1DC
330
40E
100
AcDbEntity
  8
COORDINATES
  6
SOLID_LINE
 62
    70
100
AcDbText
 10
459535.359906
 20
238876.187086
 30
135.062997
 40
0.3
  1
459535.26;238876.09
100
AcDbText
  0
TEXT
  5
1DD
330
40E
100
AcDbEntity
  8
HEIGHT
  6
SOLID_LINE
 62
     4
100
AcDbText
 10
459535.359906
 20
238875.687086
 30
135.062997
 40
0.3
  1
135.063
 11
459535.359906
 21
238875.987086
 31
135.062997
100
AcDbText
 73
     3
  0
TEXT
  5
1DE
330
40E
100
AcDbEntity
  8
POINT_CODE
  6
SOLID_LINE
 62
     5
100
AcDbText
 10
459535.159906
 20
238875.687086
 30
135.062997
 40
0.3
  1

 72
     2
 11
459535.159906
 21
238875.987086
 31
135.062997
100
AcDbText
 73
     3
  0
POINT
  5
1DF
330
40E
100
AcDbEntity
  8
0
  6
SOLID_LINE
 62
     0
100
AcDbPoint
 10
459536.578419
 20
238875.383167
 30
135.047185
  0
TEXT
  5
1E0
330
40E
100
AcDbEntity
  8
POINT_ID
  6
SOLID_LINE
 62
     1
100
AcDbText
 10
459534.928419
 20
238875.483167
 30
135.047185
 40
0.3
  1
DP019.1
 72
     2
 11
459536.478419
 21
238875.483167
 31
135.047185
100
AcDbText
  0
TEXT
  5
1E1
330
40E
100
AcDbEntity
  8
COORDINATES
  6
SOLID_LINE
 62
    70
100
AcDbText
 10
459536.678419
 20
238875.483167
 30
135.047185
 40
0.3
  1
459536.58;238875.38
100
AcDbText
  0
TEXT
  5
1E2
330
40E
100
AcDbEntity
  8
HEIGHT
  6
SOLID_LINE
 62
     4
100
AcDbText
 10
459536.678419
 20
238874.983167
 30
135.047185
 40
0.3
  1
135.047
 11
459536.678419
 21
238875.283167
 31
135.047185
100
AcDbText
 73
     3
  0
TEXT
  5
1E3
330
40E
100
AcDbEntity
  8
POINT_CODE
  6
SOLID_LINE
 62
     5
100
AcDbText
 10
459536.478419
 20
238874.983167
 30
135.047185
 40
0.3
  1

 72
     2
 11
459536.478419
 21
238875.283167
 31
135.047185
100
AcDbText
 73
     3
  0
POINT
  5
1E4
330
40E
100
AcDbEntity
  8
0
  6
SOLID_LINE
 62
     0
100
AcDbPoint
 10
459535.394512
 20
238876.212194
 30
134.906803
  0
TEXT
  5
1E5
330
40E
100
AcDbEntity
  8
POINT_ID
  6
SOLID_LINE
 62
     1
100
AcDbText
 10
459533.344512
 20
238876.312194
 30
134.906803
 40
0.3
  1
PIT024.4
 72
     2
 11
459535.294512
 21
238876.312194
 31
134.906803
100
AcDbText
  0
TEXT
  5
1E6
330
40E
100
AcDbEntity
  8
COORDINATES
  6
SOLID_LINE
 62
    70
100
AcDbText
 10
459535.494512
 20
238876.312194
 30
134.906803
 40
0.3
  1
459535.39;238876.21
100
AcDbText
  0
TEXT
  5
1E7
330
40E
100
AcDbEntity
  8
HEIGHT
  6
SOLID_LINE
 62
     4
100
AcDbText
 10
459535.494512
 20
238875.812194
 30
134.906803
 40
0.3
  1
134.907
 11
459535.494512
 21
238876.112194
 31
134.906803
100
AcDbText
 73
     3
  0
TEXT
  5
1E8
330
40E
100
AcDbEntity
  8
POINT_CODE
  6
SOLID_LINE
 62
     5
100
AcDbText
 10
459535.294512
 20
238875.812194
 30
134.906803
 40
0.3
  1

 72
     2
 11
459535.294512
 21
238876.112194
 31
134.906803
100
AcDbText
 73
     3
  0
POINT
  5
1E9
330
40E
100
AcDbEntity
  8
0
  6
SOLID_LINE
 62
     0
100
AcDbPoint
 10
459535.935028
 20
238876.738213
 30
134.919252
  0
TEXT
  5
1EA
330
40E
100
AcDbEntity
  8
POINT_ID
  6
SOLID_LINE
 62
     1
100
AcDbText
 10
459533.885028
 20
238876.838213
 30
134.919252
 40
0.3
  1
PIT024.3
 72
     2
 11
459535.835028
 21
238876.838213
 31
134.919252
100
AcDbText
  0
TEXT
  5
1EB
330
40E
100
AcDbEntity
  8
COORDINATES
  6
SOLID_LINE
 62
    70
100
AcDbText
 10
459536.035028
 20
238876.838213
 30
134.919252
 40
0.3
  1
459535.94;238876.74
100
AcDbText
  0
TEXT
  5
1EC
330
40E
100
AcDbEntity
  8
HEIGHT
  6
SOLID_LINE
 62
     4
100
AcDbText
 10
459536.035028
 20
238876.338213
 30
134.919252
 40
0.3
  1
134.919
 11
459536.035028
 21
238876.638213
 31
134.919252
100
AcDbText
 73
     3
  0
TEXT
  5
1ED
330
40E
100
AcDbEntity
  8
POINT_CODE
  6
SOLID_LINE
 62
     5
100
AcDbText
 10
459535.835028
 20
238876.338213
 30
134.919252
 40
0.3
  1

 72
     2
 11
459535.835028
 21
238876.638213
 31
134.919252
100
AcDbText
 73
     3
  0
POINT
  5
1EE
330
40E
100
AcDbEntity
  8
0
  6
SOLID_LINE
 62
     0
100
AcDbPoint
 10
459536.444125
 20
238876.399242
 30
134.934457
  0
TEXT
  5
1EF
330
40E
100
AcDbEntity
  8
POINT_ID
  6
SOLID_LINE
 62
     1
100
AcDbText
 10
459534.394125
 20
238876.499242
 30
134.934457
 40
0.3
  1
PIT024.2
 72
     2
 11
459536.344125
 21
238876.499242
 31
134.934457
100
AcDbText
  0
TEXT
  5
1F0
330
40E
100
AcDbEntity
  8
COORDINATES
  6
SOLID_LINE
 62
    70
100
AcDbText
 10
459536.544125
 20
238876.499242
 30
134.934457
 40
0.3
  1
459536.44;238876.40
100
AcDbText
  0
TEXT
  5
1F1
330
40E
100
AcDbEntity
  8
HEIGHT
  6
SOLID_LINE
 62
     4
100
AcDbText
 10
459536.544125
 20
238875.999242
 30
134.934457
 40
0.3
  1
134.934
 11
459536.544125
 21
238876.299242
 31
134.934457
100
AcDbText
 73
     3
  0
TEXT
  5
1F2
330
40E
100
AcDbEntity
  8
POINT_CODE
  6
SOLID_LINE
 62
     5
100
AcDbText
 10
459536.344125
 20
238875.999242
 30
134.934457
 40
0.3
  1

 72
     2
 11
459536.344125
 21
238876.299242
 31
134.934457
100
AcDbText
 73
     3
  0
POINT
  5
1F3
330
40E
100
AcDbEntity
  8
0
  6
SOLID_LINE
 62
     0
100
AcDbPoint
 10
459536.541915
 20
238875.64275
 30
134.911459
  0
TEXT
  5
1F4
330
40E
100
AcDbEntity
  8
POINT_ID
  6
SOLID_LINE
 62
     1
100
AcDbText
 10
459534.591915
 20
238875.74275
 30
134.911459
 40
0.3
  1
PIT024.1
 72
     2
 11
459536.441915
 21
238875.74275
 31
134.911459
100
AcDbText
  0
TEXT
  5
1F5
330
40E
100
AcDbEntity
  8
COORDINATES
  6
SOLID_LINE
 62
    70
100
AcDbText
 10
459536.641915
 20
238875.74275
 30
134.911459
 40
0.3
  1
459536.54;238875.64
100
AcDbText
  0
TEXT
  5
1F6
330
40E
100
AcDbEntity
  8
HEIGHT
  6
SOLID_LINE
 62
     4
100
AcDbText
 10
459536.641915
 20
238875.24275
 30
134.911459
 40
0.3
  1
134.911
 11
459536.641915
 21
238875.54275
 31
134.911459
100
AcDbText
 73
     3
  0
TEXT
  5
1F7
330
40E
100
AcDbEntity
  8
POINT_CODE
  6
SOLID_LINE
 62
     5
100
AcDbText
 10
459536.441915
 20
238875.24275
 30
134.911459
 40
0.3
  1

 72
     2
 11
459536.441915
 21
238875.54275
 31
134.911459
100
AcDbText
 73
     3
  0
POINT
  5
1F8
330
40E
100
AcDbEntity
  8
0
  6
SOLID_LINE
 62
     0
100
AcDbPoint
 10
459543.528147
 20
238872.661968
 30
134.819236
  0
TEXT
  5
1F9
330
40E
100
AcDbEntity
  8
POINT_ID
  6
SOLID_LINE
 62
     1
100
AcDbText
 10
459541.478147
 20
238872.761968
 30
134.819236
 40
0.3
  1
PIT025.7
 72
     2
 11
459543.428147
 21
238872.761968
 31
134.819236
100
AcDbText
  0
TEXT
  5
1FA
330
40E
100
AcDbEntity
  8
COORDINATES
  6
SOLID_LINE
 62
    70
100
AcDbText
 10
459543.628147
 20
238872.761968
 30
134.819236
 40
0.3
  1
459543.53;238872.66
100
AcDbText
  0
TEXT
  5
1FB
330
40E
100
AcDbEntity
  8
HEIGHT
  6
SOLID_LINE
 62
     4
100
AcDbText
 10
459543.628147
 20
238872.261968
 30
134.819236
 40
0.3
  1
134.819
 11
459543.628147
 21
238872.561968
 31
134.819236
100
AcDbText
 73
     3
  0
TEXT
  5
1FC
330
40E
100
AcDbEntity
  8
POINT_CODE
  6
SOLID_LINE
 62
     5
100
AcDbText
 10
459543.428147
 20
238872.261968
 30
134.819236
 40
0.3
  1

 72
     2
 11
459543.428147
 21
238872.561968
 31
134.819236
100
AcDbText
 73
     3
  0
POINT
  5
1FD
330
40E
100
AcDbEntity
  8
0
  6
SOLID_LINE
 62
     0
100
AcDbPoint
 10
459544.233149
 20
238873.260578
 30
134.781869
  0
TEXT
  5
1FE
330
40E
100
AcDbEntity
  8
POINT_ID
  6
SOLID_LINE
 62
     1
100
AcDbText
 10
459542.183149
 20
238873.360578
 30
134.781869
 40
0.3
  1
PIT025.6
 72
     2
 11
459544.133149
 21
238873.360578
 31
134.781869
100
AcDbText
  0
TEXT
  5
1FF
330
40E
100
AcDbEntity
  8
COORDINATES
  6
SOLID_LINE
 62
    70
100
AcDbText
 10
459544.333149
 20
238873.360578
 30
134.781869
 40
0.3
  1
459544.23;238873.26
100
AcDbText
  0
TEXT
  5
200
330
40E
100
AcDbEntity
  8
HEIGHT
  6
SOLID_LINE
 62
     4
100
AcDbText
 10
459544.333149
 20
238872.860578
 30
134.781869
 40
0.3
  1
134.782
 11
459544.333149
 21
238873.160578
 31
134.781869
100
AcDbText
 73
     3
  0
TEXT
  5
201
330
40E
100
AcDbEntity
  8
POINT_CODE
  6
SOLID_LINE
 62
     5
100
AcDbText
 10
459544.133149
 20
238872.860578
 30
134.781869
 40
0.3
  1

 72
     2
 11
459544.133149
 21
238873.160578
 31
134.781869
100
AcDbText
 73
     3
  0
POINT
  5
202
330
40E
100
AcDbEntity
  8
0
  6
SOLID_LINE
 62
     0
100
AcDbPoint
 10
459544.73892
 20
238873.152171
 30
134.80262
  0
TEXT
  5
203
330
40E
100
AcDbEntity
  8
POINT_ID
  6
SOLID_LINE
 62
     1
100
AcDbText
 10
459542.68892
 20
238873.252171
 30
134.80262
 40
0.3
  1
PIT025.5
 72
     2
 11
459544.63892
 21
238873.252171
 31
134.80262
100
AcDbText
  0
TEXT
  5
204
330
40E
100
AcDbEntity
  8
COORDINATES
  6
SOLID_LINE
 62
    70
100
AcDbText
 10
459544.83892
 20
238873.252171
 30
134.80262
 40
0.3
  1
459544.74;238873.15
100
AcDbText
  0
TEXT
  5
205
330
40E
100
AcDbEntity
  8
HEIGHT
  6
SOLID_LINE
 62
     4
100
AcDbText
 10
459544.83892
 20
238872.752171
 30
134.80262
 40
0.3
  1
134.803
 11
459544.83892
 21
238873.052171
 31
134.80262
100
AcDbText
 73
     3
  0
TEXT
  5
206
330
40E
100
AcDbEntity
  8
POINT_CODE
  6
SOLID_LINE
 62
     5
100
AcDbText
 10
459544.63892
 20
238872.752171
 30
134.80262
 40
0.3
  1

 72
     2
 11
459544.63892
 21
238873.052171
 31
134.80262
100
AcDbText
 73
     3
  0
POINT
  5
207
330
40E
100
AcDbEntity
  8
0
  6
SOLID_LINE
 62
     0
100
AcDbPoint
 10
459545.366307
 20
238872.716642
 30
134.651069
  0
TEXT
  5
208
330
40E
100
AcDbEntity
  8
POINT_ID
  6
SOLID_LINE
 62
     1
100
AcDbText
 10
459543.316307
 20
238872.816642
 30
134.651069
 40
0.3
  1
PIT025.4
 72
     2
 11
459545.266307
 21
238872.816642
 31
134.651069
100
AcDbText
  0
TEXT
  5
209
330
40E
100
AcDbEntity
  8
COORDINATES
  6
SOLID_LINE
 62
    70
100
AcDbText
 10
459545.466307
 20
238872.816642
 30
134.651069
 40
0.3
  1
459545.37;238872.72
100
AcDbText
  0
TEXT
  5
20A
330
40E
100
AcDbEntity
  8
HEIGHT
  6
SOLID_LINE
 62
     4
100
AcDbText
 10
459545.466307
 20
238872.316642
 30
134.651069
 40
0.3
  1
134.651
 11
459545.466307
 21
238872.616642
 31
134.651069
100
AcDbText
 73
     3
  0
TEXT
  5
20B
330
40E
100
AcDbEntity
  8
POINT_CODE
  6
SOLID_LINE
 62
     5
100
AcDbText
 10
459545.266307
 20
238872.316642
 30
134.651069
 40
0.3
  1

 72
     2
 11
459545.266307
 21
238872.616642
 31
134.651069
100
AcDbText
 73
     3
  0
POINT
  5
20C
330
40E
100
AcDbEntity
  8
0
  6
SOLID_LINE
 62
     0
100
AcDbPoint
 10
459545.579207
 20
238871.691826
 30
134.645271
  0
TEXT
  5
20D
330
40E
100
AcDbEntity
  8
POINT_ID
  6
SOLID_LINE
 62
     1
100
AcDbText
 10
459543.529207
 20
238871.791826
 30
134.645271
 40
0.3
  1
PIT025.3
 72
     2
 11
459545.479207
 21
238871.791826
 31
134.645271
100
AcDbText
  0
TEXT
  5
20E
330
40E
100
AcDbEntity
  8
COORDINATES
  6
SOLID_LINE
 62
    70
100
AcDbText
 10
459545.679207
 20
238871.791826
 30
134.645271
 40
0.3
  1
459545.58;238871.69
100
AcDbText
  0
TEXT
  5
20F
330
40E
100
AcDbEntity
  8
HEIGHT
  6
SOLID_LINE
 62
     4
100
AcDbText
 10
459545.679207
 20
238871.291826
 30
134.645271
 40
0.3
  1
134.645
 11
459545.679207
 21
238871.591826
 31
134.645271
100
AcDbText
 73
     3
  0
TEXT
  5
210
330
40E
100
AcDbEntity
  8
POINT_CODE
  6
SOLID_LINE
 62
     5
100
AcDbText
 10
459545.479207
 20
238871.291826
 30
134.645271
 40
0.3
  1

 72
     2
 11
459545.479207
 21
238871.591826
 31
134.645271
100
AcDbText
 73
     3
  0
POINT
  5
211
330
40E
100
AcDbEntity
  8
0
  6
SOLID_LINE
 62
     0
100
AcDbPoint
 10
459545.082021
 20
238871.330971
 30
134.634592
  0
TEXT
  5
212
330
40E
100
AcDbEntity
  8
POINT_ID
  6
SOLID_LINE
 62
     1
100
AcDbText
 10
459543.032021
 20
238871.430971
 30
134.634592
 40
0.3
  1
PIT025.2
 72
     2
 11
459544.982021
 21
238871.430971
 31
134.634592
100
AcDbText
  0
TEXT
  5
213
330
40E
100
AcDbEntity
  8
COORDINATES
  6
SOLID_LINE
 62
    70
100
AcDbText
 10
459545.182021
 20
238871.430971
 30
134.634592
 40
0.3
  1
459545.08;238871.33
100
AcDbText
  0
TEXT
  5
214
330
40E
100
AcDbEntity
  8
HEIGHT
  6
SOLID_LINE
 62
     4
100
AcDbText
 10
459545.182021
 20
238870.930971
 30
134.634592
 40
0.3
  1
134.635
 11
459545.182021
 21
238871.230971
 31
134.634592
100
AcDbText
 73
     3
  0
TEXT
  5
215
330
40E
100
AcDbEntity
  8
POINT_CODE
  6
SOLID_LINE
 62
     5
100
AcDbText
 10
459544.982021
 20
238870.930971
 30
134.634592
 40
0.3
  1

 72
     2
 11
459544.982021
 21
238871.230971
 31
134.634592
100
AcDbText
 73
     3
  0
POINT
  5
216
330
40E
100
AcDbEntity
  8
0
  6
SOLID_LINE
 62
     0
100
AcDbPoint
 10
459544.470683
 20
238871.938688
 30
134.718725
  0
TEXT
  5
217
330
40E
100
AcDbEntity
  8
POINT_ID
  6
SOLID_LINE
 62
     1
100
AcDbText
 10
459542.520683
 20
238872.038688
 30
134.718725
 40
0.3
  1
PIT025.1
 72
     2
 11
459544.370683
 21
238872.038688
 31
134.718725
100
AcDbText
  0
TEXT
  5
218
330
40E
100
AcDbEntity
  8
COORDINATES
  6
SOLID_LINE
 62
    70
100
AcDbText
 10
459544.570683
 20
238872.038688
 30
134.718725
 40
0.3
  1
459544.47;238871.94
100
AcDbText
  0
TEXT
  5
219
330
40E
100
AcDbEntity
  8
HEIGHT
  6
SOLID_LINE
 62
     4
100
AcDbText
 10
459544.570683
 20
238871.538688
 30
134.718725
 40
0.3
  1
134.719
 11
459544.570683
 21
238871.838688
 31
134.718725
100
AcDbText
 73
     3
  0
TEXT
  5
21A
330
40E
100
AcDbEntity
  8
POINT_CODE
  6
SOLID_LINE
 62
     5
100
AcDbText
 10
459544.370683
 20
238871.538688
 30
134.718725
 40
0.3
  1

 72
     2
 11
459544.370683
 21
238871.838688
 31
134.718725
100
AcDbText
 73
     3
  0
POINT
  5
21B
330
40E
100
AcDbEntity
  8
0
  6
SOLID_LINE
 62
     0
100
AcDbPoint
 10
459525.46246
 20
238883.667808
 30
135.188801
  0
TEXT
  5
21C
330
40E
100
AcDbEntity
  8
POINT_ID
  6
SOLID_LINE
 62
     1
100
AcDbText
 10
459523.66246
 20
238883.767808
 30
135.188801
 40
0.3
  1
DP007.4
 72
     2
 11
459525.36246
 21
238883.767808
 31
135.188801
100
AcDbText
  0
TEXT
  5
21D
330
40E
100
AcDbEntity
  8
COORDINATES
  6
SOLID_LINE
 62
    70
100
AcDbText
 10
459525.56246
 20
238883.767808
 30
135.188801
 40
0.3
  1
459525.46;238883.67
100
AcDbText
  0
TEXT
  5
21E
330
40E
100
AcDbEntity
  8
HEIGHT
  6
SOLID_LINE
 62
     4
100
AcDbText
 10
459525.56246
 20
238883.267808
 30
135.188801
 40
0.3
  1
135.189
 11
459525.56246
 21
238883.567808
 31
135.188801
100
AcDbText
 73
     3
  0
TEXT
  5
21F
330
40E
100
AcDbEntity
  8
POINT_CODE
  6
SOLID_LINE
 62
     5
100
AcDbText
 10
459525.36246
 20
238883.267808
 30
135.188801
 40
0.3
  1

 72
     2
 11
459525.36246
 21
238883.567808
 31
135.188801
100
AcDbText
 73
     3
  0
POINT
  5
220
330
40E
100
AcDbEntity
  8
0
  6
SOLID_LINE
 62
     0
100
AcDbPoint
 10
459525.480147
 20
238883.578174
 30
135.279362
  0
TEXT
  5
221
330
40E
100
AcDbEntity
  8
POINT_ID
  6
SOLID_LINE
 62
     1
100
AcDbText
 10
459523.680147
 20
238883.678174
 30
135.279362
 40
0.3
  1
DP007.3
 72
     2
 11
459525.380147
 21
238883.678174
 31
135.279362
100
AcDbText
  0
TEXT
  5
222
330
40E
100
AcDbEntity
  8
COORDINATES
  6
SOLID_LINE
 62
    70
100
AcDbText
 10
459525.580147
 20
238883.678174
 30
135.279362
 40
0.3
  1
459525.48;238883.58
100
AcDbText
  0
TEXT
  5
223
330
40E
100
AcDbEntity
  8
HEIGHT
  6
SOLID_LINE
 62
     4
100
AcDbText
 10
459525.580147
 20
238883.178174
 30
135.279362
 40
0.3
  1
135.279
 11
459525.580147
 21
238883.478174
 31
135.279362
100
AcDbText
 73
     3
  0
TEXT
  5
224
330
40E
100
AcDbEntity
  8
POINT_CODE
  6
SOLID_LINE
 62
     5
100
AcDbText
 10
459525.380147
 20
238883.178174
 30
135.279362
 40
0.3
  1

 72
     2
 11
459525.380147
 21
238883.478174
 31
135.279362
100
AcDbText
 73
     3
  0
POINT
  5
225
330
40E
100
AcDbEntity
  8
0
  6
SOLID_LINE
 62
     0
100
AcDbPoint
 10
459525.198265
 20
238883.102954
 30
135.337366
  0
TEXT
  5
226
330
40E
100
AcDbEntity
  8
POINT_ID
  6
SOLID_LINE
 62
     1
100
AcDbText
 10
459523.398265
 20
238883.202954
 30
135.337366
 40
0.3
  1
DP007.2
 72
     2
 11
459525.098265
 21
238883.202954
 31
135.337366
100
AcDbText
  0
TEXT
  5
227
330
40E
100
AcDbEntity
  8
COORDINATES
  6
SOLID_LINE
 62
    70
100
AcDbText
 10
459525.298265
 20
238883.202954
 30
135.337366
 40
0.3
  1
459525.20;238883.10
100
AcDbText
  0
TEXT
  5
228
330
40E
100
AcDbEntity
  8
HEIGHT
  6
SOLID_LINE
 62
     4
100
AcDbText
 10
459525.298265
 20
238882.702954
 30
135.337366
 40
0.3
  1
135.337
 11
459525.298265
 21
238883.002954
 31
135.337366
100
AcDbText
 73
     3
  0
TEXT
  5
229
330
40E
100
AcDbEntity
  8
POINT_CODE
  6
SOLID_LINE
 62
     5
100
AcDbText
 10
459525.098265
 20
238882.702954
 30
135.337366
 40
0.3
  1

 72
     2
 11
459525.098265
 21
238883.002954
 31
135.337366
100
AcDbText
 73
     3
  0
POINT
  5
22A
330
40E
100
AcDbEntity
  8
0
  6
SOLID_LINE
 62
     0
100
AcDbPoint
 10
459525.751982
 20
238884.113913
 30
135.333197
  0
TEXT
  5
22B
330
40E
100
AcDbEntity
  8
POINT_ID
  6
SOLID_LINE
 62
     1
100
AcDbText
 10
459524.051982
 20
238884.213913
 30
135.333197
 40
0.3
  1
DP007.1
 72
     2
 11
459525.651982
 21
238884.213913
 31
135.333197
100
AcDbText
  0
TEXT
  5
22C
330
40E
100
AcDbEntity
  8
COORDINATES
  6
SOLID_LINE
 62
    70
100
AcDbText
 10
459525.851982
 20
238884.213913
 30
135.333197
 40
0.3
  1
459525.75;238884.11
100
AcDbText
  0
TEXT
  5
22D
330
40E
100
AcDbEntity
  8
HEIGHT
  6
SOLID_LINE
 62
     4
100
AcDbText
 10
459525.851982
 20
238883.713913
 30
135.333197
 40
0.3
  1
135.333
 11
459525.851982
 21
238884.013913
 31
135.333197
100
AcDbText
 73
     3
  0
TEXT
  5
22E
330
40E
100
AcDbEntity
  8
POINT_CODE
  6
SOLID_LINE
 62
     5
100
AcDbText
 10
459525.651982
 20
238883.713913
 30
135.333197
 40
0.3
  1

 72
     2
 11
459525.651982
 21
238884.013913
 31
135.333197
100
AcDbText
 73
     3
  0
POINT
  5
22F
330
40E
100
AcDbEntity
  8
0
  6
SOLID_LINE
 62
     0
100
AcDbPoint
 10
459525.499887
 20
238883.109115
 30
135.276328
  0
TEXT
  5
230
330
40E
100
AcDbEntity
  8
POINT_ID
  6
SOLID_LINE
 62
     1
100
AcDbText
 10
459523.549887
 20
238883.209115
 30
135.276328
 40
0.3
  1
PIT016.9
 72
     2
 11
459525.399887
 21
238883.209115
 31
135.276328
100
AcDbText
  0
TEXT
  5
231
330
40E
100
AcDbEntity
  8
COORDINATES
  6
SOLID_LINE
 62
    70
100
AcDbText
 10
459525.599887
 20
238883.209115
 30
135.276328
 40
0.3
  1
459525.50;238883.11
100
AcDbText
  0
TEXT
  5
232
330
40E
100
AcDbEntity
  8
HEIGHT
  6
SOLID_LINE
 62
     4
100
AcDbText
 10
459525.599887
 20
238882.709115
 30
135.276328
 40
0.3
  1
135.276
 11
459525.599887
 21
238883.009115
 31
135.276328
100
AcDbText
 73
     3
  0
TEXT
  5
233
330
40E
100
AcDbEntity
  8
POINT_CODE
  6
SOLID_LINE
 62
     5
100
AcDbText
 10
459525.399887
 20
238882.709115
 30
135.276328
 40
0.3
  1

 72
     2
 11
459525.399887
 21
238883.009115
 31
135.276328
100
AcDbText
 73
     3
  0
POINT
  5
234
330
40E
100
AcDbEntity
  8
0
  6
SOLID_LINE
 62
     0
100
AcDbPoint
 10
459525.690167
 20
238883.31746
 30
135.243239
  0
TEXT
  5
235
330
40E
100
AcDbEntity
  8
POINT_ID
  6
SOLID_LINE
 62
     1
100
AcDbText
 10
459523.740167
 20
238883.41746
 30
135.243239
 40
0.3
  1
PIT016.8
 72
     2
 11
459525.590167
 21
238883.41746
 31
135.243239
100
AcDbText
  0
TEXT
  5
236
330
40E
100
AcDbEntity
  8
COORDINATES
  6
SOLID_LINE
 62
    70
100
AcDbText
 10
459525.790167
 20
238883.41746
 30
135.243239
 40
0.3
  1
459525.69;238883.32
100
AcDbText
  0
TEXT
  5
237
330
40E
100
AcDbEntity
  8
HEIGHT
  6
SOLID_LINE
 62
     4
100
AcDbText
 10
459525.790167
 20
238882.91746
 30
135.243239
 40
0.3
  1
135.243
 11
459525.790167
 21
238883.21746
 31
135.243239
100
AcDbText
 73
     3
  0
TEXT
  5
238
330
40E
100
AcDbEntity
  8
POINT_CODE
  6
SOLID_LINE
 62
     5
100
AcDbText
 10
459525.590167
 20
238882.91746
 30
135.243239
 40
0.3
  1

 72
     2
 11
459525.590167
 21
238883.21746
 31
135.243239
100
AcDbText
 73
     3
  0
POINT
  5
239
330
40E
100
AcDbEntity
  8
0
  6
SOLID_LINE
 62
     0
100
AcDbPoint
 10
459525.908684
 20
238883.619431
 30
135.269299
  0
TEXT
  5
23A
330
40E
100
AcDbEntity
  8
POINT_ID
  6
SOLID_LINE
 62
     1
100
AcDbText
 10
459523.958684
 20
238883.719431
 30
135.269299
 40
0.3
  1
PIT016.7
 72
     2
 11
459525.808684
 21
238883.719431
 31
135.269299
100
AcDbText
  0
TEXT
  5
23B
330
40E
100
AcDbEntity
  8
COORDINATES
  6
SOLID_LINE
 62
    70
100
AcDbText
 10
459526.008684
 20
238883.719431
 30
135.269299
 40
0.3
  1
459525.91;238883.62
100
AcDbText
  0
TEXT
  5
23C
330
40E
100
AcDbEntity
  8
HEIGHT
  6
SOLID_LINE
 62
     4
100
AcDbText
 10
459526.008684
 20
238883.219431
 30
135.269299
 40
0.3
  1
135.269
 11
459526.008684
 21
238883.519431
 31
135.269299
100
AcDbText
 73
     3
  0
TEXT
  5
23D
330
40E
100
AcDbEntity
  8
POINT_CODE
  6
SOLID_LINE
 62
     5
100
AcDbText
 10
459525.808684
 20
238883.219431
 30
135.269299
 40
0.3
  1

 72
     2
 11
459525.808684
 21
238883.519431
 31
135.269299
100
AcDbText
 73
     3
  0
POINT
  5
23E
330
40E
100
AcDbEntity
  8
0
  6
SOLID_LINE
 62
     0
100
AcDbPoint
 10
459525.94577
 20
238883.884745
 30
135.282124
  0
TEXT
  5
23F
330
40E
100
AcDbEntity
  8
POINT_ID
  6
SOLID_LINE
 62
     1
100
AcDbText
 10
459523.99577
 20
238883.984745
 30
135.282124
 40
0.3
  1
PIT016.6
 72
     2
 11
459525.84577
 21
238883.984745
 31
135.282124
100
AcDbText
  0
TEXT
  5
240
330
40E
100
AcDbEntity
  8
COORDINATES
  6
SOLID_LINE
 62
    70
100
AcDbText
 10
459526.04577
 20
238883.984745
 30
135.282124
 40
0.3
  1
459525.95;238883.88
100
AcDbText
  0
TEXT
  5
241
330
40E
100
AcDbEntity
  8
HEIGHT
  6
SOLID_LINE
 62
     4
100
AcDbText
 10
459526.04577
 20
238883.484745
 30
135.282124
 40
0.3
  1
135.282
 11
459526.04577
 21
238883.784745
 31
135.282124
100
AcDbText
 73
     3
  0
TEXT
  5
242
330
40E
100
AcDbEntity
  8
POINT_CODE
  6
SOLID_LINE
 62
     5
100
AcDbText
 10
459525.84577
 20
238883.484745
 30
135.282124
 40
0.3
  1

 72
     2
 11
459525.84577
 21
238883.784745
 31
135.282124
100
AcDbText
 73
     3
  0
POINT
  5
243
330
40E
100
AcDbEntity
  8
0
  6
SOLID_LINE
 62
     0
100
AcDbPoint
 10
459525.7187
 20
238884.128419
 30
135.283376
  0
TEXT
  5
244
330
40E
100
AcDbEntity
  8
POINT_ID
  6
SOLID_LINE
 62
     1
100
AcDbText
 10
459523.7687
 20
238884.228419
 30
135.283376
 40
0.3
  1
PIT016.5
 72
     2
 11
459525.6187
 21
238884.228419
 31
135.283376
100
AcDbText
  0
TEXT
  5
245
330
40E
100
AcDbEntity
  8
COORDINATES
  6
SOLID_LINE
 62
    70
100
AcDbText
 10
459525.8187
 20
238884.228419
 30
135.283376
 40
0.3
  1
459525.72;238884.13
100
AcDbText
  0
TEXT
  5
246
330
40E
100
AcDbEntity
  8
HEIGHT
  6
SOLID_LINE
 62
     4
100
AcDbText
 10
459525.8187
 20
238883.728419
 30
135.283376
 40
0.3
  1
135.283
 11
459525.8187
 21
238884.028419
 31
135.283376
100
AcDbText
 73
     3
  0
TEXT
  5
247
330
40E
100
AcDbEntity
  8
POINT_CODE
  6
SOLID_LINE
 62
     5
100
AcDbText
 10
459525.6187
 20
238883.728419
 30
135.283376
 40
0.3
  1

 72
     2
 11
459525.6187
 21
238884.028419
 31
135.283376
100
AcDbText
 73
     3
  0
POINT
  5
248
330
40E
100
AcDbEntity
  8
0
  6
SOLID_LINE
 62
     0
100
AcDbPoint
 10
459525.368918
 20
238884.326963
 30
135.270409
  0
TEXT
  5
249
330
40E
100
AcDbEntity
  8
POINT_ID
  6
SOLID_LINE
 62
     1
100
AcDbText
 10
459523.418918
 20
238884.426963
 30
135.270409
 40
0.3
  1
PIT016.4
 72
     2
 11
459525.268918
 21
238884.426963
 31
135.270409
100
AcDbText
  0
TEXT
  5
24A
330
40E
100
AcDbEntity
  8
COORDINATES
  6
SOLID_LINE
 62
    70
100
AcDbText
 10
459525.468918
 20
238884.426963
 30
135.270409
 40
0.3
  1
459525.37;238884.33
100
AcDbText
  0
TEXT
  5
24B
330
40E
100
AcDbEntity
  8
HEIGHT
  6
SOLID_LINE
 62
     4
100
AcDbText
 10
459525.468918
 20
238883.926963
 30
135.270409
 40
0.3
  1
135.270
 11
459525.468918
 21
238884.226963
 31
135.270409
100
AcDbText
 73
     3
  0
TEXT
  5
24C
330
40E
100
AcDbEntity
  8
POINT_CODE
  6
SOLID_LINE
 62
     5
100
AcDbText
 10
459525.268918
 20
238883.926963
 30
135.270409
 40
0.3
  1

 72
     2
 11
459525.268918
 21
238884.226963
 31
135.270409
100
AcDbText
 73
     3
  0
POINT
  5
24D
330
40E
100
AcDbEntity
  8
0
  6
SOLID_LINE
 62
     0
100
AcDbPoint
 10
459525.135478
 20
238884.004613
 30
135.279812
  0
TEXT
  5
24E
330
40E
100
AcDbEntity
  8
POINT_ID
  6
SOLID_LINE
 62
     1
100
AcDbText
 10
459523.185478
 20
238884.104613
 30
135.279812
 40
0.3
  1
PIT016.3
 72
     2
 11
459525.035478
 21
238884.104613
 31
135.279812
100
AcDbText
  0
TEXT
  5
24F
330
40E
100
AcDbEntity
  8
COORDINATES
  6
SOLID_LINE
 62
    70
100
AcDbText
 10
459525.235478
 20
238884.104613
 30
135.279812
 40
0.3
  1
459525.14;238884.00
100
AcDbText
  0
TEXT
  5
250
330
40E
100
AcDbEntity
  8
HEIGHT
  6
SOLID_LINE
 62
     4
100
AcDbText
 10
459525.235478
 20
238883.604613
 30
135.279812
 40
0.3
  1
135.280
 11
459525.235478
 21
238883.904613
 31
135.279812
100
AcDbText
 73
     3
  0
TEXT
  5
251
330
40E
100
AcDbEntity
  8
POINT_CODE
  6
SOLID_LINE
 62
     5
100
AcDbText
 10
459525.035478
 20
238883.604613
 30
135.279812
 40
0.3
  1

 72
     2
 11
459525.035478
 21
238883.904613
 31
135.279812
100
AcDbText
 73
     3
  0
POINT
  5
252
330
40E
100
AcDbEntity
  8
0
  6
SOLID_LINE
 62
     0
100
AcDbPoint
 10
459525.097607
 20
238883.58587
 30
135.251728
  0
TEXT
  5
253
330
40E
100
AcDbEntity
  8
POINT_ID
  6
SOLID_LINE
 62
     1
100
AcDbText
 10
459523.147607
 20
238883.68587
 30
135.251728
 40
0.3
  1
PIT016.2
 72
     2
 11
459524.997607
 21
238883.68587
 31
135.251728
100
AcDbText
  0
TEXT
  5
254
330
40E
100
AcDbEntity
  8
COORDINATES
  6
SOLID_LINE
 62
    70
100
AcDbText
 10
459525.197607
 20
238883.68587
 30
135.251728
 40
0.3
  1
459525.10;238883.59
100
AcDbText
  0
TEXT
  5
255
330
40E
100
AcDbEntity
  8
HEIGHT
  6
SOLID_LINE
 62
     4
100
AcDbText
 10
459525.197607
 20
238883.18587
 30
135.251728
 40
0.3
  1
135.252
 11
459525.197607
 21
238883.48587
 31
135.251728
100
AcDbText
 73
     3
  0
TEXT
  5
256
330
40E
100
AcDbEntity
  8
POINT_CODE
  6
SOLID_LINE
 62
     5
100
AcDbText
 10
459524.997607
 20
238883.18587
 30
135.251728
 40
0.3
  1

 72
     2
 11
459524.997607
 21
238883.48587
 31
135.251728
100
AcDbText
 73
     3
  0
POINT
  5
257
330
40E
100
AcDbEntity
  8
0
  6
SOLID_LINE
 62
     0
100
AcDbPoint
 10
459525.185318
 20
238883.168511
 30
135.258431
  0
TEXT
  5
258
330
40E
100
AcDbEntity
  8
POINT_ID
  6
SOLID_LINE
 62
     1
100
AcDbText
 10
459523.335318
 20
238883.268511
 30
135.258431
 40
0.3
  1
PIT016.1
 72
     2
 11
459525.085318
 21
238883.268511
 31
135.258431
100
AcDbText
  0
TEXT
  5
259
330
40E
100
AcDbEntity
  8
COORDINATES
  6
SOLID_LINE
 62
    70
100
AcDbText
 10
459525.285318
 20
238883.268511
 30
135.258431
 40
0.3
  1
459525.19;238883.17
100
AcDbText
  0
TEXT
  5
25A
330
40E
100
AcDbEntity
  8
HEIGHT
  6
SOLID_LINE
 62
     4
100
AcDbText
 10
459525.285318
 20
238882.768511
 30
135.258431
 40
0.3
  1
135.258
 11
459525.285318
 21
238883.068511
 31
135.258431
100
AcDbText
 73
     3
  0
TEXT
  5
25B
330
40E
100
AcDbEntity
  8
POINT_CODE
  6
SOLID_LINE
 62
     5
100
AcDbText
 10
459525.085318
 20
238882.768511
 30
135.258431
 40
0.3
  1

 72
     2
 11
459525.085318
 21
238883.068511
 31
135.258431
100
AcDbText
 73
     3
  0
POINT
  5
25C
330
40E
100
AcDbEntity
  8
0
  6
SOLID_LINE
 62
     0
100
AcDbPoint
 10
459522.614203
 20
238885.481408
 30
135.032925
  0
TEXT
  5
25D
330
40E
100
AcDbEntity
  8
POINT_ID
  6
SOLID_LINE
 62
     1
100
AcDbText
 10
459520.814203
 20
238885.581408
 30
135.032925
 40
0.3
  1
DP006.4
 72
     2
 11
459522.514203
 21
238885.581408
 31
135.032925
100
AcDbText
  0
TEXT
  5
25E
330
40E
100
AcDbEntity
  8
COORDINATES
  6
SOLID_LINE
 62
    70
100
AcDbText
 10
459522.714203
 20
238885.581408
 30
135.032925
 40
0.3
  1
459522.61;238885.48
100
AcDbText
  0
TEXT
  5
25F
330
40E
100
AcDbEntity
  8
HEIGHT
  6
SOLID_LINE
 62
     4
100
AcDbText
 10
459522.714203
 20
238885.081408
 30
135.032925
 40
0.3
  1
135.033
 11
459522.714203
 21
238885.381408
 31
135.032925
100
AcDbText
 73
     3
  0
TEXT
  5
260
330
40E
100
AcDbEntity
  8
POINT_CODE
  6
SOLID_LINE
 62
     5
100
AcDbText
 10
459522.514203
 20
238885.081408
 30
135.032925
 40
0.3
  1

 72
     2
 11
459522.514203
 21
238885.381408
 31
135.032925
100
AcDbText
 73
     3
  0
POINT
  5
261
330
40E
100
AcDbEntity
  8
0
  6
SOLID_LINE
 62
     0
100
AcDbPoint
 10
459522.672343
 20
238885.641748
 30
135.332347
  0
TEXT
  5
262
330
40E
100
AcDbEntity
  8
POINT_ID
  6
SOLID_LINE
 62
     1
100
AcDbText
 10
459520.872343
 20
238885.741748
 30
135.332347
 40
0.3
  1
DP006.3
 72
     2
 11
459522.572343
 21
238885.741748
 31
135.332347
100
AcDbText
  0
TEXT
  5
263
330
40E
100
AcDbEntity
  8
COORDINATES
  6
SOLID_LINE
 62
    70
100
AcDbText
 10
459522.772343
 20
238885.741748
 30
135.332347
 40
0.3
  1
459522.67;238885.64
100
AcDbText
  0
TEXT
  5
264
330
40E
100
AcDbEntity
  8
HEIGHT
  6
SOLID_LINE
 62
     4
100
AcDbText
 10
459522.772343
 20
238885.241748
 30
135.332347
 40
0.3
  1
135.332
 11
459522.772343
 21
238885.541748
 31
135.332347
100
AcDbText
 73
     3
  0
TEXT
  5
265
330
40E
100
AcDbEntity
  8
POINT_CODE
  6
SOLID_LINE
 62
     5
100
AcDbText
 10
459522.572343
 20
238885.241748
 30
135.332347
 40
0.3
  1

 72
     2
 11
459522.572343
 21
238885.541748
 31
135.332347
100
AcDbText
 73
     3
  0
POINT
  5
266
330
40E
100
AcDbEntity
  8
0
  6
SOLID_LINE
 62
     0
100
AcDbPoint
 10
459523.621717
 20
238885.025391
 30
135.363266
  0
TEXT
  5
267
330
40E
100
AcDbEntity
  8
POINT_ID
  6
SOLID_LINE
 62
     1
100
AcDbText
 10
459521.821717
 20
238885.125391
 30
135.363266
 40
0.3
  1
DP006.2
 72
     2
 11
459523.521717
 21
238885.125391
 31
135.363266
100
AcDbText
  0
TEXT
  5
268
330
40E
100
AcDbEntity
  8
COORDINATES
  6
SOLID_LINE
 62
    70
100
AcDbText
 10
459523.721717
 20
238885.125391
 30
135.363266
 40
0.3
  1
459523.62;238885.03
100
AcDbText
  0
TEXT
  5
269
330
40E
100
AcDbEntity
  8
HEIGHT
  6
SOLID_LINE
 62
     4
100
AcDbText
 10
459523.721717
 20
238884.625391
 30
135.363266
 40
0.3
  1
135.363
 11
459523.721717
 21
238884.925391
 31
135.363266
100
AcDbText
 73
     3
  0
TEXT
  5
26A
330
40E
100
AcDbEntity
  8
POINT_CODE
  6
SOLID_LINE
 62
     5
100
AcDbText
 10
459523.521717
 20
238884.625391
 30
135.363266
 40
0.3
  1

 72
     2
 11
459523.521717
 21
238884.925391
 31
135.363266
100
AcDbText
 73
     3
  0
POINT
  5
26B
330
40E
100
AcDbEntity
  8
0
  6
SOLID_LINE
 62
     0
100
AcDbPoint
 10
459521.383918
 20
238886.505106
 30
135.361606
  0
TEXT
  5
26C
330
40E
100
AcDbEntity
  8
POINT_ID
  6
SOLID_LINE
 62
     1
100
AcDbText
 10
459519.683918
 20
238886.605106
 30
135.361606
 40
0.3
  1
DP006.1
 72
     2
 11
459521.283918
 21
238886.605106
 31
135.361606
100
AcDbText
  0
TEXT
  5
26D
330
40E
100
AcDbEntity
  8
COORDINATES
  6
SOLID_LINE
 62
    70
100
AcDbText
 10
459521.483918
 20
238886.605106
 30
135.361606
 40
0.3
  1
459521.38;238886.51
100
AcDbText
  0
TEXT
  5
26E
330
40E
100
AcDbEntity
  8
HEIGHT
  6
SOLID_LINE
 62
     4
100
AcDbText
 10
459521.483918
 20
238886.105106
 30
135.361606
 40
0.3
  1
135.362
 11
459521.483918
 21
238886.405106
 31
135.361606
100
AcDbText
 73
     3
  0
TEXT
  5
26F
330
40E
100
AcDbEntity
  8
POINT_CODE
  6
SOLID_LINE
 62
     5
100
AcDbText
 10
459521.283918
 20
238886.105106
 30
135.361606
 40
0.3
  1

 72
     2
 11
459521.283918
 21
238886.405106
 31
135.361606
100
AcDbText
 73
     3
  0
POINT
  5
270
330
40E
100
AcDbEntity
  8
0
  6
SOLID_LINE
 62
     0
100
AcDbPoint
 10
459523.634994
 20
238885.122494
 30
135.296501
  0
TEXT
  5
271
330
40E
100
AcDbEntity
  8
POINT_ID
  6
SOLID_LINE
 62
     1
100
AcDbText
 10
459521.634994
 20
238885.222494
 30
135.296501
 40
0.3
  1
PIT006.7
 72
     2
 11
459523.534994
 21
238885.222494
 31
135.296501
100
AcDbText
  0
TEXT
  5
272
330
40E
100
AcDbEntity
  8
COORDINATES
  6
SOLID_LINE
 62
    70
100
AcDbText
 10
459523.734994
 20
238885.222494
 30
135.296501
 40
0.3
  1
459523.63;238885.12
100
AcDbText
  0
TEXT
  5
273
330
40E
100
AcDbEntity
  8
HEIGHT
  6
SOLID_LINE
 62
     4
100
AcDbText
 10
459523.734994
 20
238884.722494
 30
135.296501
 40
0.3
  1
135.297
 11
459523.734994
 21
238885.022494
 31
135.296501
100
AcDbText
 73
     3
  0
TEXT
  5
274
330
40E
100
AcDbEntity
  8
POINT_CODE
  6
SOLID_LINE
 62
     5
100
AcDbText
 10
459523.534994
 20
238884.722494
 30
135.296501
 40
0.3
  1

 72
     2
 11
459523.534994
 21
238885.022494
 31
135.296501
100
AcDbText
 73
     3
  0
POINT
  5
275
330
40E
100
AcDbEntity
  8
0
  6
SOLID_LINE
 62
     0
100
AcDbPoint
 10
459523.241081
 20
238884.723453
 30
135.316328
  0
TEXT
  5
276
330
40E
100
AcDbEntity
  8
POINT_ID
  6
SOLID_LINE
 62
     1
100
AcDbText
 10
459521.241081
 20
238884.823453
 30
135.316328
 40
0.3
  1
PIT006.6
 72
     2
 11
459523.141081
 21
238884.823453
 31
135.316328
100
AcDbText
  0
TEXT
  5
277
330
40E
100
AcDbEntity
  8
COORDINATES
  6
SOLID_LINE
 62
    70
100
AcDbText
 10
459523.341081
 20
238884.823453
 30
135.316328
 40
0.3
  1
459523.24;238884.72
100
AcDbText
  0
TEXT
  5
278
330
40E
100
AcDbEntity
  8
HEIGHT
  6
SOLID_LINE
 62
     4
100
AcDbText
 10
459523.341081
 20
238884.323453
 30
135.316328
 40
0.3
  1
135.316
 11
459523.341081
 21
238884.623453
 31
135.316328
100
AcDbText
 73
     3
  0
TEXT
  5
279
330
40E
100
AcDbEntity
  8
POINT_CODE
  6
SOLID_LINE
 62
     5
100
AcDbText
 10
459523.141081
 20
238884.323453
 30
135.316328
 40
0.3
  1

 72
     2
 11
459523.141081
 21
238884.623453
 31
135.316328
100
AcDbText
 73
     3
  0
POINT
  5
27A
330
40E
100
AcDbEntity
  8
0
  6
SOLID_LINE
 62
     0
100
AcDbPoint
 10
459522.579616
 20
238884.620967
 30
135.291637
  0
TEXT
  5
27B
330
40E
100
AcDbEntity
  8
POINT_ID
  6
SOLID_LINE
 62
     1
100
AcDbText
 10
459520.579616
 20
238884.720967
 30
135.291637
 40
0.3
  1
PIT006.5
 72
     2
 11
459522.479616
 21
238884.720967
 31
135.291637
100
AcDbText
  0
TEXT
  5
27C
330
40E
100
AcDbEntity
  8
COORDINATES
  6
SOLID_LINE
 62
    70
100
AcDbText
 10
459522.679616
 20
238884.720967
 30
135.291637
 40
0.3
  1
459522.58;238884.62
100
AcDbText
  0
TEXT
  5
27D
330
40E
100
AcDbEntity
  8
HEIGHT
  6
SOLID_LINE
 62
     4
100
AcDbText
 10
459522.679616
 20
238884.220967
 30
135.291637
 40
0.3
  1
135.292
 11
459522.679616
 21
238884.520967
 31
135.291637
100
AcDbText
 73
     3
  0
TEXT
  5
27E
330
40E
100
AcDbEntity
  8
POINT_CODE
  6
SOLID_LINE
 62
     5
100
AcDbText
 10
459522.479616
 20
238884.220967
 30
135.291637
 40
0.3
  1

 72
     2
 11
459522.479616
 21
238884.520967
 31
135.291637
100
AcDbText
 73
     3
  0
POINT
  5
27F
330
40E
100
AcDbEntity
  8
0
  6
SOLID_LINE
 62
     0
100
AcDbPoint
 10
459521.80951
 20
238884.886593
 30
135.345806
  0
TEXT
  5
280
330
40E
100
AcDbEntity
  8
POINT_ID
  6
SOLID_LINE
 62
     1
100
AcDbText
 10
459519.80951
 20
238884.986593
 30
135.345806
 40
0.3
  1
PIT006.4
 72
     2
 11
459521.70951
 21
238884.986593
 31
135.345806
100
AcDbText
  0
TEXT
  5
281
330
40E
100
AcDbEntity
  8
COORDINATES
  6
SOLID_LINE
 62
    70
100
AcDbText
 10
459521.90951
 20
238884.986593
 30
135.345806
 40
0.3
  1
459521.81;238884.89
100
AcDbText
  0
TEXT
  5
282
330
40E
100
AcDbEntity
  8
HEIGHT
  6
SOLID_LINE
 62
     4
100
AcDbText
 10
459521.90951
 20
238884.486593
 30
135.345806
 40
0.3
  1
135.346
 11
459521.90951
 21
238884.786593
 31
135.345806
100
AcDbText
 73
     3
  0
TEXT
  5
283
330
40E
100
AcDbEntity
  8
POINT_CODE
  6
SOLID_LINE
 62
     5
100
AcDbText
 10
459521.70951
 20
238884.486593
 30
135.345806
 40
0.3
  1

 72
     2
 11
459521.70951
 21
238884.786593
 31
135.345806
100
AcDbText
 73
     3
  0
POINT
  5
284
330
40E
100
AcDbEntity
  8
0
  6
SOLID_LINE
 62
     0
100
AcDbPoint
 10
459521.911292
 20
238885.46038
 30
135.299975
  0
TEXT
  5
285
330
40E
100
AcDbEntity
  8
POINT_ID
  6
SOLID_LINE
 62
     1
100
AcDbText
 10
459519.911292
 20
238885.56038
 30
135.299975
 40
0.3
  1
PIT006.3
 72
     2
 11
459521.811292
 21
238885.56038
 31
135.299975
100
AcDbText
  0
TEXT
  5
286
330
40E
100
AcDbEntity
  8
COORDINATES
  6
SOLID_LINE
 62
    70
100
AcDbText
 10
459522.011292
 20
238885.56038
 30
135.299975
 40
0.3
  1
459521.91;238885.46
100
AcDbText
  0
TEXT
  5
287
330
40E
100
AcDbEntity
  8
HEIGHT
  6
SOLID_LINE
 62
     4
100
AcDbText
 10
459522.011292
 20
238885.06038
 30
135.299975
 40
0.3
  1
135.300
 11
459522.011292
 21
238885.36038
 31
135.299975
100
AcDbText
 73
     3
  0
TEXT
  5
288
330
40E
100
AcDbEntity
  8
POINT_CODE
  6
SOLID_LINE
 62
     5
100
AcDbText
 10
459521.811292
 20
238885.06038
 30
135.299975
 40
0.3
  1

 72
     2
 11
459521.811292
 21
238885.36038
 31
135.299975
100
AcDbText
 73
     3
  0
POINT
  5
289
330
40E
100
AcDbEntity
  8
0
  6
SOLID_LINE
 62
     0
100
AcDbPoint
 10
459521.489075
 20
238885.850602
 30
135.33702
  0
TEXT
  5
28A
330
40E
100
AcDbEntity
  8
POINT_ID
  6
SOLID_LINE
 62
     1
100
AcDbText
 10
459519.489075
 20
238885.950602
 30
135.33702
 40
0.3
  1
PIT006.2
 72
     2
 11
459521.389075
 21
238885.950602
 31
135.33702
100
AcDbText
  0
TEXT
  5
28B
330
40E
100
AcDbEntity
  8
COORDINATES
  6
SOLID_LINE
 62
    70
100
AcDbText
 10
459521.589075
 20
238885.950602
 30
135.33702
 40
0.3
  1
459521.49;238885.85
100
AcDbText
  0
TEXT
  5
28C
330
40E
100
AcDbEntity
  8
HEIGHT
  6
SOLID_LINE
 62
     4
100
AcDbText
 10
459521.589075
 20
238885.450602
 30
135.33702
 40
0.3
  1
135.337
 11
459521.589075
 21
238885.750602
 31
135.33702
100
AcDbText
 73
     3
  0
TEXT
  5
28D
330
40E
100
AcDbEntity
  8
POINT_CODE
  6
SOLID_LINE
 62
     5
100
AcDbText
 10
459521.389075
 20
238885.450602
 30
135.33702
 40
0.3
  1

 72
     2
 11
459521.389075
 21
238885.750602
 31
135.33702
100
AcDbText
 73
     3
  0
POINT
  5
28E
330
40E
100
AcDbEntity
  8
0
  6
SOLID_LINE
 62
     0
100
AcDbPoint
 10
459521.47867
 20
238886.468433
 30
135.323292
  0
TEXT
  5
28F
330
40E
100
AcDbEntity
  8
POINT_ID
  6
SOLID_LINE
 62
     1
100
AcDbText
 10
459519.57867
 20
238886.568433
 30
135.323292
 40
0.3
  1
PIT006.1
 72
     2
 11
459521.37867
 21
238886.568433
 31
135.323292
100
AcDbText
  0
TEXT
  5
290
330
40E
100
AcDbEntity
  8
COORDINATES
  6
SOLID_LINE
 62
    70
100
AcDbText
 10
459521.57867
 20
238886.568433
 30
135.323292
 40
0.3
  1
459521.48;238886.47
100
AcDbText
  0
TEXT
  5
291
330
40E
100
AcDbEntity
  8
HEIGHT
  6
SOLID_LINE
 62
     4
100
AcDbText
 10
459521.57867
 20
238886.068433
 30
135.323292
 40
0.3
  1
135.323
 11
459521.57867
 21
238886.368433
 31
135.323292
100
AcDbText
 73
     3
  0
TEXT
  5
292
330
40E
100
AcDbEntity
  8
POINT_CODE
  6
SOLID_LINE
 62
     5
100
AcDbText
 10
459521.37867
 20
238886.068433
 30
135.323292
 40
0.3
  1

 72
     2
 11
459521.37867
 21
238886.368433
 31
135.323292
100
AcDbText
 73
     3
  0
POINT
  5
293
330
40E
100
AcDbEntity
  8
0
  6
SOLID_LINE
 62
     0
100
AcDbPoint
 10
459512.388501
 20
238892.140198
 30
135.276143
  0
TEXT
  5
294
330
40E
100
AcDbEntity
  8
POINT_ID
  6
SOLID_LINE
 62
     1
100
AcDbText
 10
459509.538501
 20
238892.240198
 30
135.276143
 40
0.3
  1
SONDAGE1.10
 72
     2
 11
459512.288501
 21
238892.240198
 31
135.276143
100
AcDbText
  0
TEXT
  5
295
330
40E
100
AcDbEntity
  8
COORDINATES
  6
SOLID_LINE
 62
    70
100
AcDbText
 10
459512.488501
 20
238892.240198
 30
135.276143
 40
0.3
  1
459512.39;238892.14
100
AcDbText
  0
TEXT
  5
296
330
40E
100
AcDbEntity
  8
HEIGHT
  6
SOLID_LINE
 62
     4
100
AcDbText
 10
459512.488501
 20
238891.740198
 30
135.276143
 40
0.3
  1
135.276
 11
459512.488501
 21
238892.040198
 31
135.276143
100
AcDbText
 73
     3
  0
TEXT
  5
297
330
40E
100
AcDbEntity
  8
POINT_CODE
  6
SOLID_LINE
 62
     5
100
AcDbText
 10
459512.288501
 20
238891.740198
 30
135.276143
 40
0.3
  1

 72
     2
 11
459512.288501
 21
238892.040198
 31
135.276143
100
AcDbText
 73
     3
  0
POINT
  5
298
330
40E
100
AcDbEntity
  8
0
  6
SOLID_LINE
 62
     0
100
AcDbPoint
 10
459514.789049
 20
238890.642348
 30
135.162074
  0
TEXT
  5
299
330
40E
100
AcDbEntity
  8
POINT_ID
  6
SOLID_LINE
 62
     1
100
AcDbText
 10
459512.089049
 20
238890.742348
 30
135.162074
 40
0.3
  1
SONDAGE1.9
 72
     2
 11
459514.689049
 21
238890.742348
 31
135.162074
100
AcDbText
  0
TEXT
  5
29A
330
40E
100
AcDbEntity
  8
COORDINATES
  6
SOLID_LINE
 62
    70
100
AcDbText
 10
459514.889049
 20
238890.742348
 30
135.162074
 40
0.3
  1
459514.79;238890.64
100
AcDbText
  0
TEXT
  5
29B
330
40E
100
AcDbEntity
  8
HEIGHT
  6
SOLID_LINE
 62
     4
100
AcDbText
 10
459514.889049
 20
238890.242348
 30
135.162074
 40
0.3
  1
135.162
 11
459514.889049
 21
238890.542348
 31
135.162074
100
AcDbText
 73
     3
  0
TEXT
  5
29C
330
40E
100
AcDbEntity
  8
POINT_CODE
  6
SOLID_LINE
 62
     5
100
AcDbText
 10
459514.689049
 20
238890.242348
 30
135.162074
 40
0.3
  1

 72
     2
 11
459514.689049
 21
238890.542348
 31
135.162074
100
AcDbText
 73
     3
  0
POINT
  5
29D
330
40E
100
AcDbEntity
  8
0
  6
SOLID_LINE
 62
     0
100
AcDbPoint
 10
459516.605784
 20
238889.534952
 30
135.455229
  0
TEXT
  5
29E
330
40E
100
AcDbEntity
  8
POINT_ID
  6
SOLID_LINE
 62
     1
100
AcDbText
 10
459513.905784
 20
238889.634952
 30
135.455229
 40
0.3
  1
SONDAGE1.8
 72
     2
 11
459516.505784
 21
238889.634952
 31
135.455229
100
AcDbText
  0
TEXT
  5
29F
330
40E
100
AcDbEntity
  8
COORDINATES
  6
SOLID_LINE
 62
    70
100
AcDbText
 10
459516.705784
 20
238889.634952
 30
135.455229
 40
0.3
  1
459516.61;238889.53
100
AcDbText
  0
TEXT
  5
2A0
330
40E
100
AcDbEntity
  8
HEIGHT
  6
SOLID_LINE
 62
     4
100
AcDbText
 10
459516.705784
 20
238889.134952
 30
135.455229
 40
0.3
  1
135.455
 11
459516.705784
 21
238889.434952
 31
135.455229
100
AcDbText
 73
     3
  0
TEXT
  5
2A1
330
40E
100
AcDbEntity
  8
POINT_CODE
  6
SOLID_LINE
 62
     5
100
AcDbText
 10
459516.505784
 20
238889.134952
 30
135.455229
 40
0.3
  1

 72
     2
 11
459516.505784
 21
238889.434952
 31
135.455229
100
AcDbText
 73
     3
  0
POINT
  5
2A2
330
40E
100
AcDbEntity
  8
0
  6
SOLID_LINE
 62
     0
100
AcDbPoint
 10
459516.163326
 20
238888.662413
 30
135.39548
  0
TEXT
  5
2A3
330
40E
100
AcDbEntity
  8
POINT_ID
  6
SOLID_LINE
 62
     1
100
AcDbText
 10
459513.463326
 20
238888.762413
 30
135.39548
 40
0.3
  1
SONDAGE1.7
 72
     2
 11
459516.063326
 21
238888.762413
 31
135.39548
100
AcDbText
  0
TEXT
  5
2A4
330
40E
100
AcDbEntity
  8
COORDINATES
  6
SOLID_LINE
 62
    70
100
AcDbText
 10
459516.263326
 20
238888.762413
 30
135.39548
 40
0.3
  1
459516.16;238888.66
100
AcDbText
  0
TEXT
  5
2A5
330
40E
100
AcDbEntity
  8
HEIGHT
  6
SOLID_LINE
 62
     4
100
AcDbText
 10
459516.263326
 20
238888.262413
 30
135.39548
 40
0.3
  1
135.395
 11
459516.263326
 21
238888.562413
 31
135.39548
100
AcDbText
 73
     3
  0
TEXT
  5
2A6
330
40E
100
AcDbEntity
  8
POINT_CODE
  6
SOLID_LINE
 62
     5
100
AcDbText
 10
459516.063326
 20
238888.262413
 30
135.39548
 40
0.3
  1

 72
     2
 11
459516.063326
 21
238888.562413
 31
135.39548
100
AcDbText
 73
     3
  0
POINT
  5
2A7
330
40E
100
AcDbEntity
  8
0
  6
SOLID_LINE
 62
     0
100
AcDbPoint
 10
459515.597526
 20
238887.691024
 30
135.450337
  0
TEXT
  5
2A8
330
40E
100
AcDbEntity
  8
POINT_ID
  6
SOLID_LINE
 62
     1
100
AcDbText
 10
459512.897526
 20
238887.791024
 30
135.450337
 40
0.3
  1
SONDAGE1.6
 72
     2
 11
459515.497526
 21
238887.791024
 31
135.450337
100
AcDbText
  0
TEXT
  5
2A9
330
40E
100
AcDbEntity
  8
COORDINATES
  6
SOLID_LINE
 62
    70
100
AcDbText
 10
459515.697526
 20
238887.791024
 30
135.450337
 40
0.3
  1
459515.60;238887.69
100
AcDbText
  0
TEXT
  5
2AA
330
40E
100
AcDbEntity
  8
HEIGHT
  6
SOLID_LINE
 62
     4
100
AcDbText
 10
459515.697526
 20
238887.291024
 30
135.450337
 40
0.3
  1
135.450
 11
459515.697526
 21
238887.591024
 31
135.450337
100
AcDbText
 73
     3
  0
TEXT
  5
2AB
330
40E
100
AcDbEntity
  8
POINT_CODE
  6
SOLID_LINE
 62
     5
100
AcDbText
 10
459515.497526
 20
238887.291024
 30
135.450337
 40
0.3
  1

 72
     2
 11
459515.497526
 21
238887.591024
 31
135.450337
100
AcDbText
 73
     3
  0
POINT
  5
2AC
330
40E
100
AcDbEntity
  8
0
  6
SOLID_LINE
 62
     0
100
AcDbPoint
 10
459513.462503
 20
238889.038639
 30
135.177215
  0
TEXT
  5
2AD
330
40E
100
AcDbEntity
  8
POINT_ID
  6
SOLID_LINE
 62
     1
100
AcDbText
 10
459510.762503
 20
238889.138639
 30
135.177215
 40
0.3
  1
SONDAGE1.5
 72
     2
 11
459513.362503
 21
238889.138639
 31
135.177215
100
AcDbText
  0
TEXT
  5
2AE
330
40E
100
AcDbEntity
  8
COORDINATES
  6
SOLID_LINE
 62
    70
100
AcDbText
 10
459513.562503
 20
238889.138639
 30
135.177215
 40
0.3
  1
459513.46;238889.04
100
AcDbText
  0
TEXT
  5
2AF
330
40E
100
AcDbEntity
  8
HEIGHT
  6
SOLID_LINE
 62
     4
100
AcDbText
 10
459513.562503
 20
238888.638639
 30
135.177215
 40
0.3
  1
135.177
 11
459513.562503
 21
238888.938639
 31
135.177215
100
AcDbText
 73
     3
  0
TEXT
  5
2B0
330
40E
100
AcDbEntity
  8
POINT_CODE
  6
SOLID_LINE
 62
     5
100
AcDbText
 10
459513.362503
 20
238888.638639
 30
135.177215
 40
0.3
  1

 72
     2
 11
459513.362503
 21
238888.938639
 31
135.177215
100
AcDbText
 73
     3
  0
POINT
  5
2B1
330
40E
100
AcDbEntity
  8
0
  6
SOLID_LINE
 62
     0
100
AcDbPoint
 10
459511.703918
 20
238890.081675
 30
135.266946
  0
TEXT
  5
2B2
330
40E
100
AcDbEntity
  8
POINT_ID
  6
SOLID_LINE
 62
     1
100
AcDbText
 10
459509.003918
 20
238890.181675
 30
135.266946
 40
0.3
  1
SONDAGE1.4
 72
     2
 11
459511.603918
 21
238890.181675
 31
135.266946
100
AcDbText
  0
TEXT
  5
2B3
330
40E
100
AcDbEntity
  8
COORDINATES
  6
SOLID_LINE
 62
    70
100
AcDbText
 10
459511.803918
 20
238890.181675
 30
135.266946
 40
0.3
  1
459511.70;238890.08
100
AcDbText
  0
TEXT
  5
2B4
330
40E
100
AcDbEntity
  8
HEIGHT
  6
SOLID_LINE
 62
     4
100
AcDbText
 10
459511.803918
 20
238889.681675
 30
135.266946
 40
0.3
  1
135.267
 11
459511.803918
 21
238889.981675
 31
135.266946
100
AcDbText
 73
     3
  0
TEXT
  5
2B5
330
40E
100
AcDbEntity
  8
POINT_CODE
  6
SOLID_LINE
 62
     5
100
AcDbText
 10
459511.603918
 20
238889.681675
 30
135.266946
 40
0.3
  1

 72
     2
 11
459511.603918
 21
238889.981675
 31
135.266946
100
AcDbText
 73
     3
  0
POINT
  5
2B6
330
40E
100
AcDbEntity
  8
0
  6
SOLID_LINE
 62
     0
100
AcDbPoint
 10
459509.863922
 20
238891.206635
 30
135.580119
  0
TEXT
  5
2B7
330
40E
100
AcDbEntity
  8
POINT_ID
  6
SOLID_LINE
 62
     1
100
AcDbText
 10
459507.163922
 20
238891.306635
 30
135.580119
 40
0.3
  1
SONDAGE1.3
 72
     2
 11
459509.763922
 21
238891.306635
 31
135.580119
100
AcDbText
  0
TEXT
  5
2B8
330
40E
100
AcDbEntity
  8
COORDINATES
  6
SOLID_LINE
 62
    70
100
AcDbText
 10
459509.963922
 20
238891.306635
 30
135.580119
 40
0.3
  1
459509.86;238891.21
100
AcDbText
  0
TEXT
  5
2B9
330
40E
100
AcDbEntity
  8
HEIGHT
  6
SOLID_LINE
 62
     4
100
AcDbText
 10
459509.963922
 20
238890.806635
 30
135.580119
 40
0.3
  1
135.580
 11
459509.963922
 21
238891.106635
 31
135.580119
100
AcDbText
 73
     3
  0
TEXT
  5
2BA
330
40E
100
AcDbEntity
  8
POINT_CODE
  6
SOLID_LINE
 62
     5
100
AcDbText
 10
459509.763922
 20
238890.806635
 30
135.580119
 40
0.3
  1

 72
     2
 11
459509.763922
 21
238891.106635
 31
135.580119
100
AcDbText
 73
     3
  0
POINT
  5
2BB
330
40E
100
AcDbEntity
  8
0
  6
SOLID_LINE
 62
     0
100
AcDbPoint
 10
459510.47897
 20
238892.23001
 30
135.545863
  0
TEXT
  5
2BC
330
40E
100
AcDbEntity
  8
POINT_ID
  6
SOLID_LINE
 62
     1
100
AcDbText
 10
459507.77897
 20
238892.33001
 30
135.545863
 40
0.3
  1
SONDAGE1.2
 72
     2
 11
459510.37897
 21
238892.33001
 31
135.545863
100
AcDbText
  0
TEXT
  5
2BD
330
40E
100
AcDbEntity
  8
COORDINATES
  6
SOLID_LINE
 62
    70
100
AcDbText
 10
459510.57897
 20
238892.33001
 30
135.545863
 40
0.3
  1
459510.48;238892.23
100
AcDbText
  0
TEXT
  5
2BE
330
40E
100
AcDbEntity
  8
HEIGHT
  6
SOLID_LINE
 62
     4
100
AcDbText
 10
459510.57897
 20
238891.83001
 30
135.545863
 40
0.3
  1
135.546
 11
459510.57897
 21
238892.13001
 31
135.545863
100
AcDbText
 73
     3
  0
TEXT
  5
2BF
330
40E
100
AcDbEntity
  8
POINT_CODE
  6
SOLID_LINE
 62
     5
100
AcDbText
 10
459510.37897
 20
238891.83001
 30
135.545863
 40
0.3
  1

 72
     2
 11
459510.37897
 21
238892.13001
 31
135.545863
100
AcDbText
 73
     3
  0
POINT
  5
2C0
330
40E
100
AcDbEntity
  8
0
  6
SOLID_LINE
 62
     0
100
AcDbPoint
 10
459511.018095
 20
238893.032886
 30
135.559461
  0
TEXT
  5
2C1
330
40E
100
AcDbEntity
  8
POINT_ID
  6
SOLID_LINE
 62
     1
100
AcDbText
 10
459508.418095
 20
238893.132886
 30
135.559461
 40
0.3
  1
SONDAGE1.1
 72
     2
 11
459510.918095
 21
238893.132886
 31
135.559461
100
AcDbText
  0
TEXT
  5
2C2
330
40E
100
AcDbEntity
  8
COORDINATES
  6
SOLID_LINE
 62
    70
100
AcDbText
 10
459511.118095
 20
238893.132886
 30
135.559461
 40
0.3
  1
459511.02;238893.03
100
AcDbText
  0
TEXT
  5
2C3
330
40E
100
AcDbEntity
  8
HEIGHT
  6
SOLID_LINE
 62
     4
100
AcDbText
 10
459511.118095
 20
238892.632886
 30
135.559461
 40
0.3
  1
135.559
 11
459511.118095
 21
238892.932886
 31
135.559461
100
AcDbText
 73
     3
  0
TEXT
  5
2C4
330
40E
100
AcDbEntity
  8
POINT_CODE
  6
SOLID_LINE
 62
     5
100
AcDbText
 10
459510.918095
 20
238892.632886
 30
135.559461
 40
0.3
  1

 72
     2
 11
459510.918095
 21
238892.932886
 31
135.559461
100
AcDbText
 73
     3
  0
POINT
  5
2C5
330
40E
100
AcDbEntity
  8
0
  6
SOLID_LINE
 62
     0
100
AcDbPoint
 10
459506.075823
 20
238896.277255
 30
135.965465
  0
TEXT
  5
2C6
330
40E
100
AcDbEntity
  8
POINT_ID
  6
SOLID_LINE
 62
     1
100
AcDbText
 10
459503.375823
 20
238896.377255
 30
135.965465
 40
0.3
  1
TRENCH1.44
 72
     2
 11
459505.975823
 21
238896.377255
 31
135.965465
100
AcDbText
  0
TEXT
  5
2C7
330
40E
100
AcDbEntity
  8
COORDINATES
  6
SOLID_LINE
 62
    70
100
AcDbText
 10
459506.175823
 20
238896.377255
 30
135.965465
 40
0.3
  1
459506.08;238896.28
100
AcDbText
  0
TEXT
  5
2C8
330
40E
100
AcDbEntity
  8
HEIGHT
  6
SOLID_LINE
 62
     4
100
AcDbText
 10
459506.175823
 20
238895.877255
 30
135.965465
 40
0.3
  1
135.965
 11
459506.175823
 21
238896.177255
 31
135.965465
100
AcDbText
 73
     3
  0
TEXT
  5
2C9
330
40E
100
AcDbEntity
  8
POINT_CODE
  6
SOLID_LINE
 62
     5
100
AcDbText
 10
459505.975823
 20
238895.877255
 30
135.965465
 40
0.3
  1

 72
     2
 11
459505.975823
 21
238896.177255
 31
135.965465
100
AcDbText
 73
     3
  0
POINT
  5
2CA
330
40E
100
AcDbEntity
  8
0
  6
SOLID_LINE
 62
     0
100
AcDbPoint
 10
459497.892056
 20
238901.891884
 30
136.103358
  0
TEXT
  5
2CB
330
40E
100
AcDbEntity
  8
POINT_ID
  6
SOLID_LINE
 62
     1
100
AcDbText
 10
459495.192056
 20
238901.991884
 30
136.103358
 40
0.3
  1
TRENCH1.43
 72
     2
 11
459497.792056
 21
238901.991884
 31
136.103358
100
AcDbText
  0
TEXT
  5
2CC
330
40E
100
AcDbEntity
  8
COORDINATES
  6
SOLID_LINE
 62
    70
100
AcDbText
 10
459497.992056
 20
238901.991884
 30
136.103358
 40
0.3
  1
459497.89;238901.89
100
AcDbText
  0
TEXT
  5
2CD
330
40E
100
AcDbEntity
  8
HEIGHT
  6
SOLID_LINE
 62
     4
100
AcDbText
 10
459497.992056
 20
238901.491884
 30
136.103358
 40
0.3
  1
136.103
 11
459497.992056
 21
238901.791884
 31
136.103358
100
AcDbText
 73
     3
  0
TEXT
  5
2CE
330
40E
100
AcDbEntity
  8
POINT_CODE
  6
SOLID_LINE
 62
     5
100
AcDbText
 10
459497.792056
 20
238901.491884
 30
136.103358
 40
0.3
  1

 72
     2
 11
459497.792056
 21
238901.791884
 31
136.103358
100
AcDbText
 73
     3
  0
POINT
  5
2CF
330
40E
100
AcDbEntity
  8
0
  6
SOLID_LINE
 62
     0
100
AcDbPoint
 10
459489.934146
 20
238907.708319
 30
136.204333
  0
TEXT
  5
2D0
330
40E
100
AcDbEntity
  8
POINT_ID
  6
SOLID_LINE
 62
     1
100
AcDbText
 10
459487.234146
 20
238907.808319
 30
136.204333
 40
0.3
  1
TRENCH1.42
 72
     2
 11
459489.834146
 21
238907.808319
 31
136.204333
100
AcDbText
  0
TEXT
  5
2D1
330
40E
100
AcDbEntity
  8
COORDINATES
  6
SOLID_LINE
 62
    70
100
AcDbText
 10
459490.034146
 20
238907.808319
 30
136.204333
 40
0.3
  1
459489.93;238907.71
100
AcDbText
  0
TEXT
  5
2D2
330
40E
100
AcDbEntity
  8
HEIGHT
  6
SOLID_LINE
 62
     4
100
AcDbText
 10
459490.034146
 20
238907.308319
 30
136.204333
 40
0.3
  1
136.204
 11
459490.034146
 21
238907.608319
 31
136.204333
100
AcDbText
 73
     3
  0
TEXT
  5
2D3
330
40E
100
AcDbEntity
  8
POINT_CODE
  6
SOLID_LINE
 62
     5
100
AcDbText
 10
459489.834146
 20
238907.308319
 30
136.204333
 40
0.3
  1

 72
     2
 11
459489.834146
 21
238907.608319
 31
136.204333
100
AcDbText
 73
     3
  0
POINT
  5
2D4
330
40E
100
AcDbEntity
  8
0
  6
SOLID_LINE
 62
     0
100
AcDbPoint
 10
459484.248932
 20
238911.88005
 30
136.312801
  0
TEXT
  5
2D5
330
40E
100
AcDbEntity
  8
POINT_ID
  6
SOLID_LINE
 62
     1
100
AcDbText
 10
459481.648932
 20
238911.98005
 30
136.312801
 40
0.3
  1
TRENCH1.41
 72
     2
 11
459484.148932
 21
238911.98005
 31
136.312801
100
AcDbText
  0
TEXT
  5
2D6
330
40E
100
AcDbEntity
  8
COORDINATES
  6
SOLID_LINE
 62
    70
100
AcDbText
 10
459484.348932
 20
238911.98005
 30
136.312801
 40
0.3
  1
459484.25;238911.88
100
AcDbText
  0
TEXT
  5
2D7
330
40E
100
AcDbEntity
  8
HEIGHT
  6
SOLID_LINE
 62
     4
100
AcDbText
 10
459484.348932
 20
238911.48005
 30
136.312801
 40
0.3
  1
136.313
 11
459484.348932
 21
238911.78005
 31
136.312801
100
AcDbText
 73
     3
  0
TEXT
  5
2D8
330
40E
100
AcDbEntity
  8
POINT_CODE
  6
SOLID_LINE
 62
     5
100
AcDbText
 10
459484.148932
 20
238911.48005
 30
136.312801
 40
0.3
  1

 72
     2
 11
459484.148932
 21
238911.78005
 31
136.312801
100
AcDbText
 73
     3
  0
POINT
  5
2D9
330
40E
100
AcDbEntity
  8
0
  6
SOLID_LINE
 62
     0
100
AcDbPoint
 10
459489.237212
 20
238918.998332
 30
136.345343
  0
TEXT
  5
2DA
330
40E
100
AcDbEntity
  8
POINT_ID
  6
SOLID_LINE
 62
     1
100
AcDbText
 10
459486.587212
 20
238919.098332
 30
136.345343
 40
0.3
  1
TRENCH1.40
 72
     2
 11
459489.137212
 21
238919.098332
 31
136.345343
100
AcDbText
  0
TEXT
  5
2DB
330
40E
100
AcDbEntity
  8
COORDINATES
  6
SOLID_LINE
 62
    70
100
AcDbText
 10
459489.337212
 20
238919.098332
 30
136.345343
 40
0.3
  1
459489.24;238919.00
100
AcDbText
  0
TEXT
  5
2DC
330
40E
100
AcDbEntity
  8
HEIGHT
  6
SOLID_LINE
 62
     4
100
AcDbText
 10
459489.337212
 20
238918.598332
 30
136.345343
 40
0.3
  1
136.345
 11
459489.337212
 21
238918.898332
 31
136.345343
100
AcDbText
 73
     3
  0
TEXT
  5
2DD
330
40E
100
AcDbEntity
  8
POINT_CODE
  6
SOLID_LINE
 62
     5
100
AcDbText
 10
459489.137212
 20
238918.598332
 30
136.345343
 40
0.3
  1

 72
     2
 11
459489.137212
 21
238918.898332
 31
136.345343
100
AcDbText
 73
     3
  0
POINT
  5
2DE
330
40E
100
AcDbEntity
  8
0
  6
SOLID_LINE
 62
     0
100
AcDbPoint
 10
459494.688643
 20
238926.931492
 30
136.402147
  0
TEXT
  5
2DF
330
40E
100
AcDbEntity
  8
POINT_ID
  6
SOLID_LINE
 62
     1
100
AcDbText
 10
459491.988643
 20
238927.031492
 30
136.402147
 40
0.3
  1
TRENCH1.39
 72
     2
 11
459494.588643
 21
238927.031492
 31
136.402147
100
AcDbText
  0
TEXT
  5
2E0
330
40E
100
AcDbEntity
  8
COORDINATES
  6
SOLID_LINE
 62
    70
100
AcDbText
 10
459494.788643
 20
238927.031492
 30
136.402147
 40
0.3
  1
459494.69;238926.93
100
AcDbText
  0
TEXT
  5
2E1
330
40E
100
AcDbEntity
  8
HEIGHT
  6
SOLID_LINE
 62
     4
100
AcDbText
 10
459494.788643
 20
238926.531492
 30
136.402147
 40
0.3
  1
136.402
 11
459494.788643
 21
238926.831492
 31
136.402147
100
AcDbText
 73
     3
  0
TEXT
  5
2E2
330
40E
100
AcDbEntity
  8
POINT_CODE
  6
SOLID_LINE
 62
     5
100
AcDbText
 10
459494.588643
 20
238926.531492
 30
136.402147
 40
0.3
  1

 72
     2
 11
459494.588643
 21
238926.831492
 31
136.402147
100
AcDbText
 73
     3
  0
POINT
  5
2E3
330
40E
100
AcDbEntity
  8
0
  6
SOLID_LINE
 62
     0
100
AcDbPoint
 10
459499.767204
 20
238934.174217
 30
136.466313
  0
TEXT
  5
2E4
330
40E
100
AcDbEntity
  8
POINT_ID
  6
SOLID_LINE
 62
     1
100
AcDbText
 10
459497.067204
 20
238934.274217
 30
136.466313
 40
0.3
  1
TRENCH1.38
 72
     2
 11
459499.667204
 21
238934.274217
 31
136.466313
100
AcDbText
  0
TEXT
  5
2E5
330
40E
100
AcDbEntity
  8
COORDINATES
  6
SOLID_LINE
 62
    70
100
AcDbText
 10
459499.867204
 20
238934.274217
 30
136.466313
 40
0.3
  1
459499.77;238934.17
100
AcDbText
  0
TEXT
  5
2E6
330
40E
100
AcDbEntity
  8
HEIGHT
  6
SOLID_LINE
 62
     4
100
AcDbText
 10
459499.867204
 20
238933.774217
 30
136.466313
 40
0.3
  1
136.466
 11
459499.867204
 21
238934.074217
 31
136.466313
100
AcDbText
 73
     3
  0
TEXT
  5
2E7
330
40E
100
AcDbEntity
  8
POINT_CODE
  6
SOLID_LINE
 62
     5
100
AcDbText
 10
459499.667204
 20
238933.774217
 30
136.466313
 40
0.3
  1

 72
     2
 11
459499.667204
 21
238934.074217
 31
136.466313
100
AcDbText
 73
     3
  0
POINT
  5
2E8
330
40E
100
AcDbEntity
  8
0
  6
SOLID_LINE
 62
     0
100
AcDbPoint
 10
459502.125407
 20
238937.984561
 30
136.492187
  0
TEXT
  5
2E9
330
40E
100
AcDbEntity
  8
POINT_ID
  6
SOLID_LINE
 62
     1
100
AcDbText
 10
459499.425407
 20
238938.084561
 30
136.492187
 40
0.3
  1
TRENCH1.37
 72
     2
 11
459502.025407
 21
238938.084561
 31
136.492187
100
AcDbText
  0
TEXT
  5
2EA
330
40E
100
AcDbEntity
  8
COORDINATES
  6
SOLID_LINE
 62
    70
100
AcDbText
 10
459502.225407
 20
238938.084561
 30
136.492187
 40
0.3
  1
459502.13;238937.98
100
AcDbText
  0
TEXT
  5
2EB
330
40E
100
AcDbEntity
  8
HEIGHT
  6
SOLID_LINE
 62
     4
100
AcDbText
 10
459502.225407
 20
238937.584561
 30
136.492187
 40
0.3
  1
136.492
 11
459502.225407
 21
238937.884561
 31
136.492187
100
AcDbText
 73
     3
  0
TEXT
  5
2EC
330
40E
100
AcDbEntity
  8
POINT_CODE
  6
SOLID_LINE
 62
     5
100
AcDbText
 10
459502.025407
 20
238937.584561
 30
136.492187
 40
0.3
  1

 72
     2
 11
459502.025407
 21
238937.884561
 31
136.492187
100
AcDbText
 73
     3
  0
POINT
  5
2ED
330
40E
100
AcDbEntity
  8
0
  6
SOLID_LINE
 62
     0
100
AcDbPoint
 10
459501.310309
 20
238938.717023
 30
136.501219
  0
TEXT
  5
2EE
330
40E
100
AcDbEntity
  8
POINT_ID
  6
SOLID_LINE
 62
     1
100
AcDbText
 10
459498.610309
 20
238938.817023
 30
136.501219
 40
0.3
  1
TRENCH1.36
 72
     2
 11
459501.210309
 21
238938.817023
 31
136.501219
100
AcDbText
  0
TEXT
  5
2EF
330
40E
100
AcDbEntity
  8
COORDINATES
  6
SOLID_LINE
 62
    70
100
AcDbText
 10
459501.410309
 20
238938.817023
 30
136.501219
 40
0.3
  1
459501.31;238938.72
100
AcDbText
  0
TEXT
  5
2F0
330
40E
100
AcDbEntity
  8
HEIGHT
  6
SOLID_LINE
 62
     4
100
AcDbText
 10
459501.410309
 20
238938.317023
 30
136.501219
 40
0.3
  1
136.501
 11
459501.410309
 21
238938.617023
 31
136.501219
100
AcDbText
 73
     3
  0
TEXT
  5
2F1
330
40E
100
AcDbEntity
  8
POINT_CODE
  6
SOLID_LINE
 62
     5
100
AcDbText
 10
459501.210309
 20
238938.317023
 30
136.501219
 40
0.3
  1

 72
     2
 11
459501.210309
 21
238938.617023
 31
136.501219
100
AcDbText
 73
     3
  0
POINT
  5
2F2
330
40E
100
AcDbEntity
  8
0
  6
SOLID_LINE
 62
     0
100
AcDbPoint
 10
459500.3221
 20
238939.325584
 30
136.517525
  0
TEXT
  5
2F3
330
40E
100
AcDbEntity
  8
POINT_ID
  6
SOLID_LINE
 62
     1
100
AcDbText
 10
459497.6221
 20
238939.425584
 30
136.517525
 40
0.3
  1
TRENCH1.35
 72
     2
 11
459500.2221
 21
238939.425584
 31
136.517525
100
AcDbText
  0
TEXT
  5
2F4
330
40E
100
AcDbEntity
  8
COORDINATES
  6
SOLID_LINE
 62
    70
100
AcDbText
 10
459500.4221
 20
238939.425584
 30
136.517525
 40
0.3
  1
459500.32;238939.33
100
AcDbText
  0
TEXT
  5
2F5
330
40E
100
AcDbEntity
  8
HEIGHT
  6
SOLID_LINE
 62
     4
100
AcDbText
 10
459500.4221
 20
238938.925584
 30
136.517525
 40
0.3
  1
136.518
 11
459500.4221
 21
238939.225584
 31
136.517525
100
AcDbText
 73
     3
  0
TEXT
  5
2F6
330
40E
100
AcDbEntity
  8
POINT_CODE
  6
SOLID_LINE
 62
     5
100
AcDbText
 10
459500.2221
 20
238938.925584
 30
136.517525
 40
0.3
  1

 72
     2
 11
459500.2221
 21
238939.225584
 31
136.517525
100
AcDbText
 73
     3
  0
POINT
  5
2F7
330
40E
100
AcDbEntity
  8
0
  6
SOLID_LINE
 62
     0
100
AcDbPoint
 10
459498.708465
 20
238937.238647
 30
136.483381
  0
TEXT
  5
2F8
330
40E
100
AcDbEntity
  8
POINT_ID
  6
SOLID_LINE
 62
     1
100
AcDbText
 10
459496.008465
 20
238937.338647
 30
136.483381
 40
0.3
  1
TRENCH1.34
 72
     2
 11
459498.608465
 21
238937.338647
 31
136.483381
100
AcDbText
  0
TEXT
  5
2F9
330
40E
100
AcDbEntity
  8
COORDINATES
  6
SOLID_LINE
 62
    70
100
AcDbText
 10
459498.808465
 20
238937.338647
 30
136.483381
 40
0.3
  1
459498.71;238937.24
100
AcDbText
  0
TEXT
  5
2FA
330
40E
100
AcDbEntity
  8
HEIGHT
  6
SOLID_LINE
 62
     4
100
AcDbText
 10
459498.808465
 20
238936.838647
 30
136.483381
 40
0.3
  1
136.483
 11
459498.808465
 21
238937.138647
 31
136.483381
100
AcDbText
 73
     3
  0
TEXT
  5
2FB
330
40E
100
AcDbEntity
  8
POINT_CODE
  6
SOLID_LINE
 62
     5
100
AcDbText
 10
459498.608465
 20
238936.838647
 30
136.483381
 40
0.3
  1

 72
     2
 11
459498.608465
 21
238937.138647
 31
136.483381
100
AcDbText
 73
     3
  0
POINT
  5
2FC
330
40E
100
AcDbEntity
  8
0
  6
SOLID_LINE
 62
     0
100
AcDbPoint
 10
459493.868012
 20
238930.331133
 30
136.431335
  0
TEXT
  5
2FD
330
40E
100
AcDbEntity
  8
POINT_ID
  6
SOLID_LINE
 62
     1
100
AcDbText
 10
459491.168012
 20
238930.431133
 30
136.431335
 40
0.3
  1
TRENCH1.33
 72
     2
 11
459493.768012
 21
238930.431133
 31
136.431335
100
AcDbText
  0
TEXT
  5
2FE
330
40E
100
AcDbEntity
  8
COORDINATES
  6
SOLID_LINE
 62
    70
100
AcDbText
 10
459493.968012
 20
238930.431133
 30
136.431335
 40
0.3
  1
459493.87;238930.33
100
AcDbText
  0
TEXT
  5
2FF
330
40E
100
AcDbEntity
  8
HEIGHT
  6
SOLID_LINE
 62
     4
100
AcDbText
 10
459493.968012
 20
238929.931133
 30
136.431335
 40
0.3
  1
136.431
 11
459493.968012
 21
238930.231133
 31
136.431335
100
AcDbText
 73
     3
  0
TEXT
  5
300
330
40E
100
AcDbEntity
  8
POINT_CODE
  6
SOLID_LINE
 62
     5
100
AcDbText
 10
459493.768012
 20
238929.931133
 30
136.431335
 40
0.3
  1

 72
     2
 11
459493.768012
 21
238930.231133
 31
136.431335
100
AcDbText
 73
     3
  0
POINT
  5
301
330
40E
100
AcDbEntity
  8
0
  6
SOLID_LINE
 62
     0
100
AcDbPoint
 10
459489.224939
 20
238923.520493
 30
136.412988
  0
TEXT
  5
302
330
40E
100
AcDbEntity
  8
POINT_ID
  6
SOLID_LINE
 62
     1
100
AcDbText
 10
459486.524939
 20
238923.620493
 30
136.412988
 40
0.3
  1
TRENCH1.32
 72
     2
 11
459489.124939
 21
238923.620493
 31
136.412988
100
AcDbText
  0
TEXT
  5
303
330
40E
100
AcDbEntity
  8
COORDINATES
  6
SOLID_LINE
 62
    70
100
AcDbText
 10
459489.324939
 20
238923.620493
 30
136.412988
 40
0.3
  1
459489.22;238923.52
100
AcDbText
  0
TEXT
  5
304
330
40E
100
AcDbEntity
  8
HEIGHT
  6
SOLID_LINE
 62
     4
100
AcDbText
 10
459489.324939
 20
238923.120493
 30
136.412988
 40
0.3
  1
136.413
 11
459489.324939
 21
238923.420493
 31
136.412988
100
AcDbText
 73
     3
  0
TEXT
  5
305
330
40E
100
AcDbEntity
  8
POINT_CODE
  6
SOLID_LINE
 62
     5
100
AcDbText
 10
459489.124939
 20
238923.120493
 30
136.412988
 40
0.3
  1

 72
     2
 11
459489.124939
 21
238923.420493
 31
136.412988
100
AcDbText
 73
     3
  0
POINT
  5
306
330
40E
100
AcDbEntity
  8
0
  6
SOLID_LINE
 62
     0
100
AcDbPoint
 10
459484.416396
 20
238916.668092
 30
136.370889
  0
TEXT
  5
307
330
40E
100
AcDbEntity
  8
POINT_ID
  6
SOLID_LINE
 62
     1
100
AcDbText
 10
459481.816396
 20
238916.768092
 30
136.370889
 40
0.3
  1
TRENCH1.31
 72
     2
 11
459484.316396
 21
238916.768092
 31
136.370889
100
AcDbText
  0
TEXT
  5
308
330
40E
100
AcDbEntity
  8
COORDINATES
  6
SOLID_LINE
 62
    70
100
AcDbText
 10
459484.516396
 20
238916.768092
 30
136.370889
 40
0.3
  1
459484.42;238916.67
100
AcDbText
  0
TEXT
  5
309
330
40E
100
AcDbEntity
  8
HEIGHT
  6
SOLID_LINE
 62
     4
100
AcDbText
 10
459484.516396
 20
238916.268092
 30
136.370889
 40
0.3
  1
136.371
 11
459484.516396
 21
238916.568092
 31
136.370889
100
AcDbText
 73
     3
  0
TEXT
  5
30A
330
40E
100
AcDbEntity
  8
POINT_CODE
  6
SOLID_LINE
 62
     5
100
AcDbText
 10
459484.316396
 20
238916.268092
 30
136.370889
 40
0.3
  1

 72
     2
 11
459484.316396
 21
238916.568092
 31
136.370889
100
AcDbText
 73
     3
  0
POINT
  5
30B
330
40E
100
AcDbEntity
  8
0
  6
SOLID_LINE
 62
     0
100
AcDbPoint
 10
459481.022798
 20
238911.289644
 30
136.29557
  0
TEXT
  5
30C
330
40E
100
AcDbEntity
  8
POINT_ID
  6
SOLID_LINE
 62
     1
100
AcDbText
 10
459478.372798
 20
238911.389644
 30
136.29557
 40
0.3
  1
TRENCH1.30
 72
     2
 11
459480.922798
 21
238911.389644
 31
136.29557
100
AcDbText
  0
TEXT
  5
30D
330
40E
100
AcDbEntity
  8
COORDINATES
  6
SOLID_LINE
 62
    70
100
AcDbText
 10
459481.122798
 20
238911.389644
 30
136.29557
 40
0.3
  1
459481.02;238911.29
100
AcDbText
  0
TEXT
  5
30E
330
40E
100
AcDbEntity
  8
HEIGHT
  6
SOLID_LINE
 62
     4
100
AcDbText
 10
459481.122798
 20
238910.889644
 30
136.29557
 40
0.3
  1
136.296
 11
459481.122798
 21
238911.189644
 31
136.29557
100
AcDbText
 73
     3
  0
TEXT
  5
30F
330
40E
100
AcDbEntity
  8
POINT_CODE
  6
SOLID_LINE
 62
     5
100
AcDbText
 10
459480.922798
 20
238910.889644
 30
136.29557
 40
0.3
  1

 72
     2
 11
459480.922798
 21
238911.189644
 31
136.29557
100
AcDbText
 73
     3
  0
POINT
  5
310
330
40E
100
AcDbEntity
  8
0
  6
SOLID_LINE
 62
     0
100
AcDbPoint
 10
459484.914844
 20
238908.132179
 30
136.240289
  0
TEXT
  5
311
330
40E
100
AcDbEntity
  8
POINT_ID
  6
SOLID_LINE
 62
     1
100
AcDbText
 10
459482.214844
 20
238908.232179
 30
136.240289
 40
0.3
  1
TRENCH1.29
 72
     2
 11
459484.814844
 21
238908.232179
 31
136.240289
100
AcDbText
  0
TEXT
  5
312
330
40E
100
AcDbEntity
  8
COORDINATES
  6
SOLID_LINE
 62
    70
100
AcDbText
 10
459485.014844
 20
238908.232179
 30
136.240289
 40
0.3
  1
459484.91;238908.13
100
AcDbText
  0
TEXT
  5
313
330
40E
100
AcDbEntity
  8
HEIGHT
  6
SOLID_LINE
 62
     4
100
AcDbText
 10
459485.014844
 20
238907.732179
 30
136.240289
 40
0.3
  1
136.240
 11
459485.014844
 21
238908.032179
 31
136.240289
100
AcDbText
 73
     3
  0
TEXT
  5
314
330
40E
100
AcDbEntity
  8
POINT_CODE
  6
SOLID_LINE
 62
     5
100
AcDbText
 10
459484.814844
 20
238907.732179
 30
136.240289
 40
0.3
  1

 72
     2
 11
459484.814844
 21
238908.032179
 31
136.240289
100
AcDbText
 73
     3
  0
POINT
  5
315
330
40E
100
AcDbEntity
  8
0
  6
SOLID_LINE
 62
     0
100
AcDbPoint
 10
459489.468021
 20
238904.728757
 30
136.179793
  0
TEXT
  5
316
330
40E
100
AcDbEntity
  8
POINT_ID
  6
SOLID_LINE
 62
     1
100
AcDbText
 10
459486.768021
 20
238904.828757
 30
136.179793
 40
0.3
  1
TRENCH1.28
 72
     2
 11
459489.368021
 21
238904.828757
 31
136.179793
100
AcDbText
  0
TEXT
  5
317
330
40E
100
AcDbEntity
  8
COORDINATES
  6
SOLID_LINE
 62
    70
100
AcDbText
 10
459489.568021
 20
238904.828757
 30
136.179793
 40
0.3
  1
459489.47;238904.73
100
AcDbText
  0
TEXT
  5
318
330
40E
100
AcDbEntity
  8
HEIGHT
  6
SOLID_LINE
 62
     4
100
AcDbText
 10
459489.568021
 20
238904.328757
 30
136.179793
 40
0.3
  1
136.180
 11
459489.568021
 21
238904.628757
 31
136.179793
100
AcDbText
 73
     3
  0
TEXT
  5
319
330
40E
100
AcDbEntity
  8
POINT_CODE
  6
SOLID_LINE
 62
     5
100
AcDbText
 10
459489.368021
 20
238904.328757
 30
136.179793
 40
0.3
  1

 72
     2
 11
459489.368021
 21
238904.628757
 31
136.179793
100
AcDbText
 73
     3
  0
POINT
  5
31A
330
40E
100
AcDbEntity
  8
0
  6
SOLID_LINE
 62
     0
100
AcDbPoint
 10
459494.442537
 20
238901.205516
 30
136.116809
  0
TEXT
  5
31B
330
40E
100
AcDbEntity
  8
POINT_ID
  6
SOLID_LINE
 62
     1
100
AcDbText
 10
459491.742537
 20
238901.305516
 30
136.116809
 40
0.3
  1
TRENCH1.27
 72
     2
 11
459494.342537
 21
238901.305516
 31
136.116809
100
AcDbText
  0
TEXT
  5
31C
330
40E
100
AcDbEntity
  8
COORDINATES
  6
SOLID_LINE
 62
    70
100
AcDbText
 10
459494.542537
 20
238901.305516
 30
136.116809
 40
0.3
  1
459494.44;238901.21
100
AcDbText
  0
TEXT
  5
31D
330
40E
100
AcDbEntity
  8
HEIGHT
  6
SOLID_LINE
 62
     4
100
AcDbText
 10
459494.542537
 20
238900.805516
 30
136.116809
 40
0.3
  1
136.117
 11
459494.542537
 21
238901.105516
 31
136.116809
100
AcDbText
 73
     3
  0
TEXT
  5
31E
330
40E
100
AcDbEntity
  8
POINT_CODE
  6
SOLID_LINE
 62
     5
100
AcDbText
 10
459494.342537
 20
238900.805516
 30
136.116809
 40
0.3
  1

 72
     2
 11
459494.342537
 21
238901.105516
 31
136.116809
100
AcDbText
 73
     3
  0
POINT
  5
31F
330
40E
100
AcDbEntity
  8
0
  6
SOLID_LINE
 62
     0
100
AcDbPoint
 10
459500.256245
 20
238897.047975
 30
136.02731
  0
TEXT
  5
320
330
40E
100
AcDbEntity
  8
POINT_ID
  6
SOLID_LINE
 62
     1
100
AcDbText
 10
459497.556245
 20
238897.147975
 30
136.02731
 40
0.3
  1
TRENCH1.26
 72
     2
 11
459500.156245
 21
238897.147975
 31
136.02731
100
AcDbText
  0
TEXT
  5
321
330
40E
100
AcDbEntity
  8
COORDINATES
  6
SOLID_LINE
 62
    70
100
AcDbText
 10
459500.356245
 20
238897.147975
 30
136.02731
 40
0.3
  1
459500.26;238897.05
100
AcDbText
  0
TEXT
  5
322
330
40E
100
AcDbEntity
  8
HEIGHT
  6
SOLID_LINE
 62
     4
100
AcDbText
 10
459500.356245
 20
238896.647975
 30
136.02731
 40
0.3
  1
136.027
 11
459500.356245
 21
238896.947975
 31
136.02731
100
AcDbText
 73
     3
  0
TEXT
  5
323
330
40E
100
AcDbEntity
  8
POINT_CODE
  6
SOLID_LINE
 62
     5
100
AcDbText
 10
459500.156245
 20
238896.647975
 30
136.02731
 40
0.3
  1

 72
     2
 11
459500.156245
 21
238896.947975
 31
136.02731
100
AcDbText
 73
     3
  0
POINT
  5
324
330
40E
100
AcDbEntity
  8
0
  6
SOLID_LINE
 62
     0
100
AcDbPoint
 10
459506.200348
 20
238893.088367
 30
135.95581
  0
TEXT
  5
325
330
40E
100
AcDbEntity
  8
POINT_ID
  6
SOLID_LINE
 62
     1
100
AcDbText
 10
459503.500348
 20
238893.188367
 30
135.95581
 40
0.3
  1
TRENCH1.25
 72
     2
 11
459506.100348
 21
238893.188367
 31
135.95581
100
AcDbText
  0
TEXT
  5
326
330
40E
100
AcDbEntity
  8
COORDINATES
  6
SOLID_LINE
 62
    70
100
AcDbText
 10
459506.300348
 20
238893.188367
 30
135.95581
 40
0.3
  1
459506.20;238893.09
100
AcDbText
  0
TEXT
  5
327
330
40E
100
AcDbEntity
  8
HEIGHT
  6
SOLID_LINE
 62
     4
100
AcDbText
 10
459506.300348
 20
238892.688367
 30
135.95581
 40
0.3
  1
135.956
 11
459506.300348
 21
238892.988367
 31
135.95581
100
AcDbText
 73
     3
  0
TEXT
  5
328
330
40E
100
AcDbEntity
  8
POINT_CODE
  6
SOLID_LINE
 62
     5
100
AcDbText
 10
459506.100348
 20
238892.688367
 30
135.95581
 40
0.3
  1

 72
     2
 11
459506.100348
 21
238892.988367
 31
135.95581
100
AcDbText
 73
     3
  0
POINT
  5
329
330
40E
100
AcDbEntity
  8
0
  6
SOLID_LINE
 62
     0
100
AcDbPoint
 10
459511.094408
 20
238890.149335
 30
135.812054
  0
TEXT
  5
32A
330
40E
100
AcDbEntity
  8
POINT_ID
  6
SOLID_LINE
 62
     1
100
AcDbText
 10
459508.3944080001
 20
238890.249335
 30
135.812054
 40
0.3
  1
TRENCH1.24
 72
     2
 11
459510.994408
 21
238890.249335
 31
135.812054
100
AcDbText
  0
TEXT
  5
32B
330
40E
100
AcDbEntity
  8
COORDINATES
  6
SOLID_LINE
 62
    70
100
AcDbText
 10
459511.194408
 20
238890.249335
 30
135.812054
 40
0.3
  1
459511.09;238890.15
100
AcDbText
  0
TEXT
  5
32C
330
40E
100
AcDbEntity
  8
HEIGHT
  6
SOLID_LINE
 62
     4
100
AcDbText
 10
459511.194408
 20
238889.749335
 30
135.812054
 40
0.3
  1
135.812
 11
459511.194408
 21
238890.049335
 31
135.812054
100
AcDbText
 73
     3
  0
TEXT
  5
32D
330
40E
100
AcDbEntity
  8
POINT_CODE
  6
SOLID_LINE
 62
     5
100
AcDbText
 10
459510.994408
 20
238889.749335
 30
135.812054
 40
0.3
  1

 72
     2
 11
459510.994408
 21
238890.049335
 31
135.812054
100
AcDbText
 73
     3
  0
POINT
  5
32E
330
40E
100
AcDbEntity
  8
0
  6
SOLID_LINE
 62
     0
100
AcDbPoint
 10
459517.683983
 20
238886.153268
 30
135.67495
  0
TEXT
  5
32F
330
40E
100
AcDbEntity
  8
POINT_ID
  6
SOLID_LINE
 62
     1
100
AcDbText
 10
459514.983983
 20
238886.253268
 30
135.67495
 40
0.3
  1
TRENCH1.23
 72
     2
 11
459517.583983
 21
238886.253268
 31
135.67495
100
AcDbText
  0
TEXT
  5
330
330
40E
100
AcDbEntity
  8
COORDINATES
  6
SOLID_LINE
 62
    70
100
AcDbText
 10
459517.783983
 20
238886.253268
 30
135.67495
 40
0.3
  1
459517.68;238886.15
100
AcDbText
  0
TEXT
  5
331
330
40E
100
AcDbEntity
  8
HEIGHT
  6
SOLID_LINE
 62
     4
100
AcDbText
 10
459517.783983
 20
238885.753268
 30
135.67495
 40
0.3
  1
135.675
 11
459517.783983
 21
238886.053268
 31
135.67495
100
AcDbText
 73
     3
  0
TEXT
  5
332
330
40E
100
AcDbEntity
  8
POINT_CODE
  6
SOLID_LINE
 62
     5
100
AcDbText
 10
459517.583983
 20
238885.753268
 30
135.67495
 40
0.3
  1

 72
     2
 11
459517.583983
 21
238886.053268
 31
135.67495
100
AcDbText
 73
     3
  0
POINT
  5
333
330
40E
100
AcDbEntity
  8
0
  6
SOLID_LINE
 62
     0
100
AcDbPoint
 10
459524.009762
 20
238882.480744
 30
135.550181
  0
TEXT
  5
334
330
40E
100
AcDbEntity
  8
POINT_ID
  6
SOLID_LINE
 62
     1
100
AcDbText
 10
459521.309762
 20
238882.580744
 30
135.550181
 40
0.3
  1
TRENCH1.22
 72
     2
 11
459523.909762
 21
238882.580744
 31
135.550181
100
AcDbText
  0
TEXT
  5
335
330
40E
100
AcDbEntity
  8
COORDINATES
  6
SOLID_LINE
 62
    70
100
AcDbText
 10
459524.109762
 20
238882.580744
 30
135.550181
 40
0.3
  1
459524.01;238882.48
100
AcDbText
  0
TEXT
  5
336
330
40E
100
AcDbEntity
  8
HEIGHT
  6
SOLID_LINE
 62
     4
100
AcDbText
 10
459524.109762
 20
238882.080744
 30
135.550181
 40
0.3
  1
135.550
 11
459524.109762
 21
238882.380744
 31
135.550181
100
AcDbText
 73
     3
  0
TEXT
  5
337
330
40E
100
AcDbEntity
  8
POINT_CODE
  6
SOLID_LINE
 62
     5
100
AcDbText
 10
459523.909762
 20
238882.080744
 30
135.550181
 40
0.3
  1

 72
     2
 11
459523.909762
 21
238882.380744
 31
135.550181
100
AcDbText
 73
     3
  0
POINT
  5
338
330
40E
100
AcDbEntity
  8
0
  6
SOLID_LINE
 62
     0
100
AcDbPoint
 10
459529.939164
 20
238878.969716
 30
135.388705
  0
TEXT
  5
339
330
40E
100
AcDbEntity
  8
POINT_ID
  6
SOLID_LINE
 62
     1
100
AcDbText
 10
459527.339164
 20
238879.069716
 30
135.388705
 40
0.3
  1
TRENCH1.21
 72
     2
 11
459529.839164
 21
238879.069716
 31
135.388705
100
AcDbText
  0
TEXT
  5
33A
330
40E
100
AcDbEntity
  8
COORDINATES
  6
SOLID_LINE
 62
    70
100
AcDbText
 10
459530.039164
 20
238879.069716
 30
135.388705
 40
0.3
  1
459529.94;238878.97
100
AcDbText
  0
TEXT
  5
33B
330
40E
100
AcDbEntity
  8
HEIGHT
  6
SOLID_LINE
 62
     4
100
AcDbText
 10
459530.039164
 20
238878.569716
 30
135.388705
 40
0.3
  1
135.389
 11
459530.039164
 21
238878.869716
 31
135.388705
100
AcDbText
 73
     3
  0
TEXT
  5
33C
330
40E
100
AcDbEntity
  8
POINT_CODE
  6
SOLID_LINE
 62
     5
100
AcDbText
 10
459529.839164
 20
238878.569716
 30
135.388705
 40
0.3
  1

 72
     2
 11
459529.839164
 21
238878.869716
 31
135.388705
100
AcDbText
 73
     3
  0
POINT
  5
33D
330
40E
100
AcDbEntity
  8
0
  6
SOLID_LINE
 62
     0
100
AcDbPoint
 10
459536.247019
 20
238875.275562
 30
135.286088
  0
TEXT
  5
33E
330
40E
100
AcDbEntity
  8
POINT_ID
  6
SOLID_LINE
 62
     1
100
AcDbText
 10
459533.597019
 20
238875.375562
 30
135.286088
 40
0.3
  1
TRENCH1.20
 72
     2
 11
459536.147019
 21
238875.375562
 31
135.286088
100
AcDbText
  0
TEXT
  5
33F
330
40E
100
AcDbEntity
  8
COORDINATES
  6
SOLID_LINE
 62
    70
100
AcDbText
 10
459536.347019
 20
238875.375562
 30
135.286088
 40
0.3
  1
459536.25;238875.28
100
AcDbText
  0
TEXT
  5
340
330
40E
100
AcDbEntity
  8
HEIGHT
  6
SOLID_LINE
 62
     4
100
AcDbText
 10
459536.347019
 20
238874.875562
 30
135.286088
 40
0.3
  1
135.286
 11
459536.347019
 21
238875.175562
 31
135.286088
100
AcDbText
 73
     3
  0
TEXT
  5
341
330
40E
100
AcDbEntity
  8
POINT_CODE
  6
SOLID_LINE
 62
     5
100
AcDbText
 10
459536.147019
 20
238874.875562
 30
135.286088
 40
0.3
  1

 72
     2
 11
459536.147019
 21
238875.175562
 31
135.286088
100
AcDbText
 73
     3
  0
POINT
  5
342
330
40E
100
AcDbEntity
  8
0
  6
SOLID_LINE
 62
     0
100
AcDbPoint
 10
459542.502565
 20
238871.761076
 30
135.074263
  0
TEXT
  5
343
330
40E
100
AcDbEntity
  8
POINT_ID
  6
SOLID_LINE
 62
     1
100
AcDbText
 10
459539.902565
 20
238871.861076
 30
135.074263
 40
0.3
  1
TRENCH1.19
 72
     2
 11
459542.402565
 21
238871.861076
 31
135.074263
100
AcDbText
  0
TEXT
  5
344
330
40E
100
AcDbEntity
  8
COORDINATES
  6
SOLID_LINE
 62
    70
100
AcDbText
 10
459542.602565
 20
238871.861076
 30
135.074263
 40
0.3
  1
459542.50;238871.76
100
AcDbText
  0
TEXT
  5
345
330
40E
100
AcDbEntity
  8
HEIGHT
  6
SOLID_LINE
 62
     4
100
AcDbText
 10
459542.602565
 20
238871.361076
 30
135.074263
 40
0.3
  1
135.074
 11
459542.602565
 21
238871.661076
 31
135.074263
100
AcDbText
 73
     3
  0
TEXT
  5
346
330
40E
100
AcDbEntity
  8
POINT_CODE
  6
SOLID_LINE
 62
     5
100
AcDbText
 10
459542.402565
 20
238871.361076
 30
135.074263
 40
0.3
  1

 72
     2
 11
459542.402565
 21
238871.661076
 31
135.074263
100
AcDbText
 73
     3
  0
POINT
  5
347
330
40E
100
AcDbEntity
  8
0
  6
SOLID_LINE
 62
     0
100
AcDbPoint
 10
459548.089832
 20
238868.716187
 30
134.902879
  0
TEXT
  5
348
330
40E
100
AcDbEntity
  8
POINT_ID
  6
SOLID_LINE
 62
     1
100
AcDbText
 10
459545.489832
 20
238868.816187
 30
134.902879
 40
0.3
  1
TRENCH1.18
 72
     2
 11
459547.989832
 21
238868.816187
 31
134.902879
100
AcDbText
  0
TEXT
  5
349
330
40E
100
AcDbEntity
  8
COORDINATES
  6
SOLID_LINE
 62
    70
100
AcDbText
 10
459548.189832
 20
238868.816187
 30
134.902879
 40
0.3
  1
459548.09;238868.72
100
AcDbText
  0
TEXT
  5
34A
330
40E
100
AcDbEntity
  8
HEIGHT
  6
SOLID_LINE
 62
     4
100
AcDbText
 10
459548.189832
 20
238868.316187
 30
134.902879
 40
0.3
  1
134.903
 11
459548.189832
 21
238868.616187
 31
134.902879
100
AcDbText
 73
     3
  0
TEXT
  5
34B
330
40E
100
AcDbEntity
  8
POINT_CODE
  6
SOLID_LINE
 62
     5
100
AcDbText
 10
459547.989832
 20
238868.316187
 30
134.902879
 40
0.3
  1

 72
     2
 11
459547.989832
 21
238868.616187
 31
134.902879
100
AcDbText
 73
     3
  0
POINT
  5
34C
330
40E
100
AcDbEntity
  8
0
  6
SOLID_LINE
 62
     0
100
AcDbPoint
 10
459554.658457
 20
238865.195746
 30
134.842604
  0
TEXT
  5
34D
330
40E
100
AcDbEntity
  8
POINT_ID
  6
SOLID_LINE
 62
     1
100
AcDbText
 10
459552.058457
 20
238865.295746
 30
134.842604
 40
0.3
  1
TRENCH1.17
 72
     2
 11
459554.558457
 21
238865.295746
 31
134.842604
100
AcDbText
  0
TEXT
  5
34E
330
40E
100
AcDbEntity
  8
COORDINATES
  6
SOLID_LINE
 62
    70
100
AcDbText
 10
459554.758457
 20
238865.295746
 30
134.842604
 40
0.3
  1
459554.66;238865.20
100
AcDbText
  0
TEXT
  5
34F
330
40E
100
AcDbEntity
  8
HEIGHT
  6
SOLID_LINE
 62
     4
100
AcDbText
 10
459554.758457
 20
238864.795746
 30
134.842604
 40
0.3
  1
134.843
 11
459554.758457
 21
238865.095746
 31
134.842604
100
AcDbText
 73
     3
  0
TEXT
  5
350
330
40E
100
AcDbEntity
  8
POINT_CODE
  6
SOLID_LINE
 62
     5
100
AcDbText
 10
459554.558457
 20
238864.795746
 30
134.842604
 40
0.3
  1

 72
     2
 11
459554.558457
 21
238865.095746
 31
134.842604
100
AcDbText
 73
     3
  0
POINT
  5
351
330
40E
100
AcDbEntity
  8
0
  6
SOLID_LINE
 62
     0
100
AcDbPoint
 10
459560.131663
 20
238862.271718
 30
134.782023
  0
TEXT
  5
352
330
40E
100
AcDbEntity
  8
POINT_ID
  6
SOLID_LINE
 62
     1
100
AcDbText
 10
459557.531663
 20
238862.371718
 30
134.782023
 40
0.3
  1
TRENCH1.16
 72
     2
 11
459560.031663
 21
238862.371718
 31
134.782023
100
AcDbText
  0
TEXT
  5
353
330
40E
100
AcDbEntity
  8
COORDINATES
  6
SOLID_LINE
 62
    70
100
AcDbText
 10
459560.231663
 20
238862.371718
 30
134.782023
 40
0.3
  1
459560.13;238862.27
100
AcDbText
  0
TEXT
  5
354
330
40E
100
AcDbEntity
  8
HEIGHT
  6
SOLID_LINE
 62
     4
100
AcDbText
 10
459560.231663
 20
238861.871718
 30
134.782023
 40
0.3
  1
134.782
 11
459560.231663
 21
238862.171718
 31
134.782023
100
AcDbText
 73
     3
  0
TEXT
  5
355
330
40E
100
AcDbEntity
  8
POINT_CODE
  6
SOLID_LINE
 62
     5
100
AcDbText
 10
459560.031663
 20
238861.871718
 30
134.782023
 40
0.3
  1

 72
     2
 11
459560.031663
 21
238862.171718
 31
134.782023
100
AcDbText
 73
     3
  0
POINT
  5
356
330
40E
100
AcDbEntity
  8
0
  6
SOLID_LINE
 62
     0
100
AcDbPoint
 10
459563.886551
 20
238860.297003
 30
134.649879
  0
TEXT
  5
357
330
40E
100
AcDbEntity
  8
POINT_ID
  6
SOLID_LINE
 62
     1
100
AcDbText
 10
459561.286551
 20
238860.397003
 30
134.649879
 40
0.3
  1
TRENCH1.15
 72
     2
 11
459563.786551
 21
238860.397003
 31
134.649879
100
AcDbText
  0
TEXT
  5
358
330
40E
100
AcDbEntity
  8
COORDINATES
  6
SOLID_LINE
 62
    70
100
AcDbText
 10
459563.986551
 20
238860.397003
 30
134.649879
 40
0.3
  1
459563.89;238860.30
100
AcDbText
  0
TEXT
  5
359
330
40E
100
AcDbEntity
  8
HEIGHT
  6
SOLID_LINE
 62
     4
100
AcDbText
 10
459563.986551
 20
238859.897003
 30
134.649879
 40
0.3
  1
134.650
 11
459563.986551
 21
238860.197003
 31
134.649879
100
AcDbText
 73
     3
  0
TEXT
  5
35A
330
40E
100
AcDbEntity
  8
POINT_CODE
  6
SOLID_LINE
 62
     5
100
AcDbText
 10
459563.786551
 20
238859.897003
 30
134.649879
 40
0.3
  1

 72
     2
 11
459563.786551
 21
238860.197003
 31
134.649879
100
AcDbText
 73
     3
  0
POINT
  5
35B
330
40E
100
AcDbEntity
  8
0
  6
SOLID_LINE
 62
     0
100
AcDbPoint
 10
459566.711366
 20
238858.928187
 30
134.575889
  0
TEXT
  5
35C
330
40E
100
AcDbEntity
  8
POINT_ID
  6
SOLID_LINE
 62
     1
100
AcDbText
 10
459564.111366
 20
238859.028187
 30
134.575889
 40
0.3
  1
TRENCH1.14
 72
     2
 11
459566.611366
 21
238859.028187
 31
134.575889
100
AcDbText
  0
TEXT
  5
35D
330
40E
100
AcDbEntity
  8
COORDINATES
  6
SOLID_LINE
 62
    70
100
AcDbText
 10
459566.811366
 20
238859.028187
 30
134.575889
 40
0.3
  1
459566.71;238858.93
100
AcDbText
  0
TEXT
  5
35E
330
40E
100
AcDbEntity
  8
HEIGHT
  6
SOLID_LINE
 62
     4
100
AcDbText
 10
459566.811366
 20
238858.528187
 30
134.575889
 40
0.3
  1
134.576
 11
459566.811366
 21
238858.828187
 31
134.575889
100
AcDbText
 73
     3
  0
TEXT
  5
35F
330
40E
100
AcDbEntity
  8
POINT_CODE
  6
SOLID_LINE
 62
     5
100
AcDbText
 10
459566.611366
 20
238858.528187
 30
134.575889
 40
0.3
  1

 72
     2
 11
459566.611366
 21
238858.828187
 31
134.575889
100
AcDbText
 73
     3
  0
POINT
  5
360
330
40E
100
AcDbEntity
  8
0
  6
SOLID_LINE
 62
     0
100
AcDbPoint
 10
459567.712384
 20
238860.892788
 30
134.599317
  0
TEXT
  5
361
330
40E
100
AcDbEntity
  8
POINT_ID
  6
SOLID_LINE
 62
     1
100
AcDbText
 10
459565.112384
 20
238860.992788
 30
134.599317
 40
0.3
  1
TRENCH1.13
 72
     2
 11
459567.612384
 21
238860.992788
 31
134.599317
100
AcDbText
  0
TEXT
  5
362
330
40E
100
AcDbEntity
  8
COORDINATES
  6
SOLID_LINE
 62
    70
100
AcDbText
 10
459567.812384
 20
238860.992788
 30
134.599317
 40
0.3
  1
459567.71;238860.89
100
AcDbText
  0
TEXT
  5
363
330
40E
100
AcDbEntity
  8
HEIGHT
  6
SOLID_LINE
 62
     4
100
AcDbText
 10
459567.812384
 20
238860.492788
 30
134.599317
 40
0.3
  1
134.599
 11
459567.812384
 21
238860.792788
 31
134.599317
100
AcDbText
 73
     3
  0
TEXT
  5
364
330
40E
100
AcDbEntity
  8
POINT_CODE
  6
SOLID_LINE
 62
     5
100
AcDbText
 10
459567.612384
 20
238860.492788
 30
134.599317
 40
0.3
  1

 72
     2
 11
459567.612384
 21
238860.792788
 31
134.599317
100
AcDbText
 73
     3
  0
POINT
  5
365
330
40E
100
AcDbEntity
  8
0
  6
SOLID_LINE
 62
     0
100
AcDbPoint
 10
459562.72074
 20
238863.692813
 30
134.76247
  0
TEXT
  5
366
330
40E
100
AcDbEntity
  8
POINT_ID
  6
SOLID_LINE
 62
     1
100
AcDbText
 10
459560.12074
 20
238863.792813
 30
134.76247
 40
0.3
  1
TRENCH1.12
 72
     2
 11
459562.62074
 21
238863.792813
 31
134.76247
100
AcDbText
  0
TEXT
  5
367
330
40E
100
AcDbEntity
  8
COORDINATES
  6
SOLID_LINE
 62
    70
100
AcDbText
 10
459562.82074
 20
238863.792813
 30
134.76247
 40
0.3
  1
459562.72;238863.69
100
AcDbText
  0
TEXT
  5
368
330
40E
100
AcDbEntity
  8
HEIGHT
  6
SOLID_LINE
 62
     4
100
AcDbText
 10
459562.82074
 20
238863.292813
 30
134.76247
 40
0.3
  1
134.762
 11
459562.82074
 21
238863.592813
 31
134.76247
100
AcDbText
 73
     3
  0
TEXT
  5
369
330
40E
100
AcDbEntity
  8
POINT_CODE
  6
SOLID_LINE
 62
     5
100
AcDbText
 10
459562.62074
 20
238863.292813
 30
134.76247
 40
0.3
  1

 72
     2
 11
459562.62074
 21
238863.592813
 31
134.76247
100
AcDbText
 73
     3
  0
POINT
  5
36A
330
40E
100
AcDbEntity
  8
0
  6
SOLID_LINE
 62
     0
100
AcDbPoint
 10
459556.418905
 20
238867.122478
 30
134.829535
  0
TEXT
  5
36B
330
40E
100
AcDbEntity
  8
POINT_ID
  6
SOLID_LINE
 62
     1
100
AcDbText
 10
459553.918905
 20
238867.222478
 30
134.829535
 40
0.3
  1
TRENCH1.11
 72
     2
 11
459556.318905
 21
238867.222478
 31
134.829535
100
AcDbText
  0
TEXT
  5
36C
330
40E
100
AcDbEntity
  8
COORDINATES
  6
SOLID_LINE
 62
    70
100
AcDbText
 10
459556.518905
 20
238867.222478
 30
134.829535
 40
0.3
  1
459556.42;238867.12
100
AcDbText
  0
TEXT
  5
36D
330
40E
100
AcDbEntity
  8
HEIGHT
  6
SOLID_LINE
 62
     4
100
AcDbText
 10
459556.518905
 20
238866.722478
 30
134.829535
 40
0.3
  1
134.830
 11
459556.518905
 21
238867.022478
 31
134.829535
100
AcDbText
 73
     3
  0
TEXT
  5
36E
330
40E
100
AcDbEntity
  8
POINT_CODE
  6
SOLID_LINE
 62
     5
100
AcDbText
 10
459556.318905
 20
238866.722478
 30
134.829535
 40
0.3
  1

 72
     2
 11
459556.318905
 21
238867.022478
 31
134.829535
100
AcDbText
 73
     3
  0
POINT
  5
36F
330
40E
100
AcDbEntity
  8
0
  6
SOLID_LINE
 62
     0
100
AcDbPoint
 10
459551.482977
 20
238869.896824
 30
134.868228
  0
TEXT
  5
370
330
40E
100
AcDbEntity
  8
POINT_ID
  6
SOLID_LINE
 62
     1
100
AcDbText
 10
459548.932977
 20
238869.996824
 30
134.868228
 40
0.3
  1
TRENCH1.10
 72
     2
 11
459551.382977
 21
238869.996824
 31
134.868228
100
AcDbText
  0
TEXT
  5
371
330
40E
100
AcDbEntity
  8
COORDINATES
  6
SOLID_LINE
 62
    70
100
AcDbText
 10
459551.582977
 20
238869.996824
 30
134.868228
 40
0.3
  1
459551.48;238869.90
100
AcDbText
  0
TEXT
  5
372
330
40E
100
AcDbEntity
  8
HEIGHT
  6
SOLID_LINE
 62
     4
100
AcDbText
 10
459551.582977
 20
238869.496824
 30
134.868228
 40
0.3
  1
134.868
 11
459551.582977
 21
238869.796824
 31
134.868228
100
AcDbText
 73
     3
  0
TEXT
  5
373
330
40E
100
AcDbEntity
  8
POINT_CODE
  6
SOLID_LINE
 62
     5
100
AcDbText
 10
459551.382977
 20
238869.496824
 30
134.868228
 40
0.3
  1

 72
     2
 11
459551.382977
 21
238869.796824
 31
134.868228
100
AcDbText
 73
     3
  0
POINT
  5
374
330
40E
100
AcDbEntity
  8
0
  6
SOLID_LINE
 62
     0
100
AcDbPoint
 10
459547.559501
 20
238871.909673
 30
134.949847
  0
TEXT
  5
375
330
40E
100
AcDbEntity
  8
POINT_ID
  6
SOLID_LINE
 62
     1
100
AcDbText
 10
459545.159501
 20
238872.009673
 30
134.949847
 40
0.3
  1
TRENCH1.9
 72
     2
 11
459547.459501
 21
238872.009673
 31
134.949847
100
AcDbText
  0
TEXT
  5
376
330
40E
100
AcDbEntity
  8
COORDINATES
  6
SOLID_LINE
 62
    70
100
AcDbText
 10
459547.659501
 20
238872.009673
 30
134.949847
 40
0.3
  1
459547.56;238871.91
100
AcDbText
  0
TEXT
  5
377
330
40E
100
AcDbEntity
  8
HEIGHT
  6
SOLID_LINE
 62
     4
100
AcDbText
 10
459547.659501
 20
238871.509673
 30
134.949847
 40
0.3
  1
134.950
 11
459547.659501
 21
238871.809673
 31
134.949847
100
AcDbText
 73
     3
  0
TEXT
  5
378
330
40E
100
AcDbEntity
  8
POINT_CODE
  6
SOLID_LINE
 62
     5
100
AcDbText
 10
459547.459501
 20
238871.509673
 30
134.949847
 40
0.3
  1

 72
     2
 11
459547.459501
 21
238871.809673
 31
134.949847
100
AcDbText
 73
     3
  0
POINT
  5
379
330
40E
100
AcDbEntity
  8
0
  6
SOLID_LINE
 62
     0
100
AcDbPoint
 10
459543.374723
 20
238874.286389
 30
135.127519
  0
TEXT
  5
37A
330
40E
100
AcDbEntity
  8
POINT_ID
  6
SOLID_LINE
 62
     1
100
AcDbText
 10
459540.974723
 20
238874.386389
 30
135.127519
 40
0.3
  1
TRENCH1.8
 72
     2
 11
459543.274723
 21
238874.386389
 31
135.127519
100
AcDbText
  0
TEXT
  5
37B
330
40E
100
AcDbEntity
  8
COORDINATES
  6
SOLID_LINE
 62
    70
100
AcDbText
 10
459543.474723
 20
238874.386389
 30
135.127519
 40
0.3
  1
459543.37;238874.29
100
AcDbText
  0
TEXT
  5
37C
330
40E
100
AcDbEntity
  8
HEIGHT
  6
SOLID_LINE
 62
     4
100
AcDbText
 10
459543.474723
 20
238873.886389
 30
135.127519
 40
0.3
  1
135.128
 11
459543.474723
 21
238874.186389
 31
135.127519
100
AcDbText
 73
     3
  0
TEXT
  5
37D
330
40E
100
AcDbEntity
  8
POINT_CODE
  6
SOLID_LINE
 62
     5
100
AcDbText
 10
459543.274723
 20
238873.886389
 30
135.127519
 40
0.3
  1

 72
     2
 11
459543.274723
 21
238874.186389
 31
135.127519
100
AcDbText
 73
     3
  0
POINT
  5
37E
330
40E
100
AcDbEntity
  8
0
  6
SOLID_LINE
 62
     0
100
AcDbPoint
 10
459538.656572
 20
238876.987442
 30
135.252507
  0
TEXT
  5
37F
330
40E
100
AcDbEntity
  8
POINT_ID
  6
SOLID_LINE
 62
     1
100
AcDbText
 10
459536.256572
 20
238877.087442
 30
135.252507
 40
0.3
  1
TRENCH1.7
 72
     2
 11
459538.556572
 21
238877.087442
 31
135.252507
100
AcDbText
  0
TEXT
  5
380
330
40E
100
AcDbEntity
  8
COORDINATES
  6
SOLID_LINE
 62
    70
100
AcDbText
 10
459538.756572
 20
238877.087442
 30
135.252507
 40
0.3
  1
459538.66;238876.99
100
AcDbText
  0
TEXT
  5
381
330
40E
100
AcDbEntity
  8
HEIGHT
  6
SOLID_LINE
 62
     4
100
AcDbText
 10
459538.756572
 20
238876.587442
 30
135.252507
 40
0.3
  1
135.253
 11
459538.756572
 21
238876.887442
 31
135.252507
100
AcDbText
 73
     3
  0
TEXT
  5
382
330
40E
100
AcDbEntity
  8
POINT_CODE
  6
SOLID_LINE
 62
     5
100
AcDbText
 10
459538.556572
 20
238876.587442
 30
135.252507
 40
0.3
  1

 72
     2
 11
459538.556572
 21
238876.887442
 31
135.252507
100
AcDbText
 73
     3
  0
POINT
  5
383
330
40E
100
AcDbEntity
  8
0
  6
SOLID_LINE
 62
     0
100
AcDbPoint
 10
459533.418342
 20
238879.973562
 30
135.365427
  0
TEXT
  5
384
330
40E
100
AcDbEntity
  8
POINT_ID
  6
SOLID_LINE
 62
     1
100
AcDbText
 10
459531.018342
 20
238880.073562
 30
135.365427
 40
0.3
  1
TRENCH1.6
 72
     2
 11
459533.318342
 21
238880.073562
 31
135.365427
100
AcDbText
  0
TEXT
  5
385
330
40E
100
AcDbEntity
  8
COORDINATES
  6
SOLID_LINE
 62
    70
100
AcDbText
 10
459533.518342
 20
238880.073562
 30
135.365427
 40
0.3
  1
459533.42;238879.97
100
AcDbText
  0
TEXT
  5
386
330
40E
100
AcDbEntity
  8
HEIGHT
  6
SOLID_LINE
 62
     4
100
AcDbText
 10
459533.518342
 20
238879.573562
 30
135.365427
 40
0.3
  1
135.365
 11
459533.518342
 21
238879.873562
 31
135.365427
100
AcDbText
 73
     3
  0
TEXT
  5
387
330
40E
100
AcDbEntity
  8
POINT_CODE
  6
SOLID_LINE
 62
     5
100
AcDbText
 10
459533.318342
 20
238879.573562
 30
135.365427
 40
0.3
  1

 72
     2
 11
459533.318342
 21
238879.873562
 31
135.365427
100
AcDbText
 73
     3
  0
POINT
  5
388
330
40E
100
AcDbEntity
  8
0
  6
SOLID_LINE
 62
     0
100
AcDbPoint
 10
459527.617011
 20
238883.289816
 30
135.494571
  0
TEXT
  5
389
330
40E
100
AcDbEntity
  8
POINT_ID
  6
SOLID_LINE
 62
     1
100
AcDbText
 10
459525.217011
 20
238883.389816
 30
135.494571
 40
0.3
  1
TRENCH1.5
 72
     2
 11
459527.517011
 21
238883.389816
 31
135.494571
100
AcDbText
  0
TEXT
  5
38A
330
40E
100
AcDbEntity
  8
COORDINATES
  6
SOLID_LINE
 62
    70
100
AcDbText
 10
459527.717011
 20
238883.389816
 30
135.494571
 40
0.3
  1
459527.62;238883.29
100
AcDbText
  0
TEXT
  5
38B
330
40E
100
AcDbEntity
  8
HEIGHT
  6
SOLID_LINE
 62
     4
100
AcDbText
 10
459527.717011
 20
238882.889816
 30
135.494571
 40
0.3
  1
135.495
 11
459527.717011
 21
238883.189816
 31
135.494571
100
AcDbText
 73
     3
  0
TEXT
  5
38C
330
40E
100
AcDbEntity
  8
POINT_CODE
  6
SOLID_LINE
 62
     5
100
AcDbText
 10
459527.517011
 20
238882.889816
 30
135.494571
 40
0.3
  1

 72
     2
 11
459527.517011
 21
238883.189816
 31
135.494571
100
AcDbText
 73
     3
  0
POINT
  5
38D
330
40E
100
AcDbEntity
  8
0
  6
SOLID_LINE
 62
     0
100
AcDbPoint
 10
459522.537703
 20
238886.371393
 30
135.677229
  0
TEXT
  5
38E
330
40E
100
AcDbEntity
  8
POINT_ID
  6
SOLID_LINE
 62
     1
100
AcDbText
 10
459520.137703
 20
238886.471393
 30
135.677229
 40
0.3
  1
TRENCH1.4
 72
     2
 11
459522.437703
 21
238886.471393
 31
135.677229
100
AcDbText
  0
TEXT
  5
38F
330
40E
100
AcDbEntity
  8
COORDINATES
  6
SOLID_LINE
 62
    70
100
AcDbText
 10
459522.637703
 20
238886.471393
 30
135.677229
 40
0.3
  1
459522.54;238886.37
100
AcDbText
  0
TEXT
  5
390
330
40E
100
AcDbEntity
  8
HEIGHT
  6
SOLID_LINE
 62
     4
100
AcDbText
 10
459522.637703
 20
238885.971393
 30
135.677229
 40
0.3
  1
135.677
 11
459522.637703
 21
238886.271393
 31
135.677229
100
AcDbText
 73
     3
  0
TEXT
  5
391
330
40E
100
AcDbEntity
  8
POINT_CODE
  6
SOLID_LINE
 62
     5
100
AcDbText
 10
459522.437703
 20
238885.971393
 30
135.677229
 40
0.3
  1

 72
     2
 11
459522.437703
 21
238886.271393
 31
135.677229
100
AcDbText
 73
     3
  0
POINT
  5
392
330
40E
100
AcDbEntity
  8
0
  6
SOLID_LINE
 62
     0
100
AcDbPoint
 10
459518.163143
 20
238888.897983
 30
135.669027
  0
TEXT
  5
393
330
40E
100
AcDbEntity
  8
POINT_ID
  6
SOLID_LINE
 62
     1
100
AcDbText
 10
459515.763143
 20
238888.997983
 30
135.669027
 40
0.3
  1
TRENCH1.3
 72
     2
 11
459518.063143
 21
238888.997983
 31
135.669027
100
AcDbText
  0
TEXT
  5
394
330
40E
100
AcDbEntity
  8
COORDINATES
  6
SOLID_LINE
 62
    70
100
AcDbText
 10
459518.263143
 20
238888.997983
 30
135.669027
 40
0.3
  1
459518.16;238888.90
100
AcDbText
  0
TEXT
  5
395
330
40E
100
AcDbEntity
  8
HEIGHT
  6
SOLID_LINE
 62
     4
100
AcDbText
 10
459518.263143
 20
238888.497983
 30
135.669027
 40
0.3
  1
135.669
 11
459518.263143
 21
238888.797983
 31
135.669027
100
AcDbText
 73
     3
  0
TEXT
  5
396
330
40E
100
AcDbEntity
  8
POINT_CODE
  6
SOLID_LINE
 62
     5
100
AcDbText
 10
459518.063143
 20
238888.497983
 30
135.669027
 40
0.3
  1

 72
     2
 11
459518.063143
 21
238888.797983
 31
135.669027
100
AcDbText
 73
     3
  0
POINT
  5
397
330
40E
100
AcDbEntity
  8
0
  6
SOLID_LINE
 62
     0
100
AcDbPoint
 10
459514.223122
 20
238891.379668
 30
135.818138
  0
TEXT
  5
398
330
40E
100
AcDbEntity
  8
POINT_ID
  6
SOLID_LINE
 62
     1
100
AcDbText
 10
459511.823122
 20
238891.479668
 30
135.818138
 40
0.3
  1
TRENCH1.2
 72
     2
 11
459514.123122
 21
238891.479668
 31
135.818138
100
AcDbText
  0
TEXT
  5
399
330
40E
100
AcDbEntity
  8
COORDINATES
  6
SOLID_LINE
 62
    70
100
AcDbText
 10
459514.323122
 20
238891.479668
 30
135.818138
 40
0.3
  1
459514.22;238891.38
100
AcDbText
  0
TEXT
  5
39A
330
40E
100
AcDbEntity
  8
HEIGHT
  6
SOLID_LINE
 62
     4
100
AcDbText
 10
459514.323122
 20
238890.979668
 30
135.818138
 40
0.3
  1
135.818
 11
459514.323122
 21
238891.279668
 31
135.818138
100
AcDbText
 73
     3
  0
TEXT
  5
39B
330
40E
100
AcDbEntity
  8
POINT_CODE
  6
SOLID_LINE
 62
     5
100
AcDbText
 10
459514.123122
 20
238890.979668
 30
135.818138
 40
0.3
  1

 72
     2
 11
459514.123122
 21
238891.279668
 31
135.818138
100
AcDbText
 73
     3
  0
POINT
  5
39C
330
40E
100
AcDbEntity
  8
0
  6
SOLID_LINE
 62
     0
100
AcDbPoint
 10
459511.079758
 20
238893.397536
 30
135.881728
  0
TEXT
  5
39D
330
40E
100
AcDbEntity
  8
POINT_ID
  6
SOLID_LINE
 62
     1
100
AcDbText
 10
459508.779758
 20
238893.497536
 30
135.881728
 40
0.3
  1
TRENCH1.1
 72
     2
 11
459510.979758
 21
238893.497536
 31
135.881728
100
AcDbText
  0
TEXT
  5
39E
330
40E
100
AcDbEntity
  8
COORDINATES
  6
SOLID_LINE
 62
    70
100
AcDbText
 10
459511.179758
 20
238893.497536
 30
135.881728
 40
0.3
  1
459511.08;238893.40
100
AcDbText
  0
TEXT
  5
39F
330
40E
100
AcDbEntity
  8
HEIGHT
  6
SOLID_LINE
 62
     4
100
AcDbText
 10
459511.179758
 20
238892.997536
 30
135.881728
 40
0.3
  1
135.882
 11
459511.179758
 21
238893.297536
 31
135.881728
100
AcDbText
 73
     3
  0
TEXT
  5
3A0
330
40E
100
AcDbEntity
  8
POINT_CODE
  6
SOLID_LINE
 62
     5
100
AcDbText
 10
459510.979758
 20
238892.997536
 30
135.881728
 40
0.3
  1

 72
     2
 11
459510.979758
 21
238893.297536
 31
135.881728
100
AcDbText
 73
     3
  0
POINT
  5
3A1
330
40E
100
AcDbEntity
  8
0
  6
SOLID_LINE
 62
     0
100
AcDbPoint
 10
467611.547315
 20
233455.403816
 30
108.800053
  0
TEXT
  5
3A2
330
40E
100
AcDbEntity
  8
POINT_ID
  6
SOLID_LINE
 62
     1
100
AcDbText
 10
467607.747315
 20
233455.503816
 30
108.800053
 40
0.3
  1
RTCM-Ref 0045
 72
     2
 11
467611.447315
 21
233455.503816
 31
108.800053
100
AcDbText
  0
TEXT
  5
3A3
330
40E
100
AcDbEntity
  8
COORDINATES
  6
SOLID_LINE
 62
    70
100
AcDbText
 10
467611.647315
 20
233455.503816
 30
108.800053
 40
0.3
  1
467611.55;233455.40
100
AcDbText
  0
TEXT
  5
3A4
330
40E
100
AcDbEntity
  8
HEIGHT
  6
SOLID_LINE
 62
     4
100
AcDbText
 10
467611.647315
 20
233455.003816
 30
108.800053
 40
0.3
  1
108.800
 11
467611.647315
 21
233455.303816
 31
108.800053
100
AcDbText
 73
     3
  0
TEXT
  5
3A5
330
40E
100
AcDbEntity
  8
POINT_CODE
  6
SOLID_LINE
 62
     5
100
AcDbText
 10
467611.447315
 20
233455.003816
 30
108.800053
 40
0.3
  1

 72
     2
 11
467611.447315
 21
233455.303816
 31
108.800053
100
AcDbText
 73
     3
  0
LWPOLYLINE
  5
4A9
330
40E
100
AcDbEntity
  8
CONTEXT
  6
DASHDOT_LINE
 62
     1
100
AcDbPolyline
 90
       44
 70
   129
 43
0.0
 38
134.575889
 10
459566.711366
 20
238858.928187
 10
459567.712384
 20
238860.892788
 10
459562.72074
 20
238863.692813
 10
459556.418905
 20
238867.122478
 10
459551.482977
 20
238869.896824
 10
459547.559501
 20
238871.909673
 10
459543.374723
 20
238874.286389
 10
459538.656572
 20
238876.987442
 10
459533.418342
 20
238879.973562
 10
459527.617011
 20
238883.289816
 10
459522.537703
 20
238886.371393
 10
459518.163143
 20
238888.897983
 10
459514.223122
 20
238891.379668
 10
459511.079758
 20
238893.397536
 10
459506.075823
 20
238896.277255
 10
459497.892056
 20
238901.891884
 10
459489.934146
 20
238907.708319
 10
459484.248932
 20
238911.88005
 10
459489.237212
 20
238918.998332
 10
459494.688643
 20
238926.931492
 10
459499.767204
 20
238934.174217
 10
459502.125407
 20
238937.984561
 10
459501.310309
 20
238938.717023
 10
459500.3221
 20
238939.325584
 10
459498.708465
 20
238937.238647
 10
459493.868012
 20
238930.331133
 10
459489.224939
 20
238923.520493
 10
459484.416396
 20
238916.668092
 10
459481.022798
 20
238911.289644
 10
459484.914844
 20
238908.132179
 10
459489.468021
 20
238904.728757
 10
459494.442537
 20
238901.205516
 10
459500.256245
 20
238897.047975
 10
459506.200348
 20
238893.088367
 10
459511.094408
 20
238890.149335
 10
459517.683983
 20
238886.153268
 10
459524.009762
 20
238882.480744
 10
459529.939164
 20
238878.969716
 10
459536.247019
 20
238875.275562
 10
459542.502565
 20
238871.761076
 10
459548.089832
 20
238868.716187
 10
459554.658457
 20
238865.195746
 10
459560.131663
 20
238862.271718
 10
459563.886551
 20
238860.297003
  0
LWPOLYLINE
  5
4E0
330
40E
100
AcDbEntity
  8
CONTEXT
 62
     0
100
AcDbPolyline
 90
       19
 70
   129
 43
0.0
 38
134.634592
 10
459545.082021
 20
238871.330971
 10
459545.4478235036
 20
238871.5382004295
 10
459545.579207
 20
238871.691826
 10
459545.6100909322
 20
238871.9858347153
 10
459545.4981823608
 20
238872.4222781439
 10
459545.366307
 20
238872.716642
 10
459545.1232886465
 20
238872.864317001
 10
459544.73892
 20
238873.152171
 10
459544.5077915036
 20
238873.2056381439
 10
459544.233149
 20
238873.260578
 10
459543.7747903607
 20
238873.0545615725
 10
459543.5677595035
 20
238872.8083627153
 10
459543.528147
 20
238872.661968
 10
459543.6740726464
 20
238872.5341867153
 10
459543.9426532178
 20
238872.3495375724
 10
459544.345524075
 20
238872.0194072867
 10
459544.470683
 20
238871.938688
 10
459544.737204075
 20
238871.7060632867
 10
459544.9683645375
 20
238871.3898222862
  0
LWPOLYLINE
  5
4E1
330
40E
100
AcDbEntity
  8
CONTEXT
 62
     0
100
AcDbPolyline
 90
       10
 70
   129
 43
0.0
 38
134.911459
 10
459536.541915
 20
238875.64275
 10
459536.5523134876
 20
238875.8077561838
 10
459536.5200838191
 20
238876.1014042753
 10
459536.444125
 20
238876.399242
 10
459536.3016382876
 20
238876.5848493039
 10
459536.0903549047
 20
238876.7173490525
 10
459535.935028
 20
238876.738213
 10
459535.7863174467
 20
238876.675941793
 10
459535.6069098761
 20
238876.4201198867
 10
459535.394512
 20
238876.212194
  0
LWPOLYLINE
  5
4E2
330
40E
100
AcDbEntity
  8
CONTEXT
 62
     0
100
AcDbPolyline
 90
       19
 70
   129
 43
0.0
 38
135.258431
 10
459525.185318
 20
238883.168511
 10
459525.3393834711
 20
238883.122628263
 10
459525.499887
 20
238883.109115
 10
459525.6063525591
 20
238883.2154138977
 10
459525.690167
 20
238883.31746
 10
459525.8309575383
 20
238883.4858566278
 10
459525.908684
 20
238883.619431
 10
459525.9295087027
 20
238883.7562993579
 10
459525.94577
 20
238883.884745
 10
459525.8401250885
 20
238884.0382015257
 10
459525.7187
 20
238884.128419
 10
459525.4436285436
 20
238884.2994767056
 10
459525.368918
 20
238884.326963
 10
459525.3038234035
 20
238884.2719740551
 10
459525.2006884639
 20
238884.1184175897
 10
459525.135478
 20
238884.004613
 10
459525.1067210748
 20
238883.8021371088
 10
459525.097607
 20
238883.58587
 10
459525.1250561751
 20
238883.3460514877
  0
LWPOLYLINE
  5
4E3
330
40E
100
AcDbEntity
  8
CONTEXT
 62
     0
100
AcDbPolyline
 90
       12
 70
   129
 43
0.0
 38
135.323292
 10
459521.47867
 20
238886.468433
 10
459521.4928191088
 20
238886.0896246865
 10
459521.489075
 20
238885.850602
 10
459521.911292
 20
238885.46038
 10
459521.8900945375
 20
238885.2279286865
 10
459521.80951
 20
238884.886593
 10
459522.0691482517
 20
238884.6907675436
 10
459522.579616
 20
238884.620967
 10
459522.954914099
 20
238884.672994946
 10
459523.241081
 20
238884.723453
 10
459523.4400282518
 20
238884.920180115
 10
459523.634994
 20
238885.122494
  0
LWPOLYLINE
  5
4E4
330
40E
100
AcDbEntity
  8
CONTEXT
 62
     0
100
AcDbPolyline
 90
       10
 70
   129
 43
0.0
 38
135.559461
 10
459511.018095
 20
238893.032886
 10
459510.47897
 20
238892.23001
 10
459509.863922
 20
238891.206635
 10
459511.703918
 20
238890.081675
 10
459513.462503
 20
238889.038639
 10
459515.597526
 20
238887.691024
 10
459516.163326
 20
238888.662413
 10
459516.605784
 20
238889.534952
 10
459514.789049
 20
238890.642348
 10
459512.388501
 20
238892.140198
  0
LWPOLYLINE
  5
4E5
330
40E
100
AcDbEntity
  8
CONTEXT
 62
     0
100
AcDbPolyline
 90
       14
 70
   129
 43
0.0
 38
135.862154
 10
459493.886611
 20
238903.445155
 10
459493.8622089808
 20
238903.2473733104
 10
459493.742157
 20
238902.942761
 10
459493.5041015522
 20
238902.9408333515
 10
459493.1993
 20
238902.971472
 10
459493.0972915133
 20
238903.2760219047
 10
459493.047008
 20
238903.409079
 10
459493.0743726378
 20
238903.6312644738
 10
459493.2204804687
 20
238903.866182947
 10
459493.312649
 20
238903.971552
 10
459493.509831271
 20
238903.9492638704
 10
459493.650717
 20
238903.867091
 10
459493.7648037602
 20
238903.7372642727
 10
459493.860872
 20
238903.608236
  0
LWPOLYLINE
  5
4E6
330
40E
100
AcDbEntity
  8
CONTEXT
 62
     0
100
AcDbPolyline
 90
       19
 70
   129
 43
0.0
 38
135.968916
 10
459484.505949
 20
238910.111768
 10
459484.7907021019
 20
238910.1281462443
 10
459485.301895
 20
238910.136213
 10
459485.5237032449
 20
238910.02742853
 10
459485.8146655306
 20
238909.6861073871
 10
459485.897841
 20
238909.480226
 10
459485.7587112449
 20
238909.0985873871
 10
459485.512874
 20
238908.776368
 10
459485.2077400247
 20
238908.510511761
 10
459485.109044
 20
238908.409922
 10
459484.524627
 20
238908.827894
 10
459484.524627
 20
238908.827894
 10
459483.825401
 20
238909.288859
 10
459482.979069
 20
238909.968015
 10
459482.124308
 20
238910.684161
 10
459482.6198543102
 20
238910.6787403326
 10
459483.105306
 20
238910.631264
 10
459483.5116257389
 20
238910.4251974754
 10
459483.897346
 20
238910.282925
  0
LWPOLYLINE
  5
4E7
330
40E
100
AcDbEntity
  8
CONTEXT
 62
     0
100
AcDbPolyline
 90
       16
 70
   129
 43
0.0
 38
136.043783
 10
459485.473566
 20
238914.309586
 10
459485.0386987092
 20
238914.5346063517
 10
459484.803151
 20
238914.752103
 10
459485.1506072806
 20
238915.2899892089
 10
459485.534253
 20
238915.851436
 10
459486.1573102321
 20
238916.8051647296
 10
459486.333942
 20
238917.089872
 10
459486.6396361749
 20
238917.493402444
 10
459486.841031
 20
238917.760663
 10
459486.9970987093
 20
238917.6540577805
 10
459487.21233
 20
238917.485989
 10
459487.5075253422
 20
238917.2411254475
 10
459487.601815
 20
238917.154474
 10
459486.830463
 20
238915.934983
 10
459485.811041
 20
238914.425845
 10
459485.6754258035
 20
238914.2516603009
  0
LWPOLYLINE
  5
4E8
330
40E
100
AcDbEntity
  8
CONTEXT
 62
     0
100
AcDbPolyline
 90
       12
 70
   128
 43
0.0
 38
136.098392
 10
459488.212388
 20
238919.724294
 10
459489.150478
 20
238921.188738
 10
459489.150478
 20
238921.188738
 10
459490.022265
 20
238922.5532
 10
459490.022265
 20
238922.5532
 10
459490.885388
 20
238921.909044
 10
459490.885388
 20
238921.909044
 10
459490.2202
 20
238920.894339
 10
459489.481093
 20
238919.869281
 10
459489.485267
 20
238919.859739
 10
459488.979705
 20
238919.13569
 10
459488.212388
 20
238919.724294
  0
LWPOLYLINE
  5
4E9
330
40E
100
AcDbEntity
  8
CONTEXT
 62
     0
100
AcDbPolyline
 90
       16
 70
   129
 43
0.0
 38
136.064388
 10
459491.071974
 20
238925.738783
 10
459491.0450591432
 20
238925.5437417485
 10
459491.0788351704
 20
238925.2169067589
 10
459491.118506
 20
238925.132137
 10
459491.3915008642
 20
238925.1565961048
 10
459491.670324315
 20
238925.2287913117
 10
459491.75738
 20
238925.282009
 10
459491.8168751922
 20
238925.4426236702
 10
459491.8608794331
 20
238925.592238089
 10
459491.877003
 20
238925.692206
 10
459491.8203074649
 20
238925.8297801874
 10
459491.711046
 20
238925.97768
 10
459491.4985778502
 20
238926.019079225
 10
459491.260935
 20
238926.026382
 10
459491.1421434996
 20
238925.9032013908
 10
459491.071974
 20
238925.738783
  0
LWPOLYLINE
  5
4EA
330
40E
100
AcDbEntity
  8
CONTEXT
 62
     0
100
AcDbPolyline
 90
       19
 70
   129
 43
0.0
 38
136.084794
 10
459494.1811
 20
238928.124177
 10
459493.9524371146
 20
238928.1477333446
 10
459493.725627
 20
238928.146843
 10
459493.2586039716
 20
238927.867961916
 10
459493.121947
 20
238927.776217
 10
459492.9564508288
 20
238927.4035413445
 10
459492.869177
 20
238927.051195
 10
459492.8065007715
 20
238926.715386458
 10
459492.7941834002
 20
238926.4019596302
 10
459492.797635
 20
238926.236843
 10
459493.2306268288
 20
238926.2508830588
 10
459493.607881
 20
238926.251672
 10
459493.9188645431
 20
238926.4747002016
 10
459494.249485
 20
238926.889382
 10
459494.4895982575
 20
238927.2524647731
 10
459494.636389
 20
238927.525331
 10
459494.595248342
 20
238927.8845075983
 10
459494.595248342
 20
238927.8845075983
 10
459494.548555
 20
238928.120964
  0
LWPOLYLINE
  5
4EB
330
40E
100
AcDbEntity
  8
CONTEXT
 62
     0
100
AcDbPolyline
 90
       15
 70
   129
 43
0.0
 38
136.137217
 10
459495.863029
 20
238930.114021
 10
459496.229133069
 20
238930.2168640785
 10
459496.494632
 20
238930.436337
 10
459496.6991490691
 20
238930.6533075071
 10
459496.841265
 20
238930.969866
 10
459496.8881084848
 20
238931.2623011501
 10
459496.9005844977
 20
238931.4590492214
 10
459496.878265
 20
238931.598191
 10
459496.6991490691
 20
238931.5653623643
 10
459496.5018690758
 20
238931.5012138756
 10
459496.23309
 20
238931.329606
 10
459496.0074597509
 20
238931.0454221601
 10
459495.814599
 20
238930.694476
 10
459495.759958
 20
238930.342919
 10
459495.759958
 20
238930.342919
  0
LWPOLYLINE
  5
4EC
330
40E
100
AcDbEntity
  8
CONTEXT
 62
     0
100
AcDbPolyline
 90
       13
 70
   129
 43
0.0
 38
136.159919
 10
459495.813877
 20
238931.966068
 10
459495.9648490105
 20
238931.9368537712
 10
459496.1133633233
 20
238931.9478548315
 10
459496.185244
 20
238931.98529
 10
459496.260044126
 20
238932.0523649034
 10
459496.29706
 20
238932.143071
 10
459496.2765457163
 20
238932.2228813366
 10
459496.2307079654
 20
238932.3053892882
 10
459496.172905
 20
238932.350944
 10
459495.9758500707
 20
238932.3420594888
 10
459495.897427
 20
238932.295018
 10
459495.8475043683
 20
238932.2118802764
 10
459495.8088772047
 20
238932.0563297715
  0
LWPOLYLINE
  5
500
330
40E
100
AcDbEntity
  8
CONTEXT
 62
     0
100
AcDbPolyline
 90
        2
 70
   128
 43
0.0
 38
136.137217
 10
459496.7702070345
 20
238930.8115867535
 10
459498.1739364201
 20
238930.8199454715
  0
MTEXT
  5
501
330
40E
100
AcDbEntity
  8
LABELS
 62
     0
100
AcDbMText
 10
459496.1193649914
 20
238927.5850883285
 30
0.0
 40
0.2
 41
1.698760269093327
 46
0.2923386315233074
 71
     1
 72
     5
  1
{BURIAL 1}
 73
     1
 44
1.0
  0
LWPOLYLINE
  5
502
330
40E
100
AcDbEntity
  8
CONTEXT
 62
     0
100
AcDbPolyline
 90
        2
 70
   128
 43
0.0
 38
136.084794
 10
459494.636389
 20
238927.525331
 10
459496.0975078486
 20
238927.5413740427
  0
MTEXT
  5
503
330
40E
100
AcDbEntity
  8
LABELS
 62
     0
100
AcDbMText
 10
459498.195793563
 20
238930.8527311858
 30
0.0
 40
0.2
 41
0.0
 46
0.2
 71
     1
 72
     5
  1
{BURIAL 2 [020]}
 73
     1
 44
1.0
  0
LWPOLYLINE
  5
504
330
40E
100
AcDbEntity
  8
CONTEXT
 62
     0
100
AcDbPolyline
 90
        3
 70
   128
 43
0.0
 38
134.634592
 10
459545.366307
 20
238872.716642
 10
459545.378927951
 20
238874.8990451755
 10
459546.0607986525
 20
238874.8990451755
  0
MTEXT
  5
505
330
40E
100
AcDbEntity
  8
LABELS
 62
     0
100
AcDbMText
 10
459546.0892099318
 20
238874.955867734
 30
0.0
 40
0.2
 41
0.042616918857675
 46
0.2
 71
     1
 72
     5
  1
{[025]}
 73
     1
 44
1.0
  0
LWPOLYLINE
  5
507
330
40E
100
AcDbEntity
  8
CONTEXT
 62
     0
100
AcDbPolyline
 90
        3
 70
   128
 43
0.0
 38
135.323292
 10
459523.2998701255
 20
238887.5455031467
 10
459522.5534835097
 20
238887.5410922599
 10
459522.556832
 20
238885.7954635
  0
MTEXT
  5
508
330
40E
100
AcDbEntity
  8
LABELS
 62
     0
100
AcDbMText
 10
459523.2998701255
 20
238887.6010022224
 30
0.0
 40
0.2
 41
0.1620495185488835
 46
0.2
 71
     1
 72
     5
  1
{[006]}
 73
     1
 44
1.0
  0
LWPOLYLINE
  5
509
330
40E
100
AcDbEntity
  8
CONTEXT
 62
     0
100
AcDbPolyline
 90
        3
 70
   128
 43
0.0
 38
134.911459
 10
459536.0903549047
 20
238876.7173490525
 10
459536.0887396772
 20
238878.7582854966
 10
459537.3491740895
 20
238878.82677683
  0
MTEXT
  5
50A
330
40E
100
AcDbEntity
  8
LABELS
 62
     0
100
AcDbMText
 10
459537.4063917987
 20
238878.8519654846
 30
0.0
 40
0.2
 41
0.0568225584574975
 46
0.2
 71
     1
 72
     5
  1
{[024]}
 73
     1
 44
1.0
  0
LWPOLYLINE
  5
50B
330
40E
100
AcDbEntity
  8
CONTEXT
 62
     0
100
AcDbPolyline
 90
        3
 70
   128
 43
0.0
 38
135.258431
 10
459525.9076793186
 20
238883.9762050372
 10
459525.9106998024
 20
238885.5811606156
 10
459526.8166959657
 20
238885.5920230931
  0
MTEXT
  5
50C
330
40E
100
AcDbEntity
  8
LABELS
 62
     0
100
AcDbMText
 10
459526.8386180191
 20
238885.641195675
 30
0.0
 40
0.2
 41
0.0294635488535278
 46
0.2
 71
     1
 72
     5
  1
{[016]}
 73
     1
 44
1.0
  0
LWPOLYLINE
  5
50D
330
40E
100
AcDbEntity
  8
CONTEXT
 62
     0
100
AcDbPolyline
 90
        3
 70
   128
 43
0.0
 38
135.862154
 10
459493.860872
 20
238903.608236
 10
459493.85917629
 20
238905.3404025949
 10
459495.0112650272
 20
238905.3462212249
  0
MTEXT
  5
50E
330
40E
100
AcDbEntity
  8
LABELS
 62
     0
100
AcDbMText
 10
459495.0112650272
 20
238905.3753143748
 30
0.0
 40
0.2
 41
0.0581862998660654
 46
0.2
 71
     1
 72
     5
  1
{[014]}
 73
     1
 44
1.0
  0
LWPOLYLINE
  5
50F
330
40E
100
AcDbEntity
  8
CONTEXT
 62
     0
100
AcDbPolyline
 90
        2
 70
   128
 43
0.0
 38
136.064388
 10
459491.75738
 20
238925.282009
 10
459494.8039200443
 20
238925.2714757768
  0
MTEXT
  5
510
330
40E
100
AcDbEntity
  8
LABELS
 62
     0
100
AcDbMText
 10
459494.8380135794
 20
238925.3396628469
 30
0.0
 40
0.2
 41
0.6932352131698281
 46
0.2
 71
     1
 72
     5
  1
{(017)}
 73
     1
 44
1.0
  0
LWPOLYLINE
  5
511
330
40E
100
AcDbEntity
  8
CONTEXT
 62
     0
100
AcDbPolyline
 90
        3
 70
   128
 43
0.0
 38
135.968916
 10
459485.4127991224
 20
238910.081820765
 10
459485.4218163624
 20
238912.0822537693
 10
459486.9560254407
 20
238912.0822537693
  0
MTEXT
  5
512
330
40E
100
AcDbEntity
  8
LABELS
 62
     0
100
AcDbMText
 10
459486.9560254407
 20
238912.1390763278
 30
0.0
 40
0.2
 41
0.22729023382999
 46
0.2
 71
     1
 72
     5
  1
{[027]}
 73
     1
 44
1.0
  0
LWPOLYLINE
  5
513
330
40E
100
AcDbEntity
  8
CONTEXT
 62
     0
100
AcDbPolyline
 90
        2
 70
   128
 43
0.0
 38
136.043783
 10
459486.830463
 20
238915.934983
 10
459489.6160314584
 20
238915.9390849245
  0
LWPOLYLINE
  5
514
330
40E
100
AcDbEntity
  8
CONTEXT
 62
     0
100
AcDbPolyline
 90
        2
 70
   128
 43
0.0
 38
136.098392
 10
459489.9286266805
 20
238920.4899597102
 10
459492.1908036384
 20
238920.4848896011
  0
MTEXT
  5
515
330
40E
100
AcDbEntity
  8
LABELS
 62
     0
100
AcDbMText
 10
459489.633788508
 20
238915.956841974
 30
0.0
 40
0.2
 41
0.1065422971150838
 46
0.2
 71
     1
 72
     5
  1
{[009]}
 73
     1
 44
1.0
  0
MTEXT
  5
516
330
40E
100
AcDbEntity
  8
LABELS
 62
     0
100
AcDbMText
 10
459492.208560688
 20
238920.5381607496
 30
0.0
 40
0.2
 41
0.0532711485866457
 46
0.2
 71
     1
 72
     5
  1
{[018]}
 73
     1
 44
1.0
  0
LWPOLYLINE
  5
517
330
40E
100
AcDbEntity
  8
CONTEXT
 62
     0
100
AcDbPolyline
 90
        3
 70
   128
 43
0.0
 38
135.559461
 10
459513.693027065
 20
238891.3262237048
 10
459513.6915034546
 20
238894.0086477585
 10
459514.6290756691
 20
238894.0228533982
  0
MTEXT
  5
518
330
40E
100
AcDbEntity
  8
LABELS
 62
     0
100
AcDbMText
 10
459514.671692588
 20
238894.0512646774
 30
0.0
 40
0.2
 41
1.879341378691606
 46
0.3280718978572017
 71
     1
 72
     5
  1
{SONDAGE 1}
 73
     1
 44
1.0
  0
VIEWPORT
  5
4F7
330
40C
100
AcDbEntity
 67
     1
  8
0
100
AcDbViewport
 10
0.0
 20
0.0
 30
0.0
 40
8.976000000000003
 41
6.936000000000003
 68
     1
 69
     1
 12
5.250000000000001
 22
3.500000000000001
 13
0.0
 23
0.0
 14
0.5
 24
0.5
 15
0.0
 25
0.0
 16
0.0
 26
0.0
 36
1.0
 17
0.0
 27
0.0
 37
0.0
 42
50.0
 43
0.0
 44
0.0
 45
6.936000000000003
 50
0.0
 51
0.0
 72
   100
 90
   557152
  1

281
     0
 71
     1
 74
     0
110
0.0
120
0.0
130
0.0
111
1.0
121
0.0
131
0.0
112
0.0
122
1.0
132
0.0
 79
     0
146
0.0
170
     0
 61
     5
348
44D
292
     1
282
     1
141
0.0
142
0.0
 63
   256
  0
VIEWPORT
  5
4F8
102
{ACAD_XDICTIONARY
360
4F9
102
}
330
40C
100
AcDbEntity
 67
     1
  8
0
100
AcDbViewport
 10
5.25
 20
3.5
 30
0.0
 40
8.4
 41
5.600000000000001
 68
     2
 69
     2
 12
463547.4100565
 22
236197.3647
 13
0.0
 23
0.0
 14
0.5
 24
0.5
 15
0.0
 25
0.0
 16
0.0
 26
0.0
 36
1.0
 17
0.0
 27
0.0
 37
0.0
 42
50.0
 43
0.0
 44
0.0
 45
5594.416203360048
 50
0.0
 51
0.0
 72
   100
 90
   557152
  1

281
     0
 71
     1
 74
     0
110
0.0
120
0.0
130
0.0
111
1.0
121
0.0
131
0.0
112
0.0
122
1.0
132
0.0
 79
     0
146
0.0
170
     0
 61
     5
348
44D
292
     1
282
     1
141
0.0
142
0.0
 63
   256
  0
ENDSEC
  0
SECTION
  2
OBJECTS
  0
DICTIONARY
  5
3FE
330
0
100
AcDbDictionary
281
     1
  3
ACAD_DETAILVIEWSTYLE
350
47A
  3
ACAD_GROUP
350
3FF
  3
ACAD_LAYOUT
350
40B
  3
ACAD_MATERIAL
350
419
  3
ACAD_MLEADERSTYLE
350
463
  3
ACAD_MLINESTYLE
350
408
  3
ACAD_PLOTSETTINGS
350
40A
  3
ACAD_PLOTSTYLENAME
350
400
  3
ACAD_SCALELIST
350
426
  3
ACAD_SECTIONVIEWSTYLE
350
47B
  3
ACAD_TABLESTYLE
350
461
  3
ACAD_VISUALSTYLE
350
448
  3
ACDB_RECOMPOSE_DATA
350
524
  3
AcDbVariableDictionary
350
475
  3
APPDATA
350
465
  0
SUN
  5
4F3
330
411
100
AcDbSun
 90
        1
290
     0
 63
     7
421
 16777215
 40
1.0
291
     1
 91
  2455826
 92
 54000000
292
     0
 70
     2
 71
   256
280
     1
  0
DICTIONARY
  5
466
330
3F5
100
AcDbDictionary
280
     1
281
     1
  3
ACAD_LAYERSTATES
360
467
  3
ACLYDICTIONARY
360
470
  0
DICTIONARY
  5
4F1
330
40E
100
AcDbDictionary
280
     1
281
     1
  3
DIM_BOUNDING_BOXES_V1
360
4F2
  0
DICTIONARY
  5
4A3
330
47F
100
AcDbDictionary
280
     1
281
     1
  3
DIM_BOUNDING_BOXES_V1
360
4A4
  0
DICTIONARY
  5
4CE
330
4AA
100
AcDbDictionary
280
     1
281
     1
  3
DIM_BOUNDING_BOXES_V1
360
4CF
  0
DICTIONARY
  5
4F9
330
4F8
100
AcDbDictionary
280
     1
281
     1
  3
ASDK_XREC_ANNOTATION_SCALE_INFO
360
4FA
  0
DICTIONARY
  5
47A
102
{ACAD_REACTORS
330
3FE
102
}
330
3FE
100
AcDbDictionary
281
     1
  0
DICTIONARY
  5
3FF
102
{ACAD_REACTORS
330
3FE
102
}
330
3FE
100
AcDbDictionary
281
     1
  0
DICTIONARY
  5
40B
102
{ACAD_REACTORS
330
3FE
102
}
330
3FE
100
AcDbDictionary
281
     1
  3
Model
350
40F
  3
Sheet1
350
40D
  0
DICTIONARY
  5
419
102
{ACAD_REACTORS
330
3FE
102
}
330
3FE
100
AcDbDictionary
281
     1
  3
ByBlock
350
41B
  3
ByLayer
350
41A
  3
Global
350
41C
  0
DICTIONARY
  5
463
102
{ACAD_REACTORS
330
3FE
102
}
330
3FE
100
AcDbDictionary
281
     1
  3
Standard
350
464
  0
DICTIONARY
  5
408
102
{ACAD_REACTORS
330
3FE
102
}
330
3FE
100
AcDbDictionary
281
     1
  3
Standard
350
409
  0
DICTIONARY
  5
40A
102
{ACAD_REACTORS
330
3FE
102
}
330
3FE
100
AcDbDictionary
281
     1
  0
ACDBDICTIONARYWDFLT
  5
400
102
{ACAD_REACTORS
330
3FE
102
}
330
3FE
100
AcDbDictionary
281
     1
  3
Normal
350
401
100
AcDbDictionaryWithDefault
340
401
  0
DICTIONARY
  5
426
102
{ACAD_REACTORS
330
3FE
102
}
330
3FE
100
AcDbDictionary
281
     1
  3
A0
350
427
  3
A1
350
428
  3
A2
350
429
  3
A3
350
42A
  3
A4
350
42B
  3
A5
350
42C
  3
A6
350
42D
  3
A7
350
42E
  3
A8
350
42F
  3
A9
350
430
  3
B0
350
431
  3
B1
350
432
  3
B2
350
433
  3
B3
350
434
  3
B4
350
435
  3
B5
350
436
  3
B6
350
437
  3
B7
350
438
  3
B8
350
439
  3
B9
350
43A
  3
C0
350
43B
  3
C1
350
43C
  3
C2
350
43D
  3
C3
350
43E
  3
C4
350
43F
  3
C5
350
440
  3
C6
350
441
  3
C7
350
442
  3
C8
350
443
  3
C9
350
444
  3
D0
350
445
  3
D1
350
446
  3
D2
350
447
  0
DICTIONARY
  5
47B
102
{ACAD_REACTORS
330
3FE
102
}
330
3FE
100
AcDbDictionary
281
     1
  0
DICTIONARY
  5
461
102
{ACAD_REACTORS
330
3FE
102
}
330
3FE
100
AcDbDictionary
281
     1
  3
Standard
350
462
  0
DICTIONARY
  5
448
102
{ACAD_REACTORS
330
3FE
102
}
330
3FE
100
AcDbDictionary
281
     1
  3
2dWireframe
350
44D
  3
Basic
350
450
  3
Brighten
350
454
  3
ColorChange
350
458
  3
Conceptual
350
452
  3
Dim
350
453
  3
EdgeColorOff
350
45B
  3
Facepattern
350
457
  3
Flat
350
449
  3
FlatWithEdges
350
44A
  3
Gouraud
350
44B
  3
GouraudWithEdges
350
44C
  3
Hidden
350
44F
  3
JitterOff
350
459
  3
Linepattern
350
456
  3
OverhangOff
350
45A
  3
Realistic
350
451
  3
Shaded
350
460
  3
Shaded with edges
350
45F
  3
Shades of Gray
350
45C
  3
Sketchy
350
45D
  3
Thicken
350
455
  3
Wireframe
350
44E
  3
X-Ray
350
45E
  0
XRECORD
  5
524
102
{ACAD_REACTORS
330
3FE
102
}
330
3FE
100
AcDbXrecord
280
     1
 90
        1
330
462
  0
DICTIONARY
  5
475
102
{ACAD_REACTORS
330
3FE
102
}
330
3FE
100
AcDbDictionary
281
     1
  3
CANNOSCALE
350
476
  3
CMLEADERSTYLE
350
478
  3
CTABLESTYLE
350
477
  3
MSLTSCALE
350
479
  0
DICTIONARY
  5
465
102
{ACAD_REACTORS
330
3FE
102
}
330
3FE
100
AcDbDictionary
281
     1
  0
DICTIONARY
  5
467
102
{ACAD_REACTORS
330
466
102
}
330
466
100
AcDbDictionary
281
     1
  0
DICTIONARY
  5
470
102
{ACAD_REACTORS
330
466
102
}
330
466
100
AcDbDictionary
281
     1
1001
ACAD
1000
<All
  0
DICTIONARY
  5
4F2
102
{ACAD_REACTORS
330
4F1
102
}
330
4F1
100
AcDbDictionary
281
     1
  0
DICTIONARY
  5
4A4
102
{ACAD_REACTORS
330
4A3
102
}
330
4A3
100
AcDbDictionary
281
     1
  0
DICTIONARY
  5
4CF
102
{ACAD_REACTORS
330
4CE
102
}
330
4CE
100
AcDbDictionary
281
     1
  0
XRECORD
  5
4FA
102
{ACAD_REACTORS
330
4F9
102
}
330
4F9
100
AcDbXrecord
280
     1
 90
        1
340
427
  0
LAYOUT
  5
40F
102
{ACAD_REACTORS
330
40B
102
}
330
40B
100
AcDbPlotSettings
  1

  2
none_device
  4
Letter_(8.50_x_11.00_Inches)
  6

 40
6.35
 41
6.35
 42
6.35
 43
6.35
 44
215.9
 45
279.4
 46
0.0
 47
0.0
 48
0.0
 49
0.0
140
0.0
141
0.0
142
1.0
143
1.0
 70
  1712
 72
     0
 73
     0
 74
     0
  7

 75
     0
 76
     0
 77
     2
 78
   300
147
1.0
148
0.0
149
0.0
100
AcDbLayout
  1
Model
 70
     1
 71
     0
 10
0.0
 20
0.0
 11
12.0
 21
9.0
 12
0.0
 22
0.0
 32
0.0
 14
459478.372798
 24
233455.003816
 34
0.0
 15
467616.447315
 25
238939.725584
 35
136.517525
146
0.0
 13
0.0
 23
0.0
 33
0.0
 16
1.0
 26
0.0
 36
0.0
 17
0.0
 27
1.0
 37
0.0
 76
     0
330
40E
331
411
  0
LAYOUT
  5
40D
102
{ACAD_REACTORS
330
40B
102
}
330
40B
100
AcDbPlotSettings
  1

  2
none_device
  4

  6

 40
0.0
 41
0.0
 42
0.0
 43
0.0
 44
0.0
 45
0.0
 46
0.0
 47
0.0
 48
0.0
 49
0.0
140
0.0
141
0.0
142
1.0
143
1.0
 70
   688
 72
     0
 73
     0
 74
     5
  7

 75
    16
 76
     0
 77
     2
 78
   300
147
1.0
148
0.0
149
0.0
100
AcDbLayout
  1
Sheet1
 70
     1
 71
     1
 10
0.0
 20
0.0
 11
0.0
 21
0.0
 12
0.0
 22
0.0
 32
0.0
 14
1.05
 24
0.6999999999999997
 34
0.0
 15
9.45
 25
6.300000000000001
 35
0.0
146
0.0
 13
0.0
 23
0.0
 33
0.0
 16
1.0
 26
0.0
 36
0.0
 17
0.0
 27
1.0
 37
0.0
 76
     0
330
40C
331
4F7
  0
MATERIAL
  5
41B
102
{ACAD_REACTORS
330
419
102
}
330
419
100
AcDbMaterial
  1
ByBlock
 72
     1
 94
      127
  0
MATERIAL
  5
41A
102
{ACAD_REACTORS
330
419
102
}
330
419
100
AcDbMaterial
  1
ByLayer
 72
     1
 94
      127
  0
MATERIAL
  5
41C
102
{ACAD_REACTORS
330
419
102
}
330
419
100
AcDbMaterial
  1
Global
 72
     1
 94
      127
  0
MLEADERSTYLE
  5
464
102
{ACAD_REACTORS
330
463
102
}
330
463
100
AcDbMLeaderStyle
179
     2
170
     2
171
     1
172
     0
 90
        2
 40
0.0
 41
0.0
173
     1
 91
-1056964608
340
405
 92
       -2
290
     1
 42
0.09
291
     1
 43
0.36
  3
Standard
341
0
 44
0.18
300

342
403
174
     1
178
     1
175
     1
176
     0
 93
-1056964608
 45
0.18
292
     0
297
     0
 46
0.18
343
0
 94
-1056964608
 47
1.0
 49
1.0
140
1.0
293
     1
141
0.0
294
     1
177
     0
142
1.0
295
     0
296
     0
143
0.125
271
     0
272
     9
273
     9
298
     0
  0
MLINESTYLE
  5
409
102
{ACAD_REACTORS
330
408
102
}
330
408
100
AcDbMlineStyle
  2
Standard
 70
     0
  3

 62
   256
 51
90.0
 52
90.0
 71
     2
 49
0.5
 62
   256
  6
BYLAYER
 49
-0.5
 62
   256
  6
BYLAYER
  0
ACDBPLACEHOLDER
  5
401
102
{ACAD_REACTORS
330
400
102
}
330
400
  0
SCALE
  5
427
102
{ACAD_REACTORS
330
426
102
}
330
426
100
AcDbScale
 70
     0
300
1:1
140
1.0
141
1.0
290
     1
  0
SCALE
  5
428
102
{ACAD_REACTORS
330
426
102
}
330
426
100
AcDbScale
 70
     0
300
1:2
140
1.0
141
2.0
290
     0
  0
SCALE
  5
429
102
{ACAD_REACTORS
330
426
102
}
330
426
100
AcDbScale
 70
     0
300
1:4
140
1.0
141
4.0
290
     0
  0
SCALE
  5
42A
102
{ACAD_REACTORS
330
426
102
}
330
426
100
AcDbScale
 70
     0
300
1:5
140
1.0
141
5.0
290
     0
  0
SCALE
  5
42B
102
{ACAD_REACTORS
330
426
102
}
330
426
100
AcDbScale
 70
     0
300
1:8
140
1.0
141
8.0
290
     0
  0
SCALE
  5
42C
102
{ACAD_REACTORS
330
426
102
}
330
426
100
AcDbScale
 70
     0
300
1:10
140
1.0
141
10.0
290
     0
  0
SCALE
  5
42D
102
{ACAD_REACTORS
330
426
102
}
330
426
100
AcDbScale
 70
     0
300
1:16
140
1.0
141
16.0
290
     0
  0
SCALE
  5
42E
102
{ACAD_REACTORS
330
426
102
}
330
426
100
AcDbScale
 70
     0
300
1:20
140
1.0
141
20.0
290
     0
  0
SCALE
  5
42F
102
{ACAD_REACTORS
330
426
102
}
330
426
100
AcDbScale
 70
     0
300
1:30
140
1.0
141
30.0
290
     0
  0
SCALE
  5
430
102
{ACAD_REACTORS
330
426
102
}
330
426
100
AcDbScale
 70
     0
300
1:40
140
1.0
141
40.0
290
     0
  0
SCALE
  5
431
102
{ACAD_REACTORS
330
426
102
}
330
426
100
AcDbScale
 70
     0
300
1:50
140
1.0
141
50.0
290
     0
  0
SCALE
  5
432
102
{ACAD_REACTORS
330
426
102
}
330
426
100
AcDbScale
 70
     0
300
1:100
140
1.0
141
100.0
290
     0
  0
SCALE
  5
433
102
{ACAD_REACTORS
330
426
102
}
330
426
100
AcDbScale
 70
     0
300
2:1
140
2.0
141
1.0
290
     0
  0
SCALE
  5
434
102
{ACAD_REACTORS
330
426
102
}
330
426
100
AcDbScale
 70
     0
300
4:1
140
4.0
141
1.0
290
     0
  0
SCALE
  5
435
102
{ACAD_REACTORS
330
426
102
}
330
426
100
AcDbScale
 70
     0
300
8:1
140
8.0
141
1.0
290
     0
  0
SCALE
  5
436
102
{ACAD_REACTORS
330
426
102
}
330
426
100
AcDbScale
 70
     0
300
10:1
140
10.0
141
1.0
290
     0
  0
SCALE
  5
437
102
{ACAD_REACTORS
330
426
102
}
330
426
100
AcDbScale
 70
     0
300
100:1
140
100.0
141
1.0
290
     0
  0
SCALE
  5
438
102
{ACAD_REACTORS
330
426
102
}
330
426
100
AcDbScale
 70
     0
300
1/128" = 1'-0"
140
0.0078125
141
12.0
290
     0
  0
SCALE
  5
439
102
{ACAD_REACTORS
330
426
102
}
330
426
100
AcDbScale
 70
     0
300
1/64" = 1'-0"
140
0.015625
141
12.0
290
     0
  0
SCALE
  5
43A
102
{ACAD_REACTORS
330
426
102
}
330
426
100
AcDbScale
 70
     0
300
1/32" = 1'-0"
140
0.03125
141
12.0
290
     0
  0
SCALE
  5
43B
102
{ACAD_REACTORS
330
426
102
}
330
426
100
AcDbScale
 70
     0
300
1/16" = 1'-0"
140
0.0625
141
12.0
290
     0
  0
SCALE
  5
43C
102
{ACAD_REACTORS
330
426
102
}
330
426
100
AcDbScale
 70
     0
300
3/32" = 1'-0"
140
0.09375
141
12.0
290
     0
  0
SCALE
  5
43D
102
{ACAD_REACTORS
330
426
102
}
330
426
100
AcDbScale
 70
     0
300
1/8" = 1'-0"
140
0.125
141
12.0
290
     0
  0
SCALE
  5
43E
102
{ACAD_REACTORS
330
426
102
}
330
426
100
AcDbScale
 70
     0
300
3/16" = 1'-0"
140
0.1875
141
12.0
290
     0
  0
SCALE
  5
43F
102
{ACAD_REACTORS
330
426
102
}
330
426
100
AcDbScale
 70
     0
300
1/4" = 1'-0"
140
0.25
141
12.0
290
     0
  0
SCALE
  5
440
102
{ACAD_REACTORS
330
426
102
}
330
426
100
AcDbScale
 70
     0
300
3/8" = 1'-0"
140
0.375
141
12.0
290
     0
  0
SCALE
  5
441
102
{ACAD_REACTORS
330
426
102
}
330
426
100
AcDbScale
 70
     0
300
1/2" = 1'-0"
140
0.5
141
12.0
290
     0
  0
SCALE
  5
442
102
{ACAD_REACTORS
330
426
102
}
330
426
100
AcDbScale
 70
     0
300
3/4" = 1'-0"
140
0.75
141
12.0
290
     0
  0
SCALE
  5
443
102
{ACAD_REACTORS
330
426
102
}
330
426
100
AcDbScale
 70
     0
300
1" = 1'-0"
140
1.0
141
12.0
290
     0
  0
SCALE
  5
444
102
{ACAD_REACTORS
330
426
102
}
330
426
100
AcDbScale
 70
     0
300
1-1/2" = 1'-0"
140
1.5
141
12.0
290
     0
  0
SCALE
  5
445
102
{ACAD_REACTORS
330
426
102
}
330
426
100
AcDbScale
 70
     0
300
3" = 1'-0"
140
3.0
141
12.0
290
     0
  0
SCALE
  5
446
102
{ACAD_REACTORS
330
426
102
}
330
426
100
AcDbScale
 70
     0
300
6" = 1'-0"
140
6.0
141
12.0
290
     0
  0
SCALE
  5
447
102
{ACAD_REACTORS
330
426
102
}
330
426
100
AcDbScale
 70
     0
300
1'-0" = 1'-0"
140
12.0
141
12.0
290
     0
  0
TABLESTYLE
  5
462
102
{ACAD_REACTORS
330
461
102
}
102
{ACAD_XDICTIONARY
360
522
102
}
330
461
100
AcDbTableStyle
  3
Standard
 70
     0
 71
     0
 40
0.06
 41
0.06
280
     0
281
     0
  7
STANDARD
140
0.18
170
     2
 62
     0
 63
   257
283
     0
 90
        4
 91
        0
  1

274
    -2
284
     1
 64
     0
275
    -2
285
     1
 65
     0
276
    -2
286
     1
 66
     0
277
    -2
287
     1
 67
     0
278
    -2
288
     1
 68
     0
279
    -2
289
     1
 69
     0
  7
STANDARD
140
0.25
170
     5
 62
     0
 63
   257
283
     0
 90
        4
 91
        0
  1

274
    -2
284
     1
 64
     0
275
    -2
285
     1
 65
     0
276
    -2
286
     1
 66
     0
277
    -2
287
     1
 67
     0
278
    -2
288
     1
 68
     0
279
    -2
289
     1
 69
     0
  7
STANDARD
140
0.18
170
     5
 62
     0
 63
   257
283
     0
 90
        4
 91
        0
  1

274
    -2
284
     1
 64
     0
275
    -2
285
     1
 65
     0
276
    -2
286
     1
 66
     0
277
    -2
287
     1
 67
     0
278
    -2
288
     1
 68
     0
279
    -2
289
     1
 69
     0
  0
VISUALSTYLE
  5
44D
102
{ACAD_REACTORS
330
448
102
}
330
448
100
AcDbVisualStyle
  2
2dWireframe
 70
     4
177
     3
291
     0
 70
    58
 90
        0
176
     1
 90
        2
176
     1
 90
        0
176
     1
 90
        0
176
     1
 40
0.6
176
     1
 40
30.0
176
     1
 62
     7
420
 16777215
176
     1
 90
        1
176
     1
 90
        4
176
     1
 62
     7
176
     1
 62
   257
176
     1
 90
        1
176
     1
 90
        1
176
     1
 40
1.0
176
     1
 90
        0
176
     1
 62
   257
176
     1
 40
1.0
176
     1
 90
        1
176
     1
 90
        6
176
     1
 90
        2
176
     1
 62
     7
176
     1
 90
        5
176
     1
 90
        0
176
     1
 90
        0
176
     1
290
     0
176
     1
 90
        1
176
     1
 40
0.0
176
     1
 90
        0
176
     1
290
     1
176
     1
290
     1
176
     1
290
     0
176
     1
290
     0
176
     1
290
     0
176
     1
290
     0
176
     1
290
     0
176
     1
290
     0
176
     1
290
     0
176
     1
 90
       50
176
     1
 40
0.0
176
     1
 40
1.0
176
     1
 90
        0
176
     1
 62
    18
420
        0
176
     1
 90
       50
176
     1
 90
        3
176
     1
 62
     5
420
      255
176
     1
290
     0
176
     1
 90
       50
176
     1
 90
       50
176
     1
 90
       50
176
     1
290
     0
176
     1
 90
       50
176
     1
 62
   256
176
     0
 40
1.0
176
     0
 90
        2
176
     1
  1
strokes_ogs.tif
176
     1
290
     0
176
     1
 40
1.0
176
     1
 40
1.0
176
     1
  0
VISUALSTYLE
  5
450
102
{ACAD_REACTORS
330
448
102
}
330
448
100
AcDbVisualStyle
  2
Basic
 70
     7
177
     3
291
     1
 70
    58
 90
        1
176
     1
 90
        0
176
     1
 90
        1
176
     1
 90
        0
176
     1
 40
0.6
176
     1
 40
30.0
176
     1
 62
     7
420
 16777215
176
     1
 90
        0
176
     1
 90
        4
176
     1
 62
     7
176
     1
 62
   257
176
     1
 90
        1
176
     1
 90
        1
176
     1
 40
1.0
176
     1
 90
        8
176
     1
 62
     7
176
     1
 40
1.0
176
     1
 90
        1
176
     1
 90
        6
176
     1
 90
        2
176
     1
 62
     7
176
     1
 90
        5
176
     1
 90
        0
176
     1
 90
        0
176
     1
290
     0
176
     1
 90
        1
176
     1
 40
0.0
176
     1
 90
        0
176
     1
290
     0
176
     1
290
     1
176
     1
290
     1
176
     1
290
     0
176
     1
290
     0
176
     1
290
     0
176
     1
290
     0
176
     1
290
     0
176
     1
290
     0
176
     1
 90
       50
176
     1
 40
0.0
176
     1
 40
1.0
176
     1
 90
        0
176
     1
 62
    18
420
        0
176
     1
 90
       50
176
     1
 90
        3
176
     1
 62
     5
420
      255
176
     1
290
     0
176
     1
 90
       50
176
     1
 90
       50
176
     1
 90
       50
176
     1
290
     0
176
     1
 90
       50
176
     1
 62
   256
176
     0
 40
1.0
176
     0
 90
        2
176
     1
  1
strokes_ogs.tif
176
     1
290
     0
176
     1
 40
1.0
176
     1
 40
1.0
176
     1
  0
VISUALSTYLE
  5
454
102
{ACAD_REACTORS
330
448
102
}
330
448
100
AcDbVisualStyle
  2
Brighten
 70
    12
177
     3
291
     1
 70
    58
 90
        2
176
     1
 90
        2
176
     1
 90
        0
176
     1
 90
        0
176
     1
 40
0.6
176
     1
 40
30.0
176
     1
 62
     7
420
 16777215
176
     1
 90
        1
176
     1
 90
        4
176
     1
 62
     7
176
     1
 62
   257
176
     1
 90
        1
176
     1
 90
        1
176
     1
 40
1.0
176
     1
 90
        8
176
     1
 62
     7
176
     1
 40
1.0
176
     1
 90
        1
176
     1
 90
        6
176
     1
 90
        2
176
     1
 62
     7
176
     1
 90
        5
176
     1
 90
        0
176
     1
 90
        0
176
     1
290
     0
176
     1
 90
        1
176
     1
 40
50.0
176
     1
 90
        0
176
     1
290
     0
176
     1
290
     1
176
     1
290
     1
176
     1
290
     0
176
     1
290
     0
176
     1
290
     0
176
     1
290
     0
176
     1
290
     0
176
     1
290
     0
176
     1
 90
       50
176
     1
 40
0.0
176
     1
 40
1.0
176
     1
 90
        0
176
     1
 62
    18
420
        0
176
     1
 90
       50
176
     1
 90
        3
176
     1
 62
     5
420
      255
176
     1
290
     0
176
     1
 90
       50
176
     1
 90
       50
176
     1
 90
       50
176
     1
290
     0
176
     1
 90
       50
176
     1
 62
   256
176
     0
 40
1.0
176
     0
 90
        2
176
     1
  1
strokes_ogs.tif
176
     1
290
     0
176
     1
 40
1.0
176
     1
 40
1.0
176
     1
  0
VISUALSTYLE
  5
458
102
{ACAD_REACTORS
330
448
102
}
330
448
100
AcDbVisualStyle
  2
ColorChange
 70
    16
177
     3
291
     1
 70
    58
 90
        2
176
     1
 90
        2
176
     1
 90
        3
176
     1
 90
        0
176
     1
 40
0.6
176
     1
 40
30.0
176
     1
 62
     8
420
  8421504
176
     1
 90
        1
176
     1
 90
        4
176
     1
 62
     7
176
     1
 62
   257
176
     1
 90
        1
176
     1
 90
        1
176
     1
 40
1.0
176
     1
 90
        8
176
     1
 62
     8
420
  8421504
176
     1
 40
1.0
176
     1
 90
        1
176
     1
 90
        6
176
     1
 90
        2
176
     1
 62
     7
176
     1
 90
        5
176
     1
 90
        0
176
     1
 90
        0
176
     1
290
     0
176
     1
 90
        1
176
     1
 40
0.0
176
     1
 90
        0
176
     1
290
     0
176
     1
290
     1
176
     1
290
     1
176
     1
290
     0
176
     1
290
     0
176
     1
290
     0
176
     1
290
     0
176
     1
290
     0
176
     1
290
     0
176
     1
 90
       50
176
     1
 40
0.0
176
     1
 40
1.0
176
     1
 90
        0
176
     1
 62
    18
420
        0
176
     1
 90
       50
176
     1
 90
        3
176
     1
 62
     5
420
      255
176
     1
290
     0
176
     1
 90
       50
176
     1
 90
       50
176
     1
 90
       50
176
     1
290
     0
176
     1
 90
       50
176
     1
 62
   256
176
     0
 40
1.0
176
     0
 90
        2
176
     1
  1
strokes_ogs.tif
176
     1
290
     0
176
     1
 40
1.0
176
     1
 40
1.0
176
     1
  0
VISUALSTYLE
  5
452
102
{ACAD_REACTORS
330
448
102
}
330
448
100
AcDbVisualStyle
  2
Conceptual
 70
     9
177
     3
291
     0
 70
    58
 90
        3
176
     1
 90
        2
176
     1
 90
        0
176
     1
 90
        0
176
     1
 40
0.6
176
     1
 40
30.0
176
     1
 62
     7
420
 16777215
176
     1
 90
        2
176
     1
 90
        2
176
     1
 62
     7
176
     1
 62
   257
176
     1
 90
        1
176
     1
 90
        1
176
     1
 40
179.0
176
     1
 90
        8
176
     1
 62
     7
176
     1
 40
1.0
176
     1
 90
        1
176
     1
 90
        6
176
     1
 90
        2
176
     1
 62
     7
176
     1
 90
        3
176
     1
 90
        0
176
     1
 90
        0
176
     1
290
     0
176
     1
 90
        1
176
     1
 40
0.0
176
     1
 90
        0
176
     1
290
     0
176
     1
290
     1
176
     1
290
     1
176
     1
290
     0
176
     1
290
     0
176
     1
290
     0
176
     1
290
     0
176
     1
290
     0
176
     1
290
     0
176
     1
 90
       50
176
     1
 40
0.0
176
     1
 40
1.0
176
     1
 90
        0
176
     1
 62
    18
420
        0
176
     1
 90
       50
176
     1
 90
        3
176
     1
 62
     5
420
      255
176
     1
290
     0
176
     1
 90
       50
176
     1
 90
       50
176
     1
 90
       50
176
     1
290
     0
176
     1
 90
       50
176
     1
 62
   256
176
     0
 40
1.0
176
     0
 90
        2
176
     1
  1
strokes_ogs.tif
176
     1
290
     0
176
     1
 40
1.0
176
     1
 40
1.0
176
     1
  0
VISUALSTYLE
  5
453
102
{ACAD_REACTORS
330
448
102
}
330
448
100
AcDbVisualStyle
  2
Dim
 70
    11
177
     3
291
     1
 70
    58
 90
        2
176
     1
 90
        2
176
     1
 90
        0
176
     1
 90
        0
176
     1
 40
0.6
176
     1
 40
30.0
176
     1
 62
     7
420
 16777215
176
     1
 90
        1
176
     1
 90
        4
176
     1
 62
     7
176
     1
 62
   257
176
     1
 90
        1
176
     1
 90
        1
176
     1
 40
1.0
176
     1
 90
        8
176
     1
 62
     7
176
     1
 40
1.0
176
     1
 90
        1
176
     1
 90
        6
176
     1
 90
        2
176
     1
 62
     7
176
     1
 90
        5
176
     1
 90
        0
176
     1
 90
        0
176
     1
290
     0
176
     1
 90
        1
176
     1
 40
-50.0
176
     1
 90
        0
176
     1
290
     0
176
     1
290
     1
176
     1
290
     1
176
     1
290
     0
176
     1
290
     0
176
     1
290
     0
176
     1
290
     0
176
     1
290
     0
176
     1
290
     0
176
     1
 90
       50
176
     1
 40
0.0
176
     1
 40
1.0
176
     1
 90
        0
176
     1
 62
    18
420
        0
176
     1
 90
       50
176
     1
 90
        3
176
     1
 62
     5
420
      255
176
     1
290
     0
176
     1
 90
       50
176
     1
 90
       50
176
     1
 90
       50
176
     1
290
     0
176
     1
 90
       50
176
     1
 62
   256
176
     0
 40
1.0
176
     0
 90
        2
176
     1
  1
strokes_ogs.tif
176
     1
290
     0
176
     1
 40
1.0
176
     1
 40
1.0
176
     1
  0
VISUALSTYLE
  5
45B
102
{ACAD_REACTORS
330
448
102
}
330
448
100
AcDbVisualStyle
  2
EdgeColorOff
 70
    22
177
     3
291
     1
 70
    58
 90
        2
176
     0
 90
        2
176
     0
 90
        0
176
     0
 90
        0
176
     0
 40
0.6
176
     0
 40
30.0
176
     0
 62
     7
420
 16777215
176
     0
 90
        1
176
     0
 90
        4
176
     0
 62
     7
176
     0
 62
   257
176
     0
 90
        1
176
     0
 90
        1
176
     0
 40
1.0
176
     0
 90
        8
176
     2
 62
     7
176
     0
 40
1.0
176
     0
 90
        1
176
     0
 90
        6
176
     0
 90
        2
176
     0
 62
     7
176
     0
 90
        5
176
     0
 90
        0
176
     0
 90
        0
176
     0
290
     0
176
     0
 90
        1
176
     0
 40
0.0
176
     0
 90
        0
176
     0
290
     0
176
     0
290
     1
176
     0
290
     1
176
     0
290
     0
176
     0
290
     0
176
     0
290
     0
176
     0
290
     0
176
     0
290
     0
176
     0
290
     0
176
     0
 90
       50
176
     0
 40
0.0
176
     0
 40
1.0
176
     0
 90
        0
176
     0
 62
    18
420
        0
176
     0
 90
       50
176
     0
 90
        3
176
     0
 62
     5
420
      255
176
     0
290
     0
176
     0
 90
       50
176
     0
 90
       50
176
     0
 90
       50
176
     0
290
     0
176
     0
 90
       50
176
     0
 62
   256
176
     0
 40
1.0
176
     0
 90
        2
176
     0
  1
strokes_ogs.tif
176
     0
290
     0
176
     0
 40
1.0
176
     0
 40
1.0
176
     0
  0
VISUALSTYLE
  5
457
102
{ACAD_REACTORS
330
448
102
}
330
448
100
AcDbVisualStyle
  2
Facepattern
 70
    15
177
     3
291
     1
 70
    58
 90
        2
176
     1
 90
        2
176
     1
 90
        0
176
     1
 90
        0
176
     1
 40
0.6
176
     1
 40
30.0
176
     1
 62
     7
420
 16777215
176
     1
 90
        1
176
     1
 90
        4
176
     1
 62
     7
176
     1
 62
   257
176
     1
 90
        1
176
     1
 90
        1
176
     1
 40
1.0
176
     1
 90
        8
176
     1
 62
     7
176
     1
 40
1.0
176
     1
 90
        1
176
     1
 90
        6
176
     1
 90
        2
176
     1
 62
     7
176
     1
 90
        5
176
     1
 90
        0
176
     1
 90
        0
176
     1
290
     0
176
     1
 90
        1
176
     1
 40
0.0
176
     1
 90
        0
176
     1
290
     0
176
     1
290
     1
176
     1
290
     1
176
     1
290
     0
176
     1
290
     0
176
     1
290
     0
176
     1
290
     0
176
     1
290
     0
176
     1
290
     0
176
     1
 90
       50
176
     1
 40
0.0
176
     1
 40
1.0
176
     1
 90
        0
176
     1
 62
    18
420
        0
176
     1
 90
       50
176
     1
 90
        3
176
     1
 62
     5
420
      255
176
     1
290
     0
176
     1
 90
       50
176
     1
 90
       50
176
     1
 90
       50
176
     1
290
     0
176
     1
 90
       50
176
     1
 62
   256
176
     0
 40
1.0
176
     0
 90
        2
176
     1
  1
strokes_ogs.tif
176
     1
290
     0
176
     1
 40
1.0
176
     1
 40
1.0
176
     1
  0
VISUALSTYLE
  5
449
102
{ACAD_REACTORS
330
448
102
}
330
448
100
AcDbVisualStyle
  2
Flat
 70
     0
177
     3
291
     1
 70
    58
 90
        2
176
     1
 90
        1
176
     1
 90
        1
176
     1
 90
        2
176
     1
 40
0.6
176
     1
 40
30.0
176
     1
 62
     7
420
 16777215
176
     1
 90
        0
176
     1
 90
        0
176
     1
 62
     7
176
     1
 62
   257
176
     1
 90
        1
176
     1
 90
        1
176
     1
 40
1.0
176
     1
 90
        8
176
     1
 62
     7
176
     1
 40
1.0
176
     1
 90
        1
176
     1
 90
        6
176
     1
 90
        2
176
     1
 62
     7
176
     1
 90
        5
176
     1
 90
        0
176
     1
 90
        0
176
     1
290
     0
176
     1
 90
       13
176
     1
 40
0.0
176
     1
 90
        0
176
     1
290
     0
176
     1
290
     1
176
     1
290
     1
176
     1
290
     0
176
     1
290
     0
176
     1
290
     0
176
     1
290
     0
176
     1
290
     0
176
     1
290
     0
176
     1
 90
       50
176
     1
 40
0.0
176
     1
 40
1.0
176
     1
 90
        0
176
     1
 62
    18
420
        0
176
     1
 90
       50
176
     1
 90
        3
176
     1
 62
     5
420
      255
176
     1
290
     0
176
     1
 90
       50
176
     1
 90
       50
176
     1
 90
       50
176
     1
290
     0
176
     1
 90
       50
176
     1
 62
   256
176
     0
 40
1.0
176
     0
 90
        2
176
     1
  1
strokes_ogs.tif
176
     1
290
     0
176
     1
 40
1.0
176
     1
 40
1.0
176
     1
  0
VISUALSTYLE
  5
44A
102
{ACAD_REACTORS
330
448
102
}
330
448
100
AcDbVisualStyle
  2
FlatWithEdges
 70
     1
177
     3
291
     1
 70
    58
 90
        2
176
     1
 90
        1
176
     1
 90
        1
176
     1
 90
        2
176
     1
 40
0.6
176
     1
 40
30.0
176
     1
 62
     7
420
 16777215
176
     1
 90
        1
176
     1
 90
        0
176
     1
 62
     7
176
     1
 62
   257
176
     1
 90
        1
176
     1
 90
        1
176
     1
 40
1.0
176
     1
 90
        0
176
     1
 62
   257
176
     1
 40
1.0
176
     1
 90
        1
176
     1
 90
        6
176
     1
 90
        2
176
     1
 62
     7
176
     1
 90
        5
176
     1
 90
        0
176
     1
 90
        0
176
     1
290
     0
176
     1
 90
       13
176
     1
 40
0.0
176
     1
 90
        0
176
     1
290
     0
176
     1
290
     1
176
     1
290
     1
176
     1
290
     0
176
     1
290
     0
176
     1
290
     0
176
     1
290
     0
176
     1
290
     0
176
     1
290
     0
176
     1
 90
       50
176
     1
 40
0.0
176
     1
 40
1.0
176
     1
 90
        0
176
     1
 62
    18
420
        0
176
     1
 90
       50
176
     1
 90
        3
176
     1
 62
     5
420
      255
176
     1
290
     0
176
     1
 90
       50
176
     1
 90
       50
176
     1
 90
       50
176
     1
290
     0
176
     1
 90
       50
176
     1
 62
   256
176
     0
 40
1.0
176
     0
 90
        2
176
     1
  1
strokes_ogs.tif
176
     1
290
     0
176
     1
 40
1.0
176
     1
 40
1.0
176
     1
  0
VISUALSTYLE
  5
44B
102
{ACAD_REACTORS
330
448
102
}
330
448
100
AcDbVisualStyle
  2
Gouraud
 70
     2
177
     3
291
     1
 70
    58
 90
        2
176
     1
 90
        2
176
     1
 90
        1
176
     1
 90
        2
176
     1
 40
0.6
176
     1
 40
30.0
176
     1
 62
     7
420
 16777215
176
     1
 90
        0
176
     1
 90
        0
176
     1
 62
     7
176
     1
 62
   257
176
     1
 90
        1
176
     1
 90
        1
176
     1
 40
1.0
176
     1
 90
        0
176
     1
 62
     7
176
     1
 40
1.0
176
     1
 90
        1
176
     1
 90
        6
176
     1
 90
        2
176
     1
 62
     7
176
     1
 90
        5
176
     1
 90
        0
176
     1
 90
        0
176
     1
290
     0
176
     1
 90
       13
176
     1
 40
0.0
176
     1
 90
        0
176
     1
290
     0
176
     1
290
     1
176
     1
290
     1
176
     1
290
     0
176
     1
290
     0
176
     1
290
     0
176
     1
290
     0
176
     1
290
     0
176
     1
290
     0
176
     1
 90
       50
176
     1
 40
0.0
176
     1
 40
1.0
176
     1
 90
        0
176
     1
 62
    18
420
        0
176
     1
 90
       50
176
     1
 90
        3
176
     1
 62
     5
420
      255
176
     1
290
     0
176
     1
 90
       50
176
     1
 90
       50
176
     1
 90
       50
176
     1
290
     0
176
     1
 90
       50
176
     1
 62
   256
176
     0
 40
1.0
176
     0
 90
        2
176
     1
  1
strokes_ogs.tif
176
     1
290
     0
176
     1
 40
1.0
176
     1
 40
1.0
176
     1
  0
VISUALSTYLE
  5
44C
102
{ACAD_REACTORS
330
448
102
}
330
448
100
AcDbVisualStyle
  2
GouraudWithEdges
 70
     3
177
     3
291
     1
 70
    58
 90
        2
176
     1
 90
        2
176
     1
 90
        1
176
     1
 90
        2
176
     1
 40
0.6
176
     1
 40
30.0
176
     1
 62
     7
420
 16777215
176
     1
 90
        1
176
     1
 90
        0
176
     1
 62
     7
176
     1
 62
   257
176
     1
 90
        1
176
     1
 90
        1
176
     1
 40
1.0
176
     1
 90
        0
176
     1
 62
   257
176
     1
 40
1.0
176
     1
 90
        1
176
     1
 90
        6
176
     1
 90
        2
176
     1
 62
     7
176
     1
 90
        5
176
     1
 90
        0
176
     1
 90
        0
176
     1
290
     0
176
     1
 90
       13
176
     1
 40
0.0
176
     1
 90
        0
176
     1
290
     0
176
     1
290
     1
176
     1
290
     1
176
     1
290
     0
176
     1
290
     0
176
     1
290
     0
176
     1
290
     0
176
     1
290
     0
176
     1
290
     0
176
     1
 90
       50
176
     1
 40
0.0
176
     1
 40
1.0
176
     1
 90
        0
176
     1
 62
    18
420
        0
176
     1
 90
       50
176
     1
 90
        3
176
     1
 62
     5
420
      255
176
     1
290
     0
176
     1
 90
       50
176
     1
 90
       50
176
     1
 90
       50
176
     1
290
     0
176
     1
 90
       50
176
     1
 62
   256
176
     0
 40
1.0
176
     0
 90
        2
176
     1
  1
strokes_ogs.tif
176
     1
290
     0
176
     1
 40
1.0
176
     1
 40
1.0
176
     1
  0
VISUALSTYLE
  5
44F
102
{ACAD_REACTORS
330
448
102
}
330
448
100
AcDbVisualStyle
  2
Hidden
 70
     6
177
     3
291
     0
 70
    58
 90
        1
176
     1
 90
        2
176
     1
 90
        2
176
     1
 90
        0
176
     1
 40
0.6
176
     1
 40
30.0
176
     1
 62
     7
420
 16777215
176
     1
 90
        2
176
     1
 90
        2
176
     1
 62
     7
176
     1
 62
   257
176
     1
 90
        2
176
     1
 90
        1
176
     1
 40
40.0
176
     1
 90
        0
176
     1
 62
   257
176
     1
 40
1.0
176
     1
 90
        1
176
     1
 90
        6
176
     1
 90
        2
176
     1
 62
     7
176
     1
 90
        3
176
     1
 90
        0
176
     1
 90
        0
176
     1
290
     0
176
     1
 90
        1
176
     1
 40
0.0
176
     1
 90
        0
176
     1
290
     0
176
     1
290
     1
176
     1
290
     1
176
     1
290
     0
176
     1
290
     0
176
     1
290
     0
176
     1
290
     0
176
     1
290
     0
176
     1
290
     0
176
     1
 90
       50
176
     1
 40
0.0
176
     1
 40
1.0
176
     1
 90
        0
176
     1
 62
    18
420
        0
176
     1
 90
       50
176
     1
 90
        3
176
     1
 62
     5
420
      255
176
     1
290
     0
176
     1
 90
       50
176
     1
 90
       50
176
     1
 90
       50
176
     1
290
     0
176
     1
 90
       50
176
     1
 62
   256
176
     0
 40
1.0
176
     0
 90
        2
176
     1
  1
strokes_ogs.tif
176
     1
290
     0
176
     1
 40
1.0
176
     1
 40
1.0
176
     1
  0
VISUALSTYLE
  5
459
102
{ACAD_REACTORS
330
448
102
}
330
448
100
AcDbVisualStyle
  2
JitterOff
 70
    20
177
     3
291
     1
 70
    58
 90
        2
176
     0
 90
        2
176
     0
 90
        0
176
     0
 90
        0
176
     0
 40
0.6
176
     0
 40
30.0
176
     0
 62
     7
420
 16777215
176
     0
 90
        1
176
     0
 90
        4
176
     0
 62
     7
176
     0
 62
   257
176
     0
 90
        1
176
     0
 90
        1
176
     0
 40
1.0
176
     0
 90
       10
176
     2
 62
     7
176
     0
 40
1.0
176
     0
 90
        1
176
     0
 90
        6
176
     0
 90
        2
176
     0
 62
     7
176
     0
 90
        5
176
     0
 90
        0
176
     0
 90
        0
176
     0
290
     0
176
     0
 90
        1
176
     0
 40
0.0
176
     0
 90
        0
176
     0
290
     0
176
     0
290
     1
176
     0
290
     1
176
     0
290
     0
176
     0
290
     0
176
     0
290
     0
176
     0
290
     0
176
     0
290
     0
176
     0
290
     0
176
     0
 90
       50
176
     0
 40
0.0
176
     0
 40
1.0
176
     0
 90
        0
176
     0
 62
    18
420
        0
176
     0
 90
       50
176
     0
 90
        3
176
     0
 62
     5
420
      255
176
     0
290
     0
176
     0
 90
       50
176
     0
 90
       50
176
     0
 90
       50
176
     0
290
     0
176
     0
 90
       50
176
     0
 62
   256
176
     0
 40
1.0
176
     0
 90
        2
176
     0
  1
strokes_ogs.tif
176
     0
290
     0
176
     0
 40
1.0
176
     0
 40
1.0
176
     0
  0
VISUALSTYLE
  5
456
102
{ACAD_REACTORS
330
448
102
}
330
448
100
AcDbVisualStyle
  2
Linepattern
 70
    14
177
     3
291
     1
 70
    58
 90
        2
176
     1
 90
        2
176
     1
 90
        0
176
     1
 90
        0
176
     1
 40
0.6
176
     1
 40
30.0
176
     1
 62
     7
420
 16777215
176
     1
 90
        1
176
     1
 90
        4
176
     1
 62
     7
176
     1
 62
   257
176
     1
 90
        7
176
     1
 90
        7
176
     1
 40
1.0
176
     1
 90
        8
176
     1
 62
     7
176
     1
 40
1.0
176
     1
 90
        1
176
     1
 90
        6
176
     1
 90
        2
176
     1
 62
     7
176
     1
 90
        5
176
     1
 90
        0
176
     1
 90
        0
176
     1
290
     0
176
     1
 90
        1
176
     1
 40
0.0
176
     1
 90
        0
176
     1
290
     0
176
     1
290
     1
176
     1
290
     1
176
     1
290
     0
176
     1
290
     0
176
     1
290
     0
176
     1
290
     0
176
     1
290
     0
176
     1
290
     0
176
     1
 90
       50
176
     1
 40
0.0
176
     1
 40
1.0
176
     1
 90
        0
176
     1
 62
    18
420
        0
176
     1
 90
       50
176
     1
 90
        3
176
     1
 62
     5
420
      255
176
     1
290
     0
176
     1
 90
       50
176
     1
 90
       50
176
     1
 90
       50
176
     1
290
     0
176
     1
 90
       50
176
     1
 62
   256
176
     0
 40
1.0
176
     0
 90
        2
176
     1
  1
strokes_ogs.tif
176
     1
290
     0
176
     1
 40
1.0
176
     1
 40
1.0
176
     1
  0
VISUALSTYLE
  5
45A
102
{ACAD_REACTORS
330
448
102
}
330
448
100
AcDbVisualStyle
  2
OverhangOff
 70
    21
177
     3
291
     1
 70
    58
 90
        2
176
     0
 90
        2
176
     0
 90
        0
176
     0
 90
        0
176
     0
 40
0.6
176
     0
 40
30.0
176
     0
 62
     7
420
 16777215
176
     0
 90
        1
176
     0
 90
        4
176
     0
 62
     7
176
     0
 62
   257
176
     0
 90
        1
176
     0
 90
        1
176
     0
 40
1.0
176
     0
 90
        9
176
     2
 62
     7
176
     0
 40
1.0
176
     0
 90
        1
176
     0
 90
        6
176
     0
 90
        2
176
     0
 62
     7
176
     0
 90
        5
176
     0
 90
        0
176
     0
 90
        0
176
     0
290
     0
176
     0
 90
        1
176
     0
 40
0.0
176
     0
 90
        0
176
     0
290
     0
176
     0
290
     1
176
     0
290
     1
176
     0
290
     0
176
     0
290
     0
176
     0
290
     0
176
     0
290
     0
176
     0
290
     0
176
     0
290
     0
176
     0
 90
       50
176
     0
 40
0.0
176
     0
 40
1.0
176
     0
 90
        0
176
     0
 62
    18
420
        0
176
     0
 90
       50
176
     0
 90
        3
176
     0
 62
     5
420
      255
176
     0
290
     0
176
     0
 90
       50
176
     0
 90
       50
176
     0
 90
       50
176
     0
290
     0
176
     0
 90
       50
176
     0
 62
   256
176
     0
 40
1.0
176
     0
 90
        2
176
     0
  1
strokes_ogs.tif
176
     0
290
     0
176
     0
 40
1.0
176
     0
 40
1.0
176
     0
  0
VISUALSTYLE
  5
451
102
{ACAD_REACTORS
330
448
102
}
330
448
100
AcDbVisualStyle
  2
Realistic
 70
     8
177
     3
291
     0
 70
    58
 90
        2
176
     1
 90
        3
176
     1
 90
        0
176
     1
 90
        2
176
     1
 40
0.6
176
     1
 40
30.0
176
     1
 62
     7
420
 16777215
176
     1
 90
        0
176
     1
 90
        0
176
     1
 62
     7
176
     1
 62
   257
176
     1
 90
        1
176
     1
 90
        1
176
     1
 40
1.0
176
     1
 90
        8
176
     1
 62
   257
176
     1
 40
1.0
176
     1
 90
        1
176
     1
 90
        6
176
     1
 90
        2
176
     1
 62
     7
176
     1
 90
        3
176
     1
 90
        0
176
     1
 90
        0
176
     1
290
     0
176
     1
 90
       13
176
     1
 40
0.0
176
     1
 90
        0
176
     1
290
     0
176
     1
290
     1
176
     1
290
     1
176
     1
290
     0
176
     1
290
     0
176
     1
290
     0
176
     1
290
     0
176
     1
290
     0
176
     1
290
     0
176
     1
 90
       50
176
     1
 40
0.0
176
     1
 40
1.0
176
     1
 90
        0
176
     1
 62
    18
420
        0
176
     1
 90
       50
176
     1
 90
        3
176
     1
 62
     5
420
      255
176
     1
290
     0
176
     1
 90
       50
176
     1
 90
       50
176
     1
 90
       50
176
     1
290
     0
176
     1
 90
       50
176
     1
 62
   256
176
     0
 40
1.0
176
     0
 90
        2
176
     1
  1
strokes_ogs.tif
176
     1
290
     0
176
     1
 40
1.0
176
     1
 40
1.0
176
     1
  0
VISUALSTYLE
  5
460
102
{ACAD_REACTORS
330
448
102
}
330
448
100
AcDbVisualStyle
  2
Shaded
 70
    27
177
     3
291
     0
 70
    58
 90
        2
176
     1
 90
        2
176
     1
 90
        1
176
     1
 90
        2
176
     1
 40
0.6
176
     1
 40
30.0
176
     1
 62
     7
420
 16777215
176
     1
 90
        0
176
     1
 90
        4
176
     1
 62
     7
176
     1
 62
   257
176
     1
 90
        1
176
     1
 90
        1
176
     1
 40
1.0
176
     1
 90
        8
176
     1
 62
   257
176
     1
 40
1.0
176
     1
 90
        1
176
     1
 90
        6
176
     1
 90
        2
176
     1
 62
     8
420
  7895160
176
     1
 90
        3
176
     1
 90
        0
176
     1
 90
        0
176
     1
290
     0
176
     1
 90
        5
176
     1
 40
0.0
176
     1
 90
        0
176
     1
290
     0
176
     1
290
     1
176
     1
290
     1
176
     1
290
     0
176
     1
290
     0
176
     1
290
     0
176
     1
290
     0
176
     1
290
     0
176
     1
290
     0
176
     1
 90
       50
176
     1
 40
0.0
176
     1
 40
1.0
176
     1
 90
        0
176
     1
 62
    18
420
        0
176
     1
 90
       50
176
     1
 90
        3
176
     1
 62
     5
420
      255
176
     1
290
     0
176
     1
 90
       50
176
     1
 90
       50
176
     1
 90
       50
176
     1
290
     0
176
     1
 90
       50
176
     1
 62
   256
176
     0
 40
1.0
176
     0
 90
        2
176
     1
  1
strokes_ogs.tif
176
     1
290
     0
176
     1
 40
1.0
176
     1
 40
1.0
176
     1
  0
VISUALSTYLE
  5
45F
102
{ACAD_REACTORS
330
448
102
}
330
448
100
AcDbVisualStyle
  2
Shaded with edges
 70
    26
177
     3
291
     0
 70
    58
 90
        2
176
     1
 90
        2
176
     1
 90
        1
176
     1
 90
        2
176
     1
 40
0.6
176
     1
 40
30.0
176
     1
 62
     7
420
 16777215
176
     1
 90
        1
176
     1
 90
       10
176
     1
 62
     7
176
     1
 62
   257
176
     1
 90
        2
176
     1
 90
        1
176
     1
 40
1.0
176
     1
 90
        8
176
     1
 62
   257
176
     1
 40
1.0
176
     1
 90
        1
176
     1
 90
        6
176
     1
 90
        2
176
     1
 62
     7
176
     1
 90
        3
176
     1
 90
        0
176
     1
 90
        0
176
     1
290
     0
176
     1
 90
        5
176
     1
 40
0.0
176
     1
 90
        0
176
     1
290
     0
176
     1
290
     1
176
     1
290
     1
176
     1
290
     0
176
     1
290
     0
176
     1
290
     0
176
     1
290
     0
176
     1
290
     0
176
     1
290
     0
176
     1
 90
       50
176
     1
 40
0.0
176
     1
 40
1.0
176
     1
 90
        0
176
     1
 62
    18
420
        0
176
     1
 90
       50
176
     1
 90
        3
176
     1
 62
     5
420
      255
176
     1
290
     0
176
     1
 90
       50
176
     1
 90
       50
176
     1
 90
       50
176
     1
290
     0
176
     1
 90
       50
176
     1
 62
   256
176
     0
 40
1.0
176
     0
 90
        2
176
     1
  1
strokes_ogs.tif
176
     1
290
     0
176
     1
 40
1.0
176
     1
 40
1.0
176
     1
  0
VISUALSTYLE
  5
45C
102
{ACAD_REACTORS
330
448
102
}
330
448
100
AcDbVisualStyle
  2
Shades of Gray
 70
    23
177
     3
291
     0
 70
    58
 90
        2
176
     1
 90
        2
176
     1
 90
        3
176
     1
 90
        0
176
     1
 40
0.6
176
     1
 40
30.0
176
     1
 62
     7
420
 16777215
176
     1
 90
        2
176
     1
 90
        2
176
     1
 62
     7
176
     1
 62
     7
176
     1
 90
        1
176
     1
 90
        1
176
     1
 40
40.0
176
     1
 90
        8
176
     1
 62
     7
176
     1
 40
1.0
176
     1
 90
        1
176
     1
 90
        6
176
     1
 90
        2
176
     1
 62
     7
176
     1
 90
        3
176
     1
 90
        0
176
     1
 90
        0
176
     1
290
     0
176
     1
 90
        1
176
     1
 40
0.0
176
     1
 90
        0
176
     1
290
     0
176
     1
290
     1
176
     1
290
     1
176
     1
290
     0
176
     1
290
     0
176
     1
290
     0
176
     1
290
     0
176
     1
290
     0
176
     1
290
     0
176
     1
 90
       50
176
     1
 40
0.0
176
     1
 40
1.0
176
     1
 90
        0
176
     1
 62
    18
420
        0
176
     1
 90
       50
176
     1
 90
        3
176
     1
 62
     5
420
      255
176
     1
290
     0
176
     1
 90
       50
176
     1
 90
       50
176
     1
 90
       50
176
     1
290
     0
176
     1
 90
       50
176
     1
 62
   256
176
     0
 40
1.0
176
     0
 90
        2
176
     1
  1
strokes_ogs.tif
176
     1
290
     0
176
     1
 40
1.0
176
     1
 40
1.0
176
     1
  0
VISUALSTYLE
  5
45D
102
{ACAD_REACTORS
330
448
102
}
330
448
100
AcDbVisualStyle
  2
Sketchy
 70
    24
177
     3
291
     0
 70
    58
 90
        1
176
     1
 90
        2
176
     1
 90
        2
176
     1
 90
        0
176
     1
 40
0.6
176
     1
 40
30.0
176
     1
 62
     7
420
 16777215
176
     1
 90
        2
176
     1
 90
        2
176
     1
 62
     7
176
     1
 62
     7
176
     1
 90
        1
176
     1
 90
        1
176
     1
 40
40.0
176
     1
 90
       11
176
     1
 62
     7
176
     1
 40
1.0
176
     1
 90
        1
176
     1
 90
        6
176
     1
 90
        2
176
     1
 62
     7
176
     1
 90
        6
176
     1
 90
        0
176
     1
 90
        0
176
     1
290
     0
176
     1
 90
        1
176
     1
 40
0.0
176
     1
 90
        0
176
     1
290
     0
176
     1
290
     1
176
     1
290
     1
176
     1
290
     0
176
     1
290
     0
176
     1
290
     0
176
     1
290
     0
176
     1
290
     0
176
     1
290
     0
176
     1
 90
       50
176
     1
 40
0.0
176
     1
 40
1.0
176
     1
 90
        0
176
     1
 62
    18
420
        0
176
     1
 90
       50
176
     1
 90
        3
176
     1
 62
     5
420
      255
176
     1
290
     0
176
     1
 90
       50
176
     1
 90
       50
176
     1
 90
       50
176
     1
290
     0
176
     1
 90
       50
176
     1
 62
   256
176
     0
 40
1.0
176
     0
 90
        2
176
     1
  1
strokes_ogs.tif
176
     1
290
     0
176
     1
 40
1.0
176
     1
 40
1.0
176
     1
  0
VISUALSTYLE
  5
455
102
{ACAD_REACTORS
330
448
102
}
330
448
100
AcDbVisualStyle
  2
Thicken
 70
    13
177
     3
291
     1
 70
    58
 90
        2
176
     1
 90
        2
176
     1
 90
        0
176
     1
 90
        0
176
     1
 40
0.6
176
     1
 40
30.0
176
     1
 62
     7
420
 16777215
176
     1
 90
        1
176
     1
 90
        4
176
     1
 62
     7
176
     1
 62
   257
176
     1
 90
        1
176
     1
 90
        1
176
     1
 40
1.0
176
     1
 90
       12
176
     1
 62
     7
176
     1
 40
1.0
176
     1
 90
        1
176
     1
 90
        6
176
     1
 90
        2
176
     1
 62
     7
176
     1
 90
        5
176
     1
 90
        0
176
     1
 90
        0
176
     1
290
     0
176
     1
 90
        1
176
     1
 40
0.0
176
     1
 90
        0
176
     1
290
     0
176
     1
290
     1
176
     1
290
     1
176
     1
290
     0
176
     1
290
     0
176
     1
290
     0
176
     1
290
     0
176
     1
290
     0
176
     1
290
     0
176
     1
 90
       50
176
     1
 40
0.0
176
     1
 40
1.0
176
     1
 90
        0
176
     1
 62
    18
420
        0
176
     1
 90
       50
176
     1
 90
        3
176
     1
 62
     5
420
      255
176
     1
290
     0
176
     1
 90
       50
176
     1
 90
       50
176
     1
 90
       50
176
     1
290
     0
176
     1
 90
       50
176
     1
 62
   256
176
     0
 40
1.0
176
     0
 90
        2
176
     1
  1
strokes_ogs.tif
176
     1
290
     0
176
     1
 40
1.0
176
     1
 40
1.0
176
     1
  0
VISUALSTYLE
  5
44E
102
{ACAD_REACTORS
330
448
102
}
330
448
100
AcDbVisualStyle
  2
Wireframe
 70
     5
177
     3
291
     0
 70
    58
 90
        0
176
     1
 90
        2
176
     1
 90
        0
176
     1
 90
        0
176
     1
 40
0.6
176
     1
 40
30.0
176
     1
 62
     7
420
 16777215
176
     1
 90
        1
176
     1
 90
        4
176
     1
 62
     7
176
     1
 62
   257
176
     1
 90
        1
176
     1
 90
        1
176
     1
 40
1.0
176
     1
 90
        0
176
     1
 62
   257
176
     1
 40
1.0
176
     1
 90
        1
176
     1
 90
        6
176
     1
 90
        2
176
     1
 62
     7
176
     1
 90
        3
176
     1
 90
        0
176
     1
 90
        0
176
     1
290
     0
176
     1
 90
        1
176
     1
 40
0.0
176
     1
 90
        0
176
     1
290
     0
176
     1
290
     1
176
     1
290
     1
176
     1
290
     0
176
     1
290
     0
176
     1
290
     0
176
     1
290
     0
176
     1
290
     0
176
     1
290
     0
176
     1
 90
       50
176
     1
 40
0.0
176
     1
 40
1.0
176
     1
 90
        0
176
     1
 62
    18
420
        0
176
     1
 90
       50
176
     1
 90
        3
176
     1
 62
     5
420
      255
176
     1
290
     0
176
     1
 90
       50
176
     1
 90
       50
176
     1
 90
       50
176
     1
290
     0
176
     1
 90
       50
176
     1
 62
   256
176
     0
 40
1.0
176
     0
 90
        2
176
     1
  1
strokes_ogs.tif
176
     1
290
     0
176
     1
 40
1.0
176
     1
 40
1.0
176
     1
  0
VISUALSTYLE
  5
45E
102
{ACAD_REACTORS
330
448
102
}
330
448
100
AcDbVisualStyle
  2
X-Ray
 70
    25
177
     3
291
     0
 70
    58
 90
        2
176
     1
 90
        2
176
     1
 90
        1
176
     1
 90
        1
176
     1
 40
0.5
176
     1
 40
30.0
176
     1
 62
     7
420
 16777215
176
     1
 90
        1
176
     1
 90
        0
176
     1
 62
     7
176
     1
 62
   257
176
     1
 90
        1
176
     1
 90
        1
176
     1
 40
1.0
176
     1
 90
        8
176
     1
 62
     7
176
     1
 40
1.0
176
     1
 90
        1
176
     1
 90
        6
176
     1
 90
        2
176
     1
 62
     7
176
     1
 90
        3
176
     1
 90
        0
176
     1
 90
        0
176
     1
290
     0
176
     1
 90
       13
176
     1
 40
0.0
176
     1
 90
        0
176
     1
290
     0
176
     1
290
     1
176
     1
290
     1
176
     1
290
     0
176
     1
290
     0
176
     1
290
     0
176
     1
290
     0
176
     1
290
     0
176
     1
290
     0
176
     1
 90
       50
176
     1
 40
0.0
176
     1
 40
1.0
176
     1
 90
        0
176
     1
 62
    18
420
        0
176
     1
 90
       50
176
     1
 90
        3
176
     1
 62
     5
420
      255
176
     1
290
     0
176
     1
 90
       50
176
     1
 90
       50
176
     1
 90
       50
176
     1
290
     0
176
     1
 90
       50
176
     1
 62
   256
176
     0
 40
1.0
176
     0
 90
        2
176
     1
  1
strokes_ogs.tif
176
     1
290
     0
176
     1
 40
1.0
176
     1
 40
1.0
176
     1
  0
DICTIONARYVAR
  5
476
102
{ACAD_REACTORS
330
475
102
}
330
475
100
DictionaryVariables
280
     0
  1
1:1
  0
DICTIONARYVAR
  5
478
102
{ACAD_REACTORS
330
475
102
}
330
475
100
DictionaryVariables
280
     0
  1
Standard
  0
DICTIONARYVAR
  5
477
102
{ACAD_REACTORS
330
475
102
}
330
475
100
DictionaryVariables
280
     0
  1
Standard
  0
DICTIONARYVAR
  5
479
102
{ACAD_REACTORS
330
475
102
}
330
475
100
DictionaryVariables
280
     0
  1
0
  0
DICTIONARY
  5
522
330
462
100
AcDbDictionary
280
     1
281
     1
  3
ACAD_ROUNDTRIP_2008_TABLESTYLE_CELLSTYLEMAP
360
523
  0
CELLSTYLEMAP
  5
523
102
{ACAD_REACTORS
330
522
102
}
330
522
100
AcDbCellStyleMap
 90
        3
300
CELLSTYLE
  1
TABLEFORMAT_BEGIN
 90
        5
170
     1
 91
        0
 92
    32768
 62
   257
 93
        1
300
CONTENTFORMAT
  1
CONTENTFORMAT_BEGIN
 90
        0
 91
        0
 92
        4
 93
        0
300

 40
0.0
140
1.0
 94
        5
 62
     0
340
403
144
0.25
309
CONTENTFORMAT_END
171
     1
301
MARGIN
  1
CELLMARGIN_BEGIN
 40
0.06
 40
0.06
 40
0.06
 40
0.06
 40
0.06
 40
0.06
309
CELLMARGIN_END
 94
        6
 95
        1
302
GRIDFORMAT
  1
GRIDFORMAT_BEGIN
 90
        0
 91
        1
 62
     0
 92
       -2
340
405
 93
        0
 40
0.045
309
GRIDFORMAT_END
 95
        2
302
GRIDFORMAT
  1
GRIDFORMAT_BEGIN
 90
        0
 91
        1
 62
     0
 92
       -2
340
405
 93
        0
 40
0.045
309
GRIDFORMAT_END
 95
        4
302
GRIDFORMAT
  1
GRIDFORMAT_BEGIN
 90
        0
 91
        1
 62
     0
 92
       -2
340
405
 93
        0
 40
0.045
309
GRIDFORMAT_END
 95
        8
302
GRIDFORMAT
  1
GRIDFORMAT_BEGIN
 90
        0
 91
        1
 62
     0
 92
       -2
340
405
 93
        0
 40
0.045
309
GRIDFORMAT_END
 95
       16
302
GRIDFORMAT
  1
GRIDFORMAT_BEGIN
 90
        0
 91
        1
 62
     0
 92
       -2
340
405
 93
        0
 40
0.045
309
GRIDFORMAT_END
 95
       32
302
GRIDFORMAT
  1
GRIDFORMAT_BEGIN
 90
        0
 91
        1
 62
     0
 92
       -2
340
405
 93
        0
 40
0.045
309
GRIDFORMAT_END
309
TABLEFORMAT_END
  1
CELLSTYLE_BEGIN
 90
        1
 91
        1
300
_TITLE
309
CELLSTYLE_END
300
CELLSTYLE
  1
TABLEFORMAT_BEGIN
 90
        5
170
     1
 91
        0
 92
        0
 62
   257
 93
        1
300
CONTENTFORMAT
  1
CONTENTFORMAT_BEGIN
 90
        0
 91
        0
 92
        4
 93
        0
300

 40
0.0
140
1.0
 94
        5
 62
     0
340
403
144
0.18
309
CONTENTFORMAT_END
171
     1
301
MARGIN
  1
CELLMARGIN_BEGIN
 40
0.06
 40
0.06
 40
0.06
 40
0.06
 40
0.06
 40
0.06
309
CELLMARGIN_END
 94
        6
 95
        1
302
GRIDFORMAT
  1
GRIDFORMAT_BEGIN
 90
        0
 91
        1
 62
     0
 92
       -2
340
405
 93
        0
 40
0.045
309
GRIDFORMAT_END
 95
        2
302
GRIDFORMAT
  1
GRIDFORMAT_BEGIN
 90
        0
 91
        1
 62
     0
 92
       -2
340
405
 93
        0
 40
0.045
309
GRIDFORMAT_END
 95
        4
302
GRIDFORMAT
  1
GRIDFORMAT_BEGIN
 90
        0
 91
        1
 62
     0
 92
       -2
340
405
 93
        0
 40
0.045
309
GRIDFORMAT_END
 95
        8
302
GRIDFORMAT
  1
GRIDFORMAT_BEGIN
 90
        0
 91
        1
 62
     0
 92
       -2
340
405
 93
        0
 40
0.045
309
GRIDFORMAT_END
 95
       16
302
GRIDFORMAT
  1
GRIDFORMAT_BEGIN
 90
        0
 91
        1
 62
     0
 92
       -2
340
405
 93
        0
 40
0.045
309
GRIDFORMAT_END
 95
       32
302
GRIDFORMAT
  1
GRIDFORMAT_BEGIN
 90
        0
 91
        1
 62
     0
 92
       -2
340
405
 93
        0
 40
0.045
309
GRIDFORMAT_END
309
TABLEFORMAT_END
  1
CELLSTYLE_BEGIN
 90
        2
 91
        1
300
_HEADER
309
CELLSTYLE_END
300
CELLSTYLE
  1
TABLEFORMAT_BEGIN
 90
        5
170
     1
 91
        0
 92
        0
 62
   257
 93
        1
300
CONTENTFORMAT
  1
CONTENTFORMAT_BEGIN
 90
        0
 91
        0
 92
        4
 93
        0
300

 40
0.0
140
1.0
 94
        2
 62
     0
340
403
144
0.18
309
CONTENTFORMAT_END
171
     1
301
MARGIN
  1
CELLMARGIN_BEGIN
 40
0.06
 40
0.06
 40
0.06
 40
0.06
 40
0.06
 40
0.06
309
CELLMARGIN_END
 94
        6
 95
        1
302
GRIDFORMAT
  1
GRIDFORMAT_BEGIN
 90
        0
 91
        1
 62
     0
 92
       -2
340
405
 93
        0
 40
0.045
309
GRIDFORMAT_END
 95
        2
302
GRIDFORMAT
  1
GRIDFORMAT_BEGIN
 90
        0
 91
        1
 62
     0
 92
       -2
340
405
 93
        0
 40
0.045
309
GRIDFORMAT_END
 95
        4
302
GRIDFORMAT
  1
GRIDFORMAT_BEGIN
 90
        0
 91
        1
 62
     0
 92
       -2
340
405
 93
        0
 40
0.045
309
GRIDFORMAT_END
 95
        8
302
GRIDFORMAT
  1
GRIDFORMAT_BEGIN
 90
        0
 91
        1
 62
     0
 92
       -2
340
405
 93
        0
 40
0.045
309
GRIDFORMAT_END
 95
       16
302
GRIDFORMAT
  1
GRIDFORMAT_BEGIN
 90
        0
 91
        1
 62
     0
 92
       -2
340
405
 93
        0
 40
0.045
309
GRIDFORMAT_END
 95
       32
302
GRIDFORMAT
  1
GRIDFORMAT_BEGIN
 90
        0
 91
        1
 62
     0
 92
       -2
340
405
 93
        0
 40
0.045
309
GRIDFORMAT_END
309
TABLEFORMAT_END
  1
CELLSTYLE_BEGIN
 90
        3
 91
        2
300
_DATA
309
CELLSTYLE_END
  0
ENDSEC
  0
EOF
