  0
SECTION
  2
HEADER
  9
$ACADVER
  1
AC1032
  9
$ACADMAINTVER
 90
       55
  9
$DWGCODEPAGE
  3
ANSI_1252
  9
$LASTSAVEDBY
  1
vcg504
  9
$REQUIREDVERSIONS
160
                 0
  9
$INSBASE
 10
0.0
 20
0.0
 30
0.0
  9
$EXTMIN
 10
453951.225
 20
244765.22
 30
157.454
  9
$EXTMAX
 10
454053.457
 20
244819.114
 30
162.372
  9
$LIMMIN
 10
0.0
 20
0.0
  9
$LIMMAX
 10
420.0
 20
297.0
  9
$ORTHOMODE
 70
     0
  9
$REGENMODE
 70
     1
  9
$FILLMODE
 70
     1
  9
$QTEXTMODE
 70
     0
  9
$MIRRTEXT
 70
     0
  9
$LTSCALE
 40
1.0
  9
$ATTMODE
 70
     1
  9
$TEXTSIZE
 40
2.5
  9
$TRACEWID
 40
1.0
  9
$TEXTSTYLE
  7
Standard
  9
$CLAYER
  8
0
  9
$CELTYPE
  6
ByLayer
  9
$CECOLOR
 62
   256
  9
$CELTSCALE
 40
1.0
  9
$DISPSILH
 70
     0
  9
$DIMSCALE
 40
1.0
  9
$DIMASZ
 40
2.5
  9
$DIMEXO
 40
0.625
  9
$DIMDLI
 40
3.75
  9
$DIMRND
 40
0.0
  9
$DIMDLE
 40
0.0
  9
$DIMEXE
 40
1.25
  9
$DIMTP
 40
0.0
  9
$DIMTM
 40
0.0
  9
$DIMTXT
 40
2.5
  9
$DIMCEN
 40
-2.5
  9
$DIMTSZ
 40
0.0
  9
$DIMTOL
 70
     0
  9
$DIMLIM
 70
     0
  9
$DIMTIH
 70
     0
  9
$DIMTOH
 70
     0
  9
$DIMSE1
 70
     0
  9
$DIMSE2
 70
     0
  9
$DIMTAD
 70
     1
  9
$DIMZIN
 70
     8
  9
$DIMBLK
  1

  9
$DIMASO
 70
     1
  9
$DIMSHO
 70
     1
  9
$DIMPOST
  1

  9
$DIMAPOST
  1

  9
$DIMALT
 70
     0
  9
$DIMALTD
 70
     3
  9
$DIMALTF
 40
0.03937007874016
  9
$DIMLFAC
 40
1.0
  9
$DIMTOFL
 70
     1
  9
$DIMTVP
 40
0.0
  9
$DIMTIX
 70
     0
  9
$DIMSOXD
 70
     0
  9
$DIMSAH
 70
     0
  9
$DIMBLK1
  1

  9
$DIMBLK2
  1

  9
$DIMSTYLE
  2
ISO-25
  9
$DIMCLRD
 70
     0
  9
$DIMCLRE
 70
     0
  9
$DIMCLRT
 70
     0
  9
$DIMTFAC
 40
1.0
  9
$DIMGAP
 40
0.625
  9
$DIMJUST
 70
     0
  9
$DIMSD1
 70
     0
  9
$DIMSD2
 70
     0
  9
$DIMTOLJ
 70
     0
  9
$DIMTZIN
 70
     8
  9
$DIMALTZ
 70
     0
  9
$DIMALTTZ
 70
     0
  9
$DIMUPT
 70
     0
  9
$DIMDEC
 70
     2
  9
$DIMTDEC
 70
     2
  9
$DIMALTU
 70
     2
  9
$DIMALTTD
 70
     3
  9
$DIMTXSTY
  7
Standard
  9
$DIMAUNIT
 70
     0
  9
$DIMADEC
 70
     0
  9
$DIMALTRND
 40
0.0
  9
$DIMAZIN
 70
     0
  9
$DIMDSEP
 70
    44
  9
$DIMATFIT
 70
     3
  9
$DIMFRAC
 70
     0
  9
$DIMLDRBLK
  1

  9
$DIMLUNIT
 70
     2
  9
$DIMLWD
 70
    -2
  9
$DIMLWE
 70
    -2
  9
$DIMTMOVE
 70
     0
  9
$DIMFXL
 40
1.0
  9
$DIMFXLON
 70
     0
  9
$DIMJOGANG
 40
0.7853981633974483
  9
$DIMTFILL
 70
     0
  9
$DIMTFILLCLR
 70
     0
  9
$DIMARCSYM
 70
     0
  9
$DIMLTYPE
  6

  9
$DIMLTEX1
  6

  9
$DIMLTEX2
  6

  9
$DIMTXTDIRECTION
 70
     0
  9
$LUNITS
 70
     2
  9
$LUPREC
 70
     3
  9
$SKETCHINC
 40
1.0
  9
$FILLETRAD
 40
10.0
  9
$AUNITS
 70
     0
  9
$AUPREC
 70
     0
  9
$MENU
  1
.
  9
$ELEVATION
 40
0.0
  9
$PELEVATION
 40
0.0
  9
$THICKNESS
 40
0.0
  9
$LIMCHECK
 70
     0
  9
$CHAMFERA
 40
10.0
  9
$CHAMFERB
 40
10.0
  9
$CHAMFERC
 40
20.0
  9
$CHAMFERD
 40
0.0
  9
$SKPOLY
 70
     0
  9
$TDCREATE
 40
2455022.679026181
  9
$TDUCREATE
 40
2455022.637359514
  9
$TDUPDATE
 40
2460487.620100764
  9
$TDUUPDATE
 40
2460487.578434097
  9
$TDINDWG
 40
0.0369880903
  9
$TDUSRTIMER
 40
0.0000344676
  9
$USRTIMER
 70
     1
  9
$ANGBASE
 50
0.0
  9
$ANGDIR
 70
     0
  9
$PDMODE
 70
     3
  9
$PDSIZE
 40
0.3
  9
$PLINEWID
 40
0.0
  9
$SPLFRAME
 70
     0
  9
$SPLINETYPE
 70
     6
  9
$SPLINESEGS
 70
     8
  9
$HANDSEED
  5
E22
  9
$SURFTAB1
 70
     6
  9
$SURFTAB2
 70
     6
  9
$SURFTYPE
 70
     6
  9
$SURFU
 70
     6
  9
$SURFV
 70
     6
  9
$UCSBASE
  2

  9
$UCSNAME
  2

  9
$UCSORG
 10
0.0
 20
0.0
 30
0.0
  9
$UCSXDIR
 10
1.0
 20
0.0
 30
0.0
  9
$UCSYDIR
 10
0.0
 20
1.0
 30
0.0
  9
$UCSORTHOREF
  2

  9
$UCSORTHOVIEW
 70
     1
  9
$UCSORGTOP
 10
0.0
 20
0.0
 30
0.0
  9
$UCSORGBOTTOM
 10
0.0
 20
0.0
 30
0.0
  9
$UCSORGLEFT
 10
0.0
 20
0.0
 30
0.0
  9
$UCSORGRIGHT
 10
0.0
 20
0.0
 30
0.0
  9
$UCSORGFRONT
 10
0.0
 20
0.0
 30
0.0
  9
$UCSORGBACK
 10
0.0
 20
0.0
 30
0.0
  9
$PUCSBASE
  2

  9
$PUCSNAME
  2

  9
$PUCSORG
 10
0.0
 20
0.0
 30
0.0
  9
$PUCSXDIR
 10
1.0
 20
0.0
 30
0.0
  9
$PUCSYDIR
 10
0.0
 20
1.0
 30
0.0
  9
$PUCSORTHOREF
  2

  9
$PUCSORTHOVIEW
 70
     0
  9
$PUCSORGTOP
 10
0.0
 20
0.0
 30
0.0
  9
$PUCSORGBOTTOM
 10
0.0
 20
0.0
 30
0.0
  9
$PUCSORGLEFT
 10
0.0
 20
0.0
 30
0.0
  9
$PUCSORGRIGHT
 10
0.0
 20
0.0
 30
0.0
  9
$PUCSORGFRONT
 10
0.0
 20
0.0
 30
0.0
  9
$PUCSORGBACK
 10
0.0
 20
0.0
 30
0.0
  9
$USERI1
 70
     0
  9
$USERI2
 70
     0
  9
$USERI3
 70
     0
  9
$USERI4
 70
     0
  9
$USERI5
 70
     0
  9
$USERR1
 40
0.0
  9
$USERR2
 40
0.0
  9
$USERR3
 40
0.0
  9
$USERR4
 40
0.0
  9
$USERR5
 40
0.0
  9
$WORLDVIEW
 70
     1
  9
$SHADEDGE
 70
     3
  9
$SHADEDIF
 70
    70
  9
$TILEMODE
 70
     1
  9
$MAXACTVP
 70
    64
  9
$PINSBASE
 10
0.0
 20
0.0
 30
0.0
  9
$PLIMCHECK
 70
     0
  9
$PEXTMIN
 10
-6.358064516129048
 20
-19.28145161290325
 30
0.0
  9
$PEXTMAX
 10
413.2741935483872
 20
276.2814516129032
 30
0.0
  9
$PLIMMIN
 10
-7.5
 20
-20.0
  9
$PLIMMAX
 10
412.5
 20
277.0
  9
$UNITMODE
 70
     0
  9
$VISRETAIN
 70
     1
  9
$PLINEGEN
 70
     0
  9
$PSLTSCALE
 70
     1
  9
$TREEDEPTH
 70
  3020
  9
$CMLSTYLE
  2
Standard
  9
$CMLJUST
 70
     0
  9
$CMLSCALE
 40
20.0
  9
$PROXYGRAPHICS
 70
     1
  9
$MEASUREMENT
 70
     1
  9
$CELWEIGHT
370
    -1
  9
$ENDCAPS
280
     0
  9
$JOINSTYLE
280
     0
  9
$LWDISPLAY
290
     0
  9
$INSUNITS
 70
     4
  9
$HYPERLINKBASE
  1

  9
$STYLESHEET
  1

  9
$XEDIT
290
     1
  9
$CEPSNTYPE
380
     0
  9
$PSTYLEMODE
290
     1
  9
$FINGERPRINTGUID
  2
{EC6BB858-51AA-46EC-B484-6C9CC7AB3E2E}
  9
$VERSIONGUID
  2
{FAEB1C32-E019-11D5-929B-00C0DF256EC4}
  9
$EXTNAMES
290
     1
  9
$PSVPSCALE
 40
0.0
  9
$OLESTARTUP
290
     0
  9
$SORTENTS
280
   127
  9
$INDEXCTL
280
     0
  9
$HIDETEXT
280
     1
  9
$XCLIPFRAME
280
     0
  9
$HALOGAP
280
     0
  9
$OBSCOLOR
 70
   257
  9
$OBSLTYPE
280
     0
  9
$INTERSECTIONDISPLAY
280
     0
  9
$INTERSECTIONCOLOR
 70
   257
  9
$DIMASSOC
280
     2
  9
$PROJECTNAME
  1

  9
$CAMERADISPLAY
290
     0
  9
$LENSLENGTH
 40
50.0
  9
$CAMERAHEIGHT
 40
0.0
  9
$STEPSPERSEC
 40
2.0
  9
$STEPSIZE
 40
6.0
  9
$3DDWFPREC
 40
2.0
  9
$PSOLWIDTH
 40
5.0
  9
$PSOLHEIGHT
 40
80.0
  9
$LOFTANG1
 40
1.570796326794897
  9
$LOFTANG2
 40
1.570796326794897
  9
$LOFTMAG1
 40
0.0
  9
$LOFTMAG2
 40
0.0
  9
$LOFTPARAM
 70
     7
  9
$LOFTNORMALS
280
     1
  9
$LATITUDE
 40
37.795
  9
$LONGITUDE
 40
-122.394
  9
$NORTHDIRECTION
 40
0.0
  9
$TIMEZONE
 70
 -8000
  9
$LIGHTGLYPHDISPLAY
280
     1
  9
$TILEMODELIGHTSYNCH
280
     1
  9
$CMATERIAL
347
73
  9
$SOLIDHIST
280
     1
  9
$SHOWHIST
280
     1
  9
$DWFFRAME
280
     2
  9
$DGNFRAME
280
     2
  9
$REALWORLDSCALE
290
     1
  9
$INTERFERECOLOR
 62
   256
  9
$CSHADOW
280
     0
  9
$SHADOWPLANELOCATION
 40
0.0
  0
ENDSEC
  0
SECTION
  2
CLASSES
  0
CLASS
  1
ACDBDICTIONARYWDFLT
  2
AcDbDictionaryWithDefault
  3
ObjectDBX Classes
 90
        0
 91
        3
280
     0
281
     0
  0
CLASS
  1
VISUALSTYLE
  2
AcDbVisualStyle
  3
ObjectDBX Classes
 90
     4095
 91
        3
280
     0
281
     0
  0
CLASS
  1
TABLESTYLE
  2
AcDbTableStyle
  3
ObjectDBX Classes
 90
     4095
 91
        3
280
     0
281
     0
  0
CLASS
  1
DICTIONARYVAR
  2
AcDbDictionaryVar
  3
ObjectDBX Classes
 90
        0
 91
        3
280
     0
281
     0
  0
CLASS
  1
SCALE
  2
AcDbScale
  3
ObjectDBX Classes
 90
     1153
 91
        3
280
     0
281
     0
  0
CLASS
  1
CELLSTYLEMAP
  2
AcDbCellStyleMap
  3
ObjectDBX Classes
 90
     1152
 91
        3
280
     0
281
     0
  0
CLASS
  1
RASTERVARIABLES
  2
AcDbRasterVariables
  3
ISM
 90
        0
 91
        3
280
     0
281
     0
  0
CLASS
  1
MATERIAL
  2
AcDbMaterial
  3
ObjectDBX Classes
 90
     1153
 91
        3
280
     0
281
     0
  0
CLASS
  1
SUN
  2
AcDbSun
  3
SCENEOE
 90
     1153
 91
        3
280
     0
281
     0
  0
CLASS
  1
MLEADERSTYLE
  2
AcDbMLeaderStyle
  3
ACDB_MLEADERSTYLE_CLASS
 90
     4095
 91
        3
280
     0
281
     0
  0
CLASS
  1
SORTENTSTABLE
  2
AcDbSortentsTable
  3
ObjectDBX Classes
 90
        0
 91
        3
280
     0
281
     0
  0
ENDSEC
  0
SECTION
  2
TABLES
  0
TABLE
  2
VPORT
  5
8
330
0
100
AcDbSymbolTable
 70
     1
  0
VPORT
  5
29
330
8
100
AcDbSymbolTableRecord
100
AcDbViewportTableRecord
  2
*Active
 70
     0
 10
0.0
 20
0.0
 11
1.0
 21
1.0
 12
188.7629233042826
 22
-23.17000341013772
 13
0.0
 23
0.0
 14
10.0
 24
10.0
 15
10.0
 25
10.0
 16
0.0
 26
0.0
 36
1.0
 17
453822.8892493294
 27
244809.8923346667
 37
120.1686899999798
 40
107.3669531250005
 41
2.391566265060241
 42
50.0
 43
0.0
 44
0.0
 50
0.0
 51
0.0
 71
    16
 72
  1000
 73
     1
 74
     3
 75
     0
 76
     0
 77
     0
 78
     0
281
     0
 65
     1
110
0.0
120
0.0
130
0.0
111
1.0
121
0.0
131
0.0
112
0.0
122
1.0
132
0.0
 79
     1
146
0.0
348
2F
 60
     3
 61
     5
292
     1
282
     1
141
0.0
142
0.0
 63
   256
361
80
  0
ENDTAB
  0
TABLE
  2
LTYPE
  5
5
330
0
100
AcDbSymbolTable
 70
     1
  0
LTYPE
  5
14
330
5
100
AcDbSymbolTableRecord
100
AcDbLinetypeTableRecord
  2
ByBlock
 70
     0
  3

 72
    65
 73
     0
 40
0.0
  0
LTYPE
  5
15
330
5
100
AcDbSymbolTableRecord
100
AcDbLinetypeTableRecord
  2
ByLayer
 70
     0
  3
Solid line
 72
    65
 73
     0
 40
0.0
  0
LTYPE
  5
16
330
5
100
AcDbSymbolTableRecord
100
AcDbLinetypeTableRecord
  2
Continuous
 70
     0
  3
Solid line
 72
    65
 73
     0
 40
0.0
  0
ENDTAB
  0
TABLE
  2
LAYER
  5
2
102
{ACAD_XDICTIONARY
360
BD
102
}
330
0
100
AcDbSymbolTable
 70
   174
  0
LAYER
  5
10
330
2
100
AcDbSymbolTableRecord
100
AcDbLayerTableRecord
  2
0
 70
     0
 62
     7
  6
Continuous
370
    -3
390
F
347
75
348
0
  0
LAYER
  5
D4
330
2
100
AcDbSymbolTableRecord
100
AcDbLayerTableRecord
  2
PRE
 70
     0
 62
     7
  6
Continuous
370
    -3
390
F
347
75
348
0
  0
LAYER
  5
179
330
2
100
AcDbSymbolTableRecord
100
AcDbLayerTableRecord
  2
LOE
 70
     0
 62
     5
  6
Continuous
370
    -3
390
F
347
75
348
0
1001
AcAecLayerStandard
1000

1000

  0
LAYER
  5
266
330
2
100
AcDbSymbolTableRecord
100
AcDbLayerTableRecord
  2
S1019
 70
     0
 62
     3
  6
Continuous
370
    -3
390
F
347
75
348
0
  0
LAYER
  5
2A8
330
2
100
AcDbSymbolTableRecord
100
AcDbLayerTableRecord
  2
C1005
 70
     0
 62
     7
  6
Continuous
370
    -3
390
F
347
75
348
0
  0
LAYER
  5
2AA
330
2
100
AcDbSymbolTableRecord
100
AcDbLayerTableRecord
  2
B1005
 70
     0
 62
     5
  6
Continuous
370
    -3
390
F
347
75
348
0
  0
LAYER
  5
2AB
330
2
100
AcDbSymbolTableRecord
100
AcDbLayerTableRecord
  2
S1005
 70
     0
 62
     3
  6
Continuous
370
    -3
390
F
347
75
348
0
  0
LAYER
  5
2AC
330
2
100
AcDbSymbolTableRecord
100
AcDbLayerTableRecord
  2
L1004
 70
     0
 62
     2
  6
Continuous
370
    -3
390
F
347
75
348
0
  0
LAYER
  5
2AD
330
2
100
AcDbSymbolTableRecord
100
AcDbLayerTableRecord
  2
DP002
 70
     0
 62
     6
  6
Continuous
370
    -3
390
F
347
75
348
0
  0
LAYER
  5
2AE
330
2
100
AcDbSymbolTableRecord
100
AcDbLayerTableRecord
  2
S1014
 70
     0
 62
     3
  6
Continuous
370
    -3
390
F
347
75
348
0
  0
LAYER
  5
2AF
330
2
100
AcDbSymbolTableRecord
100
AcDbLayerTableRecord
  2
C1014
 70
     0
 62
     7
  6
Continuous
370
    -3
390
F
347
75
348
0
  0
LAYER
  5
2B0
330
2
100
AcDbSymbolTableRecord
100
AcDbLayerTableRecord
  2
B1014
 70
     0
 62
     5
  6
Continuous
370
    -3
390
F
347
75
348
0
  0
LAYER
  5
2B1
330
2
100
AcDbSymbolTableRecord
100
AcDbLayerTableRecord
  2
L1015
 70
     0
 62
     2
  6
Continuous
370
    -3
390
F
347
75
348
0
  0
LAYER
  5
2B2
330
2
100
AcDbSymbolTableRecord
100
AcDbLayerTableRecord
  2
C1006
 70
     0
 62
     7
  6
Continuous
370
    -3
390
F
347
75
348
0
  0
LAYER
  5
2B3
330
2
100
AcDbSymbolTableRecord
100
AcDbLayerTableRecord
  2
S1006
 70
     0
 62
     3
  6
Continuous
370
    -3
390
F
347
75
348
0
  0
LAYER
  5
2B4
330
2
100
AcDbSymbolTableRecord
100
AcDbLayerTableRecord
  2
B1006
 70
     0
 62
     5
  6
Continuous
370
    -3
390
F
347
75
348
0
  0
LAYER
  5
2B6
330
2
100
AcDbSymbolTableRecord
100
AcDbLayerTableRecord
  2
L1007
 70
     0
 62
     2
  6
Continuous
370
    -3
390
F
347
75
348
0
  0
LAYER
  5
2B7
330
2
100
AcDbSymbolTableRecord
100
AcDbLayerTableRecord
  2
L1008
 70
     0
 62
     2
  6
Continuous
370
    -3
390
F
347
75
348
0
  0
LAYER
  5
2B8
330
2
100
AcDbSymbolTableRecord
100
AcDbLayerTableRecord
  2
L1009
 70
     0
 62
     2
  6
Continuous
370
    -3
390
F
347
75
348
0
  0
LAYER
  5
2B9
330
2
100
AcDbSymbolTableRecord
100
AcDbLayerTableRecord
  2
C1012
 70
     0
 62
     7
  6
Continuous
370
    -3
390
F
347
75
348
0
  0
LAYER
  5
2BA
330
2
100
AcDbSymbolTableRecord
100
AcDbLayerTableRecord
  2
S1012
 70
     0
 62
     3
  6
Continuous
370
    -3
390
F
347
75
348
0
  0
LAYER
  5
2BB
330
2
100
AcDbSymbolTableRecord
100
AcDbLayerTableRecord
  2
B1012
 70
     0
 62
     5
  6
Continuous
370
    -3
390
F
347
75
348
0
  0
LAYER
  5
2BC
330
2
100
AcDbSymbolTableRecord
100
AcDbLayerTableRecord
  2
L1013
 70
     0
 62
     2
  6
Continuous
370
    -3
390
F
347
75
348
0
  0
LAYER
  5
2BD
330
2
100
AcDbSymbolTableRecord
100
AcDbLayerTableRecord
  2
C1010
 70
     0
 62
     7
  6
Continuous
370
    -3
390
F
347
75
348
0
  0
LAYER
  5
2BE
330
2
100
AcDbSymbolTableRecord
100
AcDbLayerTableRecord
  2
B1010
 70
     0
 62
     5
  6
Continuous
370
    -3
390
F
347
75
348
0
  0
LAYER
  5
2BF
330
2
100
AcDbSymbolTableRecord
100
AcDbLayerTableRecord
  2
S1010
 70
     0
 62
     3
  6
Continuous
370
    -3
390
F
347
75
348
0
  0
LAYER
  5
2C0
330
2
100
AcDbSymbolTableRecord
100
AcDbLayerTableRecord
  2
L1011
 70
     0
 62
     2
  6
Continuous
370
    -3
390
F
347
75
348
0
  0
LAYER
  5
2C1
330
2
100
AcDbSymbolTableRecord
100
AcDbLayerTableRecord
  2
DP003
 70
     0
 62
     6
  6
Continuous
370
    -3
390
F
347
75
348
0
  0
LAYER
  5
2C2
330
2
100
AcDbSymbolTableRecord
100
AcDbLayerTableRecord
  2
L1019
 70
     0
 62
     2
  6
Continuous
370
    -3
390
F
347
75
348
0
  0
LAYER
  5
2C3
330
2
100
AcDbSymbolTableRecord
100
AcDbLayerTableRecord
  2
L1022
 70
     0
 62
     2
  6
Continuous
370
    -3
390
F
347
75
348
0
  0
LAYER
  5
2C4
330
2
100
AcDbSymbolTableRecord
100
AcDbLayerTableRecord
  2
L1023
 70
     0
 62
     2
  6
Continuous
370
    -3
390
F
347
75
348
0
  0
LAYER
  5
2C5
330
2
100
AcDbSymbolTableRecord
100
AcDbLayerTableRecord
  2
C1019
 70
     0
 62
     7
  6
Continuous
370
    -3
390
F
347
75
348
0
  0
LAYER
  5
2C6
330
2
100
AcDbSymbolTableRecord
100
AcDbLayerTableRecord
  2
B1019
 70
     0
 62
     5
  6
Continuous
370
    -3
390
F
347
75
348
0
  0
LAYER
  5
8A9
330
2
100
AcDbSymbolTableRecord
100
AcDbLayerTableRecord
  2
C1021
 70
     0
 62
     7
  6
Continuous
370
    -3
390
F
347
75
348
0
1001
AcAecLayerStandard
1000

1000

  0
LAYER
  5
8AA
330
2
100
AcDbSymbolTableRecord
100
AcDbLayerTableRecord
  2
B1021
 70
     0
 62
     5
  6
Continuous
370
    -3
390
F
347
75
348
0
1001
AcAecLayerStandard
1000

1000

  0
LAYER
  5
8AB
330
2
100
AcDbSymbolTableRecord
100
AcDbLayerTableRecord
  2
S1021
 70
     0
 62
     3
  6
Continuous
370
    -3
390
F
347
75
348
0
1001
AcAecLayerStandard
1000

1000

  0
LAYER
  5
8AC
330
2
100
AcDbSymbolTableRecord
100
AcDbLayerTableRecord
  2
L1020
 70
     0
 62
     2
  6
Continuous
370
    -3
390
F
347
75
348
0
1001
AcAecLayerStandard
1000

1000

  0
LAYER
  5
8B2
330
2
100
AcDbSymbolTableRecord
100
AcDbLayerTableRecord
  2
L1025
 70
     0
 62
     2
  6
Continuous
370
    -3
390
F
347
75
348
0
1001
AcAecLayerStandard
1000

1000

  0
LAYER
  5
8B3
330
2
100
AcDbSymbolTableRecord
100
AcDbLayerTableRecord
  2
C1024
 70
     0
 62
     7
  6
Continuous
370
    -3
390
F
347
75
348
0
1001
AcAecLayerStandard
1000

1000

  0
LAYER
  5
8B4
330
2
100
AcDbSymbolTableRecord
100
AcDbLayerTableRecord
  2
B1024
 70
     0
 62
     5
  6
Continuous
370
    -3
390
F
347
75
348
0
1001
AcAecLayerStandard
1000

1000

  0
LAYER
  5
8B5
330
2
100
AcDbSymbolTableRecord
100
AcDbLayerTableRecord
  2
S1024
 70
     0
 62
     3
  6
Continuous
370
    -3
390
F
347
75
348
0
1001
AcAecLayerStandard
1000

1000

  0
LAYER
  5
8BB
330
2
100
AcDbSymbolTableRecord
100
AcDbLayerTableRecord
  2
L1017
 70
     0
 62
     2
  6
Continuous
370
    -3
390
F
347
75
348
0
1001
AcAecLayerStandard
1000

1000

  0
LAYER
  5
8BC
330
2
100
AcDbSymbolTableRecord
100
AcDbLayerTableRecord
  2
C1016
 70
     0
 62
     7
  6
Continuous
370
    -3
390
F
347
75
348
0
1001
AcAecLayerStandard
1000

1000

  0
LAYER
  5
8BD
330
2
100
AcDbSymbolTableRecord
100
AcDbLayerTableRecord
  2
B1016
 70
     0
 62
     5
  6
Continuous
370
    -3
390
F
347
75
348
0
1001
AcAecLayerStandard
1000

1000

  0
LAYER
  5
8BE
330
2
100
AcDbSymbolTableRecord
100
AcDbLayerTableRecord
  2
S1016
 70
     0
 62
     3
  6
Continuous
370
    -3
390
F
347
75
348
0
1001
AcAecLayerStandard
1000

1000

  0
LAYER
  5
8C6
330
2
100
AcDbSymbolTableRecord
100
AcDbLayerTableRecord
  2
L1027
 70
     0
 62
     2
  6
Continuous
370
    -3
390
F
347
75
348
0
1001
AcAecLayerStandard
1000

1000

  0
LAYER
  5
8C7
330
2
100
AcDbSymbolTableRecord
100
AcDbLayerTableRecord
  2
L1029
 70
     0
 62
     2
  6
Continuous
370
    -3
390
F
347
75
348
0
1001
AcAecLayerStandard
1000

1000

  0
LAYER
  5
8C8
330
2
100
AcDbSymbolTableRecord
100
AcDbLayerTableRecord
  2
C1026
 70
     0
 62
     7
  6
Continuous
370
    -3
390
F
347
75
348
0
1001
AcAecLayerStandard
1000

1000

  0
LAYER
  5
8C9
330
2
100
AcDbSymbolTableRecord
100
AcDbLayerTableRecord
  2
C1028
 70
     0
 62
     7
  6
Continuous
370
    -3
390
F
347
75
348
0
1001
AcAecLayerStandard
1000

1000

  0
LAYER
  5
8CA
330
2
100
AcDbSymbolTableRecord
100
AcDbLayerTableRecord
  2
B1026
 70
     0
 62
     5
  6
Continuous
370
    -3
390
F
347
75
348
0
1001
AcAecLayerStandard
1000

1000

  0
LAYER
  5
8CB
330
2
100
AcDbSymbolTableRecord
100
AcDbLayerTableRecord
  2
B1028
 70
     0
 62
     5
  6
Continuous
370
    -3
390
F
347
75
348
0
1001
AcAecLayerStandard
1000

1000

  0
LAYER
  5
8CC
330
2
100
AcDbSymbolTableRecord
100
AcDbLayerTableRecord
  2
S1026
 70
     0
 62
     3
  6
Continuous
370
    -3
390
F
347
75
348
0
1001
AcAecLayerStandard
1000

1000

  0
LAYER
  5
8CD
330
2
100
AcDbSymbolTableRecord
100
AcDbLayerTableRecord
  2
S1028
 70
     0
 62
     3
  6
Continuous
370
    -3
390
F
347
75
348
0
1001
AcAecLayerStandard
1000

1000

  0
LAYER
  5
8D3
330
2
100
AcDbSymbolTableRecord
100
AcDbLayerTableRecord
  2
L1031
 70
     0
 62
     2
  6
Continuous
370
    -3
390
F
347
75
348
0
1001
AcAecLayerStandard
1000

1000

  0
LAYER
  5
8D4
330
2
100
AcDbSymbolTableRecord
100
AcDbLayerTableRecord
  2
L1032
 70
     0
 62
     2
  6
Continuous
370
    -3
390
F
347
75
348
0
1001
AcAecLayerStandard
1000

1000

  0
LAYER
  5
8D5
330
2
100
AcDbSymbolTableRecord
100
AcDbLayerTableRecord
  2
C1030
 70
     0
 62
     7
  6
Continuous
370
    -3
390
F
347
75
348
0
1001
AcAecLayerStandard
1000

1000

  0
LAYER
  5
8D6
330
2
100
AcDbSymbolTableRecord
100
AcDbLayerTableRecord
  2
B1030
 70
     0
 62
     5
  6
Continuous
370
    -3
390
F
347
75
348
0
1001
AcAecLayerStandard
1000

1000

  0
LAYER
  5
8D7
330
2
100
AcDbSymbolTableRecord
100
AcDbLayerTableRecord
  2
S1030
 70
     0
 62
     3
  6
Continuous
370
    -3
390
F
347
75
348
0
1001
AcAecLayerStandard
1000

1000

  0
LAYER
  5
8DD
330
2
100
AcDbSymbolTableRecord
100
AcDbLayerTableRecord
  2
DP004
 70
     0
 62
     6
  6
Continuous
370
    -3
390
F
347
75
348
0
1001
AcAecLayerStandard
1000

1000

  0
LAYER
  5
8E1
330
2
100
AcDbSymbolTableRecord
100
AcDbLayerTableRecord
  2
L1038
 70
     0
 62
     2
  6
Continuous
370
    -3
390
F
347
75
348
0
1001
AcAecLayerStandard
1000

1000

  0
LAYER
  5
8E2
330
2
100
AcDbSymbolTableRecord
100
AcDbLayerTableRecord
  2
C1037
 70
     0
 62
     7
  6
Continuous
370
    -3
390
F
347
75
348
0
1001
AcAecLayerStandard
1000

1000

  0
LAYER
  5
8E3
330
2
100
AcDbSymbolTableRecord
100
AcDbLayerTableRecord
  2
B1037
 70
     0
 62
     5
  6
Continuous
370
    -3
390
F
347
75
348
0
1001
AcAecLayerStandard
1000

1000

  0
LAYER
  5
8E4
330
2
100
AcDbSymbolTableRecord
100
AcDbLayerTableRecord
  2
S1037
 70
     0
 62
     3
  6
Continuous
370
    -3
390
F
347
75
348
0
1001
AcAecLayerStandard
1000

1000

  0
LAYER
  5
8EA
330
2
100
AcDbSymbolTableRecord
100
AcDbLayerTableRecord
  2
L1040
 70
     0
 62
     2
  6
Continuous
370
    -3
390
F
347
75
348
0
1001
AcAecLayerStandard
1000

1000

  0
LAYER
  5
8EB
330
2
100
AcDbSymbolTableRecord
100
AcDbLayerTableRecord
  2
L1042
 70
     0
 62
     2
  6
Continuous
370
    -3
390
F
347
75
348
0
1001
AcAecLayerStandard
1000

1000

  0
LAYER
  5
8EC
330
2
100
AcDbSymbolTableRecord
100
AcDbLayerTableRecord
  2
C1039
 70
     0
 62
     7
  6
Continuous
370
    -3
390
F
347
75
348
0
1001
AcAecLayerStandard
1000

1000

  0
LAYER
  5
8ED
330
2
100
AcDbSymbolTableRecord
100
AcDbLayerTableRecord
  2
B1039
 70
     0
 62
     5
  6
Continuous
370
    -3
390
F
347
75
348
0
1001
AcAecLayerStandard
1000

1000

  0
LAYER
  5
8EE
330
2
100
AcDbSymbolTableRecord
100
AcDbLayerTableRecord
  2
S1039
 70
     0
 62
     3
  6
Continuous
370
    -3
390
F
347
75
348
0
1001
AcAecLayerStandard
1000

1000

  0
LAYER
  5
8EF
330
2
100
AcDbSymbolTableRecord
100
AcDbLayerTableRecord
  2
C1041
 70
     0
 62
     7
  6
Continuous
370
    -3
390
F
347
75
348
0
1001
AcAecLayerStandard
1000

1000

  0
LAYER
  5
8F0
330
2
100
AcDbSymbolTableRecord
100
AcDbLayerTableRecord
  2
B1041
 70
     0
 62
     5
  6
Continuous
370
    -3
390
F
347
75
348
0
1001
AcAecLayerStandard
1000

1000

  0
LAYER
  5
8F1
330
2
100
AcDbSymbolTableRecord
100
AcDbLayerTableRecord
  2
S1041
 70
     0
 62
     3
  6
Continuous
370
    -3
390
F
347
75
348
0
1001
AcAecLayerStandard
1000

1000

  0
LAYER
  5
998
330
2
100
AcDbSymbolTableRecord
100
AcDbLayerTableRecord
  2
C1043
 70
     0
 62
     7
  6
Continuous
370
    -3
390
F
347
75
348
0
1001
AcAecLayerStandard
1000

1000

  0
LAYER
  5
999
330
2
100
AcDbSymbolTableRecord
100
AcDbLayerTableRecord
  2
B1043
 70
     0
 62
     5
  6
Continuous
370
    -3
390
F
347
75
348
0
1001
AcAecLayerStandard
1000

1000

  0
LAYER
  5
99A
330
2
100
AcDbSymbolTableRecord
100
AcDbLayerTableRecord
  2
S1043
 70
     0
 62
     3
  6
Continuous
370
    -3
390
F
347
75
348
0
1001
AcAecLayerStandard
1000

1000

  0
LAYER
  5
99B
330
2
100
AcDbSymbolTableRecord
100
AcDbLayerTableRecord
  2
L1044
 70
     0
 62
     2
  6
Continuous
370
    -3
390
F
347
75
348
0
1001
AcAecLayerStandard
1000

1000

  0
LAYER
  5
9A1
330
2
100
AcDbSymbolTableRecord
100
AcDbLayerTableRecord
  2
C1045
 70
     0
 62
     7
  6
Continuous
370
    -3
390
F
347
75
348
0
1001
AcAecLayerStandard
1000

1000

  0
LAYER
  5
9A2
330
2
100
AcDbSymbolTableRecord
100
AcDbLayerTableRecord
  2
B1045
 70
     4
 62
     5
  6
Continuous
370
    -3
390
F
347
75
348
0
1001
AcAecLayerStandard
1000

1000

  0
LAYER
  5
9A3
330
2
100
AcDbSymbolTableRecord
100
AcDbLayerTableRecord
  2
S1045
 70
     0
 62
     3
  6
Continuous
370
    -3
390
F
347
75
348
0
1001
AcAecLayerStandard
1000

1000

  0
LAYER
  5
9A4
330
2
100
AcDbSymbolTableRecord
100
AcDbLayerTableRecord
  2
L1046
 70
     0
 62
     2
  6
Continuous
370
    -3
390
F
347
75
348
0
1001
AcAecLayerStandard
1000

1000

  0
LAYER
  5
9AA
330
2
100
AcDbSymbolTableRecord
100
AcDbLayerTableRecord
  2
C1047
 70
     0
 62
     7
  6
Continuous
370
    -3
390
F
347
75
348
0
1001
AcAecLayerStandard
1000

1000

  0
LAYER
  5
9AB
330
2
100
AcDbSymbolTableRecord
100
AcDbLayerTableRecord
  2
B1047
 70
     0
 62
     5
  6
Continuous
370
    -3
390
F
347
75
348
0
1001
AcAecLayerStandard
1000

1000

  0
LAYER
  5
9AC
330
2
100
AcDbSymbolTableRecord
100
AcDbLayerTableRecord
  2
S1047
 70
     0
 62
     3
  6
Continuous
370
    -3
390
F
347
75
348
0
1001
AcAecLayerStandard
1000

1000

  0
LAYER
  5
9AD
330
2
100
AcDbSymbolTableRecord
100
AcDbLayerTableRecord
  2
L1048
 70
     0
 62
     2
  6
Continuous
370
    -3
390
F
347
75
348
0
1001
AcAecLayerStandard
1000

1000

  0
LAYER
  5
9B3
330
2
100
AcDbSymbolTableRecord
100
AcDbLayerTableRecord
  2
C1052
 70
     0
 62
     7
  6
Continuous
370
    -3
390
F
347
75
348
0
1001
AcAecLayerStandard
1000

1000

  0
LAYER
  5
9B4
330
2
100
AcDbSymbolTableRecord
100
AcDbLayerTableRecord
  2
B1052
 70
     0
 62
     5
  6
Continuous
370
    -3
390
F
347
75
348
0
1001
AcAecLayerStandard
1000

1000

  0
LAYER
  5
9B5
330
2
100
AcDbSymbolTableRecord
100
AcDbLayerTableRecord
  2
S1052
 70
     0
 62
     3
  6
Continuous
370
    -3
390
F
347
75
348
0
1001
AcAecLayerStandard
1000

1000

  0
LAYER
  5
9B7
330
2
100
AcDbSymbolTableRecord
100
AcDbLayerTableRecord
  2
L1049
 70
     0
 62
     2
  6
Continuous
370
    -3
390
F
347
75
348
0
1001
AcAecLayerStandard
1000

1000

  0
LAYER
  5
9B8
330
2
100
AcDbSymbolTableRecord
100
AcDbLayerTableRecord
  2
L1050
 70
     0
 62
     2
  6
Continuous
370
    -3
390
F
347
75
348
0
1001
AcAecLayerStandard
1000

1000

  0
LAYER
  5
9B9
330
2
100
AcDbSymbolTableRecord
100
AcDbLayerTableRecord
  2
L1051
 70
     0
 62
     2
  6
Continuous
370
    -3
390
F
347
75
348
0
1001
AcAecLayerStandard
1000

1000

  0
LAYER
  5
9EA
330
2
100
AcDbSymbolTableRecord
100
AcDbLayerTableRecord
  2
SF001
 70
     0
 62
   230
  6
Continuous
370
    -3
390
F
347
75
348
0
  0
LAYER
  5
9ED
330
2
100
AcDbSymbolTableRecord
100
AcDbLayerTableRecord
  2
SF002
 70
     0
 62
   230
  6
Continuous
370
    -3
390
F
347
75
348
0
  0
LAYER
  5
9F0
330
2
100
AcDbSymbolTableRecord
100
AcDbLayerTableRecord
  2
SF003
 70
     0
 62
   230
  6
Continuous
370
    -3
390
F
347
75
348
0
  0
LAYER
  5
9F3
330
2
100
AcDbSymbolTableRecord
100
AcDbLayerTableRecord
  2
DP010
 70
     0
 62
     6
  6
Continuous
370
    -3
390
F
347
75
348
0
  0
LAYER
  5
9F9
330
2
100
AcDbSymbolTableRecord
100
AcDbLayerTableRecord
  2
S1061
 70
     0
 62
     3
  6
Continuous
370
    -3
390
F
347
75
348
0
  0
LAYER
  5
A07
330
2
100
AcDbSymbolTableRecord
100
AcDbLayerTableRecord
  2
L1062
 70
     0
 62
     2
  6
Continuous
370
    -3
390
F
347
75
348
0
  0
LAYER
  5
A0A
330
2
100
AcDbSymbolTableRecord
100
AcDbLayerTableRecord
  2
C1061
 70
     0
 62
     7
  6
Continuous
370
    -3
390
F
347
75
348
0
  0
LAYER
  5
A18
330
2
100
AcDbSymbolTableRecord
100
AcDbLayerTableRecord
  2
B1061
 70
     0
 62
     5
  6
Continuous
370
    -3
390
F
347
75
348
0
  0
LAYER
  5
A27
330
2
100
AcDbSymbolTableRecord
100
AcDbLayerTableRecord
  2
C1072
 70
     0
 62
     7
  6
Continuous
370
    -3
390
F
347
75
348
0
  0
LAYER
  5
A39
330
2
100
AcDbSymbolTableRecord
100
AcDbLayerTableRecord
  2
DP013
 70
     0
 62
     6
  6
Continuous
370
    -3
390
F
347
75
348
0
  0
LAYER
  5
A3F
330
2
100
AcDbSymbolTableRecord
100
AcDbLayerTableRecord
  2
S1072
 70
     0
 62
     3
  6
Continuous
370
    -3
390
F
347
75
348
0
  0
LAYER
  5
A5D
330
2
100
AcDbSymbolTableRecord
100
AcDbLayerTableRecord
  2
L1071
 70
     0
 62
     2
  6
Continuous
370
    -3
390
F
347
75
348
0
  0
LAYER
  5
A60
330
2
100
AcDbSymbolTableRecord
100
AcDbLayerTableRecord
  2
L1070
 70
     0
 62
     2
  6
Continuous
370
    -3
390
F
347
75
348
0
  0
LAYER
  5
A63
330
2
100
AcDbSymbolTableRecord
100
AcDbLayerTableRecord
  2
L1069
 70
     0
 62
     2
  6
Continuous
370
    -3
390
F
347
75
348
0
  0
LAYER
  5
A66
330
2
100
AcDbSymbolTableRecord
100
AcDbLayerTableRecord
  2
DP012
 70
     0
 62
     6
  6
Continuous
370
    -3
390
F
347
75
348
0
  0
LAYER
  5
A6C
330
2
100
AcDbSymbolTableRecord
100
AcDbLayerTableRecord
  2
C1063
 70
     0
 62
     7
  6
Continuous
370
    -3
390
F
347
75
348
0
  0
LAYER
  5
A7F
330
2
100
AcDbSymbolTableRecord
100
AcDbLayerTableRecord
  2
S1063
 70
     0
 62
     3
  6
Continuous
370
    -3
390
F
347
75
348
0
  0
LAYER
  5
A9E
330
2
100
AcDbSymbolTableRecord
100
AcDbLayerTableRecord
  2
L1068
 70
     0
 62
     2
  6
Continuous
370
    -3
390
F
347
75
348
0
  0
LAYER
  5
AA1
330
2
100
AcDbSymbolTableRecord
100
AcDbLayerTableRecord
  2
L1067
 70
     0
 62
     2
  6
Continuous
370
    -3
390
F
347
75
348
0
  0
LAYER
  5
AA4
330
2
100
AcDbSymbolTableRecord
100
AcDbLayerTableRecord
  2
L1066
 70
     0
 62
     2
  6
Continuous
370
    -3
390
F
347
75
348
0
  0
LAYER
  5
AA7
330
2
100
AcDbSymbolTableRecord
100
AcDbLayerTableRecord
  2
L1065
 70
     0
 62
     2
  6
Continuous
370
    -3
390
F
347
75
348
0
  0
LAYER
  5
AAA
330
2
100
AcDbSymbolTableRecord
100
AcDbLayerTableRecord
  2
L1064
 70
     0
 62
     2
  6
Continuous
370
    -3
390
F
347
75
348
0
  0
LAYER
  5
AAD
330
2
100
AcDbSymbolTableRecord
100
AcDbLayerTableRecord
  2
DP009
 70
     0
 62
     6
  6
Continuous
370
    -3
390
F
347
75
348
0
  0
LAYER
  5
AB3
330
2
100
AcDbSymbolTableRecord
100
AcDbLayerTableRecord
  2
C1056
 70
     0
 62
     7
  6
Continuous
370
    -3
390
F
347
75
348
0
  0
LAYER
  5
ABF
330
2
100
AcDbSymbolTableRecord
100
AcDbLayerTableRecord
  2
B1056
 70
     0
 62
     5
  6
Continuous
370
    -3
390
F
347
75
348
0
  0
LAYER
  5
ACA
330
2
100
AcDbSymbolTableRecord
100
AcDbLayerTableRecord
  2
S1056
 70
     0
 62
     3
  6
Continuous
370
    -3
390
F
347
75
348
0
  0
LAYER
  5
AD5
330
2
100
AcDbSymbolTableRecord
100
AcDbLayerTableRecord
  2
L1057
 70
     0
 62
     2
  6
Continuous
370
    -3
390
F
347
75
348
0
  0
LAYER
  5
AD8
330
2
100
AcDbSymbolTableRecord
100
AcDbLayerTableRecord
  2
L1058
 70
     0
 62
     2
  6
Continuous
370
    -3
390
F
347
75
348
0
  0
LAYER
  5
ADB
330
2
100
AcDbSymbolTableRecord
100
AcDbLayerTableRecord
  2
C1060
 70
     0
 62
     7
  6
Continuous
370
    -3
390
F
347
75
348
0
  0
LAYER
  5
AE7
330
2
100
AcDbSymbolTableRecord
100
AcDbLayerTableRecord
  2
S1060
 70
     0
 62
     3
  6
Continuous
370
    -3
390
F
347
75
348
0
  0
LAYER
  5
AF1
330
2
100
AcDbSymbolTableRecord
100
AcDbLayerTableRecord
  2
B1060
 70
     0
 62
     5
  6
Continuous
370
    -3
390
F
347
75
348
0
  0
LAYER
  5
AFC
330
2
100
AcDbSymbolTableRecord
100
AcDbLayerTableRecord
  2
L1059
 70
     0
 62
     2
  6
Continuous
370
    -3
390
F
347
75
348
0
  0
LAYER
  5
AFF
330
2
100
AcDbSymbolTableRecord
100
AcDbLayerTableRecord
  2
C1074
 70
     0
 62
     7
  6
Continuous
370
    -3
390
F
347
75
348
0
  0
LAYER
  5
B0B
330
2
100
AcDbSymbolTableRecord
100
AcDbLayerTableRecord
  2
S1074
 70
     0
 62
     3
  6
Continuous
370
    -3
390
F
347
75
348
0
  0
LAYER
  5
B15
330
2
100
AcDbSymbolTableRecord
100
AcDbLayerTableRecord
  2
L1073
 70
     0
 62
     2
  6
Continuous
370
    -3
390
F
347
75
348
0
  0
LAYER
  5
B29
330
2
100
AcDbSymbolTableRecord
100
AcDbLayerTableRecord
  2
DP011
 70
     0
 62
     6
  6
Continuous
370
    -3
390
F
347
75
348
0
  0
LAYER
  5
B56
330
2
100
AcDbSymbolTableRecord
100
AcDbLayerTableRecord
  2
C1083
 70
     0
 62
     7
  6
Continuous
370
    -3
390
F
347
75
348
0
  0
LAYER
  5
B67
330
2
100
AcDbSymbolTableRecord
100
AcDbLayerTableRecord
  2
S1083
 70
     0
 62
     3
  6
Continuous
370
    -3
390
F
347
75
348
0
  0
LAYER
  5
B79
330
2
100
AcDbSymbolTableRecord
100
AcDbLayerTableRecord
  2
L1082
 70
     0
 62
     2
  6
Continuous
370
    -3
390
F
347
75
348
0
  0
LAYER
  5
B7C
330
2
100
AcDbSymbolTableRecord
100
AcDbLayerTableRecord
  2
L1081
 70
     0
 62
     2
  6
Continuous
370
    -3
390
F
347
75
348
0
  0
LAYER
  5
B7F
330
2
100
AcDbSymbolTableRecord
100
AcDbLayerTableRecord
  2
L1080
 70
     0
 62
     2
  6
Continuous
370
    -3
390
F
347
75
348
0
  0
LAYER
  5
B82
330
2
100
AcDbSymbolTableRecord
100
AcDbLayerTableRecord
  2
L1079
 70
     0
 62
     2
  6
Continuous
370
    -3
390
F
347
75
348
0
  0
LAYER
  5
B85
330
2
100
AcDbSymbolTableRecord
100
AcDbLayerTableRecord
  2
L1078
 70
     0
 62
     2
  6
Continuous
370
    -3
390
F
347
75
348
0
  0
LAYER
  5
B88
330
2
100
AcDbSymbolTableRecord
100
AcDbLayerTableRecord
  2
L1077
 70
     0
 62
     2
  6
Continuous
370
    -3
390
F
347
75
348
0
  0
LAYER
  5
B8B
330
2
100
AcDbSymbolTableRecord
100
AcDbLayerTableRecord
  2
DP014
 70
     0
 62
     6
  6
Continuous
370
    -3
390
F
347
75
348
0
  0
LAYER
  5
C06
330
2
100
AcDbSymbolTableRecord
100
AcDbLayerTableRecord
  2
DP008
 70
     0
 62
     6
  6
Continuous
370
    -3
390
F
347
75
348
0
  0
LAYER
  5
C0C
330
2
100
AcDbSymbolTableRecord
100
AcDbLayerTableRecord
  2
C1053
 70
     0
 62
     7
  6
Continuous
370
    -3
390
F
347
75
348
0
  0
LAYER
  5
C1E
330
2
100
AcDbSymbolTableRecord
100
AcDbLayerTableRecord
  2
B1053
 70
     0
 62
     5
  6
Continuous
370
    -3
390
F
347
75
348
0
  0
LAYER
  5
C2F
330
2
100
AcDbSymbolTableRecord
100
AcDbLayerTableRecord
  2
S1053
 70
     0
 62
     3
  6
Continuous
370
    -3
390
F
347
75
348
0
  0
LAYER
  5
C45
330
2
100
AcDbSymbolTableRecord
100
AcDbLayerTableRecord
  2
L1054
 70
     0
 62
     2
  6
Continuous
370
    -3
390
F
347
75
348
0
  0
LAYER
  5
C48
330
2
100
AcDbSymbolTableRecord
100
AcDbLayerTableRecord
  2
L1055
 70
     0
 62
     2
  6
Continuous
370
    -3
390
F
347
75
348
0
  0
LAYER
  5
C4B
330
2
100
AcDbSymbolTableRecord
100
AcDbLayerTableRecord
  2
B
 70
     0
 62
     7
  6
Continuous
370
    -3
390
F
347
75
348
0
  0
LAYER
  5
C55
330
2
100
AcDbSymbolTableRecord
100
AcDbLayerTableRecord
  2
DP
 70
     0
 62
     7
  6
Continuous
370
    -3
390
F
347
75
348
0
  0
LAYER
  5
C68
330
2
100
AcDbSymbolTableRecord
100
AcDbLayerTableRecord
  2
DP016
 70
     0
 62
     6
  6
Continuous
370
    -3
390
F
347
75
348
0
  0
LAYER
  5
C6E
330
2
100
AcDbSymbolTableRecord
100
AcDbLayerTableRecord
  2
DP015
 70
     0
 62
     6
  6
Continuous
370
    -3
390
F
347
75
348
0
  0
LAYER
  5
C95
330
2
100
AcDbSymbolTableRecord
100
AcDbLayerTableRecord
  2
B1072
 70
     0
 62
     5
  6
Continuous
370
    -3
390
F
347
75
348
0
  0
LAYER
  5
CC6
330
2
100
AcDbSymbolTableRecord
100
AcDbLayerTableRecord
  2
L1084
 70
     0
 62
     2
  6
Continuous
370
    -3
390
F
347
75
348
0
  0
LAYER
  5
CC9
330
2
100
AcDbSymbolTableRecord
100
AcDbLayerTableRecord
  2
L1098
 70
     0
 62
     2
  6
Continuous
370
    -3
390
F
347
75
348
0
  0
LAYER
  5
CE8
330
2
100
AcDbSymbolTableRecord
100
AcDbLayerTableRecord
  2
B1098
 70
     0
 62
     5
  6
Continuous
370
    -3
390
F
347
75
348
0
  0
LAYER
  5
CFF
330
2
100
AcDbSymbolTableRecord
100
AcDbLayerTableRecord
  2
S1098
 70
     0
 62
     3
  6
Continuous
370
    -3
390
F
347
75
348
0
  0
LAYER
  5
D57
330
2
100
AcDbSymbolTableRecord
100
AcDbLayerTableRecord
  2
L1093
 70
     0
 62
     2
  6
Continuous
370
    -3
390
F
347
75
348
0
  0
LAYER
  5
D5A
330
2
100
AcDbSymbolTableRecord
100
AcDbLayerTableRecord
  2
L1094
 70
     0
 62
     2
  6
Continuous
370
    -3
390
F
347
75
348
0
  0
LAYER
  5
D5D
330
2
100
AcDbSymbolTableRecord
100
AcDbLayerTableRecord
  2
L1095
 70
     0
 62
     2
  6
Continuous
370
    -3
390
F
347
75
348
0
  0
LAYER
  5
D60
330
2
100
AcDbSymbolTableRecord
100
AcDbLayerTableRecord
  2
L1096
 70
     0
 62
     2
  6
Continuous
370
    -3
390
F
347
75
348
0
  0
LAYER
  5
D63
330
2
100
AcDbSymbolTableRecord
100
AcDbLayerTableRecord
  2
L1097
 70
     0
 62
     2
  6
Continuous
370
    -3
390
F
347
75
348
0
  0
LAYER
  5
D66
330
2
100
AcDbSymbolTableRecord
100
AcDbLayerTableRecord
  2
L1085
 70
     0
 62
     2
  6
Continuous
370
    -3
390
F
347
75
348
0
  0
LAYER
  5
D69
330
2
100
AcDbSymbolTableRecord
100
AcDbLayerTableRecord
  2
L1086
 70
     0
 62
     2
  6
Continuous
370
    -3
390
F
347
75
348
0
  0
LAYER
  5
D6C
330
2
100
AcDbSymbolTableRecord
100
AcDbLayerTableRecord
  2
L1087
 70
     0
 62
     2
  6
Continuous
370
    -3
390
F
347
75
348
0
  0
LAYER
  5
D6F
330
2
100
AcDbSymbolTableRecord
100
AcDbLayerTableRecord
  2
L1088
 70
     0
 62
     2
  6
Continuous
370
    -3
390
F
347
75
348
0
  0
LAYER
  5
D72
330
2
100
AcDbSymbolTableRecord
100
AcDbLayerTableRecord
  2
L1089
 70
     0
 62
     2
  6
Continuous
370
    -3
390
F
347
75
348
0
  0
LAYER
  5
D75
330
2
100
AcDbSymbolTableRecord
100
AcDbLayerTableRecord
  2
L1090
 70
     0
 62
     2
  6
Continuous
370
    -3
390
F
347
75
348
0
  0
LAYER
  5
D78
330
2
100
AcDbSymbolTableRecord
100
AcDbLayerTableRecord
  2
L1091
 70
     0
 62
     2
  6
Continuous
370
    -3
390
F
347
75
348
0
  0
LAYER
  5
D7D
330
2
100
AcDbSymbolTableRecord
100
AcDbLayerTableRecord
  2
L1092
 70
     0
 62
     2
  6
Continuous
370
    -3
390
F
347
75
348
0
  0
LAYER
  5
D80
330
2
100
AcDbSymbolTableRecord
100
AcDbLayerTableRecord
  2
DP017
 70
     0
 62
     6
  6
Continuous
370
    -3
390
F
347
75
348
0
  0
LAYER
  5
D86
330
2
100
AcDbSymbolTableRecord
100
AcDbLayerTableRecord
  2
L1100
 70
     0
 62
     2
  6
Continuous
370
    -3
390
F
347
75
348
0
  0
LAYER
  5
D89
330
2
100
AcDbSymbolTableRecord
100
AcDbLayerTableRecord
  2
L1101
 70
     0
 62
     2
  6
Continuous
370
    -3
390
F
347
75
348
0
  0
LAYER
  5
D8C
330
2
100
AcDbSymbolTableRecord
100
AcDbLayerTableRecord
  2
L1102
 70
     0
 62
     2
  6
Continuous
370
    -3
390
F
347
75
348
0
  0
LAYER
  5
D8F
330
2
100
AcDbSymbolTableRecord
100
AcDbLayerTableRecord
  2
L1103
 70
     0
 62
     2
  6
Continuous
370
    -3
390
F
347
75
348
0
  0
LAYER
  5
D92
330
2
100
AcDbSymbolTableRecord
100
AcDbLayerTableRecord
  2
L1104
 70
     0
 62
     2
  6
Continuous
370
    -3
390
F
347
75
348
0
  0
LAYER
  5
DA9
330
2
100
AcDbSymbolTableRecord
100
AcDbLayerTableRecord
  2
B1063
 70
     0
 62
     5
  6
Continuous
370
    -3
390
F
347
75
348
0
  0
LAYER
  5
DD4
330
2
100
AcDbSymbolTableRecord
100
AcDbLayerTableRecord
  2
C1098
 70
     0
 62
     7
  6
Continuous
370
    -3
390
F
347
75
348
0
1001
AcAecLayerStandard
1000

1000

  0
LAYER
  5
DDB
330
2
100
AcDbSymbolTableRecord
100
AcDbLayerTableRecord
  2
DP007
 70
     0
 62
     6
  6
Continuous
370
    -3
390
F
347
75
348
0
1001
AcAecLayerStandard
1000

1000

  0
LAYER
  5
DE1
330
2
100
AcDbSymbolTableRecord
100
AcDbLayerTableRecord
  2
B1074
 70
     0
 62
     5
  6
Continuous
370
    -3
390
F
347
75
348
0
1001
AcAecLayerStandard
1000

1000

  0
LAYER
  5
DEC
330
2
100
AcDbSymbolTableRecord
100
AcDbLayerTableRecord
  2
DP006
 70
     0
 62
     6
  6
Continuous
370
    -3
390
F
347
75
348
0
1001
AcAecLayerStandard
1000

1000

  0
LAYER
  5
DF5
330
2
100
AcDbSymbolTableRecord
100
AcDbLayerTableRecord
  2
DP018
 70
     0
 62
     6
  6
Continuous
370
    -3
390
F
347
75
348
0
1001
AcAecLayerStandard
1000

1000

  0
ENDTAB
  0
TABLE
  2
STYLE
  5
3
330
0
100
AcDbSymbolTable
 70
     2
  0
STYLE
  5
11
330
3
100
AcDbSymbolTableRecord
100
AcDbTextStyleTableRecord
  2
Standard
 70
     0
 40
0.0
 41
1.0
 50
0.0
 71
     0
 42
2.5
  3
arial.ttf
  4

1001
ACAD
1000
Arial
1071
        0
  0
STYLE
  5
B8
330
3
100
AcDbSymbolTableRecord
100
AcDbTextStyleTableRecord
  2
Annotative
 70
     0
 40
0.0
 41
1.0
 50
0.0
 71
     0
 42
2.5
  3
arial.ttf
  4

1001
ACAD
1000
Arial
1071
        0
1001
AcadAnnotative
1000
AnnotativeData
1002
{
1070
     1
1070
     1
1002
}
  0
ENDTAB
  0
TABLE
  2
VIEW
  5
6
330
0
100
AcDbSymbolTable
 70
     0
  0
ENDTAB
  0
TABLE
  2
UCS
  5
7
330
0
100
AcDbSymbolTable
 70
     0
  0
ENDTAB
  0
TABLE
  2
APPID
  5
9
330
0
100
AcDbSymbolTable
 70
     5
  0
APPID
  5
12
330
9
100
AcDbSymbolTableRecord
100
AcDbRegAppTableRecord
  2
ACAD
 70
     0
  0
APPID
  5
B9
330
9
100
AcDbSymbolTableRecord
100
AcDbRegAppTableRecord
  2
AcadAnnotative
 70
     0
  0
APPID
  5
163
330
9
100
AcDbSymbolTableRecord
100
AcDbRegAppTableRecord
  2
PLOTTRANSPARENCY
 70
     0
  0
APPID
  5
17A
330
9
100
AcDbSymbolTableRecord
100
AcDbRegAppTableRecord
  2
AcAecLayerStandard
 70
     0
  0
APPID
  5
E02
330
9
100
AcDbSymbolTableRecord
100
AcDbRegAppTableRecord
  2
ACAD_MLEADERVER
 70
     0
  0
ENDTAB
  0
TABLE
  2
DIMSTYLE
  5
A
330
0
100
AcDbSymbolTable
 70
     3
100
AcDbDimStyleTable
  0
DIMSTYLE
105
27
330
A
100
AcDbSymbolTableRecord
100
AcDbDimStyleTableRecord
  2
ISO-25
 70
     0
 41
2.5
 42
0.625
 43
3.75
 44
1.25
 73
     0
 74
     0
 77
     1
 78
     8
140
2.5
141
-2.5
143
0.03937007874016
147
0.625
171
     3
172
     1
178
     0
271
     2
272
     2
274
     3
278
    44
283
     0
284
     8
340
11
  0
DIMSTYLE
105
BA
330
A
100
AcDbSymbolTableRecord
100
AcDbDimStyleTableRecord
  2
Annotative
 70
     0
 40
0.0
 41
2.5
 42
0.625
 43
3.75
 44
1.25
 73
     0
 74
     0
 77
     1
 78
     8
140
2.5
141
-2.5
143
0.03937007874016
147
0.625
171
     3
172
     1
178
     0
271
     2
272
     2
274
     3
278
    44
283
     0
284
     8
340
11
1001
AcadAnnotative
1000
AnnotativeData
1002
{
1070
     1
1070
     1
1002
}
  0
DIMSTYLE
105
169
330
A
100
AcDbSymbolTableRecord
100
AcDbDimStyleTableRecord
  2
Standard
 70
     0
178
     0
340
11
  0
ENDTAB
  0
TABLE
  2
BLOCK_RECORD
  5
1
330
0
100
AcDbSymbolTable
 70
     1
  0
BLOCK_RECORD
  5
1F
330
1
100
AcDbSymbolTableRecord
100
AcDbBlockTableRecord
  2
*Model_Space
340
22
 70
     0
280
     1
281
     0
  0
BLOCK_RECORD
  5
23
330
1
100
AcDbSymbolTableRecord
100
AcDbBlockTableRecord
  2
*Paper_Space
340
26
 70
     0
280
     1
281
     0
  0
BLOCK_RECORD
  5
1B
330
1
100
AcDbSymbolTableRecord
100
AcDbBlockTableRecord
  2
*Paper_Space0
340
1E
 70
     0
280
     1
281
     0
  0
ENDTAB
  0
ENDSEC
  0
SECTION
  2
BLOCKS
  0
BLOCK
  5
20
330
1F
100
AcDbEntity
  8
0
100
AcDbBlockBegin
  2
*Model_Space
 70
     0
 10
0.0
 20
0.0
 30
0.0
  3
*Model_Space
  1

  0
ENDBLK
  5
21
330
1F
100
AcDbEntity
  8
0
100
AcDbBlockEnd
  0
BLOCK
  5
24
330
23
100
AcDbEntity
 67
     1
  8
0
100
AcDbBlockBegin
  2
*Paper_Space
 70
     0
 10
0.0
 20
0.0
 30
0.0
  3
*Paper_Space
  1

  0
ENDBLK
  5
25
330
23
100
AcDbEntity
 67
     1
  8
0
100
AcDbBlockEnd
  0
BLOCK
  5
1C
330
1B
100
AcDbEntity
  8
0
100
AcDbBlockBegin
  2
*Paper_Space0
 70
     0
 10
0.0
 20
0.0
 30
0.0
  3
*Paper_Space0
  1

  0
ENDBLK
  5
1D
330
1B
100
AcDbEntity
  8
0
100
AcDbBlockEnd
  0
ENDSEC
  0
SECTION
  2
ENTITIES
  0
POLYLINE
  5
C0
330
1F
100
AcDbEntity
  8
LOE
100
AcDb3dPolyline
 66
     1
 10
0.0
 20
0.0
 30
0.0
 70
     8
  0
VERTEX
  5
C1
330
C0
100
AcDbEntity
  8
LOE
100
AcDbVertex
100
AcDb3dPolylineVertex
 10
453951.627
 20
244796.773
 30
159.675
 70
    32
  0
VERTEX
  5
C2
330
C0
100
AcDbEntity
  8
LOE
100
AcDbVertex
100
AcDb3dPolylineVertex
 10
453952.732
 20
244803.623
 30
159.791
 70
    32
  0
VERTEX
  5
C3
330
C0
100
AcDbEntity
  8
LOE
100
AcDbVertex
100
AcDb3dPolylineVertex
 10
453954.412
 20
244812.306
 30
160.041
 70
    32
  0
VERTEX
  5
C4
330
C0
100
AcDbEntity
  8
LOE
100
AcDbVertex
100
AcDb3dPolylineVertex
 10
453961.401
 20
244811.878
 30
160.265
 70
    32
  0
VERTEX
  5
C5
330
C0
100
AcDbEntity
  8
LOE
100
AcDbVertex
100
AcDb3dPolylineVertex
 10
453969.741
 20
244811.732
 30
160.529
 70
    32
  0
VERTEX
  5
C6
330
C0
100
AcDbEntity
  8
LOE
100
AcDbVertex
100
AcDb3dPolylineVertex
 10
453974.391
 20
244811.394
 30
160.591
 70
    32
  0
VERTEX
  5
C7
330
C0
100
AcDbEntity
  8
LOE
100
AcDbVertex
100
AcDb3dPolylineVertex
 10
453977.65
 20
244812.111
 30
160.755
 70
    32
  0
VERTEX
  5
C8
330
C0
100
AcDbEntity
  8
LOE
100
AcDbVertex
100
AcDb3dPolylineVertex
 10
453988.21
 20
244812.44
 30
161.095
 70
    32
  0
VERTEX
  5
C9
330
C0
100
AcDbEntity
  8
LOE
100
AcDbVertex
100
AcDb3dPolylineVertex
 10
453996.382
 20
244811.289
 30
161.223
 70
    32
  0
VERTEX
  5
CA
330
C0
100
AcDbEntity
  8
LOE
100
AcDbVertex
100
AcDb3dPolylineVertex
 10
454010.857
 20
244812.88
 30
161.531
 70
    32
  0
VERTEX
  5
CB
330
C0
100
AcDbEntity
  8
LOE
100
AcDbVertex
100
AcDb3dPolylineVertex
 10
454022.732
 20
244814.423
 30
161.859
 70
    32
  0
SEQEND
  5
CC
330
C0
100
AcDbEntity
  8
LOE
  0
POLYLINE
  5
152
330
1F
100
AcDbEntity
  8
PRE
100
AcDb3dPolyline
 66
     1
 10
0.0
 20
0.0
 30
0.0
 70
     8
  0
VERTEX
  5
153
330
152
100
AcDbEntity
  8
PRE
100
AcDbVertex
100
AcDb3dPolylineVertex
 10
453956.605
 20
244804.985
 30
159.925
 70
    32
  0
VERTEX
  5
154
330
152
100
AcDbEntity
  8
PRE
100
AcDbVertex
100
AcDb3dPolylineVertex
 10
453956.727
 20
244803.4745
 30
159.861
 70
    32
  0
VERTEX
  5
155
330
152
100
AcDbEntity
  8
PRE
100
AcDbVertex
100
AcDb3dPolylineVertex
 10
453956.671
 20
244801.179
 30
159.808
 70
    32
  0
VERTEX
  5
156
330
152
100
AcDbEntity
  8
PRE
100
AcDbVertex
100
AcDb3dPolylineVertex
 10
453957.3419999999
 20
244796.968
 30
159.789
 70
    32
  0
VERTEX
  5
157
330
152
100
AcDbEntity
  8
PRE
100
AcDbVertex
100
AcDb3dPolylineVertex
 10
453957.597
 20
244796.571
 30
159.856
 70
    32
  0
SEQEND
  5
158
330
152
100
AcDbEntity
  8
PRE
  0
POLYLINE
  5
15A
330
1F
100
AcDbEntity
  8
PRE
100
AcDb3dPolyline
 66
     1
 10
0.0
 20
0.0
 30
0.0
 70
     8
  0
VERTEX
  5
15B
330
15A
100
AcDbEntity
  8
PRE
100
AcDbVertex
100
AcDb3dPolylineVertex
 10
453954.9790000001
 20
244793.546
 30
159.678
 70
    32
  0
VERTEX
  5
15C
330
15A
100
AcDbEntity
  8
PRE
100
AcDbVertex
100
AcDb3dPolylineVertex
 10
453953.76
 20
244797.539
 30
159.758
 70
    32
  0
VERTEX
  5
15D
330
15A
100
AcDbEntity
  8
PRE
100
AcDbVertex
100
AcDb3dPolylineVertex
 10
453953.4
 20
244801.045
 30
159.762
 70
    32
  0
VERTEX
  5
15E
330
15A
100
AcDbEntity
  8
PRE
100
AcDbVertex
100
AcDb3dPolylineVertex
 10
453954.0374754448
 20
244807.33
 30
159.913
 70
    32
  0
VERTEX
  5
15F
330
15A
100
AcDbEntity
  8
PRE
100
AcDbVertex
100
AcDb3dPolylineVertex
 10
453954.372
 20
244808.442
 30
159.93
 70
    32
  0
SEQEND
  5
160
330
15A
100
AcDbEntity
  8
PRE
  0
LWPOLYLINE
  5
177
330
1F
100
AcDbEntity
  8
PRE
100
AcDbPolyline
 90
        2
 70
     0
 43
0.0
 38
160.436
 10
453970.9240000001
 20
244811.245
 10
453969.741
 20
244811.732
  0
POLYLINE
  5
184
330
1F
100
AcDbEntity
  8
LOE
100
AcDb3dPolyline
 66
     1
 10
0.0
 20
0.0
 30
0.0
 70
     8
  0
VERTEX
  5
1C9
330
184
100
AcDbEntity
  8
LOE
100
AcDbVertex
100
AcDb3dPolylineVertex
 10
454022.732
 20
244814.423
 30
161.859
 70
    32
  0
VERTEX
  5
1CA
330
184
100
AcDbEntity
  8
LOE
100
AcDbVertex
100
AcDb3dPolylineVertex
 10
454031.23
 20
244815.21
 30
162.047
 70
    32
  0
VERTEX
  5
1CB
330
184
100
AcDbEntity
  8
LOE
100
AcDbVertex
100
AcDb3dPolylineVertex
 10
454043.219
 20
244817.169
 30
162.113
 70
    32
  0
SEQEND
  5
1CC
330
184
100
AcDbEntity
  8
LOE
  0
POLYLINE
  5
1D0
330
1F
100
AcDbEntity
  8
LOE
100
AcDb3dPolyline
 66
     1
 10
0.0
 20
0.0
 30
0.0
 70
     9
  0
VERTEX
  5
1D1
330
1D0
100
AcDbEntity
  8
LOE
100
AcDbVertex
100
AcDb3dPolylineVertex
 10
454046.807
 20
244808.058
 30
162.107
 70
    32
  0
VERTEX
  5
1D2
330
1D0
100
AcDbEntity
  8
LOE
100
AcDbVertex
100
AcDb3dPolylineVertex
 10
454046.109
 20
244812.473
 30
162.153
 70
    32
  0
VERTEX
  5
1D3
330
1D0
100
AcDbEntity
  8
LOE
100
AcDbVertex
100
AcDb3dPolylineVertex
 10
454048.823
 20
244813.432
 30
162.19
 70
    32
  0
VERTEX
  5
1D4
330
1D0
100
AcDbEntity
  8
LOE
100
AcDbVertex
100
AcDb3dPolylineVertex
 10
454049.616
 20
244812.447
 30
162.199
 70
    32
  0
VERTEX
  5
1D5
330
1D0
100
AcDbEntity
  8
LOE
100
AcDbVertex
100
AcDb3dPolylineVertex
 10
454049.64
 20
244808.545
 30
162.174
 70
    32
  0
SEQEND
  5
1D6
330
1D0
100
AcDbEntity
  8
LOE
  0
POLYLINE
  5
1D8
330
1F
100
AcDbEntity
  8
LOE
100
AcDb3dPolyline
 66
     1
 10
0.0
 20
0.0
 30
0.0
 70
     8
  0
VERTEX
  5
248
330
1D8
100
AcDbEntity
  8
LOE
100
AcDbVertex
100
AcDb3dPolylineVertex
 10
454043.219
 20
244817.169
 30
162.113
 70
    32
  0
VERTEX
  5
249
330
1D8
100
AcDbEntity
  8
LOE
100
AcDbVertex
100
AcDb3dPolylineVertex
 10
454051.659
 20
244819.114
 30
162.315
 70
    32
  0
VERTEX
  5
24A
330
1D8
100
AcDbEntity
  8
LOE
100
AcDbVertex
100
AcDb3dPolylineVertex
 10
454053.457
 20
244809.717
 30
162.372
 70
    32
  0
VERTEX
  5
24B
330
1D8
100
AcDbEntity
  8
LOE
100
AcDbVertex
100
AcDb3dPolylineVertex
 10
454053.344
 20
244798.287
 30
162.148
 70
    32
  0
VERTEX
  5
24C
330
1D8
100
AcDbEntity
  8
LOE
100
AcDbVertex
100
AcDb3dPolylineVertex
 10
454052.817
 20
244785.804
 30
161.609
 70
    32
  0
VERTEX
  5
24D
330
1D8
100
AcDbEntity
  8
LOE
100
AcDbVertex
100
AcDb3dPolylineVertex
 10
454052.798
 20
244768.001
 30
160.309
 70
    32
  0
VERTEX
  5
24E
330
1D8
100
AcDbEntity
  8
LOE
100
AcDbVertex
100
AcDb3dPolylineVertex
 10
454044.6419999999
 20
244766.779
 30
160.008
 70
    32
  0
VERTEX
  5
24F
330
1D8
100
AcDbEntity
  8
LOE
100
AcDbVertex
100
AcDb3dPolylineVertex
 10
454030.9230000001
 20
244766.808
 30
159.597
 70
    32
  0
VERTEX
  5
250
330
1D8
100
AcDbEntity
  8
LOE
100
AcDbVertex
100
AcDb3dPolylineVertex
 10
454013.7390000001
 20
244767.032
 30
159.202
 70
    32
  0
VERTEX
  5
251
330
1D8
100
AcDbEntity
  8
LOE
100
AcDbVertex
100
AcDb3dPolylineVertex
 10
454001.89
 20
244766.978
 30
158.992
 70
    32
  0
VERTEX
  5
252
330
1D8
100
AcDbEntity
  8
LOE
100
AcDbVertex
100
AcDb3dPolylineVertex
 10
453984.61
 20
244765.774
 30
158.421
 70
    32
  0
VERTEX
  5
253
330
1D8
100
AcDbEntity
  8
LOE
100
AcDbVertex
100
AcDb3dPolylineVertex
 10
453972.33
 20
244765.22
 30
157.905
 70
    32
  0
VERTEX
  5
254
330
1D8
100
AcDbEntity
  8
LOE
100
AcDbVertex
100
AcDb3dPolylineVertex
 10
453958.4990000001
 20
244765.435
 30
157.454
 70
    32
  0
VERTEX
  5
255
330
1D8
100
AcDbEntity
  8
LOE
100
AcDbVertex
100
AcDb3dPolylineVertex
 10
453956.544
 20
244774.948
 30
158.487
 70
    32
  0
VERTEX
  5
256
330
1D8
100
AcDbEntity
  8
LOE
100
AcDbVertex
100
AcDb3dPolylineVertex
 10
453954.651
 20
244785.134
 30
159.358
 70
    32
  0
VERTEX
  5
257
330
1D8
100
AcDbEntity
  8
LOE
100
AcDbVertex
100
AcDb3dPolylineVertex
 10
453951.225
 20
244794.246
 30
159.757
 70
    32
  0
VERTEX
  5
258
330
1D8
100
AcDbEntity
  8
LOE
100
AcDbVertex
100
AcDb3dPolylineVertex
 10
453951.676
 20
244797.191
 30
159.766
 70
    32
  0
SEQEND
  5
259
330
1D8
100
AcDbEntity
  8
LOE
  0
POLYLINE
  5
1FA
330
1F
100
AcDbEntity
  8
PRE
100
AcDb3dPolyline
 66
     1
 10
0.0
 20
0.0
 30
0.0
 70
     8
  0
VERTEX
  5
1FB
330
1FA
100
AcDbEntity
  8
PRE
100
AcDbVertex
100
AcDb3dPolylineVertex
 10
453958.811
 20
244788.928
 30
159.715
 70
    32
  0
VERTEX
  5
1FC
330
1FA
100
AcDbEntity
  8
PRE
100
AcDbVertex
100
AcDb3dPolylineVertex
 10
453958.811
 20
244788.928
 30
159.715
 70
    32
  0
VERTEX
  5
1FD
330
1FA
100
AcDbEntity
  8
PRE
100
AcDbVertex
100
AcDb3dPolylineVertex
 10
453961.8872958908
 20
244787.3328006621
 30
159.641
 70
    32
  0
VERTEX
  5
1FE
330
1FA
100
AcDbEntity
  8
PRE
100
AcDbVertex
100
AcDb3dPolylineVertex
 10
453966.3026288733
 20
244785.8725656614
 30
159.658
 70
    32
  0
VERTEX
  5
1FF
330
1FA
100
AcDbEntity
  8
PRE
100
AcDbVertex
100
AcDb3dPolylineVertex
 10
453970.46
 20
244784.392
 30
159.735
 70
    32
  0
VERTEX
  5
200
330
1FA
100
AcDbEntity
  8
PRE
100
AcDbVertex
100
AcDb3dPolylineVertex
 10
453975.156
 20
244783.891
 30
159.804
 70
    32
  0
VERTEX
  5
201
330
1FA
100
AcDbEntity
  8
PRE
100
AcDbVertex
100
AcDb3dPolylineVertex
 10
453977.701
 20
244783.528
 30
159.796
 70
    32
  0
SEQEND
  5
202
330
1FA
100
AcDbEntity
  8
PRE
  0
POLYLINE
  5
204
330
1F
100
AcDbEntity
  8
PRE
100
AcDb3dPolyline
 66
     1
 10
0.0
 20
0.0
 30
0.0
 70
     8
  0
VERTEX
  5
205
330
204
100
AcDbEntity
  8
PRE
100
AcDbVertex
100
AcDb3dPolylineVertex
 10
453977.955
 20
244785.514
 30
159.895
 70
    32
  0
VERTEX
  5
206
330
204
100
AcDbEntity
  8
PRE
100
AcDbVertex
100
AcDb3dPolylineVertex
 10
453973.02
 20
244786.806
 30
159.918
 70
    32
  0
VERTEX
  5
207
330
204
100
AcDbEntity
  8
PRE
100
AcDbVertex
100
AcDb3dPolylineVertex
 10
453967.957
 20
244788.084
 30
159.864
 70
    32
  0
VERTEX
  5
208
330
204
100
AcDbEntity
  8
PRE
100
AcDbVertex
100
AcDb3dPolylineVertex
 10
453963.111
 20
244790.373
 30
159.887
 70
    32
  0
VERTEX
  5
209
330
204
100
AcDbEntity
  8
PRE
100
AcDbVertex
100
AcDb3dPolylineVertex
 10
453961.445
 20
244791.526
 30
159.853
 70
    32
  0
SEQEND
  5
20A
330
204
100
AcDbEntity
  8
PRE
  0
POLYLINE
  5
3F1
330
1F
100
AcDbEntity
  8
C1005
100
AcDb3dPolyline
 66
     1
 10
0.0
 20
0.0
 30
0.0
 70
     8
  0
VERTEX
  5
3F2
330
3F1
100
AcDbEntity
  8
C1005
100
AcDbVertex
100
AcDb3dPolylineVertex
 10
453971.206
 20
244800.416
 30
160.341
 70
    32
  0
VERTEX
  5
3F3
330
3F1
100
AcDbEntity
  8
C1005
100
AcDbVertex
100
AcDb3dPolylineVertex
 10
453971.002
 20
244800.273
 30
160.353
 70
    32
  0
VERTEX
  5
3F4
330
3F1
100
AcDbEntity
  8
C1005
100
AcDbVertex
100
AcDb3dPolylineVertex
 10
453970.767
 20
244800.175
 30
160.356
 70
    32
  0
VERTEX
  5
3F5
330
3F1
100
AcDbEntity
  8
C1005
100
AcDbVertex
100
AcDb3dPolylineVertex
 10
453970.567
 20
244800.073
 30
160.367
 70
    32
  0
VERTEX
  5
3F6
330
3F1
100
AcDbEntity
  8
C1005
100
AcDbVertex
100
AcDb3dPolylineVertex
 10
453970.371
 20
244799.991
 30
160.359
 70
    32
  0
VERTEX
  5
3F7
330
3F1
100
AcDbEntity
  8
C1005
100
AcDbVertex
100
AcDb3dPolylineVertex
 10
453970.18
 20
244799.906
 30
160.356
 70
    32
  0
VERTEX
  5
3F8
330
3F1
100
AcDbEntity
  8
C1005
100
AcDbVertex
100
AcDb3dPolylineVertex
 10
453969.9950000001
 20
244799.803
 30
160.336
 70
    32
  0
VERTEX
  5
3F9
330
3F1
100
AcDbEntity
  8
C1005
100
AcDbVertex
100
AcDb3dPolylineVertex
 10
453969.741
 20
244799.714
 30
160.315
 70
    32
  0
VERTEX
  5
3FA
330
3F1
100
AcDbEntity
  8
C1005
100
AcDbVertex
100
AcDb3dPolylineVertex
 10
453969.526
 20
244799.625
 30
160.309
 70
    32
  0
SEQEND
  5
3FB
330
3F1
100
AcDbEntity
  8
C1005
  0
POLYLINE
  5
3FC
330
1F
100
AcDbEntity
  8
C1005
100
AcDb3dPolyline
 66
     1
 10
0.0
 20
0.0
 30
0.0
 70
     8
  0
VERTEX
  5
3FD
330
3FC
100
AcDbEntity
  8
C1005
100
AcDbVertex
100
AcDb3dPolylineVertex
 10
453969.605
 20
244799.324
 30
160.262
 70
    32
  0
VERTEX
  5
3FE
330
3FC
100
AcDbEntity
  8
C1005
100
AcDbVertex
100
AcDb3dPolylineVertex
 10
453969.834
 20
244799.354
 30
160.268
 70
    32
  0
VERTEX
  5
3FF
330
3FC
100
AcDbEntity
  8
C1005
100
AcDbVertex
100
AcDb3dPolylineVertex
 10
453970.03
 20
244799.403
 30
160.281
 70
    32
  0
VERTEX
  5
400
330
3FC
100
AcDbEntity
  8
C1005
100
AcDbVertex
100
AcDb3dPolylineVertex
 10
453970.201
 20
244799.456
 30
160.301
 70
    32
  0
VERTEX
  5
401
330
3FC
100
AcDbEntity
  8
C1005
100
AcDbVertex
100
AcDb3dPolylineVertex
 10
453970.421
 20
244799.515
 30
160.307
 70
    32
  0
VERTEX
  5
402
330
3FC
100
AcDbEntity
  8
C1005
100
AcDbVertex
100
AcDb3dPolylineVertex
 10
453970.589
 20
244799.5780478444
 30
160.328
 70
    32
  0
VERTEX
  5
403
330
3FC
100
AcDbEntity
  8
C1005
100
AcDbVertex
100
AcDb3dPolylineVertex
 10
453970.7971187456
 20
244799.714875026
 30
160.306
 70
    32
  0
VERTEX
  5
404
330
3FC
100
AcDbEntity
  8
C1005
100
AcDbVertex
100
AcDb3dPolylineVertex
 10
453970.982
 20
244799.796
 30
160.316
 70
    32
  0
VERTEX
  5
405
330
3FC
100
AcDbEntity
  8
C1005
100
AcDbVertex
100
AcDb3dPolylineVertex
 10
453971.175
 20
244799.945
 30
160.333
 70
    32
  0
VERTEX
  5
406
330
3FC
100
AcDbEntity
  8
C1005
100
AcDbVertex
100
AcDb3dPolylineVertex
 10
453971.364
 20
244800.078
 30
160.36
 70
    32
  0
SEQEND
  5
407
330
3FC
100
AcDbEntity
  8
C1005
  0
POLYLINE
  5
408
330
1F
100
AcDbEntity
  8
B1005
100
AcDb3dPolyline
 66
     1
 10
0.0
 20
0.0
 30
0.0
 70
     8
  0
VERTEX
  5
409
330
408
100
AcDbEntity
  8
B1005
100
AcDbVertex
100
AcDb3dPolylineVertex
 10
453971.024
 20
244800.147
 30
160.247
 70
    32
  0
VERTEX
  5
40A
330
408
100
AcDbEntity
  8
B1005
100
AcDbVertex
100
AcDb3dPolylineVertex
 10
453970.838
 20
244800.058
 30
160.254
 70
    32
  0
VERTEX
  5
40B
330
408
100
AcDbEntity
  8
B1005
100
AcDbVertex
100
AcDb3dPolylineVertex
 10
453970.679
 20
244799.979
 30
160.237
 70
    32
  0
VERTEX
  5
40C
330
408
100
AcDbEntity
  8
B1005
100
AcDbVertex
100
AcDb3dPolylineVertex
 10
453970.514
 20
244799.869
 30
160.239
 70
    32
  0
VERTEX
  5
40D
330
408
100
AcDbEntity
  8
B1005
100
AcDbVertex
100
AcDb3dPolylineVertex
 10
453970.298
 20
244799.78
 30
160.224
 70
    32
  0
VERTEX
  5
40E
330
408
100
AcDbEntity
  8
B1005
100
AcDbVertex
100
AcDb3dPolylineVertex
 10
453970.115
 20
244799.713
 30
160.215
 70
    32
  0
VERTEX
  5
40F
330
408
100
AcDbEntity
  8
B1005
100
AcDbVertex
100
AcDb3dPolylineVertex
 10
453969.956
 20
244799.645
 30
160.22
 70
    32
  0
VERTEX
  5
410
330
408
100
AcDbEntity
  8
B1005
100
AcDbVertex
100
AcDb3dPolylineVertex
 10
453969.815
 20
244799.577
 30
160.215
 70
    32
  0
SEQEND
  5
411
330
408
100
AcDbEntity
  8
B1005
  0
POLYLINE
  5
412
330
1F
100
AcDbEntity
  8
B1005
100
AcDb3dPolyline
 66
     1
 10
0.0
 20
0.0
 30
0.0
 70
     8
  0
VERTEX
  5
413
330
412
100
AcDbEntity
  8
B1005
100
AcDbVertex
100
AcDb3dPolylineVertex
 10
453969.849
 20
244799.45
 30
160.23
 70
    32
  0
VERTEX
  5
414
330
412
100
AcDbEntity
  8
B1005
100
AcDbVertex
100
AcDb3dPolylineVertex
 10
453970.014
 20
244799.494
 30
160.23
 70
    32
  0
VERTEX
  5
415
330
412
100
AcDbEntity
  8
B1005
100
AcDbVertex
100
AcDb3dPolylineVertex
 10
453970.196
 20
244799.576
 30
160.22
 70
    32
  0
VERTEX
  5
416
330
412
100
AcDbEntity
  8
B1005
100
AcDbVertex
100
AcDb3dPolylineVertex
 10
453970.431
 20
244799.69
 30
160.234
 70
    32
  0
VERTEX
  5
417
330
412
100
AcDbEntity
  8
B1005
100
AcDbVertex
100
AcDb3dPolylineVertex
 10
453970.604
 20
244799.747
 30
160.25
 70
    32
  0
VERTEX
  5
418
330
412
100
AcDbEntity
  8
B1005
100
AcDbVertex
100
AcDb3dPolylineVertex
 10
453970.81
 20
244799.828
 30
160.248
 70
    32
  0
VERTEX
  5
419
330
412
100
AcDbEntity
  8
B1005
100
AcDbVertex
100
AcDb3dPolylineVertex
 10
453970.9190000001
 20
244799.911
 30
160.234
 70
    32
  0
VERTEX
  5
41A
330
412
100
AcDbEntity
  8
B1005
100
AcDbVertex
100
AcDb3dPolylineVertex
 10
453971.0949340432
 20
244800.0346515824
 30
160.2365826678725
 70
    32
  0
SEQEND
  5
41B
330
412
100
AcDbEntity
  8
B1005
  0
POLYLINE
  5
41C
330
1F
100
AcDbEntity
  8
S1005
100
AcDb3dPolyline
 66
     1
 10
0.0
 20
0.0
 30
0.0
 70
     8
  0
VERTEX
  5
41D
330
41C
100
AcDbEntity
  8
S1005
100
AcDbVertex
100
AcDb3dPolylineVertex
 10
453970.969
 20
244800.263
 30
160.337
 70
    32
  0
VERTEX
  5
41E
330
41C
100
AcDbEntity
  8
S1005
100
AcDbVertex
100
AcDb3dPolylineVertex
 10
453971.003
 20
244800.184
 30
160.27
 70
    32
  0
VERTEX
  5
41F
330
41C
100
AcDbEntity
  8
S1005
100
AcDbVertex
100
AcDb3dPolylineVertex
 10
453971.055
 20
244800.094
 30
160.247
 70
    32
  0
VERTEX
  5
420
330
41C
100
AcDbEntity
  8
S1005
100
AcDbVertex
100
AcDb3dPolylineVertex
 10
453971.107
 20
244800.027
 30
160.246
 70
    32
  0
VERTEX
  5
421
330
41C
100
AcDbEntity
  8
S1005
100
AcDbVertex
100
AcDb3dPolylineVertex
 10
453971.1479999999
 20
244800.001
 30
160.278
 70
    32
  0
VERTEX
  5
422
330
41C
100
AcDbEntity
  8
S1005
100
AcDbVertex
100
AcDb3dPolylineVertex
 10
453971.1893864682
 20
244799.9551238109
 30
160.3350552097393
 70
    32
  0
SEQEND
  5
423
330
41C
100
AcDbEntity
  8
S1005
  0
POINT
  5
424
330
1F
100
AcDbEntity
  8
L1004
100
AcDbPoint
 10
453971.151
 20
244800.198
 30
160.336
  0
POLYLINE
  5
425
330
1F
100
AcDbEntity
  8
DP002
100
AcDb3dPolyline
 66
     1
 10
0.0
 20
0.0
 30
0.0
 70
     8
  0
VERTEX
  5
426
330
425
100
AcDbEntity
  8
DP002
100
AcDbVertex
100
AcDb3dPolylineVertex
 10
453972.166
 20
244802.055
 30
160.408
 70
    32
  0
VERTEX
  5
427
330
425
100
AcDbEntity
  8
DP002
100
AcDbVertex
100
AcDb3dPolylineVertex
 10
453972.609
 20
244802.05
 30
160.411
 70
    32
  0
VERTEX
  5
428
330
425
100
AcDbEntity
  8
DP002
100
AcDbVertex
100
AcDb3dPolylineVertex
 10
453972.728
 20
244803.049
 30
160.431
 70
    32
  0
SEQEND
  5
429
330
425
100
AcDbEntity
  8
DP002
  0
POLYLINE
  5
42A
330
1F
100
AcDbEntity
  8
S1014
100
AcDb3dPolyline
 66
     1
 10
0.0
 20
0.0
 30
0.0
 70
     8
  0
VERTEX
  5
42B
330
42A
100
AcDbEntity
  8
S1014
100
AcDbVertex
100
AcDb3dPolylineVertex
 10
453972.6419999999
 20
244802.865
 30
160.326
 70
    32
  0
VERTEX
  5
42C
330
42A
100
AcDbEntity
  8
S1014
100
AcDbVertex
100
AcDb3dPolylineVertex
 10
453972.635
 20
244802.75
 30
160.257
 70
    32
  0
VERTEX
  5
42D
330
42A
100
AcDbEntity
  8
S1014
100
AcDbVertex
100
AcDb3dPolylineVertex
 10
453972.616
 20
244802.646
 30
160.25
 70
    32
  0
VERTEX
  5
42E
330
42A
100
AcDbEntity
  8
S1014
100
AcDbVertex
100
AcDb3dPolylineVertex
 10
453972.601
 20
244802.515
 30
160.232
 70
    32
  0
VERTEX
  5
42F
330
42A
100
AcDbEntity
  8
S1014
100
AcDbVertex
100
AcDb3dPolylineVertex
 10
453972.594
 20
244802.379
 30
160.223
 70
    32
  0
VERTEX
  5
430
330
42A
100
AcDbEntity
  8
S1014
100
AcDbVertex
100
AcDb3dPolylineVertex
 10
453972.585
 20
244802.257
 30
160.223
 70
    32
  0
VERTEX
  5
431
330
42A
100
AcDbEntity
  8
S1014
100
AcDbVertex
100
AcDb3dPolylineVertex
 10
453972.568
 20
244802.143
 30
160.213
 70
    32
  0
SEQEND
  5
432
330
42A
100
AcDbEntity
  8
S1014
  0
POLYLINE
  5
433
330
1F
100
AcDbEntity
  8
S1014
100
AcDb3dPolyline
 66
     1
 10
0.0
 20
0.0
 30
0.0
 70
     8
  0
VERTEX
  5
434
330
433
100
AcDbEntity
  8
S1014
100
AcDbVertex
100
AcDb3dPolylineVertex
 10
453972.7255780309
 20
244802.0580547383
 30
160.3428259925489
 70
    32
  0
VERTEX
  5
435
330
433
100
AcDbEntity
  8
S1014
100
AcDbVertex
100
AcDb3dPolylineVertex
 10
453972.573
 20
244802.135
 30
160.213
 70
    32
  0
VERTEX
  5
436
330
433
100
AcDbEntity
  8
S1014
100
AcDbVertex
100
AcDb3dPolylineVertex
 10
453972.507
 20
244802.138
 30
160.217
 70
    32
  0
VERTEX
  5
437
330
433
100
AcDbEntity
  8
S1014
100
AcDbVertex
100
AcDb3dPolylineVertex
 10
453972.38
 20
244802.122
 30
160.233
 70
    32
  0
VERTEX
  5
438
330
433
100
AcDbEntity
  8
S1014
100
AcDbVertex
100
AcDb3dPolylineVertex
 10
453972.2830000001
 20
244802.101
 30
160.328
 70
    32
  0
SEQEND
  5
439
330
433
100
AcDbEntity
  8
S1014
  0
POLYLINE
  5
43A
330
1F
100
AcDbEntity
  8
C1014
100
AcDb3dPolyline
 66
     1
 10
0.0
 20
0.0
 30
0.0
 70
     8
  0
VERTEX
  5
43B
330
43A
100
AcDbEntity
  8
C1014
100
AcDbVertex
100
AcDb3dPolylineVertex
 10
453972.314
 20
244801.91
 30
160.34
 70
    32
  0
VERTEX
  5
43C
330
43A
100
AcDbEntity
  8
C1014
100
AcDbVertex
100
AcDb3dPolylineVertex
 10
453972.315
 20
244802.052
 30
160.352
 70
    32
  0
VERTEX
  5
43D
330
43A
100
AcDbEntity
  8
C1014
100
AcDbVertex
100
AcDb3dPolylineVertex
 10
453972.2919619909
 20
244802.2235590707
 30
160.335
 70
    32
  0
VERTEX
  5
43E
330
43A
100
AcDbEntity
  8
C1014
100
AcDbVertex
100
AcDb3dPolylineVertex
 10
453972.277
 20
244802.453
 30
160.302
 70
    32
  0
VERTEX
  5
43F
330
43A
100
AcDbEntity
  8
C1014
100
AcDbVertex
100
AcDb3dPolylineVertex
 10
453972.331
 20
244802.666
 30
160.317
 70
    32
  0
VERTEX
  5
440
330
43A
100
AcDbEntity
  8
C1014
100
AcDbVertex
100
AcDb3dPolylineVertex
 10
453972.449
 20
244802.865
 30
160.349
 70
    32
  0
VERTEX
  5
441
330
43A
100
AcDbEntity
  8
C1014
100
AcDbVertex
100
AcDb3dPolylineVertex
 10
453972.637
 20
244802.929
 30
160.339
 70
    32
  0
VERTEX
  5
442
330
43A
100
AcDbEntity
  8
C1014
100
AcDbVertex
100
AcDb3dPolylineVertex
 10
453972.827
 20
244802.79
 30
160.336
 70
    32
  0
VERTEX
  5
443
330
43A
100
AcDbEntity
  8
C1014
100
AcDbVertex
100
AcDb3dPolylineVertex
 10
453972.88
 20
244802.568
 30
160.349
 70
    32
  0
VERTEX
  5
444
330
43A
100
AcDbEntity
  8
C1014
100
AcDbVertex
100
AcDb3dPolylineVertex
 10
453972.861
 20
244802.353
 30
160.337
 70
    32
  0
VERTEX
  5
445
330
43A
100
AcDbEntity
  8
C1014
100
AcDbVertex
100
AcDb3dPolylineVertex
 10
453972.798
 20
244802.18
 30
160.349
 70
    32
  0
VERTEX
  5
446
330
43A
100
AcDbEntity
  8
C1014
100
AcDbVertex
100
AcDb3dPolylineVertex
 10
453972.7290000001
 20
244802.066
 30
160.342
 70
    32
  0
VERTEX
  5
447
330
43A
100
AcDbEntity
  8
C1014
100
AcDbVertex
100
AcDb3dPolylineVertex
 10
453972.6419999999
 20
244801.864
 30
160.363
 70
    32
  0
SEQEND
  5
448
330
43A
100
AcDbEntity
  8
C1014
  0
POLYLINE
  5
449
330
1F
100
AcDbEntity
  8
B1014
100
AcDb3dPolyline
 66
     1
 10
0.0
 20
0.0
 30
0.0
 70
     8
  0
VERTEX
  5
44A
330
449
100
AcDbEntity
  8
B1014
100
AcDbVertex
100
AcDb3dPolylineVertex
 10
453972.392
 20
244802.132
 30
160.244
 70
    32
  0
VERTEX
  5
44B
330
449
100
AcDbEntity
  8
B1014
100
AcDbVertex
100
AcDb3dPolylineVertex
 10
453972.411
 20
244802.285
 30
160.242
 70
    32
  0
VERTEX
  5
44C
330
449
100
AcDbEntity
  8
B1014
100
AcDbVertex
100
AcDb3dPolylineVertex
 10
453972.482
 20
244802.412
 30
160.237
 70
    32
  0
VERTEX
  5
44D
330
449
100
AcDbEntity
  8
B1014
100
AcDbVertex
100
AcDb3dPolylineVertex
 10
453972.442
 20
244802.536
 30
160.277
 70
    32
  0
VERTEX
  5
44E
330
449
100
AcDbEntity
  8
B1014
100
AcDbVertex
100
AcDb3dPolylineVertex
 10
453972.478
 20
244802.638
 30
160.271
 70
    32
  0
VERTEX
  5
44F
330
449
100
AcDbEntity
  8
B1014
100
AcDbVertex
100
AcDb3dPolylineVertex
 10
453972.518
 20
244802.755
 30
160.278
 70
    32
  0
VERTEX
  5
450
330
449
100
AcDbEntity
  8
B1014
100
AcDbVertex
100
AcDb3dPolylineVertex
 10
453972.618
 20
244802.794
 30
160.279
 70
    32
  0
VERTEX
  5
451
330
449
100
AcDbEntity
  8
B1014
100
AcDbVertex
100
AcDb3dPolylineVertex
 10
453972.682
 20
244802.696
 30
160.279
 70
    32
  0
VERTEX
  5
452
330
449
100
AcDbEntity
  8
B1014
100
AcDbVertex
100
AcDb3dPolylineVertex
 10
453972.68
 20
244802.553
 30
160.262
 70
    32
  0
VERTEX
  5
453
330
449
100
AcDbEntity
  8
B1014
100
AcDbVertex
100
AcDb3dPolylineVertex
 10
453972.669
 20
244802.409
 30
160.247
 70
    32
  0
VERTEX
  5
454
330
449
100
AcDbEntity
  8
B1014
100
AcDbVertex
100
AcDb3dPolylineVertex
 10
453972.615
 20
244802.327
 30
160.228
 70
    32
  0
VERTEX
  5
455
330
449
100
AcDbEntity
  8
B1014
100
AcDbVertex
100
AcDb3dPolylineVertex
 10
453972.584
 20
244802.189
 30
160.224
 70
    32
  0
VERTEX
  5
456
330
449
100
AcDbEntity
  8
B1014
100
AcDbVertex
100
AcDb3dPolylineVertex
 10
453972.573
 20
244802.14
 30
160.222
 70
    32
  0
SEQEND
  5
457
330
449
100
AcDbEntity
  8
B1014
  0
POINT
  5
458
330
1F
100
AcDbEntity
  8
L1015
100
AcDbPoint
 10
453972.416
 20
244801.991
 30
160.354
  0
POLYLINE
  5
48E
330
1F
100
AcDbEntity
  8
C1012
100
AcDb3dPolyline
 66
     1
 10
0.0
 20
0.0
 30
0.0
 70
     8
  0
VERTEX
  5
48F
330
48E
100
AcDbEntity
  8
C1012
100
AcDbVertex
100
AcDb3dPolylineVertex
 10
454047.9790000001
 20
244802.1556831602
 30
162.055
 70
    32
  0
VERTEX
  5
490
330
48E
100
AcDbEntity
  8
C1012
100
AcDbVertex
100
AcDb3dPolylineVertex
 10
454048.679
 20
244802.131
 30
162.017
 70
    32
  0
VERTEX
  5
491
330
48E
100
AcDbEntity
  8
C1012
100
AcDbVertex
100
AcDb3dPolylineVertex
 10
454049.402
 20
244802.308
 30
162.048
 70
    32
  0
VERTEX
  5
492
330
48E
100
AcDbEntity
  8
C1012
100
AcDbVertex
100
AcDb3dPolylineVertex
 10
454049.952
 20
244802.242
 30
162.055
 70
    32
  0
VERTEX
  5
493
330
48E
100
AcDbEntity
  8
C1012
100
AcDbVertex
100
AcDb3dPolylineVertex
 10
454050.903
 20
244802.212
 30
162.122
 70
    32
  0
SEQEND
  5
494
330
48E
100
AcDbEntity
  8
C1012
  0
POLYLINE
  5
495
330
1F
100
AcDbEntity
  8
C1012
100
AcDb3dPolyline
 66
     1
 10
0.0
 20
0.0
 30
0.0
 70
     8
  0
VERTEX
  5
496
330
495
100
AcDbEntity
  8
C1012
100
AcDbVertex
100
AcDb3dPolylineVertex
 10
454050.926
 20
244801.02
 30
162.055
 70
    32
  0
VERTEX
  5
497
330
495
100
AcDbEntity
  8
C1012
100
AcDbVertex
100
AcDb3dPolylineVertex
 10
454050.327
 20
244801.051
 30
162.063
 70
    32
  0
VERTEX
  5
498
330
495
100
AcDbEntity
  8
C1012
100
AcDbVertex
100
AcDb3dPolylineVertex
 10
454049.456
 20
244801.134
 30
162.028
 70
    32
  0
VERTEX
  5
499
330
495
100
AcDbEntity
  8
C1012
100
AcDbVertex
100
AcDb3dPolylineVertex
 10
454048.888
 20
244801.137
 30
162.033
 70
    32
  0
VERTEX
  5
49A
330
495
100
AcDbEntity
  8
C1012
100
AcDbVertex
100
AcDb3dPolylineVertex
 10
454048.1419999999
 20
244801.128
 30
162.034
 70
    32
  0
SEQEND
  5
49B
330
495
100
AcDbEntity
  8
C1012
  0
POLYLINE
  5
4A3
330
1F
100
AcDbEntity
  8
S1012
100
AcDb3dPolyline
 66
     1
 10
0.0
 20
0.0
 30
0.0
 70
     9
  0
VERTEX
  5
4A4
330
4A3
100
AcDbEntity
  8
S1012
100
AcDbVertex
100
AcDb3dPolylineVertex
 10
454049.8479999999
 20
244802.251
 30
162.048
 70
    32
  0
VERTEX
  5
4A5
330
4A3
100
AcDbEntity
  8
S1012
100
AcDbVertex
100
AcDb3dPolylineVertex
 10
454049.845
 20
244802.031
 30
161.922
 70
    32
  0
VERTEX
  5
4A6
330
4A3
100
AcDbEntity
  8
S1012
100
AcDbVertex
100
AcDb3dPolylineVertex
 10
454049.844
 20
244801.796
 30
161.844
 70
    32
  0
VERTEX
  5
4A7
330
4A3
100
AcDbEntity
  8
S1012
100
AcDbVertex
100
AcDb3dPolylineVertex
 10
454049.869
 20
244801.412
 30
161.875
 70
    32
  0
VERTEX
  5
4A8
330
4A3
100
AcDbEntity
  8
S1012
100
AcDbVertex
100
AcDb3dPolylineVertex
 10
454049.855
 20
244801.211
 30
161.967
 70
    32
  0
VERTEX
  5
4A9
330
4A3
100
AcDbEntity
  8
S1012
100
AcDbVertex
100
AcDb3dPolylineVertex
 10
454049.8541162536
 20
244801.0960624006
 30
162.043997782863
 70
    32
  0
SEQEND
  5
4AA
330
4A3
100
AcDbEntity
  8
S1012
  0
POLYLINE
  5
4AB
330
1F
100
AcDbEntity
  8
B1012
100
AcDb3dPolyline
 66
     1
 10
0.0
 20
0.0
 30
0.0
 70
     8
  0
VERTEX
  5
4AC
330
4AB
100
AcDbEntity
  8
B1012
100
AcDbVertex
100
AcDb3dPolylineVertex
 10
454049.8579999999
 20
244801.443
 30
161.871
 70
    32
  0
VERTEX
  5
4AD
330
4AB
100
AcDbEntity
  8
B1012
100
AcDbVertex
100
AcDb3dPolylineVertex
 10
454049.52
 20
244801.351
 30
161.869
 70
    32
  0
VERTEX
  5
4AE
330
4AB
100
AcDbEntity
  8
B1012
100
AcDbVertex
100
AcDb3dPolylineVertex
 10
454049.249
 20
244801.35
 30
161.863
 70
    32
  0
VERTEX
  5
4AF
330
4AB
100
AcDbEntity
  8
B1012
100
AcDbVertex
100
AcDb3dPolylineVertex
 10
454048.974
 20
244801.388
 30
161.857
 70
    32
  0
SEQEND
  5
4B0
330
4AB
100
AcDbEntity
  8
B1012
  0
POLYLINE
  5
4B1
330
1F
100
AcDbEntity
  8
B1012
100
AcDb3dPolyline
 66
     1
 10
0.0
 20
0.0
 30
0.0
 70
     8
  0
VERTEX
  5
4B2
330
4B1
100
AcDbEntity
  8
B1012
100
AcDbVertex
100
AcDb3dPolylineVertex
 10
454048.9340000001
 20
244801.907
 30
161.854
 70
    32
  0
VERTEX
  5
4B3
330
4B1
100
AcDbEntity
  8
B1012
100
AcDbVertex
100
AcDb3dPolylineVertex
 10
454049.216
 20
244801.991
 30
161.859
 70
    32
  0
VERTEX
  5
4B4
330
4B1
100
AcDbEntity
  8
B1012
100
AcDbVertex
100
AcDb3dPolylineVertex
 10
454049.515
 20
244802.041
 30
161.88
 70
    32
  0
VERTEX
  5
4B5
330
4B1
100
AcDbEntity
  8
B1012
100
AcDbVertex
100
AcDb3dPolylineVertex
 10
454049.832
 20
244801.973
 30
161.871
 70
    32
  0
SEQEND
  5
4B6
330
4B1
100
AcDbEntity
  8
B1012
  0
POINT
  5
4B7
330
1F
100
AcDbEntity
  8
L1013
100
AcDbPoint
 10
454049.948
 20
244801.784
 30
162.055
  0
POLYLINE
  5
4B8
330
1F
100
AcDbEntity
  8
C1010
100
AcDb3dPolyline
 66
     1
 10
0.0
 20
0.0
 30
0.0
 70
     8
  0
VERTEX
  5
4B9
330
4B8
100
AcDbEntity
  8
C1010
100
AcDbVertex
100
AcDb3dPolylineVertex
 10
454031.75
 20
244792.375
 30
161.457
 70
    32
  0
VERTEX
  5
4BA
330
4B8
100
AcDbEntity
  8
C1010
100
AcDbVertex
100
AcDb3dPolylineVertex
 10
454031.898
 20
244792.58
 30
161.49
 70
    32
  0
VERTEX
  5
4BB
330
4B8
100
AcDbEntity
  8
C1010
100
AcDbVertex
100
AcDb3dPolylineVertex
 10
454032.04
 20
244792.874
 30
161.532
 70
    32
  0
VERTEX
  5
4BC
330
4B8
100
AcDbEntity
  8
C1010
100
AcDbVertex
100
AcDb3dPolylineVertex
 10
454032.205
 20
244793.121
 30
161.504
 70
    32
  0
VERTEX
  5
4BD
330
4B8
100
AcDbEntity
  8
C1010
100
AcDbVertex
100
AcDb3dPolylineVertex
 10
454032.519
 20
244793.231
 30
161.565
 70
    32
  0
VERTEX
  5
4BE
330
4B8
100
AcDbEntity
  8
C1010
100
AcDbVertex
100
AcDb3dPolylineVertex
 10
454032.743
 20
244793.435
 30
161.579
 70
    32
  0
SEQEND
  5
4BF
330
4B8
100
AcDbEntity
  8
C1010
  0
POLYLINE
  5
4C0
330
1F
100
AcDbEntity
  8
C1010
100
AcDb3dPolyline
 66
     1
 10
0.0
 20
0.0
 30
0.0
 70
     8
  0
VERTEX
  5
4C1
330
4C0
100
AcDbEntity
  8
C1010
100
AcDbVertex
100
AcDb3dPolylineVertex
 10
454034.166
 20
244792.194
 30
161.558
 70
    32
  0
VERTEX
  5
4C2
330
4C0
100
AcDbEntity
  8
C1010
100
AcDbVertex
100
AcDb3dPolylineVertex
 10
454034.083
 20
244792.032
 30
161.495
 70
    32
  0
VERTEX
  5
4C3
330
4C0
100
AcDbEntity
  8
C1010
100
AcDbVertex
100
AcDb3dPolylineVertex
 10
454033.9840000001
 20
244791.772
 30
161.502
 70
    32
  0
VERTEX
  5
4C4
330
4C0
100
AcDbEntity
  8
C1010
100
AcDbVertex
100
AcDb3dPolylineVertex
 10
454033.822
 20
244791.538
 30
161.508
 70
    32
  0
VERTEX
  5
4C5
330
4C0
100
AcDbEntity
  8
C1010
100
AcDbVertex
100
AcDb3dPolylineVertex
 10
454033.651
 20
244791.386
 30
161.525
 70
    32
  0
VERTEX
  5
4C6
330
4C0
100
AcDbEntity
  8
C1010
100
AcDbVertex
100
AcDb3dPolylineVertex
 10
454033.4830000001
 20
244791.294
 30
161.52
 70
    32
  0
VERTEX
  5
4C7
330
4C0
100
AcDbEntity
  8
C1010
100
AcDbVertex
100
AcDb3dPolylineVertex
 10
454033.202
 20
244791.14
 30
161.509
 70
    32
  0
SEQEND
  5
4C8
330
4C0
100
AcDbEntity
  8
C1010
  0
POLYLINE
  5
4C9
330
1F
100
AcDbEntity
  8
B1010
100
AcDb3dPolyline
 66
     1
 10
0.0
 20
0.0
 30
0.0
 70
     8
  0
VERTEX
  5
4CA
330
4C9
100
AcDbEntity
  8
B1010
100
AcDbVertex
100
AcDb3dPolylineVertex
 10
454033.29
 20
244791.538
 30
161.252
 70
    32
  0
VERTEX
  5
4CB
330
4C9
100
AcDbEntity
  8
B1010
100
AcDbVertex
100
AcDb3dPolylineVertex
 10
454033.474
 20
244791.724
 30
161.243
 70
    32
  0
VERTEX
  5
4CC
330
4C9
100
AcDbEntity
  8
B1010
100
AcDbVertex
100
AcDb3dPolylineVertex
 10
454033.624
 20
244791.957
 30
161.24
 70
    32
  0
VERTEX
  5
4CD
330
4C9
100
AcDbEntity
  8
B1010
100
AcDbVertex
100
AcDb3dPolylineVertex
 10
454033.797
 20
244792.156
 30
161.272
 70
    32
  0
SEQEND
  5
4CE
330
4C9
100
AcDbEntity
  8
B1010
  0
POLYLINE
  5
4CF
330
1F
100
AcDbEntity
  8
B1010
100
AcDb3dPolyline
 66
     1
 10
0.0
 20
0.0
 30
0.0
 70
     8
  0
VERTEX
  5
4D0
330
4CF
100
AcDbEntity
  8
B1010
100
AcDbVertex
100
AcDb3dPolylineVertex
 10
454033.008
 20
244792.776
 30
161.238
 70
    32
  0
VERTEX
  5
4D1
330
4CF
100
AcDbEntity
  8
B1010
100
AcDbVertex
100
AcDb3dPolylineVertex
 10
454032.776
 20
244792.716
 30
161.243
 70
    32
  0
VERTEX
  5
4D2
330
4CF
100
AcDbEntity
  8
B1010
100
AcDbVertex
100
AcDb3dPolylineVertex
 10
454032.509
 20
244792.576
 30
161.243
 70
    32
  0
VERTEX
  5
4D3
330
4CF
100
AcDbEntity
  8
B1010
100
AcDbVertex
100
AcDb3dPolylineVertex
 10
454032.2930000001
 20
244792.37
 30
161.292
 70
    32
  0
SEQEND
  5
4D4
330
4CF
100
AcDbEntity
  8
B1010
  0
POLYLINE
  5
4D5
330
1F
100
AcDbEntity
  8
S1010
100
AcDb3dPolyline
 66
     1
 10
0.0
 20
0.0
 30
0.0
 70
     8
  0
VERTEX
  5
4D6
330
4D5
100
AcDbEntity
  8
S1010
100
AcDbVertex
100
AcDb3dPolylineVertex
 10
454032.58
 20
244793.214
 30
161.567
 70
    32
  0
VERTEX
  5
4D7
330
4D5
100
AcDbEntity
  8
S1010
100
AcDbVertex
100
AcDb3dPolylineVertex
 10
454032.6519999999
 20
244793.086
 30
161.386
 70
    32
  0
VERTEX
  5
4D8
330
4D5
100
AcDbEntity
  8
S1010
100
AcDbVertex
100
AcDb3dPolylineVertex
 10
454032.863
 20
244792.937
 30
161.322
 70
    32
  0
VERTEX
  5
4D9
330
4D5
100
AcDbEntity
  8
S1010
100
AcDbVertex
100
AcDb3dPolylineVertex
 10
454033.029
 20
244792.816
 30
161.249
 70
    32
  0
VERTEX
  5
4DA
330
4D5
100
AcDbEntity
  8
S1010
100
AcDbVertex
100
AcDb3dPolylineVertex
 10
454033.274
 20
244792.57
 30
161.28
 70
    32
  0
VERTEX
  5
4DB
330
4D5
100
AcDbEntity
  8
S1010
100
AcDbVertex
100
AcDb3dPolylineVertex
 10
454033.529
 20
244792.385
 30
161.272
 70
    32
  0
VERTEX
  5
4DC
330
4D5
100
AcDbEntity
  8
S1010
100
AcDbVertex
100
AcDb3dPolylineVertex
 10
454033.74
 20
244792.212
 30
161.329
 70
    32
  0
VERTEX
  5
4DD
330
4D5
100
AcDbEntity
  8
S1010
100
AcDbVertex
100
AcDb3dPolylineVertex
 10
454033.882
 20
244792.111
 30
161.367
 70
    32
  0
VERTEX
  5
4DE
330
4D5
100
AcDbEntity
  8
S1010
100
AcDbVertex
100
AcDb3dPolylineVertex
 10
454034.064
 20
244792.01
 30
161.535
 70
    32
  0
SEQEND
  5
4DF
330
4D5
100
AcDbEntity
  8
S1010
  0
POINT
  5
4E0
330
1F
100
AcDbEntity
  8
L1011
100
AcDbPoint
 10
454033.32
 20
244792.808
 30
161.586
  0
POLYLINE
  5
4E1
330
1F
100
AcDbEntity
  8
DP003
100
AcDb3dPolyline
 66
     1
 10
0.0
 20
0.0
 30
0.0
 70
     8
  0
VERTEX
  5
4E2
330
4E1
100
AcDbEntity
  8
DP003
100
AcDbVertex
100
AcDb3dPolylineVertex
 10
453969.042
 20
244806.843
 30
160.387
 70
    32
  0
VERTEX
  5
4E3
330
4E1
100
AcDbEntity
  8
DP003
100
AcDbVertex
100
AcDb3dPolylineVertex
 10
453968.748
 20
244805.731
 30
160.414
 70
    32
  0
SEQEND
  5
4E4
330
4E1
100
AcDbEntity
  8
DP003
  0
POINT
  5
4E5
330
1F
100
AcDbEntity
  8
L1019
100
AcDbPoint
 10
453968.9890000001
 20
244806.2
 30
160.313
  0
POINT
  5
4E6
330
1F
100
AcDbEntity
  8
L1022
100
AcDbPoint
 10
453969.061
 20
244806.581
 30
160.334
  0
POINT
  5
4E7
330
1F
100
AcDbEntity
  8
L1023
100
AcDbPoint
 10
453968.84
 20
244805.876
 30
160.357
  0
POLYLINE
  5
4E8
330
1F
100
AcDbEntity
  8
C1019
100
AcDb3dPolyline
 66
     1
 10
0.0
 20
0.0
 30
0.0
 70
     9
  0
VERTEX
  5
4E9
330
4E8
100
AcDbEntity
  8
C1019
100
AcDbVertex
100
AcDb3dPolylineVertex
 10
453969.288
 20
244806.613
 30
160.341
 70
    32
  0
VERTEX
  5
4EA
330
4E8
100
AcDbEntity
  8
C1019
100
AcDbVertex
100
AcDb3dPolylineVertex
 10
453969.092
 20
244806.698
 30
160.339
 70
    32
  0
VERTEX
  5
4EB
330
4E8
100
AcDbEntity
  8
C1019
100
AcDbVertex
100
AcDb3dPolylineVertex
 10
453968.954
 20
244806.728
 30
160.357
 70
    32
  0
VERTEX
  5
4EC
330
4E8
100
AcDbEntity
  8
C1019
100
AcDbVertex
100
AcDb3dPolylineVertex
 10
453968.813
 20
244806.682
 30
160.342
 70
    32
  0
VERTEX
  5
4ED
330
4E8
100
AcDbEntity
  8
C1019
100
AcDbVertex
100
AcDb3dPolylineVertex
 10
453968.68
 20
244806.562
 30
160.292
 70
    32
  0
VERTEX
  5
4EE
330
4E8
100
AcDbEntity
  8
C1019
100
AcDbVertex
100
AcDb3dPolylineVertex
 10
453968.56
 20
244806.423
 30
160.304
 70
    32
  0
VERTEX
  5
4EF
330
4E8
100
AcDbEntity
  8
C1019
100
AcDbVertex
100
AcDb3dPolylineVertex
 10
453968.528
 20
244806.213
 30
160.303
 70
    32
  0
VERTEX
  5
4F0
330
4E8
100
AcDbEntity
  8
C1019
100
AcDbVertex
100
AcDb3dPolylineVertex
 10
453968.585
 20
244806.032
 30
160.288
 70
    32
  0
VERTEX
  5
4F1
330
4E8
100
AcDbEntity
  8
C1019
100
AcDbVertex
100
AcDb3dPolylineVertex
 10
453968.684
 20
244805.92
 30
160.313
 70
    32
  0
VERTEX
  5
4F2
330
4E8
100
AcDbEntity
  8
C1019
100
AcDbVertex
100
AcDb3dPolylineVertex
 10
453968.747
 20
244805.847
 30
160.35
 70
    32
  0
VERTEX
  5
4F3
330
4E8
100
AcDbEntity
  8
C1019
100
AcDbVertex
100
AcDb3dPolylineVertex
 10
453968.966
 20
244805.794
 30
160.341
 70
    32
  0
VERTEX
  5
4F4
330
4E8
100
AcDbEntity
  8
C1019
100
AcDbVertex
100
AcDb3dPolylineVertex
 10
453969.171
 20
244805.803
 30
160.323
 70
    32
  0
VERTEX
  5
4F5
330
4E8
100
AcDbEntity
  8
C1019
100
AcDbVertex
100
AcDb3dPolylineVertex
 10
453969.383
 20
244805.831
 30
160.333
 70
    32
  0
VERTEX
  5
4F6
330
4E8
100
AcDbEntity
  8
C1019
100
AcDbVertex
100
AcDb3dPolylineVertex
 10
453969.4840000001
 20
244805.985
 30
160.288
 70
    32
  0
VERTEX
  5
4F7
330
4E8
100
AcDbEntity
  8
C1019
100
AcDbVertex
100
AcDb3dPolylineVertex
 10
453969.595
 20
244806.171
 30
160.32
 70
    32
  0
VERTEX
  5
4F8
330
4E8
100
AcDbEntity
  8
C1019
100
AcDbVertex
100
AcDb3dPolylineVertex
 10
453969.564
 20
244806.295
 30
160.331
 70
    32
  0
VERTEX
  5
4F9
330
4E8
100
AcDbEntity
  8
C1019
100
AcDbVertex
100
AcDb3dPolylineVertex
 10
453969.421
 20
244806.524
 30
160.328
 70
    32
  0
SEQEND
  5
4FA
330
4E8
100
AcDbEntity
  8
C1019
  0
POLYLINE
  5
4FB
330
1F
100
AcDbEntity
  8
B1019
100
AcDb3dPolyline
 66
     1
 10
0.0
 20
0.0
 30
0.0
 70
     8
  0
VERTEX
  5
4FC
330
4FB
100
AcDbEntity
  8
B1019
100
AcDbVertex
100
AcDb3dPolylineVertex
 10
453968.971
 20
244806.52
 30
160.168
 70
    32
  0
VERTEX
  5
4FD
330
4FB
100
AcDbEntity
  8
B1019
100
AcDbVertex
100
AcDb3dPolylineVertex
 10
453968.825
 20
244806.469
 30
160.146
 70
    32
  0
VERTEX
  5
4FE
330
4FB
100
AcDbEntity
  8
B1019
100
AcDbVertex
100
AcDb3dPolylineVertex
 10
453968.719
 20
244806.388
 30
160.116
 70
    32
  0
VERTEX
  5
4FF
330
4FB
100
AcDbEntity
  8
B1019
100
AcDbVertex
100
AcDb3dPolylineVertex
 10
453968.683
 20
244806.265
 30
160.136
 70
    32
  0
VERTEX
  5
500
330
4FB
100
AcDbEntity
  8
B1019
100
AcDbVertex
100
AcDb3dPolylineVertex
 10
453968.7230000001
 20
244806.1708273947
 30
160.15
 70
    32
  0
VERTEX
  5
501
330
4FB
100
AcDbEntity
  8
B1019
100
AcDbVertex
100
AcDb3dPolylineVertex
 10
453968.772
 20
244806.097
 30
160.117
 70
    32
  0
VERTEX
  5
502
330
4FB
100
AcDbEntity
  8
B1019
100
AcDbVertex
100
AcDb3dPolylineVertex
 10
453968.845
 20
244806.044
 30
160.138
 70
    32
  0
SEQEND
  5
503
330
4FB
100
AcDbEntity
  8
B1019
  0
POLYLINE
  5
559
330
1F
100
AcDbEntity
  8
S1019
100
AcDb3dPolyline
 66
     1
 10
0.0
 20
0.0
 30
0.0
 70
     8
  0
VERTEX
  5
55A
330
559
100
AcDbEntity
  8
S1019
100
AcDbVertex
100
AcDb3dPolylineVertex
 10
453969.0012088395
 20
244806.7177372088
 30
160.35084232529
 70
    32
  0
VERTEX
  5
55B
330
559
100
AcDbEntity
  8
S1019
100
AcDbVertex
100
AcDb3dPolylineVertex
 10
453968.9356332033
 20
244806.6405946776
 30
160.179
 70
    32
  0
VERTEX
  5
55C
330
559
100
AcDbEntity
  8
S1019
100
AcDbVertex
100
AcDb3dPolylineVertex
 10
453968.8986332034
 20
244806.5585946776
 30
160.148
 70
    32
  0
VERTEX
  5
55D
330
559
100
AcDbEntity
  8
S1019
100
AcDbVertex
100
AcDb3dPolylineVertex
 10
453968.8956332033
 20
244806.3325946776
 30
160.136
 70
    32
  0
VERTEX
  5
55E
330
559
100
AcDbEntity
  8
S1019
100
AcDbVertex
100
AcDb3dPolylineVertex
 10
453968.8906332033
 20
244806.3255946776
 30
160.128
 70
    32
  0
VERTEX
  5
55F
330
559
100
AcDbEntity
  8
S1019
100
AcDbVertex
100
AcDb3dPolylineVertex
 10
453968.8446332033
 20
244806.2775946776
 30
160.139
 70
    32
  0
VERTEX
  5
560
330
559
100
AcDbEntity
  8
S1019
100
AcDbVertex
100
AcDb3dPolylineVertex
 10
453968.8326332034
 20
244806.1295946776
 30
160.153
 70
    32
  0
VERTEX
  5
561
330
559
100
AcDbEntity
  8
S1019
100
AcDbVertex
100
AcDb3dPolylineVertex
 10
453968.7746332033
 20
244806.0835946776
 30
160.142
 70
    32
  0
VERTEX
  5
562
330
559
100
AcDbEntity
  8
S1019
100
AcDbVertex
100
AcDb3dPolylineVertex
 10
453968.7696332033
 20
244805.9565946776
 30
160.209
 70
    32
  0
VERTEX
  5
563
330
559
100
AcDbEntity
  8
S1019
100
AcDbVertex
100
AcDb3dPolylineVertex
 10
453968.761841787
 20
244805.8402145163
 30
160.347
 70
    32
  0
SEQEND
  5
564
330
559
100
AcDbEntity
  8
S1019
  0
LINE
  5
569
330
1F
100
AcDbEntity
  8
PRE
100
AcDbLine
 10
453972.6419999999
 20
244801.864
 30
160.363
 11
453972.215
 21
244800.805
 31
160.351
  0
LINE
  5
56A
330
1F
100
AcDbEntity
  8
PRE
100
AcDbLine
 10
453972.215
 20
244800.805
 30
160.351
 11
453971.364
 21
244800.078
 31
160.36
  0
LINE
  5
56C
330
1F
100
AcDbEntity
  8
PRE
100
AcDbLine
 10
453969.605
 20
244799.324
 30
160.262
 11
453968.597
 21
244798.972
 31
160.257
  0
LINE
  5
56E
330
1F
100
AcDbEntity
  8
PRE
100
AcDbLine
 10
453967.286
 20
244798.736
 30
160.123
 11
453965.916
 21
244799.154
 31
160.003
  0
LINE
  5
573
330
1F
100
AcDbEntity
  8
PRE
100
AcDbLine
 10
453966.198
 20
244799.608
 30
160.018
 11
453967.2340000001
 21
244799.325
 31
160.206
  0
LINE
  5
575
330
1F
100
AcDbEntity
  8
PRE
100
AcDbLine
 10
453968.63
 20
244799.419
 30
160.267
 11
453969.526
 21
244799.625
 31
160.309
  0
LINE
  5
577
330
1F
100
AcDbEntity
  8
PRE
100
AcDbLine
 10
453971.206
 20
244800.416
 30
160.341
 11
453972.05
 21
244801.511
 31
160.314
  0
LINE
  5
578
330
1F
100
AcDbEntity
  8
PRE
100
AcDbLine
 10
453972.05
 20
244801.511
 30
160.314
 11
453972.314
 21
244801.91
 31
160.34
  0
LINE
  5
579
330
1F
100
AcDbEntity
  8
PRE
100
AcDbLine
 10
454053.3689092287
 20
244800.8065794994
 30
162.1973775859891
 11
454050.926
 21
244801.02
 31
162.055
  0
LINE
  5
57A
330
1F
100
AcDbEntity
  8
PRE
100
AcDbLine
 10
454048.1419999999
 20
244801.128
 30
162.034
 11
454044.851
 21
244800.795
 31
161.939
  0
LINE
  5
57B
330
1F
100
AcDbEntity
  8
PRE
100
AcDbLine
 10
454044.851
 20
244800.795
 30
161.939
 11
454042.849
 21
244800.495
 31
161.89
  0
LINE
  5
57C
330
1F
100
AcDbEntity
  8
PRE
100
AcDbLine
 10
454042.849
 20
244800.495
 30
161.89
 11
454041.15
 21
244798.993
 31
161.978
  0
LINE
  5
57D
330
1F
100
AcDbEntity
  8
PRE
100
AcDbLine
 10
454034.377687385
 20
244815.7243314361
 30
162.0643281647679
 11
454036.577
 21
244814.623
 31
161.954
  0
LINE
  5
57E
330
1F
100
AcDbEntity
  8
PRE
100
AcDbLine
 10
454036.577
 20
244814.623
 30
161.954
 11
454039.802
 21
244811.985
 31
162.001
  0
LINE
  5
580
330
1F
100
AcDbEntity
  8
PRE
100
AcDbLine
 10
454041.24
 20
244810.744
 30
162.032
 11
454043.537
 21
244806.094
 31
162.067
  0
LINE
  5
581
330
1F
100
AcDbEntity
  8
PRE
100
AcDbLine
 10
454043.537
 20
244806.094
 30
162.067
 11
454043.974
 21
244803.693
 31
161.992
  0
LINE
  5
583
330
1F
100
AcDbEntity
  8
PRE
100
AcDbLine
 10
454045.605
 20
244802.579
 30
162.027
 11
454047.9790000001
 21
244802.1556831602
 31
162.055
  0
LINE
  5
584
330
1F
100
AcDbEntity
  8
PRE
100
AcDbLine
 10
454050.903
 20
244802.212
 30
162.122
 11
454053.3864211194
 21
244802.0526658689
 31
162.2320914225477
  0
LINE
  5
588
330
1F
100
AcDbEntity
  8
PRE
100
AcDbLine
 10
454025.324
 20
244786.24
 30
160.99
 11
454030.5542326198
 21
244789.002100224
 31
161.342
  0
LINE
  5
589
330
1F
100
AcDbEntity
  8
PRE
100
AcDbLine
 10
454030.5542326198
 20
244789.002100224
 30
161.342
 11
454033.202
 21
244791.14
 31
161.509
  0
LINE
  5
58A
330
1F
100
AcDbEntity
  8
PRE
100
AcDbLine
 10
454034.166
 20
244792.194
 30
161.558
 11
454041.15
 21
244798.993
 31
161.978
  0
LINE
  5
58C
330
1F
100
AcDbEntity
  8
PRE
100
AcDbLine
 10
454040.8726716157
 20
244800.4750231291
 30
161.9782734628276
 11
454038.016
 21
244798.012
 31
161.894
  0
LINE
  5
58D
330
1F
100
AcDbEntity
  8
PRE
100
AcDbLine
 10
454038.016
 20
244798.012
 30
161.894
 11
454032.743
 21
244793.435
 31
161.579
  0
LINE
  5
58E
330
1F
100
AcDbEntity
  8
PRE
100
AcDbLine
 10
454031.75
 20
244792.375
 30
161.457
 11
454025.231
 21
244787.059
 31
161.005
  0
POLYLINE
  5
594
330
1F
100
AcDbEntity
  8
C1026
100
AcDb3dPolyline
 66
     1
 10
0.0
 20
0.0
 30
0.0
 70
     8
  0
VERTEX
  5
595
330
594
100
AcDbEntity
  8
C1026
100
AcDbVertex
100
AcDb3dPolylineVertex
 10
453972.077
 20
244810.888
 30
160.498
 70
    32
  0
VERTEX
  5
596
330
594
100
AcDbEntity
  8
C1026
100
AcDbVertex
100
AcDb3dPolylineVertex
 10
453972.339
 20
244810.669
 30
160.492
 70
    32
  0
VERTEX
  5
597
330
594
100
AcDbEntity
  8
C1026
100
AcDbVertex
100
AcDb3dPolylineVertex
 10
453972.4950000001
 20
244810.524
 30
160.485
 70
    32
  0
VERTEX
  5
598
330
594
100
AcDbEntity
  8
C1026
100
AcDbVertex
100
AcDb3dPolylineVertex
 10
453972.635
 20
244810.411
 30
160.435
 70
    32
  0
VERTEX
  5
599
330
594
100
AcDbEntity
  8
C1026
100
AcDbVertex
100
AcDb3dPolylineVertex
 10
453972.758
 20
244810.247
 30
160.449
 70
    32
  0
VERTEX
  5
59A
330
594
100
AcDbEntity
  8
C1026
100
AcDbVertex
100
AcDb3dPolylineVertex
 10
453972.9104166913
 20
244810.1140430243
 30
160.457
 70
    32
  0
VERTEX
  5
59B
330
594
100
AcDbEntity
  8
C1026
100
AcDbVertex
100
AcDb3dPolylineVertex
 10
453973.019
 20
244809.896
 30
160.471
 70
    32
  0
VERTEX
  5
59C
330
594
100
AcDbEntity
  8
C1026
100
AcDbVertex
100
AcDb3dPolylineVertex
 10
453973.143
 20
244809.712
 30
160.484
 70
    32
  0
SEQEND
  5
59D
330
594
100
AcDbEntity
  8
C1026
  0
POLYLINE
  5
59F
330
1F
100
AcDbEntity
  8
C1026
100
AcDb3dPolyline
 66
     1
 10
0.0
 20
0.0
 30
0.0
 70
     8
  0
VERTEX
  5
5A0
330
59F
100
AcDbEntity
  8
C1026
100
AcDbVertex
100
AcDb3dPolylineVertex
 10
453972.894
 20
244809.494
 30
160.485
 70
    32
  0
VERTEX
  5
5A1
330
59F
100
AcDbEntity
  8
C1026
100
AcDbVertex
100
AcDb3dPolylineVertex
 10
453972.7532570854
 20
244809.6372600152
 30
160.526
 70
    32
  0
VERTEX
  5
5A2
330
59F
100
AcDbEntity
  8
C1026
100
AcDbVertex
100
AcDb3dPolylineVertex
 10
453972.584
 20
244809.798
 30
160.472
 70
    32
  0
VERTEX
  5
5A3
330
59F
100
AcDbEntity
  8
C1026
100
AcDbVertex
100
AcDb3dPolylineVertex
 10
453972.4423108848
 20
244809.9414951467
 30
160.497
 70
    32
  0
VERTEX
  5
5A4
330
59F
100
AcDbEntity
  8
C1026
100
AcDbVertex
100
AcDb3dPolylineVertex
 10
453972.290193319
 20
244810.051109275
 30
160.485
 70
    32
  0
VERTEX
  5
5A5
330
59F
100
AcDbEntity
  8
C1026
100
AcDbVertex
100
AcDb3dPolylineVertex
 10
453972.176
 20
244810.184
 30
160.443
 70
    32
  0
VERTEX
  5
5A6
330
59F
100
AcDbEntity
  8
C1026
100
AcDbVertex
100
AcDb3dPolylineVertex
 10
453972.058
 20
244810.329
 30
160.453
 70
    32
  0
VERTEX
  5
5A7
330
59F
100
AcDbEntity
  8
C1026
100
AcDbVertex
100
AcDb3dPolylineVertex
 10
453971.905
 20
244810.496
 30
160.473
 70
    32
  0
SEQEND
  5
5A8
330
59F
100
AcDbEntity
  8
C1026
  0
POLYLINE
  5
5AB
330
1F
100
AcDbEntity
  8
B1026
100
AcDb3dPolyline
 66
     1
 10
0.0
 20
0.0
 30
0.0
 70
     8
  0
VERTEX
  5
5AC
330
5AB
100
AcDbEntity
  8
B1026
100
AcDbVertex
100
AcDb3dPolylineVertex
 10
453972.171
 20
244810.422
 30
160.388
 70
    32
  0
VERTEX
  5
5AD
330
5AB
100
AcDbEntity
  8
B1026
100
AcDbVertex
100
AcDb3dPolylineVertex
 10
453972.282
 20
244810.313
 30
160.364
 70
    32
  0
VERTEX
  5
5AE
330
5AB
100
AcDbEntity
  8
B1026
100
AcDbVertex
100
AcDb3dPolylineVertex
 10
453972.407
 20
244810.198
 30
160.366
 70
    32
  0
VERTEX
  5
5AF
330
5AB
100
AcDbEntity
  8
B1026
100
AcDbVertex
100
AcDb3dPolylineVertex
 10
453972.5295547828
 20
244810.0578203441
 30
160.365
 70
    32
  0
VERTEX
  5
5B0
330
5AB
100
AcDbEntity
  8
B1026
100
AcDbVertex
100
AcDb3dPolylineVertex
 10
453972.695
 20
244809.912
 30
160.382
 70
    32
  0
VERTEX
  5
5B1
330
5AB
100
AcDbEntity
  8
B1026
100
AcDbVertex
100
AcDb3dPolylineVertex
 10
453972.821
 20
244809.708
 30
160.404
 70
    32
  0
SEQEND
  5
5B2
330
5AB
100
AcDbEntity
  8
B1026
  0
POLYLINE
  5
5B4
330
1F
100
AcDbEntity
  8
B1026
100
AcDb3dPolyline
 66
     1
 10
0.0
 20
0.0
 30
0.0
 70
     8
  0
VERTEX
  5
5B5
330
5B4
100
AcDbEntity
  8
B1026
100
AcDbVertex
100
AcDb3dPolylineVertex
 10
453972.895
 20
244809.786
 30
160.416
 70
    32
  0
VERTEX
  5
5B6
330
5B4
100
AcDbEntity
  8
B1026
100
AcDbVertex
100
AcDb3dPolylineVertex
 10
453972.796
 20
244809.913
 30
160.381
 70
    32
  0
VERTEX
  5
5B7
330
5B4
100
AcDbEntity
  8
B1026
100
AcDbVertex
100
AcDb3dPolylineVertex
 10
453972.7180327111
 20
244810.0670655408
 30
160.394
 70
    32
  0
VERTEX
  5
5B8
330
5B4
100
AcDbEntity
  8
B1026
100
AcDbVertex
100
AcDb3dPolylineVertex
 10
453972.591
 20
244810.24
 30
160.367
 70
    32
  0
VERTEX
  5
5B9
330
5B4
100
AcDbEntity
  8
B1026
100
AcDbVertex
100
AcDb3dPolylineVertex
 10
453972.466
 20
244810.342
 30
160.384
 70
    32
  0
VERTEX
  5
5BA
330
5B4
100
AcDbEntity
  8
B1026
100
AcDbVertex
100
AcDb3dPolylineVertex
 10
453972.37
 20
244810.432
 30
160.409
 70
    32
  0
VERTEX
  5
5BB
330
5B4
100
AcDbEntity
  8
B1026
100
AcDbVertex
100
AcDb3dPolylineVertex
 10
453972.274
 20
244810.521
 30
160.416
 70
    32
  0
SEQEND
  5
5BC
330
5B4
100
AcDbEntity
  8
B1026
  0
POLYLINE
  5
5BF
330
1F
100
AcDbEntity
  8
S1026
100
AcDb3dPolyline
 66
     1
 10
0.0
 20
0.0
 30
0.0
 70
     8
  0
VERTEX
  5
5C0
330
5BF
100
AcDbEntity
  8
S1026
100
AcDbVertex
100
AcDb3dPolylineVertex
 10
453972.062
 20
244810.3455
 30
160.4295
 70
    32
  0
VERTEX
  5
5C1
330
5BF
100
AcDbEntity
  8
S1026
100
AcDbVertex
100
AcDb3dPolylineVertex
 10
453972.091
 20
244810.396
 30
160.41
 70
    32
  0
VERTEX
  5
5C2
330
5BF
100
AcDbEntity
  8
S1026
100
AcDbVertex
100
AcDb3dPolylineVertex
 10
453972.171
 20
244810.422
 30
160.388
 70
    32
  0
VERTEX
  5
5C3
330
5BF
100
AcDbEntity
  8
S1026
100
AcDbVertex
100
AcDb3dPolylineVertex
 10
453972.2290000001
 20
244810.492
 30
160.409
 70
    32
  0
VERTEX
  5
5C4
330
5BF
100
AcDbEntity
  8
S1026
100
AcDbVertex
100
AcDb3dPolylineVertex
 10
453972.274
 20
244810.521
 30
160.416
 70
    32
  0
VERTEX
  5
5C5
330
5BF
100
AcDbEntity
  8
S1026
100
AcDbVertex
100
AcDb3dPolylineVertex
 10
453972.3170375953
 20
244810.6027591532
 30
160.473
 70
    32
  0
VERTEX
  5
5C6
330
5BF
100
AcDbEntity
  8
S1026
100
AcDbVertex
100
AcDb3dPolylineVertex
 10
453972.339
 20
244810.669
 30
160.492
 70
    32
  0
SEQEND
  5
5C7
330
5BF
100
AcDbEntity
  8
S1026
  0
POINT
  5
5CA
330
1F
100
AcDbEntity
  8
L1027
100
AcDbPoint
 10
453972.13
 20
244810.546
 30
160.459
  0
POINT
  5
5CC
330
1F
100
AcDbEntity
  8
L1029
100
AcDbPoint
 10
453973.812
 20
244807.258
 30
160.444
  0
POLYLINE
  5
5CE
330
1F
100
AcDbEntity
  8
C1028
100
AcDb3dPolyline
 66
     1
 10
0.0
 20
0.0
 30
0.0
 70
     8
  0
VERTEX
  5
5CF
330
5CE
100
AcDbEntity
  8
C1028
100
AcDbVertex
100
AcDb3dPolylineVertex
 10
453973.587
 20
244807.32
 30
160.474
 70
    32
  0
VERTEX
  5
5D0
330
5CE
100
AcDbEntity
  8
C1028
100
AcDbVertex
100
AcDb3dPolylineVertex
 10
453973.61
 20
244807.171
 30
160.452
 70
    32
  0
VERTEX
  5
5D1
330
5CE
100
AcDbEntity
  8
C1028
100
AcDbVertex
100
AcDb3dPolylineVertex
 10
453973.556
 20
244806.949
 30
160.431
 70
    32
  0
VERTEX
  5
5D2
330
5CE
100
AcDbEntity
  8
C1028
100
AcDbVertex
100
AcDb3dPolylineVertex
 10
453973.535
 20
244806.633
 30
160.5
 70
    32
  0
VERTEX
  5
5D3
330
5CE
100
AcDbEntity
  8
C1028
100
AcDbVertex
100
AcDb3dPolylineVertex
 10
453973.605
 20
244806.433
 30
160.438
 70
    32
  0
VERTEX
  5
5D4
330
5CE
100
AcDbEntity
  8
C1028
100
AcDbVertex
100
AcDb3dPolylineVertex
 10
453973.66
 20
244806.287
 30
160.47
 70
    32
  0
VERTEX
  5
5D5
330
5CE
100
AcDbEntity
  8
C1028
100
AcDbVertex
100
AcDb3dPolylineVertex
 10
453973.789
 20
244806.131
 30
160.442
 70
    32
  0
VERTEX
  5
5D6
330
5CE
100
AcDbEntity
  8
C1028
100
AcDbVertex
100
AcDb3dPolylineVertex
 10
453973.975
 20
244806.131
 30
160.456
 70
    32
  0
VERTEX
  5
5D7
330
5CE
100
AcDbEntity
  8
C1028
100
AcDbVertex
100
AcDb3dPolylineVertex
 10
453974.1
 20
244806.248
 30
160.452
 70
    32
  0
VERTEX
  5
5D8
330
5CE
100
AcDbEntity
  8
C1028
100
AcDbVertex
100
AcDb3dPolylineVertex
 10
453974.175
 20
244806.336
 30
160.488
 70
    32
  0
VERTEX
  5
5D9
330
5CE
100
AcDbEntity
  8
C1028
100
AcDbVertex
100
AcDb3dPolylineVertex
 10
453974.136
 20
244806.602
 30
160.46
 70
    32
  0
VERTEX
  5
5DA
330
5CE
100
AcDbEntity
  8
C1028
100
AcDbVertex
100
AcDb3dPolylineVertex
 10
453974.1569999999
 20
244806.823
 30
160.469
 70
    32
  0
VERTEX
  5
5DB
330
5CE
100
AcDbEntity
  8
C1028
100
AcDbVertex
100
AcDb3dPolylineVertex
 10
453974.178
 20
244807.018
 30
160.474
 70
    32
  0
VERTEX
  5
5DC
330
5CE
100
AcDbEntity
  8
C1028
100
AcDbVertex
100
AcDb3dPolylineVertex
 10
453974.131
 20
244807.212
 30
160.475
 70
    32
  0
VERTEX
  5
5DD
330
5CE
100
AcDbEntity
  8
C1028
100
AcDbVertex
100
AcDb3dPolylineVertex
 10
453974.074
 20
244807.426
 30
160.475
 70
    32
  0
SEQEND
  5
5DE
330
5CE
100
AcDbEntity
  8
C1028
  0
POLYLINE
  5
5E0
330
1F
100
AcDbEntity
  8
B1028
100
AcDb3dPolyline
 66
     1
 10
0.0
 20
0.0
 30
0.0
 70
     8
  0
VERTEX
  5
5E1
330
5E0
100
AcDbEntity
  8
B1028
100
AcDbVertex
100
AcDb3dPolylineVertex
 10
453973.707
 20
244807.143
 30
160.393
 70
    32
  0
VERTEX
  5
5E2
330
5E0
100
AcDbEntity
  8
B1028
100
AcDbVertex
100
AcDb3dPolylineVertex
 10
453973.688
 20
244806.911
 30
160.401
 70
    32
  0
VERTEX
  5
5E3
330
5E0
100
AcDbEntity
  8
B1028
100
AcDbVertex
100
AcDb3dPolylineVertex
 10
453973.669
 20
244806.687
 30
160.423
 70
    32
  0
VERTEX
  5
5E4
330
5E0
100
AcDbEntity
  8
B1028
100
AcDbVertex
100
AcDb3dPolylineVertex
 10
453973.708
 20
244806.524
 30
160.386
 70
    32
  0
VERTEX
  5
5E5
330
5E0
100
AcDbEntity
  8
B1028
100
AcDbVertex
100
AcDb3dPolylineVertex
 10
453973.725
 20
244806.431
 30
160.384
 70
    32
  0
VERTEX
  5
5E6
330
5E0
100
AcDbEntity
  8
B1028
100
AcDbVertex
100
AcDb3dPolylineVertex
 10
453973.875
 20
244806.349
 30
160.387
 70
    32
  0
VERTEX
  5
5E7
330
5E0
100
AcDbEntity
  8
B1028
100
AcDbVertex
100
AcDb3dPolylineVertex
 10
453973.974
 20
244806.543
 30
160.396
 70
    32
  0
VERTEX
  5
5E8
330
5E0
100
AcDbEntity
  8
B1028
100
AcDbVertex
100
AcDb3dPolylineVertex
 10
453974.0107924517
 20
244806.7038191887
 30
160.413
 70
    32
  0
VERTEX
  5
5E9
330
5E0
100
AcDbEntity
  8
B1028
100
AcDbVertex
100
AcDb3dPolylineVertex
 10
453973.9928962676
 20
244806.9311007282
 30
160.373
 70
    32
  0
VERTEX
  5
5EA
330
5E0
100
AcDbEntity
  8
B1028
100
AcDbVertex
100
AcDb3dPolylineVertex
 10
453973.9940000001
 20
244807.2007637248
 30
160.423
 70
    32
  0
SEQEND
  5
5EB
330
5E0
100
AcDbEntity
  8
B1028
  0
POLYLINE
  5
5ED
330
1F
100
AcDbEntity
  8
S1028
100
AcDb3dPolyline
 66
     1
 10
0.0
 20
0.0
 30
0.0
 70
     8
  0
VERTEX
  5
5EE
330
5ED
100
AcDbEntity
  8
S1028
100
AcDbVertex
100
AcDb3dPolylineVertex
 10
453973.599
 20
244807.123
 30
160.444
 70
    32
  0
VERTEX
  5
5EF
330
5ED
100
AcDbEntity
  8
S1028
100
AcDbVertex
100
AcDb3dPolylineVertex
 10
453973.6730808613
 20
244807.1349057669
 30
160.423
 70
    32
  0
VERTEX
  5
5F0
330
5ED
100
AcDbEntity
  8
S1028
100
AcDbVertex
100
AcDb3dPolylineVertex
 10
453973.72
 20
244807.139
 30
160.39
 70
    32
  0
VERTEX
  5
5F1
330
5ED
100
AcDbEntity
  8
S1028
100
AcDbVertex
100
AcDb3dPolylineVertex
 10
453973.8348623665
 20
244807.150654409
 30
160.395
 70
    32
  0
VERTEX
  5
5F2
330
5ED
100
AcDbEntity
  8
S1028
100
AcDbVertex
100
AcDb3dPolylineVertex
 10
453973.903
 20
244807.179
 30
160.386
 70
    32
  0
VERTEX
  5
5F3
330
5ED
100
AcDbEntity
  8
S1028
100
AcDbVertex
100
AcDb3dPolylineVertex
 10
453973.9940000001
 20
244807.2007637248
 30
160.423
 70
    32
  0
VERTEX
  5
5F4
330
5ED
100
AcDbEntity
  8
S1028
100
AcDbVertex
100
AcDb3dPolylineVertex
 10
453974.0653652191
 20
244807.2222391458
 30
160.444
 70
    32
  0
VERTEX
  5
5F5
330
5ED
100
AcDbEntity
  8
S1028
100
AcDbVertex
100
AcDb3dPolylineVertex
 10
453974.122
 20
244807.234
 30
160.468
 70
    32
  0
SEQEND
  5
5F6
330
5ED
100
AcDbEntity
  8
S1028
  0
POLYLINE
  5
5F8
330
1F
100
AcDbEntity
  8
S1028
100
AcDb3dPolyline
 66
     1
 10
0.0
 20
0.0
 30
0.0
 70
     8
  0
VERTEX
  5
5F9
330
5F8
100
AcDbEntity
  8
S1028
100
AcDbVertex
100
AcDb3dPolylineVertex
 10
453973.83247324
 20
244807.1496605206
 30
160.3953155691995
 70
    32
  0
VERTEX
  5
5FA
330
5F8
100
AcDbEntity
  8
S1028
100
AcDbVertex
100
AcDb3dPolylineVertex
 10
453973.8419999999
 20
244807.009
 30
160.361
 70
    32
  0
VERTEX
  5
5FB
330
5F8
100
AcDbEntity
  8
S1028
100
AcDbVertex
100
AcDb3dPolylineVertex
 10
453973.834
 20
244806.833
 30
160.378
 70
    32
  0
VERTEX
  5
5FC
330
5F8
100
AcDbEntity
  8
S1028
100
AcDbVertex
100
AcDb3dPolylineVertex
 10
453973.896
 20
244806.754
 30
160.403
 70
    32
  0
VERTEX
  5
5FD
330
5F8
100
AcDbEntity
  8
S1028
100
AcDbVertex
100
AcDb3dPolylineVertex
 10
453973.862
 20
244806.512
 30
160.364
 70
    32
  0
VERTEX
  5
5FE
330
5F8
100
AcDbEntity
  8
S1028
100
AcDbVertex
100
AcDb3dPolylineVertex
 10
453973.875
 20
244806.349
 30
160.387
 70
    32
  0
VERTEX
  5
5FF
330
5F8
100
AcDbEntity
  8
S1028
100
AcDbVertex
100
AcDb3dPolylineVertex
 10
453973.889
 20
244806.347
 30
160.414
 70
    32
  0
VERTEX
  5
600
330
5F8
100
AcDbEntity
  8
S1028
100
AcDbVertex
100
AcDb3dPolylineVertex
 10
453973.909
 20
244806.097
 30
160.448
 70
    32
  0
SEQEND
  5
601
330
5F8
100
AcDbEntity
  8
S1028
  0
POLYLINE
  5
603
330
1F
100
AcDbEntity
  8
C1024
100
AcDb3dPolyline
 66
     1
 10
0.0
 20
0.0
 30
0.0
 70
     8
  0
VERTEX
  5
604
330
603
100
AcDbEntity
  8
C1024
100
AcDbVertex
100
AcDb3dPolylineVertex
 10
453968.63
 20
244799.419
 30
160.267
 70
    32
  0
VERTEX
  5
605
330
603
100
AcDbEntity
  8
C1024
100
AcDbVertex
100
AcDb3dPolylineVertex
 10
453968.407
 20
244799.38
 30
160.228
 70
    32
  0
VERTEX
  5
606
330
603
100
AcDbEntity
  8
C1024
100
AcDbVertex
100
AcDb3dPolylineVertex
 10
453968.2242571521
 20
244799.3521090181
 30
160.234
 70
    32
  0
VERTEX
  5
607
330
603
100
AcDbEntity
  8
C1024
100
AcDbVertex
100
AcDb3dPolylineVertex
 10
453968.04
 20
244799.334
 30
160.216
 70
    32
  0
VERTEX
  5
608
330
603
100
AcDbEntity
  8
C1024
100
AcDbVertex
100
AcDb3dPolylineVertex
 10
453967.844
 20
244799.292
 30
160.198
 70
    32
  0
VERTEX
  5
609
330
603
100
AcDbEntity
  8
C1024
100
AcDbVertex
100
AcDb3dPolylineVertex
 10
453967.696319718
 20
244799.3055789392
 30
160.23
 70
    32
  0
VERTEX
  5
60A
330
603
100
AcDbEntity
  8
C1024
100
AcDbVertex
100
AcDb3dPolylineVertex
 10
453967.547
 20
244799.325
 30
160.202
 70
    32
  0
VERTEX
  5
60B
330
603
100
AcDbEntity
  8
C1024
100
AcDbVertex
100
AcDb3dPolylineVertex
 10
453967.418
 20
244799.311
 30
160.211
 70
    32
  0
VERTEX
  5
60C
330
603
100
AcDbEntity
  8
C1024
100
AcDbVertex
100
AcDb3dPolylineVertex
 10
453967.2340000001
 20
244799.325
 30
160.206
 70
    32
  0
SEQEND
  5
60D
330
603
100
AcDbEntity
  8
C1024
  0
POLYLINE
  5
60F
330
1F
100
AcDbEntity
  8
C1024
100
AcDb3dPolyline
 66
     1
 10
0.0
 20
0.0
 30
0.0
 70
     8
  0
VERTEX
  5
610
330
60F
100
AcDbEntity
  8
C1024
100
AcDbVertex
100
AcDb3dPolylineVertex
 10
453967.286
 20
244798.736
 30
160.123
 70
    32
  0
VERTEX
  5
611
330
60F
100
AcDbEntity
  8
C1024
100
AcDbVertex
100
AcDb3dPolylineVertex
 10
453967.414
 20
244798.761
 30
160.174
 70
    32
  0
VERTEX
  5
612
330
60F
100
AcDbEntity
  8
C1024
100
AcDbVertex
100
AcDb3dPolylineVertex
 10
453967.581
 20
244798.834
 30
160.154
 70
    32
  0
VERTEX
  5
613
330
60F
100
AcDbEntity
  8
C1024
100
AcDbVertex
100
AcDb3dPolylineVertex
 10
453967.761
 20
244798.855
 30
160.165
 70
    32
  0
VERTEX
  5
614
330
60F
100
AcDbEntity
  8
C1024
100
AcDbVertex
100
AcDb3dPolylineVertex
 10
453967.9330000001
 20
244798.855
 30
160.194
 70
    32
  0
VERTEX
  5
615
330
60F
100
AcDbEntity
  8
C1024
100
AcDbVertex
100
AcDb3dPolylineVertex
 10
453968.105
 20
244798.873
 30
160.193
 70
    32
  0
VERTEX
  5
616
330
60F
100
AcDbEntity
  8
C1024
100
AcDbVertex
100
AcDb3dPolylineVertex
 10
453968.253
 20
244798.905
 30
160.225
 70
    32
  0
VERTEX
  5
617
330
60F
100
AcDbEntity
  8
C1024
100
AcDbVertex
100
AcDb3dPolylineVertex
 10
453968.4300000001
 20
244798.908
 30
160.242
 70
    32
  0
VERTEX
  5
618
330
60F
100
AcDbEntity
  8
C1024
100
AcDbVertex
100
AcDb3dPolylineVertex
 10
453968.597
 20
244798.972
 30
160.257
 70
    32
  0
SEQEND
  5
619
330
60F
100
AcDbEntity
  8
C1024
  0
POLYLINE
  5
61B
330
1F
100
AcDbEntity
  8
B1024
100
AcDb3dPolyline
 66
     1
 10
0.0
 20
0.0
 30
0.0
 70
     8
  0
VERTEX
  5
61C
330
61B
100
AcDbEntity
  8
B1024
100
AcDbVertex
100
AcDb3dPolylineVertex
 10
453968.341
 20
244799.2608384786
 30
160.124
 70
    32
  0
VERTEX
  5
61D
330
61B
100
AcDbEntity
  8
B1024
100
AcDbVertex
100
AcDb3dPolylineVertex
 10
453968.2153090601
 20
244799.241152676
 30
160.135
 70
    32
  0
VERTEX
  5
61E
330
61B
100
AcDbEntity
  8
B1024
100
AcDbVertex
100
AcDb3dPolylineVertex
 10
453968.1007734811
 20
244799.2286253471
 30
160.158
 70
    32
  0
VERTEX
  5
61F
330
61B
100
AcDbEntity
  8
B1024
100
AcDbVertex
100
AcDb3dPolylineVertex
 10
453967.934338968
 20
244799.2143083997
 30
160.134
 70
    32
  0
VERTEX
  5
620
330
61B
100
AcDbEntity
  8
B1024
100
AcDbVertex
100
AcDb3dPolylineVertex
 10
453967.7321120864
 20
244799.2214668734
 30
160.106
 70
    32
  0
VERTEX
  5
621
330
61B
100
AcDbEntity
  8
B1024
100
AcDbVertex
100
AcDb3dPolylineVertex
 10
453967.595
 20
244799.24
 30
160.135
 70
    32
  0
VERTEX
  5
622
330
61B
100
AcDbEntity
  8
B1024
100
AcDbVertex
100
AcDb3dPolylineVertex
 10
453967.4200436682
 20
244799.2028632064
 30
160.018
 70
    32
  0
SEQEND
  5
623
330
61B
100
AcDbEntity
  8
B1024
  0
POLYLINE
  5
625
330
1F
100
AcDbEntity
  8
B1024
100
AcDb3dPolyline
 66
     1
 10
0.0
 20
0.0
 30
0.0
 70
     8
  0
VERTEX
  5
626
330
625
100
AcDbEntity
  8
B1024
100
AcDbVertex
100
AcDb3dPolylineVertex
 10
453967.442
 20
244798.954
 30
160.106
 70
    32
  0
VERTEX
  5
627
330
625
100
AcDbEntity
  8
B1024
100
AcDbVertex
100
AcDb3dPolylineVertex
 10
453967.6032595601
 20
244799.0192399918
 30
160.123
 70
    32
  0
VERTEX
  5
628
330
625
100
AcDbEntity
  8
B1024
100
AcDbVertex
100
AcDb3dPolylineVertex
 10
453967.7410601786
 20
244799.0049230445
 30
160.127
 70
    32
  0
VERTEX
  5
629
330
625
100
AcDbEntity
  8
B1024
100
AcDbVertex
100
AcDb3dPolylineVertex
 10
453967.865
 20
244799.027
 30
160.091
 70
    32
  0
VERTEX
  5
62A
330
625
100
AcDbEntity
  8
B1024
100
AcDbVertex
100
AcDb3dPolylineVertex
 10
453968.038
 20
244798.994
 30
160.15
 70
    32
  0
VERTEX
  5
62B
330
625
100
AcDbEntity
  8
B1024
100
AcDbVertex
100
AcDb3dPolylineVertex
 10
453968.204
 20
244799.057
 30
160.137
 70
    32
  0
VERTEX
  5
62C
330
625
100
AcDbEntity
  8
B1024
100
AcDbVertex
100
AcDb3dPolylineVertex
 10
453968.365
 20
244799.085
 30
160.165
 70
    32
  0
SEQEND
  5
62D
330
625
100
AcDbEntity
  8
B1024
  0
POLYLINE
  5
62F
330
1F
100
AcDbEntity
  8
S1024
100
AcDb3dPolyline
 66
     1
 10
0.0
 20
0.0
 30
0.0
 70
     8
  0
VERTEX
  5
630
330
62F
100
AcDbEntity
  8
S1024
100
AcDbVertex
100
AcDb3dPolylineVertex
 10
453967.414
 20
244798.761
 30
160.174
 70
    32
  0
VERTEX
  5
631
330
62F
100
AcDbEntity
  8
S1024
100
AcDbVertex
100
AcDb3dPolylineVertex
 10
453967.442
 20
244798.954
 30
160.106
 70
    32
  0
VERTEX
  5
632
330
62F
100
AcDbEntity
  8
S1024
100
AcDbVertex
100
AcDb3dPolylineVertex
 10
453967.445
 20
244799.119
 30
159.959
 70
    32
  0
VERTEX
  5
633
330
62F
100
AcDbEntity
  8
S1024
100
AcDbVertex
100
AcDb3dPolylineVertex
 10
453967.4260873365
 20
244799.1767264129
 30
160.032
 70
    32
  0
VERTEX
  5
634
330
62F
100
AcDbEntity
  8
S1024
100
AcDbVertex
100
AcDb3dPolylineVertex
 10
453967.414
 20
244799.229
 30
160.004
 70
    32
  0
VERTEX
  5
635
330
62F
100
AcDbEntity
  8
S1024
100
AcDbVertex
100
AcDb3dPolylineVertex
 10
453967.41
 20
244799.31
 30
160.06
 70
    32
  0
SEQEND
  5
636
330
62F
100
AcDbEntity
  8
S1024
  0
POINT
  5
638
330
1F
100
AcDbEntity
  8
L1025
100
AcDbPoint
 10
453967.343
 20
244799.096
 30
160.035
  0
POINT
  5
63A
330
1F
100
AcDbEntity
  8
L1017
100
AcDbPoint
 10
453965.931
 20
244799.523
 30
160.033
  0
POLYLINE
  5
63C
330
1F
100
AcDbEntity
  8
C1016
100
AcDb3dPolyline
 66
     1
 10
0.0
 20
0.0
 30
0.0
 70
     8
  0
VERTEX
  5
63D
330
63C
100
AcDbEntity
  8
C1016
100
AcDbVertex
100
AcDb3dPolylineVertex
 10
453966.198
 20
244799.608
 30
160.018
 70
    32
  0
VERTEX
  5
63E
330
63C
100
AcDbEntity
  8
C1016
100
AcDbVertex
100
AcDb3dPolylineVertex
 10
453965.906
 20
244799.711
 30
159.992
 70
    32
  0
VERTEX
  5
63F
330
63C
100
AcDbEntity
  8
C1016
100
AcDbVertex
100
AcDb3dPolylineVertex
 10
453965.7340000001
 20
244799.802
 30
160.006
 70
    32
  0
VERTEX
  5
640
330
63C
100
AcDbEntity
  8
C1016
100
AcDbVertex
100
AcDb3dPolylineVertex
 10
453965.559
 20
244799.885
 30
160.029
 70
    32
  0
VERTEX
  5
641
330
63C
100
AcDbEntity
  8
C1016
100
AcDbVertex
100
AcDb3dPolylineVertex
 10
453965.382
 20
244799.867
 30
159.992
 70
    32
  0
VERTEX
  5
642
330
63C
100
AcDbEntity
  8
C1016
100
AcDbVertex
100
AcDb3dPolylineVertex
 10
453965.193
 20
244799.9393439468
 30
159.976
 70
    32
  0
VERTEX
  5
643
330
63C
100
AcDbEntity
  8
C1016
100
AcDbVertex
100
AcDb3dPolylineVertex
 10
453965.023
 20
244799.921
 30
159.986
 70
    32
  0
VERTEX
  5
644
330
63C
100
AcDbEntity
  8
C1016
100
AcDbVertex
100
AcDb3dPolylineVertex
 10
453964.881
 20
244799.84
 30
159.961
 70
    32
  0
VERTEX
  5
645
330
63C
100
AcDbEntity
  8
C1016
100
AcDbVertex
100
AcDb3dPolylineVertex
 10
453964.756
 20
244799.672
 30
159.907
 70
    32
  0
VERTEX
  5
646
330
63C
100
AcDbEntity
  8
C1016
100
AcDbVertex
100
AcDb3dPolylineVertex
 10
453964.777
 20
244799.492
 30
159.901
 70
    32
  0
VERTEX
  5
647
330
63C
100
AcDbEntity
  8
C1016
100
AcDbVertex
100
AcDb3dPolylineVertex
 10
453964.891
 20
244799.387
 30
159.899
 70
    32
  0
VERTEX
  5
648
330
63C
100
AcDbEntity
  8
C1016
100
AcDbVertex
100
AcDb3dPolylineVertex
 10
453965.026
 20
244799.315
 30
159.917
 70
    32
  0
VERTEX
  5
649
330
63C
100
AcDbEntity
  8
C1016
100
AcDbVertex
100
AcDb3dPolylineVertex
 10
453965.165
 20
244799.248
 30
159.937
 70
    32
  0
VERTEX
  5
64A
330
63C
100
AcDbEntity
  8
C1016
100
AcDbVertex
100
AcDb3dPolylineVertex
 10
453965.2930000001
 20
244799.155
 30
159.979
 70
    32
  0
VERTEX
  5
64B
330
63C
100
AcDbEntity
  8
C1016
100
AcDbVertex
100
AcDb3dPolylineVertex
 10
453965.517
 20
244799.142
 30
159.969
 70
    32
  0
VERTEX
  5
64C
330
63C
100
AcDbEntity
  8
C1016
100
AcDbVertex
100
AcDb3dPolylineVertex
 10
453965.686
 20
244799.164
 30
159.983
 70
    32
  0
VERTEX
  5
64D
330
63C
100
AcDbEntity
  8
C1016
100
AcDbVertex
100
AcDb3dPolylineVertex
 10
453965.916
 20
244799.154
 30
160.003
 70
    32
  0
SEQEND
  5
64E
330
63C
100
AcDbEntity
  8
C1016
  0
POLYLINE
  5
650
330
1F
100
AcDbEntity
  8
B1016
100
AcDb3dPolyline
 66
     1
 10
0.0
 20
0.0
 30
0.0
 70
     8
  0
VERTEX
  5
651
330
650
100
AcDbEntity
  8
B1016
100
AcDbVertex
100
AcDb3dPolylineVertex
 10
453965.8245
 20
244799.573
 30
159.9215
 70
    32
  0
VERTEX
  5
652
330
650
100
AcDbEntity
  8
B1016
100
AcDbVertex
100
AcDb3dPolylineVertex
 10
453965.5952141914
 20
244799.6971250356
 30
159.865
 70
    32
  0
VERTEX
  5
653
330
650
100
AcDbEntity
  8
B1016
100
AcDbVertex
100
AcDb3dPolylineVertex
 10
453965.319
 20
244799.737
 30
159.898
 70
    32
  0
VERTEX
  5
654
330
650
100
AcDbEntity
  8
B1016
100
AcDbVertex
100
AcDb3dPolylineVertex
 10
453965.11
 20
244799.823
 30
159.925
 70
    32
  0
VERTEX
  5
655
330
650
100
AcDbEntity
  8
B1016
100
AcDbVertex
100
AcDb3dPolylineVertex
 10
453964.985
 20
244799.742
 30
159.923
 70
    32
  0
VERTEX
  5
656
330
650
100
AcDbEntity
  8
B1016
100
AcDbVertex
100
AcDb3dPolylineVertex
 10
453964.873
 20
244799.629
 30
159.882
 70
    32
  0
VERTEX
  5
657
330
650
100
AcDbEntity
  8
B1016
100
AcDbVertex
100
AcDb3dPolylineVertex
 10
453964.8860778922
 20
244799.5293483087
 30
159.878
 70
    32
  0
VERTEX
  5
658
330
650
100
AcDbEntity
  8
B1016
100
AcDbVertex
100
AcDb3dPolylineVertex
 10
453964.955425606
 20
244799.4846078482
 30
159.894
 70
    32
  0
VERTEX
  5
659
330
650
100
AcDbEntity
  8
B1016
100
AcDbVertex
100
AcDb3dPolylineVertex
 10
453965.083
 20
244799.369
 30
159.858
 70
    32
  0
VERTEX
  5
65A
330
650
100
AcDbEntity
  8
B1016
100
AcDbVertex
100
AcDb3dPolylineVertex
 10
453965.201
 20
244799.324
 30
159.855
 70
    32
  0
VERTEX
  5
65B
330
650
100
AcDbEntity
  8
B1016
100
AcDbVertex
100
AcDb3dPolylineVertex
 10
453965.405
 20
244799.286
 30
159.88
 70
    32
  0
VERTEX
  5
65C
330
650
100
AcDbEntity
  8
B1016
100
AcDbVertex
100
AcDb3dPolylineVertex
 10
453965.559
 20
244799.298
 30
159.858
 70
    32
  0
VERTEX
  5
65D
330
650
100
AcDbEntity
  8
B1016
100
AcDbVertex
100
AcDb3dPolylineVertex
 10
453965.7877825546
 20
244799.3163021807
 30
159.9274348909672
 70
    32
  0
SEQEND
  5
65E
330
650
100
AcDbEntity
  8
B1016
  0
POLYLINE
  5
660
330
1F
100
AcDbEntity
  8
S1016
100
AcDb3dPolyline
 66
     1
 10
0.0
 20
0.0
 30
0.0
 70
     8
  0
VERTEX
  5
661
330
660
100
AcDbEntity
  8
S1016
100
AcDbVertex
100
AcDb3dPolylineVertex
 10
453965.898
 20
244799.725
 30
160.001
 70
    32
  0
VERTEX
  5
662
330
660
100
AcDbEntity
  8
S1016
100
AcDbVertex
100
AcDb3dPolylineVertex
 10
453965.8479999999
 20
244799.629
 30
159.921
 70
    32
  0
VERTEX
  5
663
330
660
100
AcDbEntity
  8
S1016
100
AcDbVertex
100
AcDb3dPolylineVertex
 10
453965.801
 20
244799.517
 30
159.922
 70
    32
  0
VERTEX
  5
664
330
660
100
AcDbEntity
  8
S1016
100
AcDbVertex
100
AcDb3dPolylineVertex
 10
453965.79
 20
244799.405
 30
159.923
 70
    32
  0
VERTEX
  5
665
330
660
100
AcDbEntity
  8
S1016
100
AcDbVertex
100
AcDb3dPolylineVertex
 10
453965.786
 20
244799.245
 30
159.931
 70
    32
  0
VERTEX
  5
666
330
660
100
AcDbEntity
  8
S1016
100
AcDbVertex
100
AcDb3dPolylineVertex
 10
453965.759
 20
244799.206
 30
159.998
 70
    32
  0
VERTEX
  5
667
330
660
100
AcDbEntity
  8
S1016
100
AcDbVertex
100
AcDb3dPolylineVertex
 10
453965.7458689138
 20
244799.1613970037
 30
159.9882059925064
 70
    32
  0
SEQEND
  5
668
330
660
100
AcDbEntity
  8
S1016
  0
POLYLINE
  5
66A
330
1F
100
AcDbEntity
  8
S1016
100
AcDb3dPolyline
 66
     1
 10
0.0
 20
0.0
 30
0.0
 70
     8
  0
VERTEX
  5
66B
330
66A
100
AcDbEntity
  8
S1016
100
AcDbVertex
100
AcDb3dPolylineVertex
 10
453965.753
 20
244799.427
 30
159.893
 70
    32
  0
VERTEX
  5
66C
330
66A
100
AcDbEntity
  8
S1016
100
AcDbVertex
100
AcDb3dPolylineVertex
 10
453965.61
 20
244799.494
 30
159.848
 70
    32
  0
VERTEX
  5
66D
330
66A
100
AcDbEntity
  8
S1016
100
AcDbVertex
100
AcDb3dPolylineVertex
 10
453965.4878370861
 20
244799.5517185389
 30
159.888
 70
    32
  0
VERTEX
  5
66E
330
66A
100
AcDbEntity
  8
S1016
100
AcDbVertex
100
AcDb3dPolylineVertex
 10
453965.322
 20
244799.597
 30
159.848
 70
    32
  0
VERTEX
  5
66F
330
66A
100
AcDbEntity
  8
S1016
100
AcDbVertex
100
AcDb3dPolylineVertex
 10
453965.179
 20
244799.611
 30
159.859
 70
    32
  0
VERTEX
  5
670
330
66A
100
AcDbEntity
  8
S1016
100
AcDbVertex
100
AcDb3dPolylineVertex
 10
453965.007
 20
244799.639
 30
159.882
 70
    32
  0
VERTEX
  5
671
330
66A
100
AcDbEntity
  8
S1016
100
AcDbVertex
100
AcDb3dPolylineVertex
 10
453964.871
 20
244799.641
 30
159.892
 70
    32
  0
VERTEX
  5
672
330
66A
100
AcDbEntity
  8
S1016
100
AcDbVertex
100
AcDb3dPolylineVertex
 10
453964.774
 20
244799.652
 30
159.934
 70
    32
  0
SEQEND
  5
673
330
66A
100
AcDbEntity
  8
S1016
  0
POLYLINE
  5
676
330
1F
100
AcDbEntity
  8
DP004
100
AcDb3dPolyline
 66
     1
 10
0.0
 20
0.0
 30
0.0
 70
     8
  0
VERTEX
  5
677
330
676
100
AcDbEntity
  8
DP004
100
AcDbVertex
100
AcDb3dPolylineVertex
 10
453960.132
 20
244803.292
 30
159.95
 70
    32
  0
VERTEX
  5
678
330
676
100
AcDbEntity
  8
DP004
100
AcDbVertex
100
AcDb3dPolylineVertex
 10
453960.073
 20
244804.795
 30
159.969
 70
    32
  0
SEQEND
  5
679
330
676
100
AcDbEntity
  8
DP004
  0
POLYLINE
  5
67B
330
1F
100
AcDbEntity
  8
C1030
100
AcDb3dPolyline
 66
     1
 10
0.0
 20
0.0
 30
0.0
 70
     9
  0
VERTEX
  5
67C
330
67B
100
AcDbEntity
  8
C1030
100
AcDbVertex
100
AcDb3dPolylineVertex
 10
453959.9330000001
 20
244804.639
 30
159.911
 70
    32
  0
VERTEX
  5
67D
330
67B
100
AcDbEntity
  8
C1030
100
AcDbVertex
100
AcDb3dPolylineVertex
 10
453959.7830000001
 20
244804.586
 30
159.913
 70
    32
  0
VERTEX
  5
67E
330
67B
100
AcDbEntity
  8
C1030
100
AcDbVertex
100
AcDb3dPolylineVertex
 10
453959.623
 20
244804.53
 30
159.883
 70
    32
  0
VERTEX
  5
67F
330
67B
100
AcDbEntity
  8
C1030
100
AcDbVertex
100
AcDb3dPolylineVertex
 10
453959.508
 20
244804.397
 30
159.864
 70
    32
  0
VERTEX
  5
680
330
67B
100
AcDbEntity
  8
C1030
100
AcDbVertex
100
AcDb3dPolylineVertex
 10
453959.391
 20
244804.264
 30
159.856
 70
    32
  0
VERTEX
  5
681
330
67B
100
AcDbEntity
  8
C1030
100
AcDbVertex
100
AcDb3dPolylineVertex
 10
453959.309
 20
244804.084
 30
159.843
 70
    32
  0
VERTEX
  5
682
330
67B
100
AcDbEntity
  8
C1030
100
AcDbVertex
100
AcDb3dPolylineVertex
 10
453959.328
 20
244803.891
 30
159.858
 70
    32
  0
VERTEX
  5
683
330
67B
100
AcDbEntity
  8
C1030
100
AcDbVertex
100
AcDb3dPolylineVertex
 10
453959.4086473139
 20
244803.7234065167
 30
159.841
 70
    32
  0
VERTEX
  5
684
330
67B
100
AcDbEntity
  8
C1030
100
AcDbVertex
100
AcDb3dPolylineVertex
 10
453959.4813505622
 20
244803.5975739715
 30
159.831
 70
    32
  0
VERTEX
  5
685
330
67B
100
AcDbEntity
  8
C1030
100
AcDbVertex
100
AcDb3dPolylineVertex
 10
453959.563
 20
244803.48
 30
159.833
 70
    32
  0
VERTEX
  5
686
330
67B
100
AcDbEntity
  8
C1030
100
AcDbVertex
100
AcDb3dPolylineVertex
 10
453959.726
 20
244803.387
 30
159.844
 70
    32
  0
VERTEX
  5
687
330
67B
100
AcDbEntity
  8
C1030
100
AcDbVertex
100
AcDb3dPolylineVertex
 10
453959.96
 20
244803.389
 30
159.857
 70
    32
  0
VERTEX
  5
688
330
67B
100
AcDbEntity
  8
C1030
100
AcDbVertex
100
AcDb3dPolylineVertex
 10
453960.11
 20
244803.355
 30
159.862
 70
    32
  0
VERTEX
  5
689
330
67B
100
AcDbEntity
  8
C1030
100
AcDbVertex
100
AcDb3dPolylineVertex
 10
453960.306
 20
244803.389
 30
159.906
 70
    32
  0
VERTEX
  5
68A
330
67B
100
AcDbEntity
  8
C1030
100
AcDbVertex
100
AcDb3dPolylineVertex
 10
453960.472
 20
244803.477
 30
159.911
 70
    32
  0
VERTEX
  5
68B
330
67B
100
AcDbEntity
  8
C1030
100
AcDbVertex
100
AcDb3dPolylineVertex
 10
453960.625
 20
244803.544
 30
159.954
 70
    32
  0
VERTEX
  5
68C
330
67B
100
AcDbEntity
  8
C1030
100
AcDbVertex
100
AcDb3dPolylineVertex
 10
453960.685
 20
244803.653
 30
159.941
 70
    32
  0
VERTEX
  5
68D
330
67B
100
AcDbEntity
  8
C1030
100
AcDbVertex
100
AcDb3dPolylineVertex
 10
453960.7480648507
 20
244803.884
 30
159.906
 70
    32
  0
VERTEX
  5
68E
330
67B
100
AcDbEntity
  8
C1030
100
AcDbVertex
100
AcDb3dPolylineVertex
 10
453960.732
 20
244804.148
 30
159.9365
 70
    32
  0
VERTEX
  5
68F
330
67B
100
AcDbEntity
  8
C1030
100
AcDbVertex
100
AcDb3dPolylineVertex
 10
453960.683
 20
244804.267
 30
159.926
 70
    32
  0
VERTEX
  5
690
330
67B
100
AcDbEntity
  8
C1030
100
AcDbVertex
100
AcDb3dPolylineVertex
 10
453960.51
 20
244804.403
 30
159.921
 70
    32
  0
VERTEX
  5
691
330
67B
100
AcDbEntity
  8
C1030
100
AcDbVertex
100
AcDb3dPolylineVertex
 10
453960.306
 20
244804.511
 30
159.894
 70
    32
  0
VERTEX
  5
692
330
67B
100
AcDbEntity
  8
C1030
100
AcDbVertex
100
AcDb3dPolylineVertex
 10
453960.091
 20
244804.627
 30
159.915
 70
    32
  0
SEQEND
  5
693
330
67B
100
AcDbEntity
  8
C1030
  0
POLYLINE
  5
695
330
1F
100
AcDbEntity
  8
B1030
100
AcDb3dPolyline
 66
     1
 10
0.0
 20
0.0
 30
0.0
 70
     8
  0
VERTEX
  5
696
330
695
100
AcDbEntity
  8
B1030
100
AcDbVertex
100
AcDb3dPolylineVertex
 10
453960.159
 20
244803.614
 30
159.777
 70
    32
  0
VERTEX
  5
697
330
695
100
AcDbEntity
  8
B1030
100
AcDbVertex
100
AcDb3dPolylineVertex
 10
453960.28
 20
244803.648
 30
159.768
 70
    32
  0
VERTEX
  5
698
330
695
100
AcDbEntity
  8
B1030
100
AcDbVertex
100
AcDb3dPolylineVertex
 10
453960.417
 20
244803.703
 30
159.742
 70
    32
  0
VERTEX
  5
699
330
695
100
AcDbEntity
  8
B1030
100
AcDbVertex
100
AcDb3dPolylineVertex
 10
453960.467
 20
244803.844
 30
159.779
 70
    32
  0
VERTEX
  5
69A
330
695
100
AcDbEntity
  8
B1030
100
AcDbVertex
100
AcDb3dPolylineVertex
 10
453960.52
 20
244804.009
 30
159.772
 70
    32
  0
VERTEX
  5
69B
330
695
100
AcDbEntity
  8
B1030
100
AcDbVertex
100
AcDb3dPolylineVertex
 10
453960.496
 20
244804.134
 30
159.786
 70
    32
  0
VERTEX
  5
69C
330
695
100
AcDbEntity
  8
B1030
100
AcDbVertex
100
AcDb3dPolylineVertex
 10
453960.386
 20
244804.214
 30
159.775
 70
    32
  0
VERTEX
  5
69D
330
695
100
AcDbEntity
  8
B1030
100
AcDbVertex
100
AcDb3dPolylineVertex
 10
453960.308
 20
244804.332
 30
159.79
 70
    32
  0
VERTEX
  5
69E
330
695
100
AcDbEntity
  8
B1030
100
AcDbVertex
100
AcDb3dPolylineVertex
 10
453960.149
 20
244804.351
 30
159.784
 70
    32
  0
SEQEND
  5
69F
330
695
100
AcDbEntity
  8
B1030
  0
POLYLINE
  5
6A1
330
1F
100
AcDbEntity
  8
S1030
100
AcDb3dPolyline
 66
     1
 10
0.0
 20
0.0
 30
0.0
 70
     8
  0
VERTEX
  5
6A2
330
6A1
100
AcDbEntity
  8
S1030
100
AcDbVertex
100
AcDb3dPolylineVertex
 10
453960.123
 20
244803.432
 30
159.875
 70
    32
  0
VERTEX
  5
6A3
330
6A1
100
AcDbEntity
  8
S1030
100
AcDbVertex
100
AcDb3dPolylineVertex
 10
453960.08
 20
244803.551
 30
159.852
 70
    32
  0
VERTEX
  5
6A4
330
6A1
100
AcDbEntity
  8
S1030
100
AcDbVertex
100
AcDb3dPolylineVertex
 10
453960.167
 20
244803.611
 30
159.774
 70
    32
  0
VERTEX
  5
6A5
330
6A1
100
AcDbEntity
  8
S1030
100
AcDbVertex
100
AcDb3dPolylineVertex
 10
453960.1519999999
 20
244803.74
 30
159.764
 70
    32
  0
VERTEX
  5
6A6
330
6A1
100
AcDbEntity
  8
S1030
100
AcDbVertex
100
AcDb3dPolylineVertex
 10
453960.106
 20
244803.923
 30
159.779
 70
    32
  0
VERTEX
  5
6A7
330
6A1
100
AcDbEntity
  8
S1030
100
AcDbVertex
100
AcDb3dPolylineVertex
 10
453960.115
 20
244804.049
 30
159.751
 70
    32
  0
VERTEX
  5
6A8
330
6A1
100
AcDbEntity
  8
S1030
100
AcDbVertex
100
AcDb3dPolylineVertex
 10
453960.1479999999
 20
244804.086
 30
159.737
 70
    32
  0
VERTEX
  5
6A9
330
6A1
100
AcDbEntity
  8
S1030
100
AcDbVertex
100
AcDb3dPolylineVertex
 10
453960.068
 20
244804.261
 30
159.771
 70
    32
  0
VERTEX
  5
6AA
330
6A1
100
AcDbEntity
  8
S1030
100
AcDbVertex
100
AcDb3dPolylineVertex
 10
453960.095
 20
244804.289
 30
159.764
 70
    32
  0
VERTEX
  5
6AB
330
6A1
100
AcDbEntity
  8
S1030
100
AcDbVertex
100
AcDb3dPolylineVertex
 10
453960.1459999999
 20
244804.378
 30
159.771
 70
    32
  0
VERTEX
  5
6AC
330
6A1
100
AcDbEntity
  8
S1030
100
AcDbVertex
100
AcDb3dPolylineVertex
 10
453960.067
 20
244804.494
 30
159.851
 70
    32
  0
VERTEX
  5
6AD
330
6A1
100
AcDbEntity
  8
S1030
100
AcDbVertex
100
AcDb3dPolylineVertex
 10
453960.076
 20
244804.521
 30
159.881
 70
    32
  0
VERTEX
  5
6AE
330
6A1
100
AcDbEntity
  8
S1030
100
AcDbVertex
100
AcDb3dPolylineVertex
 10
453960.075
 20
244804.597
 30
159.917
 70
    32
  0
SEQEND
  5
6AF
330
6A1
100
AcDbEntity
  8
S1030
  0
POINT
  5
6B1
330
1F
100
AcDbEntity
  8
L1031
100
AcDbPoint
 10
453960.042
 20
244804.091
 30
159.895
  0
POINT
  5
6B3
330
1F
100
AcDbEntity
  8
L1032
100
AcDbPoint
 10
453960.054
 20
244803.684
 30
159.887
  0
POINT
  5
6B5
330
1F
100
AcDbEntity
  8
L1038
100
AcDbPoint
 10
453952.623
 20
244792.976
 30
159.682
  0
POLYLINE
  5
6B7
330
1F
100
AcDbEntity
  8
C1037
100
AcDb3dPolyline
 66
     1
 10
0.0
 20
0.0
 30
0.0
 70
     9
  0
VERTEX
  5
6B8
330
6B7
100
AcDbEntity
  8
C1037
100
AcDbVertex
100
AcDb3dPolylineVertex
 10
453951.877
 20
244792.61
 30
159.647
 70
    32
  0
VERTEX
  5
6B9
330
6B7
100
AcDbEntity
  8
C1037
100
AcDbVertex
100
AcDb3dPolylineVertex
 10
453951.832
 20
244792.856
 30
159.649
 70
    32
  0
VERTEX
  5
6BA
330
6B7
100
AcDbEntity
  8
C1037
100
AcDbVertex
100
AcDb3dPolylineVertex
 10
453951.888
 20
244792.992
 30
159.65
 70
    32
  0
VERTEX
  5
6BB
330
6B7
100
AcDbEntity
  8
C1037
100
AcDbVertex
100
AcDb3dPolylineVertex
 10
453951.9340000001
 20
244793.212
 30
159.65
 70
    32
  0
VERTEX
  5
6BC
330
6B7
100
AcDbEntity
  8
C1037
100
AcDbVertex
100
AcDb3dPolylineVertex
 10
453952.118
 20
244793.322
 30
159.666
 70
    32
  0
VERTEX
  5
6BD
330
6B7
100
AcDbEntity
  8
C1037
100
AcDbVertex
100
AcDb3dPolylineVertex
 10
453952.2390000001
 20
244793.466
 30
159.69
 70
    32
  0
VERTEX
  5
6BE
330
6B7
100
AcDbEntity
  8
C1037
100
AcDbVertex
100
AcDb3dPolylineVertex
 10
453952.464
 20
244793.501
 30
159.711
 70
    32
  0
VERTEX
  5
6BF
330
6B7
100
AcDbEntity
  8
C1037
100
AcDbVertex
100
AcDb3dPolylineVertex
 10
453952.699
 20
244793.612
 30
159.706
 70
    32
  0
VERTEX
  5
6C0
330
6B7
100
AcDbEntity
  8
C1037
100
AcDbVertex
100
AcDb3dPolylineVertex
 10
453952.905
 20
244793.587
 30
159.719
 70
    32
  0
VERTEX
  5
6C1
330
6B7
100
AcDbEntity
  8
C1037
100
AcDbVertex
100
AcDb3dPolylineVertex
 10
453953.139
 20
244793.493
 30
159.684
 70
    32
  0
VERTEX
  5
6C2
330
6B7
100
AcDbEntity
  8
C1037
100
AcDbVertex
100
AcDb3dPolylineVertex
 10
453953.275
 20
244793.326
 30
159.667
 70
    32
  0
VERTEX
  5
6C3
330
6B7
100
AcDbEntity
  8
C1037
100
AcDbVertex
100
AcDb3dPolylineVertex
 10
453953.422
 20
244793.198
 30
159.671
 70
    32
  0
VERTEX
  5
6C4
330
6B7
100
AcDbEntity
  8
C1037
100
AcDbVertex
100
AcDb3dPolylineVertex
 10
453953.4390000001
 20
244793.061
 30
159.677
 70
    32
  0
VERTEX
  5
6C5
330
6B7
100
AcDbEntity
  8
C1037
100
AcDbVertex
100
AcDb3dPolylineVertex
 10
453953.511
 20
244792.77
 30
159.673
 70
    32
  0
VERTEX
  5
6C6
330
6B7
100
AcDbEntity
  8
C1037
100
AcDbVertex
100
AcDb3dPolylineVertex
 10
453953.467
 20
244792.557
 30
159.676
 70
    32
  0
VERTEX
  5
6C7
330
6B7
100
AcDbEntity
  8
C1037
100
AcDbVertex
100
AcDb3dPolylineVertex
 10
453953.403
 20
244792.382
 30
159.658
 70
    32
  0
VERTEX
  5
6C8
330
6B7
100
AcDbEntity
  8
C1037
100
AcDbVertex
100
AcDb3dPolylineVertex
 10
453953.317
 20
244792.24
 30
159.617
 70
    32
  0
VERTEX
  5
6C9
330
6B7
100
AcDbEntity
  8
C1037
100
AcDbVertex
100
AcDb3dPolylineVertex
 10
453953.249
 20
244792.066
 30
159.686
 70
    32
  0
VERTEX
  5
6CA
330
6B7
100
AcDbEntity
  8
C1037
100
AcDbVertex
100
AcDb3dPolylineVertex
 10
453953.065
 20
244791.995
 30
159.653
 70
    32
  0
VERTEX
  5
6CB
330
6B7
100
AcDbEntity
  8
C1037
100
AcDbVertex
100
AcDb3dPolylineVertex
 10
453952.874
 20
244791.906
 30
159.654
 70
    32
  0
VERTEX
  5
6CC
330
6B7
100
AcDbEntity
  8
C1037
100
AcDbVertex
100
AcDb3dPolylineVertex
 10
453952.699
 20
244791.847
 30
159.647
 70
    32
  0
VERTEX
  5
6CD
330
6B7
100
AcDbEntity
  8
C1037
100
AcDbVertex
100
AcDb3dPolylineVertex
 10
453952.381
 20
244791.836
 30
159.622
 70
    32
  0
VERTEX
  5
6CE
330
6B7
100
AcDbEntity
  8
C1037
100
AcDbVertex
100
AcDb3dPolylineVertex
 10
453952.2552203138
 20
244791.8826068566
 30
159.617
 70
    32
  0
VERTEX
  5
6CF
330
6B7
100
AcDbEntity
  8
C1037
100
AcDbVertex
100
AcDb3dPolylineVertex
 10
453952.162
 20
244791.993
 30
159.642
 70
    32
  0
VERTEX
  5
6D0
330
6B7
100
AcDbEntity
  8
C1037
100
AcDbVertex
100
AcDb3dPolylineVertex
 10
453952.024
 20
244792.2
 30
159.624
 70
    32
  0
VERTEX
  5
6D1
330
6B7
100
AcDbEntity
  8
C1037
100
AcDbVertex
100
AcDb3dPolylineVertex
 10
453951.922
 20
244792.393
 30
159.602
 70
    32
  0
SEQEND
  5
6D2
330
6B7
100
AcDbEntity
  8
C1037
  0
POLYLINE
  5
6D4
330
1F
100
AcDbEntity
  8
B1037
100
AcDb3dPolyline
 66
     1
 10
0.0
 20
0.0
 30
0.0
 70
     8
  0
VERTEX
  5
6D5
330
6D4
100
AcDbEntity
  8
B1037
100
AcDbVertex
100
AcDb3dPolylineVertex
 10
453952.27
 20
244792.701
 30
159.452
 70
    32
  0
VERTEX
  5
6D6
330
6D4
100
AcDbEntity
  8
B1037
100
AcDbVertex
100
AcDb3dPolylineVertex
 10
453952.363
 20
244792.538
 30
159.4
 70
    32
  0
VERTEX
  5
6D7
330
6D4
100
AcDbEntity
  8
B1037
100
AcDbVertex
100
AcDb3dPolylineVertex
 10
453952.448
 20
244792.345
 30
159.404
 70
    32
  0
VERTEX
  5
6D8
330
6D4
100
AcDbEntity
  8
B1037
100
AcDbVertex
100
AcDb3dPolylineVertex
 10
453952.599
 20
244792.174
 30
159.489
 70
    32
  0
VERTEX
  5
6D9
330
6D4
100
AcDbEntity
  8
B1037
100
AcDbVertex
100
AcDb3dPolylineVertex
 10
453952.747
 20
244792.216
 30
159.454
 70
    32
  0
VERTEX
  5
6DA
330
6D4
100
AcDbEntity
  8
B1037
100
AcDbVertex
100
AcDb3dPolylineVertex
 10
453952.943
 20
244792.295
 30
159.456
 70
    32
  0
VERTEX
  5
6DB
330
6D4
100
AcDbEntity
  8
B1037
100
AcDbVertex
100
AcDb3dPolylineVertex
 10
453953.1
 20
244792.378
 30
159.457
 70
    32
  0
VERTEX
  5
6DC
330
6D4
100
AcDbEntity
  8
B1037
100
AcDbVertex
100
AcDb3dPolylineVertex
 10
453953.205
 20
244792.452
 30
159.482
 70
    32
  0
VERTEX
  5
6DD
330
6D4
100
AcDbEntity
  8
B1037
100
AcDbVertex
100
AcDb3dPolylineVertex
 10
453953.25
 20
244792.723
 30
159.497
 70
    32
  0
VERTEX
  5
6DE
330
6D4
100
AcDbEntity
  8
B1037
100
AcDbVertex
100
AcDb3dPolylineVertex
 10
453953.1139484272
 20
244792.980943759
 30
159.4795432922128
 70
    32
  0
SEQEND
  5
6DF
330
6D4
100
AcDbEntity
  8
B1037
  0
POLYLINE
  5
6E1
330
1F
100
AcDbEntity
  8
S1037
100
AcDb3dPolyline
 66
     1
 10
0.0
 20
0.0
 30
0.0
 70
     8
  0
VERTEX
  5
6E2
330
6E1
100
AcDbEntity
  8
S1037
100
AcDbVertex
100
AcDb3dPolylineVertex
 10
453951.886
 20
244792.623
 30
159.649
 70
    32
  0
VERTEX
  5
6E3
330
6E1
100
AcDbEntity
  8
S1037
100
AcDbVertex
100
AcDb3dPolylineVertex
 10
453952.025
 20
244792.643
 30
159.541
 70
    32
  0
VERTEX
  5
6E4
330
6E1
100
AcDbEntity
  8
S1037
100
AcDbVertex
100
AcDb3dPolylineVertex
 10
453952.166
 20
244792.688
 30
159.492
 70
    32
  0
VERTEX
  5
6E5
330
6E1
100
AcDbEntity
  8
S1037
100
AcDbVertex
100
AcDb3dPolylineVertex
 10
453952.224
 20
244792.685
 30
159.459
 70
    32
  0
VERTEX
  5
6E6
330
6E1
100
AcDbEntity
  8
S1037
100
AcDbVertex
100
AcDb3dPolylineVertex
 10
453952.367
 20
244792.738
 30
159.464
 70
    32
  0
VERTEX
  5
6E7
330
6E1
100
AcDbEntity
  8
S1037
100
AcDbVertex
100
AcDb3dPolylineVertex
 10
453952.555
 20
244792.881
 30
159.495
 70
    32
  0
VERTEX
  5
6E8
330
6E1
100
AcDbEntity
  8
S1037
100
AcDbVertex
100
AcDb3dPolylineVertex
 10
453952.664
 20
244792.855
 30
159.465
 70
    32
  0
VERTEX
  5
6E9
330
6E1
100
AcDbEntity
  8
S1037
100
AcDbVertex
100
AcDb3dPolylineVertex
 10
453952.873
 20
244792.958
 30
159.481
 70
    32
  0
VERTEX
  5
6EA
330
6E1
100
AcDbEntity
  8
S1037
100
AcDbVertex
100
AcDb3dPolylineVertex
 10
453953.0
 20
244793.014
 30
159.49
 70
    32
  0
VERTEX
  5
6EB
330
6E1
100
AcDbEntity
  8
S1037
100
AcDbVertex
100
AcDb3dPolylineVertex
 10
453953.101
 20
244792.972
 30
159.471
 70
    32
  0
VERTEX
  5
6EC
330
6E1
100
AcDbEntity
  8
S1037
100
AcDbVertex
100
AcDb3dPolylineVertex
 10
453953.198
 20
244793.039
 30
159.535
 70
    32
  0
VERTEX
  5
6ED
330
6E1
100
AcDbEntity
  8
S1037
100
AcDbVertex
100
AcDb3dPolylineVertex
 10
453953.4305
 20
244793.1295
 30
159.674
 70
    32
  0
SEQEND
  5
6EE
330
6E1
100
AcDbEntity
  8
S1037
  0
POLYLINE
  5
73F
330
1F
100
AcDbEntity
  8
C1041
100
AcDb3dPolyline
 66
     1
 10
0.0
 20
0.0
 30
0.0
 70
     8
  0
VERTEX
  5
740
330
73F
100
AcDbEntity
  8
C1041
100
AcDbVertex
100
AcDb3dPolylineVertex
 10
454043.974
 20
244803.693
 30
161.992
 70
    32
  0
VERTEX
  5
741
330
73F
100
AcDbEntity
  8
C1041
100
AcDbVertex
100
AcDb3dPolylineVertex
 10
454044.123
 20
244803.448
 30
162.005
 70
    32
  0
VERTEX
  5
742
330
73F
100
AcDbEntity
  8
C1041
100
AcDbVertex
100
AcDb3dPolylineVertex
 10
454044.352
 20
244803.192
 30
161.993
 70
    32
  0
VERTEX
  5
743
330
73F
100
AcDbEntity
  8
C1041
100
AcDbVertex
100
AcDb3dPolylineVertex
 10
454044.501
 20
244802.929
 30
161.953
 70
    32
  0
VERTEX
  5
744
330
73F
100
AcDbEntity
  8
C1041
100
AcDbVertex
100
AcDb3dPolylineVertex
 10
454044.597
 20
244802.733
 30
161.944
 70
    32
  0
VERTEX
  5
745
330
73F
100
AcDbEntity
  8
C1041
100
AcDbVertex
100
AcDb3dPolylineVertex
 10
454044.614
 20
244802.558
 30
161.975
 70
    32
  0
VERTEX
  5
746
330
73F
100
AcDbEntity
  8
C1041
100
AcDbVertex
100
AcDb3dPolylineVertex
 10
454044.653
 20
244802.434
 30
161.95
 70
    32
  0
SEQEND
  5
747
330
73F
100
AcDbEntity
  8
C1041
  0
POLYLINE
  5
749
330
1F
100
AcDbEntity
  8
C1039
100
AcDb3dPolyline
 66
     1
 10
0.0
 20
0.0
 30
0.0
 70
     8
  0
VERTEX
  5
74A
330
749
100
AcDbEntity
  8
C1039
100
AcDbVertex
100
AcDb3dPolylineVertex
 10
454045.605
 20
244802.579
 30
162.027
 70
    32
  0
VERTEX
  5
74B
330
749
100
AcDbEntity
  8
C1039
100
AcDbVertex
100
AcDb3dPolylineVertex
 10
454045.292
 20
244802.588
 30
162.035
 70
    32
  0
VERTEX
  5
74C
330
749
100
AcDbEntity
  8
C1039
100
AcDbVertex
100
AcDb3dPolylineVertex
 10
454045.1419999999
 20
244802.536
 30
162.034
 70
    32
  0
VERTEX
  5
74D
330
749
100
AcDbEntity
  8
C1039
100
AcDbVertex
100
AcDb3dPolylineVertex
 10
454045.006
 20
244802.494
 30
161.991
 70
    32
  0
VERTEX
  5
74E
330
749
100
AcDbEntity
  8
C1039
100
AcDbVertex
100
AcDb3dPolylineVertex
 10
454044.855
 20
244802.441
 30
161.971
 70
    32
  0
VERTEX
  5
74F
330
749
100
AcDbEntity
  8
C1039
100
AcDbVertex
100
AcDb3dPolylineVertex
 10
454044.659
 20
244802.437
 30
161.949
 70
    32
  0
VERTEX
  5
750
330
749
100
AcDbEntity
  8
C1039
100
AcDbVertex
100
AcDb3dPolylineVertex
 10
454044.522
 20
244802.357
 30
161.852
 70
    32
  0
VERTEX
  5
751
330
749
100
AcDbEntity
  8
C1039
100
AcDbVertex
100
AcDb3dPolylineVertex
 10
454044.339
 20
244802.255
 30
161.813
 70
    32
  0
VERTEX
  5
752
330
749
100
AcDbEntity
  8
C1039
100
AcDbVertex
100
AcDb3dPolylineVertex
 10
454044.202
 20
244802.237
 30
161.816
 70
    32
  0
VERTEX
  5
753
330
749
100
AcDbEntity
  8
C1039
100
AcDbVertex
100
AcDb3dPolylineVertex
 10
454043.832
 20
244802.191
 30
162.013
 70
    32
  0
SEQEND
  5
754
330
749
100
AcDbEntity
  8
C1039
  0
POLYLINE
  5
756
330
1F
100
AcDbEntity
  8
B1041
100
AcDb3dPolyline
 66
     1
 10
0.0
 20
0.0
 30
0.0
 70
     8
  0
VERTEX
  5
757
330
756
100
AcDbEntity
  8
B1041
100
AcDbVertex
100
AcDb3dPolylineVertex
 10
454044.1723644509
 20
244803.0172885536
 30
161.8457856444116
 70
    32
  0
VERTEX
  5
758
330
756
100
AcDbEntity
  8
B1041
100
AcDbVertex
100
AcDb3dPolylineVertex
 10
454044.244
 20
244802.919
 30
161.819
 70
    32
  0
VERTEX
  5
759
330
756
100
AcDbEntity
  8
B1041
100
AcDbVertex
100
AcDb3dPolylineVertex
 10
454044.268
 20
244802.751
 30
161.832
 70
    32
  0
VERTEX
  5
75A
330
756
100
AcDbEntity
  8
B1041
100
AcDbVertex
100
AcDb3dPolylineVertex
 10
454044.29
 20
244802.652
 30
161.861
 70
    32
  0
VERTEX
  5
75B
330
756
100
AcDbEntity
  8
B1041
100
AcDbVertex
100
AcDb3dPolylineVertex
 10
454044.33
 20
244802.539
 30
161.842
 70
    32
  0
VERTEX
  5
75C
330
756
100
AcDbEntity
  8
B1041
100
AcDbVertex
100
AcDb3dPolylineVertex
 10
454044.4930000001
 20
244802.348
 30
161.851
 70
    32
  0
SEQEND
  5
75D
330
756
100
AcDbEntity
  8
B1041
  0
POLYLINE
  5
75F
330
1F
100
AcDbEntity
  8
B1039
100
AcDb3dPolyline
 66
     1
 10
0.0
 20
0.0
 30
0.0
 70
     8
  0
VERTEX
  5
760
330
75F
100
AcDbEntity
  8
B1039
100
AcDbVertex
100
AcDb3dPolylineVertex
 10
454044.333
 20
244801.994
 30
161.815
 70
    32
  0
VERTEX
  5
761
330
75F
100
AcDbEntity
  8
B1039
100
AcDbVertex
100
AcDb3dPolylineVertex
 10
454044.513
 20
244802.097
 30
161.796
 70
    32
  0
VERTEX
  5
762
330
75F
100
AcDbEntity
  8
B1039
100
AcDbVertex
100
AcDb3dPolylineVertex
 10
454044.667
 20
244802.205
 30
161.781
 70
    32
  0
VERTEX
  5
763
330
75F
100
AcDbEntity
  8
B1039
100
AcDbVertex
100
AcDb3dPolylineVertex
 10
454044.881
 20
244802.19
 30
161.728
 70
    32
  0
VERTEX
  5
764
330
75F
100
AcDbEntity
  8
B1039
100
AcDbVertex
100
AcDb3dPolylineVertex
 10
454045.048
 20
244802.235
 30
161.718
 70
    32
  0
VERTEX
  5
765
330
75F
100
AcDbEntity
  8
B1039
100
AcDbVertex
100
AcDb3dPolylineVertex
 10
454045.3243526287
 20
244802.2743266064
 30
161.874
 70
    32
  0
SEQEND
  5
766
330
75F
100
AcDbEntity
  8
B1039
  0
POLYLINE
  5
768
330
1F
100
AcDbEntity
  8
S1039
100
AcDb3dPolyline
 66
     1
 10
0.0
 20
0.0
 30
0.0
 70
     8
  0
VERTEX
  5
769
330
768
100
AcDbEntity
  8
S1039
100
AcDbVertex
100
AcDb3dPolylineVertex
 10
454045.3151255173
 20
244802.5873350491
 30
162.0344089324748
 70
    32
  0
VERTEX
  5
76A
330
768
100
AcDbEntity
  8
S1039
100
AcDbVertex
100
AcDb3dPolylineVertex
 10
454045.332
 20
244802.279
 30
161.874
 70
    32
  0
VERTEX
  5
76B
330
768
100
AcDbEntity
  8
S1039
100
AcDbVertex
100
AcDb3dPolylineVertex
 10
454045.322
 20
244802.228
 30
161.845
 70
    32
  0
VERTEX
  5
76C
330
768
100
AcDbEntity
  8
S1039
100
AcDbVertex
100
AcDb3dPolylineVertex
 10
454045.341
 20
244802.105
 30
161.757
 70
    32
  0
VERTEX
  5
76D
330
768
100
AcDbEntity
  8
S1039
100
AcDbVertex
100
AcDb3dPolylineVertex
 10
454045.252
 20
244802.093
 30
161.769
 70
    32
  0
VERTEX
  5
76E
330
768
100
AcDbEntity
  8
S1039
100
AcDbVertex
100
AcDb3dPolylineVertex
 10
454045.035
 20
244801.92
 30
161.752
 70
    32
  0
VERTEX
  5
76F
330
768
100
AcDbEntity
  8
S1039
100
AcDbVertex
100
AcDb3dPolylineVertex
 10
454044.851
 20
244801.898
 30
161.758
 70
    32
  0
VERTEX
  5
770
330
768
100
AcDbEntity
  8
S1039
100
AcDbVertex
100
AcDb3dPolylineVertex
 10
454044.707
 20
244801.909
 30
161.798
 70
    32
  0
VERTEX
  5
771
330
768
100
AcDbEntity
  8
S1039
100
AcDbVertex
100
AcDb3dPolylineVertex
 10
454044.64
 20
244801.927
 30
161.788
 70
    32
  0
VERTEX
  5
772
330
768
100
AcDbEntity
  8
S1039
100
AcDbVertex
100
AcDb3dPolylineVertex
 10
454044.417
 20
244801.915
 30
161.798
 70
    32
  0
VERTEX
  5
773
330
768
100
AcDbEntity
  8
S1039
100
AcDbVertex
100
AcDb3dPolylineVertex
 10
454044.33
 20
244801.989
 30
161.796
 70
    32
  0
VERTEX
  5
774
330
768
100
AcDbEntity
  8
S1039
100
AcDbVertex
100
AcDb3dPolylineVertex
 10
454044.237
 20
244802.147
 30
161.865
 70
    32
  0
VERTEX
  5
775
330
768
100
AcDbEntity
  8
S1039
100
AcDbVertex
100
AcDb3dPolylineVertex
 10
454044.2219138964
 20
244802.1871034208
 30
161.89
 70
    32
  0
VERTEX
  5
776
330
768
100
AcDbEntity
  8
S1039
100
AcDbVertex
100
AcDb3dPolylineVertex
 10
454044.202
 20
244802.237
 30
161.816
 70
    32
  0
SEQEND
  5
777
330
768
100
AcDbEntity
  8
S1039
  0
POLYLINE
  5
779
330
1F
100
AcDbEntity
  8
S1041
100
AcDb3dPolyline
 66
     1
 10
0.0
 20
0.0
 30
0.0
 70
     8
  0
VERTEX
  5
77A
330
779
100
AcDbEntity
  8
S1041
100
AcDbVertex
100
AcDb3dPolylineVertex
 10
454044.202
 20
244802.237
 30
161.816
 70
    32
  0
VERTEX
  5
77B
330
779
100
AcDbEntity
  8
S1041
100
AcDbVertex
100
AcDb3dPolylineVertex
 10
454044.129
 20
244802.327
 30
161.817
 70
    32
  0
VERTEX
  5
77C
330
779
100
AcDbEntity
  8
S1041
100
AcDbVertex
100
AcDb3dPolylineVertex
 10
454044.006
 20
244802.553
 30
161.843
 70
    32
  0
VERTEX
  5
77D
330
779
100
AcDbEntity
  8
S1041
100
AcDbVertex
100
AcDb3dPolylineVertex
 10
454043.915
 20
244802.619
 30
161.805
 70
    32
  0
VERTEX
  5
77E
330
779
100
AcDbEntity
  8
S1041
100
AcDbVertex
100
AcDb3dPolylineVertex
 10
454043.853
 20
244802.759
 30
161.803
 70
    32
  0
VERTEX
  5
77F
330
779
100
AcDbEntity
  8
S1041
100
AcDbVertex
100
AcDb3dPolylineVertex
 10
454044.018
 20
244802.903
 30
161.796
 70
    32
  0
VERTEX
  5
780
330
779
100
AcDbEntity
  8
S1041
100
AcDbVertex
100
AcDb3dPolylineVertex
 10
454044.114
 20
244802.957
 30
161.815
 70
    32
  0
VERTEX
  5
781
330
779
100
AcDbEntity
  8
S1041
100
AcDbVertex
100
AcDb3dPolylineVertex
 10
454044.205
 20
244803.051
 30
161.863
 70
    32
  0
VERTEX
  5
782
330
779
100
AcDbEntity
  8
S1041
100
AcDbVertex
100
AcDb3dPolylineVertex
 10
454044.321
 20
244803.086
 30
161.919
 70
    32
  0
VERTEX
  5
783
330
779
100
AcDbEntity
  8
S1041
100
AcDbVertex
100
AcDb3dPolylineVertex
 10
454044.4264999999
 20
244803.0605
 30
161.973
 70
    32
  0
SEQEND
  5
784
330
779
100
AcDbEntity
  8
S1041
  0
POINT
  5
786
330
1F
100
AcDbEntity
  8
L1042
100
AcDbPoint
 10
454043.964
 20
244803.081
 30
162.025
  0
POINT
  5
788
330
1F
100
AcDbEntity
  8
L1040
100
AcDbPoint
 10
454045.44
 20
244802.1
 30
161.986
  0
POINT
  5
78A
330
1F
100
AcDbEntity
  8
L1048
100
AcDbPoint
 10
454041.465
 20
244800.303
 30
161.958
  0
POLYLINE
  5
78C
330
1F
100
AcDbEntity
  8
C1047
100
AcDb3dPolyline
 66
     1
 10
0.0
 20
0.0
 30
0.0
 70
     8
  0
VERTEX
  5
78D
330
78C
100
AcDbEntity
  8
C1047
100
AcDbVertex
100
AcDb3dPolylineVertex
 10
454040.855
 20
244800.454
 30
161.98
 70
    32
  0
VERTEX
  5
78E
330
78C
100
AcDbEntity
  8
C1047
100
AcDbVertex
100
AcDb3dPolylineVertex
 10
454041.029
 20
244800.661
 30
161.963
 70
    32
  0
VERTEX
  5
78F
330
78C
100
AcDbEntity
  8
C1047
100
AcDbVertex
100
AcDb3dPolylineVertex
 10
454041.059
 20
244800.796
 30
161.967
 70
    32
  0
VERTEX
  5
790
330
78C
100
AcDbEntity
  8
C1047
100
AcDbVertex
100
AcDb3dPolylineVertex
 10
454041.206
 20
244801.014
 30
161.981
 70
    32
  0
VERTEX
  5
791
330
78C
100
AcDbEntity
  8
C1047
100
AcDbVertex
100
AcDb3dPolylineVertex
 10
454041.451
 20
244801.074
 30
161.892
 70
    32
  0
VERTEX
  5
792
330
78C
100
AcDbEntity
  8
C1047
100
AcDbVertex
100
AcDb3dPolylineVertex
 10
454041.5522461784
 20
244801.107798142
 30
161.894
 70
    32
  0
VERTEX
  5
793
330
78C
100
AcDbEntity
  8
C1047
100
AcDbVertex
100
AcDb3dPolylineVertex
 10
454041.66
 20
244801.135
 30
161.97
 70
    32
  0
VERTEX
  5
794
330
78C
100
AcDbEntity
  8
C1047
100
AcDbVertex
100
AcDb3dPolylineVertex
 10
454041.818
 20
244801.193
 30
161.996
 70
    32
  0
VERTEX
  5
795
330
78C
100
AcDbEntity
  8
C1047
100
AcDbVertex
100
AcDb3dPolylineVertex
 10
454041.9940000001
 20
244801.284
 30
162.01
 70
    32
  0
VERTEX
  5
796
330
78C
100
AcDbEntity
  8
C1047
100
AcDbVertex
100
AcDb3dPolylineVertex
 10
454042.103
 20
244801.363
 30
162.03
 70
    32
  0
VERTEX
  5
797
330
78C
100
AcDbEntity
  8
C1047
100
AcDbVertex
100
AcDb3dPolylineVertex
 10
454042.35
 20
244801.502
 30
162.008
 70
    32
  0
VERTEX
  5
798
330
78C
100
AcDbEntity
  8
C1047
100
AcDbVertex
100
AcDb3dPolylineVertex
 10
454042.63
 20
244801.655
 30
162.016
 70
    32
  0
SEQEND
  5
799
330
78C
100
AcDbEntity
  8
C1047
  0
POLYLINE
  5
79B
330
1F
100
AcDbEntity
  8
B1047
100
AcDb3dPolyline
 66
     1
 10
0.0
 20
0.0
 30
0.0
 70
     8
  0
VERTEX
  5
79C
330
79B
100
AcDbEntity
  8
B1047
100
AcDbVertex
100
AcDb3dPolylineVertex
 10
454042.56
 20
244801.274
 30
161.724
 70
    32
  0
VERTEX
  5
79D
330
79B
100
AcDbEntity
  8
B1047
100
AcDbVertex
100
AcDb3dPolylineVertex
 10
454042.291
 20
244801.179
 30
161.728
 70
    32
  0
VERTEX
  5
79E
330
79B
100
AcDbEntity
  8
B1047
100
AcDbVertex
100
AcDb3dPolylineVertex
 10
454042.085
 20
244801.069
 30
161.72
 70
    32
  0
VERTEX
  5
79F
330
79B
100
AcDbEntity
  8
B1047
100
AcDbVertex
100
AcDb3dPolylineVertex
 10
454041.9205
 20
244800.9735
 30
161.7075
 70
    32
  0
VERTEX
  5
7A0
330
79B
100
AcDbEntity
  8
B1047
100
AcDbVertex
100
AcDb3dPolylineVertex
 10
454041.77
 20
244800.888
 30
161.626
 70
    32
  0
VERTEX
  5
7A1
330
79B
100
AcDbEntity
  8
B1047
100
AcDbVertex
100
AcDb3dPolylineVertex
 10
454041.589
 20
244800.857
 30
161.634
 70
    32
  0
VERTEX
  5
7A2
330
79B
100
AcDbEntity
  8
B1047
100
AcDbVertex
100
AcDb3dPolylineVertex
 10
454041.3625
 20
244800.65
 30
161.6635
 70
    32
  0
SEQEND
  5
7A3
330
79B
100
AcDbEntity
  8
B1047
  0
POLYLINE
  5
7A5
330
1F
100
AcDbEntity
  8
S1047
100
AcDb3dPolyline
 66
     1
 10
0.0
 20
0.0
 30
0.0
 70
     8
  0
VERTEX
  5
7A6
330
7A5
100
AcDbEntity
  8
S1047
100
AcDbVertex
100
AcDb3dPolylineVertex
 10
454042.4057812178
 20
244801.5324804512
 30
162.0095937490811
 70
    32
  0
VERTEX
  5
7A7
330
7A5
100
AcDbEntity
  8
S1047
100
AcDbVertex
100
AcDb3dPolylineVertex
 10
454042.564
 20
244801.28
 30
161.783
 70
    32
  0
VERTEX
  5
7A8
330
7A5
100
AcDbEntity
  8
S1047
100
AcDbVertex
100
AcDb3dPolylineVertex
 10
454042.56
 20
244801.274
 30
161.724
 70
    32
  0
VERTEX
  5
7A9
330
7A5
100
AcDbEntity
  8
S1047
100
AcDbVertex
100
AcDb3dPolylineVertex
 10
454042.585
 20
244801.247
 30
161.763
 70
    32
  0
VERTEX
  5
7AA
330
7A5
100
AcDbEntity
  8
S1047
100
AcDbVertex
100
AcDb3dPolylineVertex
 10
454042.417
 20
244801.016
 30
161.795
 70
    32
  0
VERTEX
  5
7AB
330
7A5
100
AcDbEntity
  8
S1047
100
AcDbVertex
100
AcDb3dPolylineVertex
 10
454042.296
 20
244800.941
 30
161.681
 70
    32
  0
VERTEX
  5
7AC
330
7A5
100
AcDbEntity
  8
S1047
100
AcDbVertex
100
AcDb3dPolylineVertex
 10
454042.155
 20
244800.807
 30
161.684
 70
    32
  0
VERTEX
  5
7AD
330
7A5
100
AcDbEntity
  8
S1047
100
AcDbVertex
100
AcDb3dPolylineVertex
 10
454042.045
 20
244800.677
 30
161.71
 70
    32
  0
VERTEX
  5
7AE
330
7A5
100
AcDbEntity
  8
S1047
100
AcDbVertex
100
AcDb3dPolylineVertex
 10
454041.911
 20
244800.517
 30
161.653
 70
    32
  0
VERTEX
  5
7AF
330
7A5
100
AcDbEntity
  8
S1047
100
AcDbVertex
100
AcDb3dPolylineVertex
 10
454041.742
 20
244800.384
 30
161.649
 70
    32
  0
VERTEX
  5
7B0
330
7A5
100
AcDbEntity
  8
S1047
100
AcDbVertex
100
AcDb3dPolylineVertex
 10
454041.596
 20
244800.451
 30
161.612
 70
    32
  0
VERTEX
  5
7B1
330
7A5
100
AcDbEntity
  8
S1047
100
AcDbVertex
100
AcDb3dPolylineVertex
 10
454041.471
 20
244800.474
 30
161.617
 70
    32
  0
VERTEX
  5
7B2
330
7A5
100
AcDbEntity
  8
S1047
100
AcDbVertex
100
AcDb3dPolylineVertex
 10
454041.364
 20
244800.568
 30
161.647
 70
    32
  0
VERTEX
  5
7B3
330
7A5
100
AcDbEntity
  8
S1047
100
AcDbVertex
100
AcDb3dPolylineVertex
 10
454041.361
 20
244800.732
 30
161.68
 70
    32
  0
VERTEX
  5
7B4
330
7A5
100
AcDbEntity
  8
S1047
100
AcDbVertex
100
AcDb3dPolylineVertex
 10
454041.351
 20
244800.794
 30
161.707
 70
    32
  0
VERTEX
  5
7B5
330
7A5
100
AcDbEntity
  8
S1047
100
AcDbVertex
100
AcDb3dPolylineVertex
 10
454041.339
 20
244800.91
 30
161.85
 70
    32
  0
VERTEX
  5
7B6
330
7A5
100
AcDbEntity
  8
S1047
100
AcDbVertex
100
AcDb3dPolylineVertex
 10
454041.3285
 20
244801.044
 30
161.9365
 70
    32
  0
SEQEND
  5
7B7
330
7A5
100
AcDbEntity
  8
S1047
  0
POLYLINE
  5
7B9
330
1F
100
AcDbEntity
  8
C1052
100
AcDb3dPolyline
 66
     1
 10
0.0
 20
0.0
 30
0.0
 70
     9
  0
VERTEX
  5
7BA
330
7B9
100
AcDbEntity
  8
C1052
100
AcDbVertex
100
AcDb3dPolylineVertex
 10
453988.04
 20
244802.057
 30
160.759
 70
    32
  0
VERTEX
  5
7BB
330
7B9
100
AcDbEntity
  8
C1052
100
AcDbVertex
100
AcDb3dPolylineVertex
 10
453988.378
 20
244802.153
 30
160.789
 70
    32
  0
VERTEX
  5
7BC
330
7B9
100
AcDbEntity
  8
C1052
100
AcDbVertex
100
AcDb3dPolylineVertex
 10
453988.626
 20
244802.45
 30
160.808
 70
    32
  0
VERTEX
  5
7BD
330
7B9
100
AcDbEntity
  8
C1052
100
AcDbVertex
100
AcDb3dPolylineVertex
 10
453988.845
 20
244802.702
 30
160.857
 70
    32
  0
VERTEX
  5
7BE
330
7B9
100
AcDbEntity
  8
C1052
100
AcDbVertex
100
AcDb3dPolylineVertex
 10
453988.948
 20
244803.073
 30
160.884
 70
    32
  0
VERTEX
  5
7BF
330
7B9
100
AcDbEntity
  8
C1052
100
AcDbVertex
100
AcDb3dPolylineVertex
 10
453988.849
 20
244803.557
 30
160.836
 70
    32
  0
VERTEX
  5
7C0
330
7B9
100
AcDbEntity
  8
C1052
100
AcDbVertex
100
AcDb3dPolylineVertex
 10
453988.6459999999
 20
244803.854
 30
160.806
 70
    32
  0
VERTEX
  5
7C1
330
7B9
100
AcDbEntity
  8
C1052
100
AcDbVertex
100
AcDb3dPolylineVertex
 10
453988.297
 20
244804.008
 30
160.791
 70
    32
  0
VERTEX
  5
7C2
330
7B9
100
AcDbEntity
  8
C1052
100
AcDbVertex
100
AcDb3dPolylineVertex
 10
453987.968
 20
244804.007
 30
160.775
 70
    32
  0
VERTEX
  5
7C3
330
7B9
100
AcDbEntity
  8
C1052
100
AcDbVertex
100
AcDb3dPolylineVertex
 10
453987.722
 20
244803.981
 30
160.754
 70
    32
  0
VERTEX
  5
7C4
330
7B9
100
AcDbEntity
  8
C1052
100
AcDbVertex
100
AcDb3dPolylineVertex
 10
453987.461
 20
244803.898
 30
160.717
 70
    32
  0
VERTEX
  5
7C5
330
7B9
100
AcDbEntity
  8
C1052
100
AcDbVertex
100
AcDb3dPolylineVertex
 10
453987.306
 20
244803.694
 30
160.727
 70
    32
  0
VERTEX
  5
7C6
330
7B9
100
AcDbEntity
  8
C1052
100
AcDbVertex
100
AcDb3dPolylineVertex
 10
453987.183
 20
244803.532
 30
160.765
 70
    32
  0
VERTEX
  5
7C7
330
7B9
100
AcDbEntity
  8
C1052
100
AcDbVertex
100
AcDb3dPolylineVertex
 10
453987.149
 20
244803.218
 30
160.714
 70
    32
  0
VERTEX
  5
7C8
330
7B9
100
AcDbEntity
  8
C1052
100
AcDbVertex
100
AcDb3dPolylineVertex
 10
453987.035
 20
244802.963
 30
160.755
 70
    32
  0
VERTEX
  5
7C9
330
7B9
100
AcDbEntity
  8
C1052
100
AcDbVertex
100
AcDb3dPolylineVertex
 10
453987.109
 20
244802.729
 30
160.783
 70
    32
  0
VERTEX
  5
7CA
330
7B9
100
AcDbEntity
  8
C1052
100
AcDbVertex
100
AcDb3dPolylineVertex
 10
453987.333
 20
244802.386
 30
160.728
 70
    32
  0
VERTEX
  5
7CB
330
7B9
100
AcDbEntity
  8
C1052
100
AcDbVertex
100
AcDb3dPolylineVertex
 10
453987.545
 20
244802.305
 30
160.749
 70
    32
  0
VERTEX
  5
7CC
330
7B9
100
AcDbEntity
  8
C1052
100
AcDbVertex
100
AcDb3dPolylineVertex
 10
453987.88
 20
244802.099
 30
160.746
 70
    32
  0
SEQEND
  5
7CD
330
7B9
100
AcDbEntity
  8
C1052
  0
POLYLINE
  5
7CF
330
1F
100
AcDbEntity
  8
S1052
100
AcDb3dPolyline
 66
     1
 10
0.0
 20
0.0
 30
0.0
 70
     8
  0
VERTEX
  5
7D0
330
7CF
100
AcDbEntity
  8
S1052
100
AcDbVertex
100
AcDb3dPolylineVertex
 10
453987.845
 20
244803.994
 30
160.7645
 70
    32
  0
VERTEX
  5
7D1
330
7CF
100
AcDbEntity
  8
S1052
100
AcDbVertex
100
AcDb3dPolylineVertex
 10
453987.801
 20
244803.799
 30
160.409
 70
    32
  0
VERTEX
  5
7D2
330
7CF
100
AcDbEntity
  8
S1052
100
AcDbVertex
100
AcDb3dPolylineVertex
 10
453987.823
 20
244803.608
 30
160.164
 70
    32
  0
VERTEX
  5
7D3
330
7CF
100
AcDbEntity
  8
S1052
100
AcDbVertex
100
AcDb3dPolylineVertex
 10
453987.792
 20
244803.557
 30
160.04
 70
    32
  0
VERTEX
  5
7D4
330
7CF
100
AcDbEntity
  8
S1052
100
AcDbVertex
100
AcDb3dPolylineVertex
 10
453987.836
 20
244803.334
 30
160.028
 70
    32
  0
VERTEX
  5
7D5
330
7CF
100
AcDbEntity
  8
S1052
100
AcDbVertex
100
AcDb3dPolylineVertex
 10
453987.865
 20
244803.052
 30
160.084
 70
    32
  0
VERTEX
  5
7D6
330
7CF
100
AcDbEntity
  8
S1052
100
AcDbVertex
100
AcDb3dPolylineVertex
 10
453987.864
 20
244802.846
 30
160.041
 70
    32
  0
VERTEX
  5
7D7
330
7CF
100
AcDbEntity
  8
S1052
100
AcDbVertex
100
AcDb3dPolylineVertex
 10
453987.896
 20
244802.632
 30
160.149
 70
    32
  0
VERTEX
  5
7D8
330
7CF
100
AcDbEntity
  8
S1052
100
AcDbVertex
100
AcDb3dPolylineVertex
 10
453987.91
 20
244802.49
 30
160.346
 70
    32
  0
VERTEX
  5
7D9
330
7CF
100
AcDbEntity
  8
S1052
100
AcDbVertex
100
AcDb3dPolylineVertex
 10
453987.903
 20
244802.378
 30
160.534
 70
    32
  0
VERTEX
  5
7DA
330
7CF
100
AcDbEntity
  8
S1052
100
AcDbVertex
100
AcDb3dPolylineVertex
 10
453987.96
 20
244802.078
 30
160.7525
 70
    32
  0
SEQEND
  5
7DB
330
7CF
100
AcDbEntity
  8
S1052
  0
POLYLINE
  5
7DD
330
1F
100
AcDbEntity
  8
B1052
100
AcDb3dPolyline
 66
     1
 10
0.0
 20
0.0
 30
0.0
 70
     8
  0
VERTEX
  5
7DE
330
7DD
100
AcDbEntity
  8
B1052
100
AcDbVertex
100
AcDb3dPolylineVertex
 10
453987.784
 20
244803.538
 30
160.006
 70
    32
  0
VERTEX
  5
7DF
330
7DD
100
AcDbEntity
  8
B1052
100
AcDbVertex
100
AcDb3dPolylineVertex
 10
453987.547
 20
244803.528
 30
160.019
 70
    32
  0
VERTEX
  5
7E0
330
7DD
100
AcDbEntity
  8
B1052
100
AcDbVertex
100
AcDb3dPolylineVertex
 10
453987.4350000001
 20
244803.36
 30
160.021
 70
    32
  0
VERTEX
  5
7E1
330
7DD
100
AcDbEntity
  8
B1052
100
AcDbVertex
100
AcDb3dPolylineVertex
 10
453987.465
 20
244803.201
 30
160.03
 70
    32
  0
VERTEX
  5
7E2
330
7DD
100
AcDbEntity
  8
B1052
100
AcDbVertex
100
AcDb3dPolylineVertex
 10
453987.45
 20
244803.0
 30
160.138
 70
    32
  0
VERTEX
  5
7E3
330
7DD
100
AcDbEntity
  8
B1052
100
AcDbVertex
100
AcDb3dPolylineVertex
 10
453987.579
 20
244802.769
 30
160.105
 70
    32
  0
VERTEX
  5
7E4
330
7DD
100
AcDbEntity
  8
B1052
100
AcDbVertex
100
AcDb3dPolylineVertex
 10
453987.59
 20
244802.65
 30
160.136
 70
    32
  0
VERTEX
  5
7E5
330
7DD
100
AcDbEntity
  8
B1052
100
AcDbVertex
100
AcDb3dPolylineVertex
 10
453987.887
 20
244802.634
 30
160.144
 70
    32
  0
SEQEND
  5
7E6
330
7DD
100
AcDbEntity
  8
B1052
  0
POINT
  5
7E8
330
1F
100
AcDbEntity
  8
L1049
100
AcDbPoint
 10
453988.103
 20
244803.141
 30
160.793
  0
POINT
  5
7EA
330
1F
100
AcDbEntity
  8
L1051
100
AcDbPoint
 10
453987.883
 20
244802.907
 30
160.252
  0
POINT
  5
7EC
330
1F
100
AcDbEntity
  8
L1050
100
AcDbPoint
 10
453987.836
 20
244803.393
 30
160.482
  0
POLYLINE
  5
7EE
330
1F
100
AcDbEntity
  8
C1043
100
AcDb3dPolyline
 66
     1
 10
0.0
 20
0.0
 30
0.0
 70
     8
  0
VERTEX
  5
7EF
330
7EE
100
AcDbEntity
  8
C1043
100
AcDbVertex
100
AcDb3dPolylineVertex
 10
454025.231
 20
244787.059
 30
161.005
 70
    32
  0
VERTEX
  5
7F0
330
7EE
100
AcDbEntity
  8
C1043
100
AcDbVertex
100
AcDb3dPolylineVertex
 10
454024.749
 20
244786.613
 30
160.943
 70
    32
  0
VERTEX
  5
7F1
330
7EE
100
AcDbEntity
  8
C1043
100
AcDbVertex
100
AcDb3dPolylineVertex
 10
454024.356
 20
244786.281
 30
160.89
 70
    32
  0
VERTEX
  5
7F2
330
7EE
100
AcDbEntity
  8
C1043
100
AcDbVertex
100
AcDb3dPolylineVertex
 10
454024.136
 20
244786.059
 30
160.904
 70
    32
  0
VERTEX
  5
7F3
330
7EE
100
AcDbEntity
  8
C1043
100
AcDbVertex
100
AcDb3dPolylineVertex
 10
454023.703
 20
244785.943
 30
160.902
 70
    32
  0
VERTEX
  5
7F4
330
7EE
100
AcDbEntity
  8
C1043
100
AcDbVertex
100
AcDb3dPolylineVertex
 10
454023.585
 20
244785.842
 30
160.88
 70
    32
  0
VERTEX
  5
7F5
330
7EE
100
AcDbEntity
  8
C1043
100
AcDbVertex
100
AcDb3dPolylineVertex
 10
454023.408
 20
244785.709
 30
160.854
 70
    32
  0
VERTEX
  5
7F6
330
7EE
100
AcDbEntity
  8
C1043
100
AcDbVertex
100
AcDb3dPolylineVertex
 10
454023.3
 20
244785.532
 30
160.827
 70
    32
  0
VERTEX
  5
7F7
330
7EE
100
AcDbEntity
  8
C1043
100
AcDbVertex
100
AcDb3dPolylineVertex
 10
454023.206
 20
244785.361
 30
160.836
 70
    32
  0
VERTEX
  5
7F8
330
7EE
100
AcDbEntity
  8
C1043
100
AcDbVertex
100
AcDb3dPolylineVertex
 10
454023.198
 20
244785.184
 30
160.805
 70
    32
  0
VERTEX
  5
7F9
330
7EE
100
AcDbEntity
  8
C1043
100
AcDbVertex
100
AcDb3dPolylineVertex
 10
454023.264
 20
244785.12
 30
160.839
 70
    32
  0
VERTEX
  5
7FA
330
7EE
100
AcDbEntity
  8
C1043
100
AcDbVertex
100
AcDb3dPolylineVertex
 10
454023.456
 20
244785.105
 30
160.865
 70
    32
  0
VERTEX
  5
7FB
330
7EE
100
AcDbEntity
  8
C1043
100
AcDbVertex
100
AcDb3dPolylineVertex
 10
454023.615
 20
244785.13
 30
160.871
 70
    32
  0
VERTEX
  5
7FC
330
7EE
100
AcDbEntity
  8
C1043
100
AcDbVertex
100
AcDb3dPolylineVertex
 10
454023.915
 20
244785.262
 30
160.843
 70
    32
  0
VERTEX
  5
7FD
330
7EE
100
AcDbEntity
  8
C1043
100
AcDbVertex
100
AcDb3dPolylineVertex
 10
454024.145
 20
244785.332
 30
160.868
 70
    32
  0
VERTEX
  5
7FE
330
7EE
100
AcDbEntity
  8
C1043
100
AcDbVertex
100
AcDb3dPolylineVertex
 10
454024.526
 20
244785.517
 30
160.889
 70
    32
  0
VERTEX
  5
7FF
330
7EE
100
AcDbEntity
  8
C1043
100
AcDbVertex
100
AcDb3dPolylineVertex
 10
454024.9325261218
 20
244785.8727955751
 30
160.924
 70
    32
  0
VERTEX
  5
800
330
7EE
100
AcDbEntity
  8
C1043
100
AcDbVertex
100
AcDb3dPolylineVertex
 10
454025.324
 20
244786.24
 30
160.99
 70
    32
  0
SEQEND
  5
801
330
7EE
100
AcDbEntity
  8
C1043
  0
POLYLINE
  5
803
330
1F
100
AcDbEntity
  8
B1043
100
AcDb3dPolyline
 66
     1
 10
0.0
 20
0.0
 30
0.0
 70
     8
  0
VERTEX
  5
804
330
803
100
AcDbEntity
  8
B1043
100
AcDbVertex
100
AcDb3dPolylineVertex
 10
454024.008
 20
244785.801
 30
160.803
 70
    32
  0
VERTEX
  5
805
330
803
100
AcDbEntity
  8
B1043
100
AcDbVertex
100
AcDb3dPolylineVertex
 10
454023.81
 20
244785.763
 30
160.824
 70
    32
  0
VERTEX
  5
806
330
803
100
AcDbEntity
  8
B1043
100
AcDbVertex
100
AcDb3dPolylineVertex
 10
454023.6409999999
 20
244785.689
 30
160.817
 70
    32
  0
VERTEX
  5
807
330
803
100
AcDbEntity
  8
B1043
100
AcDbVertex
100
AcDb3dPolylineVertex
 10
454023.44
 20
244785.627
 30
160.828
 70
    32
  0
VERTEX
  5
808
330
803
100
AcDbEntity
  8
B1043
100
AcDbVertex
100
AcDb3dPolylineVertex
 10
454023.322
 20
244785.459
 30
160.831
 70
    32
  0
VERTEX
  5
809
330
803
100
AcDbEntity
  8
B1043
100
AcDbVertex
100
AcDb3dPolylineVertex
 10
454023.314
 20
244785.378
 30
160.809
 70
    32
  0
VERTEX
  5
80A
330
803
100
AcDbEntity
  8
B1043
100
AcDbVertex
100
AcDb3dPolylineVertex
 10
454023.362
 20
244785.236
 30
160.812
 70
    32
  0
VERTEX
  5
80B
330
803
100
AcDbEntity
  8
B1043
100
AcDbVertex
100
AcDb3dPolylineVertex
 10
454023.411
 20
244785.19
 30
160.81
 70
    32
  0
VERTEX
  5
80C
330
803
100
AcDbEntity
  8
B1043
100
AcDbVertex
100
AcDb3dPolylineVertex
 10
454023.517
 20
244785.198
 30
160.813
 70
    32
  0
VERTEX
  5
80D
330
803
100
AcDbEntity
  8
B1043
100
AcDbVertex
100
AcDb3dPolylineVertex
 10
454023.743
 20
244785.309
 30
160.788
 70
    32
  0
VERTEX
  5
80E
330
803
100
AcDbEntity
  8
B1043
100
AcDbVertex
100
AcDb3dPolylineVertex
 10
454023.87
 20
244785.371
 30
160.799
 70
    32
  0
VERTEX
  5
80F
330
803
100
AcDbEntity
  8
B1043
100
AcDbVertex
100
AcDb3dPolylineVertex
 10
454024.0911685256
 20
244785.542211572
 30
160.7964714186112
 70
    32
  0
SEQEND
  5
810
330
803
100
AcDbEntity
  8
B1043
  0
POLYLINE
  5
812
330
1F
100
AcDbEntity
  8
S1043
100
AcDb3dPolyline
 66
     1
 10
0.0
 20
0.0
 30
0.0
 70
     8
  0
VERTEX
  5
813
330
812
100
AcDbEntity
  8
S1043
100
AcDbVertex
100
AcDb3dPolylineVertex
 10
454023.9758269113
 20
244786.0160898885
 30
160.9032601704911
 70
    32
  0
VERTEX
  5
814
330
812
100
AcDbEntity
  8
S1043
100
AcDbVertex
100
AcDb3dPolylineVertex
 10
454023.9990000001
 20
244785.861
 30
160.86
 70
    32
  0
VERTEX
  5
815
330
812
100
AcDbEntity
  8
S1043
100
AcDbVertex
100
AcDb3dPolylineVertex
 10
454024.017
 20
244785.776
 30
160.805
 70
    32
  0
VERTEX
  5
816
330
812
100
AcDbEntity
  8
S1043
100
AcDbVertex
100
AcDb3dPolylineVertex
 10
454024.047
 20
244785.692
 30
160.776
 70
    32
  0
VERTEX
  5
817
330
812
100
AcDbEntity
  8
S1043
100
AcDbVertex
100
AcDb3dPolylineVertex
 10
454024.066
 20
244785.621
 30
160.791
 70
    32
  0
VERTEX
  5
818
330
812
100
AcDbEntity
  8
S1043
100
AcDbVertex
100
AcDb3dPolylineVertex
 10
454024.089
 20
244785.549
 30
160.796
 70
    32
  0
VERTEX
  5
819
330
812
100
AcDbEntity
  8
S1043
100
AcDbVertex
100
AcDb3dPolylineVertex
 10
454024.16
 20
244785.464
 30
160.912
 70
    32
  0
VERTEX
  5
81A
330
812
100
AcDbEntity
  8
S1043
100
AcDbVertex
100
AcDb3dPolylineVertex
 10
454024.2588315548
 20
244785.3872725397
 30
160.8742741801861
 70
    32
  0
SEQEND
  5
81B
330
812
100
AcDbEntity
  8
S1043
  0
POINT
  5
81D
330
1F
100
AcDbEntity
  8
L1044
100
AcDbPoint
 10
454024.216
 20
244785.624
 30
160.909
  0
POINT
  5
81F
330
1F
100
AcDbEntity
  8
L1020
100
AcDbPoint
 10
454039.273
 20
244810.941
 30
162.04
  0
POLYLINE
  5
821
330
1F
100
AcDbEntity
  8
C1021
100
AcDb3dPolyline
 66
     1
 10
0.0
 20
0.0
 30
0.0
 70
     8
  0
VERTEX
  5
822
330
821
100
AcDbEntity
  8
C1021
100
AcDbVertex
100
AcDb3dPolylineVertex
 10
454040.149
 20
244809.836
 30
161.989
 70
    32
  0
VERTEX
  5
823
330
821
100
AcDbEntity
  8
C1021
100
AcDbVertex
100
AcDb3dPolylineVertex
 10
454039.932
 20
244809.913
 30
162.029
 70
    32
  0
VERTEX
  5
824
330
821
100
AcDbEntity
  8
C1021
100
AcDbVertex
100
AcDb3dPolylineVertex
 10
454039.887
 20
244810.0
 30
162.005
 70
    32
  0
VERTEX
  5
825
330
821
100
AcDbEntity
  8
C1021
100
AcDbVertex
100
AcDb3dPolylineVertex
 10
454039.689
 20
244810.014
 30
161.969
 70
    32
  0
VERTEX
  5
826
330
821
100
AcDbEntity
  8
C1021
100
AcDbVertex
100
AcDb3dPolylineVertex
 10
454039.507
 20
244810.077
 30
161.975
 70
    32
  0
VERTEX
  5
827
330
821
100
AcDbEntity
  8
C1021
100
AcDbVertex
100
AcDb3dPolylineVertex
 10
454039.162
 20
244810.064
 30
162.005
 70
    32
  0
VERTEX
  5
828
330
821
100
AcDbEntity
  8
C1021
100
AcDbVertex
100
AcDb3dPolylineVertex
 10
454039.069
 20
244810.092
 30
162.042
 70
    32
  0
VERTEX
  5
829
330
821
100
AcDbEntity
  8
C1021
100
AcDbVertex
100
AcDb3dPolylineVertex
 10
454038.946
 20
244810.247
 30
161.967
 70
    32
  0
VERTEX
  5
82A
330
821
100
AcDbEntity
  8
C1021
100
AcDbVertex
100
AcDb3dPolylineVertex
 10
454038.798
 20
244810.31
 30
161.996
 70
    32
  0
VERTEX
  5
82B
330
821
100
AcDbEntity
  8
C1021
100
AcDbVertex
100
AcDb3dPolylineVertex
 10
454038.632
 20
244810.46
 30
162.027
 70
    32
  0
VERTEX
  5
82C
330
821
100
AcDbEntity
  8
C1021
100
AcDbVertex
100
AcDb3dPolylineVertex
 10
454038.549
 20
244810.611
 30
162.023
 70
    32
  0
SEQEND
  5
82D
330
821
100
AcDbEntity
  8
C1021
  0
POLYLINE
  5
82F
330
1F
100
AcDbEntity
  8
C1021
100
AcDb3dPolyline
 66
     1
 10
0.0
 20
0.0
 30
0.0
 70
     8
  0
VERTEX
  5
830
330
82F
100
AcDbEntity
  8
C1021
100
AcDbVertex
100
AcDb3dPolylineVertex
 10
454039.802
 20
244811.985
 30
162.001
 70
    32
  0
VERTEX
  5
831
330
82F
100
AcDbEntity
  8
C1021
100
AcDbVertex
100
AcDb3dPolylineVertex
 10
454039.852
 20
244811.91
 30
162.044
 70
    32
  0
VERTEX
  5
832
330
82F
100
AcDbEntity
  8
C1021
100
AcDbVertex
100
AcDb3dPolylineVertex
 10
454040.332
 20
244811.587
 30
162.009
 70
    32
  0
VERTEX
  5
833
330
82F
100
AcDbEntity
  8
C1021
100
AcDbVertex
100
AcDb3dPolylineVertex
 10
454040.505
 20
244811.46
 30
161.969
 70
    32
  0
VERTEX
  5
834
330
82F
100
AcDbEntity
  8
C1021
100
AcDbVertex
100
AcDb3dPolylineVertex
 10
454040.699
 20
244811.313
 30
161.977
 70
    32
  0
VERTEX
  5
835
330
82F
100
AcDbEntity
  8
C1021
100
AcDbVertex
100
AcDb3dPolylineVertex
 10
454040.89
 20
244811.151
 30
162.011
 70
    32
  0
VERTEX
  5
836
330
82F
100
AcDbEntity
  8
C1021
100
AcDbVertex
100
AcDb3dPolylineVertex
 10
454040.884
 20
244810.963
 30
162.008
 70
    32
  0
VERTEX
  5
837
330
82F
100
AcDbEntity
  8
C1021
100
AcDbVertex
100
AcDb3dPolylineVertex
 10
454041.0330000001
 20
244810.818
 30
162.036
 70
    32
  0
VERTEX
  5
838
330
82F
100
AcDbEntity
  8
C1021
100
AcDbVertex
100
AcDb3dPolylineVertex
 10
454041.24
 20
244810.744
 30
162.032
 70
    32
  0
SEQEND
  5
839
330
82F
100
AcDbEntity
  8
C1021
  0
POLYLINE
  5
83B
330
1F
100
AcDbEntity
  8
B1021
100
AcDb3dPolyline
 66
     1
 10
0.0
 20
0.0
 30
0.0
 70
     8
  0
VERTEX
  5
83C
330
83B
100
AcDbEntity
  8
B1021
100
AcDbVertex
100
AcDb3dPolylineVertex
 10
454039.787
 20
244811.3114339022
 30
161.754
 70
    32
  0
VERTEX
  5
83D
330
83B
100
AcDbEntity
  8
B1021
100
AcDbVertex
100
AcDb3dPolylineVertex
 10
454040.02
 20
244811.2295116722
 30
161.741
 70
    32
  0
VERTEX
  5
83E
330
83B
100
AcDbEntity
  8
B1021
100
AcDbVertex
100
AcDb3dPolylineVertex
 10
454040.243
 20
244811.125
 30
161.82
 70
    32
  0
VERTEX
  5
83F
330
83B
100
AcDbEntity
  8
B1021
100
AcDbVertex
100
AcDb3dPolylineVertex
 10
454040.345
 20
244811.004
 30
161.798
 70
    32
  0
VERTEX
  5
840
330
83B
100
AcDbEntity
  8
B1021
100
AcDbVertex
100
AcDb3dPolylineVertex
 10
454040.482
 20
244810.834
 30
161.81
 70
    32
  0
VERTEX
  5
841
330
83B
100
AcDbEntity
  8
B1021
100
AcDbVertex
100
AcDb3dPolylineVertex
 10
454040.581
 20
244810.661
 30
161.822
 70
    32
  0
SEQEND
  5
842
330
83B
100
AcDbEntity
  8
B1021
  0
POLYLINE
  5
844
330
1F
100
AcDbEntity
  8
B1021
100
AcDb3dPolyline
 66
     1
 10
0.0
 20
0.0
 30
0.0
 70
     8
  0
VERTEX
  5
845
330
844
100
AcDbEntity
  8
B1021
100
AcDbVertex
100
AcDb3dPolylineVertex
 10
454039.075
 20
244810.498
 30
161.658
 70
    32
  0
VERTEX
  5
846
330
844
100
AcDbEntity
  8
B1021
100
AcDbVertex
100
AcDb3dPolylineVertex
 10
454039.217
 20
244810.452
 30
161.641
 70
    32
  0
VERTEX
  5
847
330
844
100
AcDbEntity
  8
B1021
100
AcDbVertex
100
AcDb3dPolylineVertex
 10
454039.395
 20
244810.377
 30
161.678
 70
    32
  0
VERTEX
  5
848
330
844
100
AcDbEntity
  8
B1021
100
AcDbVertex
100
AcDb3dPolylineVertex
 10
454039.541
 20
244810.302
 30
161.74
 70
    32
  0
VERTEX
  5
849
330
844
100
AcDbEntity
  8
B1021
100
AcDbVertex
100
AcDb3dPolylineVertex
 10
454039.713
 20
244810.263
 30
161.724
 70
    32
  0
VERTEX
  5
84A
330
844
100
AcDbEntity
  8
B1021
100
AcDbVertex
100
AcDb3dPolylineVertex
 10
454039.873
 20
244810.228
 30
161.748
 70
    32
  0
VERTEX
  5
84B
330
844
100
AcDbEntity
  8
B1021
100
AcDbVertex
100
AcDb3dPolylineVertex
 10
454040.012
 20
244810.222
 30
161.743
 70
    32
  0
SEQEND
  5
84C
330
844
100
AcDbEntity
  8
B1021
  0
POLYLINE
  5
84E
330
1F
100
AcDbEntity
  8
S1021
100
AcDb3dPolyline
 66
     1
 10
0.0
 20
0.0
 30
0.0
 70
     8
  0
VERTEX
  5
84F
330
84E
100
AcDbEntity
  8
S1021
100
AcDbVertex
100
AcDb3dPolylineVertex
 10
454040.9240000001
 20
244810.853
 30
162.034
 70
    32
  0
VERTEX
  5
850
330
84E
100
AcDbEntity
  8
S1021
100
AcDbVertex
100
AcDb3dPolylineVertex
 10
454040.77
 20
244810.749
 30
161.959
 70
    32
  0
VERTEX
  5
851
330
84E
100
AcDbEntity
  8
S1021
100
AcDbVertex
100
AcDb3dPolylineVertex
 10
454040.596
 20
244810.643
 30
161.888
 70
    32
  0
VERTEX
  5
852
330
84E
100
AcDbEntity
  8
S1021
100
AcDbVertex
100
AcDb3dPolylineVertex
 10
454040.469
 20
244810.558
 30
161.796
 70
    32
  0
VERTEX
  5
853
330
84E
100
AcDbEntity
  8
S1021
100
AcDbVertex
100
AcDb3dPolylineVertex
 10
454040.212
 20
244810.296
 30
161.823
 70
    32
  0
VERTEX
  5
854
330
84E
100
AcDbEntity
  8
S1021
100
AcDbVertex
100
AcDb3dPolylineVertex
 10
454040.162
 20
244810.315
 30
161.771
 70
    32
  0
VERTEX
  5
855
330
84E
100
AcDbEntity
  8
S1021
100
AcDbVertex
100
AcDb3dPolylineVertex
 10
454040.055
 20
244810.215
 30
161.757
 70
    32
  0
VERTEX
  5
856
330
84E
100
AcDbEntity
  8
S1021
100
AcDbVertex
100
AcDb3dPolylineVertex
 10
454039.971
 20
244810.06
 30
161.997
 70
    32
  0
VERTEX
  5
857
330
84E
100
AcDbEntity
  8
S1021
100
AcDbVertex
100
AcDb3dPolylineVertex
 10
454039.9
 20
244810.013
 30
162.03
 70
    32
  0
SEQEND
  5
858
330
84E
100
AcDbEntity
  8
S1021
  0
POLYLINE
  5
85A
330
1F
100
AcDbEntity
  8
S1045
100
AcDb3dPolyline
 66
     1
 10
0.0
 20
0.0
 30
0.0
 70
     8
  0
VERTEX
  5
85B
330
85A
100
AcDbEntity
  8
S1045
100
AcDbVertex
100
AcDb3dPolylineVertex
 10
454035.123
 20
244806.602
 30
161.991
 70
    32
  0
VERTEX
  5
85C
330
85A
100
AcDbEntity
  8
S1045
100
AcDbVertex
100
AcDb3dPolylineVertex
 10
454035.3468092488
 20
244806.6443867804
 30
161.935
 70
    32
  0
VERTEX
  5
85D
330
85A
100
AcDbEntity
  8
S1045
100
AcDbVertex
100
AcDb3dPolylineVertex
 10
454035.458
 20
244806.645
 30
161.889
 70
    32
  0
VERTEX
  5
85E
330
85A
100
AcDbEntity
  8
S1045
100
AcDbVertex
100
AcDb3dPolylineVertex
 10
454035.635
 20
244806.6533348725
 30
161.901
 70
    32
  0
VERTEX
  5
85F
330
85A
100
AcDbEntity
  8
S1045
100
AcDbVertex
100
AcDb3dPolylineVertex
 10
454035.725
 20
244806.641
 30
161.862
 70
    32
  0
VERTEX
  5
860
330
85A
100
AcDbEntity
  8
S1045
100
AcDbVertex
100
AcDb3dPolylineVertex
 10
454035.8926428671
 20
244806.6712310567
 30
161.964
 70
    32
  0
VERTEX
  5
861
330
85A
100
AcDbEntity
  8
S1045
100
AcDbVertex
100
AcDb3dPolylineVertex
 10
454036.0324427861
 20
244806.6786094527
 30
161.9633557213932
 70
    32
  0
SEQEND
  5
862
330
85A
100
AcDbEntity
  8
S1045
  0
POLYLINE
  5
864
330
1F
100
AcDbEntity
  8
B1045
100
AcDb3dPolyline
 66
     1
 10
0.0
 20
0.0
 30
0.0
 70
     8
  0
VERTEX
  5
865
330
864
100
AcDbEntity
  8
B1045
100
AcDbVertex
100
AcDb3dPolylineVertex
 10
454035.4495058741
 20
244806.6449531547
 30
161.8925140493962
 70
    32
  0
VERTEX
  5
866
330
864
100
AcDbEntity
  8
B1045
100
AcDbVertex
100
AcDb3dPolylineVertex
 10
454035.477
 20
244806.529
 30
161.87
 70
    32
  0
VERTEX
  5
867
330
864
100
AcDbEntity
  8
B1045
100
AcDbVertex
100
AcDb3dPolylineVertex
 10
454035.5955662093
 20
244806.4886899778
 30
161.862
 70
    32
  0
VERTEX
  5
868
330
864
100
AcDbEntity
  8
B1045
100
AcDbVertex
100
AcDb3dPolylineVertex
 10
454035.702
 20
244806.519
 30
161.861
 70
    32
  0
VERTEX
  5
869
330
864
100
AcDbEntity
  8
B1045
100
AcDbVertex
100
AcDb3dPolylineVertex
 10
454035.7691591961
 20
244806.561
 30
161.858
 70
    32
  0
VERTEX
  5
86A
330
864
100
AcDbEntity
  8
B1045
100
AcDbVertex
100
AcDb3dPolylineVertex
 10
454035.8088214336
 20
244806.6561155283
 30
161.913
 70
    32
  0
SEQEND
  5
86B
330
864
100
AcDbEntity
  8
B1045
  0
POLYLINE
  5
86D
330
1F
100
AcDbEntity
  8
C1045
100
AcDb3dPolyline
 66
     1
 10
0.0
 20
0.0
 30
0.0
 70
     9
  0
VERTEX
  5
86E
330
86D
100
AcDbEntity
  8
C1045
100
AcDbVertex
100
AcDb3dPolylineVertex
 10
454035.123
 20
244806.602
 30
161.991
 70
    32
  0
VERTEX
  5
86F
330
86D
100
AcDbEntity
  8
C1045
100
AcDbVertex
100
AcDb3dPolylineVertex
 10
454035.236
 20
244806.422
 30
161.96
 70
    32
  0
VERTEX
  5
870
330
86D
100
AcDbEntity
  8
C1045
100
AcDbVertex
100
AcDb3dPolylineVertex
 10
454035.391
 20
244806.307
 30
161.928
 70
    32
  0
VERTEX
  5
871
330
86D
100
AcDbEntity
  8
C1045
100
AcDbVertex
100
AcDb3dPolylineVertex
 10
454035.596
 20
244806.238
 30
161.918
 70
    32
  0
VERTEX
  5
872
330
86D
100
AcDbEntity
  8
C1045
100
AcDbVertex
100
AcDb3dPolylineVertex
 10
454035.8013723277
 20
244806.2989904252
 30
161.931
 70
    32
  0
VERTEX
  5
873
330
86D
100
AcDbEntity
  8
C1045
100
AcDbVertex
100
AcDb3dPolylineVertex
 10
454035.926
 20
244806.416
 30
161.951
 70
    32
  0
VERTEX
  5
874
330
86D
100
AcDbEntity
  8
C1045
100
AcDbVertex
100
AcDb3dPolylineVertex
 10
454036.016
 20
244806.552
 30
161.965
 70
    32
  0
VERTEX
  5
875
330
86D
100
AcDbEntity
  8
C1045
100
AcDbVertex
100
AcDb3dPolylineVertex
 10
454036.036
 20
244806.706
 30
161.963
 70
    32
  0
VERTEX
  5
876
330
86D
100
AcDbEntity
  8
C1045
100
AcDbVertex
100
AcDb3dPolylineVertex
 10
454035.9830000001
 20
244806.874
 30
161.972
 70
    32
  0
VERTEX
  5
877
330
86D
100
AcDbEntity
  8
C1045
100
AcDbVertex
100
AcDb3dPolylineVertex
 10
454035.855
 20
244807.032
 30
162.018
 70
    32
  0
VERTEX
  5
878
330
86D
100
AcDbEntity
  8
C1045
100
AcDbVertex
100
AcDb3dPolylineVertex
 10
454035.589
 20
244807.0774949401
 30
162.008
 70
    32
  0
VERTEX
  5
879
330
86D
100
AcDbEntity
  8
C1045
100
AcDbVertex
100
AcDb3dPolylineVertex
 10
454035.371
 20
244807.021
 30
162.006
 70
    32
  0
VERTEX
  5
87A
330
86D
100
AcDbEntity
  8
C1045
100
AcDbVertex
100
AcDb3dPolylineVertex
 10
454035.221662819
 20
244806.925735298
 30
161.985
 70
    32
  0
VERTEX
  5
87B
330
86D
100
AcDbEntity
  8
C1045
100
AcDbVertex
100
AcDb3dPolylineVertex
 10
454035.117
 20
244806.755
 30
161.968
 70
    32
  0
SEQEND
  5
87C
330
86D
100
AcDbEntity
  8
C1045
  0
POINT
  5
87E
330
1F
100
AcDbEntity
  8
L1046
100
AcDbPoint
 10
454035.59
 20
244806.777
 30
161.966
  0
LINE
  5
890
330
1F
100
AcDbEntity
  8
PRE
100
AcDbLine
 10
453971.608828814
 20
244811.5962309378
 30
160.5539043841866
 11
453972.077
 21
244810.888
 31
160.498
  0
LINE
  5
891
330
1F
100
AcDbEntity
  8
PRE
100
AcDbLine
 10
453973.143
 20
244809.712
 30
160.484
 11
453973.659
 21
244808.948
 31
160.464
  0
LINE
  5
892
330
1F
100
AcDbEntity
  8
PRE
100
AcDbLine
 10
453973.659
 20
244808.948
 30
160.464
 11
453974.074
 21
244807.426
 31
160.475
  0
LINE
  5
899
330
1F
100
AcDbEntity
  8
PRE
100
AcDbLine
 10
453973.587
 20
244807.32
 30
160.474
 11
453973.064
 21
244809.125
 31
160.462
  0
LINE
  5
89A
330
1F
100
AcDbEntity
  8
PRE
100
AcDbLine
 10
453973.064
 20
244809.125
 30
160.462
 11
453972.894
 21
244809.494
 31
160.485
  0
LINE
  5
89B
330
1F
100
AcDbEntity
  8
PRE
100
AcDbLine
 10
453971.905
 20
244810.496
 30
160.473
 11
453970.9240000001
 21
244811.245
 31
160.436
  0
LINE
  5
8A2
330
1F
100
AcDbEntity
  8
PRE
100
AcDbLine
 10
454042.63
 20
244801.655
 30
162.016
 11
454043.832
 21
244802.191
 31
162.013
  0
LINE
  5
8A3
330
1F
100
AcDbEntity
  8
PRE
100
AcDbLine
 10
454042.63
 20
244801.655
 30
162.016
 11
454042.0760226326
 21
244804.2345396378
 31
161.989
  0
LINE
  5
8A4
330
1F
100
AcDbEntity
  8
PRE
100
AcDbLine
 10
454042.0760226326
 20
244804.2345396378
 30
161.989
 11
454040.149
 21
244809.836
 31
161.989
  0
LINE
  5
8A6
330
1F
100
AcDbEntity
  8
PRE
100
AcDbLine
 10
454038.549
 20
244810.611
 30
162.023
 11
454036.179
 21
244812.486
 31
161.978
  0
LINE
  5
8A7
330
1F
100
AcDbEntity
  8
PRE
100
AcDbLine
 10
454036.179
 20
244812.486
 30
161.978
 11
454032.5271588883
 21
244815.4219554811
 31
162.0541409197284
  0
POINT
  5
9EB
330
1F
100
AcDbEntity
  8
SF001
100
AcDbPoint
 10
453985.414
 20
244795.17
 30
160.18
  0
POINT
  5
9EE
330
1F
100
AcDbEntity
  8
SF002
100
AcDbPoint
 10
453986.004
 20
244794.719
 30
160.175
  0
POINT
  5
9F1
330
1F
100
AcDbEntity
  8
SF003
100
AcDbPoint
 10
453990.9350000001
 20
244800.321
 30
160.664
  0
POLYLINE
  5
9F4
330
1F
100
AcDbEntity
  8
DP010
100
AcDb3dPolyline
 66
     1
 10
0.0
 20
0.0
 30
0.0
 70
     8
  0
VERTEX
  5
9F5
330
9F4
100
AcDbEntity
  8
DP010
100
AcDbVertex
100
AcDb3dPolylineVertex
 10
453985.5930000001
 20
244795.804
 30
160.61
 70
    32
  0
VERTEX
  5
9F6
330
9F4
100
AcDbEntity
  8
DP010
100
AcDbVertex
100
AcDb3dPolylineVertex
 10
453985.472
 20
244793.814
 30
160.548
 70
    32
  0
SEQEND
  5
9F7
330
9F4
100
AcDbEntity
  8
DP010
  0
POLYLINE
  5
9FA
330
1F
100
AcDbEntity
  8
S1061
100
AcDb3dPolyline
 66
     1
 10
0.0
 20
0.0
 30
0.0
 70
     9
  0
VERTEX
  5
9FB
330
9FA
100
AcDbEntity
  8
S1061
100
AcDbVertex
100
AcDb3dPolylineVertex
 10
453985.547
 20
244795.69
 30
160.553
 70
    32
  0
VERTEX
  5
9FC
330
9FA
100
AcDbEntity
  8
S1061
100
AcDbVertex
100
AcDb3dPolylineVertex
 10
453985.546
 20
244795.522
 30
160.317
 70
    32
  0
VERTEX
  5
9FD
330
9FA
100
AcDbEntity
  8
S1061
100
AcDbVertex
100
AcDb3dPolylineVertex
 10
453985.566
 20
244795.31
 30
160.012
 70
    32
  0
VERTEX
  5
9FE
330
9FA
100
AcDbEntity
  8
S1061
100
AcDbVertex
100
AcDb3dPolylineVertex
 10
453985.587
 20
244795.272
 30
159.926
 70
    32
  0
VERTEX
  5
9FF
330
9FA
100
AcDbEntity
  8
S1061
100
AcDbVertex
100
AcDb3dPolylineVertex
 10
453985.522
 20
244794.918
 30
159.832
 70
    32
  0
VERTEX
  5
A00
330
9FA
100
AcDbEntity
  8
S1061
100
AcDbVertex
100
AcDb3dPolylineVertex
 10
453985.508
 20
244794.514
 30
159.862
 70
    32
  0
VERTEX
  5
A01
330
9FA
100
AcDbEntity
  8
S1061
100
AcDbVertex
100
AcDb3dPolylineVertex
 10
453985.48
 20
244794.326
 30
159.98
 70
    32
  0
VERTEX
  5
A02
330
9FA
100
AcDbEntity
  8
S1061
100
AcDbVertex
100
AcDb3dPolylineVertex
 10
453985.458
 20
244794.211
 30
160.337
 70
    32
  0
VERTEX
  5
A03
330
9FA
100
AcDbEntity
  8
S1061
100
AcDbVertex
100
AcDb3dPolylineVertex
 10
453985.4730000001
 20
244794.094
 30
160.488
 70
    32
  0
VERTEX
  5
A04
330
9FA
100
AcDbEntity
  8
S1061
100
AcDbVertex
100
AcDb3dPolylineVertex
 10
453985.486
 20
244794.116
 30
160.487
 70
    32
  0
SEQEND
  5
A05
330
9FA
100
AcDbEntity
  8
S1061
  0
POINT
  5
A08
330
1F
100
AcDbEntity
  8
L1062
100
AcDbPoint
 10
453985.5822644635
 20
244794.8504053755
 30
160.481
  0
POLYLINE
  5
A0B
330
1F
100
AcDbEntity
  8
C1061
100
AcDb3dPolyline
 66
     1
 10
0.0
 20
0.0
 30
0.0
 70
     9
  0
VERTEX
  5
A0C
330
A0B
100
AcDbEntity
  8
C1061
100
AcDbVertex
100
AcDb3dPolylineVertex
 10
453984.772
 20
244794.763
 30
160.521
 70
    32
  0
VERTEX
  5
A0D
330
A0B
100
AcDbEntity
  8
C1061
100
AcDbVertex
100
AcDb3dPolylineVertex
 10
453984.808
 20
244795.238
 30
160.532
 70
    32
  0
VERTEX
  5
A0E
330
A0B
100
AcDbEntity
  8
C1061
100
AcDbVertex
100
AcDb3dPolylineVertex
 10
453985.132
 20
244795.635
 30
160.559
 70
    32
  0
VERTEX
  5
A0F
330
A0B
100
AcDbEntity
  8
C1061
100
AcDbVertex
100
AcDb3dPolylineVertex
 10
453985.743
 20
244795.646
 30
160.565
 70
    32
  0
VERTEX
  5
A10
330
A0B
100
AcDbEntity
  8
C1061
100
AcDbVertex
100
AcDb3dPolylineVertex
 10
453986.184
 20
244795.36
 30
160.528
 70
    32
  0
VERTEX
  5
A11
330
A0B
100
AcDbEntity
  8
C1061
100
AcDbVertex
100
AcDb3dPolylineVertex
 10
453986.3
 20
244794.714
 30
160.544
 70
    32
  0
VERTEX
  5
A12
330
A0B
100
AcDbEntity
  8
C1061
100
AcDbVertex
100
AcDb3dPolylineVertex
 10
453986.03
 20
244794.242
 30
160.488
 70
    32
  0
VERTEX
  5
A13
330
A0B
100
AcDbEntity
  8
C1061
100
AcDbVertex
100
AcDb3dPolylineVertex
 10
453985.583
 20
244794.071
 30
160.465
 70
    32
  0
VERTEX
  5
A14
330
A0B
100
AcDbEntity
  8
C1061
100
AcDbVertex
100
AcDb3dPolylineVertex
 10
453985.264
 20
244794.146
 30
160.459
 70
    32
  0
VERTEX
  5
A15
330
A0B
100
AcDbEntity
  8
C1061
100
AcDbVertex
100
AcDb3dPolylineVertex
 10
453985.027
 20
244794.321
 30
160.519
 70
    32
  0
SEQEND
  5
A16
330
A0B
100
AcDbEntity
  8
C1061
  0
POLYLINE
  5
A19
330
1F
100
AcDbEntity
  8
B1061
100
AcDb3dPolyline
 66
     1
 10
0.0
 20
0.0
 30
0.0
 70
     9
  0
VERTEX
  5
A1A
330
A19
100
AcDbEntity
  8
B1061
100
AcDbVertex
100
AcDb3dPolylineVertex
 10
453985.2444394577
 20
244794.7662879556
 30
159.871
 70
    32
  0
VERTEX
  5
A1B
330
A19
100
AcDbEntity
  8
B1061
100
AcDbVertex
100
AcDb3dPolylineVertex
 10
453985.265
 20
244794.923
 30
159.884
 70
    32
  0
VERTEX
  5
A1C
330
A19
100
AcDbEntity
  8
B1061
100
AcDbVertex
100
AcDb3dPolylineVertex
 10
453985.365
 20
244795.091
 30
159.875
 70
    32
  0
VERTEX
  5
A1D
330
A19
100
AcDbEntity
  8
B1061
100
AcDbVertex
100
AcDb3dPolylineVertex
 10
453985.528
 20
244795.239
 30
159.914
 70
    32
  0
VERTEX
  5
A1E
330
A19
100
AcDbEntity
  8
B1061
100
AcDbVertex
100
AcDb3dPolylineVertex
 10
453985.845
 20
244795.152
 30
159.896
 70
    32
  0
VERTEX
  5
A1F
330
A19
100
AcDbEntity
  8
B1061
100
AcDbVertex
100
AcDb3dPolylineVertex
 10
453986.035
 20
244794.826
 30
159.934
 70
    32
  0
VERTEX
  5
A20
330
A19
100
AcDbEntity
  8
B1061
100
AcDbVertex
100
AcDb3dPolylineVertex
 10
453985.906
 20
244794.544
 30
159.896
 70
    32
  0
VERTEX
  5
A21
330
A19
100
AcDbEntity
  8
B1061
100
AcDbVertex
100
AcDb3dPolylineVertex
 10
453985.636
 20
244794.366
 30
159.899
 70
    32
  0
VERTEX
  5
A22
330
A19
100
AcDbEntity
  8
B1061
100
AcDbVertex
100
AcDb3dPolylineVertex
 10
453985.471
 20
244794.443
 30
159.884
 70
    32
  0
VERTEX
  5
A23
330
A19
100
AcDbEntity
  8
B1061
100
AcDbVertex
100
AcDb3dPolylineVertex
 10
453985.357
 20
244794.5090303076
 30
159.871
 70
    32
  0
VERTEX
  5
A24
330
A19
100
AcDbEntity
  8
B1061
100
AcDbVertex
100
AcDb3dPolylineVertex
 10
453985.257
 20
244794.641
 30
159.908
 70
    32
  0
SEQEND
  5
A25
330
A19
100
AcDbEntity
  8
B1061
  0
POLYLINE
  5
A28
330
1F
100
AcDbEntity
  8
C1072
100
AcDb3dPolyline
 66
     1
 10
0.0
 20
0.0
 30
0.0
 70
     8
  0
VERTEX
  5
A29
330
A28
100
AcDbEntity
  8
C1072
100
AcDbVertex
100
AcDb3dPolylineVertex
 10
454002.349
 20
244800.942
 30
161.075
 70
    32
  0
VERTEX
  5
A2A
330
A28
100
AcDbEntity
  8
C1072
100
AcDbVertex
100
AcDb3dPolylineVertex
 10
454002.221
 20
244799.973
 30
161.039
 70
    32
  0
VERTEX
  5
A2B
330
A28
100
AcDbEntity
  8
C1072
100
AcDbVertex
100
AcDb3dPolylineVertex
 10
454001.963
 20
244799.001
 30
160.952
 70
    32
  0
VERTEX
  5
A2C
330
A28
100
AcDbEntity
  8
C1072
100
AcDbVertex
100
AcDb3dPolylineVertex
 10
454001.899
 20
244797.948
 30
160.958
 70
    32
  0
VERTEX
  5
A2D
330
A28
100
AcDbEntity
  8
C1072
100
AcDbVertex
100
AcDb3dPolylineVertex
 10
454002.241
 20
244796.374
 30
160.939
 70
    32
  0
VERTEX
  5
A2E
330
A28
100
AcDbEntity
  8
C1072
100
AcDbVertex
100
AcDb3dPolylineVertex
 10
454002.502
 20
244795.201
 30
160.919
 70
    32
  0
SEQEND
  5
A2F
330
A28
100
AcDbEntity
  8
C1072
  0
POLYLINE
  5
A31
330
1F
100
AcDbEntity
  8
C1072
100
AcDb3dPolyline
 66
     1
 10
0.0
 20
0.0
 30
0.0
 70
     8
  0
VERTEX
  5
A32
330
A31
100
AcDbEntity
  8
C1072
100
AcDbVertex
100
AcDb3dPolylineVertex
 10
454005.679
 20
244795.254
 30
160.962
 70
    32
  0
VERTEX
  5
A33
330
A31
100
AcDbEntity
  8
C1072
100
AcDbVertex
100
AcDb3dPolylineVertex
 10
454005.6
 20
244796.632
 30
161.01
 70
    32
  0
VERTEX
  5
A34
330
A31
100
AcDbEntity
  8
C1072
100
AcDbVertex
100
AcDb3dPolylineVertex
 10
454005.595
 20
244798.176
 30
161.051
 70
    32
  0
VERTEX
  5
A35
330
A31
100
AcDbEntity
  8
C1072
100
AcDbVertex
100
AcDb3dPolylineVertex
 10
454005.574
 20
244799.492
 30
161.064
 70
    32
  0
VERTEX
  5
A36
330
A31
100
AcDbEntity
  8
C1072
100
AcDbVertex
100
AcDb3dPolylineVertex
 10
454005.607
 20
244801.234
 30
161.142
 70
    32
  0
SEQEND
  5
A37
330
A31
100
AcDbEntity
  8
C1072
  0
POLYLINE
  5
A3A
330
1F
100
AcDbEntity
  8
DP013
100
AcDb3dPolyline
 66
     1
 10
0.0
 20
0.0
 30
0.0
 70
     8
  0
VERTEX
  5
A3B
330
A3A
100
AcDbEntity
  8
DP013
100
AcDbVertex
100
AcDb3dPolylineVertex
 10
454002.0622661388
 20
244799.5250529647
 30
161.07
 70
    32
  0
VERTEX
  5
A3C
330
A3A
100
AcDbEntity
  8
DP013
100
AcDbVertex
100
AcDb3dPolylineVertex
 10
454005.6589797227
 20
244799.6823436462
 30
161.114
 70
    32
  0
SEQEND
  5
A3D
330
A3A
100
AcDbEntity
  8
DP013
  0
POLYLINE
  5
A40
330
1F
100
AcDbEntity
  8
S1072
100
AcDb3dPolyline
 66
     1
 10
0.0
 20
0.0
 30
0.0
 70
     8
  0
VERTEX
  5
A41
330
A40
100
AcDbEntity
  8
S1072
100
AcDbVertex
100
AcDb3dPolylineVertex
 10
454002.6459999999
 20
244799.41
 30
161.009
 70
    32
  0
VERTEX
  5
A42
330
A40
100
AcDbEntity
  8
S1072
100
AcDbVertex
100
AcDb3dPolylineVertex
 10
454002.905
 20
244799.421
 30
160.925
 70
    32
  0
VERTEX
  5
A43
330
A40
100
AcDbEntity
  8
S1072
100
AcDbVertex
100
AcDb3dPolylineVertex
 10
454003.1519999999
 20
244799.412
 30
160.6
 70
    32
  0
VERTEX
  5
A44
330
A40
100
AcDbEntity
  8
S1072
100
AcDbVertex
100
AcDb3dPolylineVertex
 10
454003.262
 20
244799.398
 30
160.405
 70
    32
  0
VERTEX
  5
A45
330
A40
100
AcDbEntity
  8
S1072
100
AcDbVertex
100
AcDb3dPolylineVertex
 10
454003.534
 20
244799.374
 30
160.174
 70
    32
  0
SEQEND
  5
A46
330
A40
100
AcDbEntity
  8
S1072
  0
POLYLINE
  5
A48
330
1F
100
AcDbEntity
  8
S1072
100
AcDb3dPolyline
 66
     1
 10
0.0
 20
0.0
 30
0.0
 70
     8
  0
VERTEX
  5
A49
330
A48
100
AcDbEntity
  8
S1072
100
AcDbVertex
100
AcDb3dPolylineVertex
 10
454004.4130000001
 20
244799.405
 30
160.131
 70
    32
  0
VERTEX
  5
A4A
330
A48
100
AcDbEntity
  8
S1072
100
AcDbVertex
100
AcDb3dPolylineVertex
 10
454004.937
 20
244799.451
 30
160.498
 70
    32
  0
VERTEX
  5
A4B
330
A48
100
AcDbEntity
  8
S1072
100
AcDbVertex
100
AcDb3dPolylineVertex
 10
454005.125
 20
244799.481
 30
160.634
 70
    32
  0
VERTEX
  5
A4C
330
A48
100
AcDbEntity
  8
S1072
100
AcDbVertex
100
AcDb3dPolylineVertex
 10
454005.356
 20
244799.536
 30
160.977
 70
    32
  0
SEQEND
  5
A4D
330
A48
100
AcDbEntity
  8
S1072
  0
POLYLINE
  5
A4F
330
1F
100
AcDbEntity
  8
S1072
100
AcDb3dPolyline
 66
     1
 10
0.0
 20
0.0
 30
0.0
 70
     8
  0
VERTEX
  5
A50
330
A4F
100
AcDbEntity
  8
S1072
100
AcDbVertex
100
AcDb3dPolylineVertex
 10
454002.451
 20
244797.364
 30
160.963
 70
    32
  0
VERTEX
  5
A51
330
A4F
100
AcDbEntity
  8
S1072
100
AcDbVertex
100
AcDb3dPolylineVertex
 10
454002.6579999999
 20
244797.43
 30
160.684
 70
    32
  0
VERTEX
  5
A52
330
A4F
100
AcDbEntity
  8
S1072
100
AcDbVertex
100
AcDb3dPolylineVertex
 10
454003.014
 20
244797.426
 30
160.33
 70
    32
  0
VERTEX
  5
A53
330
A4F
100
AcDbEntity
  8
S1072
100
AcDbVertex
100
AcDb3dPolylineVertex
 10
454003.356
 20
244797.424
 30
160.123
 70
    32
  0
SEQEND
  5
A54
330
A4F
100
AcDbEntity
  8
S1072
  0
POLYLINE
  5
A56
330
1F
100
AcDbEntity
  8
S1072
100
AcDb3dPolyline
 66
     1
 10
0.0
 20
0.0
 30
0.0
 70
     8
  0
VERTEX
  5
A57
330
A56
100
AcDbEntity
  8
S1072
100
AcDbVertex
100
AcDb3dPolylineVertex
 10
454004.345
 20
244797.39
 30
160.085
 70
    32
  0
VERTEX
  5
A58
330
A56
100
AcDbEntity
  8
S1072
100
AcDbVertex
100
AcDb3dPolylineVertex
 10
454004.677
 20
244797.389
 30
160.253
 70
    32
  0
VERTEX
  5
A59
330
A56
100
AcDbEntity
  8
S1072
100
AcDbVertex
100
AcDb3dPolylineVertex
 10
454004.956
 20
244797.326
 30
160.532
 70
    32
  0
VERTEX
  5
A5A
330
A56
100
AcDbEntity
  8
S1072
100
AcDbVertex
100
AcDb3dPolylineVertex
 10
454005.536
 20
244797.288
 30
161.061
 70
    32
  0
SEQEND
  5
A5B
330
A56
100
AcDbEntity
  8
S1072
  0
POINT
  5
A5E
330
1F
100
AcDbEntity
  8
L1071
100
AcDbPoint
 10
454003.964
 20
244799.448
 30
160.312
  0
POINT
  5
A61
330
1F
100
AcDbEntity
  8
L1070
100
AcDbPoint
 10
454003.996
 20
244799.52
 30
160.961
  0
POINT
  5
A64
330
1F
100
AcDbEntity
  8
L1069
100
AcDbPoint
 10
454004.018
 20
244799.566
 30
161.062
  0
POLYLINE
  5
A67
330
1F
100
AcDbEntity
  8
DP012
100
AcDb3dPolyline
 66
     1
 10
0.0
 20
0.0
 30
0.0
 70
     8
  0
VERTEX
  5
A68
330
A67
100
AcDbEntity
  8
DP012
100
AcDbVertex
100
AcDb3dPolylineVertex
 10
453999.7990000001
 20
244786.472
 30
160.523
 70
    32
  0
VERTEX
  5
A69
330
A67
100
AcDbEntity
  8
DP012
100
AcDbVertex
100
AcDb3dPolylineVertex
 10
454001.4190000001
 20
244780.451
 30
160.513
 70
    32
  0
SEQEND
  5
A6A
330
A67
100
AcDbEntity
  8
DP012
  0
POLYLINE
  5
A6D
330
1F
100
AcDbEntity
  8
C1063
100
AcDb3dPolyline
 66
     1
 10
0.0
 20
0.0
 30
0.0
 70
     8
  0
VERTEX
  5
A6E
330
A6D
100
AcDbEntity
  8
C1063
100
AcDbVertex
100
AcDb3dPolylineVertex
 10
453998.6679999999
 20
244784.011
 30
160.287
 70
    32
  0
VERTEX
  5
A6F
330
A6D
100
AcDbEntity
  8
C1063
100
AcDbVertex
100
AcDb3dPolylineVertex
 10
453999.431
 20
244784.338
 30
160.353
 70
    32
  0
VERTEX
  5
A70
330
A6D
100
AcDbEntity
  8
C1063
100
AcDbVertex
100
AcDb3dPolylineVertex
 10
454000.21
 20
244784.818
 30
160.413
 70
    32
  0
VERTEX
  5
A71
330
A6D
100
AcDbEntity
  8
C1063
100
AcDbVertex
100
AcDb3dPolylineVertex
 10
454001.125
 20
244785.394
 30
160.381
 70
    32
  0
VERTEX
  5
A72
330
A6D
100
AcDbEntity
  8
C1063
100
AcDbVertex
100
AcDb3dPolylineVertex
 10
454001.69
 20
244786.026
 30
160.436
 70
    32
  0
VERTEX
  5
A73
330
A6D
100
AcDbEntity
  8
C1063
100
AcDbVertex
100
AcDb3dPolylineVertex
 10
454002.1479999999
 20
244787.764
 30
160.596
 70
    32
  0
SEQEND
  5
A74
330
A6D
100
AcDbEntity
  8
C1063
  0
POLYLINE
  5
A76
330
1F
100
AcDbEntity
  8
C1063
100
AcDb3dPolyline
 66
     1
 10
0.0
 20
0.0
 30
0.0
 70
     8
  0
VERTEX
  5
A77
330
A76
100
AcDbEntity
  8
C1063
100
AcDbVertex
100
AcDb3dPolylineVertex
 10
454005.568
 20
244786.555
 30
160.599
 70
    32
  0
VERTEX
  5
A78
330
A76
100
AcDbEntity
  8
C1063
100
AcDbVertex
100
AcDb3dPolylineVertex
 10
454005.464
 20
244784.759
 30
160.372
 70
    32
  0
VERTEX
  5
A79
330
A76
100
AcDbEntity
  8
C1063
100
AcDbVertex
100
AcDb3dPolylineVertex
 10
454004.874
 20
244782.655
 30
160.252
 70
    32
  0
VERTEX
  5
A7A
330
A76
100
AcDbEntity
  8
C1063
100
AcDbVertex
100
AcDb3dPolylineVertex
 10
454003.194
 20
244781.583
 30
160.166
 70
    32
  0
VERTEX
  5
A7B
330
A76
100
AcDbEntity
  8
C1063
100
AcDbVertex
100
AcDb3dPolylineVertex
 10
454001.378
 20
244781.064
 30
160.077
 70
    32
  0
VERTEX
  5
A7C
330
A76
100
AcDbEntity
  8
C1063
100
AcDbVertex
100
AcDb3dPolylineVertex
 10
453999.586
 20
244780.774
 30
160.063
 70
    32
  0
SEQEND
  5
A7D
330
A76
100
AcDbEntity
  8
C1063
  0
POLYLINE
  5
A80
330
1F
100
AcDbEntity
  8
S1063
100
AcDb3dPolyline
 66
     1
 10
0.0
 20
0.0
 30
0.0
 70
     8
  0
VERTEX
  5
A81
330
A80
100
AcDbEntity
  8
S1063
100
AcDbVertex
100
AcDb3dPolylineVertex
 10
454001.32
 20
244781.282
 30
160.095
 70
    32
  0
VERTEX
  5
A82
330
A80
100
AcDbEntity
  8
S1063
100
AcDbVertex
100
AcDb3dPolylineVertex
 10
454001.333
 20
244781.603
 30
159.734
 70
    32
  0
VERTEX
  5
A83
330
A80
100
AcDbEntity
  8
S1063
100
AcDbVertex
100
AcDb3dPolylineVertex
 10
454001.253
 20
244782.017
 30
159.487
 70
    32
  0
VERTEX
  5
A84
330
A80
100
AcDbEntity
  8
S1063
100
AcDbVertex
100
AcDb3dPolylineVertex
 10
454001.137
 20
244782.511
 30
159.379
 70
    32
  0
SEQEND
  5
A85
330
A80
100
AcDbEntity
  8
S1063
  0
POLYLINE
  5
A87
330
1F
100
AcDbEntity
  8
S1063
100
AcDb3dPolyline
 66
     1
 10
0.0
 20
0.0
 30
0.0
 70
     8
  0
VERTEX
  5
A88
330
A87
100
AcDbEntity
  8
S1063
100
AcDbVertex
100
AcDb3dPolylineVertex
 10
454000.713
 20
244783.888
 30
159.43
 70
    32
  0
VERTEX
  5
A89
330
A87
100
AcDbEntity
  8
S1063
100
AcDbVertex
100
AcDb3dPolylineVertex
 10
454000.566
 20
244784.169
 30
159.659
 70
    32
  0
VERTEX
  5
A8A
330
A87
100
AcDbEntity
  8
S1063
100
AcDbVertex
100
AcDb3dPolylineVertex
 10
454000.345
 20
244784.69
 30
159.992
 70
    32
  0
VERTEX
  5
A8B
330
A87
100
AcDbEntity
  8
S1063
100
AcDbVertex
100
AcDb3dPolylineVertex
 10
454000.237
 20
244784.937
 30
160.233
 70
    32
  0
VERTEX
  5
A8C
330
A87
100
AcDbEntity
  8
S1063
100
AcDbVertex
100
AcDb3dPolylineVertex
 10
454000.116
 20
244784.99
 30
160.435
 70
    32
  0
SEQEND
  5
A8D
330
A87
100
AcDbEntity
  8
S1063
  0
POLYLINE
  5
A8F
330
1F
100
AcDbEntity
  8
S1063
100
AcDb3dPolyline
 66
     1
 10
0.0
 20
0.0
 30
0.0
 70
     8
  0
VERTEX
  5
A90
330
A8F
100
AcDbEntity
  8
S1063
100
AcDbVertex
100
AcDb3dPolylineVertex
 10
454002.115
 20
244785.903
 30
160.448
 70
    32
  0
VERTEX
  5
A91
330
A8F
100
AcDbEntity
  8
S1063
100
AcDbVertex
100
AcDb3dPolylineVertex
 10
454002.1419999999
 20
244785.524
 30
159.98
 70
    32
  0
VERTEX
  5
A92
330
A8F
100
AcDbEntity
  8
S1063
100
AcDbVertex
100
AcDb3dPolylineVertex
 10
454002.202
 20
244785.062
 30
159.658
 70
    32
  0
VERTEX
  5
A93
330
A8F
100
AcDbEntity
  8
S1063
100
AcDbVertex
100
AcDb3dPolylineVertex
 10
454002.262
 20
244784.493
 30
159.478
 70
    32
  0
SEQEND
  5
A94
330
A8F
100
AcDbEntity
  8
S1063
  0
POLYLINE
  5
A96
330
1F
100
AcDbEntity
  8
S1063
100
AcDb3dPolyline
 66
     1
 10
0.0
 20
0.0
 30
0.0
 70
     8
  0
VERTEX
  5
A97
330
A96
100
AcDbEntity
  8
S1063
100
AcDbVertex
100
AcDb3dPolylineVertex
 10
454002.664
 20
244782.901
 30
159.414
 70
    32
  0
VERTEX
  5
A98
330
A96
100
AcDbEntity
  8
S1063
100
AcDbVertex
100
AcDb3dPolylineVertex
 10
454002.903
 20
244782.511
 30
159.594
 70
    32
  0
VERTEX
  5
A99
330
A96
100
AcDbEntity
  8
S1063
100
AcDbVertex
100
AcDb3dPolylineVertex
 10
454003.007
 20
244782.339
 30
159.839
 70
    32
  0
VERTEX
  5
A9A
330
A96
100
AcDbEntity
  8
S1063
100
AcDbVertex
100
AcDb3dPolylineVertex
 10
454003.175
 20
244781.955
 30
160.044
 70
    32
  0
VERTEX
  5
A9B
330
A96
100
AcDbEntity
  8
S1063
100
AcDbVertex
100
AcDb3dPolylineVertex
 10
454003.273
 20
244781.626
 30
160.173
 70
    32
  0
SEQEND
  5
A9C
330
A96
100
AcDbEntity
  8
S1063
  0
POINT
  5
A9F
330
1F
100
AcDbEntity
  8
L1068
100
AcDbPoint
 10
454000.981
 20
244782.888
 30
159.516
  0
POINT
  5
AA2
330
1F
100
AcDbEntity
  8
L1067
100
AcDbPoint
 10
454000.982
 20
244782.807
 30
159.621
  0
POINT
  5
AA5
330
1F
100
AcDbEntity
  8
L1066
100
AcDbPoint
 10
454001.2390000001
 20
244781.606
 30
159.943
  0
POINT
  5
AA8
330
1F
100
AcDbEntity
  8
L1065
100
AcDbPoint
 10
454000.879
 20
244783.005
 30
159.942
  0
POINT
  5
AAB
330
1F
100
AcDbEntity
  8
L1064
100
AcDbPoint
 10
454000.639
 20
244783.027
 30
160.245
  0
POLYLINE
  5
AAE
330
1F
100
AcDbEntity
  8
DP009
100
AcDb3dPolyline
 66
     1
 10
0.0
 20
0.0
 30
0.0
 70
     8
  0
VERTEX
  5
AAF
330
AAE
100
AcDbEntity
  8
DP009
100
AcDbVertex
100
AcDb3dPolylineVertex
 10
453990.77
 20
244799.918
 30
160.778
 70
    32
  0
VERTEX
  5
AB0
330
AAE
100
AcDbEntity
  8
DP009
100
AcDbVertex
100
AcDb3dPolylineVertex
 10
453990.732
 20
244801.498
 30
160.791
 70
    32
  0
SEQEND
  5
AB1
330
AAE
100
AcDbEntity
  8
DP009
  0
POLYLINE
  5
AB4
330
1F
100
AcDbEntity
  8
C1056
100
AcDb3dPolyline
 66
     1
 10
0.0
 20
0.0
 30
0.0
 70
     9
  0
VERTEX
  5
AB5
330
AB4
100
AcDbEntity
  8
C1056
100
AcDbVertex
100
AcDb3dPolylineVertex
 10
453990.156
 20
244800.845
 30
160.767
 70
    32
  0
VERTEX
  5
AB6
330
AB4
100
AcDbEntity
  8
C1056
100
AcDbVertex
100
AcDb3dPolylineVertex
 10
453990.47
 20
244801.27
 30
160.748
 70
    32
  0
VERTEX
  5
AB7
330
AB4
100
AcDbEntity
  8
C1056
100
AcDbVertex
100
AcDb3dPolylineVertex
 10
453990.945
 20
244801.369
 30
160.733
 70
    32
  0
VERTEX
  5
AB8
330
AB4
100
AcDbEntity
  8
C1056
100
AcDbVertex
100
AcDb3dPolylineVertex
 10
453991.4
 20
244801.013
 30
160.763
 70
    32
  0
VERTEX
  5
AB9
330
AB4
100
AcDbEntity
  8
C1056
100
AcDbVertex
100
AcDb3dPolylineVertex
 10
453991.374
 20
244800.396
 30
160.749
 70
    32
  0
VERTEX
  5
ABA
330
AB4
100
AcDbEntity
  8
C1056
100
AcDbVertex
100
AcDb3dPolylineVertex
 10
453990.71
 20
244800.076
 30
160.714
 70
    32
  0
VERTEX
  5
ABB
330
AB4
100
AcDbEntity
  8
C1056
100
AcDbVertex
100
AcDb3dPolylineVertex
 10
453990.213
 20
244800.355
 30
160.693
 70
    32
  0
VERTEX
  5
ABC
330
AB4
100
AcDbEntity
  8
C1056
100
AcDbVertex
100
AcDb3dPolylineVertex
 10
453990.1469999999
 20
244800.719
 30
160.759
 70
    32
  0
SEQEND
  5
ABD
330
AB4
100
AcDbEntity
  8
C1056
  0
POLYLINE
  5
AC0
330
1F
100
AcDbEntity
  8
B1056
100
AcDb3dPolyline
 66
     1
 10
0.0
 20
0.0
 30
0.0
 70
     9
  0
VERTEX
  5
AC1
330
AC0
100
AcDbEntity
  8
B1056
100
AcDbVertex
100
AcDb3dPolylineVertex
 10
453990.689
 20
244800.393
 30
160.314
 70
    32
  0
VERTEX
  5
AC2
330
AC0
100
AcDbEntity
  8
B1056
100
AcDbVertex
100
AcDb3dPolylineVertex
 10
453990.4890000001
 20
244800.557
 30
160.318
 70
    32
  0
VERTEX
  5
AC3
330
AC0
100
AcDbEntity
  8
B1056
100
AcDbVertex
100
AcDb3dPolylineVertex
 10
453990.397
 20
244800.909
 30
160.287
 70
    32
  0
VERTEX
  5
AC4
330
AC0
100
AcDbEntity
  8
B1056
100
AcDbVertex
100
AcDb3dPolylineVertex
 10
453990.649
 20
244801.189
 30
160.358
 70
    32
  0
VERTEX
  5
AC5
330
AC0
100
AcDbEntity
  8
B1056
100
AcDbVertex
100
AcDb3dPolylineVertex
 10
453991.078
 20
244801.09
 30
160.367
 70
    32
  0
VERTEX
  5
AC6
330
AC0
100
AcDbEntity
  8
B1056
100
AcDbVertex
100
AcDb3dPolylineVertex
 10
453991.115
 20
244800.609
 30
160.327
 70
    32
  0
VERTEX
  5
AC7
330
AC0
100
AcDbEntity
  8
B1056
100
AcDbVertex
100
AcDb3dPolylineVertex
 10
453990.928
 20
244800.486
 30
160.328
 70
    32
  0
SEQEND
  5
AC8
330
AC0
100
AcDbEntity
  8
B1056
  0
POLYLINE
  5
ACB
330
1F
100
AcDbEntity
  8
S1056
100
AcDb3dPolyline
 66
     1
 10
0.0
 20
0.0
 30
0.0
 70
     8
  0
VERTEX
  5
ACC
330
ACB
100
AcDbEntity
  8
S1056
100
AcDbVertex
100
AcDb3dPolylineVertex
 10
453990.755
 20
244801.448
 30
160.777
 70
    32
  0
VERTEX
  5
ACD
330
ACB
100
AcDbEntity
  8
S1056
100
AcDbVertex
100
AcDb3dPolylineVertex
 10
453990.776
 20
244801.33
 30
160.64
 70
    32
  0
VERTEX
  5
ACE
330
ACB
100
AcDbEntity
  8
S1056
100
AcDbVertex
100
AcDb3dPolylineVertex
 10
453990.802
 20
244801.204
 30
160.357
 70
    32
  0
VERTEX
  5
ACF
330
ACB
100
AcDbEntity
  8
S1056
100
AcDbVertex
100
AcDb3dPolylineVertex
 10
453990.8
 20
244800.755
 30
160.288
 70
    32
  0
VERTEX
  5
AD0
330
ACB
100
AcDbEntity
  8
S1056
100
AcDbVertex
100
AcDb3dPolylineVertex
 10
453990.697
 20
244800.399
 30
160.312
 70
    32
  0
VERTEX
  5
AD1
330
ACB
100
AcDbEntity
  8
S1056
100
AcDbVertex
100
AcDb3dPolylineVertex
 10
453990.692
 20
244800.262
 30
160.533
 70
    32
  0
VERTEX
  5
AD2
330
ACB
100
AcDbEntity
  8
S1056
100
AcDbVertex
100
AcDb3dPolylineVertex
 10
453990.694
 20
244800.015
 30
160.753
 70
    32
  0
SEQEND
  5
AD3
330
ACB
100
AcDbEntity
  8
S1056
  0
POINT
  5
AD6
330
1F
100
AcDbEntity
  8
L1057
100
AcDbPoint
 10
453990.6586280096
 20
244800.5923276462
 30
160.754
  0
POINT
  5
AD9
330
1F
100
AcDbEntity
  8
L1058
100
AcDbPoint
 10
453990.7117573064
 20
244801.1264168936
 30
160.772
  0
POLYLINE
  5
ADC
330
1F
100
AcDbEntity
  8
C1060
100
AcDb3dPolyline
 66
     1
 10
0.0
 20
0.0
 30
0.0
 70
     8
  0
VERTEX
  5
ADD
330
ADC
100
AcDbEntity
  8
C1060
100
AcDbVertex
100
AcDb3dPolylineVertex
 10
453987.343
 20
244794.045
 30
160.533
 70
    32
  0
VERTEX
  5
ADE
330
ADC
100
AcDbEntity
  8
C1060
100
AcDbVertex
100
AcDb3dPolylineVertex
 10
453987.667
 20
244794.739
 30
160.589
 70
    32
  0
VERTEX
  5
ADF
330
ADC
100
AcDbEntity
  8
C1060
100
AcDbVertex
100
AcDb3dPolylineVertex
 10
453987.808
 20
244795.325
 30
160.566
 70
    32
  0
VERTEX
  5
AE0
330
ADC
100
AcDbEntity
  8
C1060
100
AcDbVertex
100
AcDb3dPolylineVertex
 10
453988.175
 20
244795.583
 30
160.565
 70
    32
  0
VERTEX
  5
AE1
330
ADC
100
AcDbEntity
  8
C1060
100
AcDbVertex
100
AcDb3dPolylineVertex
 10
453988.728
 20
244795.561
 30
160.586
 70
    32
  0
VERTEX
  5
AE2
330
ADC
100
AcDbEntity
  8
C1060
100
AcDbVertex
100
AcDb3dPolylineVertex
 10
453988.951
 20
244795.114
 30
160.606
 70
    32
  0
VERTEX
  5
AE3
330
ADC
100
AcDbEntity
  8
C1060
100
AcDbVertex
100
AcDb3dPolylineVertex
 10
453988.609
 20
244794.535
 30
160.638
 70
    32
  0
VERTEX
  5
AE4
330
ADC
100
AcDbEntity
  8
C1060
100
AcDbVertex
100
AcDb3dPolylineVertex
 10
453988.465
 20
244793.816
 30
160.614
 70
    32
  0
SEQEND
  5
AE5
330
ADC
100
AcDbEntity
  8
C1060
  0
POLYLINE
  5
AE8
330
1F
100
AcDbEntity
  8
S1060
100
AcDb3dPolyline
 66
     1
 10
0.0
 20
0.0
 30
0.0
 70
     8
  0
VERTEX
  5
AE9
330
AE8
100
AcDbEntity
  8
S1060
100
AcDbVertex
100
AcDb3dPolylineVertex
 10
453988.6579999999
 20
244794.578
 30
160.61
 70
    32
  0
VERTEX
  5
AEA
330
AE8
100
AcDbEntity
  8
S1060
100
AcDbVertex
100
AcDb3dPolylineVertex
 10
453988.4990000001
 20
244794.634
 30
160.509
 70
    32
  0
VERTEX
  5
AEB
330
AE8
100
AcDbEntity
  8
S1060
100
AcDbVertex
100
AcDb3dPolylineVertex
 10
453988.331
 20
244794.742
 30
160.32
 70
    32
  0
VERTEX
  5
AEC
330
AE8
100
AcDbEntity
  8
S1060
100
AcDbVertex
100
AcDb3dPolylineVertex
 10
453988.162
 20
244794.833
 30
160.299
 70
    32
  0
VERTEX
  5
AED
330
AE8
100
AcDbEntity
  8
S1060
100
AcDbVertex
100
AcDb3dPolylineVertex
 10
453987.953
 20
244794.822
 30
160.388
 70
    32
  0
VERTEX
  5
AEE
330
AE8
100
AcDbEntity
  8
S1060
100
AcDbVertex
100
AcDb3dPolylineVertex
 10
453987.6935050823
 20
244794.8491558743
 30
160.5846764759237
 70
    32
  0
SEQEND
  5
AEF
330
AE8
100
AcDbEntity
  8
S1060
  0
POLYLINE
  5
AF2
330
1F
100
AcDbEntity
  8
B1060
100
AcDb3dPolyline
 66
     1
 10
0.0
 20
0.0
 30
0.0
 70
     8
  0
VERTEX
  5
AF3
330
AF2
100
AcDbEntity
  8
B1060
100
AcDbVertex
100
AcDb3dPolylineVertex
 10
453987.87
 20
244794.8307564838
 30
160.36
 70
    32
  0
VERTEX
  5
AF4
330
AF2
100
AcDbEntity
  8
B1060
100
AcDbVertex
100
AcDb3dPolylineVertex
 10
453987.88
 20
244795.192
 30
160.352
 70
    32
  0
VERTEX
  5
AF5
330
AF2
100
AcDbEntity
  8
B1060
100
AcDbVertex
100
AcDb3dPolylineVertex
 10
453988.1409999999
 20
244795.392
 30
160.313
 70
    32
  0
VERTEX
  5
AF6
330
AF2
100
AcDbEntity
  8
B1060
100
AcDbVertex
100
AcDb3dPolylineVertex
 10
453988.451
 20
244795.436
 30
160.382
 70
    32
  0
VERTEX
  5
AF7
330
AF2
100
AcDbEntity
  8
B1060
100
AcDbVertex
100
AcDb3dPolylineVertex
 10
453988.694
 20
244795.217
 30
160.374
 70
    32
  0
VERTEX
  5
AF8
330
AF2
100
AcDbEntity
  8
B1060
100
AcDbVertex
100
AcDb3dPolylineVertex
 10
453988.523
 20
244794.826
 30
160.321
 70
    32
  0
VERTEX
  5
AF9
330
AF2
100
AcDbEntity
  8
B1060
100
AcDbVertex
100
AcDb3dPolylineVertex
 10
453988.364
 20
244794.715
 30
160.365
 70
    32
  0
SEQEND
  5
AFA
330
AF2
100
AcDbEntity
  8
B1060
  0
POINT
  5
AFD
330
1F
100
AcDbEntity
  8
L1059
100
AcDbPoint
 10
453988.066
 20
244794.644
 30
160.603
  0
POLYLINE
  5
B00
330
1F
100
AcDbEntity
  8
C1074
100
AcDb3dPolyline
 66
     1
 10
0.0
 20
0.0
 30
0.0
 70
     8
  0
VERTEX
  5
B01
330
B00
100
AcDbEntity
  8
C1074
100
AcDbVertex
100
AcDb3dPolylineVertex
 10
453987.699
 20
244789.534
 30
160.476
 70
    32
  0
VERTEX
  5
B02
330
B00
100
AcDbEntity
  8
C1074
100
AcDbVertex
100
AcDb3dPolylineVertex
 10
453987.65
 20
244789.098
 30
160.463
 70
    32
  0
VERTEX
  5
B03
330
B00
100
AcDbEntity
  8
C1074
100
AcDbVertex
100
AcDb3dPolylineVertex
 10
453987.5938067043
 20
244788.5210619581
 30
160.406
 70
    32
  0
VERTEX
  5
B04
330
B00
100
AcDbEntity
  8
C1074
100
AcDbVertex
100
AcDb3dPolylineVertex
 10
453987.061
 20
244788.218
 30
160.378
 70
    32
  0
VERTEX
  5
B05
330
B00
100
AcDbEntity
  8
C1074
100
AcDbVertex
100
AcDb3dPolylineVertex
 10
453986.7112312136
 20
244788.3550329054
 30
160.417
 70
    32
  0
VERTEX
  5
B06
330
B00
100
AcDbEntity
  8
C1074
100
AcDbVertex
100
AcDb3dPolylineVertex
 10
453986.6045
 20
244788.97
 30
160.4415
 70
    32
  0
VERTEX
  5
B07
330
B00
100
AcDbEntity
  8
C1074
100
AcDbVertex
100
AcDb3dPolylineVertex
 10
453986.707
 20
244789.39
 30
160.489
 70
    32
  0
VERTEX
  5
B08
330
B00
100
AcDbEntity
  8
C1074
100
AcDbVertex
100
AcDb3dPolylineVertex
 10
453986.7290000001
 20
244790.079
 30
160.484
 70
    32
  0
SEQEND
  5
B09
330
B00
100
AcDbEntity
  8
C1074
  0
POLYLINE
  5
B0C
330
1F
100
AcDbEntity
  8
S1074
100
AcDb3dPolyline
 66
     1
 10
0.0
 20
0.0
 30
0.0
 70
     8
  0
VERTEX
  5
B0D
330
B0C
100
AcDbEntity
  8
S1074
100
AcDbVertex
100
AcDb3dPolylineVertex
 10
453986.707
 20
244789.39
 30
160.489
 70
    32
  0
VERTEX
  5
B0E
330
B0C
100
AcDbEntity
  8
S1074
100
AcDbVertex
100
AcDb3dPolylineVertex
 10
453986.847
 20
244789.367
 30
160.473
 70
    32
  0
VERTEX
  5
B0F
330
B0C
100
AcDbEntity
  8
S1074
100
AcDbVertex
100
AcDb3dPolylineVertex
 10
453986.9290000001
 20
244789.327
 30
160.303
 70
    32
  0
VERTEX
  5
B10
330
B0C
100
AcDbEntity
  8
S1074
100
AcDbVertex
100
AcDb3dPolylineVertex
 10
453987.159
 20
244789.282
 30
160.259
 70
    32
  0
VERTEX
  5
B11
330
B0C
100
AcDbEntity
  8
S1074
100
AcDbVertex
100
AcDb3dPolylineVertex
 10
453987.402
 20
244789.295
 30
160.313
 70
    32
  0
VERTEX
  5
B12
330
B0C
100
AcDbEntity
  8
S1074
100
AcDbVertex
100
AcDb3dPolylineVertex
 10
453987.6745
 20
244789.316
 30
160.4695
 70
    32
  0
SEQEND
  5
B13
330
B0C
100
AcDbEntity
  8
S1074
  0
POINT
  5
B16
330
1F
100
AcDbEntity
  8
L1073
100
AcDbPoint
 10
453987.173
 20
244789.429
 30
160.473
  0
POLYLINE
  5
B18
330
1F
100
AcDbEntity
  8
C1006
100
AcDb3dPolyline
 66
     1
 10
0.0
 20
0.0
 30
0.0
 70
     8
  0
VERTEX
  5
B19
330
B18
100
AcDbEntity
  8
C1006
100
AcDbVertex
100
AcDb3dPolylineVertex
 10
453957.597
 20
244796.571
 30
159.856
 70
    32
  0
VERTEX
  5
B1A
330
B18
100
AcDbEntity
  8
C1006
100
AcDbVertex
100
AcDb3dPolylineVertex
 10
453957.776
 20
244796.118
 30
159.862
 70
    32
  0
VERTEX
  5
B1B
330
B18
100
AcDbEntity
  8
C1006
100
AcDbVertex
100
AcDb3dPolylineVertex
 10
453958.387
 20
244795.097
 30
159.858
 70
    32
  0
VERTEX
  5
B1C
330
B18
100
AcDbEntity
  8
C1006
100
AcDbVertex
100
AcDb3dPolylineVertex
 10
453959.39
 20
244793.589
 30
159.887
 70
    32
  0
VERTEX
  5
B1D
330
B18
100
AcDbEntity
  8
C1006
100
AcDbVertex
100
AcDb3dPolylineVertex
 10
453960.585
 20
244792.211
 30
159.875
 70
    32
  0
VERTEX
  5
B1E
330
B18
100
AcDbEntity
  8
C1006
100
AcDbVertex
100
AcDb3dPolylineVertex
 10
453961.445
 20
244791.526
 30
159.853
 70
    32
  0
SEQEND
  5
B1F
330
B18
100
AcDbEntity
  8
C1006
  0
POLYLINE
  5
B21
330
1F
100
AcDbEntity
  8
C1006
100
AcDb3dPolyline
 66
     1
 10
0.0
 20
0.0
 30
0.0
 70
     8
  0
VERTEX
  5
B22
330
B21
100
AcDbEntity
  8
C1006
100
AcDbVertex
100
AcDb3dPolylineVertex
 10
453958.811
 20
244788.928
 30
159.715
 70
    32
  0
VERTEX
  5
B23
330
B21
100
AcDbEntity
  8
C1006
100
AcDbVertex
100
AcDb3dPolylineVertex
 10
453957.453
 20
244789.909
 30
159.69
 70
    32
  0
VERTEX
  5
B24
330
B21
100
AcDbEntity
  8
C1006
100
AcDbVertex
100
AcDb3dPolylineVertex
 10
453956.77
 20
244791.004
 30
159.596
 70
    32
  0
VERTEX
  5
B25
330
B21
100
AcDbEntity
  8
C1006
100
AcDbVertex
100
AcDb3dPolylineVertex
 10
453955.802
 20
244791.861
 30
159.729
 70
    32
  0
VERTEX
  5
B26
330
B21
100
AcDbEntity
  8
C1006
100
AcDbVertex
100
AcDb3dPolylineVertex
 10
453954.9790000001
 20
244793.546
 30
159.678
 70
    32
  0
SEQEND
  5
B27
330
B21
100
AcDbEntity
  8
C1006
  0
POLYLINE
  5
B2A
330
1F
100
AcDbEntity
  8
DP011
100
AcDb3dPolyline
 66
     1
 10
0.0
 20
0.0
 30
0.0
 70
     8
  0
VERTEX
  5
B2B
330
B2A
100
AcDbEntity
  8
DP011
100
AcDbVertex
100
AcDb3dPolylineVertex
 10
453957.202
 20
244790.393
 30
159.779
 70
    32
  0
VERTEX
  5
B2C
330
B2A
100
AcDbEntity
  8
DP011
100
AcDbVertex
100
AcDb3dPolylineVertex
 10
453959.769
 20
244793.201
 30
159.922
 70
    32
  0
SEQEND
  5
B2D
330
B2A
100
AcDbEntity
  8
DP011
  0
POLYLINE
  5
B2F
330
1F
100
AcDbEntity
  8
S1006
100
AcDb3dPolyline
 66
     1
 10
0.0
 20
0.0
 30
0.0
 70
     8
  0
VERTEX
  5
B30
330
B2F
100
AcDbEntity
  8
S1006
100
AcDbVertex
100
AcDb3dPolylineVertex
 10
453957.182
 20
244790.551
 30
159.702
 70
    32
  0
VERTEX
  5
B31
330
B2F
100
AcDbEntity
  8
S1006
100
AcDbVertex
100
AcDb3dPolylineVertex
 10
453957.437
 20
244790.875
 30
159.422
 70
    32
  0
VERTEX
  5
B32
330
B2F
100
AcDbEntity
  8
S1006
100
AcDbVertex
100
AcDb3dPolylineVertex
 10
453957.67
 20
244791.102
 30
159.098
 70
    32
  0
VERTEX
  5
B33
330
B2F
100
AcDbEntity
  8
S1006
100
AcDbVertex
100
AcDb3dPolylineVertex
 10
453957.7940000001
 20
244791.31
 30
158.954
 70
    32
  0
SEQEND
  5
B34
330
B2F
100
AcDbEntity
  8
S1006
  0
POLYLINE
  5
B36
330
1F
100
AcDbEntity
  8
S1006
100
AcDb3dPolyline
 66
     1
 10
0.0
 20
0.0
 30
0.0
 70
     8
  0
VERTEX
  5
B37
330
B36
100
AcDbEntity
  8
S1006
100
AcDbVertex
100
AcDb3dPolylineVertex
 10
453958.872
 20
244792.374
 30
158.887
 70
    32
  0
VERTEX
  5
B38
330
B36
100
AcDbEntity
  8
S1006
100
AcDbVertex
100
AcDb3dPolylineVertex
 10
453959.024
 20
244792.544
 30
158.982
 70
    32
  0
VERTEX
  5
B39
330
B36
100
AcDbEntity
  8
S1006
100
AcDbVertex
100
AcDb3dPolylineVertex
 10
453959.268
 20
244792.764
 30
159.384
 70
    32
  0
VERTEX
  5
B3A
330
B36
100
AcDbEntity
  8
S1006
100
AcDbVertex
100
AcDb3dPolylineVertex
 10
453959.4790000001
 20
244792.968
 30
159.66
 70
    32
  0
VERTEX
  5
B3B
330
B36
100
AcDbEntity
  8
S1006
100
AcDbVertex
100
AcDb3dPolylineVertex
 10
453959.692
 20
244793.154
 30
159.894
 70
    32
  0
SEQEND
  5
B3C
330
B36
100
AcDbEntity
  8
S1006
  0
POLYLINE
  5
B3E
330
1F
100
AcDbEntity
  8
S1006
100
AcDb3dPolyline
 66
     1
 10
0.0
 20
0.0
 30
0.0
 70
     8
  0
VERTEX
  5
B3F
330
B3E
100
AcDbEntity
  8
S1006
100
AcDbVertex
100
AcDb3dPolylineVertex
 10
453958.392
 20
244795.112
 30
159.869
 70
    32
  0
VERTEX
  5
B40
330
B3E
100
AcDbEntity
  8
S1006
100
AcDbVertex
100
AcDb3dPolylineVertex
 10
453958.138
 20
244794.777
 30
159.566
 70
    32
  0
VERTEX
  5
B41
330
B3E
100
AcDbEntity
  8
S1006
100
AcDbVertex
100
AcDb3dPolylineVertex
 10
453957.844
 20
244794.3
 30
159.245
 70
    32
  0
VERTEX
  5
B42
330
B3E
100
AcDbEntity
  8
S1006
100
AcDbVertex
100
AcDb3dPolylineVertex
 10
453957.564
 20
244793.934
 30
159.059
 70
    32
  0
VERTEX
  5
B43
330
B3E
100
AcDbEntity
  8
S1006
100
AcDbVertex
100
AcDb3dPolylineVertex
 10
453957.402
 20
244793.704
 30
158.895
 70
    32
  0
SEQEND
  5
B44
330
B3E
100
AcDbEntity
  8
S1006
  0
POLYLINE
  5
B46
330
1F
100
AcDbEntity
  8
S1006
100
AcDb3dPolyline
 66
     1
 10
0.0
 20
0.0
 30
0.0
 70
     8
  0
VERTEX
  5
B47
330
B46
100
AcDbEntity
  8
S1006
100
AcDbVertex
100
AcDb3dPolylineVertex
 10
453956.59
 20
244792.736
 30
158.864
 70
    32
  0
VERTEX
  5
B48
330
B46
100
AcDbEntity
  8
S1006
100
AcDbVertex
100
AcDb3dPolylineVertex
 10
453956.35
 20
244792.545
 30
159.211
 70
    32
  0
VERTEX
  5
B49
330
B46
100
AcDbEntity
  8
S1006
100
AcDbVertex
100
AcDb3dPolylineVertex
 10
453956.169
 20
244792.299
 30
159.396
 70
    32
  0
VERTEX
  5
B4A
330
B46
100
AcDbEntity
  8
S1006
100
AcDbVertex
100
AcDb3dPolylineVertex
 10
453955.9830000001
 20
244792.079
 30
159.646
 70
    32
  0
VERTEX
  5
B4B
330
B46
100
AcDbEntity
  8
S1006
100
AcDbVertex
100
AcDb3dPolylineVertex
 10
453955.822
 20
244791.904
 30
159.707
 70
    32
  0
SEQEND
  5
B4C
330
B46
100
AcDbEntity
  8
S1006
  0
POINT
  5
B4E
330
1F
100
AcDbEntity
  8
L1007
100
AcDbPoint
 10
453958.436
 20
244791.891
 30
159.124
  0
POINT
  5
B50
330
1F
100
AcDbEntity
  8
L1007
100
AcDbPoint
 10
453958.428
 20
244791.894
 30
159.117
  0
POINT
  5
B52
330
1F
100
AcDbEntity
  8
L1008
100
AcDbPoint
 10
453958.534
 20
244791.935
 30
159.385
  0
POINT
  5
B54
330
1F
100
AcDbEntity
  8
L1009
100
AcDbPoint
 10
453958.592
 20
244791.762
 30
159.791
  0
POLYLINE
  5
B57
330
1F
100
AcDbEntity
  8
C1083
100
AcDb3dPolyline
 66
     1
 10
0.0
 20
0.0
 30
0.0
 70
     8
  0
VERTEX
  5
B58
330
B57
100
AcDbEntity
  8
C1083
100
AcDbVertex
100
AcDb3dPolylineVertex
 10
453956.605
 20
244804.985
 30
159.925
 70
    32
  0
VERTEX
  5
B59
330
B57
100
AcDbEntity
  8
C1083
100
AcDbVertex
100
AcDb3dPolylineVertex
 10
453957.118
 20
244807.405
 30
160.014
 70
    32
  0
VERTEX
  5
B5A
330
B57
100
AcDbEntity
  8
C1083
100
AcDbVertex
100
AcDb3dPolylineVertex
 10
453957.712
 20
244808.923
 30
160.016
 70
    32
  0
VERTEX
  5
B5B
330
B57
100
AcDbEntity
  8
C1083
100
AcDbVertex
100
AcDb3dPolylineVertex
 10
453958.621
 20
244810.696
 30
160.111
 70
    32
  0
VERTEX
  5
B5C
330
B57
100
AcDbEntity
  8
C1083
100
AcDbVertex
100
AcDb3dPolylineVertex
 10
453959.3832069834
 20
244812.0015678081
 30
160.2003289976096
 70
    32
  0
SEQEND
  5
B5D
330
B57
100
AcDbEntity
  8
C1083
  0
POLYLINE
  5
B5F
330
1F
100
AcDbEntity
  8
C1083
100
AcDb3dPolyline
 66
     1
 10
0.0
 20
0.0
 30
0.0
 70
     8
  0
VERTEX
  5
B60
330
B5F
100
AcDbEntity
  8
C1083
100
AcDbVertex
100
AcDb3dPolylineVertex
 10
453955.7737076604
 20
244812.222610262
 30
160.0846432273475
 70
    32
  0
VERTEX
  5
B61
330
B5F
100
AcDbEntity
  8
C1083
100
AcDbVertex
100
AcDb3dPolylineVertex
 10
453955.138
 20
244811.236
 30
160.004
 70
    32
  0
VERTEX
  5
B62
330
B5F
100
AcDbEntity
  8
C1083
100
AcDbVertex
100
AcDb3dPolylineVertex
 10
453954.828
 20
244810.16
 30
159.99
 70
    32
  0
VERTEX
  5
B63
330
B5F
100
AcDbEntity
  8
C1083
100
AcDbVertex
100
AcDb3dPolylineVertex
 10
453954.544
 20
244809.365
 30
159.953
 70
    32
  0
VERTEX
  5
B64
330
B5F
100
AcDbEntity
  8
C1083
100
AcDbVertex
100
AcDb3dPolylineVertex
 10
453954.372
 20
244808.442
 30
159.93
 70
    32
  0
SEQEND
  5
B65
330
B5F
100
AcDbEntity
  8
C1083
  0
POLYLINE
  5
B68
330
1F
100
AcDbEntity
  8
S1083
100
AcDb3dPolyline
 66
     1
 10
0.0
 20
0.0
 30
0.0
 70
     8
  0
VERTEX
  5
B69
330
B68
100
AcDbEntity
  8
S1083
100
AcDbVertex
100
AcDb3dPolylineVertex
 10
453955.123
 20
244811.218
 30
160.007
 70
    32
  0
VERTEX
  5
B6A
330
B68
100
AcDbEntity
  8
S1083
100
AcDbVertex
100
AcDb3dPolylineVertex
 10
453955.336
 20
244811.198
 30
159.84
 70
    32
  0
VERTEX
  5
B6B
330
B68
100
AcDbEntity
  8
S1083
100
AcDbVertex
100
AcDb3dPolylineVertex
 10
453955.562
 20
244811.121
 30
159.568
 70
    32
  0
VERTEX
  5
B6C
330
B68
100
AcDbEntity
  8
S1083
100
AcDbVertex
100
AcDb3dPolylineVertex
 10
453955.857
 20
244811.065
 30
159.353
 70
    32
  0
VERTEX
  5
B6D
330
B68
100
AcDbEntity
  8
S1083
100
AcDbVertex
100
AcDb3dPolylineVertex
 10
453956.018
 20
244811.032
 30
159.244
 70
    32
  0
VERTEX
  5
B6E
330
B68
100
AcDbEntity
  8
S1083
100
AcDbVertex
100
AcDb3dPolylineVertex
 10
453956.118
 20
244810.998
 30
159.147
 70
    32
  0
SEQEND
  5
B6F
330
B68
100
AcDbEntity
  8
S1083
  0
POLYLINE
  5
B71
330
1F
100
AcDbEntity
  8
S1083
100
AcDb3dPolyline
 66
     1
 10
0.0
 20
0.0
 30
0.0
 70
     8
  0
VERTEX
  5
B72
330
B71
100
AcDbEntity
  8
S1083
100
AcDbVertex
100
AcDb3dPolylineVertex
 10
453957.63
 20
244810.77
 30
159.139
 70
    32
  0
VERTEX
  5
B73
330
B71
100
AcDbEntity
  8
S1083
100
AcDbVertex
100
AcDb3dPolylineVertex
 10
453957.839
 20
244810.755
 30
159.331
 70
    32
  0
VERTEX
  5
B74
330
B71
100
AcDbEntity
  8
S1083
100
AcDbVertex
100
AcDb3dPolylineVertex
 10
453958.096
 20
244810.729
 30
159.46
 70
    32
  0
VERTEX
  5
B75
330
B71
100
AcDbEntity
  8
S1083
100
AcDbVertex
100
AcDb3dPolylineVertex
 10
453958.349
 20
244810.707
 30
159.81
 70
    32
  0
VERTEX
  5
B76
330
B71
100
AcDbEntity
  8
S1083
100
AcDbVertex
100
AcDb3dPolylineVertex
 10
453958.615
 20
244810.697
 30
160.127
 70
    32
  0
SEQEND
  5
B77
330
B71
100
AcDbEntity
  8
S1083
  0
POINT
  5
B7A
330
1F
100
AcDbEntity
  8
L1082
100
AcDbPoint
 10
453955.615
 20
244811.068
 30
159.692
  0
POINT
  5
B7D
330
1F
100
AcDbEntity
  8
L1081
100
AcDbPoint
 10
453956.534
 20
244810.946
 30
159.261
  0
POINT
  5
B80
330
1F
100
AcDbEntity
  8
L1080
100
AcDbPoint
 10
453956.76
 20
244810.939
 30
159.467
  0
POINT
  5
B83
330
1F
100
AcDbEntity
  8
L1079
100
AcDbPoint
 10
453958.323
 20
244810.779
 30
160.111
  0
POINT
  5
B86
330
1F
100
AcDbEntity
  8
L1078
100
AcDbPoint
 10
453956.853
 20
244810.99
 30
159.801
  0
POINT
  5
B89
330
1F
100
AcDbEntity
  8
L1077
100
AcDbPoint
 10
453956.903
 20
244811.08
 30
160.074
  0
POLYLINE
  5
B8C
330
1F
100
AcDbEntity
  8
DP014
100
AcDb3dPolyline
 66
     1
 10
0.0
 20
0.0
 30
0.0
 70
     8
  0
VERTEX
  5
B8D
330
B8C
100
AcDbEntity
  8
DP014
100
AcDbVertex
100
AcDb3dPolylineVertex
 10
453955.169
 20
244811.301
 30
159.996
 70
    32
  0
VERTEX
  5
B8E
330
B8C
100
AcDbEntity
  8
DP014
100
AcDbVertex
100
AcDb3dPolylineVertex
 10
453958.781
 20
244810.719
 30
160.095
 70
    32
  0
SEQEND
  5
B8F
330
B8C
100
AcDbEntity
  8
DP014
  0
LINE
  5
BC1
330
1F
100
AcDbEntity
  8
PRE
100
AcDbLine
 10
453988.103
 20
244792.173
 30
160.542
 11
453988.465
 21
244793.816
 31
160.614
  0
LINE
  5
BC6
330
1F
100
AcDbEntity
  8
PRE
100
AcDbLine
 10
453987.343
 20
244794.045
 30
160.533
 11
453986.963
 21
244792.015
 31
160.501
  0
LINE
  5
BDF
330
1F
100
AcDbEntity
  8
PRE
100
AcDbLine
 10
454004.969564515
 20
244812.2328905108
 30
161.4057267613573
 11
454005.607
 21
244801.234
 31
161.142
  0
LINE
  5
BE4
330
1F
100
AcDbEntity
  8
PRE
100
AcDbLine
 10
454005.679
 20
244795.254
 30
160.962
 11
454005.981
 21
244793.339
 31
160.933
  0
LINE
  5
BE5
330
1F
100
AcDbEntity
  8
PRE
100
AcDbLine
 10
454005.981
 20
244793.339
 30
160.933
 11
454006.105
 21
244790.48
 31
160.766
  0
LINE
  5
BE6
330
1F
100
AcDbEntity
  8
PRE
100
AcDbLine
 10
454006.105
 20
244790.48
 30
160.766
 11
454005.568
 21
244786.555
 31
160.599
  0
LINE
  5
BEA
330
1F
100
AcDbEntity
  8
PRE
100
AcDbLine
 10
453999.586
 20
244780.774
 30
160.063
 11
453995.75
 21
244780.601
 31
160.024
  0
LINE
  5
BEB
330
1F
100
AcDbEntity
  8
PRE
100
AcDbLine
 10
453995.75
 20
244780.601
 30
160.024
 11
453990.117
 21
244780.7
 31
159.951
  0
LINE
  5
BEC
330
1F
100
AcDbEntity
  8
PRE
100
AcDbLine
 10
453990.117
 20
244780.7
 30
159.951
 11
453986.092
 21
244781.63
 31
159.923
  0
LINE
  5
BED
330
1F
100
AcDbEntity
  8
PRE
100
AcDbLine
 10
453986.092
 20
244781.63
 30
159.923
 11
453983.738
 21
244782.346
 31
159.959
  0
LINE
  5
BEE
330
1F
100
AcDbEntity
  8
PRE
100
AcDbLine
 10
453983.738
 20
244782.346
 30
159.959
 11
453977.701
 21
244783.528
 31
159.796
  0
LINE
  5
BFA
330
1F
100
AcDbEntity
  8
PRE
100
AcDbLine
 10
453977.955
 20
244785.514
 30
159.895
 11
453984.037
 21
244784.492
 31
160.099
  0
LINE
  5
BFB
330
1F
100
AcDbEntity
  8
PRE
100
AcDbLine
 10
453984.037
 20
244784.492
 30
160.099
 11
453986.346
 21
244784.58
 31
160.218
  0
LINE
  5
BFC
330
1F
100
AcDbEntity
  8
PRE
100
AcDbLine
 10
453986.346
 20
244784.58
 30
160.218
 11
453991.753
 21
244784.003
 31
160.15
  0
LINE
  5
BFD
330
1F
100
AcDbEntity
  8
PRE
100
AcDbLine
 10
453991.753
 20
244784.003
 30
160.15
 11
453997.5842626932
 21
244783.768
 31
160.215
  0
LINE
  5
BFE
330
1F
100
AcDbEntity
  8
PRE
100
AcDbLine
 10
453997.5842626932
 20
244783.768
 30
160.215
 11
453998.6679999999
 21
244784.011
 31
160.287
  0
LINE
  5
C02
330
1F
100
AcDbEntity
  8
PRE
100
AcDbLine
 10
454002.1479999999
 20
244787.764
 30
160.596
 11
454002.502
 21
244795.201
 31
160.919
  0
LINE
  5
C04
330
1F
100
AcDbEntity
  8
PRE
100
AcDbLine
 10
454002.349
 20
244800.942
 30
161.075
 11
454001.9733718386
 21
244811.9035680549
 31
161.3419735769464
  0
POLYLINE
  5
C07
330
1F
100
AcDbEntity
  8
DP008
100
AcDb3dPolyline
 66
     1
 10
0.0
 20
0.0
 30
0.0
 70
     8
  0
VERTEX
  5
C08
330
C07
100
AcDbEntity
  8
DP008
100
AcDbVertex
100
AcDb3dPolylineVertex
 10
453986.709
 20
244791.452
 30
160.585
 70
    32
  0
VERTEX
  5
C09
330
C07
100
AcDbEntity
  8
DP008
100
AcDbVertex
100
AcDb3dPolylineVertex
 10
453988.12
 20
244791.282
 30
160.603
 70
    32
  0
SEQEND
  5
C0A
330
C07
100
AcDbEntity
  8
DP008
  0
POLYLINE
  5
C0D
330
1F
100
AcDbEntity
  8
C1053
100
AcDb3dPolyline
 66
     1
 10
0.0
 20
0.0
 30
0.0
 70
     8
  0
VERTEX
  5
C0E
330
C0D
100
AcDbEntity
  8
C1053
100
AcDbVertex
100
AcDb3dPolylineVertex
 10
453988.103
 20
244792.173
 30
160.542
 70
    32
  0
VERTEX
  5
C0F
330
C0D
100
AcDbEntity
  8
C1053
100
AcDbVertex
100
AcDb3dPolylineVertex
 10
453987.978
 20
244791.601
 30
160.559
 70
    32
  0
VERTEX
  5
C10
330
C0D
100
AcDbEntity
  8
C1053
100
AcDbVertex
100
AcDb3dPolylineVertex
 10
453987.94
 20
244791.213
 30
160.547
 70
    32
  0
VERTEX
  5
C11
330
C0D
100
AcDbEntity
  8
C1053
100
AcDbVertex
100
AcDb3dPolylineVertex
 10
453987.987
 20
244790.624
 30
160.513
 70
    32
  0
VERTEX
  5
C12
330
C0D
100
AcDbEntity
  8
C1053
100
AcDbVertex
100
AcDb3dPolylineVertex
 10
453987.827
 20
244790.096
 30
160.5
 70
    32
  0
VERTEX
  5
C13
330
C0D
100
AcDbEntity
  8
C1053
100
AcDbVertex
100
AcDb3dPolylineVertex
 10
453987.699
 20
244789.534
 30
160.476
 70
    32
  0
SEQEND
  5
C14
330
C0D
100
AcDbEntity
  8
C1053
  0
POLYLINE
  5
C16
330
1F
100
AcDbEntity
  8
C1053
100
AcDb3dPolyline
 66
     1
 10
0.0
 20
0.0
 30
0.0
 70
     8
  0
VERTEX
  5
C17
330
C16
100
AcDbEntity
  8
C1053
100
AcDbVertex
100
AcDb3dPolylineVertex
 10
453986.7103292343
 20
244789.494265564
 30
160.4882433558489
 70
    32
  0
VERTEX
  5
C18
330
C16
100
AcDbEntity
  8
C1053
100
AcDbVertex
100
AcDb3dPolylineVertex
 10
453986.7271722914
 20
244790.021759487
 30
160.4844153883384
 70
    32
  0
VERTEX
  5
C19
330
C16
100
AcDbEntity
  8
C1053
100
AcDbVertex
100
AcDb3dPolylineVertex
 10
453986.637
 20
244790.682
 30
160.498
 70
    32
  0
VERTEX
  5
C1A
330
C16
100
AcDbEntity
  8
C1053
100
AcDbVertex
100
AcDb3dPolylineVertex
 10
453986.697
 20
244791.262
 30
160.489
 70
    32
  0
VERTEX
  5
C1B
330
C16
100
AcDbEntity
  8
C1053
100
AcDbVertex
100
AcDb3dPolylineVertex
 10
453986.963
 20
244792.015
 30
160.501
 70
    32
  0
SEQEND
  5
C1C
330
C16
100
AcDbEntity
  8
C1053
  0
POLYLINE
  5
C1F
330
1F
100
AcDbEntity
  8
B1053
100
AcDb3dPolyline
 66
     1
 10
0.0
 20
0.0
 30
0.0
 70
     8
  0
VERTEX
  5
C20
330
C1F
100
AcDbEntity
  8
B1053
100
AcDbVertex
100
AcDb3dPolylineVertex
 10
453987.279
 20
244791.242
 30
160.131
 70
    32
  0
VERTEX
  5
C21
330
C1F
100
AcDbEntity
  8
B1053
100
AcDbVertex
100
AcDb3dPolylineVertex
 10
453987.277
 20
244791.008
 30
160.112
 70
    32
  0
VERTEX
  5
C22
330
C1F
100
AcDbEntity
  8
B1053
100
AcDbVertex
100
AcDb3dPolylineVertex
 10
453987.214
 20
244790.733
 30
160.114
 70
    32
  0
VERTEX
  5
C23
330
C1F
100
AcDbEntity
  8
B1053
100
AcDbVertex
100
AcDb3dPolylineVertex
 10
453987.21
 20
244790.526
 30
160.149
 70
    32
  0
VERTEX
  5
C24
330
C1F
100
AcDbEntity
  8
B1053
100
AcDbVertex
100
AcDb3dPolylineVertex
 10
453987.136
 20
244790.375
 30
160.205
 70
    32
  0
SEQEND
  5
C25
330
C1F
100
AcDbEntity
  8
B1053
  0
POLYLINE
  5
C27
330
1F
100
AcDbEntity
  8
B1053
100
AcDb3dPolyline
 66
     1
 10
0.0
 20
0.0
 30
0.0
 70
     8
  0
VERTEX
  5
C28
330
C27
100
AcDbEntity
  8
B1053
100
AcDbVertex
100
AcDb3dPolylineVertex
 10
453987.378
 20
244790.314
 30
160.225
 70
    32
  0
VERTEX
  5
C29
330
C27
100
AcDbEntity
  8
B1053
100
AcDbVertex
100
AcDb3dPolylineVertex
 10
453987.4230000001
 20
244790.535
 30
160.165
 70
    32
  0
VERTEX
  5
C2A
330
C27
100
AcDbEntity
  8
B1053
100
AcDbVertex
100
AcDb3dPolylineVertex
 10
453987.48
 20
244790.799
 30
160.201
 70
    32
  0
VERTEX
  5
C2B
330
C27
100
AcDbEntity
  8
B1053
100
AcDbVertex
100
AcDb3dPolylineVertex
 10
453987.57
 20
244791.089
 30
160.188
 70
    32
  0
VERTEX
  5
C2C
330
C27
100
AcDbEntity
  8
B1053
100
AcDbVertex
100
AcDb3dPolylineVertex
 10
453987.557
 20
244791.194
 30
160.199
 70
    32
  0
SEQEND
  5
C2D
330
C27
100
AcDbEntity
  8
B1053
  0
POLYLINE
  5
C3A
330
1F
100
AcDbEntity
  8
S1053
100
AcDb3dPolyline
 66
     1
 10
0.0
 20
0.0
 30
0.0
 70
     9
  0
VERTEX
  5
C3B
330
C3A
100
AcDbEntity
  8
S1053
100
AcDbVertex
100
AcDb3dPolylineVertex
 10
453986.736
 20
244791.317
 30
160.522
 70
    32
  0
VERTEX
  5
C3C
330
C3A
100
AcDbEntity
  8
S1053
100
AcDbVertex
100
AcDb3dPolylineVertex
 10
453987.014
 20
244791.275
 30
160.331
 70
    32
  0
VERTEX
  5
C3D
330
C3A
100
AcDbEntity
  8
S1053
100
AcDbVertex
100
AcDb3dPolylineVertex
 10
453987.222
 20
244791.265
 30
160.21
 70
    32
  0
VERTEX
  5
C3E
330
C3A
100
AcDbEntity
  8
S1053
100
AcDbVertex
100
AcDb3dPolylineVertex
 10
453987.415
 20
244791.217
 30
160.143
 70
    32
  0
VERTEX
  5
C3F
330
C3A
100
AcDbEntity
  8
S1053
100
AcDbVertex
100
AcDb3dPolylineVertex
 10
453987.537
 20
244791.228
 30
160.213
 70
    32
  0
VERTEX
  5
C40
330
C3A
100
AcDbEntity
  8
S1053
100
AcDbVertex
100
AcDb3dPolylineVertex
 10
453987.692
 20
244791.257
 30
160.342
 70
    32
  0
VERTEX
  5
C41
330
C3A
100
AcDbEntity
  8
S1053
100
AcDbVertex
100
AcDb3dPolylineVertex
 10
453987.945
 20
244791.227
 30
160.562
 70
    32
  0
VERTEX
  5
C42
330
C3A
100
AcDbEntity
  8
S1053
100
AcDbVertex
100
AcDb3dPolylineVertex
 10
453987.426
 20
244791.39
 30
160.588
 70
    32
  0
SEQEND
  5
C43
330
C3A
100
AcDbEntity
  8
S1053
  0
POINT
  5
C46
330
1F
100
AcDbEntity
  8
L1054
100
AcDbPoint
 10
453987.4190000001
 20
244791.255
 30
160.25
  0
POINT
  5
C49
330
1F
100
AcDbEntity
  8
L1055
100
AcDbPoint
 10
453987.417
 20
244791.414
 30
160.578
  0
POLYLINE
  5
C4C
330
1F
100
AcDbEntity
  8
B1074
100
AcDb3dPolyline
 66
     1
 10
0.0
 20
0.0
 30
0.0
 70
     8
  0
VERTEX
  5
C4D
330
C4C
100
AcDbEntity
  8
B1074
100
AcDbVertex
100
AcDb3dPolylineVertex
 10
453986.9290000001
 20
244789.327
 30
160.303
 70
    32
  0
VERTEX
  5
C4E
330
C4C
100
AcDbEntity
  8
B1074
100
AcDbVertex
100
AcDb3dPolylineVertex
 10
453986.824
 20
244788.884
 30
160.166
 70
    32
  0
VERTEX
  5
C4F
330
C4C
100
AcDbEntity
  8
B1074
100
AcDbVertex
100
AcDb3dPolylineVertex
 10
453986.971
 20
244788.662
 30
160.16
 70
    32
  0
VERTEX
  5
C50
330
C4C
100
AcDbEntity
  8
B1074
100
AcDbVertex
100
AcDb3dPolylineVertex
 10
453987.25245091
 20
244788.6141874492
 30
160.144
 70
    32
  0
VERTEX
  5
C51
330
C4C
100
AcDbEntity
  8
B1074
100
AcDbVertex
100
AcDb3dPolylineVertex
 10
453987.368
 20
244788.796
 30
160.149
 70
    32
  0
VERTEX
  5
C52
330
C4C
100
AcDbEntity
  8
B1074
100
AcDbVertex
100
AcDb3dPolylineVertex
 10
453987.456
 20
244789.2917866938
 30
160.236
 70
    32
  0
SEQEND
  5
C53
330
C4C
100
AcDbEntity
  8
B1074
  0
POLYLINE
  5
C56
330
1F
100
AcDbEntity
  8
DP007
100
AcDb3dPolyline
 66
     1
 10
0.0
 20
0.0
 30
0.0
 70
     8
  0
VERTEX
  5
C57
330
C56
100
AcDbEntity
  8
DP007
100
AcDbVertex
100
AcDb3dPolylineVertex
 10
453988.016
 20
244802.001
 30
160.739
 70
    32
  0
VERTEX
  5
C58
330
C56
100
AcDbEntity
  8
DP007
100
AcDbVertex
100
AcDb3dPolylineVertex
 10
453987.9130000001
 20
244804.171
 30
160.778
 70
    32
  0
SEQEND
  5
C59
330
C56
100
AcDbEntity
  8
DP007
  0
POLYLINE
  5
C5B
330
1F
100
AcDbEntity
  8
DP006
100
AcDb3dPolyline
 66
     1
 10
0.0
 20
0.0
 30
0.0
 70
     8
  0
VERTEX
  5
C5C
330
C5B
100
AcDbEntity
  8
DP006
100
AcDbVertex
100
AcDb3dPolylineVertex
 10
454045.334
 20
244802.506
 30
161.983
 70
    32
  0
VERTEX
  5
C5D
330
C5B
100
AcDbEntity
  8
DP006
100
AcDbVertex
100
AcDb3dPolylineVertex
 10
454045.393
 20
244801.922
 30
161.956
 70
    32
  0
VERTEX
  5
C5E
330
C5B
100
AcDbEntity
  8
DP006
100
AcDbVertex
100
AcDb3dPolylineVertex
 10
454044.347
 20
244801.794
 30
161.936
 70
    32
  0
VERTEX
  5
C5F
330
C5B
100
AcDbEntity
  8
DP006
100
AcDbVertex
100
AcDb3dPolylineVertex
 10
454043.737
 20
244802.804
 30
162.006
 70
    32
  0
VERTEX
  5
C60
330
C5B
100
AcDbEntity
  8
DP006
100
AcDbVertex
100
AcDb3dPolylineVertex
 10
454044.38
 20
244803.203
 30
161.987
 70
    32
  0
SEQEND
  5
C61
330
C5B
100
AcDbEntity
  8
DP006
  0
POLYLINE
  5
C63
330
1F
100
AcDbEntity
  8
DP018
100
AcDb3dPolyline
 66
     1
 10
0.0
 20
0.0
 30
0.0
 70
     8
  0
VERTEX
  5
C64
330
C63
100
AcDbEntity
  8
DP018
100
AcDbVertex
100
AcDb3dPolylineVertex
 10
453957.362
 20
244791.696
 30
158.94
 70
    32
  0
VERTEX
  5
C65
330
C63
100
AcDbEntity
  8
DP018
100
AcDbVertex
100
AcDb3dPolylineVertex
 10
453958.742
 20
244792.999
 30
158.932
 70
    32
  0
SEQEND
  5
C66
330
C63
100
AcDbEntity
  8
DP018
  0
POLYLINE
  5
C69
330
1F
100
AcDbEntity
  8
DP016
100
AcDb3dPolyline
 66
     1
 10
0.0
 20
0.0
 30
0.0
 70
     8
  0
VERTEX
  5
C6A
330
C69
100
AcDbEntity
  8
DP016
100
AcDbVertex
100
AcDb3dPolylineVertex
 10
453955.111
 20
244809.234
 30
159.286
 70
    32
  0
VERTEX
  5
C6B
330
C69
100
AcDbEntity
  8
DP016
100
AcDbVertex
100
AcDb3dPolylineVertex
 10
453957.036
 20
244808.74
 30
159.26
 70
    32
  0
SEQEND
  5
C6C
330
C69
100
AcDbEntity
  8
DP016
  0
POLYLINE
  5
C6F
330
1F
100
AcDbEntity
  8
DP015
100
AcDb3dPolyline
 66
     1
 10
0.0
 20
0.0
 30
0.0
 70
     8
  0
VERTEX
  5
C70
330
C6F
100
AcDbEntity
  8
DP015
100
AcDbVertex
100
AcDb3dPolylineVertex
 10
454004.925
 20
244799.441
 30
160.404
 70
    32
  0
VERTEX
  5
C71
330
C6F
100
AcDbEntity
  8
DP015
100
AcDbVertex
100
AcDb3dPolylineVertex
 10
454003.225
 20
244799.413
 30
160.311
 70
    32
  0
SEQEND
  5
C72
330
C6F
100
AcDbEntity
  8
DP015
  0
POLYLINE
  5
C74
330
1F
100
AcDbEntity
  8
C1072
100
AcDb3dPolyline
 66
     1
 10
0.0
 20
0.0
 30
0.0
 70
     8
  0
VERTEX
  5
C75
330
C74
100
AcDbEntity
  8
C1072
100
AcDbVertex
100
AcDb3dPolylineVertex
 10
454003.245
 20
244800.029
 30
160.292
 70
    32
  0
VERTEX
  5
C76
330
C74
100
AcDbEntity
  8
C1072
100
AcDbVertex
100
AcDb3dPolylineVertex
 10
454003.261
 20
244799.73
 30
160.271
 70
    32
  0
VERTEX
  5
C77
330
C74
100
AcDbEntity
  8
C1072
100
AcDbVertex
100
AcDb3dPolylineVertex
 10
454003.289
 20
244799.443
 30
160.208
 70
    32
  0
VERTEX
  5
C78
330
C74
100
AcDbEntity
  8
C1072
100
AcDbVertex
100
AcDb3dPolylineVertex
 10
454003.279
 20
244799.124
 30
160.221
 70
    32
  0
VERTEX
  5
C79
330
C74
100
AcDbEntity
  8
C1072
100
AcDbVertex
100
AcDb3dPolylineVertex
 10
454003.305
 20
244798.842
 30
160.244
 70
    32
  0
VERTEX
  5
C7A
330
C74
100
AcDbEntity
  8
C1072
100
AcDbVertex
100
AcDb3dPolylineVertex
 10
454003.307
 20
244798.609
 30
160.216
 70
    32
  0
VERTEX
  5
C7B
330
C74
100
AcDbEntity
  8
C1072
100
AcDbVertex
100
AcDb3dPolylineVertex
 10
454003.26
 20
244798.326
 30
160.203
 70
    32
  0
VERTEX
  5
C7C
330
C74
100
AcDbEntity
  8
C1072
100
AcDbVertex
100
AcDb3dPolylineVertex
 10
454003.207
 20
244798.064
 30
160.191
 70
    32
  0
VERTEX
  5
C7D
330
C74
100
AcDbEntity
  8
C1072
100
AcDbVertex
100
AcDb3dPolylineVertex
 10
454003.204
 20
244797.782
 30
160.16
 70
    32
  0
VERTEX
  5
C7E
330
C74
100
AcDbEntity
  8
C1072
100
AcDbVertex
100
AcDb3dPolylineVertex
 10
454003.266
 20
244797.589
 30
160.151
 70
    32
  0
VERTEX
  5
C7F
330
C74
100
AcDbEntity
  8
C1072
100
AcDbVertex
100
AcDb3dPolylineVertex
 10
454003.231
 20
244797.405
 30
160.159
 70
    32
  0
VERTEX
  5
C80
330
C74
100
AcDbEntity
  8
C1072
100
AcDbVertex
100
AcDb3dPolylineVertex
 10
454003.238
 20
244797.21
 30
160.166
 70
    32
  0
SEQEND
  5
C81
330
C74
100
AcDbEntity
  8
C1072
  0
POLYLINE
  5
C83
330
1F
100
AcDbEntity
  8
C1072
100
AcDb3dPolyline
 66
     1
 10
0.0
 20
0.0
 30
0.0
 70
     8
  0
VERTEX
  5
C84
330
C83
100
AcDbEntity
  8
C1072
100
AcDbVertex
100
AcDb3dPolylineVertex
 10
454004.893
 20
244797.073
 30
160.238
 70
    32
  0
VERTEX
  5
C85
330
C83
100
AcDbEntity
  8
C1072
100
AcDbVertex
100
AcDb3dPolylineVertex
 10
454004.977
 20
244797.449
 30
160.253
 70
    32
  0
VERTEX
  5
C86
330
C83
100
AcDbEntity
  8
C1072
100
AcDbVertex
100
AcDb3dPolylineVertex
 10
454005.054
 20
244797.697
 30
160.256
 70
    32
  0
VERTEX
  5
C87
330
C83
100
AcDbEntity
  8
C1072
100
AcDbVertex
100
AcDb3dPolylineVertex
 10
454005.037
 20
244797.952
 30
160.254
 70
    32
  0
VERTEX
  5
C88
330
C83
100
AcDbEntity
  8
C1072
100
AcDbVertex
100
AcDb3dPolylineVertex
 10
454004.901
 20
244798.194
 30
160.288
 70
    32
  0
VERTEX
  5
C89
330
C83
100
AcDbEntity
  8
C1072
100
AcDbVertex
100
AcDb3dPolylineVertex
 10
454004.866
 20
244798.375
 30
160.251
 70
    32
  0
VERTEX
  5
C8A
330
C83
100
AcDbEntity
  8
C1072
100
AcDbVertex
100
AcDb3dPolylineVertex
 10
454004.7830000001
 20
244798.501
 30
160.268
 70
    32
  0
VERTEX
  5
C8B
330
C83
100
AcDbEntity
  8
C1072
100
AcDbVertex
100
AcDb3dPolylineVertex
 10
454004.815
 20
244798.678
 30
160.273
 70
    32
  0
VERTEX
  5
C8C
330
C83
100
AcDbEntity
  8
C1072
100
AcDbVertex
100
AcDb3dPolylineVertex
 10
454004.832
 20
244798.834
 30
160.273
 70
    32
  0
VERTEX
  5
C8D
330
C83
100
AcDbEntity
  8
C1072
100
AcDbVertex
100
AcDb3dPolylineVertex
 10
454004.7830000001
 20
244798.968
 30
160.282
 70
    32
  0
VERTEX
  5
C8E
330
C83
100
AcDbEntity
  8
C1072
100
AcDbVertex
100
AcDb3dPolylineVertex
 10
454004.865
 20
244799.121
 30
160.287
 70
    32
  0
VERTEX
  5
C8F
330
C83
100
AcDbEntity
  8
C1072
100
AcDbVertex
100
AcDb3dPolylineVertex
 10
454004.86
 20
244799.307
 30
160.3
 70
    32
  0
VERTEX
  5
C90
330
C83
100
AcDbEntity
  8
C1072
100
AcDbVertex
100
AcDb3dPolylineVertex
 10
454004.876
 20
244799.42
 30
160.335
 70
    32
  0
VERTEX
  5
C91
330
C83
100
AcDbEntity
  8
C1072
100
AcDbVertex
100
AcDb3dPolylineVertex
 10
454004.887
 20
244799.536
 30
160.346
 70
    32
  0
VERTEX
  5
C92
330
C83
100
AcDbEntity
  8
C1072
100
AcDbVertex
100
AcDb3dPolylineVertex
 10
454004.938
 20
244799.679
 30
160.357
 70
    32
  0
SEQEND
  5
C93
330
C83
100
AcDbEntity
  8
C1072
  0
POLYLINE
  5
C96
330
1F
100
AcDbEntity
  8
B1072
100
AcDb3dPolyline
 66
     1
 10
0.0
 20
0.0
 30
0.0
 70
     8
  0
VERTEX
  5
C97
330
C96
100
AcDbEntity
  8
B1072
100
AcDbVertex
100
AcDb3dPolylineVertex
 10
454003.824
 20
244797.709
 30
159.562
 70
    32
  0
VERTEX
  5
C98
330
C96
100
AcDbEntity
  8
B1072
100
AcDbVertex
100
AcDb3dPolylineVertex
 10
454003.751
 20
244797.858
 30
159.619
 70
    32
  0
VERTEX
  5
C99
330
C96
100
AcDbEntity
  8
B1072
100
AcDbVertex
100
AcDb3dPolylineVertex
 10
454003.7390000001
 20
244798.092
 30
159.683
 70
    32
  0
VERTEX
  5
C9A
330
C96
100
AcDbEntity
  8
B1072
100
AcDbVertex
100
AcDb3dPolylineVertex
 10
454003.862
 20
244798.272
 30
159.712
 70
    32
  0
VERTEX
  5
C9B
330
C96
100
AcDbEntity
  8
B1072
100
AcDbVertex
100
AcDb3dPolylineVertex
 10
454003.931
 20
244798.423
 30
159.695
 70
    32
  0
VERTEX
  5
C9C
330
C96
100
AcDbEntity
  8
B1072
100
AcDbVertex
100
AcDb3dPolylineVertex
 10
454003.9790000001
 20
244798.645
 30
159.653
 70
    32
  0
VERTEX
  5
C9D
330
C96
100
AcDbEntity
  8
B1072
100
AcDbVertex
100
AcDb3dPolylineVertex
 10
454003.945
 20
244798.929
 30
159.597
 70
    32
  0
VERTEX
  5
C9E
330
C96
100
AcDbEntity
  8
B1072
100
AcDbVertex
100
AcDb3dPolylineVertex
 10
454003.904
 20
244799.042
 30
159.55
 70
    32
  0
VERTEX
  5
C9F
330
C96
100
AcDbEntity
  8
B1072
100
AcDbVertex
100
AcDb3dPolylineVertex
 10
454003.9300000001
 20
244799.162
 30
159.636
 70
    32
  0
VERTEX
  5
CA0
330
C96
100
AcDbEntity
  8
B1072
100
AcDbVertex
100
AcDb3dPolylineVertex
 10
454003.917
 20
244799.3
 30
159.657
 70
    32
  0
VERTEX
  5
CA1
330
C96
100
AcDbEntity
  8
B1072
100
AcDbVertex
100
AcDb3dPolylineVertex
 10
454003.911
 20
244799.346
 30
159.715
 70
    32
  0
SEQEND
  5
CA2
330
C96
100
AcDbEntity
  8
B1072
  0
POLYLINE
  5
CA4
330
1F
100
AcDbEntity
  8
B1072
100
AcDb3dPolyline
 66
     1
 10
0.0
 20
0.0
 30
0.0
 70
     8
  0
VERTEX
  5
CA5
330
CA4
100
AcDbEntity
  8
B1072
100
AcDbVertex
100
AcDb3dPolylineVertex
 10
454004.192
 20
244797.731
 30
159.619
 70
    32
  0
VERTEX
  5
CA6
330
CA4
100
AcDbEntity
  8
B1072
100
AcDbVertex
100
AcDb3dPolylineVertex
 10
454004.196
 20
244797.958
 30
159.671
 70
    32
  0
VERTEX
  5
CA7
330
CA4
100
AcDbEntity
  8
B1072
100
AcDbVertex
100
AcDb3dPolylineVertex
 10
454004.21
 20
244798.113
 30
159.71
 70
    32
  0
VERTEX
  5
CA8
330
CA4
100
AcDbEntity
  8
B1072
100
AcDbVertex
100
AcDb3dPolylineVertex
 10
454004.281
 20
244798.248
 30
159.727
 70
    32
  0
VERTEX
  5
CA9
330
CA4
100
AcDbEntity
  8
B1072
100
AcDbVertex
100
AcDb3dPolylineVertex
 10
454004.201
 20
244798.363
 30
159.728
 70
    32
  0
VERTEX
  5
CAA
330
CA4
100
AcDbEntity
  8
B1072
100
AcDbVertex
100
AcDb3dPolylineVertex
 10
454004.231
 20
244798.561
 30
159.727
 70
    32
  0
VERTEX
  5
CAB
330
CA4
100
AcDbEntity
  8
B1072
100
AcDbVertex
100
AcDb3dPolylineVertex
 10
454004.313
 20
244798.747
 30
159.709
 70
    32
  0
VERTEX
  5
CAC
330
CA4
100
AcDbEntity
  8
B1072
100
AcDbVertex
100
AcDb3dPolylineVertex
 10
454004.291
 20
244798.931
 30
159.629
 70
    32
  0
VERTEX
  5
CAD
330
CA4
100
AcDbEntity
  8
B1072
100
AcDbVertex
100
AcDb3dPolylineVertex
 10
454004.217
 20
244799.087
 30
159.694
 70
    32
  0
VERTEX
  5
CAE
330
CA4
100
AcDbEntity
  8
B1072
100
AcDbVertex
100
AcDb3dPolylineVertex
 10
454004.193
 20
244799.188
 30
159.696
 70
    32
  0
VERTEX
  5
CAF
330
CA4
100
AcDbEntity
  8
B1072
100
AcDbVertex
100
AcDb3dPolylineVertex
 10
454004.164
 20
244799.321
 30
159.754
 70
    32
  0
VERTEX
  5
CB0
330
CA4
100
AcDbEntity
  8
B1072
100
AcDbVertex
100
AcDb3dPolylineVertex
 10
454004.185
 20
244799.381
 30
159.809
 70
    32
  0
SEQEND
  5
CB1
330
CA4
100
AcDbEntity
  8
B1072
  0
POLYLINE
  5
CB3
330
1F
100
AcDbEntity
  8
S1072
100
AcDb3dPolyline
 66
     1
 10
0.0
 20
0.0
 30
0.0
 70
     8
  0
VERTEX
  5
CB4
330
CB3
100
AcDbEntity
  8
S1072
100
AcDbVertex
100
AcDb3dPolylineVertex
 10
454003.359
 20
244799.417
 30
160.223
 70
    32
  0
VERTEX
  5
CB5
330
CB3
100
AcDbEntity
  8
S1072
100
AcDbVertex
100
AcDb3dPolylineVertex
 10
454003.516
 20
244799.398
 30
160.109
 70
    32
  0
VERTEX
  5
CB6
330
CB3
100
AcDbEntity
  8
S1072
100
AcDbVertex
100
AcDb3dPolylineVertex
 10
454003.632
 20
244799.419
 30
160.005
 70
    32
  0
VERTEX
  5
CB7
330
CB3
100
AcDbEntity
  8
S1072
100
AcDbVertex
100
AcDb3dPolylineVertex
 10
454003.71
 20
244799.408
 30
159.861
 70
    32
  0
VERTEX
  5
CB8
330
CB3
100
AcDbEntity
  8
S1072
100
AcDbVertex
100
AcDb3dPolylineVertex
 10
454003.816
 20
244799.349
 30
159.739
 70
    32
  0
VERTEX
  5
CB9
330
CB3
100
AcDbEntity
  8
S1072
100
AcDbVertex
100
AcDb3dPolylineVertex
 10
454003.819
 20
244799.36
 30
159.735
 70
    32
  0
VERTEX
  5
CBA
330
CB3
100
AcDbEntity
  8
S1072
100
AcDbVertex
100
AcDb3dPolylineVertex
 10
454003.903
 20
244799.396
 30
159.729
 70
    32
  0
VERTEX
  5
CBB
330
CB3
100
AcDbEntity
  8
S1072
100
AcDbVertex
100
AcDb3dPolylineVertex
 10
454004.032
 20
244799.381
 30
159.728
 70
    32
  0
VERTEX
  5
CBC
330
CB3
100
AcDbEntity
  8
S1072
100
AcDbVertex
100
AcDb3dPolylineVertex
 10
454004.113
 20
244799.421
 30
159.781
 70
    32
  0
VERTEX
  5
CBD
330
CB3
100
AcDbEntity
  8
S1072
100
AcDbVertex
100
AcDb3dPolylineVertex
 10
454004.242
 20
244799.41
 30
159.806
 70
    32
  0
VERTEX
  5
CBE
330
CB3
100
AcDbEntity
  8
S1072
100
AcDbVertex
100
AcDb3dPolylineVertex
 10
454004.333
 20
244799.433
 30
159.981
 70
    32
  0
VERTEX
  5
CBF
330
CB3
100
AcDbEntity
  8
S1072
100
AcDbVertex
100
AcDb3dPolylineVertex
 10
454004.4840000001
 20
244799.412
 30
160.061
 70
    32
  0
VERTEX
  5
CC0
330
CB3
100
AcDbEntity
  8
S1072
100
AcDbVertex
100
AcDb3dPolylineVertex
 10
454004.572
 20
244799.436
 30
160.112
 70
    32
  0
VERTEX
  5
CC1
330
CB3
100
AcDbEntity
  8
S1072
100
AcDbVertex
100
AcDb3dPolylineVertex
 10
454004.7
 20
244799.437
 30
160.174
 70
    32
  0
VERTEX
  5
CC2
330
CB3
100
AcDbEntity
  8
S1072
100
AcDbVertex
100
AcDb3dPolylineVertex
 10
454004.78
 20
244799.424
 30
160.267
 70
    32
  0
VERTEX
  5
CC3
330
CB3
100
AcDbEntity
  8
S1072
100
AcDbVertex
100
AcDb3dPolylineVertex
 10
454004.86
 20
244799.461
 30
160.354
 70
    32
  0
SEQEND
  5
CC4
330
CB3
100
AcDbEntity
  8
S1072
  0
POINT
  5
CC7
330
1F
100
AcDbEntity
  8
L1084
100
AcDbPoint
 10
454003.786
 20
244799.366
 30
159.842
  0
POINT
  5
CCA
330
1F
100
AcDbEntity
  8
L1098
100
AcDbPoint
 10
454003.478
 20
244799.435
 30
160.287
  0
POINT
  5
CCC
330
1F
100
AcDbEntity
  8
L1098
100
AcDbPoint
 10
454004.175
 20
244799.493
 30
160.363
  0
POLYLINE
  5
CCE
330
1F
100
AcDbEntity
  8
C1098
100
AcDb3dPolyline
 66
     1
 10
0.0
 20
0.0
 30
0.0
 70
     8
  0
VERTEX
  5
CCF
330
CCE
100
AcDbEntity
  8
C1098
100
AcDbVertex
100
AcDb3dPolylineVertex
 10
453956.32
 20
244806.391
 30
159.175
 70
    32
  0
VERTEX
  5
CD0
330
CCE
100
AcDbEntity
  8
C1098
100
AcDbVertex
100
AcDb3dPolylineVertex
 10
453956.319
 20
244806.7
 30
159.138
 70
    32
  0
VERTEX
  5
CD1
330
CCE
100
AcDbEntity
  8
C1098
100
AcDbVertex
100
AcDb3dPolylineVertex
 10
453956.29
 20
244807.008
 30
159.18
 70
    32
  0
VERTEX
  5
CD2
330
CCE
100
AcDbEntity
  8
C1098
100
AcDbVertex
100
AcDb3dPolylineVertex
 10
453956.4
 20
244807.288
 30
159.121
 70
    32
  0
VERTEX
  5
CD3
330
CCE
100
AcDbEntity
  8
C1098
100
AcDbVertex
100
AcDb3dPolylineVertex
 10
453956.517
 20
244807.622
 30
159.15
 70
    32
  0
VERTEX
  5
CD4
330
CCE
100
AcDbEntity
  8
C1098
100
AcDbVertex
100
AcDb3dPolylineVertex
 10
453956.639
 20
244807.986
 30
159.181
 70
    32
  0
VERTEX
  5
CD5
330
CCE
100
AcDbEntity
  8
C1098
100
AcDbVertex
100
AcDb3dPolylineVertex
 10
453956.713
 20
244808.33
 30
159.11
 70
    32
  0
VERTEX
  5
CD6
330
CCE
100
AcDbEntity
  8
C1098
100
AcDbVertex
100
AcDb3dPolylineVertex
 10
453956.765
 20
244808.729
 30
159.129
 70
    32
  0
VERTEX
  5
CD7
330
CCE
100
AcDbEntity
  8
C1098
100
AcDbVertex
100
AcDb3dPolylineVertex
 10
453956.845
 20
244809.008
 30
159.147
 70
    32
  0
VERTEX
  5
CD8
330
CCE
100
AcDbEntity
  8
C1098
100
AcDbVertex
100
AcDb3dPolylineVertex
 10
453956.931
 20
244809.317
 30
159.165
 70
    32
  0
SEQEND
  5
CD9
330
CCE
100
AcDbEntity
  8
C1098
  0
POLYLINE
  5
CDB
330
1F
100
AcDbEntity
  8
C1098
100
AcDb3dPolyline
 66
     1
 10
0.0
 20
0.0
 30
0.0
 70
     8
  0
VERTEX
  5
CDC
330
CDB
100
AcDbEntity
  8
C1098
100
AcDbVertex
100
AcDb3dPolylineVertex
 10
453955.415
 20
244809.908
 30
159.22
 70
    32
  0
VERTEX
  5
CDD
330
CDB
100
AcDbEntity
  8
C1098
100
AcDbVertex
100
AcDb3dPolylineVertex
 10
453955.33
 20
244809.59
 30
159.191
 70
    32
  0
VERTEX
  5
CDE
330
CDB
100
AcDbEntity
  8
C1098
100
AcDbVertex
100
AcDb3dPolylineVertex
 10
453955.263
 20
244809.244
 30
159.209
 70
    32
  0
VERTEX
  5
CDF
330
CDB
100
AcDbEntity
  8
C1098
100
AcDbVertex
100
AcDb3dPolylineVertex
 10
453955.064
 20
244808.986
 30
159.19
 70
    32
  0
VERTEX
  5
CE0
330
CDB
100
AcDbEntity
  8
C1098
100
AcDbVertex
100
AcDb3dPolylineVertex
 10
453954.905
 20
244808.681
 30
159.168
 70
    32
  0
VERTEX
  5
CE1
330
CDB
100
AcDbEntity
  8
C1098
100
AcDbVertex
100
AcDb3dPolylineVertex
 10
453954.79
 20
244808.319
 30
159.144
 70
    32
  0
VERTEX
  5
CE2
330
CDB
100
AcDbEntity
  8
C1098
100
AcDbVertex
100
AcDb3dPolylineVertex
 10
453954.626
 20
244807.92
 30
159.176
 70
    32
  0
VERTEX
  5
CE3
330
CDB
100
AcDbEntity
  8
C1098
100
AcDbVertex
100
AcDb3dPolylineVertex
 10
453954.459
 20
244807.398
 30
159.139
 70
    32
  0
VERTEX
  5
CE4
330
CDB
100
AcDbEntity
  8
C1098
100
AcDbVertex
100
AcDb3dPolylineVertex
 10
453954.37
 20
244807.142
 30
159.135
 70
    32
  0
VERTEX
  5
CE5
330
CDB
100
AcDbEntity
  8
C1098
100
AcDbVertex
100
AcDb3dPolylineVertex
 10
453954.266
 20
244806.886
 30
159.12
 70
    32
  0
SEQEND
  5
CE6
330
CDB
100
AcDbEntity
  8
C1098
  0
POLYLINE
  5
CE9
330
1F
100
AcDbEntity
  8
B1098
100
AcDb3dPolyline
 66
     1
 10
0.0
 20
0.0
 30
0.0
 70
     8
  0
VERTEX
  5
CEA
330
CE9
100
AcDbEntity
  8
B1098
100
AcDbVertex
100
AcDb3dPolylineVertex
 10
453956.09
 20
244808.762
 30
158.392
 70
    32
  0
VERTEX
  5
CEB
330
CE9
100
AcDbEntity
  8
B1098
100
AcDbVertex
100
AcDb3dPolylineVertex
 10
453956.0415000001
 20
244808.5885
 30
158.4045
 70
    32
  0
VERTEX
  5
CEC
330
CE9
100
AcDbEntity
  8
B1098
100
AcDbVertex
100
AcDb3dPolylineVertex
 10
453955.993682087
 20
244808.3879667387
 30
158.402
 70
    32
  0
VERTEX
  5
CED
330
CE9
100
AcDbEntity
  8
B1098
100
AcDbVertex
100
AcDb3dPolylineVertex
 10
453955.9350341769
 20
244808.1808247496
 30
158.41503125
 70
    32
  0
VERTEX
  5
CEE
330
CE9
100
AcDbEntity
  8
B1098
100
AcDbVertex
100
AcDb3dPolylineVertex
 10
453955.8791631019
 20
244807.9590738326
 30
158.4180625
 70
    32
  0
VERTEX
  5
CEF
330
CE9
100
AcDbEntity
  8
B1098
100
AcDbVertex
100
AcDb3dPolylineVertex
 10
453955.8183262037
 20
244807.7261476652
 30
158.413125
 70
    32
  0
VERTEX
  5
CF0
330
CE9
100
AcDbEntity
  8
B1098
100
AcDbVertex
100
AcDb3dPolylineVertex
 10
453955.7446524074
 20
244807.4722953303
 30
158.40325
 70
    32
  0
VERTEX
  5
CF1
330
CE9
100
AcDbEntity
  8
B1098
100
AcDbVertex
100
AcDb3dPolylineVertex
 10
453955.6907427451
 20
244807.2577633196
 30
158.4
 70
    32
  0
VERTEX
  5
CF2
330
CE9
100
AcDbEntity
  8
B1098
100
AcDbVertex
100
AcDb3dPolylineVertex
 10
453955.6363613504
 20
244807.055871957
 30
158.392
 70
    32
  0
SEQEND
  5
CF3
330
CE9
100
AcDbEntity
  8
B1098
  0
POLYLINE
  5
CF5
330
1F
100
AcDbEntity
  8
B1098
100
AcDb3dPolyline
 66
     1
 10
0.0
 20
0.0
 30
0.0
 70
     8
  0
VERTEX
  5
CF6
330
CF5
100
AcDbEntity
  8
B1098
100
AcDbVertex
100
AcDb3dPolylineVertex
 10
453955.6469999999
 20
244808.881
 30
158.43
 70
    32
  0
VERTEX
  5
CF7
330
CF5
100
AcDbEntity
  8
B1098
100
AcDbVertex
100
AcDb3dPolylineVertex
 10
453955.58
 20
244808.545
 30
158.415
 70
    32
  0
VERTEX
  5
CF8
330
CF5
100
AcDbEntity
  8
B1098
100
AcDbVertex
100
AcDb3dPolylineVertex
 10
453955.528
 20
244808.351
 30
158.354
 70
    32
  0
VERTEX
  5
CF9
330
CF5
100
AcDbEntity
  8
B1098
100
AcDbVertex
100
AcDb3dPolylineVertex
 10
453955.442
 20
244807.956509661
 30
158.378
 70
    32
  0
VERTEX
  5
CFA
330
CF5
100
AcDbEntity
  8
B1098
100
AcDbVertex
100
AcDb3dPolylineVertex
 10
453955.3257298938
 20
244807.6813733207
 30
158.3845
 70
    32
  0
VERTEX
  5
CFB
330
CF5
100
AcDbEntity
  8
B1098
100
AcDbVertex
100
AcDb3dPolylineVertex
 10
453955.1744597874
 20
244807.3557466413
 30
158.385
 70
    32
  0
VERTEX
  5
CFC
330
CF5
100
AcDbEntity
  8
B1098
100
AcDbVertex
100
AcDb3dPolylineVertex
 10
453955.1744597874
 20
244807.1209029154
 30
158.385
 70
    32
  0
SEQEND
  5
CFD
330
CF5
100
AcDbEntity
  8
B1098
  0
POLYLINE
  5
D00
330
1F
100
AcDbEntity
  8
S1098
100
AcDb3dPolyline
 66
     1
 10
0.0
 20
0.0
 30
0.0
 70
     8
  0
VERTEX
  5
D01
330
D00
100
AcDbEntity
  8
S1098
100
AcDbVertex
100
AcDb3dPolylineVertex
 10
453955.3
 20
244809.077
 30
159.079
 70
    32
  0
VERTEX
  5
D02
330
D00
100
AcDbEntity
  8
S1098
100
AcDbVertex
100
AcDb3dPolylineVertex
 10
453955.448
 20
244809.0
 30
158.798
 70
    32
  0
VERTEX
  5
D03
330
D00
100
AcDbEntity
  8
S1098
100
AcDbVertex
100
AcDb3dPolylineVertex
 10
453955.543
 20
244808.959
 30
158.551
 70
    32
  0
VERTEX
  5
D04
330
D00
100
AcDbEntity
  8
S1098
100
AcDbVertex
100
AcDb3dPolylineVertex
 10
453955.6459999999
 20
244808.899
 30
158.424
 70
    32
  0
VERTEX
  5
D05
330
D00
100
AcDbEntity
  8
S1098
100
AcDbVertex
100
AcDb3dPolylineVertex
 10
453955.798
 20
244808.842
 30
158.393
 70
    32
  0
VERTEX
  5
D06
330
D00
100
AcDbEntity
  8
S1098
100
AcDbVertex
100
AcDb3dPolylineVertex
 10
453955.938
 20
244808.794
 30
158.388
 70
    32
  0
VERTEX
  5
D07
330
D00
100
AcDbEntity
  8
S1098
100
AcDbVertex
100
AcDb3dPolylineVertex
 10
453956.123
 20
244808.755
 30
158.385
 70
    32
  0
VERTEX
  5
D08
330
D00
100
AcDbEntity
  8
S1098
100
AcDbVertex
100
AcDb3dPolylineVertex
 10
453956.2330000001
 20
244808.745
 30
158.506
 70
    32
  0
VERTEX
  5
D09
330
D00
100
AcDbEntity
  8
S1098
100
AcDbVertex
100
AcDb3dPolylineVertex
 10
453956.307
 20
244808.759
 30
158.635
 70
    32
  0
VERTEX
  5
D0A
330
D00
100
AcDbEntity
  8
S1098
100
AcDbVertex
100
AcDb3dPolylineVertex
 10
453956.443
 20
244808.771
 30
158.789
 70
    32
  0
VERTEX
  5
D0B
330
D00
100
AcDbEntity
  8
S1098
100
AcDbVertex
100
AcDb3dPolylineVertex
 10
453956.566
 20
244808.748
 30
158.906
 70
    32
  0
VERTEX
  5
D0C
330
D00
100
AcDbEntity
  8
S1098
100
AcDbVertex
100
AcDb3dPolylineVertex
 10
453956.761
 20
244808.765
 30
159.118
 70
    32
  0
SEQEND
  5
D0D
330
D00
100
AcDbEntity
  8
S1098
  0
POLYLINE
  5
D15
330
1F
100
AcDbEntity
  8
C1006
100
AcDb3dPolyline
 66
     1
 10
0.0
 20
0.0
 30
0.0
 70
     8
  0
VERTEX
  5
D16
330
D15
100
AcDbEntity
  8
C1006
100
AcDbVertex
100
AcDb3dPolylineVertex
 10
453959.01
 20
244792.392
 30
158.86
 70
    32
  0
VERTEX
  5
D17
330
D15
100
AcDbEntity
  8
C1006
100
AcDbVertex
100
AcDb3dPolylineVertex
 10
453958.81
 20
244792.684
 30
158.821
 70
    32
  0
VERTEX
  5
D18
330
D15
100
AcDbEntity
  8
C1006
100
AcDbVertex
100
AcDb3dPolylineVertex
 10
453958.613
 20
244792.941
 30
158.821
 70
    32
  0
VERTEX
  5
D19
330
D15
100
AcDbEntity
  8
C1006
100
AcDbVertex
100
AcDb3dPolylineVertex
 10
453958.415
 20
244793.32
 30
158.815
 70
    32
  0
VERTEX
  5
D1A
330
D15
100
AcDbEntity
  8
C1006
100
AcDbVertex
100
AcDb3dPolylineVertex
 10
453958.026
 20
244793.722
 30
158.837
 70
    32
  0
VERTEX
  5
D1B
330
D15
100
AcDbEntity
  8
C1006
100
AcDbVertex
100
AcDb3dPolylineVertex
 10
453957.704
 20
244794.169
 30
158.879
 70
    32
  0
VERTEX
  5
D1C
330
D15
100
AcDbEntity
  8
C1006
100
AcDbVertex
100
AcDb3dPolylineVertex
 10
453957.415
 20
244794.435
 30
158.839
 70
    32
  0
VERTEX
  5
D1D
330
D15
100
AcDbEntity
  8
C1006
100
AcDbVertex
100
AcDb3dPolylineVertex
 10
453957.138
 20
244794.689
 30
158.838
 70
    32
  0
VERTEX
  5
D1E
330
D15
100
AcDbEntity
  8
C1006
100
AcDbVertex
100
AcDb3dPolylineVertex
 10
453956.901
 20
244794.881
 30
158.841
 70
    32
  0
SEQEND
  5
D1F
330
D15
100
AcDbEntity
  8
C1006
  0
POLYLINE
  5
D21
330
1F
100
AcDbEntity
  8
C1006
100
AcDb3dPolyline
 66
     1
 10
0.0
 20
0.0
 30
0.0
 70
     8
  0
VERTEX
  5
D22
330
D21
100
AcDbEntity
  8
C1006
100
AcDbVertex
100
AcDb3dPolylineVertex
 10
453955.775
 20
244793.414
 30
158.79
 70
    32
  0
VERTEX
  5
D23
330
D21
100
AcDbEntity
  8
C1006
100
AcDbVertex
100
AcDb3dPolylineVertex
 10
453955.9390000001
 20
244793.172
 30
158.764
 70
    32
  0
VERTEX
  5
D24
330
D21
100
AcDbEntity
  8
C1006
100
AcDbVertex
100
AcDb3dPolylineVertex
 10
453956.258
 20
244792.932
 30
158.79
 70
    32
  0
VERTEX
  5
D25
330
D21
100
AcDbEntity
  8
C1006
100
AcDbVertex
100
AcDb3dPolylineVertex
 10
453956.442
 20
244792.726
 30
158.819
 70
    32
  0
VERTEX
  5
D26
330
D21
100
AcDbEntity
  8
C1006
100
AcDbVertex
100
AcDb3dPolylineVertex
 10
453956.688
 20
244792.454
 30
158.805
 70
    32
  0
VERTEX
  5
D27
330
D21
100
AcDbEntity
  8
C1006
100
AcDbVertex
100
AcDb3dPolylineVertex
 10
453956.854
 20
244792.145
 30
158.8
 70
    32
  0
VERTEX
  5
D28
330
D21
100
AcDbEntity
  8
C1006
100
AcDbVertex
100
AcDb3dPolylineVertex
 10
453957.186
 20
244791.842
 30
158.79
 70
    32
  0
VERTEX
  5
D29
330
D21
100
AcDbEntity
  8
C1006
100
AcDbVertex
100
AcDb3dPolylineVertex
 10
453957.426
 20
244791.766
 30
158.822
 70
    32
  0
VERTEX
  5
D2A
330
D21
100
AcDbEntity
  8
C1006
100
AcDbVertex
100
AcDb3dPolylineVertex
 10
453957.681
 20
244791.575
 30
158.831
 70
    32
  0
VERTEX
  5
D2B
330
D21
100
AcDbEntity
  8
C1006
100
AcDbVertex
100
AcDb3dPolylineVertex
 10
453957.856
 20
244791.34
 30
158.842
 70
    32
  0
SEQEND
  5
D2C
330
D21
100
AcDbEntity
  8
C1006
  0
POLYLINE
  5
D2E
330
1F
100
AcDbEntity
  8
B1006
100
AcDb3dPolyline
 66
     1
 10
0.0
 20
0.0
 30
0.0
 70
     8
  0
VERTEX
  5
D2F
330
D2E
100
AcDbEntity
  8
B1006
100
AcDbVertex
100
AcDb3dPolylineVertex
 10
453957.9990000001
 20
244792.62
 30
157.979
 70
    32
  0
VERTEX
  5
D30
330
D2E
100
AcDbEntity
  8
B1006
100
AcDbVertex
100
AcDb3dPolylineVertex
 10
453957.9
 20
244792.757
 30
157.974
 70
    32
  0
VERTEX
  5
D31
330
D2E
100
AcDbEntity
  8
B1006
100
AcDbVertex
100
AcDb3dPolylineVertex
 10
453957.844
 20
244792.795
 30
157.975
 70
    32
  0
VERTEX
  5
D32
330
D2E
100
AcDbEntity
  8
B1006
100
AcDbVertex
100
AcDb3dPolylineVertex
 10
453957.743
 20
244792.885
 30
157.904
 70
    32
  0
VERTEX
  5
D33
330
D2E
100
AcDbEntity
  8
B1006
100
AcDbVertex
100
AcDb3dPolylineVertex
 10
453957.644
 20
244793.019
 30
157.911
 70
    32
  0
VERTEX
  5
D34
330
D2E
100
AcDbEntity
  8
B1006
100
AcDbVertex
100
AcDb3dPolylineVertex
 10
453957.5867340108
 20
244793.088
 30
157.918
 70
    32
  0
VERTEX
  5
D35
330
D2E
100
AcDbEntity
  8
B1006
100
AcDbVertex
100
AcDb3dPolylineVertex
 10
453957.503
 20
244793.156
 30
157.939
 70
    32
  0
VERTEX
  5
D36
330
D2E
100
AcDbEntity
  8
B1006
100
AcDbVertex
100
AcDb3dPolylineVertex
 10
453957.4365091455
 20
244793.2209639023
 30
157.942
 70
    32
  0
VERTEX
  5
D37
330
D2E
100
AcDbEntity
  8
B1006
100
AcDbVertex
100
AcDb3dPolylineVertex
 10
453957.343414627
 20
244793.2964657559
 30
157.94
 70
    32
  0
VERTEX
  5
D38
330
D2E
100
AcDbEntity
  8
B1006
100
AcDbVertex
100
AcDb3dPolylineVertex
 10
453957.2451889145
 20
244793.3968905515
 30
157.9435
 70
    32
  0
SEQEND
  5
D39
330
D2E
100
AcDbEntity
  8
B1006
  0
POLYLINE
  5
D3B
330
1F
100
AcDbEntity
  8
B1006
100
AcDb3dPolyline
 66
     1
 10
0.0
 20
0.0
 30
0.0
 70
     8
  0
VERTEX
  5
D3C
330
D3B
100
AcDbEntity
  8
B1006
100
AcDbVertex
100
AcDb3dPolylineVertex
 10
453957.686
 20
244792.301
 30
158.027
 70
    32
  0
VERTEX
  5
D3D
330
D3B
100
AcDbEntity
  8
B1006
100
AcDbVertex
100
AcDb3dPolylineVertex
 10
453957.525
 20
244792.45
 30
157.974
 70
    32
  0
VERTEX
  5
D3E
330
D3B
100
AcDbEntity
  8
B1006
100
AcDbVertex
100
AcDb3dPolylineVertex
 10
453957.47
 20
244792.564
 30
157.95
 70
    32
  0
VERTEX
  5
D3F
330
D3B
100
AcDbEntity
  8
B1006
100
AcDbVertex
100
AcDb3dPolylineVertex
 10
453957.392
 20
244792.654
 30
157.952
 70
    32
  0
VERTEX
  5
D40
330
D3B
100
AcDbEntity
  8
B1006
100
AcDbVertex
100
AcDb3dPolylineVertex
 10
453957.319
 20
244792.748
 30
157.962
 70
    32
  0
VERTEX
  5
D41
330
D3B
100
AcDbEntity
  8
B1006
100
AcDbVertex
100
AcDb3dPolylineVertex
 10
453957.266
 20
244792.894
 30
157.934
 70
    32
  0
VERTEX
  5
D42
330
D3B
100
AcDbEntity
  8
B1006
100
AcDbVertex
100
AcDb3dPolylineVertex
 10
453957.1586392844
 20
244792.9682045097
 30
157.936
 70
    32
  0
VERTEX
  5
D43
330
D3B
100
AcDbEntity
  8
B1006
100
AcDbVertex
100
AcDb3dPolylineVertex
 10
453957.0521449101
 20
244793.0492062442
 30
157.938
 70
    32
  0
VERTEX
  5
D44
330
D3B
100
AcDbEntity
  8
B1006
100
AcDbVertex
100
AcDb3dPolylineVertex
 10
453956.9424697688
 20
244793.1540812089
 30
157.94
 70
    32
  0
SEQEND
  5
D45
330
D3B
100
AcDbEntity
  8
B1006
  0
POLYLINE
  5
D47
330
1F
100
AcDbEntity
  8
S1006
100
AcDb3dPolyline
 66
     1
 10
0.0
 20
0.0
 30
0.0
 70
     8
  0
VERTEX
  5
D48
330
D47
100
AcDbEntity
  8
S1006
100
AcDbVertex
100
AcDb3dPolylineVertex
 10
453958.4190000001
 20
244792.78
 30
158.728
 70
    32
  0
VERTEX
  5
D49
330
D47
100
AcDbEntity
  8
S1006
100
AcDbVertex
100
AcDb3dPolylineVertex
 10
453958.208
 20
244792.573
 30
158.401
 70
    32
  0
VERTEX
  5
D4A
330
D47
100
AcDbEntity
  8
S1006
100
AcDbVertex
100
AcDb3dPolylineVertex
 10
453958.1079999999
 20
244792.587
 30
158.187
 70
    32
  0
VERTEX
  5
D4B
330
D47
100
AcDbEntity
  8
S1006
100
AcDbVertex
100
AcDb3dPolylineVertex
 10
453958.02
 20
244792.571
 30
158.0
 70
    32
  0
VERTEX
  5
D4C
330
D47
100
AcDbEntity
  8
S1006
100
AcDbVertex
100
AcDb3dPolylineVertex
 10
453957.911
 20
244792.46
 30
158.01
 70
    32
  0
VERTEX
  5
D4D
330
D47
100
AcDbEntity
  8
S1006
100
AcDbVertex
100
AcDb3dPolylineVertex
 10
453957.787
 20
244792.358
 30
158.014
 70
    32
  0
VERTEX
  5
D4E
330
D47
100
AcDbEntity
  8
S1006
100
AcDbVertex
100
AcDb3dPolylineVertex
 10
453957.681
 20
244792.267
 30
158.058
 70
    32
  0
VERTEX
  5
D4F
330
D47
100
AcDbEntity
  8
S1006
100
AcDbVertex
100
AcDb3dPolylineVertex
 10
453957.678
 20
244792.177
 30
158.185
 70
    32
  0
VERTEX
  5
D50
330
D47
100
AcDbEntity
  8
S1006
100
AcDbVertex
100
AcDb3dPolylineVertex
 10
453957.606
 20
244792.126
 30
158.247
 70
    32
  0
VERTEX
  5
D51
330
D47
100
AcDbEntity
  8
S1006
100
AcDbVertex
100
AcDb3dPolylineVertex
 10
453957.539
 20
244791.971
 30
158.433
 70
    32
  0
VERTEX
  5
D52
330
D47
100
AcDbEntity
  8
S1006
100
AcDbVertex
100
AcDb3dPolylineVertex
 10
453957.468
 20
244791.908
 30
158.557
 70
    32
  0
VERTEX
  5
D53
330
D47
100
AcDbEntity
  8
S1006
100
AcDbVertex
100
AcDb3dPolylineVertex
 10
453957.36
 20
244791.843
 30
158.732
 70
    32
  0
VERTEX
  5
D54
330
D47
100
AcDbEntity
  8
S1006
100
AcDbVertex
100
AcDb3dPolylineVertex
 10
453957.351
 20
244791.809
 30
158.846
 70
    32
  0
SEQEND
  5
D55
330
D47
100
AcDbEntity
  8
S1006
  0
POINT
  5
D58
330
1F
100
AcDbEntity
  8
L1093
100
AcDbPoint
 10
453958.015
 20
244792.221
 30
158.822
  0
POINT
  5
D5B
330
1F
100
AcDbEntity
  8
L1094
100
AcDbPoint
 10
453957.932
 20
244792.247
 30
158.616
  0
POINT
  5
D5E
330
1F
100
AcDbEntity
  8
L1095
100
AcDbPoint
 10
453957.952
 20
244792.292
 30
158.408
  0
POINT
  5
D61
330
1F
100
AcDbEntity
  8
L1096
100
AcDbPoint
 10
453957.931
 20
244792.316
 30
158.22
  0
POINT
  5
D64
330
1F
100
AcDbEntity
  8
L1097
100
AcDbPoint
 10
453957.902
 20
244792.358
 30
158.133
  0
POINT
  5
D67
330
1F
100
AcDbEntity
  8
L1085
100
AcDbPoint
 10
453955.9830000001
 20
244808.962
 30
159.131
  0
POINT
  5
D6A
330
1F
100
AcDbEntity
  8
L1086
100
AcDbPoint
 10
453956.22
 20
244808.867
 30
159.042
  0
POINT
  5
D6D
330
1F
100
AcDbEntity
  8
L1087
100
AcDbPoint
 10
453956.352
 20
244808.817
 30
159.004
  0
POINT
  5
D70
330
1F
100
AcDbEntity
  8
L1088
100
AcDbPoint
 10
453956.59
 20
244808.802
 30
159.134
  0
POINT
  5
D73
330
1F
100
AcDbEntity
  8
L1089
100
AcDbPoint
 10
453955.463
 20
244809.04
 30
159.007
  0
POINT
  5
D76
330
1F
100
AcDbEntity
  8
L1090
100
AcDbPoint
 10
453955.465
 20
244808.996
 30
158.932
  0
POINT
  5
D79
330
1F
100
AcDbEntity
  8
L1091
100
AcDbPoint
 10
453955.857
 20
244808.904
 30
158.828
  0
POINT
  5
D7B
330
1F
100
AcDbEntity
  8
L1091
100
AcDbPoint
 10
453955.86
 20
244808.909
 30
158.825
  0
POINT
  5
D7E
330
1F
100
AcDbEntity
  8
L1092
100
AcDbPoint
 10
453955.914
 20
244808.856
 30
158.591
  0
POINT
  5
D87
330
1F
100
AcDbEntity
  8
L1100
100
AcDbPoint
 10
454000.813
 20
244782.86
 30
159.403
  0
POINT
  5
D8A
330
1F
100
AcDbEntity
  8
L1101
100
AcDbPoint
 10
454000.945
 20
244782.848
 30
159.152
  0
POINT
  5
D8D
330
1F
100
AcDbEntity
  8
L1102
100
AcDbPoint
 10
454001.101
 20
244782.355
 30
159.183
  0
POINT
  5
D90
330
1F
100
AcDbEntity
  8
L1103
100
AcDbPoint
 10
454000.954
 20
244782.801
 30
158.958
  0
POINT
  5
D93
330
1F
100
AcDbEntity
  8
L1104
100
AcDbPoint
 10
454000.975
 20
244782.795
 30
158.814
  0
POLYLINE
  5
D95
330
1F
100
AcDbEntity
  8
C1063
100
AcDb3dPolyline
 66
     1
 10
0.0
 20
0.0
 30
0.0
 70
     8
  0
VERTEX
  5
D96
330
D95
100
AcDbEntity
  8
C1063
100
AcDbVertex
100
AcDb3dPolylineVertex
 10
454000.285
 20
244783.779
 30
159.415
 70
    32
  0
VERTEX
  5
D97
330
D95
100
AcDbEntity
  8
C1063
100
AcDbVertex
100
AcDb3dPolylineVertex
 10
454000.688
 20
244783.941
 30
159.376
 70
    32
  0
VERTEX
  5
D98
330
D95
100
AcDbEntity
  8
C1063
100
AcDbVertex
100
AcDb3dPolylineVertex
 10
454001.138
 20
244784.202
 30
159.457
 70
    32
  0
VERTEX
  5
D99
330
D95
100
AcDbEntity
  8
C1063
100
AcDbVertex
100
AcDb3dPolylineVertex
 10
454001.538
 20
244784.415
 30
159.447
 70
    32
  0
VERTEX
  5
D9A
330
D95
100
AcDbEntity
  8
C1063
100
AcDbVertex
100
AcDb3dPolylineVertex
 10
454001.928
 20
244784.791
 30
159.472
 70
    32
  0
VERTEX
  5
D9B
330
D95
100
AcDbEntity
  8
C1063
100
AcDbVertex
100
AcDb3dPolylineVertex
 10
454002.304
 20
244785.098
 30
159.535
 70
    32
  0
VERTEX
  5
D9C
330
D95
100
AcDbEntity
  8
C1063
100
AcDbVertex
100
AcDb3dPolylineVertex
 10
454002.543
 20
244785.274
 30
159.574
 70
    32
  0
SEQEND
  5
D9D
330
D95
100
AcDbEntity
  8
C1063
  0
POLYLINE
  5
D9F
330
1F
100
AcDbEntity
  8
C1063
100
AcDb3dPolyline
 66
     1
 10
0.0
 20
0.0
 30
0.0
 70
     8
  0
VERTEX
  5
DA0
330
D9F
100
AcDbEntity
  8
C1063
100
AcDbVertex
100
AcDb3dPolylineVertex
 10
454003.265
 20
244782.68
 30
159.474
 70
    32
  0
VERTEX
  5
DA1
330
D9F
100
AcDbEntity
  8
C1063
100
AcDbVertex
100
AcDb3dPolylineVertex
 10
454002.9840000001
 20
244782.545
 30
159.45
 70
    32
  0
VERTEX
  5
DA2
330
D9F
100
AcDbEntity
  8
C1063
100
AcDbVertex
100
AcDb3dPolylineVertex
 10
454002.532
 20
244782.401
 30
159.375
 70
    32
  0
VERTEX
  5
DA3
330
D9F
100
AcDbEntity
  8
C1063
100
AcDbVertex
100
AcDb3dPolylineVertex
 10
454002.089
 20
244782.178
 30
159.358
 70
    32
  0
VERTEX
  5
DA4
330
D9F
100
AcDbEntity
  8
C1063
100
AcDbVertex
100
AcDb3dPolylineVertex
 10
454001.629
 20
244782.029
 30
159.339
 70
    32
  0
VERTEX
  5
DA5
330
D9F
100
AcDbEntity
  8
C1063
100
AcDbVertex
100
AcDb3dPolylineVertex
 10
454001.2
 20
244781.948
 30
159.339
 70
    32
  0
VERTEX
  5
DA6
330
D9F
100
AcDbEntity
  8
C1063
100
AcDbVertex
100
AcDb3dPolylineVertex
 10
454000.851
 20
244781.881
 30
159.315
 70
    32
  0
SEQEND
  5
DA7
330
D9F
100
AcDbEntity
  8
C1063
  0
POLYLINE
  5
DAA
330
1F
100
AcDbEntity
  8
B1063
100
AcDb3dPolyline
 66
     1
 10
0.0
 20
0.0
 30
0.0
 70
     8
  0
VERTEX
  5
DAB
330
DAA
100
AcDbEntity
  8
B1063
100
AcDbVertex
100
AcDb3dPolylineVertex
 10
454001.19
 20
244782.753
 30
158.508
 70
    32
  0
VERTEX
  5
DAC
330
DAA
100
AcDbEntity
  8
B1063
100
AcDbVertex
100
AcDb3dPolylineVertex
 10
454001.452
 20
244782.828
 30
158.497
 70
    32
  0
VERTEX
  5
DAD
330
DAA
100
AcDbEntity
  8
B1063
100
AcDbVertex
100
AcDb3dPolylineVertex
 10
454001.774
 20
244782.934
 30
158.569
 70
    32
  0
VERTEX
  5
DAE
330
DAA
100
AcDbEntity
  8
B1063
100
AcDbVertex
100
AcDb3dPolylineVertex
 10
454002.014
 20
244782.997
 30
158.598
 70
    32
  0
VERTEX
  5
DAF
330
DAA
100
AcDbEntity
  8
B1063
100
AcDbVertex
100
AcDb3dPolylineVertex
 10
454002.316
 20
244783.408
 30
158.84
 70
    32
  0
VERTEX
  5
DB0
330
DAA
100
AcDbEntity
  8
B1063
100
AcDbVertex
100
AcDb3dPolylineVertex
 10
454002.567
 20
244783.576
 30
158.884
 70
    32
  0
SEQEND
  5
DB1
330
DAA
100
AcDbEntity
  8
B1063
  0
POLYLINE
  5
DB3
330
1F
100
AcDbEntity
  8
B1063
100
AcDb3dPolyline
 66
     1
 10
0.0
 20
0.0
 30
0.0
 70
     8
  0
VERTEX
  5
DB4
330
DB3
100
AcDbEntity
  8
B1063
100
AcDbVertex
100
AcDb3dPolylineVertex
 10
454002.379
 20
244784.215
 30
158.882
 70
    32
  0
VERTEX
  5
DB5
330
DB3
100
AcDbEntity
  8
B1063
100
AcDbVertex
100
AcDb3dPolylineVertex
 10
454002.06
 20
244783.897
 30
158.865
 70
    32
  0
VERTEX
  5
DB6
330
DB3
100
AcDbEntity
  8
B1063
100
AcDbVertex
100
AcDb3dPolylineVertex
 10
454001.922
 20
244783.396
 30
158.713
 70
    32
  0
VERTEX
  5
DB7
330
DB3
100
AcDbEntity
  8
B1063
100
AcDbVertex
100
AcDb3dPolylineVertex
 10
454001.704
 20
244783.145
 30
158.562
 70
    32
  0
VERTEX
  5
DB8
330
DB3
100
AcDbEntity
  8
B1063
100
AcDbVertex
100
AcDb3dPolylineVertex
 10
454001.389
 20
244783.017
 30
158.525
 70
    32
  0
VERTEX
  5
DB9
330
DB3
100
AcDbEntity
  8
B1063
100
AcDbVertex
100
AcDb3dPolylineVertex
 10
454001.096
 20
244782.913
 30
158.513
 70
    32
  0
SEQEND
  5
DBA
330
DB3
100
AcDbEntity
  8
B1063
  0
POLYLINE
  5
DBC
330
1F
100
AcDbEntity
  8
S1063
100
AcDb3dPolyline
 66
     1
 10
0.0
 20
0.0
 30
0.0
 70
     8
  0
VERTEX
  5
DBD
330
DBC
100
AcDbEntity
  8
S1063
100
AcDbVertex
100
AcDb3dPolylineVertex
 10
454001.153
 20
244781.985
 30
159.324
 70
    32
  0
VERTEX
  5
DBE
330
DBC
100
AcDbEntity
  8
S1063
100
AcDbVertex
100
AcDb3dPolylineVertex
 10
454001.143
 20
244782.28
 30
159.081
 70
    32
  0
VERTEX
  5
DBF
330
DBC
100
AcDbEntity
  8
S1063
100
AcDbVertex
100
AcDb3dPolylineVertex
 10
454001.111
 20
244782.616
 30
158.748
 70
    32
  0
VERTEX
  5
DC0
330
DBC
100
AcDbEntity
  8
S1063
100
AcDbVertex
100
AcDb3dPolylineVertex
 10
454001.167
 20
244782.742
 30
158.499
 70
    32
  0
VERTEX
  5
DC1
330
DBC
100
AcDbEntity
  8
S1063
100
AcDbVertex
100
AcDb3dPolylineVertex
 10
454001.055
 20
244782.957
 30
158.55
 70
    32
  0
VERTEX
  5
DC2
330
DBC
100
AcDbEntity
  8
S1063
100
AcDbVertex
100
AcDb3dPolylineVertex
 10
454000.955
 20
244783.088
 30
158.77
 70
    32
  0
VERTEX
  5
DC3
330
DBC
100
AcDbEntity
  8
S1063
100
AcDbVertex
100
AcDb3dPolylineVertex
 10
454000.835
 20
244783.331
 30
158.994
 70
    32
  0
VERTEX
  5
DC4
330
DBC
100
AcDbEntity
  8
S1063
100
AcDbVertex
100
AcDb3dPolylineVertex
 10
454000.745
 20
244783.561
 30
159.167
 70
    32
  0
VERTEX
  5
DC5
330
DBC
100
AcDbEntity
  8
S1063
100
AcDbVertex
100
AcDb3dPolylineVertex
 10
454000.76
 20
244783.829
 30
159.284
 70
    32
  0
VERTEX
  5
DC6
330
DBC
100
AcDbEntity
  8
S1063
100
AcDbVertex
100
AcDb3dPolylineVertex
 10
454000.718
 20
244783.896
 30
159.364
 70
    32
  0
SEQEND
  5
DC7
330
DBC
100
AcDbEntity
  8
S1063
  0
LWPOLYLINE
  5
DF7
330
1F
100
AcDbEntity
  8
DP017
100
AcDbPolyline
 90
        2
 70
     0
 43
0.0
 38
159.4
 10
454000.496
 20
244784.242
 10
454001.166
 20
244781.746
  0
VIEWPORT
  5
162
330
23
100
AcDbEntity
 67
     1
  8
0
100
AcDbViewport
 10
202.5
 20
128.5
 30
0.0
 40
441.0
 41
311.85
 68
     2
 69
     1
 12
202.5
 22
128.5
 13
0.0
 23
0.0
 14
0.5
 24
0.5
 15
0.0
 25
0.0
 16
0.0
 26
0.0
 36
1.0
 17
0.0
 27
0.0
 37
0.0
 42
50.0
 43
0.0
 44
0.0
 45
311.85
 50
0.0
 51
0.0
 72
   100
 90
   557152
  1

281
     0
 71
     1
 74
     0
110
0.0
120
0.0
130
0.0
111
1.0
121
0.0
131
0.0
112
0.0
122
1.0
132
0.0
 79
     0
146
0.0
170
     0
 61
     5
348
2F
292
     1
282
     1
141
0.0
142
0.0
 63
   256
361
167
  0
VIEWPORT
  5
164
102
{ACAD_XDICTIONARY
360
165
102
}
330
23
100
AcDbEntity
 67
     1
  8
0
100
AcDbViewport
 10
203.4580645161291
 20
128.5
 30
0.0
 40
419.6322580645162
 41
295.5629032258065
 68
     1
 69
     2
 12
454002.9782877295
 22
244790.6418046097
 13
0.0
 23
0.0
 14
0.5
 24
0.5
 15
0.0
 25
0.0
 16
0.0
 26
0.0
 36
1.0
 17
0.0
 27
0.0
 37
0.0
 42
50.0
 43
0.0
 44
0.0
 45
87.37010348810011
 50
0.0
 51
0.0
 72
   100
 90
   557168
  1

281
     0
 71
     1
 74
     0
110
0.0
120
0.0
130
0.0
111
1.0
121
0.0
131
0.0
112
0.0
122
1.0
132
0.0
 79
     0
146
0.0
170
     0
 61
     5
348
2F
292
     1
282
     1
141
0.0
142
0.0
 63
   256
361
176
  0
ENDSEC
  0
SECTION
  2
OBJECTS
  0
DICTIONARY
  5
C
330
0
100
AcDbDictionary
281
     1
  3
ACAD_DETAILVIEWSTYLE
350
B5
  3
ACAD_GROUP
350
D
  3
ACAD_IMAGE_VARS
350
6A
  3
ACAD_LAYOUT
350
1A
  3
ACAD_MATERIAL
350
72
  3
ACAD_MLEADERSTYLE
350
3F
  3
ACAD_MLINESTYLE
350
17
  3
ACAD_PLOTSETTINGS
350
19
  3
ACAD_PLOTSTYLENAME
350
E
  3
ACAD_SCALELIST
350
40
  3
ACAD_SECTIONVIEWSTYLE
350
B6
  3
ACAD_TABLESTYLE
350
3B
  3
ACAD_VISUALSTYLE
350
2A
  3
ACDB_RECOMPOSE_DATA
350
E21
  3
AcDbVariableDictionary
350
3D
  3
AcStStandard
350
885
  3
APPDATA
350
71
  0
SUN
  5
80
330
29
100
AcDbSun
 90
        1
290
     0
 63
     7
421
 16777215
 40
1.0
291
     1
 91
  2455826
 92
 54000000
292
     0
 70
     2
 71
   256
280
     1
  0
DICTIONARY
  5
BD
330
2
100
AcDbDictionary
280
     1
281
     1
  3
ACAD_LAYERSTATES
360
BE
  3
ACLYDICTIONARY
360
DF9
  0
SUN
  5
167
330
162
100
AcDbSun
 90
        1
290
     0
 63
     7
421
 16777215
 40
1.0
291
     1
 91
  2455826
 92
 54000000
292
     0
 70
     2
 71
   256
280
     1
  0
DICTIONARY
  5
165
330
164
100
AcDbDictionary
280
     1
281
     1
  3
ASDK_XREC_ANNOTATION_SCALE_INFO
360
166
  0
SUN
  5
176
330
164
100
AcDbSun
 90
        1
290
     0
 63
     7
421
 16777215
 40
1.0
291
     1
 91
  2455826
 92
 54000000
292
     0
 70
     2
 71
   256
280
     1
  0
DICTIONARY
  5
B5
102
{ACAD_REACTORS
330
C
102
}
330
C
100
AcDbDictionary
281
     1
  0
DICTIONARY
  5
D
102
{ACAD_REACTORS
330
C
102
}
330
C
100
AcDbDictionary
281
     1
  0
RASTERVARIABLES
  5
6A
102
{ACAD_REACTORS
330
C
102
}
330
C
100
AcDbRasterVariables
 90
        0
 70
     1
 71
     1
 72
     1
  0
DICTIONARY
  5
1A
102
{ACAD_REACTORS
330
C
102
}
330
C
100
AcDbDictionary
281
     1
  3
Model
350
22
  3
Sheet1
350
1E
  3
Sheet2
350
26
  0
DICTIONARY
  5
72
102
{ACAD_REACTORS
330
C
102
}
330
C
100
AcDbDictionary
281
     1
  3
ByBlock
350
74
  3
ByLayer
350
73
  3
Global
350
75
  0
DICTIONARY
  5
3F
102
{ACAD_REACTORS
330
C
102
}
330
C
100
AcDbDictionary
281
     1
  3
Annotative
350
BC
  3
Standard
350
B7
  0
DICTIONARY
  5
17
102
{ACAD_REACTORS
330
C
102
}
330
C
100
AcDbDictionary
281
     1
  3
Standard
350
18
  0
DICTIONARY
  5
19
102
{ACAD_REACTORS
330
C
102
}
330
C
100
AcDbDictionary
281
     1
  0
ACDBDICTIONARYWDFLT
  5
E
102
{ACAD_REACTORS
330
C
102
}
330
C
100
AcDbDictionary
281
     1
  3
Normal
350
F
100
AcDbDictionaryWithDefault
340
F
  0
DICTIONARY
  5
40
102
{ACAD_REACTORS
330
C
102
}
330
C
100
AcDbDictionary
281
     1
  3
A0
350
41
  3
A1
350
42
  3
A2
350
43
  3
A3
350
44
  3
A4
350
45
  3
A5
350
46
  3
A6
350
47
  3
A7
350
48
  3
A8
350
49
  3
A9
350
4A
  3
B0
350
4B
  3
B1
350
4C
  3
B2
350
4D
  3
B3
350
4E
  3
B4
350
4F
  3
B5
350
50
  3
B6
350
51
  3
B7
350
52
  3
B8
350
53
  3
B9
350
54
  3
C0
350
55
  3
C1
350
56
  3
C2
350
57
  3
C3
350
58
  3
C4
350
59
  3
C5
350
5A
  3
C6
350
5B
  3
C7
350
5C
  3
C8
350
5D
  3
C9
350
5E
  3
D0
350
5F
  3
D1
350
60
  3
D2
350
61
  0
DICTIONARY
  5
B6
102
{ACAD_REACTORS
330
C
102
}
330
C
100
AcDbDictionary
281
     1
  0
DICTIONARY
  5
3B
102
{ACAD_REACTORS
330
C
102
}
330
C
100
AcDbDictionary
281
     1
  3
Standard
350
3C
  0
DICTIONARY
  5
2A
102
{ACAD_REACTORS
330
C
102
}
330
C
100
AcDbDictionary
281
     1
  3
2dWireframe
350
2F
  3
3D Hidden
350
31
  3
3dWireframe
350
30
  3
Basic
350
32
  3
Brighten
350
36
  3
ColorChange
350
3A
  3
Conceptual
350
34
  3
Dim
350
35
  3
EdgeColorOff
350
7A
  3
Facepattern
350
39
  3
Flat
350
2B
  3
FlatWithEdges
350
2C
  3
Gouraud
350
2D
  3
GouraudWithEdges
350
2E
  3
Hidden
350
77
  3
JitterOff
350
78
  3
Linepattern
350
38
  3
OverhangOff
350
79
  3
Realistic
350
33
  3
Shaded
350
7F
  3
Shaded with edges
350
7E
  3
Shades of Gray
350
7B
  3
Sketchy
350
7C
  3
Thicken
350
37
  3
Wireframe
350
76
  3
X-Ray
350
7D
  0
XRECORD
  5
E21
102
{ACAD_REACTORS
330
C
102
}
330
C
100
AcDbXrecord
280
     1
 90
        1
330
3C
  0
DICTIONARY
  5
3D
102
{ACAD_REACTORS
330
C
102
}
330
C
100
AcDbDictionary
281
     1
  3
CANNOSCALE
350
62
  3
CMLEADERSTYLE
350
BB
  3
CTABLESTYLE
350
3E
  3
LIGHTSINBLOCKS
350
6F
  3
XCLIPFRAME
350
70
  0
DICTIONARY
  5
885
102
{ACAD_REACTORS
330
C
102
}
330
C
100
AcDbDictionary
281
     1
  0
DICTIONARY
  5
71
102
{ACAD_REACTORS
330
C
102
}
330
C
100
AcDbDictionary
281
     1
  0
DICTIONARY
  5
BE
102
{ACAD_REACTORS
330
BD
102
}
330
BD
100
AcDbDictionary
281
     1
  0
DICTIONARY
  5
DF9
102
{ACAD_REACTORS
330
BD
102
}
330
BD
100
AcDbDictionary
281
     1
1001
ACAD
1000
<All
  0
XRECORD
  5
166
102
{ACAD_REACTORS
330
165
102
}
330
165
100
AcDbXrecord
280
     1
 90
        1
340
41
  0
LAYOUT
  5
22
102
{ACAD_REACTORS
330
1A
102
}
330
1A
100
AcDbPlotSettings
  1

  2
none_device
  4
ISO_A3_(420.00_x_297.00_MM)
  6

 40
7.5
 41
20.0
 42
7.5
 43
20.0
 44
420.0
 45
297.0
 46
20.78282828282826
 47
0.0
 48
0.0
 49
0.0
140
0.0
141
0.0
142
1.0
143
1.155642023346303
 70
  1204
 72
     1
 73
     0
 74
     1
  7
monochrome.ctb
 75
     0
 76
     0
 77
     2
 78
   300
147
0.8653198653198654
148
-134.1869158878504
149
0.0
100
AcDbLayout
  1
Model
 70
     1
 71
     0
 10
0.0
 20
0.0
 11
420.0
 21
297.0
 12
0.0
 22
0.0
 32
0.0
 14
453951.225
 24
244765.22
 34
157.454
 15
454053.457
 25
244819.114
 35
162.372
146
0.0
 13
0.0
 23
0.0
 33
0.0
 16
1.0
 26
0.0
 36
0.0
 17
0.0
 27
1.0
 37
0.0
 76
     0
330
1F
331
29
  0
LAYOUT
  5
1E
102
{ACAD_REACTORS
330
1A
102
}
330
1A
100
AcDbPlotSettings
  1

  2
none_device
  4

  6

 40
0.0
 41
0.0
 42
0.0
 43
0.0
 44
0.0
 45
0.0
 46
0.0
 47
0.0
 48
0.0
 49
0.0
140
0.0
141
0.0
142
1.0
143
1.0
 70
   688
 72
     0
 73
     0
 74
     5
  7

 75
    16
 76
     0
 77
     2
 78
   300
147
1.0
148
0.0
149
0.0
100
AcDbLayout
  1
Sheet1
 70
     1
 71
     1
 10
0.0
 20
0.0
 11
0.0
 21
0.0
 12
0.0
 22
0.0
 32
0.0
 14
1.000000000000000E+20
 24
1.000000000000000E+20
 34
1.000000000000000E+20
 15
-1.000000000000000E+20
 25
-1.000000000000000E+20
 35
-1.000000000000000E+20
146
0.0
 13
0.0
 23
0.0
 33
0.0
 16
1.0
 26
0.0
 36
0.0
 17
0.0
 27
1.0
 37
0.0
 76
     0
330
1B
  0
LAYOUT
  5
26
102
{ACAD_REACTORS
330
1A
102
}
330
1A
100
AcDbPlotSettings
  1

  2
none_device
  4
ISO_A3_(420.00_x_297.00_MM)
  6

 40
7.5
 41
20.0
 42
7.5
 43
20.0
 44
420.0
 45
297.0
 46
0.0
 47
0.0
 48
0.0
 49
0.0
140
0.0
141
0.0
142
1.0
143
1.0
 70
   688
 72
     1
 73
     0
 74
     5
  7

 75
    16
 76
     0
 77
     2
 78
   300
147
1.0
148
0.0
149
0.0
100
AcDbLayout
  1
Sheet2
 70
     1
 71
     2
 10
0.0
 20
0.0
 11
0.0
 21
0.0
 12
0.0
 22
0.0
 32
0.0
 14
-6.358064516129048
 24
-19.28145161290325
 34
0.0
 15
413.2741935483872
 25
276.2814516129032
 35
0.0
146
0.0
 13
0.0
 23
0.0
 33
0.0
 16
1.0
 26
0.0
 36
0.0
 17
0.0
 27
1.0
 37
0.0
 76
     0
330
23
331
164
  0
MATERIAL
  5
74
102
{ACAD_REACTORS
330
72
102
}
330
72
100
AcDbMaterial
  1
ByBlock
 72
     1
 94
      127
  0
MATERIAL
  5
73
102
{ACAD_REACTORS
330
72
102
}
330
72
100
AcDbMaterial
  1
ByLayer
 72
     1
 94
      127
  0
MATERIAL
  5
75
102
{ACAD_REACTORS
330
72
102
}
330
72
100
AcDbMaterial
  1
Global
 72
     1
 94
      127
  0
MLEADERSTYLE
  5
BC
102
{ACAD_REACTORS
330
3F
102
}
330
3F
100
AcDbMLeaderStyle
179
     2
170
     2
171
     1
172
     0
 90
        2
 40
0.0
 41
0.0
173
     1
 91
-1056964608
340
14
 92
       -2
290
     1
 42
2.0
291
     1
 43
8.0
  3
Annotative
341
0
 44
4.0
300

342
11
174
     1
178
     1
175
     1
176
     0
 93
-1056964608
 45
4.0
292
     0
297
     0
 46
4.0
343
0
 94
-1056964608
 47
1.0
 49
1.0
140
1.0
293
     1
141
0.0
294
     1
177
     0
142
1.0
295
     0
296
     1
143
3.75
271
     0
272
     9
273
     9
298
     0
  0
MLEADERSTYLE
  5
B7
102
{ACAD_REACTORS
330
3F
102
}
330
3F
100
AcDbMLeaderStyle
179
     2
170
     2
171
     1
172
     0
 90
        2
 40
0.0
 41
0.0
173
     1
 91
-1056964608
340
14
 92
       -2
290
     1
 42
2.0
291
     1
 43
8.0
  3
Standard
341
0
 44
4.0
300

342
11
174
     1
178
     6
175
     1
176
     0
 93
-1056964608
 45
4.0
292
     0
297
     0
 46
4.0
343
0
 94
-1056964608
 47
1.0
 49
1.0
140
1.0
293
     1
141
0.0
294
     1
177
     0
142
1.0
295
     0
296
     0
143
3.75
271
     0
272
     9
273
     9
298
     0
  0
MLINESTYLE
  5
18
102
{ACAD_REACTORS
330
17
102
}
330
17
100
AcDbMlineStyle
  2
Standard
 70
     0
  3

 62
   256
 51
90.0
 52
90.0
 71
     2
 49
0.5
 62
   256
  6
BYLAYER
 49
-0.5
 62
   256
  6
BYLAYER
  0
ACDBPLACEHOLDER
  5
F
102
{ACAD_REACTORS
330
E
102
}
330
E
  0
SCALE
  5
41
102
{ACAD_REACTORS
330
40
102
}
330
40
100
AcDbScale
 70
     0
300
1:1
140
1.0
141
1.0
290
     1
  0
SCALE
  5
42
102
{ACAD_REACTORS
330
40
102
}
330
40
100
AcDbScale
 70
     0
300
1:2
140
1.0
141
2.0
290
     0
  0
SCALE
  5
43
102
{ACAD_REACTORS
330
40
102
}
330
40
100
AcDbScale
 70
     0
300
1:4
140
1.0
141
4.0
290
     0
  0
SCALE
  5
44
102
{ACAD_REACTORS
330
40
102
}
330
40
100
AcDbScale
 70
     0
300
1:5
140
1.0
141
5.0
290
     0
  0
SCALE
  5
45
102
{ACAD_REACTORS
330
40
102
}
330
40
100
AcDbScale
 70
     0
300
1:8
140
1.0
141
8.0
290
     0
  0
SCALE
  5
46
102
{ACAD_REACTORS
330
40
102
}
330
40
100
AcDbScale
 70
     0
300
1:10
140
1.0
141
10.0
290
     0
  0
SCALE
  5
47
102
{ACAD_REACTORS
330
40
102
}
330
40
100
AcDbScale
 70
     0
300
1:16
140
1.0
141
16.0
290
     0
  0
SCALE
  5
48
102
{ACAD_REACTORS
330
40
102
}
330
40
100
AcDbScale
 70
     0
300
1:20
140
1.0
141
20.0
290
     0
  0
SCALE
  5
49
102
{ACAD_REACTORS
330
40
102
}
330
40
100
AcDbScale
 70
     0
300
1:30
140
1.0
141
30.0
290
     0
  0
SCALE
  5
4A
102
{ACAD_REACTORS
330
40
102
}
330
40
100
AcDbScale
 70
     0
300
1:40
140
1.0
141
40.0
290
     0
  0
SCALE
  5
4B
102
{ACAD_REACTORS
330
40
102
}
330
40
100
AcDbScale
 70
     0
300
1:50
140
1.0
141
50.0
290
     0
  0
SCALE
  5
4C
102
{ACAD_REACTORS
330
40
102
}
330
40
100
AcDbScale
 70
     0
300
1:100
140
1.0
141
100.0
290
     0
  0
SCALE
  5
4D
102
{ACAD_REACTORS
330
40
102
}
330
40
100
AcDbScale
 70
     0
300
2:1
140
2.0
141
1.0
290
     0
  0
SCALE
  5
4E
102
{ACAD_REACTORS
330
40
102
}
330
40
100
AcDbScale
 70
     0
300
4:1
140
4.0
141
1.0
290
     0
  0
SCALE
  5
4F
102
{ACAD_REACTORS
330
40
102
}
330
40
100
AcDbScale
 70
     0
300
8:1
140
8.0
141
1.0
290
     0
  0
SCALE
  5
50
102
{ACAD_REACTORS
330
40
102
}
330
40
100
AcDbScale
 70
     0
300
10:1
140
10.0
141
1.0
290
     0
  0
SCALE
  5
51
102
{ACAD_REACTORS
330
40
102
}
330
40
100
AcDbScale
 70
     0
300
100:1
140
100.0
141
1.0
290
     0
  0
SCALE
  5
52
102
{ACAD_REACTORS
330
40
102
}
330
40
100
AcDbScale
 70
     0
300
1/128" = 1'-0"
140
0.0078125
141
12.0
290
     0
  0
SCALE
  5
53
102
{ACAD_REACTORS
330
40
102
}
330
40
100
AcDbScale
 70
     0
300
1/64" = 1'-0"
140
0.015625
141
12.0
290
     0
  0
SCALE
  5
54
102
{ACAD_REACTORS
330
40
102
}
330
40
100
AcDbScale
 70
     0
300
1/32" = 1'-0"
140
0.03125
141
12.0
290
     0
  0
SCALE
  5
55
102
{ACAD_REACTORS
330
40
102
}
330
40
100
AcDbScale
 70
     0
300
1/16" = 1'-0"
140
0.0625
141
12.0
290
     0
  0
SCALE
  5
56
102
{ACAD_REACTORS
330
40
102
}
330
40
100
AcDbScale
 70
     0
300
3/32" = 1'-0"
140
0.09375
141
12.0
290
     0
  0
SCALE
  5
57
102
{ACAD_REACTORS
330
40
102
}
330
40
100
AcDbScale
 70
     0
300
1/8" = 1'-0"
140
0.125
141
12.0
290
     0
  0
SCALE
  5
58
102
{ACAD_REACTORS
330
40
102
}
330
40
100
AcDbScale
 70
     0
300
3/16" = 1'-0"
140
0.1875
141
12.0
290
     0
  0
SCALE
  5
59
102
{ACAD_REACTORS
330
40
102
}
330
40
100
AcDbScale
 70
     0
300
1/4" = 1'-0"
140
0.25
141
12.0
290
     0
  0
SCALE
  5
5A
102
{ACAD_REACTORS
330
40
102
}
330
40
100
AcDbScale
 70
     0
300
3/8" = 1'-0"
140
0.375
141
12.0
290
     0
  0
SCALE
  5
5B
102
{ACAD_REACTORS
330
40
102
}
330
40
100
AcDbScale
 70
     0
300
1/2" = 1'-0"
140
0.5
141
12.0
290
     0
  0
SCALE
  5
5C
102
{ACAD_REACTORS
330
40
102
}
330
40
100
AcDbScale
 70
     0
300
3/4" = 1'-0"
140
0.75
141
12.0
290
     0
  0
SCALE
  5
5D
102
{ACAD_REACTORS
330
40
102
}
330
40
100
AcDbScale
 70
     0
300
1" = 1'-0"
140
1.0
141
12.0
290
     0
  0
SCALE
  5
5E
102
{ACAD_REACTORS
330
40
102
}
330
40
100
AcDbScale
 70
     0
300
1-1/2" = 1'-0"
140
1.5
141
12.0
290
     0
  0
SCALE
  5
5F
102
{ACAD_REACTORS
330
40
102
}
330
40
100
AcDbScale
 70
     0
300
3" = 1'-0"
140
3.0
141
12.0
290
     0
  0
SCALE
  5
60
102
{ACAD_REACTORS
330
40
102
}
330
40
100
AcDbScale
 70
     0
300
6" = 1'-0"
140
6.0
141
12.0
290
     0
  0
SCALE
  5
61
102
{ACAD_REACTORS
330
40
102
}
330
40
100
AcDbScale
 70
     0
300
1'-0" = 1'-0"
140
12.0
141
12.0
290
     0
  0
TABLESTYLE
  5
3C
102
{ACAD_REACTORS
330
3B
102
}
102
{ACAD_XDICTIONARY
360
E1F
102
}
330
3B
100
AcDbTableStyle
  3
Standard
 70
     0
 71
     0
 40
1.5
 41
1.5
280
     0
281
     0
  7
Standard
140
4.5
170
     2
 62
     0
 63
   257
283
     0
 90
      512
 91
        0
  1

274
    -2
284
     1
 64
     0
275
    -2
285
     1
 65
     0
276
    -2
286
     1
 66
     0
277
    -2
287
     1
 67
     0
278
    -2
288
     1
 68
     0
279
    -2
289
     1
 69
     0
  7
Standard
140
6.0
170
     5
 62
     0
 63
   257
283
     0
 90
      512
 91
        0
  1

274
    -2
284
     1
 64
     0
275
    -2
285
     1
 65
     0
276
    -2
286
     1
 66
     0
277
    -2
287
     1
 67
     0
278
    -2
288
     1
 68
     0
279
    -2
289
     1
 69
     0
  7
Standard
140
4.5
170
     5
 62
     0
 63
   257
283
     0
 90
      512
 91
        0
  1

274
    -2
284
     1
 64
     0
275
    -2
285
     1
 65
     0
276
    -2
286
     1
 66
     0
277
    -2
287
     1
 67
     0
278
    -2
288
     1
 68
     0
279
    -2
289
     1
 69
     0
  0
VISUALSTYLE
  5
2F
102
{ACAD_REACTORS
330
2A
102
}
330
2A
100
AcDbVisualStyle
  2
2dWireframe
 70
     4
177
     3
291
     0
 70
    58
 90
        0
176
     1
 90
        2
176
     1
 90
        0
176
     1
 90
        0
176
     1
 40
-0.6
176
     1
 40
-30.0
176
     1
 62
     7
420
 16777215
176
     1
 90
        1
176
     1
 90
        4
176
     1
 62
     7
176
     1
 62
   257
176
     1
 90
        1
176
     1
 90
        1
176
     1
 40
1.0
176
     1
 90
        0
176
     1
 62
   257
176
     1
 40
1.0
176
     1
 90
        1
176
     1
 90
        6
176
     1
 90
        2
176
     1
 62
     7
176
     1
 90
        5
176
     1
 90
        0
176
     1
 90
        0
176
     1
290
     0
176
     1
 90
        1
176
     1
 40
0.0
176
     1
 90
        0
176
     1
290
     1
176
     1
290
     1
176
     1
290
     0
176
     1
290
     0
176
     1
290
     0
176
     1
290
     0
176
     1
290
     0
176
     1
290
     0
176
     1
290
     0
176
     1
 90
       50
176
     1
 40
0.0
176
     1
 40
1.0
176
     1
 90
        0
176
     1
 62
    18
420
        0
176
     1
 90
       50
176
     1
 90
        3
176
     1
 62
     5
420
      255
176
     1
290
     0
176
     1
 90
       50
176
     1
 90
       50
176
     1
 90
       50
176
     1
290
     0
176
     1
 90
       50
176
     1
 62
   256
176
     0
 40
1.0
176
     0
 90
        2
176
     1
  1
strokes_ogs.tif
176
     1
290
     0
176
     1
 40
1.0
176
     1
 40
1.0
176
     1
  0
VISUALSTYLE
  5
31
102
{ACAD_REACTORS
330
2A
102
}
330
2A
100
AcDbVisualStyle
  2
3D Hidden
 70
     6
177
     3
291
     0
 70
    58
 90
        1
176
     1
 90
        2
176
     1
 90
        2
176
     1
 90
        0
176
     1
 40
-0.6
176
     1
 40
-30.0
176
     1
 62
     7
420
 16777215
176
     1
 90
        2
176
     1
 90
        2
176
     1
 62
     7
176
     1
 62
   257
176
     1
 90
        2
176
     1
 90
        1
176
     1
 40
40.0
176
     1
 90
        0
176
     1
 62
   257
176
     1
 40
1.0
176
     1
 90
        1
176
     1
 90
        6
176
     1
 90
        2
176
     1
 62
     7
176
     1
 90
        3
176
     1
 90
        0
176
     1
 90
        0
176
     1
290
     0
176
     1
 90
        1
176
     1
 40
0.0
176
     1
 90
        0
176
     1
290
     0
176
     1
290
     1
176
     1
290
     1
176
     1
290
     0
176
     1
290
     0
176
     1
290
     0
176
     1
290
     0
176
     1
290
     0
176
     1
290
     0
176
     1
 90
       50
176
     1
 40
0.0
176
     1
 40
1.0
176
     1
 90
        0
176
     1
 62
    18
420
        0
176
     1
 90
       50
176
     1
 90
        3
176
     1
 62
     5
420
      255
176
     1
290
     0
176
     1
 90
       50
176
     1
 90
       50
176
     1
 90
       50
176
     1
290
     0
176
     1
 90
       50
176
     1
 62
   256
176
     0
 40
1.0
176
     0
 90
        2
176
     1
  1
strokes_ogs.tif
176
     1
290
     0
176
     1
 40
1.0
176
     1
 40
1.0
176
     1
  0
VISUALSTYLE
  5
30
102
{ACAD_REACTORS
330
2A
102
}
330
2A
100
AcDbVisualStyle
  2
3dWireframe
 70
     5
177
     3
291
     0
 70
    58
 90
        0
176
     1
 90
        2
176
     1
 90
        0
176
     1
 90
        0
176
     1
 40
-0.6
176
     1
 40
-30.0
176
     1
 62
     7
420
 16777215
176
     1
 90
        1
176
     1
 90
        4
176
     1
 62
     7
176
     1
 62
   257
176
     1
 90
        1
176
     1
 90
        1
176
     1
 40
1.0
176
     1
 90
        0
176
     1
 62
   257
176
     1
 40
1.0
176
     1
 90
        1
176
     1
 90
        6
176
     1
 90
        2
176
     1
 62
     7
176
     1
 90
        5
176
     1
 90
        0
176
     1
 90
        0
176
     1
290
     0
176
     1
 90
        1
176
     1
 40
0.0
176
     1
 90
        0
176
     1
290
     0
176
     1
290
     1
176
     1
290
     1
176
     1
290
     0
176
     1
290
     0
176
     1
290
     0
176
     1
290
     0
176
     1
290
     0
176
     1
290
     0
176
     1
 90
       50
176
     1
 40
0.0
176
     1
 40
1.0
176
     1
 90
        0
176
     1
 62
    18
420
        0
176
     1
 90
       50
176
     1
 90
        3
176
     1
 62
     5
420
      255
176
     1
290
     0
176
     1
 90
       50
176
     1
 90
       50
176
     1
 90
       50
176
     1
290
     0
176
     1
 90
       50
176
     1
 62
   256
176
     0
 40
1.0
176
     0
 90
        2
176
     1
  1
strokes_ogs.tif
176
     1
290
     0
176
     1
 40
1.0
176
     1
 40
1.0
176
     1
  0
VISUALSTYLE
  5
32
102
{ACAD_REACTORS
330
2A
102
}
330
2A
100
AcDbVisualStyle
  2
Basic
 70
     7
177
     3
291
     1
 70
    58
 90
        1
176
     1
 90
        0
176
     1
 90
        1
176
     1
 90
        0
176
     1
 40
-0.6
176
     1
 40
-30.0
176
     1
 62
     7
420
 16777215
176
     1
 90
        0
176
     1
 90
        4
176
     1
 62
     7
176
     1
 62
   257
176
     1
 90
        1
176
     1
 90
        1
176
     1
 40
1.0
176
     1
 90
        8
176
     1
 62
     7
176
     1
 40
1.0
176
     1
 90
        1
176
     1
 90
        6
176
     1
 90
        2
176
     1
 62
     7
176
     1
 90
        5
176
     1
 90
        0
176
     1
 90
        0
176
     1
290
     0
176
     1
 90
        1
176
     1
 40
0.0
176
     1
 90
        0
176
     1
290
     0
176
     1
290
     1
176
     1
290
     1
176
     1
290
     0
176
     1
290
     0
176
     1
290
     0
176
     1
290
     0
176
     1
290
     0
176
     1
290
     0
176
     1
 90
       50
176
     1
 40
0.0
176
     1
 40
1.0
176
     1
 90
        0
176
     1
 62
    18
420
        0
176
     1
 90
       50
176
     1
 90
        3
176
     1
 62
     5
420
      255
176
     1
290
     0
176
     1
 90
       50
176
     1
 90
       50
176
     1
 90
       50
176
     1
290
     0
176
     1
 90
       50
176
     1
 62
   256
176
     0
 40
1.0
176
     0
 90
        2
176
     1
  1
strokes_ogs.tif
176
     1
290
     0
176
     1
 40
1.0
176
     1
 40
1.0
176
     1
  0
VISUALSTYLE
  5
36
102
{ACAD_REACTORS
330
2A
102
}
330
2A
100
AcDbVisualStyle
  2
Brighten
 70
    12
177
     3
291
     1
 70
    58
 90
        2
176
     1
 90
        2
176
     1
 90
        0
176
     1
 90
        0
176
     1
 40
-0.6
176
     1
 40
-30.0
176
     1
 62
     7
420
 16777215
176
     1
 90
        1
176
     1
 90
        4
176
     1
 62
     7
176
     1
 62
   257
176
     1
 90
        1
176
     1
 90
        1
176
     1
 40
1.0
176
     1
 90
        8
176
     1
 62
     7
176
     1
 40
1.0
176
     1
 90
        1
176
     1
 90
        6
176
     1
 90
        2
176
     1
 62
     7
176
     1
 90
        5
176
     1
 90
        0
176
     1
 90
        0
176
     1
290
     0
176
     1
 90
        1
176
     1
 40
50.0
176
     1
 90
        0
176
     1
290
     0
176
     1
290
     1
176
     1
290
     1
176
     1
290
     0
176
     1
290
     0
176
     1
290
     0
176
     1
290
     0
176
     1
290
     0
176
     1
290
     0
176
     1
 90
       50
176
     1
 40
0.0
176
     1
 40
1.0
176
     1
 90
        0
176
     1
 62
    18
420
        0
176
     1
 90
       50
176
     1
 90
        3
176
     1
 62
     5
420
      255
176
     1
290
     0
176
     1
 90
       50
176
     1
 90
       50
176
     1
 90
       50
176
     1
290
     0
176
     1
 90
       50
176
     1
 62
   256
176
     0
 40
1.0
176
     0
 90
        2
176
     1
  1
strokes_ogs.tif
176
     1
290
     0
176
     1
 40
1.0
176
     1
 40
1.0
176
     1
  0
VISUALSTYLE
  5
3A
102
{ACAD_REACTORS
330
2A
102
}
330
2A
100
AcDbVisualStyle
  2
ColorChange
 70
    16
177
     3
291
     1
 70
    58
 90
        2
176
     1
 90
        2
176
     1
 90
        3
176
     1
 90
        0
176
     1
 40
-0.6
176
     1
 40
-30.0
176
     1
 62
     8
420
  8421504
176
     1
 90
        1
176
     1
 90
        4
176
     1
 62
     7
176
     1
 62
   257
176
     1
 90
        1
176
     1
 90
        1
176
     1
 40
1.0
176
     1
 90
        8
176
     1
 62
     8
420
  8421504
176
     1
 40
1.0
176
     1
 90
        1
176
     1
 90
        6
176
     1
 90
        2
176
     1
 62
     7
176
     1
 90
        5
176
     1
 90
        0
176
     1
 90
        0
176
     1
290
     0
176
     1
 90
        1
176
     1
 40
0.0
176
     1
 90
        0
176
     1
290
     0
176
     1
290
     1
176
     1
290
     1
176
     1
290
     0
176
     1
290
     0
176
     1
290
     0
176
     1
290
     0
176
     1
290
     0
176
     1
290
     0
176
     1
 90
       50
176
     1
 40
0.0
176
     1
 40
1.0
176
     1
 90
        0
176
     1
 62
    18
420
        0
176
     1
 90
       50
176
     1
 90
        3
176
     1
 62
     5
420
      255
176
     1
290
     0
176
     1
 90
       50
176
     1
 90
       50
176
     1
 90
       50
176
     1
290
     0
176
     1
 90
       50
176
     1
 62
   256
176
     0
 40
1.0
176
     0
 90
        2
176
     1
  1
strokes_ogs.tif
176
     1
290
     0
176
     1
 40
1.0
176
     1
 40
1.0
176
     1
  0
VISUALSTYLE
  5
34
102
{ACAD_REACTORS
330
2A
102
}
330
2A
100
AcDbVisualStyle
  2
Conceptual
 70
     9
177
     3
291
     0
 70
    58
 90
        3
176
     1
 90
        2
176
     1
 90
        0
176
     1
 90
        0
176
     1
 40
-0.6
176
     1
 40
-30.0
176
     1
 62
     7
420
 16777215
176
     1
 90
        2
176
     1
 90
        2
176
     1
 62
     7
176
     1
 62
   257
176
     1
 90
        1
176
     1
 90
        1
176
     1
 40
40.0
176
     1
 90
        8
176
     1
 62
     7
176
     1
 40
1.0
176
     1
 90
        1
176
     1
 90
        6
176
     1
 90
        2
176
     1
 62
     7
176
     1
 90
        3
176
     1
 90
        0
176
     1
 90
        0
176
     1
290
     0
176
     1
 90
        1
176
     1
 40
0.0
176
     1
 90
        0
176
     1
290
     0
176
     1
290
     1
176
     1
290
     1
176
     1
290
     0
176
     1
290
     0
176
     1
290
     0
176
     1
290
     0
176
     1
290
     0
176
     1
290
     0
176
     1
 90
       50
176
     1
 40
0.0
176
     1
 40
1.0
176
     1
 90
        0
176
     1
 62
    18
420
        0
176
     1
 90
       50
176
     1
 90
        3
176
     1
 62
     5
420
      255
176
     1
290
     0
176
     1
 90
       50
176
     1
 90
       50
176
     1
 90
       50
176
     1
290
     0
176
     1
 90
       50
176
     1
 62
   256
176
     0
 40
1.0
176
     0
 90
        2
176
     1
  1
strokes_ogs.tif
176
     1
290
     0
176
     1
 40
1.0
176
     1
 40
1.0
176
     1
  0
VISUALSTYLE
  5
35
102
{ACAD_REACTORS
330
2A
102
}
330
2A
100
AcDbVisualStyle
  2
Dim
 70
    11
177
     3
291
     1
 70
    58
 90
        2
176
     1
 90
        2
176
     1
 90
        0
176
     1
 90
        0
176
     1
 40
-0.6
176
     1
 40
-30.0
176
     1
 62
     7
420
 16777215
176
     1
 90
        1
176
     1
 90
        4
176
     1
 62
     7
176
     1
 62
   257
176
     1
 90
        1
176
     1
 90
        1
176
     1
 40
1.0
176
     1
 90
        8
176
     1
 62
     7
176
     1
 40
1.0
176
     1
 90
        1
176
     1
 90
        6
176
     1
 90
        2
176
     1
 62
     7
176
     1
 90
        5
176
     1
 90
        0
176
     1
 90
        0
176
     1
290
     0
176
     1
 90
        1
176
     1
 40
-50.0
176
     1
 90
        0
176
     1
290
     0
176
     1
290
     1
176
     1
290
     1
176
     1
290
     0
176
     1
290
     0
176
     1
290
     0
176
     1
290
     0
176
     1
290
     0
176
     1
290
     0
176
     1
 90
       50
176
     1
 40
0.0
176
     1
 40
1.0
176
     1
 90
        0
176
     1
 62
    18
420
        0
176
     1
 90
       50
176
     1
 90
        3
176
     1
 62
     5
420
      255
176
     1
290
     0
176
     1
 90
       50
176
     1
 90
       50
176
     1
 90
       50
176
     1
290
     0
176
     1
 90
       50
176
     1
 62
   256
176
     0
 40
1.0
176
     0
 90
        2
176
     1
  1
strokes_ogs.tif
176
     1
290
     0
176
     1
 40
1.0
176
     1
 40
1.0
176
     1
  0
VISUALSTYLE
  5
7A
102
{ACAD_REACTORS
330
2A
102
}
330
2A
100
AcDbVisualStyle
  2
EdgeColorOff
 70
    22
177
     3
291
     1
 70
    58
 90
        2
176
     1
 90
        2
176
     1
 90
        0
176
     1
 90
        0
176
     1
 40
0.6
176
     1
 40
30.0
176
     1
 62
     7
420
 16777215
176
     1
 90
        1
176
     1
 90
        4
176
     1
 62
     7
176
     1
 62
   257
176
     1
 90
        1
176
     1
 90
        1
176
     1
 40
1.0
176
     1
 90
        8
176
     1
 62
     7
176
     1
 40
1.0
176
     1
 90
        1
176
     1
 90
        6
176
     1
 90
        2
176
     1
 62
     7
176
     1
 90
        5
176
     1
 90
        0
176
     1
 90
        0
176
     1
290
     0
176
     1
 90
        1
176
     1
 40
0.0
176
     1
 90
        0
176
     1
290
     0
176
     1
290
     1
176
     1
290
     1
176
     1
290
     0
176
     1
290
     0
176
     1
290
     0
176
     1
290
     0
176
     1
290
     0
176
     1
290
     0
176
     1
 90
       50
176
     1
 40
0.0
176
     1
 40
1.0
176
     1
 90
        0
176
     1
 62
    18
420
        0
176
     1
 90
       50
176
     1
 90
        3
176
     1
 62
     5
420
      255
176
     1
290
     0
176
     1
 90
       50
176
     1
 90
       50
176
     1
 90
       50
176
     1
290
     0
176
     1
 90
       50
176
     1
 62
   256
176
     0
 40
1.0
176
     0
 90
        2
176
     1
  1
strokes_ogs.tif
176
     1
290
     0
176
     1
 40
1.0
176
     1
 40
1.0
176
     1
  0
VISUALSTYLE
  5
39
102
{ACAD_REACTORS
330
2A
102
}
330
2A
100
AcDbVisualStyle
  2
Facepattern
 70
    15
177
     3
291
     1
 70
    58
 90
        2
176
     1
 90
        2
176
     1
 90
        0
176
     1
 90
        0
176
     1
 40
-0.6
176
     1
 40
-30.0
176
     1
 62
     7
420
 16777215
176
     1
 90
        1
176
     1
 90
        4
176
     1
 62
     7
176
     1
 62
   257
176
     1
 90
        1
176
     1
 90
        1
176
     1
 40
1.0
176
     1
 90
        8
176
     1
 62
     7
176
     1
 40
1.0
176
     1
 90
        1
176
     1
 90
        6
176
     1
 90
        2
176
     1
 62
     7
176
     1
 90
        5
176
     1
 90
        0
176
     1
 90
        0
176
     1
290
     0
176
     1
 90
        1
176
     1
 40
0.0
176
     1
 90
        0
176
     1
290
     0
176
     1
290
     1
176
     1
290
     1
176
     1
290
     0
176
     1
290
     0
176
     1
290
     0
176
     1
290
     0
176
     1
290
     0
176
     1
290
     0
176
     1
 90
       50
176
     1
 40
0.0
176
     1
 40
1.0
176
     1
 90
        0
176
     1
 62
    18
420
        0
176
     1
 90
       50
176
     1
 90
        3
176
     1
 62
     5
420
      255
176
     1
290
     0
176
     1
 90
       50
176
     1
 90
       50
176
     1
 90
       50
176
     1
290
     0
176
     1
 90
       50
176
     1
 62
   256
176
     0
 40
1.0
176
     0
 90
        2
176
     1
  1
strokes_ogs.tif
176
     1
290
     0
176
     1
 40
1.0
176
     1
 40
1.0
176
     1
  0
VISUALSTYLE
  5
2B
102
{ACAD_REACTORS
330
2A
102
}
330
2A
100
AcDbVisualStyle
  2
Flat
 70
     0
177
     3
291
     1
 70
    58
 90
        2
176
     1
 90
        1
176
     1
 90
        1
176
     1
 90
        2
176
     1
 40
-0.6
176
     1
 40
30.0
176
     1
 62
     7
420
 16777215
176
     1
 90
        0
176
     1
 90
        4
176
     1
 62
     7
176
     1
 62
   257
176
     1
 90
        1
176
     1
 90
        1
176
     1
 40
1.0
176
     1
 90
        8
176
     1
 62
     7
176
     1
 40
1.0
176
     1
 90
        1
176
     1
 90
        6
176
     1
 90
        2
176
     1
 62
     7
176
     1
 90
        5
176
     1
 90
        0
176
     1
 90
        0
176
     1
290
     0
176
     1
 90
       13
176
     1
 40
0.0
176
     1
 90
        0
176
     1
290
     0
176
     1
290
     1
176
     1
290
     1
176
     1
290
     0
176
     1
290
     0
176
     1
290
     0
176
     1
290
     0
176
     1
290
     0
176
     1
290
     0
176
     1
 90
       50
176
     1
 40
0.0
176
     1
 40
1.0
176
     1
 90
        0
176
     1
 62
    18
420
        0
176
     1
 90
       50
176
     1
 90
        3
176
     1
 62
     5
420
      255
176
     1
290
     0
176
     1
 90
       50
176
     1
 90
       50
176
     1
 90
       50
176
     1
290
     0
176
     1
 90
       50
176
     1
 62
   256
176
     0
 40
1.0
176
     0
 90
        2
176
     1
  1
strokes_ogs.tif
176
     1
290
     0
176
     1
 40
1.0
176
     1
 40
1.0
176
     1
  0
VISUALSTYLE
  5
2C
102
{ACAD_REACTORS
330
2A
102
}
330
2A
100
AcDbVisualStyle
  2
FlatWithEdges
 70
     1
177
     3
291
     1
 70
    58
 90
        2
176
     1
 90
        1
176
     1
 90
        1
176
     1
 90
        2
176
     1
 40
-0.6
176
     1
 40
30.0
176
     1
 62
     7
420
 16777215
176
     1
 90
        1
176
     1
 90
        4
176
     1
 62
     7
176
     1
 62
   257
176
     1
 90
        1
176
     1
 90
        1
176
     1
 40
1.0
176
     1
 90
        0
176
     1
 62
   257
176
     1
 40
1.0
176
     1
 90
        1
176
     1
 90
        6
176
     1
 90
        2
176
     1
 62
     7
176
     1
 90
        5
176
     1
 90
        0
176
     1
 90
        0
176
     1
290
     0
176
     1
 90
       13
176
     1
 40
0.0
176
     1
 90
        0
176
     1
290
     0
176
     1
290
     1
176
     1
290
     1
176
     1
290
     0
176
     1
290
     0
176
     1
290
     0
176
     1
290
     0
176
     1
290
     0
176
     1
290
     0
176
     1
 90
       50
176
     1
 40
0.0
176
     1
 40
1.0
176
     1
 90
        0
176
     1
 62
    18
420
        0
176
     1
 90
       50
176
     1
 90
        3
176
     1
 62
     5
420
      255
176
     1
290
     0
176
     1
 90
       50
176
     1
 90
       50
176
     1
 90
       50
176
     1
290
     0
176
     1
 90
       50
176
     1
 62
   256
176
     0
 40
1.0
176
     0
 90
        2
176
     1
  1
strokes_ogs.tif
176
     1
290
     0
176
     1
 40
1.0
176
     1
 40
1.0
176
     1
  0
VISUALSTYLE
  5
2D
102
{ACAD_REACTORS
330
2A
102
}
330
2A
100
AcDbVisualStyle
  2
Gouraud
 70
     2
177
     3
291
     1
 70
    58
 90
        2
176
     1
 90
        2
176
     1
 90
        1
176
     1
 90
        2
176
     1
 40
-0.6
176
     1
 40
30.0
176
     1
 62
     7
420
 16777215
176
     1
 90
        0
176
     1
 90
        4
176
     1
 62
     7
176
     1
 62
   257
176
     1
 90
        1
176
     1
 90
        1
176
     1
 40
1.0
176
     1
 90
        0
176
     1
 62
     7
176
     1
 40
1.0
176
     1
 90
        1
176
     1
 90
        6
176
     1
 90
        2
176
     1
 62
     7
176
     1
 90
        5
176
     1
 90
        0
176
     1
 90
        0
176
     1
290
     0
176
     1
 90
       13
176
     1
 40
0.0
176
     1
 90
        0
176
     1
290
     0
176
     1
290
     1
176
     1
290
     1
176
     1
290
     0
176
     1
290
     0
176
     1
290
     0
176
     1
290
     0
176
     1
290
     0
176
     1
290
     0
176
     1
 90
       50
176
     1
 40
0.0
176
     1
 40
1.0
176
     1
 90
        0
176
     1
 62
    18
420
        0
176
     1
 90
       50
176
     1
 90
        3
176
     1
 62
     5
420
      255
176
     1
290
     0
176
     1
 90
       50
176
     1
 90
       50
176
     1
 90
       50
176
     1
290
     0
176
     1
 90
       50
176
     1
 62
   256
176
     0
 40
1.0
176
     0
 90
        2
176
     1
  1
strokes_ogs.tif
176
     1
290
     0
176
     1
 40
1.0
176
     1
 40
1.0
176
     1
  0
VISUALSTYLE
  5
2E
102
{ACAD_REACTORS
330
2A
102
}
330
2A
100
AcDbVisualStyle
  2
GouraudWithEdges
 70
     3
177
     3
291
     1
 70
    58
 90
        2
176
     1
 90
        2
176
     1
 90
        1
176
     1
 90
        2
176
     1
 40
-0.6
176
     1
 40
30.0
176
     1
 62
     7
420
 16777215
176
     1
 90
        1
176
     1
 90
        4
176
     1
 62
     7
176
     1
 62
   257
176
     1
 90
        1
176
     1
 90
        1
176
     1
 40
1.0
176
     1
 90
        0
176
     1
 62
   257
176
     1
 40
1.0
176
     1
 90
        1
176
     1
 90
        6
176
     1
 90
        2
176
     1
 62
     7
176
     1
 90
        5
176
     1
 90
        0
176
     1
 90
        0
176
     1
290
     0
176
     1
 90
       13
176
     1
 40
0.0
176
     1
 90
        0
176
     1
290
     0
176
     1
290
     1
176
     1
290
     1
176
     1
290
     0
176
     1
290
     0
176
     1
290
     0
176
     1
290
     0
176
     1
290
     0
176
     1
290
     0
176
     1
 90
       50
176
     1
 40
0.0
176
     1
 40
1.0
176
     1
 90
        0
176
     1
 62
    18
420
        0
176
     1
 90
       50
176
     1
 90
        3
176
     1
 62
     5
420
      255
176
     1
290
     0
176
     1
 90
       50
176
     1
 90
       50
176
     1
 90
       50
176
     1
290
     0
176
     1
 90
       50
176
     1
 62
   256
176
     0
 40
1.0
176
     0
 90
        2
176
     1
  1
strokes_ogs.tif
176
     1
290
     0
176
     1
 40
1.0
176
     1
 40
1.0
176
     1
  0
VISUALSTYLE
  5
77
102
{ACAD_REACTORS
330
2A
102
}
330
2A
100
AcDbVisualStyle
  2
Hidden
 70
     6
177
     3
291
     0
 70
    58
 90
        1
176
     1
 90
        2
176
     1
 90
        2
176
     1
 90
        0
176
     1
 40
0.6
176
     1
 40
30.0
176
     1
 62
     7
420
 16777215
176
     1
 90
        2
176
     1
 90
        2
176
     1
 62
     7
176
     1
 62
   257
176
     1
 90
        2
176
     1
 90
        1
176
     1
 40
40.0
176
     1
 90
        0
176
     1
 62
   257
176
     1
 40
1.0
176
     1
 90
        1
176
     1
 90
        6
176
     1
 90
        2
176
     1
 62
     7
176
     1
 90
        3
176
     1
 90
        0
176
     1
 90
        0
176
     1
290
     0
176
     1
 90
        1
176
     1
 40
0.0
176
     1
 90
        0
176
     1
290
     0
176
     1
290
     1
176
     1
290
     1
176
     1
290
     0
176
     1
290
     0
176
     1
290
     0
176
     1
290
     0
176
     1
290
     0
176
     1
290
     0
176
     1
 90
       50
176
     1
 40
0.0
176
     1
 40
1.0
176
     1
 90
        0
176
     1
 62
    18
420
        0
176
     1
 90
       50
176
     1
 90
        3
176
     1
 62
     5
420
      255
176
     1
290
     0
176
     1
 90
       50
176
     1
 90
       50
176
     1
 90
       50
176
     1
290
     0
176
     1
 90
       50
176
     1
 62
   256
176
     0
 40
1.0
176
     0
 90
        2
176
     1
  1
strokes_ogs.tif
176
     1
290
     0
176
     1
 40
1.0
176
     1
 40
1.0
176
     1
  0
VISUALSTYLE
  5
78
102
{ACAD_REACTORS
330
2A
102
}
330
2A
100
AcDbVisualStyle
  2
JitterOff
 70
    20
177
     3
291
     1
 70
    58
 90
        2
176
     1
 90
        2
176
     1
 90
        0
176
     1
 90
        0
176
     1
 40
0.6
176
     1
 40
30.0
176
     1
 62
     7
420
 16777215
176
     1
 90
        1
176
     1
 90
        4
176
     1
 62
     7
176
     1
 62
   257
176
     1
 90
        1
176
     1
 90
        1
176
     1
 40
1.0
176
     1
 90
       10
176
     1
 62
     7
176
     1
 40
1.0
176
     1
 90
        1
176
     1
 90
        6
176
     1
 90
        2
176
     1
 62
     7
176
     1
 90
        5
176
     1
 90
        0
176
     1
 90
        0
176
     1
290
     0
176
     1
 90
        1
176
     1
 40
0.0
176
     1
 90
        0
176
     1
290
     0
176
     1
290
     1
176
     1
290
     1
176
     1
290
     0
176
     1
290
     0
176
     1
290
     0
176
     1
290
     0
176
     1
290
     0
176
     1
290
     0
176
     1
 90
       50
176
     1
 40
0.0
176
     1
 40
1.0
176
     1
 90
        0
176
     1
 62
    18
420
        0
176
     1
 90
       50
176
     1
 90
        3
176
     1
 62
     5
420
      255
176
     1
290
     0
176
     1
 90
       50
176
     1
 90
       50
176
     1
 90
       50
176
     1
290
     0
176
     1
 90
       50
176
     1
 62
   256
176
     0
 40
1.0
176
     0
 90
        2
176
     1
  1
strokes_ogs.tif
176
     1
290
     0
176
     1
 40
1.0
176
     1
 40
1.0
176
     1
  0
VISUALSTYLE
  5
38
102
{ACAD_REACTORS
330
2A
102
}
330
2A
100
AcDbVisualStyle
  2
Linepattern
 70
    14
177
     3
291
     1
 70
    58
 90
        2
176
     1
 90
        2
176
     1
 90
        0
176
     1
 90
        0
176
     1
 40
-0.6
176
     1
 40
-30.0
176
     1
 62
     7
420
 16777215
176
     1
 90
        1
176
     1
 90
        4
176
     1
 62
     7
176
     1
 62
   257
176
     1
 90
        7
176
     1
 90
        7
176
     1
 40
1.0
176
     1
 90
        8
176
     1
 62
     7
176
     1
 40
1.0
176
     1
 90
        1
176
     1
 90
        6
176
     1
 90
        2
176
     1
 62
     7
176
     1
 90
        5
176
     1
 90
        0
176
     1
 90
        0
176
     1
290
     0
176
     1
 90
        1
176
     1
 40
0.0
176
     1
 90
        0
176
     1
290
     0
176
     1
290
     1
176
     1
290
     1
176
     1
290
     0
176
     1
290
     0
176
     1
290
     0
176
     1
290
     0
176
     1
290
     0
176
     1
290
     0
176
     1
 90
       50
176
     1
 40
0.0
176
     1
 40
1.0
176
     1
 90
        0
176
     1
 62
    18
420
        0
176
     1
 90
       50
176
     1
 90
        3
176
     1
 62
     5
420
      255
176
     1
290
     0
176
     1
 90
       50
176
     1
 90
       50
176
     1
 90
       50
176
     1
290
     0
176
     1
 90
       50
176
     1
 62
   256
176
     0
 40
1.0
176
     0
 90
        2
176
     1
  1
strokes_ogs.tif
176
     1
290
     0
176
     1
 40
1.0
176
     1
 40
1.0
176
     1
  0
VISUALSTYLE
  5
79
102
{ACAD_REACTORS
330
2A
102
}
330
2A
100
AcDbVisualStyle
  2
OverhangOff
 70
    21
177
     3
291
     1
 70
    58
 90
        2
176
     1
 90
        2
176
     1
 90
        0
176
     1
 90
        0
176
     1
 40
0.6
176
     1
 40
30.0
176
     1
 62
     7
420
 16777215
176
     1
 90
        1
176
     1
 90
        4
176
     1
 62
     7
176
     1
 62
   257
176
     1
 90
        1
176
     1
 90
        1
176
     1
 40
1.0
176
     1
 90
        9
176
     1
 62
     7
176
     1
 40
1.0
176
     1
 90
        1
176
     1
 90
        6
176
     1
 90
        2
176
     1
 62
     7
176
     1
 90
        5
176
     1
 90
        0
176
     1
 90
        0
176
     1
290
     0
176
     1
 90
        1
176
     1
 40
0.0
176
     1
 90
        0
176
     1
290
     0
176
     1
290
     1
176
     1
290
     1
176
     1
290
     0
176
     1
290
     0
176
     1
290
     0
176
     1
290
     0
176
     1
290
     0
176
     1
290
     0
176
     1
 90
       50
176
     1
 40
0.0
176
     1
 40
1.0
176
     1
 90
        0
176
     1
 62
    18
420
        0
176
     1
 90
       50
176
     1
 90
        3
176
     1
 62
     5
420
      255
176
     1
290
     0
176
     1
 90
       50
176
     1
 90
       50
176
     1
 90
       50
176
     1
290
     0
176
     1
 90
       50
176
     1
 62
   256
176
     0
 40
1.0
176
     0
 90
        2
176
     1
  1
strokes_ogs.tif
176
     1
290
     0
176
     1
 40
1.0
176
     1
 40
1.0
176
     1
  0
VISUALSTYLE
  5
33
102
{ACAD_REACTORS
330
2A
102
}
330
2A
100
AcDbVisualStyle
  2
Realistic
 70
     8
177
     3
291
     0
 70
    58
 90
        2
176
     1
 90
        2
176
     1
 90
        0
176
     1
 90
        0
176
     1
 40
-0.6
176
     1
 40
-30.0
176
     1
 62
     7
420
 16777215
176
     1
 90
        1
176
     1
 90
        0
176
     1
 62
     7
176
     1
 62
   257
176
     1
 90
        1
176
     1
 90
        1
176
     1
 40
1.0
176
     1
 90
        8
176
     1
 62
     8
420
  7895160
176
     1
 40
1.0
176
     1
 90
        1
176
     1
 90
        6
176
     1
 90
        2
176
     1
 62
     7
176
     1
 90
        5
176
     1
 90
        0
176
     1
 90
        0
176
     1
290
     0
176
     1
 90
       13
176
     1
 40
0.0
176
     1
 90
        0
176
     1
290
     0
176
     1
290
     1
176
     1
290
     1
176
     1
290
     0
176
     1
290
     0
176
     1
290
     0
176
     1
290
     0
176
     1
290
     0
176
     1
290
     0
176
     1
 90
       50
176
     1
 40
0.0
176
     1
 40
1.0
176
     1
 90
        0
176
     1
 62
    18
420
        0
176
     1
 90
       50
176
     1
 90
        3
176
     1
 62
     5
420
      255
176
     1
290
     0
176
     1
 90
       50
176
     1
 90
       50
176
     1
 90
       50
176
     1
290
     0
176
     1
 90
       50
176
     1
 62
   256
176
     0
 40
1.0
176
     0
 90
        2
176
     1
  1
strokes_ogs.tif
176
     1
290
     0
176
     1
 40
1.0
176
     1
 40
1.0
176
     1
  0
VISUALSTYLE
  5
7F
102
{ACAD_REACTORS
330
2A
102
}
330
2A
100
AcDbVisualStyle
  2
Shaded
 70
    27
177
     3
291
     0
 70
    58
 90
        2
176
     1
 90
        2
176
     1
 90
        1
176
     1
 90
        2
176
     1
 40
0.6
176
     1
 40
30.0
176
     1
 62
     7
420
 16777215
176
     1
 90
        0
176
     1
 90
        4
176
     1
 62
     7
176
     1
 62
   257
176
     1
 90
        1
176
     1
 90
        1
176
     1
 40
1.0
176
     1
 90
        8
176
     1
 62
   257
176
     1
 40
1.0
176
     1
 90
        1
176
     1
 90
        6
176
     1
 90
        2
176
     1
 62
     8
420
  7895160
176
     1
 90
        3
176
     1
 90
        0
176
     1
 90
        0
176
     1
290
     0
176
     1
 90
        5
176
     1
 40
0.0
176
     1
 90
        0
176
     1
290
     0
176
     1
290
     1
176
     1
290
     1
176
     1
290
     0
176
     1
290
     0
176
     1
290
     0
176
     1
290
     0
176
     1
290
     0
176
     1
290
     0
176
     1
 90
       50
176
     1
 40
0.0
176
     1
 40
1.0
176
     1
 90
        0
176
     1
 62
    18
420
        0
176
     1
 90
       50
176
     1
 90
        3
176
     1
 62
     5
420
      255
176
     1
290
     0
176
     1
 90
       50
176
     1
 90
       50
176
     1
 90
       50
176
     1
290
     0
176
     1
 90
       50
176
     1
 62
   256
176
     0
 40
1.0
176
     0
 90
        2
176
     1
  1
strokes_ogs.tif
176
     1
290
     0
176
     1
 40
1.0
176
     1
 40
1.0
176
     1
  0
VISUALSTYLE
  5
7E
102
{ACAD_REACTORS
330
2A
102
}
330
2A
100
AcDbVisualStyle
  2
Shaded with edges
 70
    26
177
     3
291
     0
 70
    58
 90
        2
176
     1
 90
        2
176
     1
 90
        1
176
     1
 90
        2
176
     1
 40
0.6
176
     1
 40
30.0
176
     1
 62
     7
420
 16777215
176
     1
 90
        1
176
     1
 90
       10
176
     1
 62
     7
176
     1
 62
   257
176
     1
 90
        2
176
     1
 90
        1
176
     1
 40
1.0
176
     1
 90
        8
176
     1
 62
   257
176
     1
 40
1.0
176
     1
 90
        1
176
     1
 90
        6
176
     1
 90
        2
176
     1
 62
     7
176
     1
 90
        3
176
     1
 90
        0
176
     1
 90
        0
176
     1
290
     0
176
     1
 90
        5
176
     1
 40
0.0
176
     1
 90
        0
176
     1
290
     0
176
     1
290
     1
176
     1
290
     1
176
     1
290
     0
176
     1
290
     0
176
     1
290
     0
176
     1
290
     0
176
     1
290
     0
176
     1
290
     0
176
     1
 90
       50
176
     1
 40
0.0
176
     1
 40
1.0
176
     1
 90
        0
176
     1
 62
    18
420
        0
176
     1
 90
       50
176
     1
 90
        3
176
     1
 62
     5
420
      255
176
     1
290
     0
176
     1
 90
       50
176
     1
 90
       50
176
     1
 90
       50
176
     1
290
     0
176
     1
 90
       50
176
     1
 62
   256
176
     0
 40
1.0
176
     0
 90
        2
176
     1
  1
strokes_ogs.tif
176
     1
290
     0
176
     1
 40
1.0
176
     1
 40
1.0
176
     1
  0
VISUALSTYLE
  5
7B
102
{ACAD_REACTORS
330
2A
102
}
330
2A
100
AcDbVisualStyle
  2
Shades of Gray
 70
    23
177
     3
291
     0
 70
    58
 90
        2
176
     1
 90
        2
176
     1
 90
        3
176
     1
 90
        0
176
     1
 40
0.6
176
     1
 40
30.0
176
     1
 62
     7
420
 16777215
176
     1
 90
        2
176
     1
 90
        2
176
     1
 62
     7
176
     1
 62
     7
176
     1
 90
        1
176
     1
 90
        1
176
     1
 40
40.0
176
     1
 90
        8
176
     1
 62
     7
176
     1
 40
1.0
176
     1
 90
        1
176
     1
 90
        6
176
     1
 90
        2
176
     1
 62
     7
176
     1
 90
        3
176
     1
 90
        0
176
     1
 90
        0
176
     1
290
     0
176
     1
 90
        1
176
     1
 40
0.0
176
     1
 90
        0
176
     1
290
     0
176
     1
290
     1
176
     1
290
     1
176
     1
290
     0
176
     1
290
     0
176
     1
290
     0
176
     1
290
     0
176
     1
290
     0
176
     1
290
     0
176
     1
 90
       50
176
     1
 40
0.0
176
     1
 40
1.0
176
     1
 90
        0
176
     1
 62
    18
420
        0
176
     1
 90
       50
176
     1
 90
        3
176
     1
 62
     5
420
      255
176
     1
290
     0
176
     1
 90
       50
176
     1
 90
       50
176
     1
 90
       50
176
     1
290
     0
176
     1
 90
       50
176
     1
 62
   256
176
     0
 40
1.0
176
     0
 90
        2
176
     1
  1
strokes_ogs.tif
176
     1
290
     0
176
     1
 40
1.0
176
     1
 40
1.0
176
     1
  0
VISUALSTYLE
  5
7C
102
{ACAD_REACTORS
330
2A
102
}
330
2A
100
AcDbVisualStyle
  2
Sketchy
 70
    24
177
     3
291
     0
 70
    58
 90
        1
176
     1
 90
        2
176
     1
 90
        2
176
     1
 90
        0
176
     1
 40
0.6
176
     1
 40
30.0
176
     1
 62
     7
420
 16777215
176
     1
 90
        2
176
     1
 90
        2
176
     1
 62
     7
176
     1
 62
     7
176
     1
 90
        1
176
     1
 90
        1
176
     1
 40
40.0
176
     1
 90
       11
176
     1
 62
     7
176
     1
 40
1.0
176
     1
 90
        1
176
     1
 90
        6
176
     1
 90
        2
176
     1
 62
     7
176
     1
 90
        6
176
     1
 90
        0
176
     1
 90
        0
176
     1
290
     0
176
     1
 90
        1
176
     1
 40
0.0
176
     1
 90
        0
176
     1
290
     0
176
     1
290
     1
176
     1
290
     1
176
     1
290
     0
176
     1
290
     0
176
     1
290
     0
176
     1
290
     0
176
     1
290
     0
176
     1
290
     0
176
     1
 90
       50
176
     1
 40
0.0
176
     1
 40
1.0
176
     1
 90
        0
176
     1
 62
    18
420
        0
176
     1
 90
       50
176
     1
 90
        3
176
     1
 62
     5
420
      255
176
     1
290
     0
176
     1
 90
       50
176
     1
 90
       50
176
     1
 90
       50
176
     1
290
     0
176
     1
 90
       50
176
     1
 62
   256
176
     0
 40
1.0
176
     0
 90
        2
176
     1
  1
strokes_ogs.tif
176
     1
290
     0
176
     1
 40
1.0
176
     1
 40
1.0
176
     1
  0
VISUALSTYLE
  5
37
102
{ACAD_REACTORS
330
2A
102
}
330
2A
100
AcDbVisualStyle
  2
Thicken
 70
    13
177
     3
291
     1
 70
    58
 90
        2
176
     1
 90
        2
176
     1
 90
        0
176
     1
 90
        0
176
     1
 40
-0.6
176
     1
 40
-30.0
176
     1
 62
     7
420
 16777215
176
     1
 90
        1
176
     1
 90
        4
176
     1
 62
     7
176
     1
 62
   257
176
     1
 90
        1
176
     1
 90
        1
176
     1
 40
1.0
176
     1
 90
       12
176
     1
 62
     7
176
     1
 40
1.0
176
     1
 90
        1
176
     1
 90
        6
176
     1
 90
        2
176
     1
 62
     7
176
     1
 90
        5
176
     1
 90
        0
176
     1
 90
        0
176
     1
290
     0
176
     1
 90
        1
176
     1
 40
0.0
176
     1
 90
        0
176
     1
290
     0
176
     1
290
     1
176
     1
290
     1
176
     1
290
     0
176
     1
290
     0
176
     1
290
     0
176
     1
290
     0
176
     1
290
     0
176
     1
290
     0
176
     1
 90
       50
176
     1
 40
0.0
176
     1
 40
1.0
176
     1
 90
        0
176
     1
 62
    18
420
        0
176
     1
 90
       50
176
     1
 90
        3
176
     1
 62
     5
420
      255
176
     1
290
     0
176
     1
 90
       50
176
     1
 90
       50
176
     1
 90
       50
176
     1
290
     0
176
     1
 90
       50
176
     1
 62
   256
176
     0
 40
1.0
176
     0
 90
        2
176
     1
  1
strokes_ogs.tif
176
     1
290
     0
176
     1
 40
1.0
176
     1
 40
1.0
176
     1
  0
VISUALSTYLE
  5
76
102
{ACAD_REACTORS
330
2A
102
}
330
2A
100
AcDbVisualStyle
  2
Wireframe
 70
     5
177
     3
291
     0
 70
    58
 90
        0
176
     1
 90
        2
176
     1
 90
        0
176
     1
 90
        0
176
     1
 40
0.6
176
     1
 40
30.0
176
     1
 62
     7
420
 16777215
176
     1
 90
        1
176
     1
 90
        4
176
     1
 62
     7
176
     1
 62
   257
176
     1
 90
        1
176
     1
 90
        1
176
     1
 40
1.0
176
     1
 90
        0
176
     1
 62
   257
176
     1
 40
1.0
176
     1
 90
        1
176
     1
 90
        6
176
     1
 90
        2
176
     1
 62
     7
176
     1
 90
        3
176
     1
 90
        0
176
     1
 90
        0
176
     1
290
     0
176
     1
 90
        1
176
     1
 40
0.0
176
     1
 90
        0
176
     1
290
     0
176
     1
290
     1
176
     1
290
     1
176
     1
290
     0
176
     1
290
     0
176
     1
290
     0
176
     1
290
     0
176
     1
290
     0
176
     1
290
     0
176
     1
 90
       50
176
     1
 40
0.0
176
     1
 40
1.0
176
     1
 90
        0
176
     1
 62
    18
420
        0
176
     1
 90
       50
176
     1
 90
        3
176
     1
 62
     5
420
      255
176
     1
290
     0
176
     1
 90
       50
176
     1
 90
       50
176
     1
 90
       50
176
     1
290
     0
176
     1
 90
       50
176
     1
 62
   256
176
     0
 40
1.0
176
     0
 90
        2
176
     1
  1
strokes_ogs.tif
176
     1
290
     0
176
     1
 40
1.0
176
     1
 40
1.0
176
     1
  0
VISUALSTYLE
  5
7D
102
{ACAD_REACTORS
330
2A
102
}
330
2A
100
AcDbVisualStyle
  2
X-Ray
 70
    25
177
     3
291
     0
 70
    58
 90
        2
176
     1
 90
        2
176
     1
 90
        1
176
     1
 90
        1
176
     1
 40
0.5
176
     1
 40
30.0
176
     1
 62
     7
420
 16777215
176
     1
 90
        1
176
     1
 90
        0
176
     1
 62
     7
176
     1
 62
   257
176
     1
 90
        1
176
     1
 90
        1
176
     1
 40
1.0
176
     1
 90
        8
176
     1
 62
     7
176
     1
 40
1.0
176
     1
 90
        1
176
     1
 90
        6
176
     1
 90
        2
176
     1
 62
     7
176
     1
 90
        3
176
     1
 90
        0
176
     1
 90
        0
176
     1
290
     0
176
     1
 90
       13
176
     1
 40
0.0
176
     1
 90
        0
176
     1
290
     0
176
     1
290
     1
176
     1
290
     1
176
     1
290
     0
176
     1
290
     0
176
     1
290
     0
176
     1
290
     0
176
     1
290
     0
176
     1
290
     0
176
     1
 90
       50
176
     1
 40
0.0
176
     1
 40
1.0
176
     1
 90
        0
176
     1
 62
    18
420
        0
176
     1
 90
       50
176
     1
 90
        3
176
     1
 62
     5
420
      255
176
     1
290
     0
176
     1
 90
       50
176
     1
 90
       50
176
     1
 90
       50
176
     1
290
     0
176
     1
 90
       50
176
     1
 62
   256
176
     0
 40
1.0
176
     0
 90
        2
176
     1
  1
strokes_ogs.tif
176
     1
290
     0
176
     1
 40
1.0
176
     1
 40
1.0
176
     1
  0
DICTIONARYVAR
  5
62
102
{ACAD_REACTORS
330
3D
102
}
330
3D
100
DictionaryVariables
280
     0
  1
1:1
  0
DICTIONARYVAR
  5
BB
102
{ACAD_REACTORS
330
3D
102
}
330
3D
100
DictionaryVariables
280
     0
  1
Standard
  0
DICTIONARYVAR
  5
3E
102
{ACAD_REACTORS
330
3D
102
}
330
3D
100
DictionaryVariables
280
     0
  1
Standard
  0
DICTIONARYVAR
  5
6F
102
{ACAD_REACTORS
330
3D
102
}
330
3D
100
DictionaryVariables
280
     0
  1
0
  0
DICTIONARYVAR
  5
70
102
{ACAD_REACTORS
330
3D
102
}
330
3D
100
DictionaryVariables
280
     0
  1
0
  0
DICTIONARY
  5
E1F
330
3C
100
AcDbDictionary
280
     1
281
     1
  3
ACAD_ROUNDTRIP_2008_TABLESTYLE_CELLSTYLEMAP
360
E20
  0
CELLSTYLEMAP
  5
E20
102
{ACAD_REACTORS
330
E1F
102
}
330
E1F
100
AcDbCellStyleMap
 90
        3
300
CELLSTYLE
  1
TABLEFORMAT_BEGIN
 90
        5
170
     1
 91
        0
 92
    32768
 62
   257
 93
        1
300
CONTENTFORMAT
  1
CONTENTFORMAT_BEGIN
 90
        0
 91
        0
 92
      512
 93
        0
300

 40
0.0
140
1.0
 94
        5
 62
     0
340
11
144
6.0
309
CONTENTFORMAT_END
171
     1
301
MARGIN
  1
CELLMARGIN_BEGIN
 40
1.5
 40
1.5
 40
1.5
 40
1.5
 40
0.18
 40
0.18
309
CELLMARGIN_END
 94
        6
 95
        1
302
GRIDFORMAT
  1
GRIDFORMAT_BEGIN
 90
        0
 91
        1
 62
     0
 92
       -2
340
0
 93
        0
 40
0.045
309
GRIDFORMAT_END
 95
        2
302
GRIDFORMAT
  1
GRIDFORMAT_BEGIN
 90
        0
 91
        1
 62
     0
 92
       -2
340
0
 93
        0
 40
0.045
309
GRIDFORMAT_END
 95
        4
302
GRIDFORMAT
  1
GRIDFORMAT_BEGIN
 90
        0
 91
        1
 62
     0
 92
       -2
340
0
 93
        0
 40
0.045
309
GRIDFORMAT_END
 95
        8
302
GRIDFORMAT
  1
GRIDFORMAT_BEGIN
 90
        0
 91
        1
 62
     0
 92
       -2
340
0
 93
        0
 40
0.045
309
GRIDFORMAT_END
 95
       16
302
GRIDFORMAT
  1
GRIDFORMAT_BEGIN
 90
        0
 91
        1
 62
     0
 92
       -2
340
0
 93
        0
 40
0.045
309
GRIDFORMAT_END
 95
       32
302
GRIDFORMAT
  1
GRIDFORMAT_BEGIN
 90
        0
 91
        1
 62
     0
 92
       -2
340
0
 93
        0
 40
0.045
309
GRIDFORMAT_END
309
TABLEFORMAT_END
  1
CELLSTYLE_BEGIN
 90
        1
 91
        1
300
_TITLE
309
CELLSTYLE_END
300
CELLSTYLE
  1
TABLEFORMAT_BEGIN
 90
        5
170
     1
 91
        0
 92
        0
 62
   257
 93
        1
300
CONTENTFORMAT
  1
CONTENTFORMAT_BEGIN
 90
        0
 91
        0
 92
      512
 93
        0
300

 40
0.0
140
1.0
 94
        5
 62
     0
340
11
144
4.5
309
CONTENTFORMAT_END
171
     1
301
MARGIN
  1
CELLMARGIN_BEGIN
 40
1.5
 40
1.5
 40
1.5
 40
1.5
 40
0.18
 40
0.18
309
CELLMARGIN_END
 94
        6
 95
        1
302
GRIDFORMAT
  1
GRIDFORMAT_BEGIN
 90
        0
 91
        1
 62
     0
 92
       -2
340
0
 93
        0
 40
0.045
309
GRIDFORMAT_END
 95
        2
302
GRIDFORMAT
  1
GRIDFORMAT_BEGIN
 90
        0
 91
        1
 62
     0
 92
       -2
340
0
 93
        0
 40
0.045
309
GRIDFORMAT_END
 95
        4
302
GRIDFORMAT
  1
GRIDFORMAT_BEGIN
 90
        0
 91
        1
 62
     0
 92
       -2
340
0
 93
        0
 40
0.045
309
GRIDFORMAT_END
 95
        8
302
GRIDFORMAT
  1
GRIDFORMAT_BEGIN
 90
        0
 91
        1
 62
     0
 92
       -2
340
0
 93
        0
 40
0.045
309
GRIDFORMAT_END
 95
       16
302
GRIDFORMAT
  1
GRIDFORMAT_BEGIN
 90
        0
 91
        1
 62
     0
 92
       -2
340
0
 93
        0
 40
0.045
309
GRIDFORMAT_END
 95
       32
302
GRIDFORMAT
  1
GRIDFORMAT_BEGIN
 90
        0
 91
        1
 62
     0
 92
       -2
340
0
 93
        0
 40
0.045
309
GRIDFORMAT_END
309
TABLEFORMAT_END
  1
CELLSTYLE_BEGIN
 90
        2
 91
        1
300
_HEADER
309
CELLSTYLE_END
300
CELLSTYLE
  1
TABLEFORMAT_BEGIN
 90
        5
170
     1
 91
        0
 92
        0
 62
   257
 93
        1
300
CONTENTFORMAT
  1
CONTENTFORMAT_BEGIN
 90
        0
 91
        0
 92
      512
 93
        0
300

 40
0.0
140
1.0
 94
        2
 62
     0
340
11
144
4.5
309
CONTENTFORMAT_END
171
     1
301
MARGIN
  1
CELLMARGIN_BEGIN
 40
1.5
 40
1.5
 40
1.5
 40
1.5
 40
0.18
 40
0.18
309
CELLMARGIN_END
 94
        6
 95
        1
302
GRIDFORMAT
  1
GRIDFORMAT_BEGIN
 90
        0
 91
        1
 62
     0
 92
       -2
340
0
 93
        0
 40
0.045
309
GRIDFORMAT_END
 95
        2
302
GRIDFORMAT
  1
GRIDFORMAT_BEGIN
 90
        0
 91
        1
 62
     0
 92
       -2
340
0
 93
        0
 40
0.045
309
GRIDFORMAT_END
 95
        4
302
GRIDFORMAT
  1
GRIDFORMAT_BEGIN
 90
        0
 91
        1
 62
     0
 92
       -2
340
0
 93
        0
 40
0.045
309
GRIDFORMAT_END
 95
        8
302
GRIDFORMAT
  1
GRIDFORMAT_BEGIN
 90
        0
 91
        1
 62
     0
 92
       -2
340
0
 93
        0
 40
0.045
309
GRIDFORMAT_END
 95
       16
302
GRIDFORMAT
  1
GRIDFORMAT_BEGIN
 90
        0
 91
        1
 62
     0
 92
       -2
340
0
 93
        0
 40
0.045
309
GRIDFORMAT_END
 95
       32
302
GRIDFORMAT
  1
GRIDFORMAT_BEGIN
 90
        0
 91
        1
 62
     0
 92
       -2
340
0
 93
        0
 40
0.045
309
GRIDFORMAT_END
309
TABLEFORMAT_END
  1
CELLSTYLE_BEGIN
 90
        3
 91
        2
300
_DATA
309
CELLSTYLE_END
  0
ENDSEC
  0
EOF
