  0
SECTION
  2
HEADER
  9
$ACADVER
  1
AC1032
  9
$ACADMAINTVER
 90
       55
  9
$DWGCODEPAGE
  3
ANSI_1252
  9
$LASTSAVEDBY
  1
vcg504
  9
$REQUIREDVERSIONS
160
                 0
  9
$INSBASE
 10
0.0
 20
0.0
 30
0.0
  9
$EXTMIN
 10
454314.477
 20
244851.591
 30
164.093
  9
$EXTMAX
 10
454370.396
 20
244899.876
 30
164.884
  9
$LIMMIN
 10
0.0
 20
0.0
  9
$LIMMAX
 10
420.0
 20
297.0
  9
$ORTHOMODE
 70
     0
  9
$REGENMODE
 70
     1
  9
$FILLMODE
 70
     1
  9
$QTEXTMODE
 70
     0
  9
$MIRRTEXT
 70
     0
  9
$LTSCALE
 40
1.0
  9
$ATTMODE
 70
     1
  9
$TEXTSIZE
 40
2.5
  9
$TRACEWID
 40
1.0
  9
$TEXTSTYLE
  7
Standard
  9
$CLAYER
  8
PRE
  9
$CELTYPE
  6
ByLayer
  9
$CECOLOR
 62
   256
  9
$CELTSCALE
 40
1.0
  9
$DISPSILH
 70
     0
  9
$DIMSCALE
 40
1.0
  9
$DIMASZ
 40
2.5
  9
$DIMEXO
 40
0.625
  9
$DIMDLI
 40
3.75
  9
$DIMRND
 40
0.0
  9
$DIMDLE
 40
0.0
  9
$DIMEXE
 40
1.25
  9
$DIMTP
 40
0.0
  9
$DIMTM
 40
0.0
  9
$DIMTXT
 40
2.5
  9
$DIMCEN
 40
-2.5
  9
$DIMTSZ
 40
0.0
  9
$DIMTOL
 70
     0
  9
$DIMLIM
 70
     0
  9
$DIMTIH
 70
     0
  9
$DIMTOH
 70
     0
  9
$DIMSE1
 70
     0
  9
$DIMSE2
 70
     0
  9
$DIMTAD
 70
     1
  9
$DIMZIN
 70
     8
  9
$DIMBLK
  1

  9
$DIMASO
 70
     1
  9
$DIMSHO
 70
     1
  9
$DIMPOST
  1

  9
$DIMAPOST
  1

  9
$DIMALT
 70
     0
  9
$DIMALTD
 70
     3
  9
$DIMALTF
 40
0.03937007874016
  9
$DIMLFAC
 40
1.0
  9
$DIMTOFL
 70
     1
  9
$DIMTVP
 40
0.0
  9
$DIMTIX
 70
     0
  9
$DIMSOXD
 70
     0
  9
$DIMSAH
 70
     0
  9
$DIMBLK1
  1

  9
$DIMBLK2
  1

  9
$DIMSTYLE
  2
ISO-25
  9
$DIMCLRD
 70
     0
  9
$DIMCLRE
 70
     0
  9
$DIMCLRT
 70
     0
  9
$DIMTFAC
 40
1.0
  9
$DIMGAP
 40
0.625
  9
$DIMJUST
 70
     0
  9
$DIMSD1
 70
     0
  9
$DIMSD2
 70
     0
  9
$DIMTOLJ
 70
     0
  9
$DIMTZIN
 70
     8
  9
$DIMALTZ
 70
     0
  9
$DIMALTTZ
 70
     0
  9
$DIMUPT
 70
     0
  9
$DIMDEC
 70
     2
  9
$DIMTDEC
 70
     2
  9
$DIMALTU
 70
     2
  9
$DIMALTTD
 70
     3
  9
$DIMTXSTY
  7
Standard
  9
$DIMAUNIT
 70
     0
  9
$DIMADEC
 70
     0
  9
$DIMALTRND
 40
0.0
  9
$DIMAZIN
 70
     0
  9
$DIMDSEP
 70
    44
  9
$DIMATFIT
 70
     3
  9
$DIMFRAC
 70
     0
  9
$DIMLDRBLK
  1

  9
$DIMLUNIT
 70
     2
  9
$DIMLWD
 70
    -2
  9
$DIMLWE
 70
    -2
  9
$DIMTMOVE
 70
     0
  9
$DIMFXL
 40
1.0
  9
$DIMFXLON
 70
     0
  9
$DIMJOGANG
 40
0.7853981633974483
  9
$DIMTFILL
 70
     0
  9
$DIMTFILLCLR
 70
     0
  9
$DIMARCSYM
 70
     0
  9
$DIMLTYPE
  6

  9
$DIMLTEX1
  6

  9
$DIMLTEX2
  6

  9
$DIMTXTDIRECTION
 70
     0
  9
$LUNITS
 70
     2
  9
$LUPREC
 70
     3
  9
$SKETCHINC
 40
1.0
  9
$FILLETRAD
 40
10.0
  9
$AUNITS
 70
     0
  9
$AUPREC
 70
     0
  9
$MENU
  1
.
  9
$ELEVATION
 40
0.0
  9
$PELEVATION
 40
0.0
  9
$THICKNESS
 40
0.0
  9
$LIMCHECK
 70
     0
  9
$CHAMFERA
 40
10.0
  9
$CHAMFERB
 40
10.0
  9
$CHAMFERC
 40
20.0
  9
$CHAMFERD
 40
0.0
  9
$SKPOLY
 70
     0
  9
$TDCREATE
 40
2455022.679026181
  9
$TDUCREATE
 40
2455022.637359514
  9
$TDUPDATE
 40
2460487.620101979
  9
$TDUUPDATE
 40
2460487.578435313
  9
$TDINDWG
 40
0.0081456944
  9
$TDUSRTIMER
 40
2459229.414274919
  9
$USRTIMER
 70
     1
  9
$ANGBASE
 50
0.0
  9
$ANGDIR
 70
     0
  9
$PDMODE
 70
     3
  9
$PDSIZE
 40
0.3
  9
$PLINEWID
 40
0.0
  9
$SPLFRAME
 70
     0
  9
$SPLINETYPE
 70
     6
  9
$SPLINESEGS
 70
     8
  9
$HANDSEED
  5
3E6
  9
$SURFTAB1
 70
     6
  9
$SURFTAB2
 70
     6
  9
$SURFTYPE
 70
     6
  9
$SURFU
 70
     6
  9
$SURFV
 70
     6
  9
$UCSBASE
  2

  9
$UCSNAME
  2

  9
$UCSORG
 10
0.0
 20
0.0
 30
0.0
  9
$UCSXDIR
 10
1.0
 20
0.0
 30
0.0
  9
$UCSYDIR
 10
0.0
 20
1.0
 30
0.0
  9
$UCSORTHOREF
  2

  9
$UCSORTHOVIEW
 70
     0
  9
$UCSORGTOP
 10
0.0
 20
0.0
 30
0.0
  9
$UCSORGBOTTOM
 10
0.0
 20
0.0
 30
0.0
  9
$UCSORGLEFT
 10
0.0
 20
0.0
 30
0.0
  9
$UCSORGRIGHT
 10
0.0
 20
0.0
 30
0.0
  9
$UCSORGFRONT
 10
0.0
 20
0.0
 30
0.0
  9
$UCSORGBACK
 10
0.0
 20
0.0
 30
0.0
  9
$PUCSBASE
  2

  9
$PUCSNAME
  2

  9
$PUCSORG
 10
0.0
 20
0.0
 30
0.0
  9
$PUCSXDIR
 10
1.0
 20
0.0
 30
0.0
  9
$PUCSYDIR
 10
0.0
 20
1.0
 30
0.0
  9
$PUCSORTHOREF
  2

  9
$PUCSORTHOVIEW
 70
     0
  9
$PUCSORGTOP
 10
0.0
 20
0.0
 30
0.0
  9
$PUCSORGBOTTOM
 10
0.0
 20
0.0
 30
0.0
  9
$PUCSORGLEFT
 10
0.0
 20
0.0
 30
0.0
  9
$PUCSORGRIGHT
 10
0.0
 20
0.0
 30
0.0
  9
$PUCSORGFRONT
 10
0.0
 20
0.0
 30
0.0
  9
$PUCSORGBACK
 10
0.0
 20
0.0
 30
0.0
  9
$USERI1
 70
     0
  9
$USERI2
 70
     0
  9
$USERI3
 70
     0
  9
$USERI4
 70
     0
  9
$USERI5
 70
     0
  9
$USERR1
 40
0.0
  9
$USERR2
 40
0.0
  9
$USERR3
 40
0.0
  9
$USERR4
 40
0.0
  9
$USERR5
 40
0.0
  9
$WORLDVIEW
 70
     1
  9
$SHADEDGE
 70
     3
  9
$SHADEDIF
 70
    70
  9
$TILEMODE
 70
     1
  9
$MAXACTVP
 70
    64
  9
$PINSBASE
 10
0.0
 20
0.0
 30
0.0
  9
$PLIMCHECK
 70
     0
  9
$PEXTMIN
 10
-6.837096774193583
 20
-19.28145161290325
 30
0.0
  9
$PEXTMAX
 10
412.3161290322581
 20
277.7185483870968
 30
0.0
  9
$PLIMMIN
 10
0.0
 20
0.0
  9
$PLIMMAX
 10
0.0
 20
0.0
  9
$UNITMODE
 70
     0
  9
$VISRETAIN
 70
     1
  9
$PLINEGEN
 70
     0
  9
$PSLTSCALE
 70
     1
  9
$TREEDEPTH
 70
  3020
  9
$CMLSTYLE
  2
Standard
  9
$CMLJUST
 70
     0
  9
$CMLSCALE
 40
20.0
  9
$PROXYGRAPHICS
 70
     1
  9
$MEASUREMENT
 70
     1
  9
$CELWEIGHT
370
    -1
  9
$ENDCAPS
280
     0
  9
$JOINSTYLE
280
     0
  9
$LWDISPLAY
290
     0
  9
$INSUNITS
 70
     4
  9
$HYPERLINKBASE
  1

  9
$STYLESHEET
  1

  9
$XEDIT
290
     1
  9
$CEPSNTYPE
380
     0
  9
$PSTYLEMODE
290
     1
  9
$FINGERPRINTGUID
  2
{EC6BB858-51AA-46EC-B484-6C9CC7AB3E2E}
  9
$VERSIONGUID
  2
{FAEB1C32-E019-11D5-929B-00C0DF256EC4}
  9
$EXTNAMES
290
     1
  9
$PSVPSCALE
 40
0.0
  9
$OLESTARTUP
290
     0
  9
$SORTENTS
280
   127
  9
$INDEXCTL
280
     0
  9
$HIDETEXT
280
     1
  9
$XCLIPFRAME
280
     0
  9
$HALOGAP
280
     0
  9
$OBSCOLOR
 70
   257
  9
$OBSLTYPE
280
     0
  9
$INTERSECTIONDISPLAY
280
     0
  9
$INTERSECTIONCOLOR
 70
   257
  9
$DIMASSOC
280
     2
  9
$PROJECTNAME
  1

  9
$CAMERADISPLAY
290
     0
  9
$LENSLENGTH
 40
50.0
  9
$CAMERAHEIGHT
 40
0.0
  9
$STEPSPERSEC
 40
2.0
  9
$STEPSIZE
 40
6.0
  9
$3DDWFPREC
 40
2.0
  9
$PSOLWIDTH
 40
5.0
  9
$PSOLHEIGHT
 40
80.0
  9
$LOFTANG1
 40
1.570796326794897
  9
$LOFTANG2
 40
1.570796326794897
  9
$LOFTMAG1
 40
0.0
  9
$LOFTMAG2
 40
0.0
  9
$LOFTPARAM
 70
     7
  9
$LOFTNORMALS
280
     1
  9
$LATITUDE
 40
37.795
  9
$LONGITUDE
 40
-122.394
  9
$NORTHDIRECTION
 40
0.0
  9
$TIMEZONE
 70
 -8000
  9
$LIGHTGLYPHDISPLAY
280
     1
  9
$TILEMODELIGHTSYNCH
280
     1
  9
$CMATERIAL
347
73
  9
$SOLIDHIST
280
     1
  9
$SHOWHIST
280
     1
  9
$DWFFRAME
280
     2
  9
$DGNFRAME
280
     2
  9
$REALWORLDSCALE
290
     1
  9
$INTERFERECOLOR
 62
   256
  9
$CSHADOW
280
     0
  9
$SHADOWPLANELOCATION
 40
0.0
  0
ENDSEC
  0
SECTION
  2
CLASSES
  0
CLASS
  1
ACDBDICTIONARYWDFLT
  2
AcDbDictionaryWithDefault
  3
ObjectDBX Classes
 90
        0
 91
        3
280
     0
281
     0
  0
CLASS
  1
VISUALSTYLE
  2
AcDbVisualStyle
  3
ObjectDBX Classes
 90
     4095
 91
        3
280
     0
281
     0
  0
CLASS
  1
TABLESTYLE
  2
AcDbTableStyle
  3
ObjectDBX Classes
 90
     4095
 91
        3
280
     0
281
     0
  0
CLASS
  1
DICTIONARYVAR
  2
AcDbDictionaryVar
  3
ObjectDBX Classes
 90
        0
 91
        3
280
     0
281
     0
  0
CLASS
  1
SCALE
  2
AcDbScale
  3
ObjectDBX Classes
 90
     1153
 91
        3
280
     0
281
     0
  0
CLASS
  1
CELLSTYLEMAP
  2
AcDbCellStyleMap
  3
ObjectDBX Classes
 90
     1152
 91
        3
280
     0
281
     0
  0
CLASS
  1
RASTERVARIABLES
  2
AcDbRasterVariables
  3
ISM
 90
        0
 91
        3
280
     0
281
     0
  0
CLASS
  1
MATERIAL
  2
AcDbMaterial
  3
ObjectDBX Classes
 90
     1153
 91
        3
280
     0
281
     0
  0
CLASS
  1
SUN
  2
AcDbSun
  3
SCENEOE
 90
     1153
 91
        3
280
     0
281
     0
  0
CLASS
  1
MLEADERSTYLE
  2
AcDbMLeaderStyle
  3
ACDB_MLEADERSTYLE_CLASS
 90
     4095
 91
        3
280
     0
281
     0
  0
CLASS
  1
SORTENTSTABLE
  2
AcDbSortentsTable
  3
ObjectDBX Classes
 90
        0
 91
        3
280
     0
281
     0
  0
ENDSEC
  0
SECTION
  2
TABLES
  0
TABLE
  2
VPORT
  5
8
330
0
100
AcDbSymbolTable
 70
     1
  0
VPORT
  5
29
330
8
100
AcDbSymbolTableRecord
100
AcDbViewportTableRecord
  2
*Active
 70
     0
 10
0.0
 20
0.0
 11
1.0
 21
1.0
 12
349.648140454432
 22
133.4830167721957
 13
0.0
 23
0.0
 14
10.0
 24
10.0
 15
10.0
 25
10.0
 16
0.0
 26
0.0
 36
1.0
 17
453988.9225885251
 27
244737.4260735911
 37
0.0
 40
57.94199999570836
 41
2.445468509984639
 42
50.0
 43
0.0
 44
0.0
 50
0.0
 51
0.0
 71
    16
 72
  1000
 73
     1
 74
     3
 75
     0
 76
     0
 77
     0
 78
     0
281
     0
 65
     1
110
0.0
120
0.0
130
0.0
111
1.0
121
0.0
131
0.0
112
0.0
122
1.0
132
0.0
 79
     0
146
0.0
348
2F
 60
     3
 61
     5
292
     1
282
     1
141
0.0
142
0.0
 63
   256
361
80
  0
ENDTAB
  0
TABLE
  2
LTYPE
  5
5
330
0
100
AcDbSymbolTable
 70
     1
  0
LTYPE
  5
14
330
5
100
AcDbSymbolTableRecord
100
AcDbLinetypeTableRecord
  2
ByBlock
 70
     0
  3

 72
    65
 73
     0
 40
0.0
  0
LTYPE
  5
15
330
5
100
AcDbSymbolTableRecord
100
AcDbLinetypeTableRecord
  2
ByLayer
 70
     0
  3

 72
    65
 73
     0
 40
0.0
  0
LTYPE
  5
16
330
5
100
AcDbSymbolTableRecord
100
AcDbLinetypeTableRecord
  2
Continuous
 70
     0
  3
Solid line
 72
    65
 73
     0
 40
0.0
  0
ENDTAB
  0
TABLE
  2
LAYER
  5
2
102
{ACAD_XDICTIONARY
360
BD
102
}
330
0
100
AcDbSymbolTable
 70
    19
  0
LAYER
  5
10
330
2
100
AcDbSymbolTableRecord
100
AcDbLayerTableRecord
  2
0
 70
     0
 62
     7
  6
Continuous
370
    -3
390
F
347
75
348
0
  0
LAYER
  5
D6
330
2
100
AcDbSymbolTableRecord
100
AcDbLayerTableRecord
  2
PRE
 70
     0
 62
     7
  6
Continuous
370
    -3
390
F
347
75
348
0
  0
LAYER
  5
17F
330
2
100
AcDbSymbolTableRecord
100
AcDbLayerTableRecord
  2
LOE
 70
     0
 62
     5
  6
Continuous
370
    -3
390
F
347
75
348
0
1001
AcAecLayerStandard
1000

1000

  0
LAYER
  5
18B
330
2
100
AcDbSymbolTableRecord
100
AcDbLayerTableRecord
  2
C1007
 70
     0
 62
     7
  6
Continuous
370
    -3
390
F
347
75
348
0
  0
LAYER
  5
18D
330
2
100
AcDbSymbolTableRecord
100
AcDbLayerTableRecord
  2
B1007
 70
     0
 62
     5
  6
Continuous
370
    -3
390
F
347
75
348
0
  0
LAYER
  5
18E
330
2
100
AcDbSymbolTableRecord
100
AcDbLayerTableRecord
  2
S1007
 70
     0
 62
     3
  6
Continuous
370
    -3
390
F
347
75
348
0
  0
LAYER
  5
18F
330
2
100
AcDbSymbolTableRecord
100
AcDbLayerTableRecord
  2
L1006
 70
     0
 62
     2
  6
Continuous
370
    -3
390
F
347
75
348
0
  0
LAYER
  5
190
330
2
100
AcDbSymbolTableRecord
100
AcDbLayerTableRecord
  2
L1004
 70
     0
 62
     2
  6
Continuous
370
    -3
390
F
347
75
348
0
  0
LAYER
  5
191
330
2
100
AcDbSymbolTableRecord
100
AcDbLayerTableRecord
  2
C1005
 70
     0
 62
     7
  6
Continuous
370
    -3
390
F
347
75
348
0
  0
LAYER
  5
192
330
2
100
AcDbSymbolTableRecord
100
AcDbLayerTableRecord
  2
B1005
 70
     0
 62
     5
  6
Continuous
370
    -3
390
F
347
75
348
0
  0
LAYER
  5
193
330
2
100
AcDbSymbolTableRecord
100
AcDbLayerTableRecord
  2
S1005
 70
     0
 62
     3
  6
Continuous
370
    -3
390
F
347
75
348
0
  0
LAYER
  5
194
330
2
100
AcDbSymbolTableRecord
100
AcDbLayerTableRecord
  2
L1008
 70
     0
 62
     2
  6
Continuous
370
    -3
390
F
347
75
348
0
  0
LAYER
  5
195
330
2
100
AcDbSymbolTableRecord
100
AcDbLayerTableRecord
  2
C1009
 70
     0
 62
     7
  6
Continuous
370
    -3
390
F
347
75
348
0
  0
LAYER
  5
196
330
2
100
AcDbSymbolTableRecord
100
AcDbLayerTableRecord
  2
B1009
 70
     0
 62
     5
  6
Continuous
370
    -3
390
F
347
75
348
0
  0
LAYER
  5
197
330
2
100
AcDbSymbolTableRecord
100
AcDbLayerTableRecord
  2
S1009
 70
     0
 62
     3
  6
Continuous
370
    -3
390
F
347
75
348
0
  0
LAYER
  5
198
330
2
100
AcDbSymbolTableRecord
100
AcDbLayerTableRecord
  2
L1010
 70
     0
 62
     2
  6
Continuous
370
    -3
390
F
347
75
348
0
  0
LAYER
  5
199
330
2
100
AcDbSymbolTableRecord
100
AcDbLayerTableRecord
  2
C1011
 70
     0
 62
     7
  6
Continuous
370
    -3
390
F
347
75
348
0
  0
LAYER
  5
19A
330
2
100
AcDbSymbolTableRecord
100
AcDbLayerTableRecord
  2
B1011
 70
     0
 62
     5
  6
Continuous
370
    -3
390
F
347
75
348
0
  0
LAYER
  5
19B
330
2
100
AcDbSymbolTableRecord
100
AcDbLayerTableRecord
  2
S1011
 70
     0
 62
     3
  6
Continuous
370
    -3
390
F
347
75
348
0
  0
ENDTAB
  0
TABLE
  2
STYLE
  5
3
330
0
100
AcDbSymbolTable
 70
     2
  0
STYLE
  5
11
330
3
100
AcDbSymbolTableRecord
100
AcDbTextStyleTableRecord
  2
Standard
 70
     0
 40
0.0
 41
1.0
 50
0.0
 71
     0
 42
2.5
  3
arial.ttf
  4

1001
ACAD
1000
Arial
1071
        0
  0
STYLE
  5
B8
330
3
100
AcDbSymbolTableRecord
100
AcDbTextStyleTableRecord
  2
Annotative
 70
     0
 40
0.0
 41
1.0
 50
0.0
 71
     0
 42
2.5
  3
arial.ttf
  4

1001
ACAD
1000
Arial
1071
        0
1001
AcadAnnotative
1000
AnnotativeData
1002
{
1070
     1
1070
     1
1002
}
  0
ENDTAB
  0
TABLE
  2
VIEW
  5
6
330
0
100
AcDbSymbolTable
 70
     0
  0
ENDTAB
  0
TABLE
  2
UCS
  5
7
330
0
100
AcDbSymbolTable
 70
     0
  0
ENDTAB
  0
TABLE
  2
APPID
  5
9
330
0
100
AcDbSymbolTable
 70
     4
  0
APPID
  5
12
330
9
100
AcDbSymbolTableRecord
100
AcDbRegAppTableRecord
  2
ACAD
 70
     0
  0
APPID
  5
B9
330
9
100
AcDbSymbolTableRecord
100
AcDbRegAppTableRecord
  2
AcadAnnotative
 70
     0
  0
APPID
  5
180
330
9
100
AcDbSymbolTableRecord
100
AcDbRegAppTableRecord
  2
AcAecLayerStandard
 70
     0
  0
APPID
  5
184
330
9
100
AcDbSymbolTableRecord
100
AcDbRegAppTableRecord
  2
PLOTTRANSPARENCY
 70
     0
  0
ENDTAB
  0
TABLE
  2
DIMSTYLE
  5
A
330
0
100
AcDbSymbolTable
 70
     2
100
AcDbDimStyleTable
  0
DIMSTYLE
105
27
330
A
100
AcDbSymbolTableRecord
100
AcDbDimStyleTableRecord
  2
ISO-25
 70
     0
 41
2.5
 42
0.625
 43
3.75
 44
1.25
 73
     0
 74
     0
 77
     1
 78
     8
140
2.5
141
-2.5
143
0.03937007874016
147
0.625
171
     3
172
     1
178
     0
271
     2
272
     2
274
     3
278
    44
283
     0
284
     8
340
11
  0
DIMSTYLE
105
BA
330
A
100
AcDbSymbolTableRecord
100
AcDbDimStyleTableRecord
  2
Annotative
 70
     0
 40
0.0
 41
2.5
 42
0.625
 43
3.75
 44
1.25
 73
     0
 74
     0
 77
     1
 78
     8
140
2.5
141
-2.5
143
0.03937007874016
147
0.625
171
     3
172
     1
178
     0
271
     2
272
     2
274
     3
278
    44
283
     0
284
     8
340
11
1001
AcadAnnotative
1000
AnnotativeData
1002
{
1070
     1
1070
     1
1002
}
  0
ENDTAB
  0
TABLE
  2
BLOCK_RECORD
  5
1
330
0
100
AcDbSymbolTable
 70
     1
  0
BLOCK_RECORD
  5
1F
330
1
100
AcDbSymbolTableRecord
100
AcDbBlockTableRecord
  2
*Model_Space
340
22
 70
     0
280
     1
281
     0
  0
BLOCK_RECORD
  5
23
330
1
100
AcDbSymbolTableRecord
100
AcDbBlockTableRecord
  2
*Paper_Space
340
26
 70
     0
280
     1
281
     0
  0
BLOCK_RECORD
  5
1B
330
1
100
AcDbSymbolTableRecord
100
AcDbBlockTableRecord
  2
*Paper_Space0
340
1E
 70
     0
280
     1
281
     0
  0
ENDTAB
  0
ENDSEC
  0
SECTION
  2
BLOCKS
  0
BLOCK
  5
20
330
1F
100
AcDbEntity
  8
0
100
AcDbBlockBegin
  2
*Model_Space
 70
     0
 10
0.0
 20
0.0
 30
0.0
  3
*Model_Space
  1

  0
ENDBLK
  5
21
330
1F
100
AcDbEntity
  8
0
100
AcDbBlockEnd
  0
BLOCK
  5
24
330
23
100
AcDbEntity
 67
     1
  8
0
100
AcDbBlockBegin
  2
*Paper_Space
 70
     0
 10
0.0
 20
0.0
 30
0.0
  3
*Paper_Space
  1

  0
ENDBLK
  5
25
330
23
100
AcDbEntity
 67
     1
  8
0
100
AcDbBlockEnd
  0
BLOCK
  5
1C
330
1B
100
AcDbEntity
  8
0
100
AcDbBlockBegin
  2
*Paper_Space0
 70
     0
 10
0.0
 20
0.0
 30
0.0
  3
*Paper_Space0
  1

  0
ENDBLK
  5
1D
330
1B
100
AcDbEntity
  8
0
100
AcDbBlockEnd
  0
ENDSEC
  0
SECTION
  2
ENTITIES
  0
POLYLINE
  5
120
330
1F
100
AcDbEntity
  8
LOE
100
AcDb3dPolyline
 66
     1
 10
0.0
 20
0.0
 30
0.0
 70
     9
  0
VERTEX
  5
121
330
120
100
AcDbEntity
  8
LOE
100
AcDbVertex
100
AcDb3dPolylineVertex
 10
454365.343
 20
244899.876
 30
164.107
 70
    32
  0
VERTEX
  5
122
330
120
100
AcDbEntity
  8
LOE
100
AcDbVertex
100
AcDb3dPolylineVertex
 10
454366.9290000001
 20
244898.536
 30
164.172
 70
    32
  0
VERTEX
  5
123
330
120
100
AcDbEntity
  8
LOE
100
AcDbVertex
100
AcDb3dPolylineVertex
 10
454370.396
 20
244890.499
 30
164.46
 70
    32
  0
VERTEX
  5
124
330
120
100
AcDbEntity
  8
LOE
100
AcDbVertex
100
AcDb3dPolylineVertex
 10
454368.106
 20
244872.879
 30
164.715
 70
    32
  0
VERTEX
  5
125
330
120
100
AcDbEntity
  8
LOE
100
AcDbVertex
100
AcDb3dPolylineVertex
 10
454366.315
 20
244869.025
 30
164.749
 70
    32
  0
VERTEX
  5
126
330
120
100
AcDbEntity
  8
LOE
100
AcDbVertex
100
AcDb3dPolylineVertex
 10
454359.883
 20
244862.908
 30
164.828
 70
    32
  0
VERTEX
  5
127
330
120
100
AcDbEntity
  8
LOE
100
AcDbVertex
100
AcDb3dPolylineVertex
 10
454350.118
 20
244856.654
 30
164.686
 70
    32
  0
VERTEX
  5
128
330
120
100
AcDbEntity
  8
LOE
100
AcDbVertex
100
AcDb3dPolylineVertex
 10
454343.515
 20
244851.858
 30
164.833
 70
    32
  0
VERTEX
  5
129
330
120
100
AcDbEntity
  8
LOE
100
AcDbVertex
100
AcDb3dPolylineVertex
 10
454342.209
 20
244851.591
 30
164.884
 70
    32
  0
VERTEX
  5
12A
330
120
100
AcDbEntity
  8
LOE
100
AcDbVertex
100
AcDb3dPolylineVertex
 10
454338.213
 20
244852.721
 30
164.671
 70
    32
  0
VERTEX
  5
12B
330
120
100
AcDbEntity
  8
LOE
100
AcDbVertex
100
AcDb3dPolylineVertex
 10
454331.332
 20
244852.675
 30
164.602
 70
    32
  0
VERTEX
  5
12C
330
120
100
AcDbEntity
  8
LOE
100
AcDbVertex
100
AcDb3dPolylineVertex
 10
454328.796
 20
244852.362
 30
164.595
 70
    32
  0
VERTEX
  5
12D
330
120
100
AcDbEntity
  8
LOE
100
AcDbVertex
100
AcDb3dPolylineVertex
 10
454320.121
 20
244854.203
 30
164.366
 70
    32
  0
VERTEX
  5
12E
330
120
100
AcDbEntity
  8
LOE
100
AcDbVertex
100
AcDb3dPolylineVertex
 10
454314.477
 20
244855.639
 30
164.258
 70
    32
  0
VERTEX
  5
12F
330
120
100
AcDbEntity
  8
LOE
100
AcDbVertex
100
AcDb3dPolylineVertex
 10
454314.691
 20
244858.283
 30
164.287
 70
    32
  0
VERTEX
  5
130
330
120
100
AcDbEntity
  8
LOE
100
AcDbVertex
100
AcDb3dPolylineVertex
 10
454328.78
 20
244869.497
 30
164.219
 70
    32
  0
VERTEX
  5
131
330
120
100
AcDbEntity
  8
LOE
100
AcDbVertex
100
AcDb3dPolylineVertex
 10
454341.624
 20
244879.904
 30
164.13
 70
    32
  0
VERTEX
  5
132
330
120
100
AcDbEntity
  8
LOE
100
AcDbVertex
100
AcDb3dPolylineVertex
 10
454349.4290000001
 20
244886.491
 30
164.168
 70
    32
  0
VERTEX
  5
133
330
120
100
AcDbEntity
  8
LOE
100
AcDbVertex
100
AcDb3dPolylineVertex
 10
454359.877
 20
244894.989
 30
164.134
 70
    32
  0
SEQEND
  5
134
330
120
100
AcDbEntity
  8
LOE
  0
POLYLINE
  5
298
330
1F
100
AcDbEntity
  8
C1007
100
AcDb3dPolyline
 66
     1
 10
0.0
 20
0.0
 30
0.0
 70
     8
  0
VERTEX
  5
299
330
298
100
AcDbEntity
  8
C1007
100
AcDbVertex
100
AcDb3dPolylineVertex
 10
454328.953
 20
244862.446
 30
164.385
 70
    32
  0
VERTEX
  5
29A
330
298
100
AcDbEntity
  8
C1007
100
AcDbVertex
100
AcDb3dPolylineVertex
 10
454328.659
 20
244862.502
 30
164.382
 70
    32
  0
VERTEX
  5
29B
330
298
100
AcDbEntity
  8
C1007
100
AcDbVertex
100
AcDb3dPolylineVertex
 10
454328.455
 20
244862.585
 30
164.369
 70
    32
  0
VERTEX
  5
29C
330
298
100
AcDbEntity
  8
C1007
100
AcDbVertex
100
AcDb3dPolylineVertex
 10
454328.27
 20
244862.698
 30
164.333
 70
    32
  0
VERTEX
  5
29D
330
298
100
AcDbEntity
  8
C1007
100
AcDbVertex
100
AcDb3dPolylineVertex
 10
454328.0827696043
 20
244862.7116165915
 30
164.391
 70
    32
  0
VERTEX
  5
29E
330
298
100
AcDbEntity
  8
C1007
100
AcDbVertex
100
AcDb3dPolylineVertex
 10
454327.8729543302
 20
244862.7554585891
 30
164.331
 70
    32
  0
VERTEX
  5
29F
330
298
100
AcDbEntity
  8
C1007
100
AcDbVertex
100
AcDb3dPolylineVertex
 10
454327.709
 20
244862.7770000001
 30
164.338
 70
    32
  0
VERTEX
  5
2A0
330
298
100
AcDbEntity
  8
C1007
100
AcDbVertex
100
AcDb3dPolylineVertex
 10
454327.548
 20
244862.7554585891
 30
164.316
 70
    32
  0
VERTEX
  5
2A1
330
298
100
AcDbEntity
  8
C1007
100
AcDbVertex
100
AcDb3dPolylineVertex
 10
454327.3374556455
 20
244862.7773795879
 30
164.351
 70
    32
  0
VERTEX
  5
2A2
330
298
100
AcDbEntity
  8
C1007
100
AcDbVertex
100
AcDb3dPolylineVertex
 10
454327.119
 20
244862.818
 30
164.301
 70
    32
  0
VERTEX
  5
2A3
330
298
100
AcDbEntity
  8
C1007
100
AcDbVertex
100
AcDb3dPolylineVertex
 10
454326.964
 20
244862.8086953004
 30
164.342
 70
    32
  0
VERTEX
  5
2A4
330
298
100
AcDbEntity
  8
C1007
100
AcDbVertex
100
AcDb3dPolylineVertex
 10
454326.662
 20
244862.837
 30
164.315
 70
    32
  0
SEQEND
  5
2A5
330
298
100
AcDbEntity
  8
C1007
  0
POLYLINE
  5
2A6
330
1F
100
AcDbEntity
  8
C1007
100
AcDb3dPolyline
 66
     1
 10
0.0
 20
0.0
 30
0.0
 70
     8
  0
VERTEX
  5
2A7
330
2A6
100
AcDbEntity
  8
C1007
100
AcDbVertex
100
AcDb3dPolylineVertex
 10
454326.797
 20
244864.09
 30
164.298
 70
    32
  0
VERTEX
  5
2A8
330
2A6
100
AcDbEntity
  8
C1007
100
AcDbVertex
100
AcDb3dPolylineVertex
 10
454327.006
 20
244864.074
 30
164.306
 70
    32
  0
VERTEX
  5
2A9
330
2A6
100
AcDbEntity
  8
C1007
100
AcDbVertex
100
AcDb3dPolylineVertex
 10
454327.215
 20
244864.0357932296
 30
164.304
 70
    32
  0
VERTEX
  5
2AA
330
2A6
100
AcDbEntity
  8
C1007
100
AcDbVertex
100
AcDb3dPolylineVertex
 10
454327.386
 20
244864.013
 30
164.318
 70
    32
  0
VERTEX
  5
2AB
330
2A6
100
AcDbEntity
  8
C1007
100
AcDbVertex
100
AcDb3dPolylineVertex
 10
454327.639
 20
244863.967
 30
164.299
 70
    32
  0
VERTEX
  5
2AC
330
2A6
100
AcDbEntity
  8
C1007
100
AcDbVertex
100
AcDb3dPolylineVertex
 10
454327.8419999999
 20
244863.94
 30
164.283
 70
    32
  0
VERTEX
  5
2AD
330
2A6
100
AcDbEntity
  8
C1007
100
AcDbVertex
100
AcDb3dPolylineVertex
 10
454328.079
 20
244863.905
 30
164.298
 70
    32
  0
VERTEX
  5
2AE
330
2A6
100
AcDbEntity
  8
C1007
100
AcDbVertex
100
AcDb3dPolylineVertex
 10
454328.295
 20
244863.828
 30
164.302
 70
    32
  0
VERTEX
  5
2AF
330
2A6
100
AcDbEntity
  8
C1007
100
AcDbVertex
100
AcDb3dPolylineVertex
 10
454328.569
 20
244863.7170000001
 30
164.285
 70
    32
  0
VERTEX
  5
2B0
330
2A6
100
AcDbEntity
  8
C1007
100
AcDbVertex
100
AcDb3dPolylineVertex
 10
454328.751
 20
244863.706
 30
164.348
 70
    32
  0
VERTEX
  5
2B1
330
2A6
100
AcDbEntity
  8
C1007
100
AcDbVertex
100
AcDb3dPolylineVertex
 10
454329.027
 20
244863.6332565509
 30
164.313
 70
    32
  0
SEQEND
  5
2B2
330
2A6
100
AcDbEntity
  8
C1007
  0
POLYLINE
  5
2B3
330
1F
100
AcDbEntity
  8
B1007
100
AcDb3dPolyline
 66
     1
 10
0.0
 20
0.0
 30
0.0
 70
     8
  0
VERTEX
  5
2B4
330
2B3
100
AcDbEntity
  8
B1007
100
AcDbVertex
100
AcDb3dPolylineVertex
 10
454327.2782687134
 20
244863.7704748824
 30
164.1358249607927
 70
    32
  0
VERTEX
  5
2B5
330
2B3
100
AcDbEntity
  8
B1007
100
AcDbVertex
100
AcDb3dPolylineVertex
 10
454327.507
 20
244863.787
 30
164.093
 70
    32
  0
VERTEX
  5
2B6
330
2B3
100
AcDbEntity
  8
B1007
100
AcDbVertex
100
AcDb3dPolylineVertex
 10
454327.796
 20
244863.814
 30
164.206
 70
    32
  0
VERTEX
  5
2B7
330
2B3
100
AcDbEntity
  8
B1007
100
AcDbVertex
100
AcDb3dPolylineVertex
 10
454327.9700330391
 20
244863.795140246
 30
164.233
 70
    32
  0
VERTEX
  5
2B8
330
2B3
100
AcDbEntity
  8
B1007
100
AcDbVertex
100
AcDb3dPolylineVertex
 10
454328.112
 20
244863.7420000001
 30
164.209
 70
    32
  0
VERTEX
  5
2B9
330
2B3
100
AcDbEntity
  8
B1007
100
AcDbVertex
100
AcDb3dPolylineVertex
 10
454328.276
 20
244863.68
 30
164.251
 70
    32
  0
VERTEX
  5
2BA
330
2B3
100
AcDbEntity
  8
B1007
100
AcDbVertex
100
AcDb3dPolylineVertex
 10
454328.4500683401
 20
244863.6395196934
 30
164.215
 70
    32
  0
VERTEX
  5
2BB
330
2B3
100
AcDbEntity
  8
B1007
100
AcDbVertex
100
AcDb3dPolylineVertex
 10
454328.61
 20
244863.566
 30
164.251
 70
    32
  0
SEQEND
  5
2BC
330
2B3
100
AcDbEntity
  8
B1007
  0
POLYLINE
  5
2BD
330
1F
100
AcDbEntity
  8
B1007
100
AcDb3dPolyline
 66
     1
 10
0.0
 20
0.0
 30
0.0
 70
     8
  0
VERTEX
  5
2BE
330
2BD
100
AcDbEntity
  8
B1007
100
AcDbVertex
100
AcDb3dPolylineVertex
 10
454328.436
 20
244862.95
 30
164.21
 70
    32
  0
VERTEX
  5
2BF
330
2BD
100
AcDbEntity
  8
B1007
100
AcDbVertex
100
AcDb3dPolylineVertex
 10
454328.271
 20
244862.97
 30
164.224
 70
    32
  0
VERTEX
  5
2C0
330
2BD
100
AcDbEntity
  8
B1007
100
AcDbVertex
100
AcDb3dPolylineVertex
 10
454328.122
 20
244862.948
 30
164.255
 70
    32
  0
VERTEX
  5
2C1
330
2BD
100
AcDbEntity
  8
B1007
100
AcDbVertex
100
AcDb3dPolylineVertex
 10
454327.949
 20
244862.949
 30
164.258
 70
    32
  0
VERTEX
  5
2C2
330
2BD
100
AcDbEntity
  8
B1007
100
AcDbVertex
100
AcDb3dPolylineVertex
 10
454327.755
 20
244863.02
 30
164.241
 70
    32
  0
VERTEX
  5
2C3
330
2BD
100
AcDbEntity
  8
B1007
100
AcDbVertex
100
AcDb3dPolylineVertex
 10
454327.572
 20
244862.959
 30
164.244
 70
    32
  0
VERTEX
  5
2C4
330
2BD
100
AcDbEntity
  8
B1007
100
AcDbVertex
100
AcDb3dPolylineVertex
 10
454327.4282712119
 20
244863.0435631446
 30
164.197
 70
    32
  0
VERTEX
  5
2C5
330
2BD
100
AcDbEntity
  8
B1007
100
AcDbVertex
100
AcDb3dPolylineVertex
 10
454327.213
 20
244863.2068602813
 30
164.1725
 70
    32
  0
SEQEND
  5
2C6
330
2BD
100
AcDbEntity
  8
B1007
  0
POLYLINE
  5
2C7
330
1F
100
AcDbEntity
  8
S1007
100
AcDb3dPolyline
 66
     1
 10
0.0
 20
0.0
 30
0.0
 70
     8
  0
VERTEX
  5
2C8
330
2C7
100
AcDbEntity
  8
S1007
100
AcDbVertex
100
AcDb3dPolylineVertex
 10
454327.119
 20
244862.818
 30
164.301
 70
    32
  0
VERTEX
  5
2C9
330
2C7
100
AcDbEntity
  8
S1007
100
AcDbVertex
100
AcDb3dPolylineVertex
 10
454327.175
 20
244863.003
 30
164.267
 70
    32
  0
VERTEX
  5
2CA
330
2C7
100
AcDbEntity
  8
S1007
100
AcDbVertex
100
AcDb3dPolylineVertex
 10
454327.185
 20
244863.176
 30
164.199
 70
    32
  0
VERTEX
  5
2CB
330
2C7
100
AcDbEntity
  8
S1007
100
AcDbVertex
100
AcDb3dPolylineVertex
 10
454327.241
 20
244863.2377205625
 30
164.146
 70
    32
  0
VERTEX
  5
2CC
330
2C7
100
AcDbEntity
  8
S1007
100
AcDbVertex
100
AcDb3dPolylineVertex
 10
454327.246
 20
244863.313
 30
164.111
 70
    32
  0
VERTEX
  5
2CD
330
2C7
100
AcDbEntity
  8
S1007
100
AcDbVertex
100
AcDb3dPolylineVertex
 10
454327.243
 20
244863.513
 30
164.114
 70
    32
  0
VERTEX
  5
2CE
330
2C7
100
AcDbEntity
  8
S1007
100
AcDbVertex
100
AcDb3dPolylineVertex
 10
454327.237
 20
244863.598
 30
164.111
 70
    32
  0
VERTEX
  5
2CF
330
2C7
100
AcDbEntity
  8
S1007
100
AcDbVertex
100
AcDb3dPolylineVertex
 10
454327.257
 20
244863.702
 30
164.113
 70
    32
  0
VERTEX
  5
2D0
330
2C7
100
AcDbEntity
  8
S1007
100
AcDbVertex
100
AcDb3dPolylineVertex
 10
454327.298
 20
244863.834
 30
164.157
 70
    32
  0
VERTEX
  5
2D1
330
2C7
100
AcDbEntity
  8
S1007
100
AcDbVertex
100
AcDb3dPolylineVertex
 10
454327.289
 20
244863.903
 30
164.229
 70
    32
  0
VERTEX
  5
2D2
330
2C7
100
AcDbEntity
  8
S1007
100
AcDbVertex
100
AcDb3dPolylineVertex
 10
454327.273106944
 20
244864.0280479377
 30
164.3087572936652
 70
    32
  0
SEQEND
  5
2D3
330
2C7
100
AcDbEntity
  8
S1007
  0
POINT
  5
2D4
330
1F
100
AcDbEntity
  8
L1006
100
AcDbPoint
 10
454327.111
 20
244863.428
 30
164.341
  0
POINT
  5
2D5
330
1F
100
AcDbEntity
  8
L1004
100
AcDbPoint
 10
454355.7330000001
 20
244882.533
 30
164.342
  0
POLYLINE
  5
2D6
330
1F
100
AcDbEntity
  8
C1005
100
AcDb3dPolyline
 66
     1
 10
0.0
 20
0.0
 30
0.0
 70
     8
  0
VERTEX
  5
2D7
330
2D6
100
AcDbEntity
  8
C1005
100
AcDbVertex
100
AcDb3dPolylineVertex
 10
454355.379
 20
244882.331
 30
164.357
 70
    32
  0
VERTEX
  5
2D8
330
2D6
100
AcDbEntity
  8
C1005
100
AcDbVertex
100
AcDb3dPolylineVertex
 10
454355.4330000001
 20
244882.515
 30
164.316
 70
    32
  0
VERTEX
  5
2D9
330
2D6
100
AcDbEntity
  8
C1005
100
AcDbVertex
100
AcDb3dPolylineVertex
 10
454355.468
 20
244882.707
 30
164.346
 70
    32
  0
VERTEX
  5
2DA
330
2D6
100
AcDbEntity
  8
C1005
100
AcDbVertex
100
AcDb3dPolylineVertex
 10
454355.508
 20
244882.964
 30
164.327
 70
    32
  0
VERTEX
  5
2DB
330
2D6
100
AcDbEntity
  8
C1005
100
AcDbVertex
100
AcDb3dPolylineVertex
 10
454355.5237726239
 20
244883.2575982037
 30
164.35
 70
    32
  0
VERTEX
  5
2DC
330
2D6
100
AcDbEntity
  8
C1005
100
AcDbVertex
100
AcDb3dPolylineVertex
 10
454355.547
 20
244883.51
 30
164.354
 70
    32
  0
VERTEX
  5
2DD
330
2D6
100
AcDbEntity
  8
C1005
100
AcDbVertex
100
AcDb3dPolylineVertex
 10
454355.679
 20
244883.828
 30
164.335
 70
    32
  0
VERTEX
  5
2DE
330
2D6
100
AcDbEntity
  8
C1005
100
AcDbVertex
100
AcDb3dPolylineVertex
 10
454355.7390681477
 20
244884.063
 30
164.348
 70
    32
  0
VERTEX
  5
2DF
330
2D6
100
AcDbEntity
  8
C1005
100
AcDbVertex
100
AcDb3dPolylineVertex
 10
454355.9165
 20
244884.1855
 30
164.3355
 70
    32
  0
VERTEX
  5
2E0
330
2D6
100
AcDbEntity
  8
C1005
100
AcDbVertex
100
AcDb3dPolylineVertex
 10
454356.051
 20
244884.233
 30
164.342
 70
    32
  0
VERTEX
  5
2E1
330
2D6
100
AcDbEntity
  8
C1005
100
AcDbVertex
100
AcDb3dPolylineVertex
 10
454356.116
 20
244884.155
 30
164.353
 70
    32
  0
VERTEX
  5
2E2
330
2D6
100
AcDbEntity
  8
C1005
100
AcDbVertex
100
AcDb3dPolylineVertex
 10
454356.213
 20
244884.055
 30
164.351
 70
    32
  0
VERTEX
  5
2E3
330
2D6
100
AcDbEntity
  8
C1005
100
AcDbVertex
100
AcDb3dPolylineVertex
 10
454356.215
 20
244883.721
 30
164.339
 70
    32
  0
VERTEX
  5
2E4
330
2D6
100
AcDbEntity
  8
C1005
100
AcDbVertex
100
AcDb3dPolylineVertex
 10
454356.188
 20
244883.395
 30
164.352
 70
    32
  0
VERTEX
  5
2E5
330
2D6
100
AcDbEntity
  8
C1005
100
AcDbVertex
100
AcDb3dPolylineVertex
 10
454356.1549799551
 20
244883.0716611604
 30
164.393
 70
    32
  0
VERTEX
  5
2E6
330
2D6
100
AcDbEntity
  8
C1005
100
AcDbVertex
100
AcDb3dPolylineVertex
 10
454356.097
 20
244882.807
 30
164.37
 70
    32
  0
VERTEX
  5
2E7
330
2D6
100
AcDbEntity
  8
C1005
100
AcDbVertex
100
AcDb3dPolylineVertex
 10
454356.048
 20
244882.612
 30
164.361
 70
    32
  0
VERTEX
  5
2E8
330
2D6
100
AcDbEntity
  8
C1005
100
AcDbVertex
100
AcDb3dPolylineVertex
 10
454356.004
 20
244882.429
 30
164.352
 70
    32
  0
VERTEX
  5
2E9
330
2D6
100
AcDbEntity
  8
C1005
100
AcDbVertex
100
AcDb3dPolylineVertex
 10
454355.985
 20
244882.196
 30
164.364
 70
    32
  0
SEQEND
  5
2EA
330
2D6
100
AcDbEntity
  8
C1005
  0
POLYLINE
  5
2EB
330
1F
100
AcDbEntity
  8
B1005
100
AcDb3dPolyline
 66
     1
 10
0.0
 20
0.0
 30
0.0
 70
     8
  0
VERTEX
  5
2EC
330
2EB
100
AcDbEntity
  8
B1005
100
AcDbVertex
100
AcDb3dPolylineVertex
 10
454355.899281633
 20
244882.6123746459
 30
164.3445197119206
 70
    32
  0
VERTEX
  5
2ED
330
2EB
100
AcDbEntity
  8
B1005
100
AcDbVertex
100
AcDb3dPolylineVertex
 10
454355.955
 20
244882.887
 30
164.314
 70
    32
  0
VERTEX
  5
2EE
330
2EB
100
AcDbEntity
  8
B1005
100
AcDbVertex
100
AcDb3dPolylineVertex
 10
454355.968
 20
244883.105
 30
164.312
 70
    32
  0
VERTEX
  5
2EF
330
2EB
100
AcDbEntity
  8
B1005
100
AcDbVertex
100
AcDb3dPolylineVertex
 10
454356.024
 20
244883.343
 30
164.303
 70
    32
  0
VERTEX
  5
2F0
330
2EB
100
AcDbEntity
  8
B1005
100
AcDbVertex
100
AcDb3dPolylineVertex
 10
454356.109
 20
244883.528
 30
164.332
 70
    32
  0
VERTEX
  5
2F1
330
2EB
100
AcDbEntity
  8
B1005
100
AcDbVertex
100
AcDb3dPolylineVertex
 10
454356.112
 20
244883.682
 30
164.335
 70
    32
  0
VERTEX
  5
2F2
330
2EB
100
AcDbEntity
  8
B1005
100
AcDbVertex
100
AcDb3dPolylineVertex
 10
454356.056
 20
244883.754
 30
164.334
 70
    32
  0
VERTEX
  5
2F3
330
2EB
100
AcDbEntity
  8
B1005
100
AcDbVertex
100
AcDb3dPolylineVertex
 10
454355.889
 20
244883.801
 30
164.285
 70
    32
  0
VERTEX
  5
2F4
330
2EB
100
AcDbEntity
  8
B1005
100
AcDbVertex
100
AcDb3dPolylineVertex
 10
454355.745
 20
244883.732
 30
164.291
 70
    32
  0
VERTEX
  5
2F5
330
2EB
100
AcDbEntity
  8
B1005
100
AcDbVertex
100
AcDb3dPolylineVertex
 10
454355.703
 20
244883.602
 30
164.249
 70
    32
  0
VERTEX
  5
2F6
330
2EB
100
AcDbEntity
  8
B1005
100
AcDbVertex
100
AcDb3dPolylineVertex
 10
454355.6509927061
 20
244883.411
 30
164.278
 70
    32
  0
VERTEX
  5
2F7
330
2EB
100
AcDbEntity
  8
B1005
100
AcDbVertex
100
AcDb3dPolylineVertex
 10
454355.6409999999
 20
244883.225
 30
164.259
 70
    32
  0
VERTEX
  5
2F8
330
2EB
100
AcDbEntity
  8
B1005
100
AcDbVertex
100
AcDb3dPolylineVertex
 10
454355.603
 20
244883.043
 30
164.269
 70
    32
  0
VERTEX
  5
2F9
330
2EB
100
AcDbEntity
  8
B1005
100
AcDbVertex
100
AcDb3dPolylineVertex
 10
454355.612
 20
244882.85
 30
164.247
 70
    32
  0
VERTEX
  5
2FA
330
2EB
100
AcDbEntity
  8
B1005
100
AcDbVertex
100
AcDb3dPolylineVertex
 10
454355.6082242132
 20
244882.6889298812
 30
164.278975133787
 70
    32
  0
SEQEND
  5
2FB
330
2EB
100
AcDbEntity
  8
B1005
  0
POLYLINE
  5
2FC
330
1F
100
AcDbEntity
  8
S1005
100
AcDb3dPolyline
 66
     1
 10
0.0
 20
0.0
 30
0.0
 70
     8
  0
VERTEX
  5
2FD
330
2FC
100
AcDbEntity
  8
S1005
100
AcDbVertex
100
AcDb3dPolylineVertex
 10
454356.0463431532
 20
244882.6051090239
 30
164.3606610995331
 70
    32
  0
VERTEX
  5
2FE
330
2FC
100
AcDbEntity
  8
S1005
100
AcDbVertex
100
AcDb3dPolylineVertex
 10
454355.832
 20
244882.61
 30
164.337
 70
    32
  0
VERTEX
  5
2FF
330
2FC
100
AcDbEntity
  8
S1005
100
AcDbVertex
100
AcDb3dPolylineVertex
 10
454355.778
 20
244882.629
 30
164.305
 70
    32
  0
VERTEX
  5
300
330
2FC
100
AcDbEntity
  8
S1005
100
AcDbVertex
100
AcDb3dPolylineVertex
 10
454355.688
 20
244882.644
 30
164.305
 70
    32
  0
VERTEX
  5
301
330
2FC
100
AcDbEntity
  8
S1005
100
AcDbVertex
100
AcDb3dPolylineVertex
 10
454355.622
 20
244882.693
 30
164.27
 70
    32
  0
VERTEX
  5
302
330
2FC
100
AcDbEntity
  8
S1005
100
AcDbVertex
100
AcDb3dPolylineVertex
 10
454355.5199813576
 20
244882.6941021453
 30
164.356
 70
    32
  0
VERTEX
  5
303
330
2FC
100
AcDbEntity
  8
S1005
100
AcDbVertex
100
AcDb3dPolylineVertex
 10
454355.4669892021
 20
244882.7014550515
 30
164.3451336017825
 70
    32
  0
SEQEND
  5
304
330
2FC
100
AcDbEntity
  8
S1005
  0
POINT
  5
305
330
1F
100
AcDbEntity
  8
L1008
100
AcDbPoint
 10
454353.28
 20
244869.058
 30
164.607
  0
POLYLINE
  5
306
330
1F
100
AcDbEntity
  8
C1009
100
AcDb3dPolyline
 66
     1
 10
0.0
 20
0.0
 30
0.0
 70
     8
  0
VERTEX
  5
307
330
306
100
AcDbEntity
  8
C1009
100
AcDbVertex
100
AcDb3dPolylineVertex
 10
454352.7930000001
 20
244868.959
 30
164.588
 70
    32
  0
VERTEX
  5
308
330
306
100
AcDbEntity
  8
C1009
100
AcDbVertex
100
AcDb3dPolylineVertex
 10
454352.868
 20
244869.17
 30
164.573
 70
    32
  0
VERTEX
  5
309
330
306
100
AcDbEntity
  8
C1009
100
AcDbVertex
100
AcDb3dPolylineVertex
 10
454352.92
 20
244869.335
 30
164.588
 70
    32
  0
VERTEX
  5
30A
330
306
100
AcDbEntity
  8
C1009
100
AcDbVertex
100
AcDb3dPolylineVertex
 10
454352.968
 20
244869.534
 30
164.587
 70
    32
  0
VERTEX
  5
30B
330
306
100
AcDbEntity
  8
C1009
100
AcDbVertex
100
AcDb3dPolylineVertex
 10
454352.992
 20
244869.738
 30
164.561
 70
    32
  0
VERTEX
  5
30C
330
306
100
AcDbEntity
  8
C1009
100
AcDbVertex
100
AcDb3dPolylineVertex
 10
454352.9950000001
 20
244869.924
 30
164.581
 70
    32
  0
VERTEX
  5
30D
330
306
100
AcDbEntity
  8
C1009
100
AcDbVertex
100
AcDb3dPolylineVertex
 10
454353.13
 20
244870.116
 30
164.536
 70
    32
  0
VERTEX
  5
30E
330
306
100
AcDbEntity
  8
C1009
100
AcDbVertex
100
AcDb3dPolylineVertex
 10
454353.176
 20
244870.252
 30
164.535
 70
    32
  0
VERTEX
  5
30F
330
306
100
AcDbEntity
  8
C1009
100
AcDbVertex
100
AcDb3dPolylineVertex
 10
454353.222
 20
244870.455
 30
164.548
 70
    32
  0
VERTEX
  5
310
330
306
100
AcDbEntity
  8
C1009
100
AcDbVertex
100
AcDb3dPolylineVertex
 10
454353.278
 20
244870.633
 30
164.538
 70
    32
  0
SEQEND
  5
311
330
306
100
AcDbEntity
  8
C1009
  0
POLYLINE
  5
312
330
1F
100
AcDbEntity
  8
C1009
100
AcDb3dPolyline
 66
     1
 10
0.0
 20
0.0
 30
0.0
 70
     8
  0
VERTEX
  5
313
330
312
100
AcDbEntity
  8
C1009
100
AcDbVertex
100
AcDb3dPolylineVertex
 10
454354.003
 20
244870.431
 30
164.552
 70
    32
  0
VERTEX
  5
314
330
312
100
AcDbEntity
  8
C1009
100
AcDbVertex
100
AcDb3dPolylineVertex
 10
454353.941
 20
244870.266
 30
164.578
 70
    32
  0
VERTEX
  5
315
330
312
100
AcDbEntity
  8
C1009
100
AcDbVertex
100
AcDb3dPolylineVertex
 10
454353.9335703429
 20
244870.0227679867
 30
164.601
 70
    32
  0
VERTEX
  5
316
330
312
100
AcDbEntity
  8
C1009
100
AcDbVertex
100
AcDb3dPolylineVertex
 10
454353.861
 20
244869.835
 30
164.564
 70
    32
  0
VERTEX
  5
317
330
312
100
AcDbEntity
  8
C1009
100
AcDbVertex
100
AcDb3dPolylineVertex
 10
454353.868
 20
244869.6770000001
 30
164.624
 70
    32
  0
VERTEX
  5
318
330
312
100
AcDbEntity
  8
C1009
100
AcDbVertex
100
AcDb3dPolylineVertex
 10
454353.768
 20
244869.47
 30
164.58
 70
    32
  0
VERTEX
  5
319
330
312
100
AcDbEntity
  8
C1009
100
AcDbVertex
100
AcDb3dPolylineVertex
 10
454353.7830000001
 20
244869.297
 30
164.607
 70
    32
  0
VERTEX
  5
31A
330
312
100
AcDbEntity
  8
C1009
100
AcDbVertex
100
AcDb3dPolylineVertex
 10
454353.766
 20
244869.088
 30
164.584
 70
    32
  0
VERTEX
  5
31B
330
312
100
AcDbEntity
  8
C1009
100
AcDbVertex
100
AcDb3dPolylineVertex
 10
454353.737
 20
244868.921
 30
164.604
 70
    32
  0
VERTEX
  5
31C
330
312
100
AcDbEntity
  8
C1009
100
AcDbVertex
100
AcDb3dPolylineVertex
 10
454353.713
 20
244868.689
 30
164.603
 70
    32
  0
SEQEND
  5
31D
330
312
100
AcDbEntity
  8
C1009
  0
POLYLINE
  5
31E
330
1F
100
AcDbEntity
  8
B1009
100
AcDb3dPolyline
 66
     1
 10
0.0
 20
0.0
 30
0.0
 70
     8
  0
VERTEX
  5
31F
330
31E
100
AcDbEntity
  8
B1009
100
AcDbVertex
100
AcDb3dPolylineVertex
 10
454353.766
 20
244870.036
 30
164.491
 70
    32
  0
VERTEX
  5
320
330
31E
100
AcDbEntity
  8
B1009
100
AcDbVertex
100
AcDb3dPolylineVertex
 10
454353.737
 20
244869.889
 30
164.439
 70
    32
  0
VERTEX
  5
321
330
31E
100
AcDbEntity
  8
B1009
100
AcDbVertex
100
AcDb3dPolylineVertex
 10
454353.762
 20
244869.66
 30
164.508
 70
    32
  0
VERTEX
  5
322
330
31E
100
AcDbEntity
  8
B1009
100
AcDbVertex
100
AcDb3dPolylineVertex
 10
454353.7135481037
 20
244869.513
 30
164.512
 70
    32
  0
VERTEX
  5
323
330
31E
100
AcDbEntity
  8
B1009
100
AcDbVertex
100
AcDb3dPolylineVertex
 10
454353.6714597861
 20
244869.3518405886
 30
164.526
 70
    32
  0
VERTEX
  5
324
330
31E
100
AcDbEntity
  8
B1009
100
AcDbVertex
100
AcDb3dPolylineVertex
 10
454353.6295424885
 20
244869.1585012052
 30
164.5139394213138
 70
    32
  0
SEQEND
  5
325
330
31E
100
AcDbEntity
  8
B1009
  0
POLYLINE
  5
326
330
1F
100
AcDbEntity
  8
B1009
100
AcDb3dPolyline
 66
     1
 10
0.0
 20
0.0
 30
0.0
 70
     8
  0
VERTEX
  5
327
330
326
100
AcDbEntity
  8
B1009
100
AcDbVertex
100
AcDb3dPolylineVertex
 10
454353.1109326425
 20
244869.2825758878
 30
164.5454472387235
 70
    32
  0
VERTEX
  5
328
330
326
100
AcDbEntity
  8
B1009
100
AcDbVertex
100
AcDb3dPolylineVertex
 10
454353.144
 20
244869.495
 30
164.51
 70
    32
  0
VERTEX
  5
329
330
326
100
AcDbEntity
  8
B1009
100
AcDbVertex
100
AcDb3dPolylineVertex
 10
454353.16
 20
244869.745
 30
164.501
 70
    32
  0
VERTEX
  5
32A
330
326
100
AcDbEntity
  8
B1009
100
AcDbVertex
100
AcDb3dPolylineVertex
 10
454353.198
 20
244869.914
 30
164.484
 70
    32
  0
VERTEX
  5
32B
330
326
100
AcDbEntity
  8
B1009
100
AcDbVertex
100
AcDb3dPolylineVertex
 10
454353.2425597869
 20
244870.0392831106
 30
164.5
 70
    32
  0
VERTEX
  5
32C
330
326
100
AcDbEntity
  8
B1009
100
AcDbVertex
100
AcDb3dPolylineVertex
 10
454353.323
 20
244870.195
 30
164.513
 70
    32
  0
SEQEND
  5
32D
330
326
100
AcDbEntity
  8
B1009
  0
POLYLINE
  5
32E
330
1F
100
AcDbEntity
  8
S1009
100
AcDb3dPolyline
 66
     1
 10
0.0
 20
0.0
 30
0.0
 70
     8
  0
VERTEX
  5
32F
330
32E
100
AcDbEntity
  8
S1009
100
AcDbVertex
100
AcDb3dPolylineVertex
 10
454353.7666401304
 20
244869.0916862685
 30
164.5835585307227
 70
    32
  0
VERTEX
  5
330
330
32E
100
AcDbEntity
  8
S1009
100
AcDbVertex
100
AcDb3dPolylineVertex
 10
454353.6079999999
 20
244869.169
 30
164.503
 70
    32
  0
VERTEX
  5
331
330
32E
100
AcDbEntity
  8
S1009
100
AcDbVertex
100
AcDb3dPolylineVertex
 10
454353.46
 20
244869.202
 30
164.5
 70
    32
  0
VERTEX
  5
332
330
32E
100
AcDbEntity
  8
S1009
100
AcDbVertex
100
AcDb3dPolylineVertex
 10
454353.351
 20
244869.253
 30
164.511
 70
    32
  0
VERTEX
  5
333
330
32E
100
AcDbEntity
  8
S1009
100
AcDbVertex
100
AcDb3dPolylineVertex
 10
454353.172
 20
244869.258
 30
164.538
 70
    32
  0
VERTEX
  5
334
330
32E
100
AcDbEntity
  8
S1009
100
AcDbVertex
100
AcDb3dPolylineVertex
 10
454353.09
 20
244869.291
 30
164.548
 70
    32
  0
VERTEX
  5
335
330
32E
100
AcDbEntity
  8
S1009
100
AcDbVertex
100
AcDb3dPolylineVertex
 10
454353.063
 20
244869.304
 30
164.551
 70
    32
  0
VERTEX
  5
336
330
32E
100
AcDbEntity
  8
S1009
100
AcDbVertex
100
AcDb3dPolylineVertex
 10
454352.9145075281
 20
244869.317571964
 30
164.5864156330867
 70
    32
  0
SEQEND
  5
337
330
32E
100
AcDbEntity
  8
S1009
  0
POINT
  5
338
330
1F
100
AcDbEntity
  8
L1010
100
AcDbPoint
 10
454352.006
 20
244863.206
 30
164.648
  0
POLYLINE
  5
339
330
1F
100
AcDbEntity
  8
C1011
100
AcDb3dPolyline
 66
     1
 10
0.0
 20
0.0
 30
0.0
 70
     8
  0
VERTEX
  5
33A
330
339
100
AcDbEntity
  8
C1011
100
AcDbVertex
100
AcDb3dPolylineVertex
 10
454352.572
 20
244863.492
 30
164.617
 70
    32
  0
VERTEX
  5
33B
330
339
100
AcDbEntity
  8
C1011
100
AcDbVertex
100
AcDb3dPolylineVertex
 10
454352.584
 20
244863.227
 30
164.635
 70
    32
  0
VERTEX
  5
33C
330
339
100
AcDbEntity
  8
C1011
100
AcDbVertex
100
AcDb3dPolylineVertex
 10
454352.564
 20
244862.897
 30
164.63
 70
    32
  0
VERTEX
  5
33D
330
339
100
AcDbEntity
  8
C1011
100
AcDbVertex
100
AcDb3dPolylineVertex
 10
454352.635
 20
244862.561
 30
164.623
 70
    32
  0
VERTEX
  5
33E
330
339
100
AcDbEntity
  8
C1011
100
AcDbVertex
100
AcDb3dPolylineVertex
 10
454352.63
 20
244862.2770000001
 30
164.647
 70
    32
  0
VERTEX
  5
33F
330
339
100
AcDbEntity
  8
C1011
100
AcDbVertex
100
AcDb3dPolylineVertex
 10
454352.649
 20
244862.103
 30
164.7
 70
    32
  0
VERTEX
  5
340
330
339
100
AcDbEntity
  8
C1011
100
AcDbVertex
100
AcDb3dPolylineVertex
 10
454352.462
 20
244861.845
 30
164.662
 70
    32
  0
VERTEX
  5
341
330
339
100
AcDbEntity
  8
C1011
100
AcDbVertex
100
AcDb3dPolylineVertex
 10
454352.303
 20
244861.608
 30
164.682
 70
    32
  0
VERTEX
  5
342
330
339
100
AcDbEntity
  8
C1011
100
AcDbVertex
100
AcDb3dPolylineVertex
 10
454352.061
 20
244861.469
 30
164.662
 70
    32
  0
VERTEX
  5
343
330
339
100
AcDbEntity
  8
C1011
100
AcDbVertex
100
AcDb3dPolylineVertex
 10
454351.776
 20
244861.349
 30
164.656
 70
    32
  0
VERTEX
  5
344
330
339
100
AcDbEntity
  8
C1011
100
AcDbVertex
100
AcDb3dPolylineVertex
 10
454351.398
 20
244861.308
 30
164.608
 70
    32
  0
VERTEX
  5
345
330
339
100
AcDbEntity
  8
C1011
100
AcDbVertex
100
AcDb3dPolylineVertex
 10
454351.027
 20
244861.34
 30
164.638
 70
    32
  0
VERTEX
  5
346
330
339
100
AcDbEntity
  8
C1011
100
AcDbVertex
100
AcDb3dPolylineVertex
 10
454350.663
 20
244861.392
 30
164.695
 70
    32
  0
VERTEX
  5
347
330
339
100
AcDbEntity
  8
C1011
100
AcDbVertex
100
AcDb3dPolylineVertex
 10
454350.314
 20
244861.35
 30
164.671
 70
    32
  0
VERTEX
  5
348
330
339
100
AcDbEntity
  8
C1011
100
AcDbVertex
100
AcDb3dPolylineVertex
 10
454350.004
 20
244861.373
 30
164.661
 70
    32
  0
VERTEX
  5
349
330
339
100
AcDbEntity
  8
C1011
100
AcDbVertex
100
AcDb3dPolylineVertex
 10
454349.769
 20
244861.447
 30
164.611
 70
    32
  0
VERTEX
  5
34A
330
339
100
AcDbEntity
  8
C1011
100
AcDbVertex
100
AcDb3dPolylineVertex
 10
454349.6459999999
 20
244861.447
 30
164.661
 70
    32
  0
VERTEX
  5
34B
330
339
100
AcDbEntity
  8
C1011
100
AcDbVertex
100
AcDb3dPolylineVertex
 10
454349.363
 20
244861.512
 30
164.654
 70
    32
  0
VERTEX
  5
34C
330
339
100
AcDbEntity
  8
C1011
100
AcDbVertex
100
AcDb3dPolylineVertex
 10
454349.136
 20
244861.606
 30
164.649
 70
    32
  0
SEQEND
  5
34D
330
339
100
AcDbEntity
  8
C1011
  0
POLYLINE
  5
34E
330
1F
100
AcDbEntity
  8
C1011
100
AcDb3dPolyline
 66
     1
 10
0.0
 20
0.0
 30
0.0
 70
     8
  0
VERTEX
  5
34F
330
34E
100
AcDbEntity
  8
C1011
100
AcDbVertex
100
AcDb3dPolylineVertex
 10
454349.396
 20
244862.824
 30
164.642
 70
    32
  0
VERTEX
  5
350
330
34E
100
AcDbEntity
  8
C1011
100
AcDbVertex
100
AcDb3dPolylineVertex
 10
454349.601
 20
244862.751
 30
164.631
 70
    32
  0
VERTEX
  5
351
330
34E
100
AcDbEntity
  8
C1011
100
AcDbVertex
100
AcDb3dPolylineVertex
 10
454349.841
 20
244862.725
 30
164.614
 70
    32
  0
VERTEX
  5
352
330
34E
100
AcDbEntity
  8
C1011
100
AcDbVertex
100
AcDb3dPolylineVertex
 10
454350.111
 20
244862.704
 30
164.598
 70
    32
  0
VERTEX
  5
353
330
34E
100
AcDbEntity
  8
C1011
100
AcDbVertex
100
AcDb3dPolylineVertex
 10
454350.303
 20
244862.701
 30
164.631
 70
    32
  0
VERTEX
  5
354
330
34E
100
AcDbEntity
  8
C1011
100
AcDbVertex
100
AcDb3dPolylineVertex
 10
454350.509
 20
244862.655
 30
164.575
 70
    32
  0
VERTEX
  5
355
330
34E
100
AcDbEntity
  8
C1011
100
AcDbVertex
100
AcDb3dPolylineVertex
 10
454350.747
 20
244862.641
 30
164.598
 70
    32
  0
VERTEX
  5
356
330
34E
100
AcDbEntity
  8
C1011
100
AcDbVertex
100
AcDb3dPolylineVertex
 10
454350.952
 20
244862.792
 30
164.617
 70
    32
  0
VERTEX
  5
357
330
34E
100
AcDbEntity
  8
C1011
100
AcDbVertex
100
AcDb3dPolylineVertex
 10
454351.088
 20
244862.849
 30
164.596
 70
    32
  0
VERTEX
  5
358
330
34E
100
AcDbEntity
  8
C1011
100
AcDbVertex
100
AcDb3dPolylineVertex
 10
454351.222
 20
244863.052
 30
164.632
 70
    32
  0
VERTEX
  5
359
330
34E
100
AcDbEntity
  8
C1011
100
AcDbVertex
100
AcDb3dPolylineVertex
 10
454351.305
 20
244863.264
 30
164.609
 70
    32
  0
VERTEX
  5
35A
330
34E
100
AcDbEntity
  8
C1011
100
AcDbVertex
100
AcDb3dPolylineVertex
 10
454351.414
 20
244863.482
 30
164.631
 70
    32
  0
SEQEND
  5
35B
330
34E
100
AcDbEntity
  8
C1011
  0
POLYLINE
  5
35C
330
1F
100
AcDbEntity
  8
B1011
100
AcDb3dPolyline
 66
     1
 10
0.0
 20
0.0
 30
0.0
 70
     8
  0
VERTEX
  5
35D
330
35C
100
AcDbEntity
  8
B1011
100
AcDbVertex
100
AcDb3dPolylineVertex
 10
454351.6086017271
 20
244863.1137640979
 30
164.4230803349526
 70
    32
  0
VERTEX
  5
35E
330
35C
100
AcDbEntity
  8
B1011
100
AcDbVertex
100
AcDb3dPolylineVertex
 10
454351.5031210506
 20
244862.897
 30
164.41
 70
    32
  0
VERTEX
  5
35F
330
35C
100
AcDbEntity
  8
B1011
100
AcDbVertex
100
AcDb3dPolylineVertex
 10
454351.365
 20
244862.735
 30
164.411
 70
    32
  0
VERTEX
  5
360
330
35C
100
AcDbEntity
  8
B1011
100
AcDbVertex
100
AcDb3dPolylineVertex
 10
454351.2535739662
 20
244862.5691576826
 30
164.448
 70
    32
  0
VERTEX
  5
361
330
35C
100
AcDbEntity
  8
B1011
100
AcDbVertex
100
AcDb3dPolylineVertex
 10
454351.039
 20
244862.491
 30
164.489
 70
    32
  0
VERTEX
  5
362
330
35C
100
AcDbEntity
  8
B1011
100
AcDbVertex
100
AcDb3dPolylineVertex
 10
454350.886
 20
244862.398
 30
164.457
 70
    32
  0
VERTEX
  5
363
330
35C
100
AcDbEntity
  8
B1011
100
AcDbVertex
100
AcDb3dPolylineVertex
 10
454350.618
 20
244862.299
 30
164.42
 70
    32
  0
VERTEX
  5
364
330
35C
100
AcDbEntity
  8
B1011
100
AcDbVertex
100
AcDb3dPolylineVertex
 10
454350.4240000001
 20
244862.31
 30
164.384
 70
    32
  0
VERTEX
  5
365
330
35C
100
AcDbEntity
  8
B1011
100
AcDbVertex
100
AcDb3dPolylineVertex
 10
454350.244
 20
244862.3196105982
 30
164.4
 70
    32
  0
VERTEX
  5
366
330
35C
100
AcDbEntity
  8
B1011
100
AcDbVertex
100
AcDb3dPolylineVertex
 10
454350.066
 20
244862.326
 30
164.421
 70
    32
  0
VERTEX
  5
367
330
35C
100
AcDbEntity
  8
B1011
100
AcDbVertex
100
AcDb3dPolylineVertex
 10
454349.836
 20
244862.348
 30
164.451
 70
    32
  0
SEQEND
  5
368
330
35C
100
AcDbEntity
  8
B1011
  0
POLYLINE
  5
369
330
1F
100
AcDbEntity
  8
B1011
100
AcDb3dPolyline
 66
     1
 10
0.0
 20
0.0
 30
0.0
 70
     8
  0
VERTEX
  5
36A
330
369
100
AcDbEntity
  8
B1011
100
AcDbVertex
100
AcDb3dPolylineVertex
 10
454349.737
 20
244861.927
 30
164.393
 70
    32
  0
VERTEX
  5
36B
330
369
100
AcDbEntity
  8
B1011
100
AcDbVertex
100
AcDb3dPolylineVertex
 10
454350.001
 20
244861.886
 30
164.395
 70
    32
  0
VERTEX
  5
36C
330
369
100
AcDbEntity
  8
B1011
100
AcDbVertex
100
AcDb3dPolylineVertex
 10
454350.208
 20
244861.805
 30
164.436
 70
    32
  0
VERTEX
  5
36D
330
369
100
AcDbEntity
  8
B1011
100
AcDbVertex
100
AcDb3dPolylineVertex
 10
454350.508
 20
244861.766
 30
164.468
 70
    32
  0
VERTEX
  5
36E
330
369
100
AcDbEntity
  8
B1011
100
AcDbVertex
100
AcDb3dPolylineVertex
 10
454350.809
 20
244861.699
 30
164.463
 70
    32
  0
VERTEX
  5
36F
330
369
100
AcDbEntity
  8
B1011
100
AcDbVertex
100
AcDb3dPolylineVertex
 10
454351.119
 20
244861.657
 30
164.475
 70
    32
  0
VERTEX
  5
370
330
369
100
AcDbEntity
  8
B1011
100
AcDbVertex
100
AcDb3dPolylineVertex
 10
454351.454
 20
244861.596
 30
164.465
 70
    32
  0
VERTEX
  5
371
330
369
100
AcDbEntity
  8
B1011
100
AcDbVertex
100
AcDb3dPolylineVertex
 10
454351.596
 20
244861.663
 30
164.396
 70
    32
  0
VERTEX
  5
372
330
369
100
AcDbEntity
  8
B1011
100
AcDbVertex
100
AcDb3dPolylineVertex
 10
454351.7830000001
 20
244861.673
 30
164.406
 70
    32
  0
VERTEX
  5
373
330
369
100
AcDbEntity
  8
B1011
100
AcDbVertex
100
AcDb3dPolylineVertex
 10
454351.9340000001
 20
244861.702
 30
164.428
 70
    32
  0
VERTEX
  5
374
330
369
100
AcDbEntity
  8
B1011
100
AcDbVertex
100
AcDb3dPolylineVertex
 10
454352.051
 20
244861.812
 30
164.364
 70
    32
  0
VERTEX
  5
375
330
369
100
AcDbEntity
  8
B1011
100
AcDbVertex
100
AcDb3dPolylineVertex
 10
454352.199
 20
244861.946
 30
164.404
 70
    32
  0
VERTEX
  5
376
330
369
100
AcDbEntity
  8
B1011
100
AcDbVertex
100
AcDb3dPolylineVertex
 10
454352.222
 20
244862.111
 30
164.354
 70
    32
  0
VERTEX
  5
377
330
369
100
AcDbEntity
  8
B1011
100
AcDbVertex
100
AcDb3dPolylineVertex
 10
454352.267
 20
244862.282
 30
164.36
 70
    32
  0
VERTEX
  5
378
330
369
100
AcDbEntity
  8
B1011
100
AcDbVertex
100
AcDb3dPolylineVertex
 10
454352.313
 20
244862.487
 30
164.428
 70
    32
  0
VERTEX
  5
379
330
369
100
AcDbEntity
  8
B1011
100
AcDbVertex
100
AcDb3dPolylineVertex
 10
454352.3251585051
 20
244862.6470000001
 30
164.436
 70
    32
  0
VERTEX
  5
37A
330
369
100
AcDbEntity
  8
B1011
100
AcDbVertex
100
AcDb3dPolylineVertex
 10
454352.298
 20
244862.885
 30
164.406
 70
    32
  0
SEQEND
  5
37B
330
369
100
AcDbEntity
  8
B1011
  0
POLYLINE
  5
37C
330
1F
100
AcDbEntity
  8
S1011
100
AcDb3dPolyline
 66
     1
 10
0.0
 20
0.0
 30
0.0
 70
     8
  0
VERTEX
  5
37D
330
37C
100
AcDbEntity
  8
S1011
100
AcDbVertex
100
AcDb3dPolylineVertex
 10
454351.3044452083
 20
244863.2625829419
 30
164.6091537374401
 70
    32
  0
VERTEX
  5
37E
330
37C
100
AcDbEntity
  8
S1011
100
AcDbVertex
100
AcDb3dPolylineVertex
 10
454351.504
 20
244863.183
 30
164.597
 70
    32
  0
VERTEX
  5
37F
330
37C
100
AcDbEntity
  8
S1011
100
AcDbVertex
100
AcDb3dPolylineVertex
 10
454351.54
 20
244863.132
 30
164.45
 70
    32
  0
VERTEX
  5
380
330
37C
100
AcDbEntity
  8
S1011
100
AcDbVertex
100
AcDb3dPolylineVertex
 10
454351.619
 20
244863.111
 30
164.419
 70
    32
  0
VERTEX
  5
381
330
37C
100
AcDbEntity
  8
S1011
100
AcDbVertex
100
AcDb3dPolylineVertex
 10
454351.769
 20
244863.062
 30
164.394
 70
    32
  0
VERTEX
  5
382
330
37C
100
AcDbEntity
  8
S1011
100
AcDbVertex
100
AcDb3dPolylineVertex
 10
454351.9275648238
 20
244863.0137531169
 30
164.422
 70
    32
  0
VERTEX
  5
383
330
37C
100
AcDbEntity
  8
S1011
100
AcDbVertex
100
AcDb3dPolylineVertex
 10
454352.05
 20
244862.982
 30
164.367
 70
    32
  0
VERTEX
  5
384
330
37C
100
AcDbEntity
  8
S1011
100
AcDbVertex
100
AcDb3dPolylineVertex
 10
454352.19
 20
244862.92
 30
164.366
 70
    32
  0
VERTEX
  5
385
330
37C
100
AcDbEntity
  8
S1011
100
AcDbVertex
100
AcDb3dPolylineVertex
 10
454352.298
 20
244862.885
 30
164.406
 70
    32
  0
VERTEX
  5
386
330
37C
100
AcDbEntity
  8
S1011
100
AcDbVertex
100
AcDb3dPolylineVertex
 10
454352.4072914771
 20
244862.8803531919
 30
164.563
 70
    32
  0
VERTEX
  5
387
330
37C
100
AcDbEntity
  8
S1011
100
AcDbVertex
100
AcDb3dPolylineVertex
 10
454352.469
 20
244862.889
 30
164.547
 70
    32
  0
VERTEX
  5
388
330
37C
100
AcDbEntity
  8
S1011
100
AcDbVertex
100
AcDb3dPolylineVertex
 10
454352.568692822
 20
244862.875
 30
164.62
 70
    32
  0
SEQEND
  5
389
330
37C
100
AcDbEntity
  8
S1011
  0
LINE
  5
3C3
330
1F
100
AcDbEntity
  8
PRE
100
AcDbLine
 10
454320.4326968305
 20
244862.8530467214
 30
164.2592879278532
 11
454326.662
 21
244862.837
 31
164.315
  0
LINE
  5
3C8
330
1F
100
AcDbEntity
  8
PRE
100
AcDbLine
 10
454328.953
 20
244862.446
 30
164.385
 11
454330.2990000001
 21
244862.486
 31
164.416
  0
LINE
  5
3C9
330
1F
100
AcDbEntity
  8
PRE
100
AcDbLine
 10
454330.2990000001
 20
244862.486
 30
164.416
 11
454335.911
 21
244862.406
 31
164.478
  0
LINE
  5
3CA
330
1F
100
AcDbEntity
  8
PRE
100
AcDbLine
 10
454335.911
 20
244862.406
 30
164.478
 11
454341.3387648478
 21
244862.1326008194
 31
164.563
  0
LINE
  5
3CB
330
1F
100
AcDbEntity
  8
PRE
100
AcDbLine
 10
454341.3387648478
 20
244862.1326008194
 30
164.563
 11
454344.835
 21
244862.153
 31
164.704
  0
LINE
  5
3CC
330
1F
100
AcDbEntity
  8
PRE
100
AcDbLine
 10
454344.835
 20
244862.153
 30
164.704
 11
454349.136
 21
244861.606
 31
164.649
  0
LINE
  5
3D0
330
1F
100
AcDbEntity
  8
PRE
100
AcDbLine
 10
454352.572
 20
244863.492
 30
164.617
 11
454353.1519999999
 21
244866.46
 31
164.654
  0
LINE
  5
3D1
330
1F
100
AcDbEntity
  8
PRE
100
AcDbLine
 10
454353.1519999999
 20
244866.46
 30
164.654
 11
454353.713
 21
244868.689
 31
164.603
  0
LINE
  5
3D2
330
1F
100
AcDbEntity
  8
PRE
100
AcDbLine
 10
454354.003
 20
244870.431
 30
164.552
 11
454354.76
 21
244874.575
 31
164.481
  0
LINE
  5
3D3
330
1F
100
AcDbEntity
  8
PRE
100
AcDbLine
 10
454354.76
 20
244874.575
 30
164.481
 11
454355.4775169026
 21
244878.03
 31
164.516
  0
LINE
  5
3D4
330
1F
100
AcDbEntity
  8
PRE
100
AcDbLine
 10
454355.4775169026
 20
244878.03
 30
164.516
 11
454355.985
 21
244882.2160571764
 31
164.364
  0
LINE
  5
3D9
330
1F
100
AcDbEntity
  8
PRE
100
AcDbLine
 10
454355.379
 20
244882.331
 30
164.357
 11
454354.351
 21
244876.187
 31
164.449
  0
LINE
  5
3DA
330
1F
100
AcDbEntity
  8
PRE
100
AcDbLine
 10
454354.351
 20
244876.187
 30
164.449
 11
454353.278
 21
244870.633
 31
164.538
  0
LINE
  5
3DB
330
1F
100
AcDbEntity
  8
PRE
100
AcDbLine
 10
454352.7930000001
 20
244868.959
 30
164.588
 11
454351.414
 21
244863.482
 31
164.631
  0
LINE
  5
3DE
330
1F
100
AcDbEntity
  8
PRE
100
AcDbLine
 10
454349.396
 20
244862.824
 30
164.642
 11
454348.2578859083
 21
244862.9965352722
 31
164.64
  0
LINE
  5
3DF
330
1F
100
AcDbEntity
  8
PRE
100
AcDbLine
 10
454348.2578859083
 20
244862.9965352722
 30
164.64
 11
454344.8480207227
 21
244863.4170343422
 31
164.717
  0
LINE
  5
3E0
330
1F
100
AcDbEntity
  8
PRE
100
AcDbLine
 10
454344.8480207227
 20
244863.4170343422
 30
164.717
 11
454341.019
 21
244863.477
 31
164.519
  0
LINE
  5
3E1
330
1F
100
AcDbEntity
  8
PRE
100
AcDbLine
 10
454341.019
 20
244863.477
 30
164.519
 11
454329.027
 21
244863.6332565509
 31
164.313
  0
LINE
  5
3E2
330
1F
100
AcDbEntity
  8
PRE
100
AcDbLine
 10
454326.797
 20
244864.09
 30
164.298
 11
454322.0816897202
 21
244864.152
 31
164.306
  0
VIEWPORT
  5
183
330
23
100
AcDbEntity
 67
     1
  8
0
100
AcDbViewport
 10
202.5
 20
128.5
 30
0.0
 40
441.0
 41
311.85
 68
     2
 69
     1
 12
202.5
 22
128.5
 13
0.0
 23
0.0
 14
0.5
 24
0.5
 15
0.0
 25
0.0
 16
0.0
 26
0.0
 36
1.0
 17
0.0
 27
0.0
 37
0.0
 42
50.0
 43
0.0
 44
0.0
 45
311.85
 50
0.0
 51
0.0
 72
   100
 90
   557152
  1

281
     0
 71
     1
 74
     0
110
0.0
120
0.0
130
0.0
111
1.0
121
0.0
131
0.0
112
0.0
122
1.0
132
0.0
 79
     0
146
0.0
170
     0
 61
     5
348
2F
292
     1
282
     1
141
0.0
142
0.0
 63
   256
361
188
  0
VIEWPORT
  5
185
102
{ACAD_XDICTIONARY
360
186
102
}
330
23
100
AcDbEntity
 67
     1
  8
0
100
AcDbViewport
 10
202.7395161290323
 20
129.2185483870968
 30
0.0
 40
419.1532258064517
 41
297.0000000000001
 68
     1
 69
     2
 12
454342.9873017284
 22
244873.5647181945
 13
0.0
 23
0.0
 14
0.5
 24
0.5
 15
0.0
 25
0.0
 16
0.0
 26
0.0
 36
1.0
 17
0.0
 27
0.0
 37
0.0
 42
50.0
 43
0.0
 44
0.0
 45
56.91617859922591
 50
0.0
 51
0.0
 72
   100
 90
   557168
  1

281
     0
 71
     1
 74
     0
110
0.0
120
0.0
130
0.0
111
1.0
121
0.0
131
0.0
112
0.0
122
1.0
132
0.0
 79
     0
146
0.0
170
     0
 61
     5
348
2F
292
     1
282
     1
141
0.0
142
0.0
 63
   256
361
189
  0
ENDSEC
  0
SECTION
  2
OBJECTS
  0
DICTIONARY
  5
C
330
0
100
AcDbDictionary
281
     1
  3
ACAD_DETAILVIEWSTYLE
350
B5
  3
ACAD_GROUP
350
D
  3
ACAD_IMAGE_VARS
350
6A
  3
ACAD_LAYOUT
350
1A
  3
ACAD_MATERIAL
350
72
  3
ACAD_MLEADERSTYLE
350
3F
  3
ACAD_MLINESTYLE
350
17
  3
ACAD_PLOTSETTINGS
350
19
  3
ACAD_PLOTSTYLENAME
350
E
  3
ACAD_SCALELIST
350
40
  3
ACAD_SECTIONVIEWSTYLE
350
B6
  3
ACAD_TABLESTYLE
350
3B
  3
ACAD_VISUALSTYLE
350
2A
  3
ACDB_RECOMPOSE_DATA
350
3E5
  3
AcDbVariableDictionary
350
3D
  3
APPDATA
350
71
  0
SUN
  5
80
330
29
100
AcDbSun
 90
        1
290
     0
 63
     7
421
 16777215
 40
1.0
291
     1
 91
  2455826
 92
 54000000
292
     0
 70
     2
 71
   256
280
     1
  0
DICTIONARY
  5
BD
330
2
100
AcDbDictionary
280
     1
281
     1
  3
ACAD_LAYERSTATES
360
BE
  3
ACLYDICTIONARY
360
3C2
  0
SUN
  5
188
330
183
100
AcDbSun
 90
        1
290
     0
 63
     7
421
 16777215
 40
1.0
291
     1
 91
  2455826
 92
 54000000
292
     0
 70
     2
 71
   256
280
     1
  0
DICTIONARY
  5
186
330
185
100
AcDbDictionary
280
     1
281
     1
  3
ASDK_XREC_ANNOTATION_SCALE_INFO
360
187
  0
SUN
  5
189
330
185
100
AcDbSun
 90
        1
290
     0
 63
     7
421
 16777215
 40
1.0
291
     1
 91
  2455826
 92
 54000000
292
     0
 70
     2
 71
   256
280
     1
  0
DICTIONARY
  5
B5
102
{ACAD_REACTORS
330
C
102
}
330
C
100
AcDbDictionary
281
     1
  0
DICTIONARY
  5
D
102
{ACAD_REACTORS
330
C
102
}
330
C
100
AcDbDictionary
281
     1
  0
RASTERVARIABLES
  5
6A
102
{ACAD_REACTORS
330
C
102
}
330
C
100
AcDbRasterVariables
 90
        0
 70
     1
 71
     1
 72
     1
  0
DICTIONARY
  5
1A
102
{ACAD_REACTORS
330
C
102
}
330
C
100
AcDbDictionary
281
     1
  3
Model
350
22
  3
Sheet1
350
1E
  3
Sheet2
350
26
  0
DICTIONARY
  5
72
102
{ACAD_REACTORS
330
C
102
}
330
C
100
AcDbDictionary
281
     1
  3
ByBlock
350
74
  3
ByLayer
350
73
  3
Global
350
75
  0
DICTIONARY
  5
3F
102
{ACAD_REACTORS
330
C
102
}
330
C
100
AcDbDictionary
281
     1
  3
Annotative
350
BC
  3
Standard
350
B7
  0
DICTIONARY
  5
17
102
{ACAD_REACTORS
330
C
102
}
330
C
100
AcDbDictionary
281
     1
  3
Standard
350
18
  0
DICTIONARY
  5
19
102
{ACAD_REACTORS
330
C
102
}
330
C
100
AcDbDictionary
281
     1
  0
ACDBDICTIONARYWDFLT
  5
E
102
{ACAD_REACTORS
330
C
102
}
330
C
100
AcDbDictionary
281
     1
  3
Normal
350
F
100
AcDbDictionaryWithDefault
340
F
  0
DICTIONARY
  5
40
102
{ACAD_REACTORS
330
C
102
}
330
C
100
AcDbDictionary
281
     1
  3
A0
350
41
  3
A1
350
42
  3
A2
350
43
  3
A3
350
44
  3
A4
350
45
  3
A5
350
46
  3
A6
350
47
  3
A7
350
48
  3
A8
350
49
  3
A9
350
4A
  3
B0
350
4B
  3
B1
350
4C
  3
B2
350
4D
  3
B3
350
4E
  3
B4
350
4F
  3
B5
350
50
  3
B6
350
51
  3
B7
350
52
  3
B8
350
53
  3
B9
350
54
  3
C0
350
55
  3
C1
350
56
  3
C2
350
57
  3
C3
350
58
  3
C4
350
59
  3
C5
350
5A
  3
C6
350
5B
  3
C7
350
5C
  3
C8
350
5D
  3
C9
350
5E
  3
D0
350
5F
  3
D1
350
60
  3
D2
350
61
  0
DICTIONARY
  5
B6
102
{ACAD_REACTORS
330
C
102
}
330
C
100
AcDbDictionary
281
     1
  0
DICTIONARY
  5
3B
102
{ACAD_REACTORS
330
C
102
}
330
C
100
AcDbDictionary
281
     1
  3
Standard
350
3C
  0
DICTIONARY
  5
2A
102
{ACAD_REACTORS
330
C
102
}
330
C
100
AcDbDictionary
281
     1
  3
2dWireframe
350
2F
  3
3D Hidden
350
31
  3
3dWireframe
350
30
  3
Basic
350
32
  3
Brighten
350
36
  3
ColorChange
350
3A
  3
Conceptual
350
34
  3
Dim
350
35
  3
EdgeColorOff
350
7A
  3
Facepattern
350
39
  3
Flat
350
2B
  3
FlatWithEdges
350
2C
  3
Gouraud
350
2D
  3
GouraudWithEdges
350
2E
  3
Hidden
350
77
  3
JitterOff
350
78
  3
Linepattern
350
38
  3
OverhangOff
350
79
  3
Realistic
350
33
  3
Shaded
350
7F
  3
Shaded with edges
350
7E
  3
Shades of Gray
350
7B
  3
Sketchy
350
7C
  3
Thicken
350
37
  3
Wireframe
350
76
  3
X-Ray
350
7D
  0
XRECORD
  5
3E5
102
{ACAD_REACTORS
330
C
102
}
330
C
100
AcDbXrecord
280
     1
 90
        1
330
3C
  0
DICTIONARY
  5
3D
102
{ACAD_REACTORS
330
C
102
}
330
C
100
AcDbDictionary
281
     1
  3
CANNOSCALE
350
62
  3
CMLEADERSTYLE
350
BB
  3
CTABLESTYLE
350
3E
  3
LIGHTSINBLOCKS
350
6F
  3
XCLIPFRAME
350
70
  0
DICTIONARY
  5
71
102
{ACAD_REACTORS
330
C
102
}
330
C
100
AcDbDictionary
281
     1
  0
DICTIONARY
  5
BE
102
{ACAD_REACTORS
330
BD
102
}
330
BD
100
AcDbDictionary
281
     1
  0
DICTIONARY
  5
3C2
102
{ACAD_REACTORS
330
BD
102
}
330
BD
100
AcDbDictionary
281
     1
1001
ACAD
1000
<All
  0
XRECORD
  5
187
102
{ACAD_REACTORS
330
186
102
}
330
186
100
AcDbXrecord
280
     1
 90
        1
340
41
  0
LAYOUT
  5
22
102
{ACAD_REACTORS
330
1A
102
}
330
1A
100
AcDbPlotSettings
  1

  2
none_device
  4
ISO_A3_(420.00_x_297.00_MM)
  6

 40
7.5
 41
20.0
 42
7.5
 43
20.0
 44
420.0
 45
297.0
 46
20.78282828282826
 47
0.0
 48
0.0
 49
0.0
140
0.0
141
0.0
142
1.0
143
1.155642023346303
 70
  1204
 72
     1
 73
     0
 74
     1
  7
monochrome.ctb
 75
     0
 76
     0
 77
     2
 78
   300
147
0.8653198653198654
148
-134.1869158878504
149
0.0
100
AcDbLayout
  1
Model
 70
     1
 71
     0
 10
0.0
 20
0.0
 11
420.0
 21
297.0
 12
0.0
 22
0.0
 32
0.0
 14
454314.477
 24
244851.591
 34
164.093
 15
454370.396
 25
244899.876
 35
164.884
146
0.0
 13
0.0
 23
0.0
 33
0.0
 16
1.0
 26
0.0
 36
0.0
 17
0.0
 27
1.0
 37
0.0
 76
     0
330
1F
331
29
  0
LAYOUT
  5
1E
102
{ACAD_REACTORS
330
1A
102
}
330
1A
100
AcDbPlotSettings
  1

  2
none_device
  4

  6

 40
0.0
 41
0.0
 42
0.0
 43
0.0
 44
0.0
 45
0.0
 46
0.0
 47
0.0
 48
0.0
 49
0.0
140
0.0
141
0.0
142
1.0
143
1.0
 70
   688
 72
     0
 73
     0
 74
     5
  7

 75
    16
 76
     0
 77
     2
 78
   300
147
1.0
148
0.0
149
0.0
100
AcDbLayout
  1
Sheet1
 70
     1
 71
     1
 10
0.0
 20
0.0
 11
0.0
 21
0.0
 12
0.0
 22
0.0
 32
0.0
 14
1.000000000000000E+20
 24
1.000000000000000E+20
 34
1.000000000000000E+20
 15
-1.000000000000000E+20
 25
-1.000000000000000E+20
 35
-1.000000000000000E+20
146
0.0
 13
0.0
 23
0.0
 33
0.0
 16
1.0
 26
0.0
 36
0.0
 17
0.0
 27
1.0
 37
0.0
 76
     0
330
1B
  0
LAYOUT
  5
26
102
{ACAD_REACTORS
330
1A
102
}
330
1A
100
AcDbPlotSettings
  1

  2
none_device
  4
ISO_A3_(420.00_x_297.00_MM)
  6

 40
7.5
 41
20.0
 42
7.5
 43
20.0
 44
420.0
 45
297.0
 46
0.0
 47
0.0
 48
0.0
 49
0.0
140
0.0
141
0.0
142
1.0
143
1.0
 70
   688
 72
     1
 73
     0
 74
     5
  7

 75
    16
 76
     0
 77
     2
 78
   300
147
1.0
148
0.0
149
0.0
100
AcDbLayout
  1
Sheet2
 70
     1
 71
     2
 10
0.0
 20
0.0
 11
0.0
 21
0.0
 12
0.0
 22
0.0
 32
0.0
 14
-6.837096774193583
 24
-19.28145161290325
 34
0.0
 15
412.3161290322581
 25
277.7185483870968
 35
0.0
146
0.0
 13
0.0
 23
0.0
 33
0.0
 16
1.0
 26
0.0
 36
0.0
 17
0.0
 27
1.0
 37
0.0
 76
     0
330
23
331
185
  0
MATERIAL
  5
74
102
{ACAD_REACTORS
330
72
102
}
330
72
100
AcDbMaterial
  1
ByBlock
 72
     1
 94
      127
  0
MATERIAL
  5
73
102
{ACAD_REACTORS
330
72
102
}
330
72
100
AcDbMaterial
  1
ByLayer
 72
     1
 94
      127
  0
MATERIAL
  5
75
102
{ACAD_REACTORS
330
72
102
}
330
72
100
AcDbMaterial
  1
Global
 72
     1
 94
      127
  0
MLEADERSTYLE
  5
BC
102
{ACAD_REACTORS
330
3F
102
}
330
3F
100
AcDbMLeaderStyle
179
     2
170
     2
171
     1
172
     0
 90
        2
 40
0.0
 41
0.0
173
     1
 91
-1056964608
340
14
 92
       -2
290
     1
 42
2.0
291
     1
 43
8.0
  3
Annotative
341
0
 44
4.0
300

342
11
174
     1
178
     1
175
     1
176
     0
 93
-1056964608
 45
4.0
292
     0
297
     0
 46
4.0
343
0
 94
-1056964608
 47
1.0
 49
1.0
140
1.0
293
     1
141
0.0
294
     1
177
     0
142
1.0
295
     0
296
     1
143
3.75
271
     0
272
     9
273
     9
298
     0
  0
MLEADERSTYLE
  5
B7
102
{ACAD_REACTORS
330
3F
102
}
330
3F
100
AcDbMLeaderStyle
179
     2
170
     2
171
     1
172
     0
 90
        2
 40
0.0
 41
0.0
173
     1
 91
-1056964608
340
14
 92
       -2
290
     1
 42
2.0
291
     1
 43
8.0
  3
Standard
341
0
 44
4.0
300

342
11
174
     1
178
     6
175
     1
176
     0
 93
-1056964608
 45
4.0
292
     0
297
     0
 46
4.0
343
0
 94
-1056964608
 47
1.0
 49
1.0
140
1.0
293
     1
141
0.0
294
     1
177
     0
142
1.0
295
     0
296
     0
143
3.75
271
     0
272
     9
273
     9
298
     0
  0
MLINESTYLE
  5
18
102
{ACAD_REACTORS
330
17
102
}
330
17
100
AcDbMlineStyle
  2
Standard
 70
     0
  3

 62
   256
 51
90.0
 52
90.0
 71
     2
 49
0.5
 62
   256
  6
BYLAYER
 49
-0.5
 62
   256
  6
BYLAYER
  0
ACDBPLACEHOLDER
  5
F
102
{ACAD_REACTORS
330
E
102
}
330
E
  0
SCALE
  5
41
102
{ACAD_REACTORS
330
40
102
}
330
40
100
AcDbScale
 70
     0
300
1:1
140
1.0
141
1.0
290
     1
  0
SCALE
  5
42
102
{ACAD_REACTORS
330
40
102
}
330
40
100
AcDbScale
 70
     0
300
1:2
140
1.0
141
2.0
290
     0
  0
SCALE
  5
43
102
{ACAD_REACTORS
330
40
102
}
330
40
100
AcDbScale
 70
     0
300
1:4
140
1.0
141
4.0
290
     0
  0
SCALE
  5
44
102
{ACAD_REACTORS
330
40
102
}
330
40
100
AcDbScale
 70
     0
300
1:5
140
1.0
141
5.0
290
     0
  0
SCALE
  5
45
102
{ACAD_REACTORS
330
40
102
}
330
40
100
AcDbScale
 70
     0
300
1:8
140
1.0
141
8.0
290
     0
  0
SCALE
  5
46
102
{ACAD_REACTORS
330
40
102
}
330
40
100
AcDbScale
 70
     0
300
1:10
140
1.0
141
10.0
290
     0
  0
SCALE
  5
47
102
{ACAD_REACTORS
330
40
102
}
330
40
100
AcDbScale
 70
     0
300
1:16
140
1.0
141
16.0
290
     0
  0
SCALE
  5
48
102
{ACAD_REACTORS
330
40
102
}
330
40
100
AcDbScale
 70
     0
300
1:20
140
1.0
141
20.0
290
     0
  0
SCALE
  5
49
102
{ACAD_REACTORS
330
40
102
}
330
40
100
AcDbScale
 70
     0
300
1:30
140
1.0
141
30.0
290
     0
  0
SCALE
  5
4A
102
{ACAD_REACTORS
330
40
102
}
330
40
100
AcDbScale
 70
     0
300
1:40
140
1.0
141
40.0
290
     0
  0
SCALE
  5
4B
102
{ACAD_REACTORS
330
40
102
}
330
40
100
AcDbScale
 70
     0
300
1:50
140
1.0
141
50.0
290
     0
  0
SCALE
  5
4C
102
{ACAD_REACTORS
330
40
102
}
330
40
100
AcDbScale
 70
     0
300
1:100
140
1.0
141
100.0
290
     0
  0
SCALE
  5
4D
102
{ACAD_REACTORS
330
40
102
}
330
40
100
AcDbScale
 70
     0
300
2:1
140
2.0
141
1.0
290
     0
  0
SCALE
  5
4E
102
{ACAD_REACTORS
330
40
102
}
330
40
100
AcDbScale
 70
     0
300
4:1
140
4.0
141
1.0
290
     0
  0
SCALE
  5
4F
102
{ACAD_REACTORS
330
40
102
}
330
40
100
AcDbScale
 70
     0
300
8:1
140
8.0
141
1.0
290
     0
  0
SCALE
  5
50
102
{ACAD_REACTORS
330
40
102
}
330
40
100
AcDbScale
 70
     0
300
10:1
140
10.0
141
1.0
290
     0
  0
SCALE
  5
51
102
{ACAD_REACTORS
330
40
102
}
330
40
100
AcDbScale
 70
     0
300
100:1
140
100.0
141
1.0
290
     0
  0
SCALE
  5
52
102
{ACAD_REACTORS
330
40
102
}
330
40
100
AcDbScale
 70
     0
300
1/128" = 1'-0"
140
0.0078125
141
12.0
290
     0
  0
SCALE
  5
53
102
{ACAD_REACTORS
330
40
102
}
330
40
100
AcDbScale
 70
     0
300
1/64" = 1'-0"
140
0.015625
141
12.0
290
     0
  0
SCALE
  5
54
102
{ACAD_REACTORS
330
40
102
}
330
40
100
AcDbScale
 70
     0
300
1/32" = 1'-0"
140
0.03125
141
12.0
290
     0
  0
SCALE
  5
55
102
{ACAD_REACTORS
330
40
102
}
330
40
100
AcDbScale
 70
     0
300
1/16" = 1'-0"
140
0.0625
141
12.0
290
     0
  0
SCALE
  5
56
102
{ACAD_REACTORS
330
40
102
}
330
40
100
AcDbScale
 70
     0
300
3/32" = 1'-0"
140
0.09375
141
12.0
290
     0
  0
SCALE
  5
57
102
{ACAD_REACTORS
330
40
102
}
330
40
100
AcDbScale
 70
     0
300
1/8" = 1'-0"
140
0.125
141
12.0
290
     0
  0
SCALE
  5
58
102
{ACAD_REACTORS
330
40
102
}
330
40
100
AcDbScale
 70
     0
300
3/16" = 1'-0"
140
0.1875
141
12.0
290
     0
  0
SCALE
  5
59
102
{ACAD_REACTORS
330
40
102
}
330
40
100
AcDbScale
 70
     0
300
1/4" = 1'-0"
140
0.25
141
12.0
290
     0
  0
SCALE
  5
5A
102
{ACAD_REACTORS
330
40
102
}
330
40
100
AcDbScale
 70
     0
300
3/8" = 1'-0"
140
0.375
141
12.0
290
     0
  0
SCALE
  5
5B
102
{ACAD_REACTORS
330
40
102
}
330
40
100
AcDbScale
 70
     0
300
1/2" = 1'-0"
140
0.5
141
12.0
290
     0
  0
SCALE
  5
5C
102
{ACAD_REACTORS
330
40
102
}
330
40
100
AcDbScale
 70
     0
300
3/4" = 1'-0"
140
0.75
141
12.0
290
     0
  0
SCALE
  5
5D
102
{ACAD_REACTORS
330
40
102
}
330
40
100
AcDbScale
 70
     0
300
1" = 1'-0"
140
1.0
141
12.0
290
     0
  0
SCALE
  5
5E
102
{ACAD_REACTORS
330
40
102
}
330
40
100
AcDbScale
 70
     0
300
1-1/2" = 1'-0"
140
1.5
141
12.0
290
     0
  0
SCALE
  5
5F
102
{ACAD_REACTORS
330
40
102
}
330
40
100
AcDbScale
 70
     0
300
3" = 1'-0"
140
3.0
141
12.0
290
     0
  0
SCALE
  5
60
102
{ACAD_REACTORS
330
40
102
}
330
40
100
AcDbScale
 70
     0
300
6" = 1'-0"
140
6.0
141
12.0
290
     0
  0
SCALE
  5
61
102
{ACAD_REACTORS
330
40
102
}
330
40
100
AcDbScale
 70
     0
300
1'-0" = 1'-0"
140
12.0
141
12.0
290
     0
  0
TABLESTYLE
  5
3C
102
{ACAD_REACTORS
330
3B
102
}
102
{ACAD_XDICTIONARY
360
3E3
102
}
330
3B
100
AcDbTableStyle
  3
Standard
 70
     0
 71
     0
 40
1.5
 41
1.5
280
     0
281
     0
  7
Standard
140
4.5
170
     2
 62
     0
 63
   257
283
     0
 90
      512
 91
        0
  1

274
    -2
284
     1
 64
     0
275
    -2
285
     1
 65
     0
276
    -2
286
     1
 66
     0
277
    -2
287
     1
 67
     0
278
    -2
288
     1
 68
     0
279
    -2
289
     1
 69
     0
  7
Standard
140
6.0
170
     5
 62
     0
 63
   257
283
     0
 90
      512
 91
        0
  1

274
    -2
284
     1
 64
     0
275
    -2
285
     1
 65
     0
276
    -2
286
     1
 66
     0
277
    -2
287
     1
 67
     0
278
    -2
288
     1
 68
     0
279
    -2
289
     1
 69
     0
  7
Standard
140
4.5
170
     5
 62
     0
 63
   257
283
     0
 90
      512
 91
        0
  1

274
    -2
284
     1
 64
     0
275
    -2
285
     1
 65
     0
276
    -2
286
     1
 66
     0
277
    -2
287
     1
 67
     0
278
    -2
288
     1
 68
     0
279
    -2
289
     1
 69
     0
  0
VISUALSTYLE
  5
2F
102
{ACAD_REACTORS
330
2A
102
}
330
2A
100
AcDbVisualStyle
  2
2dWireframe
 70
     4
177
     3
291
     0
 70
    58
 90
        0
176
     1
 90
        2
176
     1
 90
        0
176
     1
 90
        0
176
     1
 40
-0.6
176
     1
 40
-30.0
176
     1
 62
     7
420
 16777215
176
     1
 90
        1
176
     1
 90
        4
176
     1
 62
     7
176
     1
 62
   257
176
     1
 90
        1
176
     1
 90
        1
176
     1
 40
1.0
176
     1
 90
        0
176
     1
 62
   257
176
     1
 40
1.0
176
     1
 90
        1
176
     1
 90
        6
176
     1
 90
        2
176
     1
 62
     7
176
     1
 90
        5
176
     1
 90
        0
176
     1
 90
        0
176
     1
290
     0
176
     1
 90
        1
176
     1
 40
0.0
176
     1
 90
        0
176
     1
290
     1
176
     1
290
     1
176
     1
290
     0
176
     1
290
     0
176
     1
290
     0
176
     1
290
     0
176
     1
290
     0
176
     1
290
     0
176
     1
290
     0
176
     1
 90
       50
176
     1
 40
0.0
176
     1
 40
1.0
176
     1
 90
        0
176
     1
 62
    18
420
        0
176
     1
 90
       50
176
     1
 90
        3
176
     1
 62
     5
420
      255
176
     1
290
     0
176
     1
 90
       50
176
     1
 90
       50
176
     1
 90
       50
176
     1
290
     0
176
     1
 90
       50
176
     1
 62
   256
176
     0
 40
1.0
176
     0
 90
        2
176
     1
  1
strokes_ogs.tif
176
     1
290
     0
176
     1
 40
1.0
176
     1
 40
1.0
176
     1
  0
VISUALSTYLE
  5
31
102
{ACAD_REACTORS
330
2A
102
}
330
2A
100
AcDbVisualStyle
  2
3D Hidden
 70
     6
177
     3
291
     0
 70
    58
 90
        1
176
     1
 90
        2
176
     1
 90
        2
176
     1
 90
        0
176
     1
 40
-0.6
176
     1
 40
-30.0
176
     1
 62
     7
420
 16777215
176
     1
 90
        2
176
     1
 90
        2
176
     1
 62
     7
176
     1
 62
   257
176
     1
 90
        2
176
     1
 90
        1
176
     1
 40
40.0
176
     1
 90
        0
176
     1
 62
   257
176
     1
 40
1.0
176
     1
 90
        1
176
     1
 90
        6
176
     1
 90
        2
176
     1
 62
     7
176
     1
 90
        3
176
     1
 90
        0
176
     1
 90
        0
176
     1
290
     0
176
     1
 90
        1
176
     1
 40
0.0
176
     1
 90
        0
176
     1
290
     0
176
     1
290
     1
176
     1
290
     1
176
     1
290
     0
176
     1
290
     0
176
     1
290
     0
176
     1
290
     0
176
     1
290
     0
176
     1
290
     0
176
     1
 90
       50
176
     1
 40
0.0
176
     1
 40
1.0
176
     1
 90
        0
176
     1
 62
    18
420
        0
176
     1
 90
       50
176
     1
 90
        3
176
     1
 62
     5
420
      255
176
     1
290
     0
176
     1
 90
       50
176
     1
 90
       50
176
     1
 90
       50
176
     1
290
     0
176
     1
 90
       50
176
     1
 62
   256
176
     0
 40
1.0
176
     0
 90
        2
176
     1
  1
strokes_ogs.tif
176
     1
290
     0
176
     1
 40
1.0
176
     1
 40
1.0
176
     1
  0
VISUALSTYLE
  5
30
102
{ACAD_REACTORS
330
2A
102
}
330
2A
100
AcDbVisualStyle
  2
3dWireframe
 70
     5
177
     3
291
     0
 70
    58
 90
        0
176
     1
 90
        2
176
     1
 90
        0
176
     1
 90
        0
176
     1
 40
-0.6
176
     1
 40
-30.0
176
     1
 62
     7
420
 16777215
176
     1
 90
        1
176
     1
 90
        4
176
     1
 62
     7
176
     1
 62
   257
176
     1
 90
        1
176
     1
 90
        1
176
     1
 40
1.0
176
     1
 90
        0
176
     1
 62
   257
176
     1
 40
1.0
176
     1
 90
        1
176
     1
 90
        6
176
     1
 90
        2
176
     1
 62
     7
176
     1
 90
        5
176
     1
 90
        0
176
     1
 90
        0
176
     1
290
     0
176
     1
 90
        1
176
     1
 40
0.0
176
     1
 90
        0
176
     1
290
     0
176
     1
290
     1
176
     1
290
     1
176
     1
290
     0
176
     1
290
     0
176
     1
290
     0
176
     1
290
     0
176
     1
290
     0
176
     1
290
     0
176
     1
 90
       50
176
     1
 40
0.0
176
     1
 40
1.0
176
     1
 90
        0
176
     1
 62
    18
420
        0
176
     1
 90
       50
176
     1
 90
        3
176
     1
 62
     5
420
      255
176
     1
290
     0
176
     1
 90
       50
176
     1
 90
       50
176
     1
 90
       50
176
     1
290
     0
176
     1
 90
       50
176
     1
 62
   256
176
     0
 40
1.0
176
     0
 90
        2
176
     1
  1
strokes_ogs.tif
176
     1
290
     0
176
     1
 40
1.0
176
     1
 40
1.0
176
     1
  0
VISUALSTYLE
  5
32
102
{ACAD_REACTORS
330
2A
102
}
330
2A
100
AcDbVisualStyle
  2
Basic
 70
     7
177
     3
291
     1
 70
    58
 90
        1
176
     1
 90
        0
176
     1
 90
        1
176
     1
 90
        0
176
     1
 40
-0.6
176
     1
 40
-30.0
176
     1
 62
     7
420
 16777215
176
     1
 90
        0
176
     1
 90
        4
176
     1
 62
     7
176
     1
 62
   257
176
     1
 90
        1
176
     1
 90
        1
176
     1
 40
1.0
176
     1
 90
        8
176
     1
 62
     7
176
     1
 40
1.0
176
     1
 90
        1
176
     1
 90
        6
176
     1
 90
        2
176
     1
 62
     7
176
     1
 90
        5
176
     1
 90
        0
176
     1
 90
        0
176
     1
290
     0
176
     1
 90
        1
176
     1
 40
0.0
176
     1
 90
        0
176
     1
290
     0
176
     1
290
     1
176
     1
290
     1
176
     1
290
     0
176
     1
290
     0
176
     1
290
     0
176
     1
290
     0
176
     1
290
     0
176
     1
290
     0
176
     1
 90
       50
176
     1
 40
0.0
176
     1
 40
1.0
176
     1
 90
        0
176
     1
 62
    18
420
        0
176
     1
 90
       50
176
     1
 90
        3
176
     1
 62
     5
420
      255
176
     1
290
     0
176
     1
 90
       50
176
     1
 90
       50
176
     1
 90
       50
176
     1
290
     0
176
     1
 90
       50
176
     1
 62
   256
176
     0
 40
1.0
176
     0
 90
        2
176
     1
  1
strokes_ogs.tif
176
     1
290
     0
176
     1
 40
1.0
176
     1
 40
1.0
176
     1
  0
VISUALSTYLE
  5
36
102
{ACAD_REACTORS
330
2A
102
}
330
2A
100
AcDbVisualStyle
  2
Brighten
 70
    12
177
     3
291
     1
 70
    58
 90
        2
176
     1
 90
        2
176
     1
 90
        0
176
     1
 90
        0
176
     1
 40
-0.6
176
     1
 40
-30.0
176
     1
 62
     7
420
 16777215
176
     1
 90
        1
176
     1
 90
        4
176
     1
 62
     7
176
     1
 62
   257
176
     1
 90
        1
176
     1
 90
        1
176
     1
 40
1.0
176
     1
 90
        8
176
     1
 62
     7
176
     1
 40
1.0
176
     1
 90
        1
176
     1
 90
        6
176
     1
 90
        2
176
     1
 62
     7
176
     1
 90
        5
176
     1
 90
        0
176
     1
 90
        0
176
     1
290
     0
176
     1
 90
        1
176
     1
 40
50.0
176
     1
 90
        0
176
     1
290
     0
176
     1
290
     1
176
     1
290
     1
176
     1
290
     0
176
     1
290
     0
176
     1
290
     0
176
     1
290
     0
176
     1
290
     0
176
     1
290
     0
176
     1
 90
       50
176
     1
 40
0.0
176
     1
 40
1.0
176
     1
 90
        0
176
     1
 62
    18
420
        0
176
     1
 90
       50
176
     1
 90
        3
176
     1
 62
     5
420
      255
176
     1
290
     0
176
     1
 90
       50
176
     1
 90
       50
176
     1
 90
       50
176
     1
290
     0
176
     1
 90
       50
176
     1
 62
   256
176
     0
 40
1.0
176
     0
 90
        2
176
     1
  1
strokes_ogs.tif
176
     1
290
     0
176
     1
 40
1.0
176
     1
 40
1.0
176
     1
  0
VISUALSTYLE
  5
3A
102
{ACAD_REACTORS
330
2A
102
}
330
2A
100
AcDbVisualStyle
  2
ColorChange
 70
    16
177
     3
291
     1
 70
    58
 90
        2
176
     1
 90
        2
176
     1
 90
        3
176
     1
 90
        0
176
     1
 40
-0.6
176
     1
 40
-30.0
176
     1
 62
     8
420
  8421504
176
     1
 90
        1
176
     1
 90
        4
176
     1
 62
     7
176
     1
 62
   257
176
     1
 90
        1
176
     1
 90
        1
176
     1
 40
1.0
176
     1
 90
        8
176
     1
 62
     8
420
  8421504
176
     1
 40
1.0
176
     1
 90
        1
176
     1
 90
        6
176
     1
 90
        2
176
     1
 62
     7
176
     1
 90
        5
176
     1
 90
        0
176
     1
 90
        0
176
     1
290
     0
176
     1
 90
        1
176
     1
 40
0.0
176
     1
 90
        0
176
     1
290
     0
176
     1
290
     1
176
     1
290
     1
176
     1
290
     0
176
     1
290
     0
176
     1
290
     0
176
     1
290
     0
176
     1
290
     0
176
     1
290
     0
176
     1
 90
       50
176
     1
 40
0.0
176
     1
 40
1.0
176
     1
 90
        0
176
     1
 62
    18
420
        0
176
     1
 90
       50
176
     1
 90
        3
176
     1
 62
     5
420
      255
176
     1
290
     0
176
     1
 90
       50
176
     1
 90
       50
176
     1
 90
       50
176
     1
290
     0
176
     1
 90
       50
176
     1
 62
   256
176
     0
 40
1.0
176
     0
 90
        2
176
     1
  1
strokes_ogs.tif
176
     1
290
     0
176
     1
 40
1.0
176
     1
 40
1.0
176
     1
  0
VISUALSTYLE
  5
34
102
{ACAD_REACTORS
330
2A
102
}
330
2A
100
AcDbVisualStyle
  2
Conceptual
 70
     9
177
     3
291
     0
 70
    58
 90
        3
176
     1
 90
        2
176
     1
 90
        0
176
     1
 90
        0
176
     1
 40
-0.6
176
     1
 40
-30.0
176
     1
 62
     7
420
 16777215
176
     1
 90
        2
176
     1
 90
        2
176
     1
 62
     7
176
     1
 62
   257
176
     1
 90
        1
176
     1
 90
        1
176
     1
 40
40.0
176
     1
 90
        8
176
     1
 62
     7
176
     1
 40
1.0
176
     1
 90
        1
176
     1
 90
        6
176
     1
 90
        2
176
     1
 62
     7
176
     1
 90
        3
176
     1
 90
        0
176
     1
 90
        0
176
     1
290
     0
176
     1
 90
        1
176
     1
 40
0.0
176
     1
 90
        0
176
     1
290
     0
176
     1
290
     1
176
     1
290
     1
176
     1
290
     0
176
     1
290
     0
176
     1
290
     0
176
     1
290
     0
176
     1
290
     0
176
     1
290
     0
176
     1
 90
       50
176
     1
 40
0.0
176
     1
 40
1.0
176
     1
 90
        0
176
     1
 62
    18
420
        0
176
     1
 90
       50
176
     1
 90
        3
176
     1
 62
     5
420
      255
176
     1
290
     0
176
     1
 90
       50
176
     1
 90
       50
176
     1
 90
       50
176
     1
290
     0
176
     1
 90
       50
176
     1
 62
   256
176
     0
 40
1.0
176
     0
 90
        2
176
     1
  1
strokes_ogs.tif
176
     1
290
     0
176
     1
 40
1.0
176
     1
 40
1.0
176
     1
  0
VISUALSTYLE
  5
35
102
{ACAD_REACTORS
330
2A
102
}
330
2A
100
AcDbVisualStyle
  2
Dim
 70
    11
177
     3
291
     1
 70
    58
 90
        2
176
     1
 90
        2
176
     1
 90
        0
176
     1
 90
        0
176
     1
 40
-0.6
176
     1
 40
-30.0
176
     1
 62
     7
420
 16777215
176
     1
 90
        1
176
     1
 90
        4
176
     1
 62
     7
176
     1
 62
   257
176
     1
 90
        1
176
     1
 90
        1
176
     1
 40
1.0
176
     1
 90
        8
176
     1
 62
     7
176
     1
 40
1.0
176
     1
 90
        1
176
     1
 90
        6
176
     1
 90
        2
176
     1
 62
     7
176
     1
 90
        5
176
     1
 90
        0
176
     1
 90
        0
176
     1
290
     0
176
     1
 90
        1
176
     1
 40
-50.0
176
     1
 90
        0
176
     1
290
     0
176
     1
290
     1
176
     1
290
     1
176
     1
290
     0
176
     1
290
     0
176
     1
290
     0
176
     1
290
     0
176
     1
290
     0
176
     1
290
     0
176
     1
 90
       50
176
     1
 40
0.0
176
     1
 40
1.0
176
     1
 90
        0
176
     1
 62
    18
420
        0
176
     1
 90
       50
176
     1
 90
        3
176
     1
 62
     5
420
      255
176
     1
290
     0
176
     1
 90
       50
176
     1
 90
       50
176
     1
 90
       50
176
     1
290
     0
176
     1
 90
       50
176
     1
 62
   256
176
     0
 40
1.0
176
     0
 90
        2
176
     1
  1
strokes_ogs.tif
176
     1
290
     0
176
     1
 40
1.0
176
     1
 40
1.0
176
     1
  0
VISUALSTYLE
  5
7A
102
{ACAD_REACTORS
330
2A
102
}
330
2A
100
AcDbVisualStyle
  2
EdgeColorOff
 70
    22
177
     3
291
     1
 70
    58
 90
        2
176
     0
 90
        2
176
     0
 90
        0
176
     0
 90
        0
176
     0
 40
0.6
176
     0
 40
30.0
176
     0
 62
     7
420
 16777215
176
     0
 90
        1
176
     0
 90
        4
176
     0
 62
     7
176
     0
 62
   257
176
     0
 90
        1
176
     0
 90
        1
176
     0
 40
1.0
176
     0
 90
        8
176
     2
 62
     7
176
     0
 40
1.0
176
     0
 90
        1
176
     0
 90
        6
176
     0
 90
        2
176
     0
 62
     7
176
     0
 90
        5
176
     0
 90
        0
176
     0
 90
        0
176
     0
290
     0
176
     0
 90
        1
176
     0
 40
0.0
176
     0
 90
        0
176
     0
290
     0
176
     0
290
     1
176
     0
290
     1
176
     0
290
     0
176
     0
290
     0
176
     0
290
     0
176
     0
290
     0
176
     0
290
     0
176
     0
290
     0
176
     0
 90
       50
176
     0
 40
0.0
176
     0
 40
1.0
176
     0
 90
        0
176
     0
 62
    18
420
        0
176
     0
 90
       50
176
     0
 90
        3
176
     0
 62
     5
420
      255
176
     0
290
     0
176
     0
 90
       50
176
     0
 90
       50
176
     0
 90
       50
176
     0
290
     0
176
     0
 90
       50
176
     0
 62
   256
176
     0
 40
1.0
176
     0
 90
        2
176
     0
  1
strokes_ogs.tif
176
     0
290
     0
176
     0
 40
1.0
176
     0
 40
1.0
176
     0
  0
VISUALSTYLE
  5
39
102
{ACAD_REACTORS
330
2A
102
}
330
2A
100
AcDbVisualStyle
  2
Facepattern
 70
    15
177
     3
291
     1
 70
    58
 90
        2
176
     1
 90
        2
176
     1
 90
        0
176
     1
 90
        0
176
     1
 40
-0.6
176
     1
 40
-30.0
176
     1
 62
     7
420
 16777215
176
     1
 90
        1
176
     1
 90
        4
176
     1
 62
     7
176
     1
 62
   257
176
     1
 90
        1
176
     1
 90
        1
176
     1
 40
1.0
176
     1
 90
        8
176
     1
 62
     7
176
     1
 40
1.0
176
     1
 90
        1
176
     1
 90
        6
176
     1
 90
        2
176
     1
 62
     7
176
     1
 90
        5
176
     1
 90
        0
176
     1
 90
        0
176
     1
290
     0
176
     1
 90
        1
176
     1
 40
0.0
176
     1
 90
        0
176
     1
290
     0
176
     1
290
     1
176
     1
290
     1
176
     1
290
     0
176
     1
290
     0
176
     1
290
     0
176
     1
290
     0
176
     1
290
     0
176
     1
290
     0
176
     1
 90
       50
176
     1
 40
0.0
176
     1
 40
1.0
176
     1
 90
        0
176
     1
 62
    18
420
        0
176
     1
 90
       50
176
     1
 90
        3
176
     1
 62
     5
420
      255
176
     1
290
     0
176
     1
 90
       50
176
     1
 90
       50
176
     1
 90
       50
176
     1
290
     0
176
     1
 90
       50
176
     1
 62
   256
176
     0
 40
1.0
176
     0
 90
        2
176
     1
  1
strokes_ogs.tif
176
     1
290
     0
176
     1
 40
1.0
176
     1
 40
1.0
176
     1
  0
VISUALSTYLE
  5
2B
102
{ACAD_REACTORS
330
2A
102
}
330
2A
100
AcDbVisualStyle
  2
Flat
 70
     0
177
     3
291
     1
 70
    58
 90
        2
176
     1
 90
        1
176
     1
 90
        1
176
     1
 90
        2
176
     1
 40
-0.6
176
     1
 40
30.0
176
     1
 62
     7
420
 16777215
176
     1
 90
        0
176
     1
 90
        4
176
     1
 62
     7
176
     1
 62
   257
176
     1
 90
        1
176
     1
 90
        1
176
     1
 40
1.0
176
     1
 90
        8
176
     1
 62
     7
176
     1
 40
1.0
176
     1
 90
        1
176
     1
 90
        6
176
     1
 90
        2
176
     1
 62
     7
176
     1
 90
        5
176
     1
 90
        0
176
     1
 90
        0
176
     1
290
     0
176
     1
 90
       13
176
     1
 40
0.0
176
     1
 90
        0
176
     1
290
     0
176
     1
290
     1
176
     1
290
     1
176
     1
290
     0
176
     1
290
     0
176
     1
290
     0
176
     1
290
     0
176
     1
290
     0
176
     1
290
     0
176
     1
 90
       50
176
     1
 40
0.0
176
     1
 40
1.0
176
     1
 90
        0
176
     1
 62
    18
420
        0
176
     1
 90
       50
176
     1
 90
        3
176
     1
 62
     5
420
      255
176
     1
290
     0
176
     1
 90
       50
176
     1
 90
       50
176
     1
 90
       50
176
     1
290
     0
176
     1
 90
       50
176
     1
 62
   256
176
     0
 40
1.0
176
     0
 90
        2
176
     1
  1
strokes_ogs.tif
176
     1
290
     0
176
     1
 40
1.0
176
     1
 40
1.0
176
     1
  0
VISUALSTYLE
  5
2C
102
{ACAD_REACTORS
330
2A
102
}
330
2A
100
AcDbVisualStyle
  2
FlatWithEdges
 70
     1
177
     3
291
     1
 70
    58
 90
        2
176
     1
 90
        1
176
     1
 90
        1
176
     1
 90
        2
176
     1
 40
-0.6
176
     1
 40
30.0
176
     1
 62
     7
420
 16777215
176
     1
 90
        1
176
     1
 90
        4
176
     1
 62
     7
176
     1
 62
   257
176
     1
 90
        1
176
     1
 90
        1
176
     1
 40
1.0
176
     1
 90
        0
176
     1
 62
   257
176
     1
 40
1.0
176
     1
 90
        1
176
     1
 90
        6
176
     1
 90
        2
176
     1
 62
     7
176
     1
 90
        5
176
     1
 90
        0
176
     1
 90
        0
176
     1
290
     0
176
     1
 90
       13
176
     1
 40
0.0
176
     1
 90
        0
176
     1
290
     0
176
     1
290
     1
176
     1
290
     1
176
     1
290
     0
176
     1
290
     0
176
     1
290
     0
176
     1
290
     0
176
     1
290
     0
176
     1
290
     0
176
     1
 90
       50
176
     1
 40
0.0
176
     1
 40
1.0
176
     1
 90
        0
176
     1
 62
    18
420
        0
176
     1
 90
       50
176
     1
 90
        3
176
     1
 62
     5
420
      255
176
     1
290
     0
176
     1
 90
       50
176
     1
 90
       50
176
     1
 90
       50
176
     1
290
     0
176
     1
 90
       50
176
     1
 62
   256
176
     0
 40
1.0
176
     0
 90
        2
176
     1
  1
strokes_ogs.tif
176
     1
290
     0
176
     1
 40
1.0
176
     1
 40
1.0
176
     1
  0
VISUALSTYLE
  5
2D
102
{ACAD_REACTORS
330
2A
102
}
330
2A
100
AcDbVisualStyle
  2
Gouraud
 70
     2
177
     3
291
     1
 70
    58
 90
        2
176
     1
 90
        2
176
     1
 90
        1
176
     1
 90
        2
176
     1
 40
-0.6
176
     1
 40
30.0
176
     1
 62
     7
420
 16777215
176
     1
 90
        0
176
     1
 90
        4
176
     1
 62
     7
176
     1
 62
   257
176
     1
 90
        1
176
     1
 90
        1
176
     1
 40
1.0
176
     1
 90
        0
176
     1
 62
     7
176
     1
 40
1.0
176
     1
 90
        1
176
     1
 90
        6
176
     1
 90
        2
176
     1
 62
     7
176
     1
 90
        5
176
     1
 90
        0
176
     1
 90
        0
176
     1
290
     0
176
     1
 90
       13
176
     1
 40
0.0
176
     1
 90
        0
176
     1
290
     0
176
     1
290
     1
176
     1
290
     1
176
     1
290
     0
176
     1
290
     0
176
     1
290
     0
176
     1
290
     0
176
     1
290
     0
176
     1
290
     0
176
     1
 90
       50
176
     1
 40
0.0
176
     1
 40
1.0
176
     1
 90
        0
176
     1
 62
    18
420
        0
176
     1
 90
       50
176
     1
 90
        3
176
     1
 62
     5
420
      255
176
     1
290
     0
176
     1
 90
       50
176
     1
 90
       50
176
     1
 90
       50
176
     1
290
     0
176
     1
 90
       50
176
     1
 62
   256
176
     0
 40
1.0
176
     0
 90
        2
176
     1
  1
strokes_ogs.tif
176
     1
290
     0
176
     1
 40
1.0
176
     1
 40
1.0
176
     1
  0
VISUALSTYLE
  5
2E
102
{ACAD_REACTORS
330
2A
102
}
330
2A
100
AcDbVisualStyle
  2
GouraudWithEdges
 70
     3
177
     3
291
     1
 70
    58
 90
        2
176
     1
 90
        2
176
     1
 90
        1
176
     1
 90
        2
176
     1
 40
-0.6
176
     1
 40
30.0
176
     1
 62
     7
420
 16777215
176
     1
 90
        1
176
     1
 90
        4
176
     1
 62
     7
176
     1
 62
   257
176
     1
 90
        1
176
     1
 90
        1
176
     1
 40
1.0
176
     1
 90
        0
176
     1
 62
   257
176
     1
 40
1.0
176
     1
 90
        1
176
     1
 90
        6
176
     1
 90
        2
176
     1
 62
     7
176
     1
 90
        5
176
     1
 90
        0
176
     1
 90
        0
176
     1
290
     0
176
     1
 90
       13
176
     1
 40
0.0
176
     1
 90
        0
176
     1
290
     0
176
     1
290
     1
176
     1
290
     1
176
     1
290
     0
176
     1
290
     0
176
     1
290
     0
176
     1
290
     0
176
     1
290
     0
176
     1
290
     0
176
     1
 90
       50
176
     1
 40
0.0
176
     1
 40
1.0
176
     1
 90
        0
176
     1
 62
    18
420
        0
176
     1
 90
       50
176
     1
 90
        3
176
     1
 62
     5
420
      255
176
     1
290
     0
176
     1
 90
       50
176
     1
 90
       50
176
     1
 90
       50
176
     1
290
     0
176
     1
 90
       50
176
     1
 62
   256
176
     0
 40
1.0
176
     0
 90
        2
176
     1
  1
strokes_ogs.tif
176
     1
290
     0
176
     1
 40
1.0
176
     1
 40
1.0
176
     1
  0
VISUALSTYLE
  5
77
102
{ACAD_REACTORS
330
2A
102
}
330
2A
100
AcDbVisualStyle
  2
Hidden
 70
     6
177
     3
291
     0
 70
    58
 90
        1
176
     1
 90
        2
176
     1
 90
        2
176
     1
 90
        0
176
     1
 40
0.6
176
     1
 40
30.0
176
     1
 62
     7
420
 16777215
176
     1
 90
        2
176
     1
 90
        2
176
     1
 62
     7
176
     1
 62
   257
176
     1
 90
        2
176
     1
 90
        1
176
     1
 40
40.0
176
     1
 90
        0
176
     1
 62
   257
176
     1
 40
1.0
176
     1
 90
        1
176
     1
 90
        6
176
     1
 90
        2
176
     1
 62
     7
176
     1
 90
        3
176
     1
 90
        0
176
     1
 90
        0
176
     1
290
     0
176
     1
 90
        1
176
     1
 40
0.0
176
     1
 90
        0
176
     1
290
     0
176
     1
290
     1
176
     1
290
     1
176
     1
290
     0
176
     1
290
     0
176
     1
290
     0
176
     1
290
     0
176
     1
290
     0
176
     1
290
     0
176
     1
 90
       50
176
     1
 40
0.0
176
     1
 40
1.0
176
     1
 90
        0
176
     1
 62
    18
420
        0
176
     1
 90
       50
176
     1
 90
        3
176
     1
 62
     5
420
      255
176
     1
290
     0
176
     1
 90
       50
176
     1
 90
       50
176
     1
 90
       50
176
     1
290
     0
176
     1
 90
       50
176
     1
 62
   256
176
     0
 40
1.0
176
     0
 90
        2
176
     1
  1
strokes_ogs.tif
176
     1
290
     0
176
     1
 40
1.0
176
     1
 40
1.0
176
     1
  0
VISUALSTYLE
  5
78
102
{ACAD_REACTORS
330
2A
102
}
330
2A
100
AcDbVisualStyle
  2
JitterOff
 70
    20
177
     3
291
     1
 70
    58
 90
        2
176
     0
 90
        2
176
     0
 90
        0
176
     0
 90
        0
176
     0
 40
0.6
176
     0
 40
30.0
176
     0
 62
     7
420
 16777215
176
     0
 90
        1
176
     0
 90
        4
176
     0
 62
     7
176
     0
 62
   257
176
     0
 90
        1
176
     0
 90
        1
176
     0
 40
1.0
176
     0
 90
       10
176
     2
 62
     7
176
     0
 40
1.0
176
     0
 90
        1
176
     0
 90
        6
176
     0
 90
        2
176
     0
 62
     7
176
     0
 90
        5
176
     0
 90
        0
176
     0
 90
        0
176
     0
290
     0
176
     0
 90
        1
176
     0
 40
0.0
176
     0
 90
        0
176
     0
290
     0
176
     0
290
     1
176
     0
290
     1
176
     0
290
     0
176
     0
290
     0
176
     0
290
     0
176
     0
290
     0
176
     0
290
     0
176
     0
290
     0
176
     0
 90
       50
176
     0
 40
0.0
176
     0
 40
1.0
176
     0
 90
        0
176
     0
 62
    18
420
        0
176
     0
 90
       50
176
     0
 90
        3
176
     0
 62
     5
420
      255
176
     0
290
     0
176
     0
 90
       50
176
     0
 90
       50
176
     0
 90
       50
176
     0
290
     0
176
     0
 90
       50
176
     0
 62
   256
176
     0
 40
1.0
176
     0
 90
        2
176
     0
  1
strokes_ogs.tif
176
     0
290
     0
176
     0
 40
1.0
176
     0
 40
1.0
176
     0
  0
VISUALSTYLE
  5
38
102
{ACAD_REACTORS
330
2A
102
}
330
2A
100
AcDbVisualStyle
  2
Linepattern
 70
    14
177
     3
291
     1
 70
    58
 90
        2
176
     1
 90
        2
176
     1
 90
        0
176
     1
 90
        0
176
     1
 40
-0.6
176
     1
 40
-30.0
176
     1
 62
     7
420
 16777215
176
     1
 90
        1
176
     1
 90
        4
176
     1
 62
     7
176
     1
 62
   257
176
     1
 90
        7
176
     1
 90
        7
176
     1
 40
1.0
176
     1
 90
        8
176
     1
 62
     7
176
     1
 40
1.0
176
     1
 90
        1
176
     1
 90
        6
176
     1
 90
        2
176
     1
 62
     7
176
     1
 90
        5
176
     1
 90
        0
176
     1
 90
        0
176
     1
290
     0
176
     1
 90
        1
176
     1
 40
0.0
176
     1
 90
        0
176
     1
290
     0
176
     1
290
     1
176
     1
290
     1
176
     1
290
     0
176
     1
290
     0
176
     1
290
     0
176
     1
290
     0
176
     1
290
     0
176
     1
290
     0
176
     1
 90
       50
176
     1
 40
0.0
176
     1
 40
1.0
176
     1
 90
        0
176
     1
 62
    18
420
        0
176
     1
 90
       50
176
     1
 90
        3
176
     1
 62
     5
420
      255
176
     1
290
     0
176
     1
 90
       50
176
     1
 90
       50
176
     1
 90
       50
176
     1
290
     0
176
     1
 90
       50
176
     1
 62
   256
176
     0
 40
1.0
176
     0
 90
        2
176
     1
  1
strokes_ogs.tif
176
     1
290
     0
176
     1
 40
1.0
176
     1
 40
1.0
176
     1
  0
VISUALSTYLE
  5
79
102
{ACAD_REACTORS
330
2A
102
}
330
2A
100
AcDbVisualStyle
  2
OverhangOff
 70
    21
177
     3
291
     1
 70
    58
 90
        2
176
     0
 90
        2
176
     0
 90
        0
176
     0
 90
        0
176
     0
 40
0.6
176
     0
 40
30.0
176
     0
 62
     7
420
 16777215
176
     0
 90
        1
176
     0
 90
        4
176
     0
 62
     7
176
     0
 62
   257
176
     0
 90
        1
176
     0
 90
        1
176
     0
 40
1.0
176
     0
 90
        9
176
     2
 62
     7
176
     0
 40
1.0
176
     0
 90
        1
176
     0
 90
        6
176
     0
 90
        2
176
     0
 62
     7
176
     0
 90
        5
176
     0
 90
        0
176
     0
 90
        0
176
     0
290
     0
176
     0
 90
        1
176
     0
 40
0.0
176
     0
 90
        0
176
     0
290
     0
176
     0
290
     1
176
     0
290
     1
176
     0
290
     0
176
     0
290
     0
176
     0
290
     0
176
     0
290
     0
176
     0
290
     0
176
     0
290
     0
176
     0
 90
       50
176
     0
 40
0.0
176
     0
 40
1.0
176
     0
 90
        0
176
     0
 62
    18
420
        0
176
     0
 90
       50
176
     0
 90
        3
176
     0
 62
     5
420
      255
176
     0
290
     0
176
     0
 90
       50
176
     0
 90
       50
176
     0
 90
       50
176
     0
290
     0
176
     0
 90
       50
176
     0
 62
   256
176
     0
 40
1.0
176
     0
 90
        2
176
     0
  1
strokes_ogs.tif
176
     0
290
     0
176
     0
 40
1.0
176
     0
 40
1.0
176
     0
  0
VISUALSTYLE
  5
33
102
{ACAD_REACTORS
330
2A
102
}
330
2A
100
AcDbVisualStyle
  2
Realistic
 70
     8
177
     3
291
     0
 70
    58
 90
        2
176
     1
 90
        2
176
     1
 90
        0
176
     1
 90
        0
176
     1
 40
-0.6
176
     1
 40
-30.0
176
     1
 62
     7
420
 16777215
176
     1
 90
        1
176
     1
 90
        0
176
     1
 62
     7
176
     1
 62
   257
176
     1
 90
        1
176
     1
 90
        1
176
     1
 40
1.0
176
     1
 90
        8
176
     1
 62
     8
420
  7895160
176
     1
 40
1.0
176
     1
 90
        1
176
     1
 90
        6
176
     1
 90
        2
176
     1
 62
     7
176
     1
 90
        5
176
     1
 90
        0
176
     1
 90
        0
176
     1
290
     0
176
     1
 90
       13
176
     1
 40
0.0
176
     1
 90
        0
176
     1
290
     0
176
     1
290
     1
176
     1
290
     1
176
     1
290
     0
176
     1
290
     0
176
     1
290
     0
176
     1
290
     0
176
     1
290
     0
176
     1
290
     0
176
     1
 90
       50
176
     1
 40
0.0
176
     1
 40
1.0
176
     1
 90
        0
176
     1
 62
    18
420
        0
176
     1
 90
       50
176
     1
 90
        3
176
     1
 62
     5
420
      255
176
     1
290
     0
176
     1
 90
       50
176
     1
 90
       50
176
     1
 90
       50
176
     1
290
     0
176
     1
 90
       50
176
     1
 62
   256
176
     0
 40
1.0
176
     0
 90
        2
176
     1
  1
strokes_ogs.tif
176
     1
290
     0
176
     1
 40
1.0
176
     1
 40
1.0
176
     1
  0
VISUALSTYLE
  5
7F
102
{ACAD_REACTORS
330
2A
102
}
330
2A
100
AcDbVisualStyle
  2
Shaded
 70
    27
177
     3
291
     0
 70
    58
 90
        2
176
     1
 90
        2
176
     1
 90
        1
176
     1
 90
        2
176
     1
 40
0.6
176
     1
 40
30.0
176
     1
 62
     7
420
 16777215
176
     1
 90
        0
176
     1
 90
        4
176
     1
 62
     7
176
     1
 62
   257
176
     1
 90
        1
176
     1
 90
        1
176
     1
 40
1.0
176
     1
 90
        8
176
     1
 62
   257
176
     1
 40
1.0
176
     1
 90
        1
176
     1
 90
        6
176
     1
 90
        2
176
     1
 62
     8
420
  7895160
176
     1
 90
        3
176
     1
 90
        0
176
     1
 90
        0
176
     1
290
     0
176
     1
 90
        5
176
     1
 40
0.0
176
     1
 90
        0
176
     1
290
     0
176
     1
290
     1
176
     1
290
     1
176
     1
290
     0
176
     1
290
     0
176
     1
290
     0
176
     1
290
     0
176
     1
290
     0
176
     1
290
     0
176
     1
 90
       50
176
     1
 40
0.0
176
     1
 40
1.0
176
     1
 90
        0
176
     1
 62
    18
420
        0
176
     1
 90
       50
176
     1
 90
        3
176
     1
 62
     5
420
      255
176
     1
290
     0
176
     1
 90
       50
176
     1
 90
       50
176
     1
 90
       50
176
     1
290
     0
176
     1
 90
       50
176
     1
 62
   256
176
     0
 40
1.0
176
     0
 90
        2
176
     1
  1
strokes_ogs.tif
176
     1
290
     0
176
     1
 40
1.0
176
     1
 40
1.0
176
     1
  0
VISUALSTYLE
  5
7E
102
{ACAD_REACTORS
330
2A
102
}
330
2A
100
AcDbVisualStyle
  2
Shaded with edges
 70
    26
177
     3
291
     0
 70
    58
 90
        2
176
     1
 90
        2
176
     1
 90
        1
176
     1
 90
        2
176
     1
 40
0.6
176
     1
 40
30.0
176
     1
 62
     7
420
 16777215
176
     1
 90
        1
176
     1
 90
       10
176
     1
 62
     7
176
     1
 62
   257
176
     1
 90
        2
176
     1
 90
        1
176
     1
 40
1.0
176
     1
 90
        8
176
     1
 62
   257
176
     1
 40
1.0
176
     1
 90
        1
176
     1
 90
        6
176
     1
 90
        2
176
     1
 62
     7
176
     1
 90
        3
176
     1
 90
        0
176
     1
 90
        0
176
     1
290
     0
176
     1
 90
        5
176
     1
 40
0.0
176
     1
 90
        0
176
     1
290
     0
176
     1
290
     1
176
     1
290
     1
176
     1
290
     0
176
     1
290
     0
176
     1
290
     0
176
     1
290
     0
176
     1
290
     0
176
     1
290
     0
176
     1
 90
       50
176
     1
 40
0.0
176
     1
 40
1.0
176
     1
 90
        0
176
     1
 62
    18
420
        0
176
     1
 90
       50
176
     1
 90
        3
176
     1
 62
     5
420
      255
176
     1
290
     0
176
     1
 90
       50
176
     1
 90
       50
176
     1
 90
       50
176
     1
290
     0
176
     1
 90
       50
176
     1
 62
   256
176
     0
 40
1.0
176
     0
 90
        2
176
     1
  1
strokes_ogs.tif
176
     1
290
     0
176
     1
 40
1.0
176
     1
 40
1.0
176
     1
  0
VISUALSTYLE
  5
7B
102
{ACAD_REACTORS
330
2A
102
}
330
2A
100
AcDbVisualStyle
  2
Shades of Gray
 70
    23
177
     3
291
     0
 70
    58
 90
        2
176
     1
 90
        2
176
     1
 90
        3
176
     1
 90
        0
176
     1
 40
0.6
176
     1
 40
30.0
176
     1
 62
     7
420
 16777215
176
     1
 90
        2
176
     1
 90
        2
176
     1
 62
     7
176
     1
 62
     7
176
     1
 90
        1
176
     1
 90
        1
176
     1
 40
40.0
176
     1
 90
        8
176
     1
 62
     7
176
     1
 40
1.0
176
     1
 90
        1
176
     1
 90
        6
176
     1
 90
        2
176
     1
 62
     7
176
     1
 90
        3
176
     1
 90
        0
176
     1
 90
        0
176
     1
290
     0
176
     1
 90
        1
176
     1
 40
0.0
176
     1
 90
        0
176
     1
290
     0
176
     1
290
     1
176
     1
290
     1
176
     1
290
     0
176
     1
290
     0
176
     1
290
     0
176
     1
290
     0
176
     1
290
     0
176
     1
290
     0
176
     1
 90
       50
176
     1
 40
0.0
176
     1
 40
1.0
176
     1
 90
        0
176
     1
 62
    18
420
        0
176
     1
 90
       50
176
     1
 90
        3
176
     1
 62
     5
420
      255
176
     1
290
     0
176
     1
 90
       50
176
     1
 90
       50
176
     1
 90
       50
176
     1
290
     0
176
     1
 90
       50
176
     1
 62
   256
176
     0
 40
1.0
176
     0
 90
        2
176
     1
  1
strokes_ogs.tif
176
     1
290
     0
176
     1
 40
1.0
176
     1
 40
1.0
176
     1
  0
VISUALSTYLE
  5
7C
102
{ACAD_REACTORS
330
2A
102
}
330
2A
100
AcDbVisualStyle
  2
Sketchy
 70
    24
177
     3
291
     0
 70
    58
 90
        1
176
     1
 90
        2
176
     1
 90
        2
176
     1
 90
        0
176
     1
 40
0.6
176
     1
 40
30.0
176
     1
 62
     7
420
 16777215
176
     1
 90
        2
176
     1
 90
        2
176
     1
 62
     7
176
     1
 62
     7
176
     1
 90
        1
176
     1
 90
        1
176
     1
 40
40.0
176
     1
 90
       11
176
     1
 62
     7
176
     1
 40
1.0
176
     1
 90
        1
176
     1
 90
        6
176
     1
 90
        2
176
     1
 62
     7
176
     1
 90
        6
176
     1
 90
        0
176
     1
 90
        0
176
     1
290
     0
176
     1
 90
        1
176
     1
 40
0.0
176
     1
 90
        0
176
     1
290
     0
176
     1
290
     1
176
     1
290
     1
176
     1
290
     0
176
     1
290
     0
176
     1
290
     0
176
     1
290
     0
176
     1
290
     0
176
     1
290
     0
176
     1
 90
       50
176
     1
 40
0.0
176
     1
 40
1.0
176
     1
 90
        0
176
     1
 62
    18
420
        0
176
     1
 90
       50
176
     1
 90
        3
176
     1
 62
     5
420
      255
176
     1
290
     0
176
     1
 90
       50
176
     1
 90
       50
176
     1
 90
       50
176
     1
290
     0
176
     1
 90
       50
176
     1
 62
   256
176
     0
 40
1.0
176
     0
 90
        2
176
     1
  1
strokes_ogs.tif
176
     1
290
     0
176
     1
 40
1.0
176
     1
 40
1.0
176
     1
  0
VISUALSTYLE
  5
37
102
{ACAD_REACTORS
330
2A
102
}
330
2A
100
AcDbVisualStyle
  2
Thicken
 70
    13
177
     3
291
     1
 70
    58
 90
        2
176
     1
 90
        2
176
     1
 90
        0
176
     1
 90
        0
176
     1
 40
-0.6
176
     1
 40
-30.0
176
     1
 62
     7
420
 16777215
176
     1
 90
        1
176
     1
 90
        4
176
     1
 62
     7
176
     1
 62
   257
176
     1
 90
        1
176
     1
 90
        1
176
     1
 40
1.0
176
     1
 90
       12
176
     1
 62
     7
176
     1
 40
1.0
176
     1
 90
        1
176
     1
 90
        6
176
     1
 90
        2
176
     1
 62
     7
176
     1
 90
        5
176
     1
 90
        0
176
     1
 90
        0
176
     1
290
     0
176
     1
 90
        1
176
     1
 40
0.0
176
     1
 90
        0
176
     1
290
     0
176
     1
290
     1
176
     1
290
     1
176
     1
290
     0
176
     1
290
     0
176
     1
290
     0
176
     1
290
     0
176
     1
290
     0
176
     1
290
     0
176
     1
 90
       50
176
     1
 40
0.0
176
     1
 40
1.0
176
     1
 90
        0
176
     1
 62
    18
420
        0
176
     1
 90
       50
176
     1
 90
        3
176
     1
 62
     5
420
      255
176
     1
290
     0
176
     1
 90
       50
176
     1
 90
       50
176
     1
 90
       50
176
     1
290
     0
176
     1
 90
       50
176
     1
 62
   256
176
     0
 40
1.0
176
     0
 90
        2
176
     1
  1
strokes_ogs.tif
176
     1
290
     0
176
     1
 40
1.0
176
     1
 40
1.0
176
     1
  0
VISUALSTYLE
  5
76
102
{ACAD_REACTORS
330
2A
102
}
330
2A
100
AcDbVisualStyle
  2
Wireframe
 70
     5
177
     3
291
     0
 70
    58
 90
        0
176
     1
 90
        2
176
     1
 90
        0
176
     1
 90
        0
176
     1
 40
0.6
176
     1
 40
30.0
176
     1
 62
     7
420
 16777215
176
     1
 90
        1
176
     1
 90
        4
176
     1
 62
     7
176
     1
 62
   257
176
     1
 90
        1
176
     1
 90
        1
176
     1
 40
1.0
176
     1
 90
        0
176
     1
 62
   257
176
     1
 40
1.0
176
     1
 90
        1
176
     1
 90
        6
176
     1
 90
        2
176
     1
 62
     7
176
     1
 90
        3
176
     1
 90
        0
176
     1
 90
        0
176
     1
290
     0
176
     1
 90
        1
176
     1
 40
0.0
176
     1
 90
        0
176
     1
290
     0
176
     1
290
     1
176
     1
290
     1
176
     1
290
     0
176
     1
290
     0
176
     1
290
     0
176
     1
290
     0
176
     1
290
     0
176
     1
290
     0
176
     1
 90
       50
176
     1
 40
0.0
176
     1
 40
1.0
176
     1
 90
        0
176
     1
 62
    18
420
        0
176
     1
 90
       50
176
     1
 90
        3
176
     1
 62
     5
420
      255
176
     1
290
     0
176
     1
 90
       50
176
     1
 90
       50
176
     1
 90
       50
176
     1
290
     0
176
     1
 90
       50
176
     1
 62
   256
176
     0
 40
1.0
176
     0
 90
        2
176
     1
  1
strokes_ogs.tif
176
     1
290
     0
176
     1
 40
1.0
176
     1
 40
1.0
176
     1
  0
VISUALSTYLE
  5
7D
102
{ACAD_REACTORS
330
2A
102
}
330
2A
100
AcDbVisualStyle
  2
X-Ray
 70
    25
177
     3
291
     0
 70
    58
 90
        2
176
     1
 90
        2
176
     1
 90
        1
176
     1
 90
        1
176
     1
 40
0.5
176
     1
 40
30.0
176
     1
 62
     7
420
 16777215
176
     1
 90
        1
176
     1
 90
        0
176
     1
 62
     7
176
     1
 62
   257
176
     1
 90
        1
176
     1
 90
        1
176
     1
 40
1.0
176
     1
 90
        8
176
     1
 62
     7
176
     1
 40
1.0
176
     1
 90
        1
176
     1
 90
        6
176
     1
 90
        2
176
     1
 62
     7
176
     1
 90
        3
176
     1
 90
        0
176
     1
 90
        0
176
     1
290
     0
176
     1
 90
       13
176
     1
 40
0.0
176
     1
 90
        0
176
     1
290
     0
176
     1
290
     1
176
     1
290
     1
176
     1
290
     0
176
     1
290
     0
176
     1
290
     0
176
     1
290
     0
176
     1
290
     0
176
     1
290
     0
176
     1
 90
       50
176
     1
 40
0.0
176
     1
 40
1.0
176
     1
 90
        0
176
     1
 62
    18
420
        0
176
     1
 90
       50
176
     1
 90
        3
176
     1
 62
     5
420
      255
176
     1
290
     0
176
     1
 90
       50
176
     1
 90
       50
176
     1
 90
       50
176
     1
290
     0
176
     1
 90
       50
176
     1
 62
   256
176
     0
 40
1.0
176
     0
 90
        2
176
     1
  1
strokes_ogs.tif
176
     1
290
     0
176
     1
 40
1.0
176
     1
 40
1.0
176
     1
  0
DICTIONARYVAR
  5
62
102
{ACAD_REACTORS
330
3D
102
}
330
3D
100
DictionaryVariables
280
     0
  1
1:1
  0
DICTIONARYVAR
  5
BB
102
{ACAD_REACTORS
330
3D
102
}
330
3D
100
DictionaryVariables
280
     0
  1
Standard
  0
DICTIONARYVAR
  5
3E
102
{ACAD_REACTORS
330
3D
102
}
330
3D
100
DictionaryVariables
280
     0
  1
Standard
  0
DICTIONARYVAR
  5
6F
102
{ACAD_REACTORS
330
3D
102
}
330
3D
100
DictionaryVariables
280
     0
  1
0
  0
DICTIONARYVAR
  5
70
102
{ACAD_REACTORS
330
3D
102
}
330
3D
100
DictionaryVariables
280
     0
  1
0
  0
DICTIONARY
  5
3E3
330
3C
100
AcDbDictionary
280
     1
281
     1
  3
ACAD_ROUNDTRIP_2008_TABLESTYLE_CELLSTYLEMAP
360
3E4
  0
CELLSTYLEMAP
  5
3E4
102
{ACAD_REACTORS
330
3E3
102
}
330
3E3
100
AcDbCellStyleMap
 90
        3
300
CELLSTYLE
  1
TABLEFORMAT_BEGIN
 90
        5
170
     1
 91
        0
 92
    32768
 62
   257
 93
        1
300
CONTENTFORMAT
  1
CONTENTFORMAT_BEGIN
 90
        0
 91
        0
 92
      512
 93
        0
300

 40
0.0
140
1.0
 94
        5
 62
     0
340
11
144
6.0
309
CONTENTFORMAT_END
171
     1
301
MARGIN
  1
CELLMARGIN_BEGIN
 40
1.5
 40
1.5
 40
1.5
 40
1.5
 40
0.18
 40
0.18
309
CELLMARGIN_END
 94
        6
 95
        1
302
GRIDFORMAT
  1
GRIDFORMAT_BEGIN
 90
        0
 91
        1
 62
     0
 92
       -2
340
0
 93
        0
 40
0.045
309
GRIDFORMAT_END
 95
        2
302
GRIDFORMAT
  1
GRIDFORMAT_BEGIN
 90
        0
 91
        1
 62
     0
 92
       -2
340
0
 93
        0
 40
0.045
309
GRIDFORMAT_END
 95
        4
302
GRIDFORMAT
  1
GRIDFORMAT_BEGIN
 90
        0
 91
        1
 62
     0
 92
       -2
340
0
 93
        0
 40
0.045
309
GRIDFORMAT_END
 95
        8
302
GRIDFORMAT
  1
GRIDFORMAT_BEGIN
 90
        0
 91
        1
 62
     0
 92
       -2
340
0
 93
        0
 40
0.045
309
GRIDFORMAT_END
 95
       16
302
GRIDFORMAT
  1
GRIDFORMAT_BEGIN
 90
        0
 91
        1
 62
     0
 92
       -2
340
0
 93
        0
 40
0.045
309
GRIDFORMAT_END
 95
       32
302
GRIDFORMAT
  1
GRIDFORMAT_BEGIN
 90
        0
 91
        1
 62
     0
 92
       -2
340
0
 93
        0
 40
0.045
309
GRIDFORMAT_END
309
TABLEFORMAT_END
  1
CELLSTYLE_BEGIN
 90
        1
 91
        1
300
_TITLE
309
CELLSTYLE_END
300
CELLSTYLE
  1
TABLEFORMAT_BEGIN
 90
        5
170
     1
 91
        0
 92
        0
 62
   257
 93
        1
300
CONTENTFORMAT
  1
CONTENTFORMAT_BEGIN
 90
        0
 91
        0
 92
      512
 93
        0
300

 40
0.0
140
1.0
 94
        5
 62
     0
340
11
144
4.5
309
CONTENTFORMAT_END
171
     1
301
MARGIN
  1
CELLMARGIN_BEGIN
 40
1.5
 40
1.5
 40
1.5
 40
1.5
 40
0.18
 40
0.18
309
CELLMARGIN_END
 94
        6
 95
        1
302
GRIDFORMAT
  1
GRIDFORMAT_BEGIN
 90
        0
 91
        1
 62
     0
 92
       -2
340
0
 93
        0
 40
0.045
309
GRIDFORMAT_END
 95
        2
302
GRIDFORMAT
  1
GRIDFORMAT_BEGIN
 90
        0
 91
        1
 62
     0
 92
       -2
340
0
 93
        0
 40
0.045
309
GRIDFORMAT_END
 95
        4
302
GRIDFORMAT
  1
GRIDFORMAT_BEGIN
 90
        0
 91
        1
 62
     0
 92
       -2
340
0
 93
        0
 40
0.045
309
GRIDFORMAT_END
 95
        8
302
GRIDFORMAT
  1
GRIDFORMAT_BEGIN
 90
        0
 91
        1
 62
     0
 92
       -2
340
0
 93
        0
 40
0.045
309
GRIDFORMAT_END
 95
       16
302
GRIDFORMAT
  1
GRIDFORMAT_BEGIN
 90
        0
 91
        1
 62
     0
 92
       -2
340
0
 93
        0
 40
0.045
309
GRIDFORMAT_END
 95
       32
302
GRIDFORMAT
  1
GRIDFORMAT_BEGIN
 90
        0
 91
        1
 62
     0
 92
       -2
340
0
 93
        0
 40
0.045
309
GRIDFORMAT_END
309
TABLEFORMAT_END
  1
CELLSTYLE_BEGIN
 90
        2
 91
        1
300
_HEADER
309
CELLSTYLE_END
300
CELLSTYLE
  1
TABLEFORMAT_BEGIN
 90
        5
170
     1
 91
        0
 92
        0
 62
   257
 93
        1
300
CONTENTFORMAT
  1
CONTENTFORMAT_BEGIN
 90
        0
 91
        0
 92
      512
 93
        0
300

 40
0.0
140
1.0
 94
        2
 62
     0
340
11
144
4.5
309
CONTENTFORMAT_END
171
     1
301
MARGIN
  1
CELLMARGIN_BEGIN
 40
1.5
 40
1.5
 40
1.5
 40
1.5
 40
0.18
 40
0.18
309
CELLMARGIN_END
 94
        6
 95
        1
302
GRIDFORMAT
  1
GRIDFORMAT_BEGIN
 90
        0
 91
        1
 62
     0
 92
       -2
340
0
 93
        0
 40
0.045
309
GRIDFORMAT_END
 95
        2
302
GRIDFORMAT
  1
GRIDFORMAT_BEGIN
 90
        0
 91
        1
 62
     0
 92
       -2
340
0
 93
        0
 40
0.045
309
GRIDFORMAT_END
 95
        4
302
GRIDFORMAT
  1
GRIDFORMAT_BEGIN
 90
        0
 91
        1
 62
     0
 92
       -2
340
0
 93
        0
 40
0.045
309
GRIDFORMAT_END
 95
        8
302
GRIDFORMAT
  1
GRIDFORMAT_BEGIN
 90
        0
 91
        1
 62
     0
 92
       -2
340
0
 93
        0
 40
0.045
309
GRIDFORMAT_END
 95
       16
302
GRIDFORMAT
  1
GRIDFORMAT_BEGIN
 90
        0
 91
        1
 62
     0
 92
       -2
340
0
 93
        0
 40
0.045
309
GRIDFORMAT_END
 95
       32
302
GRIDFORMAT
  1
GRIDFORMAT_BEGIN
 90
        0
 91
        1
 62
     0
 92
       -2
340
0
 93
        0
 40
0.045
309
GRIDFORMAT_END
309
TABLEFORMAT_END
  1
CELLSTYLE_BEGIN
 90
        3
 91
        2
300
_DATA
309
CELLSTYLE_END
  0
ENDSEC
  0
SECTION
  2
ACDSDATA
 70
     2
 71
     2
  0
ACDSSCHEMA
 90
        0
  1
AcDb_Thumbnail_Schema
  2
AcDbDs::ID
280
    10
 91
        8
  2
Thumbnail_Data
280
    15
 91
        0
101
ACDSRECORD
 95
        0
 90
        2
  2
AcDbDs::TreatedAsObjectData
280
     1
291
     1
101
ACDSRECORD
 95
        0
 90
        3
  2
AcDbDs::Legacy
280
     1
291
     1
101
ACDSRECORD
  1
AcDbDs::ID
 90
        4
  2
AcDs:Indexable
280
     1
291
     1
101
ACDSRECORD
  1
AcDbDs::ID
 90
        5
  2
AcDbDs::HandleAttribute
280
     7
282
     1
  0
ACDSSCHEMA
 90
        1
  1
AcDb3DSolid_ASM_Data
  2
AcDbDs::ID
280
    10
 91
        8
  2
ASM_Data
280
    15
 91
        0
101
ACDSRECORD
 95
        1
 90
        2
  2
AcDbDs::TreatedAsObjectData
280
     1
291
     1
101
ACDSRECORD
 95
        1
 90
        3
  2
AcDbDs::Legacy
280
     1
291
     1
101
ACDSRECORD
  1
AcDbDs::ID
 90
        4
  2
AcDs:Indexable
280
     1
291
     1
101
ACDSRECORD
  1
AcDbDs::ID
 90
        5
  2
AcDbDs::HandleAttribute
280
     7
282
     1
  0
ACDSSCHEMA
 90
        2
  1
AcDbDs::TreatedAsObjectDataSchema
  2
AcDbDs::TreatedAsObjectData
280
     1
 91
        0
  0
ACDSSCHEMA
 90
        3
  1
AcDbDs::LegacySchema
  2
AcDbDs::Legacy
280
     1
 91
        0
  0
ACDSSCHEMA
 90
        4
  1
AcDbDs::IndexedPropertySchema
  2
AcDs:Indexable
280
     1
 91
        0
  0
ACDSSCHEMA
 90
        5
  1
AcDbDs::HandleAttributeSchema
  2
AcDbDs::HandleAttribute
280
     7
 91
        1
284
     1
  0
ACDSRECORD
 90
        0
  2
AcDbDs::ID
280
    10
320
1E
  2
Thumbnail_Data
280
    15
 94
     1742
310
89504E470D0A1A0A0000000D494844520000010000000068080200000091C0B9B2000000097048597300000EC400000EC401952B0E1B0000068049444154789CEDDD4B5F1AC91AC7F11F4D23340E37878B802217356475B6F3FE5F40D699313A3151922839E1A02389209C05633E8EA3024DDF68FEDF95D0D5C5B3E8B2AABA
310
9EAE06111111111111111111111111111111111111911517F53B0009A0061830F03B0C2F187E07204153832EC460DBEF4844BCB60FC9FBBFB3B0E7672C221E8A42FB5F43E2D7FEC422E2AD041C3CF5FD1614BD8E45C45B49A83F7F34E49D80EE02ADB91CE4E0F4F90216DCC1D0BB8844BC5283D21CC5C2DC09987E07207E69
310
C157E8F91D8688D7A6377C62739737E0D0C5707CA51E60DD6C4205DE2E72CA587345098712ECDA3A310D15876311F1560D724B9C1EE6A9B0849B01ED07390EF694966B3F22FEB09E59E55DD406349DA847C43B79E712DA0AF0AB435589786117F2CED516CE39806E8386D53E74E0C6EF30824E0D207C2CD8837730F23B9215
310
A006103245B0165CE75A6B6A00615282C88BA99DF2989E090E8D1ADCC267D7EA9FB856B3C8521C59E77A59126A6ED62F62933567AAA66559DBDBB6377AA843C2EEB981A621D04ACB4211FE98A768AD56DBDADAB2FB43167CB77B6EA06912BCBA8A60CC3FE5350C6332D138FE31F5002B6A17866E4E79D7857A80951385269C
310
6B95D711EA01564B029A70BCE8D55F28142E2E2E5C8A69A5A901AC902C94E008C68B9E99CBE5BE7DFBB6C44F8776F2A021D0AA28C3C4F62A6F341ACDE572DD6ED7D6D9D9106F1EA11E6025ECC3CD9253DE6C36DBEBD9BB8ECB219E6DAB0708B8E996240EA476C662B1E1501BBC3DA606106419283992DA39994C2291C8F2F5
310
848F8640815584E49CABBC2F2B954A5FBE7C59BE9E50520308A6168CE09323756D6D6D6D6E6E7EFCF8D191DA42460D2068A6A99DA7F05F072B4DA552D7D7D773163E3C0CED4688FFA606102819D887B73E3ECD984EA7CBE5723C1EBFFF226263D941C48622941DAF349148D4EBF5D7AF6DEFE9D080F8EC522B4B3D4040341C
310
1CF4FFA3DE46E3EBD7AFFD7EDF6E051B70EB644001A306E0BB08B4E1DCD941FF43D56AF5FCFCDCEED99110E741A07500BFA5A1ECF6260E4BAC00B4E0D8C95082470DC0470530E177BFC378C186DE0E262E6980ED0714E7757070108D469F9B011B8651A9BCB0EBFF2E6CBA145870680EE03DD707FD3F99A6198BC50683C193
310
470F0E0E7EFCF8D16EB75BADD653C737E12F57C30B02BDFAC66369A8C3EF70E7C18F150A855C2EF7EEDDBB278F1A86B1BDBDFDE1C387E170D868342E2F2FEF8F44A005EFD761054073002F1520169C41FFE5E565B7DB9D8E828E8E8EEEBF36601F4EB4B5A838ABE9F1FEFAF57A3D91482CB8046638F4368D95A11EC0037168
310
C0B1C777542CCBFAFE7DA1CD7CA2D07224FF7485A801B82D0DBFFAB55D73269399FB29300B76D6EDEA4777815C56855FE04FBF7EBE52A97CFA344F7A850545389A5D3074D403B86567E7B778FC3B5C41EBF8D8EBF5D46AB57A7676B6B3B33347D9E9D5BFA69BAAAB01B8210E8DB3B337B1D8DF5934ED76DBD5DF9B4C262727
310
27A3D1E8E7E687E9747ABEFC9F2CA4D7F6EA470DC071A699DDDFFF0DDE43F3E2E2623C1E5F5D5DBD7DFB8F39402A951A0C06A39163F719239148B3D9344D739AF6D3E9744CD38CC7E3B326C15530E0835361AC223D28EDAC2ADCFDDC44A4582C1A86914AA5A2D128707575757E7EBEB7B7371C0E93C9A4692EF0DFA7DFEFDF
310
DCDCF47ABD7C3EBFB1B1914EA7A7DF8F46A39B9B9B4EA7F3B070A552E9F57AD56AF5E4E4E4EEEEC915B7E98DA90ED84E930E093500074D131CAE9E3B5CA954D2E9F4E9E9E973B9092F48A552C96472BAB9D5EDEDEDCFFC7ED33493C9E4A3949EC964D2EFF7CBE5F29B376F9EAA6C174C1FA7E6123E71707794BF90482492C9
310
649E3A9286F63AA4B88997F250F73B8699A6E93DCE3F72296B6ECFD1B7B1BB640B0E75C3431CD706CBEF18666A43D1EF182484FEE3770033550235330926758BB60579AF8404D4A1039D9945D79C1A40F8D4C0F02BFD6EE5E88930DB0A60EF7D13B35996757878381E8F175C3130E1103EC1E5ECB202A80758C2E07E847D07
310
EF9DCDF51F0C06E3F1D8308C7C3E3FF76B5D723EE65DAF2EF500B6F5A00B5DF81FEC4109F2908181230F139AA6797B7B9BCBE5AEAFAFC7E399CFE636E10EB4FFF3C2940AE12C13762071FFF1AF652ECA69D6D0783CFEFCF985371425A10627C19E9407971A80AB3661F7C1C72FB0D8AB1A5FBD7A757A7AFA7C526709E26B9E
310
CEB92435002F952067F7DC476976D377877D0EF1FB1BBDA106B02AAA907AF0F16E3D9F6014111111111111111111111111111111111111111111111111111111111111591FFF07A33D65E504EEB6050000000049454E44AE426082
  0
ACDSRECORD
 90
        0
  2
AcDbDs::ID
280
    10
320
22
  2
Thumbnail_Data
280
    15
 94
     1742
310
89504E470D0A1A0A0000000D494844520000010000000068080200000091C0B9B2000000097048597300000EC400000EC401952B0E1B0000068049444154789CEDDD4B5F1AC91AC7F11F4D23340E37878B802217356475B6F3FE5F40D699313A3151922839E1A02389209C05633E8EA3024DDF68FEDF95D0D5C5B3E8B2AABA
310
9EAE06111111111111111111111111111111111111911517F53B0009A0061830F03B0C2F187E07204153832EC460DBEF4844BCB60FC9FBBFB3B0E7672C221E8A42FB5F43E2D7FEC422E2AD041C3CF5FD1614BD8E45C45B49A83F7F34E49D80EE02ADB91CE4E0F4F90216DCC1D0BB8844BC5283D21CC5C2DC09987E07207E69
310
C157E8F91D8688D7A6377C62739737E0D0C5707CA51E60DD6C4205DE2E72CA587345098712ECDA3A310D15876311F1560D724B9C1EE6A9B0849B01ED07390EF694966B3F22FEB09E59E55DD406349DA847C43B79E712DA0AF0AB435589786117F2CED516CE39806E8386D53E74E0C6EF30824E0D207C2CD8837730F23B9215
310
A006103245B0165CE75A6B6A00615282C88BA99DF2989E090E8D1ADCC267D7EA9FB856B3C8521C59E77A59126A6ED62F62933567AAA66559DBDBB6377AA843C2EEB981A621D04ACB4211FE98A768AD56DBDADAB2FB43167CB77B6EA06912BCBA8A60CC3FE5350C6332D138FE31F5002B6A17866E4E79D7857A80951385269C
310
6B95D711EA01564B029A70BCE8D55F28142E2E2E5C8A69A5A901AC902C94E008C68B9E99CBE5BE7DFBB6C44F8776F2A021D0AA28C3C4F62A6F341ACDE572DD6ED7D6D9D9106F1EA11E6025ECC3CD9253DE6C36DBEBD9BB8ECB219E6DAB0708B8E996240EA476C662B1E1501BBC3DA606106419283992DA39994C2291C8F2F5
310
848F8640815584E49CABBC2F2B954A5FBE7C59BE9E50520308A6168CE09323756D6D6D6D6E6E7EFCF8D191DA42460D2068A6A99DA7F05F072B4DA552D7D7D773163E3C0CED4688FFA606102819D887B73E3ECD984EA7CBE5723C1EBFFF226263D941C48622941DAF349148D4EBF5D7AF6DEFE9D080F8EC522B4B3D4040341C
310
1CF4FFA3DE46E3EBD7AFFD7EDF6E051B70EB644001A306E0BB08B4E1DCD941FF43D56AF5FCFCDCEED99110E741A07500BFA5A1ECF6260E4BAC00B4E0D8C95082470DC0470530E177BFC378C186DE0E262E6980ED0714E7757070108D469F9B011B8651A9BCB0EBFF2E6CBA145870680EE03DD707FD3F99A6198BC50683C193
310
470F0E0E7EFCF8D16EB75BADD653C737E12F57C30B02BDFAC66369A8C3EF70E7C18F150A855C2EF7EEDDBB278F1A86B1BDBDFDE1C387E170D868342E2F2FEF8F44A005EFD761054073002F1520169C41FFE5E565B7DB9D8E828E8E8EEEBF36601F4EB4B5A838ABE9F1FEFAF57A3D91482CB8046638F4368D95A11EC0037168
310
C0B1C777542CCBFAFE7DA1CD7CA2D07224FF7485A801B82D0DBFFAB55D73269399FB29300B76D6EDEA4777815C56855FE04FBF7EBE52A97CFA344F7A850545389A5D3074D403B86567E7B778FC3B5C41EBF8D8EBF5D46AB57A7676B6B3B33347D9E9D5BFA69BAAAB01B8210E8DB3B337B1D8DF5934ED76DBD5DF9B4C262727
310
27A3D1E8E7E687E9747ABEFC9F2CA4D7F6EA470DC071A699DDDFFF0DDE43F3E2E2623C1E5F5D5DBD7DFB8F39402A951A0C06A39163F719239148B3D9344D739AF6D3E9744CD38CC7E3B326C15530E0835361AC223D28EDAC2ADCFDDC44A4582C1A86914AA5A2D128707575757E7EBEB7B7371C0E93C9A4692EF0DFA7DFEFDF
310
DCDCF47ABD7C3EBFB1B1914EA7A7DF8F46A39B9B9B4EA7F3B070A552E9F57AD56AF5E4E4E4EEEEC915B7E98DA90ED84E930E093500074D131CAE9E3B5CA954D2E9F4E9E9E973B9092F48A552C96472BAB9D5EDEDEDCFFC7ED33493C9E4A3949EC964D2EFF7CBE5F29B376F9EAA6C174C1FA7E6123E71707794BF90482492C9
310
649E3A9286F63AA4B88997F250F73B8699A6E93DCE3F72296B6ECFD1B7B1BB640B0E75C3431CD706CBEF18666A43D1EF182484FEE3770033550235330926758BB60579AF8404D4A1039D9945D79C1A40F8D4C0F02BFD6EE5E88930DB0A60EF7D13B35996757878381E8F175C3130E1103EC1E5ECB202A80758C2E07E847D07
310
EF9DCDF51F0C06E3F1D8308C7C3E3FF76B5D723EE65DAF2EF500B6F5A00B5DF81FEC4109F2908181230F139AA6797B7B9BCBE5AEAFAFC7E399CFE636E10EB4FFF3C2940AE12C13762071FFF1AF652ECA69D6D0783CFEFCF985371425A10627C19E9407971A80AB3661F7C1C72FB0D8AB1A5FBD7A757A7AFA7C526709E26B9E
310
CEB92435002F952067F7DC476976D377877D0EF1FB1BBDA106B02AAA907AF0F16E3D9F6014111111111111111111111111111111111111111111111111111111111111591FFF07A33D65E504EEB6050000000049454E44AE426082
  0
ACDSRECORD
 90
        0
  2
AcDbDs::ID
280
    10
320
26
  2
Thumbnail_Data
280
    15
 94
     3930
310
89504E470D0A1A0A0000000D494844520000010000000068080200000091C0B9B2000000097048597300000EC400000EC401952B0E1B00000F0C49444154789CED9D4976E25617C7FF92E8C198C6D880C12E63DC50834A9D0CB28D9A6696256413594836501BC8283939DF063230369D311803A66F4C2FE91BBC0A45B0B111
310
0849CFE837B265F4742DDE95EE7DEF36CCEFBFFF0E1D9D6D85555B001D1D3531A82D8004FEFCF3CF42A1B0BBBBABB6203A0BE179BEDFEFFFFCF3CF6A0BB22C3429C06834FAEDB7DF7EFAE927B505D15948A7D3F9F2E58BDA524840378174B61A5D01B691C1406D0934034D26908E2CA4526059ECECC0E7535B140DA0BF01B6
310
0841403C8EA3234422005028A82D9006D015605B180C9048201683C904003E1F6C3664B32A4BA53AF49940E3F1F8AFBFFE3A3C3C04707171C1B26CAFD7BBBBBB0360369B239108805AADF6F8F808C0E572050201008542A1DD6E03F0FBFD6EB71B402A951A8FC7004E4E4E2C16CB6432492693001886B9BCBC04D0ED76F3F9
310
3C00ABD5FAE1C30700954AA55AAD02F0783C07070700F2F97CB7DB05100C06C9FA6C2291E0791EC0E9E9A9C9641A8D46E9741A00C771E7E7E700DAED76A1500060B7DB8F8E8E0094CBE57ABD0E606F6FCFE7F301C866B3FD7E1F40381C76381C00AEAFAF4551047076766630180683C1EDED2D00A3D1188D4601341A8D52A9
310
04C0E974929B532C169BCD2680FDFD7D83C15BAFC364CAC4E34300C7C7C7369B6D7757F8DFFF6EFBFD91A43B797F7FDFE9740004020197CB357B27398E239FA10886A29DE03FFEF8E3D75F7FFDFCF9732E9723DFBACE32349BE8F5100CBEF0A7520926133C1E792E747575150E87BF7CF9F2CB2FBFC833E2E6D14DA077CEE3
310
E3C2D90FC0EF47A9A4AC401A833E05301A8DC472D079937C1E1CB770F6132C16D95645697C2DD3A7000CC398881FA7F32A990C5C2E78BD6F7C2C12412623CF1569FC5EE8530041109E9E9ED49642D3F03CAEAF110C626767A9CF330C445186EB12E7982EE85380C964522C16D59642BBF4FB48A5707E0E8B65D953E47A0990
310
4533BAA06F1954E715EA75B45AB8B8907696D98CE1703302691EFADE001CC7E911D12F92CF633CC6C9C92AE71E1CA05C5E57008F5CEBA90A42A502F8F4289667A45270B97070B0E2E95E2F6AB57565F0FBFDEB0EA138F42980CE1CFDFEB7089F255DDE45D8EDD8C2C505FA14603C1E67F510967F69B5502A7D8FF05987E363
310
DCDDAD35422A955A5708C5A1CF091645713299A82D852620FB5CAB19FD2FC271E07970DC8AA78F4623D944510AFADE003A0462F4BFBECB2B159F0F958A9C036A1FFA14400F85180CE431FA9FD3EBC1665BFDF4D3D353F9645108FA1460CB43215A2D3C3CC863F43FA7DD86D3B9FAE966B3593E5914823E05D8E650884201DD
310
EEB77C2E0D425223E8823E05D8CE500851443A0D870387876A8BB2985C2EA7B60892A16F15680B11042412383901852686D6A14F01589675AE63A8D246AB85621117176018B545790B926B4A17F499400683617F7F5F6D2914A25241B78BCB4B2566FF6402C37ACF43EA128241A3026C0FF7F76018E58CFEC1404204F5BB81
310
3E05D81227389DC6EE2EF6F694BB622E8735F75768CC07A04F01DEFD32E86884EB6B8442F2EF736D1A1A33C2E87382DF379D0ECA659C9F83A5EFD14425F4DD66A3D1180E87D5966223542A68B5108D4A9BFD7FFFFDF7C3C3C3C684924044B35B748BA14F011886A171CBFD4D88CB1B0A493BAB542AC5623152F44E752C143A
310
D1F429802008BD5E4F6D2964269D86D3B98ACBDB6AB53A9D8E465E8934FA66F429C06432D1C81B5F1648C5E65068C52834D292C86EB7AF29C63A690053EED64CA85103DD0956937E1F77770AED73BD4EB1080A77B16480BE3700CBB234DA9ACF6934502A6962F663ED4068826D9D640295A04F010C064348AAABA83DD2690C
310
06EB6633F23CCFAD6FB8C80729224F17F429C03B209D86CF2783C9512A9568AC44A229E85380C96452A2B6A4F770B896CB3B47ABD5D2548DB0FBFB7BB545900C7D0A2008028D994700DA6D140A88C5DE6D58BF46B62324A1AF022904D9E7A270ABF49D43DF1B80462798EC736D22B03993C9AC5F8BE1E9096B6F2400C0898C
310
258A94823E05A06B19545EA37F96C16060B1580683C1FA8121A51264F1A5AD56AB0CA3280B7D0A208A2269C3A87DDA6DDCDF6FCAE87F7C7C942B336E389447421A2BF6D1A700E3F1987408D538C522DA6D6CAE5454B7DB651866FD2008194924126A8B2019FA14800A321958AD92433BA55228140EA53B16E572F9FD4513AE
310
0C7D0AA0F170E8697F2E976B835711048165D9C96462909EC75EABD536F4A8D67D0025D072424CBB2DB93FD76AD46A35EF9BFD1F17B0B3B37321B589D272E8AB405B4DB58A761B17174A6433562A9595DBE484C3611A1FD51B823E05D0662844260351DCB8D13FCB3A2F8159D269D93CF542A120CF400A429F02682D144210
310
70738360100A372E2B97CB072BB7049B41AE355000AD564B9E8114440F85588B4E078582D2451C7ABD9ECD66936525279F8756FD2985A0EF0D6030185658FBDB04D52A9A4D5C5E2A5DC22497CBC9D522A4D391B3FA909E0FA0042CCB6AC187BBBD8520A8F3F814040100BBB6DA95CBABB7557D113D234C0944512433402D88
310
D11F0840C512BDF57AFDF5AED4D96C369148BC1E3352AB410E2FFA3BB484A8CC429F028CC7E34C26A3D6D53B1D2412884655AB234BD220DF0C04EAF57A914824954AC5E3F166B3F9FC038D06642F667E737323F3889B873E055091A9D1AF62226E369B5DC6D46659369FCF5F5C5CC462B1E76D951B0D0C065B5A06620EFA56
310
81D46A92777B0BBB5DFD3593E170B84C24C8E5E565BFDF8FC7E300E6DE1564136513B39FA230F529F42980F26D524723A4D3F8F0011AF0BD2560B55A63B1D8DCC16211168BFCC60F2112895057209A3E05501852AEF9D9445287D16864329956DE02DBE8ECA714FA7C80C964522E9795B9D6C3039A4D44A3CA5CED6DEEEFEF
310
43A1D09B4B402F92CD6E7CF6D358B2923E0510044181F7AC28E2F616369BFA46FF2C240D521445466235B96C16FBFB1B7FF6BFB8DCA4717413E805C663A452F419FD8B20B39FC24D2A25A04F01388E5B391278199A4D54AB5A31FA6721E92F5293606E6E100E2B34FB692C5347A5026CAE1CDAC303AAD57BA3B1138FBFFD61
310
96658929E276BB37AA93FFCAF6100C06EFEEEE8E8F8F973CE5E606D1A872BB161E8F475F05DA38A22802906A042F312C9249ECEFE3D3A76583FA05412041198D4623BE8CC648C7EBF54E57F1BBDDEED1D1512E975B661F40149148E0EC4CD1403D75435456833E05188FC7B95C2E2AEBD2CC6080ABABB2C9542F1631DB82D5
310
6EB73B1C0EB3D93C2DBE208A6222911004C1E3F1188D467290E3B84824B2894CE55AAD46548BE3B8E5236D6A353C3EAAD069EFFAFA5AB3D9AA8BA04F0164A75E47B3891F7F3C00E617D7BBDD6EB7DBED743AC964F2F3E7CF64F647A3518EE36AB5DA68349A7EB2D168CCFEBA0896656D36DBEEEEAED3E9ACD7EB4F4F4FBD5E
310
6FF6C16932993C1E8FFBDFF51AAFD74BD2BE88E94FF6015EBFC4CD0D5C2E2DFA30DA843E05601866FAE85D9FBB3B582C0B4B763A1C0E87C301C0EFF79327F1C5C50589435E2D1D9134396EB55A8542C1ED76BB5CAE6030385BE37F381CD6EBF539838A6198BDBDBDBDBDBD6432797E7EBE68F052098D06CECF550B55D272B5
310
8E45D0A70046A371792FF01588D11F0A2DB54262369B9F8715AC00CBB23B3B3B3B8B9350CC6673201008FC37524714C54AA5128FC7FD7EFF8BCA4FD66D0F0E547EF09F9E9EEA4E301D3C3D2197C3D919A497D551018661F6F7F717C53FE772180E759B674568F8FEFF0BCFF39D4EC7B546DDA9721983C17B9831A4E140380C
310
87436D510000F57A5D46EB5419E80B85E079BE5AADAE7CFADD1D0C06C86143A94C2A85761BB19856663F000D96AB7913FADE002B33992099C4F131F54101CD268A459C9E428DB488F7067D0AC071DCDE0A2DD58144021F3FCA2E8EA208021209ECEE6AD47E93A54E91C250A900EB3800F4F2F080765B85EDADE5F17ABDFA2A
310
D0C6D95028849621296981008241B5457915F2D5D085561F268B198FC7E9745A6D2994A352412E87586CB3F5D665614301511B853E05580D5184F24D2132994C3C1E5FB992A928E2E6060CA3A194B4F7077D26D0CA0402204F28964528244F5FC43739393949A7D3C7C7C70E89AB95DD2EF27935E31AB604FA14C0683446A4
310
B7DB65181C1E7E6B54CAF3281490CB7DFBD3E616464F4E4EFEF9E79F1F7EF821954A1D1D1D2D5FCD259B05CB6A74A9E7152E2F2F9F9E9ED496421AF42900C3306B7AC01C87D9BA2AD92CFAFD6F3FBBDDF0F9647BE8320C737A7A9A4C26CFCECEAEAEAE3E2EB10A4BA27A28DDAC58BF5CA9F2D0A7003CCF77BB5D1993C266EB
310
ACD5EB48A540C293595686447287C3E1F57AB3D9EC324A5BAFA356A3EFC13FA5D168ACD0B34C5D28131700CFF3954A654359911E0FA60547781E8F8F982E6C701C8E8F57E925E1F178AC56EB9BF64F32899D1D9C9D491E5F3B148B453D21E6FDC0710804BE9710E47964B35822E9E545BE9797786EDE90D0D46814B40592BD
310
07E853008EE364E98D25FDBAF2F4D29ABA1C763B7A3D88226C368ACD9E59F4500825E038CE4D7375BFA9CBD1ED221CC67BDAD1D643217424A09D30E66D86BE75ABF1789C4AA5D49642E705F4500825A031E26A4BA0F1ABA1D2042A954AA44F5E3018641866381C921C3183C140FCB06EB74B7AD6DA6C36E230D4EBF57EBF0F
310
C0E57291223FA5528954DAF1F97C269389E7F9694213E94239180C6AB51A0093C9440ABFB5DB6D62E3DAED7612925DAD5687C32100B7DB4D5AC4158B4552E6E4E0E080543224B5AC599625A9EEBD5EAFD16800309BCD24B1A1D56A9178A19D9D1DA7D309A052A990222B5EAF97749D98F6A0F6FBFD1CC78D46A34AA50280E3
310
385290F0E9E989D4A6B55AADA47674A3D120AD549D4E2749C32F97CB93C904C0DEDE9ED96C1645715ACF79EE4E1A8D469282DCE974DAEDF692779246E85300A3D1F8E9D3A7D9231CC7912F78BA1369341AC991698AAAD56A257B34D3230E8783CC545295846198B9620D0683811C99962D9996FD982EEADB6C36F2F3ECB0E4
310
4148842165203013BF3D956DBA6764369BC95FA7E3DB6C36F2F3F43353D9C8275FF997A7A7582C1622F9545ABBDD3EFB2FCF0EBBE84E9A4CA6B93B69B15816DD49BFDF2F4BF76225A14F011886218FC929068361EE88D96C9EAB5163B55AE79AABCE45A7B12CBBC2B0CF1B83CE4DA9E7C31A8DC6B9CC718BC532D75CC8FE2C
310
526F6E108EE3E68E984CA6B9BDB637FFE5D5EEE4F37F596A9C9FA6A0CF07D0D191115D0174B61A5D0174B61ACA7C80EBEB6BEAE20DB70ADD09DE20A150E8EBD7AF5FBF7E555B109DD7B8BCBC545B0409D0A4001F3F7E5C26A744476779741F4067ABF93F22B092251AE172190000000049454E44AE426082
  0
ENDSEC
  0
EOF
