  0
SECTION
  2
HEADER
  9
$ACADVER
  1
AC1032
  9
$ACADMAINTVER
 90
       55
  9
$DWGCODEPAGE
  3
ANSI_1252
  9
$LASTSAVEDBY
  1
rh1972
  9
$REQUIREDVERSIONS
160
                 0
  9
$INSBASE
 10
0.0
 20
0.0
 30
0.0
  9
$EXTMIN
 10
0.0
 20
0.0
 30
0.0
  9
$EXTMAX
 10
0.0
 20
0.0
 30
0.0
  9
$LIMMIN
 10
0.0
 20
0.0
  9
$LIMMAX
 10
0.0
 20
0.0
  9
$ORTHOMODE
 70
     0
  9
$REGENMODE
 70
     1
  9
$FILLMODE
 70
     1
  9
$QTEXTMODE
 70
     0
  9
$MIRRTEXT
 70
     1
  9
$LTSCALE
 40
0.1
  9
$ATTMODE
 70
     1
  9
$TEXTSIZE
 40
0.2
  9
$TRACEWID
 40
0.05
  9
$TEXTSTYLE
  7
Standard
  9
$CLAYER
  8
0
  9
$CELTYPE
  6
ByLayer
  9
$CECOLOR
 62
     0
  9
$CELTSCALE
 40
1.0
  9
$DISPSILH
 70
     0
  9
$DIMSCALE
 40
1.0
  9
$DIMASZ
 40
0.18
  9
$DIMEXO
 40
0.0625
  9
$DIMDLI
 40
0.38
  9
$DIMRND
 40
0.0
  9
$DIMDLE
 40
0.0
  9
$DIMEXE
 40
0.18
  9
$DIMTP
 40
0.0
  9
$DIMTM
 40
0.0
  9
$DIMTXT
 40
0.18
  9
$DIMCEN
 40
0.09
  9
$DIMTSZ
 40
0.0
  9
$DIMTOL
 70
     0
  9
$DIMLIM
 70
     0
  9
$DIMTIH
 70
     1
  9
$DIMTOH
 70
     1
  9
$DIMSE1
 70
     0
  9
$DIMSE2
 70
     0
  9
$DIMTAD
 70
     0
  9
$DIMZIN
 70
     0
  9
$DIMBLK
  1

  9
$DIMASO
 70
     1
  9
$DIMSHO
 70
     1
  9
$DIMPOST
  1

  9
$DIMAPOST
  1

  9
$DIMALT
 70
     0
  9
$DIMALTD
 70
     2
  9
$DIMALTF
 40
25.4
  9
$DIMLFAC
 40
1.0
  9
$DIMTOFL
 70
     0
  9
$DIMTVP
 40
0.0
  9
$DIMTIX
 70
     0
  9
$DIMSOXD
 70
     0
  9
$DIMSAH
 70
     0
  9
$DIMBLK1
  1

  9
$DIMBLK2
  1

  9
$DIMSTYLE
  2
ISO-25
  9
$DIMCLRD
 70
     0
  9
$DIMCLRE
 70
     0
  9
$DIMCLRT
 70
     0
  9
$DIMTFAC
 40
1.0
  9
$DIMGAP
 40
0.09
  9
$DIMJUST
 70
     0
  9
$DIMSD1
 70
     0
  9
$DIMSD2
 70
     0
  9
$DIMTOLJ
 70
     1
  9
$DIMTZIN
 70
     0
  9
$DIMALTZ
 70
     0
  9
$DIMALTTZ
 70
     0
  9
$DIMUPT
 70
     0
  9
$DIMDEC
 70
     3
  9
$DIMTDEC
 70
     3
  9
$DIMALTU
 70
     2
  9
$DIMALTTD
 70
     2
  9
$DIMTXSTY
  7
Standard
  9
$DIMAUNIT
 70
     0
  9
$DIMADEC
 70
     0
  9
$DIMALTRND
 40
0.0
  9
$DIMAZIN
 70
     0
  9
$DIMDSEP
 70
    46
  9
$DIMATFIT
 70
     3
  9
$DIMFRAC
 70
     0
  9
$DIMLDRBLK
  1

  9
$DIMLUNIT
 70
     2
  9
$DIMLWD
 70
    -2
  9
$DIMLWE
 70
    -2
  9
$DIMTMOVE
 70
     2
  9
$DIMFXL
 40
1.0
  9
$DIMFXLON
 70
     0
  9
$DIMJOGANG
 40
0.7853981633974483
  9
$DIMTFILL
 70
     0
  9
$DIMTFILLCLR
 70
     0
  9
$DIMARCSYM
 70
     0
  9
$DIMLTYPE
  6

  9
$DIMLTEX1
  6

  9
$DIMLTEX2
  6

  9
$DIMTXTDIRECTION
 70
     0
  9
$LUNITS
 70
     2
  9
$LUPREC
 70
     3
  9
$SKETCHINC
 40
0.1
  9
$FILLETRAD
 40
0.0
  9
$AUNITS
 70
     0
  9
$AUPREC
 70
     4
  9
$MENU
  1
.
  9
$ELEVATION
 40
0.0
  9
$PELEVATION
 40
0.0
  9
$THICKNESS
 40
0.0
  9
$LIMCHECK
 70
     0
  9
$CHAMFERA
 40
0.0
  9
$CHAMFERB
 40
0.0
  9
$CHAMFERC
 40
0.0
  9
$CHAMFERD
 40
0.0
  9
$SKPOLY
 70
     0
  9
$TDCREATE
 40
2459996.548591655
  9
$TDUCREATE
 40
2459996.548591655
  9
$TDUPDATE
 40
2459996.548592026
  9
$TDUUPDATE
 40
2459996.548592026
  9
$TDINDWG
 40
0.0000000116
  9
$TDUSRTIMER
 40
0.0000000116
  9
$USRTIMER
 70
     1
  9
$ANGBASE
 50
0.0
  9
$ANGDIR
 70
     0
  9
$PDMODE
 70
     2
  9
$PDSIZE
 40
0.1
  9
$PLINEWID
 40
0.0
  9
$SPLFRAME
 70
     0
  9
$SPLINETYPE
 70
     6
  9
$SPLINESEGS
 70
     8
  9
$HANDSEED
  5
377
  9
$SURFTAB1
 70
     6
  9
$SURFTAB2
 70
     6
  9
$SURFTYPE
 70
     6
  9
$SURFU
 70
     6
  9
$SURFV
 70
     6
  9
$UCSBASE
  2

  9
$UCSNAME
  2

  9
$UCSORG
 10
0.0
 20
0.0
 30
0.0
  9
$UCSXDIR
 10
1.0
 20
0.0
 30
0.0
  9
$UCSYDIR
 10
0.0
 20
1.0
 30
0.0
  9
$UCSORTHOREF
  2

  9
$UCSORTHOVIEW
 70
     0
  9
$UCSORGTOP
 10
0.0
 20
0.0
 30
0.0
  9
$UCSORGBOTTOM
 10
0.0
 20
0.0
 30
0.0
  9
$UCSORGLEFT
 10
0.0
 20
0.0
 30
0.0
  9
$UCSORGRIGHT
 10
0.0
 20
0.0
 30
0.0
  9
$UCSORGFRONT
 10
0.0
 20
0.0
 30
0.0
  9
$UCSORGBACK
 10
0.0
 20
0.0
 30
0.0
  9
$PUCSBASE
  2

  9
$PUCSNAME
  2

  9
$PUCSORG
 10
0.0
 20
0.0
 30
0.0
  9
$PUCSXDIR
 10
1.0
 20
0.0
 30
0.0
  9
$PUCSYDIR
 10
0.0
 20
1.0
 30
0.0
  9
$PUCSORTHOREF
  2

  9
$PUCSORTHOVIEW
 70
     0
  9
$PUCSORGTOP
 10
0.0
 20
0.0
 30
0.0
  9
$PUCSORGBOTTOM
 10
0.0
 20
0.0
 30
0.0
  9
$PUCSORGLEFT
 10
0.0
 20
0.0
 30
0.0
  9
$PUCSORGRIGHT
 10
0.0
 20
0.0
 30
0.0
  9
$PUCSORGFRONT
 10
0.0
 20
0.0
 30
0.0
  9
$PUCSORGBACK
 10
0.0
 20
0.0
 30
0.0
  9
$USERI1
 70
     0
  9
$USERI2
 70
     0
  9
$USERI3
 70
     0
  9
$USERI4
 70
     0
  9
$USERI5
 70
     0
  9
$USERR1
 40
0.0
  9
$USERR2
 40
0.0
  9
$USERR3
 40
0.0
  9
$USERR4
 40
0.0
  9
$USERR5
 40
0.0
  9
$WORLDVIEW
 70
     1
  9
$SHADEDGE
 70
     3
  9
$SHADEDIF
 70
    70
  9
$TILEMODE
 70
     1
  9
$MAXACTVP
 70
    64
  9
$PINSBASE
 10
0.0
 20
0.0
 30
0.0
  9
$PLIMCHECK
 70
     0
  9
$PEXTMIN
 10
1.000000000000000E+20
 20
1.000000000000000E+20
 30
1.000000000000000E+20
  9
$PEXTMAX
 10
-1.000000000000000E+20
 20
-1.000000000000000E+20
 30
-1.000000000000000E+20
  9
$PLIMMIN
 10
0.0
 20
0.0
  9
$PLIMMAX
 10
12.0
 20
9.0
  9
$UNITMODE
 70
     0
  9
$VISRETAIN
 70
     1
  9
$PLINEGEN
 70
     1
  9
$PSLTSCALE
 70
     1
  9
$TREEDEPTH
 70
  3020
  9
$CMLSTYLE
  2
Standard
  9
$CMLJUST
 70
     0
  9
$CMLSCALE
 40
1.0
  9
$PROXYGRAPHICS
 70
     1
  9
$MEASUREMENT
 70
     1
  9
$CELWEIGHT
370
    -1
  9
$ENDCAPS
280
     0
  9
$JOINSTYLE
280
     0
  9
$LWDISPLAY
290
     0
  9
$INSUNITS
 70
     0
  9
$HYPERLINKBASE
  1

  9
$STYLESHEET
  1

  9
$XEDIT
290
     1
  9
$CEPSNTYPE
380
     0
  9
$PSTYLEMODE
290
     1
  9
$FINGERPRINTGUID
  2
{bc52e5c1-a9db-4e87-9813-e9fe4904c09b}
  9
$VERSIONGUID
  2
{FAEB1C32-E019-11D5-929B-00C0DF256EC4}
  9
$EXTNAMES
290
     1
  9
$PSVPSCALE
 40
0.0
  9
$OLESTARTUP
290
     0
  9
$SORTENTS
280
   127
  9
$INDEXCTL
280
     0
  9
$HIDETEXT
280
     1
  9
$XCLIPFRAME
280
     2
  9
$HALOGAP
280
     0
  9
$OBSCOLOR
 70
   257
  9
$OBSLTYPE
280
     0
  9
$INTERSECTIONDISPLAY
280
     0
  9
$INTERSECTIONCOLOR
 70
   257
  9
$DIMASSOC
280
     2
  9
$PROJECTNAME
  1

  9
$CAMERADISPLAY
290
     0
  9
$LENSLENGTH
 40
50.0
  9
$CAMERAHEIGHT
 40
0.0
  9
$STEPSPERSEC
 40
2.0
  9
$STEPSIZE
 40
6.0
  9
$3DDWFPREC
 40
2.0
  9
$PSOLWIDTH
 40
0.25
  9
$PSOLHEIGHT
 40
4.0
  9
$LOFTANG1
 40
1.570796326794897
  9
$LOFTANG2
 40
1.570796326794897
  9
$LOFTMAG1
 40
0.0
  9
$LOFTMAG2
 40
0.0
  9
$LOFTPARAM
 70
     7
  9
$LOFTNORMALS
280
     1
  9
$LATITUDE
 40
37.795
  9
$LONGITUDE
 40
-122.394
  9
$NORTHDIRECTION
 40
0.0
  9
$TIMEZONE
 70
 -8000
  9
$LIGHTGLYPHDISPLAY
280
     1
  9
$TILEMODELIGHTSYNCH
280
     1
  9
$CMATERIAL
347
366
  9
$SOLIDHIST
280
     0
  9
$SHOWHIST
280
     1
  9
$DWFFRAME
280
     2
  9
$DGNFRAME
280
     2
  9
$REALWORLDSCALE
290
     1
  9
$INTERFERECOLOR
 62
   256
  9
$CSHADOW
280
     0
  9
$SHADOWPLANELOCATION
 40
0.0
  0
ENDSEC
  0
SECTION
  2
CLASSES
  0
CLASS
  1
ACDBDICTIONARYWDFLT
  2
AcDbDictionaryWithDefault
  3
ObjectDBX Classes
 90
        0
 91
        3
280
     0
281
     0
  0
CLASS
  1
SCALE
  2
AcDbScale
  3
ObjectDBX Classes
 90
     1153
 91
        3
280
     0
281
     0
  0
CLASS
  1
VISUALSTYLE
  2
AcDbVisualStyle
  3
ObjectDBX Classes
 90
     4095
 91
        3
280
     0
281
     0
  0
CLASS
  1
MATERIAL
  2
AcDbMaterial
  3
ObjectDBX Classes
 90
     1153
 91
        3
280
     0
281
     0
  0
CLASS
  1
TABLESTYLE
  2
AcDbTableStyle
  3
ObjectDBX Classes
 90
     4095
 91
        3
280
     0
281
     0
  0
CLASS
  1
MLEADERSTYLE
  2
AcDbMLeaderStyle
  3
ACDB_MLEADERSTYLE_CLASS
 90
     4095
 91
        3
280
     0
281
     0
  0
CLASS
  1
DICTIONARYVAR
  2
AcDbDictionaryVar
  3
ObjectDBX Classes
 90
        0
 91
        3
280
     0
281
     0
  0
CLASS
  1
CELLSTYLEMAP
  2
AcDbCellStyleMap
  3
ObjectDBX Classes
 90
     1152
 91
        3
280
     0
281
     0
  0
ENDSEC
  0
SECTION
  2
TABLES
  0
TABLE
  2
VPORT
  5
8
330
0
100
AcDbSymbolTable
 70
     1
  0
VPORT
  5
27
330
8
100
AcDbSymbolTableRecord
100
AcDbViewportTableRecord
  2
*Active
 70
     0
 10
0.0
 20
0.0
 11
1.0
 21
1.0
 12
344.1869158878504
 22
148.5
 13
0.0
 23
0.0
 14
10.0
 24
10.0
 15
10.0
 25
10.0
 16
0.0
 26
0.0
 36
1.0
 17
0.0
 27
0.0
 37
0.0
 40
297.0
 41
1.972972972850329
 42
50.0
 43
0.0
 44
0.0
 50
0.0
 51
0.0
 71
     0
 72
   100
 73
     1
 74
     3
 75
     0
 76
     0
 77
     0
 78
     0
281
     0
 65
     1
110
0.0
120
0.0
130
0.0
111
1.0
121
0.0
131
0.0
112
0.0
122
1.0
132
0.0
 79
     0
146
0.0
348
351
 60
     3
 61
     5
292
     1
282
     1
141
0.0
142
0.0
 63
   250
  0
ENDTAB
  0
TABLE
  2
LTYPE
  5
5
330
0
100
AcDbSymbolTable
 70
     6
  0
LTYPE
  5
14
330
5
100
AcDbSymbolTableRecord
100
AcDbLinetypeTableRecord
  2
ByBlock
 70
     0
  3

 72
    65
 73
     0
 40
0.0
  0
LTYPE
  5
15
330
5
100
AcDbSymbolTableRecord
100
AcDbLinetypeTableRecord
  2
ByLayer
 70
     0
  3

 72
    65
 73
     0
 40
0.0
  0
LTYPE
  5
16
330
5
100
AcDbSymbolTableRecord
100
AcDbLinetypeTableRecord
  2
Continuous
 70
     0
  3
Solid line
 72
    65
 73
     0
 40
0.0
  0
LTYPE
  5
20
330
5
100
AcDbSymbolTableRecord
100
AcDbLinetypeTableRecord
  2
Solid_Line
 70
     0
  3
Solid Line
 72
    65
 73
     0
 40
0.0
  0
LTYPE
  5
21
330
5
100
AcDbSymbolTableRecord
100
AcDbLinetypeTableRecord
  2
Dashed_Line
 70
     0
  3
Dashed Line
 72
    65
 73
     2
 40
0.75
 49
0.5
 74
     0
 49
-0.25
 74
     0
  0
LTYPE
  5
22
330
5
100
AcDbSymbolTableRecord
100
AcDbLinetypeTableRecord
  2
Dotted_Line
 70
     0
  3
Dotted Line
 72
    65
 73
     2
 40
0.25
 49
0.0
 74
     0
 49
-0.25
 74
     0
  0
LTYPE
  5
23
330
5
100
AcDbSymbolTableRecord
100
AcDbLinetypeTableRecord
  2
DashDot_Line
 70
     0
  3
DashDot Line
 72
    65
 73
     4
 40
18.0
 49
12.0
 74
     0
 49
-3.0
 74
     0
 49
0.0
 74
     0
 49
-3.0
 74
     0
  0
LTYPE
  5
24
330
5
100
AcDbSymbolTableRecord
100
AcDbLinetypeTableRecord
  2
DashDotDot_Line
 70
     0
  3
DashDotDot Line
 72
    65
 73
     6
 40
21.0
 49
12.0
 74
     0
 49
-3.0
 74
     0
 49
0.0
 74
     0
 49
-3.0
 74
     0
 49
0.0
 74
     0
 49
-3.0
 74
     0
  0
ENDTAB
  0
TABLE
  2
LAYER
  5
2
330
0
100
AcDbSymbolTable
 70
     5
  0
LAYER
  5
10
330
2
100
AcDbSymbolTableRecord
100
AcDbLayerTableRecord
  2
0
 70
     0
 62
     7
  6
Continuous
370
    -3
390
F
347
368
348
0
  0
LAYER
  5
332
330
2
100
AcDbSymbolTableRecord
100
AcDbLayerTableRecord
  2
Point_Code
 70
     0
 62
     7
  6
Continuous
370
    -3
390
F
347
368
348
0
  0
LAYER
  5
333
330
2
100
AcDbSymbolTableRecord
100
AcDbLayerTableRecord
  2
Height
 70
     0
 62
     7
  6
Continuous
370
    -3
390
F
347
368
348
0
  0
LAYER
  5
334
330
2
100
AcDbSymbolTableRecord
100
AcDbLayerTableRecord
  2
Point_ID
 70
     0
 62
     7
  6
Continuous
370
    -3
390
F
347
368
348
0
  0
LAYER
  5
335
330
2
100
AcDbSymbolTableRecord
100
AcDbLayerTableRecord
  2
Attribute
 70
     0
 62
     7
  6
Continuous
370
    -3
390
F
347
368
348
0
  0
ENDTAB
  0
TABLE
  2
STYLE
  5
3
330
0
100
AcDbSymbolTable
 70
     1
  0
STYLE
  5
11
330
3
100
AcDbSymbolTableRecord
100
AcDbTextStyleTableRecord
  2
Standard
 70
     0
 40
0.0
 41
1.0
 50
0.0
 71
     0
 42
0.2
  3
txt
  4

  0
ENDTAB
  0
TABLE
  2
VIEW
  5
6
330
0
100
AcDbSymbolTable
 70
     0
  0
ENDTAB
  0
TABLE
  2
UCS
  5
7
330
0
100
AcDbSymbolTable
 70
     0
  0
ENDTAB
  0
TABLE
  2
APPID
  5
9
330
0
100
AcDbSymbolTable
 70
     2
  0
APPID
  5
12
330
9
100
AcDbSymbolTableRecord
100
AcDbRegAppTableRecord
  2
ACAD
 70
     0
  0
APPID
  5
25
330
9
100
AcDbSymbolTableRecord
100
AcDbRegAppTableRecord
  2
PE_URL
 70
     0
  0
ENDTAB
  0
TABLE
  2
DIMSTYLE
  5
A
330
0
100
AcDbSymbolTable
 70
     1
100
AcDbDimStyleTable
  0
DIMSTYLE
105
26
330
A
100
AcDbSymbolTableRecord
100
AcDbDimStyleTableRecord
  2
ISO-25
 70
     0
 41
2.5
 42
0.625
 43
3.75
 44
1.25
 73
     0
 74
     0
 77
     1
 78
     8
140
2.5
141
2.5
143
0.03937007874016
147
0.625
171
     3
172
     1
178
     0
271
     2
272
     2
274
     3
278
    44
283
     0
284
     8
340
11
  0
ENDTAB
  0
TABLE
  2
BLOCK_RECORD
  5
1
330
0
100
AcDbSymbolTable
 70
     0
  0
BLOCK_RECORD
  5
1D
330
1
100
AcDbSymbolTableRecord
100
AcDbBlockTableRecord
  2
*Model_Space
340
1E
 70
     0
280
     1
281
     0
  0
BLOCK_RECORD
  5
1B
330
1
100
AcDbSymbolTableRecord
100
AcDbBlockTableRecord
  2
*Paper_Space
340
1C
 70
     0
280
     1
281
     0
  0
ENDTAB
  0
ENDSEC
  0
SECTION
  2
BLOCKS
  0
BLOCK
  5
348
330
1D
100
AcDbEntity
  8
0
100
AcDbBlockBegin
  2
*Model_Space
 70
     0
 10
0.0
 20
0.0
 30
0.0
  3
*Model_Space
  1

  0
ENDBLK
  5
349
330
1D
100
AcDbEntity
  8
0
100
AcDbBlockEnd
  0
BLOCK
  5
34A
330
1B
100
AcDbEntity
 67
     1
  8
0
100
AcDbBlockBegin
  2
*Paper_Space
 70
     0
 10
0.0
 20
0.0
 30
0.0
  3
*Paper_Space
  1

  0
ENDBLK
  5
34B
330
1B
100
AcDbEntity
 67
     1
  8
0
100
AcDbBlockEnd
  0
ENDSEC
  0
SECTION
  2
ENTITIES
  0
POINT
  5
28
330
1D
100
AcDbEntity
  8
0
  6
Solid_Line
 62
     0
100
AcDbPoint
 10
422968.68
 20
545679.138
 30
92.611
  0
TEXT
  5
29
330
1D
100
AcDbEntity
  8
Point_ID
  6
Solid_Line
 62
     1
100
AcDbText
 10
422968.7800000001
 20
545679.238
 30
92.611
 40
0.3
  1
108.6
100
AcDbText
  0
TEXT
  5
2A
330
1D
100
AcDbEntity
  8
Height
  6
Solid_Line
 62
     4
100
AcDbText
 10
422968.58
 20
545679.038
 30
92.611
 40
0.3
  1
92.611
 72
     2
 11
422968.58
 21
545679.038
 31
92.611
100
AcDbText
 73
     3
  0
TEXT
  5
2B
330
1D
100
AcDbEntity
  8
Point_Code
  6
Solid_Line
 62
     5
100
AcDbText
 10
422968.7800000001
 20
545679.038
 30
92.611
 40
0.3
  1
WA
 11
422968.7800000001
 21
545679.038
 31
92.611
100
AcDbText
 73
     3
  0
TEXT
  5
2C
330
1D
100
AcDbEntity
  8
Attribute
  6
Solid_Line
 62
     5
100
AcDbText
 10
422968.7800000001
 20
545678.538
 30
92.611
 40
0.3
  1
6
 11
422968.7800000001
 21
545678.538
 31
92.611
100
AcDbText
 73
     3
  0
POINT
  5
2D
330
1D
100
AcDbEntity
  8
0
  6
Solid_Line
 62
     0
100
AcDbPoint
 10
422968.593
 20
545680.007
 30
92.687
  0
TEXT
  5
2E
330
1D
100
AcDbEntity
  8
Point_ID
  6
Solid_Line
 62
     1
100
AcDbText
 10
422968.6930000001
 20
545680.107
 30
92.687
 40
0.3
  1
108.5
100
AcDbText
  0
TEXT
  5
2F
330
1D
100
AcDbEntity
  8
Height
  6
Solid_Line
 62
     4
100
AcDbText
 10
422968.493
 20
545679.907
 30
92.687
 40
0.3
  1
92.687
 72
     2
 11
422968.493
 21
545679.907
 31
92.687
100
AcDbText
 73
     3
  0
TEXT
  5
30
330
1D
100
AcDbEntity
  8
Point_Code
  6
Solid_Line
 62
     5
100
AcDbText
 10
422968.6930000001
 20
545679.907
 30
92.687
 40
0.3
  1
WA
 11
422968.6930000001
 21
545679.907
 31
92.687
100
AcDbText
 73
     3
  0
TEXT
  5
31
330
1D
100
AcDbEntity
  8
Attribute
  6
Solid_Line
 62
     5
100
AcDbText
 10
422968.6930000001
 20
545679.407
 30
92.687
 40
0.3
  1
5
 11
422968.6930000001
 21
545679.407
 31
92.687
100
AcDbText
 73
     3
  0
POINT
  5
32
330
1D
100
AcDbEntity
  8
0
  6
Solid_Line
 62
     0
100
AcDbPoint
 10
422968.5410000001
 20
545681.042
 30
92.692
  0
TEXT
  5
33
330
1D
100
AcDbEntity
  8
Point_ID
  6
Solid_Line
 62
     1
100
AcDbText
 10
422968.641
 20
545681.142
 30
92.692
 40
0.3
  1
108.4
100
AcDbText
  0
TEXT
  5
34
330
1D
100
AcDbEntity
  8
Height
  6
Solid_Line
 62
     4
100
AcDbText
 10
422968.441
 20
545680.942
 30
92.692
 40
0.3
  1
92.692
 72
     2
 11
422968.441
 21
545680.942
 31
92.692
100
AcDbText
 73
     3
  0
TEXT
  5
35
330
1D
100
AcDbEntity
  8
Point_Code
  6
Solid_Line
 62
     5
100
AcDbText
 10
422968.641
 20
545680.942
 30
92.692
 40
0.3
  1
WA
 11
422968.641
 21
545680.942
 31
92.692
100
AcDbText
 73
     3
  0
TEXT
  5
36
330
1D
100
AcDbEntity
  8
Attribute
  6
Solid_Line
 62
     5
100
AcDbText
 10
422968.641
 20
545680.442
 30
92.692
 40
0.3
  1
4
 11
422968.641
 21
545680.442
 31
92.692
100
AcDbText
 73
     3
  0
POINT
  5
37
330
1D
100
AcDbEntity
  8
0
  6
Solid_Line
 62
     0
100
AcDbPoint
 10
422969.491
 20
545681.052
 30
92.904
  0
TEXT
  5
38
330
1D
100
AcDbEntity
  8
Point_ID
  6
Solid_Line
 62
     1
100
AcDbText
 10
422969.591
 20
545681.152
 30
92.904
 40
0.3
  1
108.3
100
AcDbText
  0
TEXT
  5
39
330
1D
100
AcDbEntity
  8
Height
  6
Solid_Line
 62
     4
100
AcDbText
 10
422969.391
 20
545680.952
 30
92.904
 40
0.3
  1
92.904
 72
     2
 11
422969.391
 21
545680.952
 31
92.904
100
AcDbText
 73
     3
  0
TEXT
  5
3A
330
1D
100
AcDbEntity
  8
Point_Code
  6
Solid_Line
 62
     5
100
AcDbText
 10
422969.591
 20
545680.952
 30
92.904
 40
0.3
  1
WA
 11
422969.591
 21
545680.952
 31
92.904
100
AcDbText
 73
     3
  0
TEXT
  5
3B
330
1D
100
AcDbEntity
  8
Attribute
  6
Solid_Line
 62
     5
100
AcDbText
 10
422969.591
 20
545680.452
 30
92.904
 40
0.3
  1
3
 11
422969.591
 21
545680.452
 31
92.904
100
AcDbText
 73
     3
  0
POINT
  5
3C
330
1D
100
AcDbEntity
  8
0
  6
Solid_Line
 62
     0
100
AcDbPoint
 10
422969.63
 20
545680.083
 30
92.781
  0
TEXT
  5
3D
330
1D
100
AcDbEntity
  8
Point_ID
  6
Solid_Line
 62
     1
100
AcDbText
 10
422969.73
 20
545680.183
 30
92.781
 40
0.3
  1
108.2
100
AcDbText
  0
TEXT
  5
3E
330
1D
100
AcDbEntity
  8
Height
  6
Solid_Line
 62
     4
100
AcDbText
 10
422969.5300000001
 20
545679.983
 30
92.781
 40
0.3
  1
92.781
 72
     2
 11
422969.5300000001
 21
545679.983
 31
92.781
100
AcDbText
 73
     3
  0
TEXT
  5
3F
330
1D
100
AcDbEntity
  8
Point_Code
  6
Solid_Line
 62
     5
100
AcDbText
 10
422969.73
 20
545679.983
 30
92.781
 40
0.3
  1
WA
 11
422969.73
 21
545679.983
 31
92.781
100
AcDbText
 73
     3
  0
TEXT
  5
40
330
1D
100
AcDbEntity
  8
Attribute
  6
Solid_Line
 62
     5
100
AcDbText
 10
422969.73
 20
545679.483
 30
92.781
 40
0.3
  1
2
 11
422969.73
 21
545679.483
 31
92.781
100
AcDbText
 73
     3
  0
POINT
  5
41
330
1D
100
AcDbEntity
  8
0
  6
Solid_Line
 62
     0
100
AcDbPoint
 10
422969.705
 20
545679.178
 30
92.787
  0
TEXT
  5
42
330
1D
100
AcDbEntity
  8
Point_ID
  6
Solid_Line
 62
     1
100
AcDbText
 10
422969.805
 20
545679.278
 30
92.787
 40
0.3
  1
108.1
100
AcDbText
  0
TEXT
  5
43
330
1D
100
AcDbEntity
  8
Height
  6
Solid_Line
 62
     4
100
AcDbText
 10
422969.605
 20
545679.078
 30
92.787
 40
0.3
  1
92.787
 72
     2
 11
422969.605
 21
545679.078
 31
92.787
100
AcDbText
 73
     3
  0
TEXT
  5
44
330
1D
100
AcDbEntity
  8
Point_Code
  6
Solid_Line
 62
     5
100
AcDbText
 10
422969.805
 20
545679.078
 30
92.787
 40
0.3
  1
WA
 11
422969.805
 21
545679.078
 31
92.787
100
AcDbText
 73
     3
  0
TEXT
  5
45
330
1D
100
AcDbEntity
  8
Attribute
  6
Solid_Line
 62
     5
100
AcDbText
 10
422969.805
 20
545678.578
 30
92.787
 40
0.3
  1
1
 11
422969.805
 21
545678.578
 31
92.787
100
AcDbText
 73
     3
  0
POINT
  5
46
330
1D
100
AcDbEntity
  8
0
  6
Solid_Line
 62
     0
100
AcDbPoint
 10
422975.381
 20
545679.447
 30
92.841
  0
TEXT
  5
47
330
1D
100
AcDbEntity
  8
Point_ID
  6
Solid_Line
 62
     1
100
AcDbText
 10
422975.4810000001
 20
545679.547
 30
92.841
 40
0.3
  1
107.6
100
AcDbText
  0
TEXT
  5
48
330
1D
100
AcDbEntity
  8
Height
  6
Solid_Line
 62
     4
100
AcDbText
 10
422975.281
 20
545679.347
 30
92.841
 40
0.3
  1
92.841
 72
     2
 11
422975.281
 21
545679.347
 31
92.841
100
AcDbText
 73
     3
  0
TEXT
  5
49
330
1D
100
AcDbEntity
  8
Point_Code
  6
Solid_Line
 62
     5
100
AcDbText
 10
422975.4810000001
 20
545679.347
 30
92.841
 40
0.3
  1
WA
 11
422975.4810000001
 21
545679.347
 31
92.841
100
AcDbText
 73
     3
  0
TEXT
  5
4A
330
1D
100
AcDbEntity
  8
Attribute
  6
Solid_Line
 62
     5
100
AcDbText
 10
422975.4810000001
 20
545678.847
 30
92.841
 40
0.3
  1
6
 11
422975.4810000001
 21
545678.847
 31
92.841
100
AcDbText
 73
     3
  0
POINT
  5
4B
330
1D
100
AcDbEntity
  8
0
  6
Solid_Line
 62
     0
100
AcDbPoint
 10
422975.272
 20
545680.25
 30
92.778
  0
TEXT
  5
4C
330
1D
100
AcDbEntity
  8
Point_ID
  6
Solid_Line
 62
     1
100
AcDbText
 10
422975.372
 20
545680.35
 30
92.778
 40
0.3
  1
107.5
100
AcDbText
  0
TEXT
  5
4D
330
1D
100
AcDbEntity
  8
Height
  6
Solid_Line
 62
     4
100
AcDbText
 10
422975.172
 20
545680.15
 30
92.778
 40
0.3
  1
92.778
 72
     2
 11
422975.172
 21
545680.15
 31
92.778
100
AcDbText
 73
     3
  0
TEXT
  5
4E
330
1D
100
AcDbEntity
  8
Point_Code
  6
Solid_Line
 62
     5
100
AcDbText
 10
422975.372
 20
545680.15
 30
92.778
 40
0.3
  1
WA
 11
422975.372
 21
545680.15
 31
92.778
100
AcDbText
 73
     3
  0
TEXT
  5
4F
330
1D
100
AcDbEntity
  8
Attribute
  6
Solid_Line
 62
     5
100
AcDbText
 10
422975.372
 20
545679.65
 30
92.778
 40
0.3
  1
5
 11
422975.372
 21
545679.65
 31
92.778
100
AcDbText
 73
     3
  0
POINT
  5
50
330
1D
100
AcDbEntity
  8
0
  6
Solid_Line
 62
     0
100
AcDbPoint
 10
422975.199
 20
545681.237
 30
92.883
  0
TEXT
  5
51
330
1D
100
AcDbEntity
  8
Point_ID
  6
Solid_Line
 62
     1
100
AcDbText
 10
422975.299
 20
545681.337
 30
92.883
 40
0.3
  1
107.4
100
AcDbText
  0
TEXT
  5
52
330
1D
100
AcDbEntity
  8
Height
  6
Solid_Line
 62
     4
100
AcDbText
 10
422975.099
 20
545681.137
 30
92.883
 40
0.3
  1
92.883
 72
     2
 11
422975.099
 21
545681.137
 31
92.883
100
AcDbText
 73
     3
  0
TEXT
  5
53
330
1D
100
AcDbEntity
  8
Point_Code
  6
Solid_Line
 62
     5
100
AcDbText
 10
422975.299
 20
545681.137
 30
92.883
 40
0.3
  1
WA
 11
422975.299
 21
545681.137
 31
92.883
100
AcDbText
 73
     3
  0
TEXT
  5
54
330
1D
100
AcDbEntity
  8
Attribute
  6
Solid_Line
 62
     5
100
AcDbText
 10
422975.299
 20
545680.637
 30
92.883
 40
0.3
  1
4
 11
422975.299
 21
545680.637
 31
92.883
100
AcDbText
 73
     3
  0
POINT
  5
55
330
1D
100
AcDbEntity
  8
0
  6
Solid_Line
 62
     0
100
AcDbPoint
 10
422975.8
 20
545681.221
 30
92.819
  0
TEXT
  5
56
330
1D
100
AcDbEntity
  8
Point_ID
  6
Solid_Line
 62
     1
100
AcDbText
 10
422975.9
 20
545681.321
 30
92.819
 40
0.3
  1
107.3
100
AcDbText
  0
TEXT
  5
57
330
1D
100
AcDbEntity
  8
Height
  6
Solid_Line
 62
     4
100
AcDbText
 10
422975.7
 20
545681.121
 30
92.819
 40
0.3
  1
92.819
 72
     2
 11
422975.7
 21
545681.121
 31
92.819
100
AcDbText
 73
     3
  0
TEXT
  5
58
330
1D
100
AcDbEntity
  8
Point_Code
  6
Solid_Line
 62
     5
100
AcDbText
 10
422975.9
 20
545681.121
 30
92.819
 40
0.3
  1
WA
 11
422975.9
 21
545681.121
 31
92.819
100
AcDbText
 73
     3
  0
TEXT
  5
59
330
1D
100
AcDbEntity
  8
Attribute
  6
Solid_Line
 62
     5
100
AcDbText
 10
422975.9
 20
545680.621
 30
92.819
 40
0.3
  1
3
 11
422975.9
 21
545680.621
 31
92.819
100
AcDbText
 73
     3
  0
POINT
  5
5A
330
1D
100
AcDbEntity
  8
0
  6
Solid_Line
 62
     0
100
AcDbPoint
 10
422975.906
 20
545680.265
 30
92.801
  0
TEXT
  5
5B
330
1D
100
AcDbEntity
  8
Point_ID
  6
Solid_Line
 62
     1
100
AcDbText
 10
422976.006
 20
545680.365
 30
92.801
 40
0.3
  1
107.2
100
AcDbText
  0
TEXT
  5
5C
330
1D
100
AcDbEntity
  8
Height
  6
Solid_Line
 62
     4
100
AcDbText
 10
422975.806
 20
545680.165
 30
92.801
 40
0.3
  1
92.801
 72
     2
 11
422975.806
 21
545680.165
 31
92.801
100
AcDbText
 73
     3
  0
TEXT
  5
5D
330
1D
100
AcDbEntity
  8
Point_Code
  6
Solid_Line
 62
     5
100
AcDbText
 10
422976.006
 20
545680.165
 30
92.801
 40
0.3
  1
WA
 11
422976.006
 21
545680.165
 31
92.801
100
AcDbText
 73
     3
  0
TEXT
  5
5E
330
1D
100
AcDbEntity
  8
Attribute
  6
Solid_Line
 62
     5
100
AcDbText
 10
422976.006
 20
545679.665
 30
92.801
 40
0.3
  1
2
 11
422976.006
 21
545679.665
 31
92.801
100
AcDbText
 73
     3
  0
POINT
  5
5F
330
1D
100
AcDbEntity
  8
0
  6
Solid_Line
 62
     0
100
AcDbPoint
 10
422975.979
 20
545679.439
 30
92.842
  0
TEXT
  5
60
330
1D
100
AcDbEntity
  8
Point_ID
  6
Solid_Line
 62
     1
100
AcDbText
 10
422976.0790000001
 20
545679.539
 30
92.842
 40
0.3
  1
107.1
100
AcDbText
  0
TEXT
  5
61
330
1D
100
AcDbEntity
  8
Height
  6
Solid_Line
 62
     4
100
AcDbText
 10
422975.879
 20
545679.339
 30
92.842
 40
0.3
  1
92.842
 72
     2
 11
422975.879
 21
545679.339
 31
92.842
100
AcDbText
 73
     3
  0
TEXT
  5
62
330
1D
100
AcDbEntity
  8
Point_Code
  6
Solid_Line
 62
     5
100
AcDbText
 10
422976.0790000001
 20
545679.339
 30
92.842
 40
0.3
  1
WA
 11
422976.0790000001
 21
545679.339
 31
92.842
100
AcDbText
 73
     3
  0
TEXT
  5
63
330
1D
100
AcDbEntity
  8
Attribute
  6
Solid_Line
 62
     5
100
AcDbText
 10
422976.0790000001
 20
545678.839
 30
92.842
 40
0.3
  1
1
 11
422976.0790000001
 21
545678.839
 31
92.842
100
AcDbText
 73
     3
  0
POINT
  5
64
330
1D
100
AcDbEntity
  8
0
  6
Solid_Line
 62
     0
100
AcDbPoint
 10
422982.895
 20
545679.566
 30
92.723
  0
TEXT
  5
65
330
1D
100
AcDbEntity
  8
Point_ID
  6
Solid_Line
 62
     1
100
AcDbText
 10
422982.995
 20
545679.666
 30
92.723
 40
0.3
  1
106.6
100
AcDbText
  0
TEXT
  5
66
330
1D
100
AcDbEntity
  8
Height
  6
Solid_Line
 62
     4
100
AcDbText
 10
422982.795
 20
545679.466
 30
92.723
 40
0.3
  1
92.723
 72
     2
 11
422982.795
 21
545679.466
 31
92.723
100
AcDbText
 73
     3
  0
TEXT
  5
67
330
1D
100
AcDbEntity
  8
Point_Code
  6
Solid_Line
 62
     5
100
AcDbText
 10
422982.995
 20
545679.466
 30
92.723
 40
0.3
  1
WA
 11
422982.995
 21
545679.466
 31
92.723
100
AcDbText
 73
     3
  0
TEXT
  5
68
330
1D
100
AcDbEntity
  8
Attribute
  6
Solid_Line
 62
     5
100
AcDbText
 10
422982.995
 20
545678.966
 30
92.723
 40
0.3
  1
6
 11
422982.995
 21
545678.966
 31
92.723
100
AcDbText
 73
     3
  0
POINT
  5
69
330
1D
100
AcDbEntity
  8
0
  6
Solid_Line
 62
     0
100
AcDbPoint
 10
422982.756
 20
545680.396
 30
92.676
  0
TEXT
  5
6A
330
1D
100
AcDbEntity
  8
Point_ID
  6
Solid_Line
 62
     1
100
AcDbText
 10
422982.8560000001
 20
545680.496
 30
92.676
 40
0.3
  1
106.5
100
AcDbText
  0
TEXT
  5
6B
330
1D
100
AcDbEntity
  8
Height
  6
Solid_Line
 62
     4
100
AcDbText
 10
422982.656
 20
545680.296
 30
92.676
 40
0.3
  1
92.676
 72
     2
 11
422982.656
 21
545680.296
 31
92.676
100
AcDbText
 73
     3
  0
TEXT
  5
6C
330
1D
100
AcDbEntity
  8
Point_Code
  6
Solid_Line
 62
     5
100
AcDbText
 10
422982.8560000001
 20
545680.296
 30
92.676
 40
0.3
  1
WA
 11
422982.8560000001
 21
545680.296
 31
92.676
100
AcDbText
 73
     3
  0
TEXT
  5
6D
330
1D
100
AcDbEntity
  8
Attribute
  6
Solid_Line
 62
     5
100
AcDbText
 10
422982.8560000001
 20
545679.796
 30
92.676
 40
0.3
  1
5
 11
422982.8560000001
 21
545679.796
 31
92.676
100
AcDbText
 73
     3
  0
POINT
  5
6E
330
1D
100
AcDbEntity
  8
0
  6
Solid_Line
 62
     0
100
AcDbPoint
 10
422982.638
 20
545681.307
 30
92.717
  0
TEXT
  5
6F
330
1D
100
AcDbEntity
  8
Point_ID
  6
Solid_Line
 62
     1
100
AcDbText
 10
422982.738
 20
545681.407
 30
92.717
 40
0.3
  1
106.4
100
AcDbText
  0
TEXT
  5
70
330
1D
100
AcDbEntity
  8
Height
  6
Solid_Line
 62
     4
100
AcDbText
 10
422982.538
 20
545681.207
 30
92.717
 40
0.3
  1
92.717
 72
     2
 11
422982.538
 21
545681.207
 31
92.717
100
AcDbText
 73
     3
  0
TEXT
  5
71
330
1D
100
AcDbEntity
  8
Point_Code
  6
Solid_Line
 62
     5
100
AcDbText
 10
422982.738
 20
545681.207
 30
92.717
 40
0.3
  1
WA
 11
422982.738
 21
545681.207
 31
92.717
100
AcDbText
 73
     3
  0
TEXT
  5
72
330
1D
100
AcDbEntity
  8
Attribute
  6
Solid_Line
 62
     5
100
AcDbText
 10
422982.738
 20
545680.707
 30
92.717
 40
0.3
  1
4
 11
422982.738
 21
545680.707
 31
92.717
100
AcDbText
 73
     3
  0
POINT
  5
73
330
1D
100
AcDbEntity
  8
0
  6
Solid_Line
 62
     0
100
AcDbPoint
 10
422983.1280000001
 20
545681.341
 30
92.796
  0
TEXT
  5
74
330
1D
100
AcDbEntity
  8
Point_ID
  6
Solid_Line
 62
     1
100
AcDbText
 10
422983.228
 20
545681.441
 30
92.796
 40
0.3
  1
106.3
100
AcDbText
  0
TEXT
  5
75
330
1D
100
AcDbEntity
  8
Height
  6
Solid_Line
 62
     4
100
AcDbText
 10
422983.028
 20
545681.241
 30
92.796
 40
0.3
  1
92.796
 72
     2
 11
422983.028
 21
545681.241
 31
92.796
100
AcDbText
 73
     3
  0
TEXT
  5
76
330
1D
100
AcDbEntity
  8
Point_Code
  6
Solid_Line
 62
     5
100
AcDbText
 10
422983.228
 20
545681.241
 30
92.796
 40
0.3
  1
WA
 11
422983.228
 21
545681.241
 31
92.796
100
AcDbText
 73
     3
  0
TEXT
  5
77
330
1D
100
AcDbEntity
  8
Attribute
  6
Solid_Line
 62
     5
100
AcDbText
 10
422983.228
 20
545680.741
 30
92.796
 40
0.3
  1
3
 11
422983.228
 21
545680.741
 31
92.796
100
AcDbText
 73
     3
  0
POINT
  5
78
330
1D
100
AcDbEntity
  8
0
  6
Solid_Line
 62
     0
100
AcDbPoint
 10
422983.191
 20
545680.321
 30
92.74
  0
TEXT
  5
79
330
1D
100
AcDbEntity
  8
Point_ID
  6
Solid_Line
 62
     1
100
AcDbText
 10
422983.2910000001
 20
545680.421
 30
92.74
 40
0.3
  1
106.2
100
AcDbText
  0
TEXT
  5
7A
330
1D
100
AcDbEntity
  8
Height
  6
Solid_Line
 62
     4
100
AcDbText
 10
422983.091
 20
545680.221
 30
92.74
 40
0.3
  1
92.740
 72
     2
 11
422983.091
 21
545680.221
 31
92.74
100
AcDbText
 73
     3
  0
TEXT
  5
7B
330
1D
100
AcDbEntity
  8
Point_Code
  6
Solid_Line
 62
     5
100
AcDbText
 10
422983.2910000001
 20
545680.221
 30
92.74
 40
0.3
  1
WA
 11
422983.2910000001
 21
545680.221
 31
92.74
100
AcDbText
 73
     3
  0
TEXT
  5
7C
330
1D
100
AcDbEntity
  8
Attribute
  6
Solid_Line
 62
     5
100
AcDbText
 10
422983.2910000001
 20
545679.721
 30
92.74
 40
0.3
  1
2
 11
422983.2910000001
 21
545679.721
 31
92.74
100
AcDbText
 73
     3
  0
POINT
  5
7D
330
1D
100
AcDbEntity
  8
0
  6
Solid_Line
 62
     0
100
AcDbPoint
 10
422983.391
 20
545679.587
 30
92.735
  0
TEXT
  5
7E
330
1D
100
AcDbEntity
  8
Point_ID
  6
Solid_Line
 62
     1
100
AcDbText
 10
422983.491
 20
545679.687
 30
92.735
 40
0.3
  1
106.1
100
AcDbText
  0
TEXT
  5
7F
330
1D
100
AcDbEntity
  8
Height
  6
Solid_Line
 62
     4
100
AcDbText
 10
422983.2910000001
 20
545679.487
 30
92.735
 40
0.3
  1
92.735
 72
     2
 11
422983.2910000001
 21
545679.487
 31
92.735
100
AcDbText
 73
     3
  0
TEXT
  5
80
330
1D
100
AcDbEntity
  8
Point_Code
  6
Solid_Line
 62
     5
100
AcDbText
 10
422983.491
 20
545679.487
 30
92.735
 40
0.3
  1
WA
 11
422983.491
 21
545679.487
 31
92.735
100
AcDbText
 73
     3
  0
TEXT
  5
81
330
1D
100
AcDbEntity
  8
Attribute
  6
Solid_Line
 62
     5
100
AcDbText
 10
422983.491
 20
545678.987
 30
92.735
 40
0.3
  1
1
 11
422983.491
 21
545678.987
 31
92.735
100
AcDbText
 73
     3
  0
POINT
  5
82
330
1D
100
AcDbEntity
  8
0
  6
Solid_Line
 62
     0
100
AcDbPoint
 10
422988.139
 20
545681.256
 30
92.814
  0
TEXT
  5
83
330
1D
100
AcDbEntity
  8
Point_ID
  6
Solid_Line
 62
     1
100
AcDbText
 10
422988.239
 20
545681.356
 30
92.814
 40
0.3
  1
1.26
100
AcDbText
  0
TEXT
  5
84
330
1D
100
AcDbEntity
  8
Height
  6
Solid_Line
 62
     4
100
AcDbText
 10
422988.039
 20
545681.156
 30
92.814
 40
0.3
  1
92.814
 72
     2
 11
422988.039
 21
545681.156
 31
92.814
100
AcDbText
 73
     3
  0
TEXT
  5
85
330
1D
100
AcDbEntity
  8
Point_Code
  6
Solid_Line
 62
     5
100
AcDbText
 10
422988.239
 20
545681.156
 30
92.814
 40
0.3
  1
Verge Bottom
 11
422988.239
 21
545681.156
 31
92.814
100
AcDbText
 73
     3
  0
POINT
  5
86
330
1D
100
AcDbEntity
  8
0
  6
Solid_Line
 62
     0
100
AcDbPoint
 10
422981.678
 20
545681.274
 30
92.943
  0
TEXT
  5
87
330
1D
100
AcDbEntity
  8
Point_ID
  6
Solid_Line
 62
     1
100
AcDbText
 10
422981.778
 20
545681.374
 30
92.943
 40
0.3
  1
1.25
100
AcDbText
  0
TEXT
  5
88
330
1D
100
AcDbEntity
  8
Height
  6
Solid_Line
 62
     4
100
AcDbText
 10
422981.578
 20
545681.174
 30
92.943
 40
0.3
  1
92.943
 72
     2
 11
422981.578
 21
545681.174
 31
92.943
100
AcDbText
 73
     3
  0
TEXT
  5
89
330
1D
100
AcDbEntity
  8
Point_Code
  6
Solid_Line
 62
     5
100
AcDbText
 10
422981.778
 20
545681.174
 30
92.943
 40
0.3
  1
Verge Bottom
 11
422981.778
 21
545681.174
 31
92.943
100
AcDbText
 73
     3
  0
POINT
  5
8A
330
1D
100
AcDbEntity
  8
0
  6
Solid_Line
 62
     0
100
AcDbPoint
 10
422977.233
 20
545681.241
 30
92.956
  0
TEXT
  5
8B
330
1D
100
AcDbEntity
  8
Point_ID
  6
Solid_Line
 62
     1
100
AcDbText
 10
422977.333
 20
545681.341
 30
92.956
 40
0.3
  1
1.24
100
AcDbText
  0
TEXT
  5
8C
330
1D
100
AcDbEntity
  8
Height
  6
Solid_Line
 62
     4
100
AcDbText
 10
422977.133
 20
545681.141
 30
92.956
 40
0.3
  1
92.956
 72
     2
 11
422977.133
 21
545681.141
 31
92.956
100
AcDbText
 73
     3
  0
TEXT
  5
8D
330
1D
100
AcDbEntity
  8
Point_Code
  6
Solid_Line
 62
     5
100
AcDbText
 10
422977.333
 20
545681.141
 30
92.956
 40
0.3
  1
Verge Bottom
 11
422977.333
 21
545681.141
 31
92.956
100
AcDbText
 73
     3
  0
POINT
  5
8E
330
1D
100
AcDbEntity
  8
0
  6
Solid_Line
 62
     0
100
AcDbPoint
 10
422972.397
 20
545681.13
 30
92.897
  0
TEXT
  5
8F
330
1D
100
AcDbEntity
  8
Point_ID
  6
Solid_Line
 62
     1
100
AcDbText
 10
422972.497
 20
545681.23
 30
92.897
 40
0.3
  1
1.23
100
AcDbText
  0
TEXT
  5
90
330
1D
100
AcDbEntity
  8
Height
  6
Solid_Line
 62
     4
100
AcDbText
 10
422972.297
 20
545681.03
 30
92.897
 40
0.3
  1
92.897
 72
     2
 11
422972.297
 21
545681.03
 31
92.897
100
AcDbText
 73
     3
  0
TEXT
  5
91
330
1D
100
AcDbEntity
  8
Point_Code
  6
Solid_Line
 62
     5
100
AcDbText
 10
422972.497
 20
545681.03
 30
92.897
 40
0.3
  1
Verge Bottom
 11
422972.497
 21
545681.03
 31
92.897
100
AcDbText
 73
     3
  0
POINT
  5
92
330
1D
100
AcDbEntity
  8
0
  6
Solid_Line
 62
     0
100
AcDbPoint
 10
422967.419
 20
545681.051
 30
92.642
  0
TEXT
  5
93
330
1D
100
AcDbEntity
  8
Point_ID
  6
Solid_Line
 62
     1
100
AcDbText
 10
422967.519
 20
545681.151
 30
92.642
 40
0.3
  1
1.22
100
AcDbText
  0
TEXT
  5
94
330
1D
100
AcDbEntity
  8
Height
  6
Solid_Line
 62
     4
100
AcDbText
 10
422967.319
 20
545680.951
 30
92.642
 40
0.3
  1
92.642
 72
     2
 11
422967.319
 21
545680.951
 31
92.642
100
AcDbText
 73
     3
  0
TEXT
  5
95
330
1D
100
AcDbEntity
  8
Point_Code
  6
Solid_Line
 62
     5
100
AcDbText
 10
422967.519
 20
545680.951
 30
92.642
 40
0.3
  1
Verge Bottom
 11
422967.519
 21
545680.951
 31
92.642
100
AcDbText
 73
     3
  0
POINT
  5
96
330
1D
100
AcDbEntity
  8
0
  6
Solid_Line
 62
     0
100
AcDbPoint
 10
422959.411
 20
545680.368
 30
92.823
  0
TEXT
  5
97
330
1D
100
AcDbEntity
  8
Point_ID
  6
Solid_Line
 62
     1
100
AcDbText
 10
422959.511
 20
545680.468
 30
92.823
 40
0.3
  1
1.21
100
AcDbText
  0
TEXT
  5
98
330
1D
100
AcDbEntity
  8
Height
  6
Solid_Line
 62
     4
100
AcDbText
 10
422959.311
 20
545680.268
 30
92.823
 40
0.3
  1
92.823
 72
     2
 11
422959.311
 21
545680.268
 31
92.823
100
AcDbText
 73
     3
  0
TEXT
  5
99
330
1D
100
AcDbEntity
  8
Point_Code
  6
Solid_Line
 62
     5
100
AcDbText
 10
422959.511
 20
545680.268
 30
92.823
 40
0.3
  1
Verge Bottom
 11
422959.511
 21
545680.268
 31
92.823
100
AcDbText
 73
     3
  0
POINT
  5
9A
330
1D
100
AcDbEntity
  8
0
  6
Solid_Line
 62
     0
100
AcDbPoint
 10
422959.776
 20
545678.274
 30
92.754
  0
TEXT
  5
9B
330
1D
100
AcDbEntity
  8
Point_ID
  6
Solid_Line
 62
     1
100
AcDbText
 10
422959.876
 20
545678.374
 30
92.754
 40
0.3
  1
1.20
100
AcDbText
  0
TEXT
  5
9C
330
1D
100
AcDbEntity
  8
Height
  6
Solid_Line
 62
     4
100
AcDbText
 10
422959.676
 20
545678.174
 30
92.754
 40
0.3
  1
92.754
 72
     2
 11
422959.676
 21
545678.174
 31
92.754
100
AcDbText
 73
     3
  0
TEXT
  5
9D
330
1D
100
AcDbEntity
  8
Point_Code
  6
Solid_Line
 62
     5
100
AcDbText
 10
422959.876
 20
545678.174
 30
92.754
 40
0.3
  1
Verge Bottom
 11
422959.876
 21
545678.174
 31
92.754
100
AcDbText
 73
     3
  0
POINT
  5
9E
330
1D
100
AcDbEntity
  8
0
  6
Solid_Line
 62
     0
100
AcDbPoint
 10
422966.118
 20
545679.005
 30
92.646
  0
TEXT
  5
9F
330
1D
100
AcDbEntity
  8
Point_ID
  6
Solid_Line
 62
     1
100
AcDbText
 10
422966.218
 20
545679.105
 30
92.646
 40
0.3
  1
1.19
100
AcDbText
  0
TEXT
  5
A0
330
1D
100
AcDbEntity
  8
Height
  6
Solid_Line
 62
     4
100
AcDbText
 10
422966.018
 20
545678.905
 30
92.646
 40
0.3
  1
92.646
 72
     2
 11
422966.018
 21
545678.905
 31
92.646
100
AcDbText
 73
     3
  0
TEXT
  5
A1
330
1D
100
AcDbEntity
  8
Point_Code
  6
Solid_Line
 62
     5
100
AcDbText
 10
422966.218
 20
545678.905
 30
92.646
 40
0.3
  1
Verge Bottom
 11
422966.218
 21
545678.905
 31
92.646
100
AcDbText
 73
     3
  0
POINT
  5
A2
330
1D
100
AcDbEntity
  8
0
  6
Solid_Line
 62
     0
100
AcDbPoint
 10
422971.595
 20
545679.283
 30
92.745
  0
TEXT
  5
A3
330
1D
100
AcDbEntity
  8
Point_ID
  6
Solid_Line
 62
     1
100
AcDbText
 10
422971.695
 20
545679.383
 30
92.745
 40
0.3
  1
1.18
100
AcDbText
  0
TEXT
  5
A4
330
1D
100
AcDbEntity
  8
Height
  6
Solid_Line
 62
     4
100
AcDbText
 10
422971.495
 20
545679.183
 30
92.745
 40
0.3
  1
92.745
 72
     2
 11
422971.495
 21
545679.183
 31
92.745
100
AcDbText
 73
     3
  0
TEXT
  5
A5
330
1D
100
AcDbEntity
  8
Point_Code
  6
Solid_Line
 62
     5
100
AcDbText
 10
422971.695
 20
545679.183
 30
92.745
 40
0.3
  1
Verge Bottom
 11
422971.695
 21
545679.183
 31
92.745
100
AcDbText
 73
     3
  0
POINT
  5
A6
330
1D
100
AcDbEntity
  8
0
  6
Solid_Line
 62
     0
100
AcDbPoint
 10
422976.517
 20
545679.399
 30
92.782
  0
TEXT
  5
A7
330
1D
100
AcDbEntity
  8
Point_ID
  6
Solid_Line
 62
     1
100
AcDbText
 10
422976.6170000001
 20
545679.499
 30
92.782
 40
0.3
  1
1.17
100
AcDbText
  0
TEXT
  5
A8
330
1D
100
AcDbEntity
  8
Height
  6
Solid_Line
 62
     4
100
AcDbText
 10
422976.417
 20
545679.299
 30
92.782
 40
0.3
  1
92.782
 72
     2
 11
422976.417
 21
545679.299
 31
92.782
100
AcDbText
 73
     3
  0
TEXT
  5
A9
330
1D
100
AcDbEntity
  8
Point_Code
  6
Solid_Line
 62
     5
100
AcDbText
 10
422976.6170000001
 20
545679.299
 30
92.782
 40
0.3
  1
Verge Bottom
 11
422976.6170000001
 21
545679.299
 31
92.782
100
AcDbText
 73
     3
  0
POINT
  5
AA
330
1D
100
AcDbEntity
  8
0
  6
Solid_Line
 62
     0
100
AcDbPoint
 10
422980.563
 20
545679.567
 30
92.766
  0
TEXT
  5
AB
330
1D
100
AcDbEntity
  8
Point_ID
  6
Solid_Line
 62
     1
100
AcDbText
 10
422980.663
 20
545679.667
 30
92.766
 40
0.3
  1
1.16
100
AcDbText
  0
TEXT
  5
AC
330
1D
100
AcDbEntity
  8
Height
  6
Solid_Line
 62
     4
100
AcDbText
 10
422980.463
 20
545679.467
 30
92.766
 40
0.3
  1
92.766
 72
     2
 11
422980.463
 21
545679.467
 31
92.766
100
AcDbText
 73
     3
  0
TEXT
  5
AD
330
1D
100
AcDbEntity
  8
Point_Code
  6
Solid_Line
 62
     5
100
AcDbText
 10
422980.663
 20
545679.467
 30
92.766
 40
0.3
  1
Verge Bottom
 11
422980.663
 21
545679.467
 31
92.766
100
AcDbText
 73
     3
  0
POINT
  5
AE
330
1D
100
AcDbEntity
  8
0
  6
Solid_Line
 62
     0
100
AcDbPoint
 10
422984.621
 20
545679.512
 30
92.791
  0
TEXT
  5
AF
330
1D
100
AcDbEntity
  8
Point_ID
  6
Solid_Line
 62
     1
100
AcDbText
 10
422984.721
 20
545679.612
 30
92.791
 40
0.3
  1
1.15
100
AcDbText
  0
TEXT
  5
B0
330
1D
100
AcDbEntity
  8
Height
  6
Solid_Line
 62
     4
100
AcDbText
 10
422984.521
 20
545679.412
 30
92.791
 40
0.3
  1
92.791
 72
     2
 11
422984.521
 21
545679.412
 31
92.791
100
AcDbText
 73
     3
  0
TEXT
  5
B1
330
1D
100
AcDbEntity
  8
Point_Code
  6
Solid_Line
 62
     5
100
AcDbText
 10
422984.721
 20
545679.412
 30
92.791
 40
0.3
  1
Verge Bottom
 11
422984.721
 21
545679.412
 31
92.791
100
AcDbText
 73
     3
  0
POINT
  5
B2
330
1D
100
AcDbEntity
  8
0
  6
Solid_Line
 62
     0
100
AcDbPoint
 10
422988.243
 20
545679.524
 30
92.886
  0
TEXT
  5
B3
330
1D
100
AcDbEntity
  8
Point_ID
  6
Solid_Line
 62
     1
100
AcDbText
 10
422988.343
 20
545679.624
 30
92.886
 40
0.3
  1
1.14
100
AcDbText
  0
TEXT
  5
B4
330
1D
100
AcDbEntity
  8
Height
  6
Solid_Line
 62
     4
100
AcDbText
 10
422988.143
 20
545679.424
 30
92.886
 40
0.3
  1
92.886
 72
     2
 11
422988.143
 21
545679.424
 31
92.886
100
AcDbText
 73
     3
  0
TEXT
  5
B5
330
1D
100
AcDbEntity
  8
Point_Code
  6
Solid_Line
 62
     5
100
AcDbText
 10
422988.343
 20
545679.424
 30
92.886
 40
0.3
  1
Verge Bottom
 11
422988.343
 21
545679.424
 31
92.886
100
AcDbText
 73
     3
  0
POINT
  5
B6
330
1D
100
AcDbEntity
  8
0
  6
Solid_Line
 62
     0
100
AcDbPoint
 10
422988.524
 20
545679.321
 30
93.45
  0
TEXT
  5
B7
330
1D
100
AcDbEntity
  8
Point_ID
  6
Solid_Line
 62
     1
100
AcDbText
 10
422988.624
 20
545679.421
 30
93.45
 40
0.3
  1
1.13
100
AcDbText
  0
TEXT
  5
B8
330
1D
100
AcDbEntity
  8
Height
  6
Solid_Line
 62
     4
100
AcDbText
 10
422988.424
 20
545679.221
 30
93.45
 40
0.3
  1
93.450
 72
     2
 11
422988.424
 21
545679.221
 31
93.45
100
AcDbText
 73
     3
  0
TEXT
  5
B9
330
1D
100
AcDbEntity
  8
Point_Code
  6
Solid_Line
 62
     5
100
AcDbText
 10
422988.624
 20
545679.221
 30
93.45
 40
0.3
  1
Verge Top
 11
422988.624
 21
545679.221
 31
93.45
100
AcDbText
 73
     3
  0
POINT
  5
BA
330
1D
100
AcDbEntity
  8
0
  6
Solid_Line
 62
     0
100
AcDbPoint
 10
422986.2420000001
 20
545679.165
 30
93.444
  0
TEXT
  5
BB
330
1D
100
AcDbEntity
  8
Point_ID
  6
Solid_Line
 62
     1
100
AcDbText
 10
422986.342
 20
545679.265
 30
93.444
 40
0.3
  1
1.12
100
AcDbText
  0
TEXT
  5
BC
330
1D
100
AcDbEntity
  8
Height
  6
Solid_Line
 62
     4
100
AcDbText
 10
422986.142
 20
545679.065
 30
93.444
 40
0.3
  1
93.444
 72
     2
 11
422986.142
 21
545679.065
 31
93.444
100
AcDbText
 73
     3
  0
TEXT
  5
BD
330
1D
100
AcDbEntity
  8
Point_Code
  6
Solid_Line
 62
     5
100
AcDbText
 10
422986.342
 20
545679.065
 30
93.444
 40
0.3
  1
Verge Top
 11
422986.342
 21
545679.065
 31
93.444
100
AcDbText
 73
     3
  0
POINT
  5
BE
330
1D
100
AcDbEntity
  8
0
  6
Solid_Line
 62
     0
100
AcDbPoint
 10
422983.141
 20
545679.367
 30
93.413
  0
TEXT
  5
BF
330
1D
100
AcDbEntity
  8
Point_ID
  6
Solid_Line
 62
     1
100
AcDbText
 10
422983.241
 20
545679.467
 30
93.413
 40
0.3
  1
1.11
100
AcDbText
  0
TEXT
  5
C0
330
1D
100
AcDbEntity
  8
Height
  6
Solid_Line
 62
     4
100
AcDbText
 10
422983.0410000001
 20
545679.267
 30
93.413
 40
0.3
  1
93.413
 72
     2
 11
422983.0410000001
 21
545679.267
 31
93.413
100
AcDbText
 73
     3
  0
TEXT
  5
C1
330
1D
100
AcDbEntity
  8
Point_Code
  6
Solid_Line
 62
     5
100
AcDbText
 10
422983.241
 20
545679.267
 30
93.413
 40
0.3
  1
Verge Top
 11
422983.241
 21
545679.267
 31
93.413
100
AcDbText
 73
     3
  0
POINT
  5
C2
330
1D
100
AcDbEntity
  8
0
  6
Solid_Line
 62
     0
100
AcDbPoint
 10
422977.13
 20
545679.151
 30
93.43
  0
TEXT
  5
C3
330
1D
100
AcDbEntity
  8
Point_ID
  6
Solid_Line
 62
     1
100
AcDbText
 10
422977.23
 20
545679.251
 30
93.43
 40
0.3
  1
1.10
100
AcDbText
  0
TEXT
  5
C4
330
1D
100
AcDbEntity
  8
Height
  6
Solid_Line
 62
     4
100
AcDbText
 10
422977.0300000001
 20
545679.051
 30
93.43
 40
0.3
  1
93.430
 72
     2
 11
422977.0300000001
 21
545679.051
 31
93.43
100
AcDbText
 73
     3
  0
TEXT
  5
C5
330
1D
100
AcDbEntity
  8
Point_Code
  6
Solid_Line
 62
     5
100
AcDbText
 10
422977.23
 20
545679.051
 30
93.43
 40
0.3
  1
Verge Top
 11
422977.23
 21
545679.051
 31
93.43
100
AcDbText
 73
     3
  0
POINT
  5
C6
330
1D
100
AcDbEntity
  8
0
  6
Solid_Line
 62
     0
100
AcDbPoint
 10
422971.595
 20
545679.045
 30
93.36
  0
TEXT
  5
C7
330
1D
100
AcDbEntity
  8
Point_ID
  6
Solid_Line
 62
     1
100
AcDbText
 10
422971.695
 20
545679.145
 30
93.36
 40
0.3
  1
1.9
100
AcDbText
  0
TEXT
  5
C8
330
1D
100
AcDbEntity
  8
Height
  6
Solid_Line
 62
     4
100
AcDbText
 10
422971.495
 20
545678.945
 30
93.36
 40
0.3
  1
93.360
 72
     2
 11
422971.495
 21
545678.945
 31
93.36
100
AcDbText
 73
     3
  0
TEXT
  5
C9
330
1D
100
AcDbEntity
  8
Point_Code
  6
Solid_Line
 62
     5
100
AcDbText
 10
422971.695
 20
545678.945
 30
93.36
 40
0.3
  1
Verge Top
 11
422971.695
 21
545678.945
 31
93.36
100
AcDbText
 73
     3
  0
POINT
  5
CA
330
1D
100
AcDbEntity
  8
0
  6
Solid_Line
 62
     0
100
AcDbPoint
 10
422965.625
 20
545678.659
 30
93.396
  0
TEXT
  5
CB
330
1D
100
AcDbEntity
  8
Point_ID
  6
Solid_Line
 62
     1
100
AcDbText
 10
422965.725
 20
545678.759
 30
93.396
 40
0.3
  1
1.8
100
AcDbText
  0
TEXT
  5
CC
330
1D
100
AcDbEntity
  8
Height
  6
Solid_Line
 62
     4
100
AcDbText
 10
422965.525
 20
545678.559
 30
93.396
 40
0.3
  1
93.396
 72
     2
 11
422965.525
 21
545678.559
 31
93.396
100
AcDbText
 73
     3
  0
TEXT
  5
CD
330
1D
100
AcDbEntity
  8
Point_Code
  6
Solid_Line
 62
     5
100
AcDbText
 10
422965.725
 20
545678.559
 30
93.396
 40
0.3
  1
Verge Top
 11
422965.725
 21
545678.559
 31
93.396
100
AcDbText
 73
     3
  0
POINT
  5
CE
330
1D
100
AcDbEntity
  8
0
  6
Solid_Line
 62
     0
100
AcDbPoint
 10
422959.51
 20
545678.082
 30
93.497
  0
TEXT
  5
CF
330
1D
100
AcDbEntity
  8
Point_ID
  6
Solid_Line
 62
     1
100
AcDbText
 10
422959.61
 20
545678.182
 30
93.497
 40
0.3
  1
1.7
100
AcDbText
  0
TEXT
  5
D0
330
1D
100
AcDbEntity
  8
Height
  6
Solid_Line
 62
     4
100
AcDbText
 10
422959.41
 20
545677.982
 30
93.497
 40
0.3
  1
93.497
 72
     2
 11
422959.41
 21
545677.982
 31
93.497
100
AcDbText
 73
     3
  0
TEXT
  5
D1
330
1D
100
AcDbEntity
  8
Point_Code
  6
Solid_Line
 62
     5
100
AcDbText
 10
422959.61
 20
545677.982
 30
93.497
 40
0.3
  1
Verge Top
 11
422959.61
 21
545677.982
 31
93.497
100
AcDbText
 73
     3
  0
POINT
  5
D2
330
1D
100
AcDbEntity
  8
0
  6
Solid_Line
 62
     0
100
AcDbPoint
 10
422959.05
 20
545680.386
 30
93.61
  0
TEXT
  5
D3
330
1D
100
AcDbEntity
  8
Point_ID
  6
Solid_Line
 62
     1
100
AcDbText
 10
422959.15
 20
545680.486
 30
93.61
 40
0.3
  1
1.6
100
AcDbText
  0
TEXT
  5
D4
330
1D
100
AcDbEntity
  8
Height
  6
Solid_Line
 62
     4
100
AcDbText
 10
422958.95
 20
545680.286
 30
93.61
 40
0.3
  1
93.610
 72
     2
 11
422958.95
 21
545680.286
 31
93.61
100
AcDbText
 73
     3
  0
TEXT
  5
D5
330
1D
100
AcDbEntity
  8
Point_Code
  6
Solid_Line
 62
     5
100
AcDbText
 10
422959.15
 20
545680.286
 30
93.61
 40
0.3
  1
Verge Top
 11
422959.15
 21
545680.286
 31
93.61
100
AcDbText
 73
     3
  0
POINT
  5
D6
330
1D
100
AcDbEntity
  8
0
  6
Solid_Line
 62
     0
100
AcDbPoint
 10
422966.33
 20
545681.12
 30
93.53
  0
TEXT
  5
D7
330
1D
100
AcDbEntity
  8
Point_ID
  6
Solid_Line
 62
     1
100
AcDbText
 10
422966.43
 20
545681.22
 30
93.53
 40
0.3
  1
1.5
100
AcDbText
  0
TEXT
  5
D8
330
1D
100
AcDbEntity
  8
Height
  6
Solid_Line
 62
     4
100
AcDbText
 10
422966.23
 20
545681.02
 30
93.53
 40
0.3
  1
93.530
 72
     2
 11
422966.23
 21
545681.02
 31
93.53
100
AcDbText
 73
     3
  0
TEXT
  5
D9
330
1D
100
AcDbEntity
  8
Point_Code
  6
Solid_Line
 62
     5
100
AcDbText
 10
422966.43
 20
545681.02
 30
93.53
 40
0.3
  1
Verge Top
 11
422966.43
 21
545681.02
 31
93.53
100
AcDbText
 73
     3
  0
POINT
  5
DA
330
1D
100
AcDbEntity
  8
0
  6
Solid_Line
 62
     0
100
AcDbPoint
 10
422972.7800000001
 20
545681.318
 30
93.552
  0
TEXT
  5
DB
330
1D
100
AcDbEntity
  8
Point_ID
  6
Solid_Line
 62
     1
100
AcDbText
 10
422972.88
 20
545681.418
 30
93.552
 40
0.3
  1
1.4
100
AcDbText
  0
TEXT
  5
DC
330
1D
100
AcDbEntity
  8
Height
  6
Solid_Line
 62
     4
100
AcDbText
 10
422972.68
 20
545681.218
 30
93.552
 40
0.3
  1
93.552
 72
     2
 11
422972.68
 21
545681.218
 31
93.552
100
AcDbText
 73
     3
  0
TEXT
  5
DD
330
1D
100
AcDbEntity
  8
Point_Code
  6
Solid_Line
 62
     5
100
AcDbText
 10
422972.88
 20
545681.218
 30
93.552
 40
0.3
  1
Verge Top
 11
422972.88
 21
545681.218
 31
93.552
100
AcDbText
 73
     3
  0
POINT
  5
DE
330
1D
100
AcDbEntity
  8
0
  6
Solid_Line
 62
     0
100
AcDbPoint
 10
422978.997
 20
545681.494
 30
93.576
  0
TEXT
  5
DF
330
1D
100
AcDbEntity
  8
Point_ID
  6
Solid_Line
 62
     1
100
AcDbText
 10
422979.097
 20
545681.594
 30
93.576
 40
0.3
  1
1.3
100
AcDbText
  0
TEXT
  5
E0
330
1D
100
AcDbEntity
  8
Height
  6
Solid_Line
 62
     4
100
AcDbText
 10
422978.897
 20
545681.394
 30
93.576
 40
0.3
  1
93.576
 72
     2
 11
422978.897
 21
545681.394
 31
93.576
100
AcDbText
 73
     3
  0
TEXT
  5
E1
330
1D
100
AcDbEntity
  8
Point_Code
  6
Solid_Line
 62
     5
100
AcDbText
 10
422979.097
 20
545681.394
 30
93.576
 40
0.3
  1
Verge Top
 11
422979.097
 21
545681.394
 31
93.576
100
AcDbText
 73
     3
  0
POINT
  5
E2
330
1D
100
AcDbEntity
  8
0
  6
Solid_Line
 62
     0
100
AcDbPoint
 10
422984.265
 20
545681.404
 30
93.552
  0
TEXT
  5
E3
330
1D
100
AcDbEntity
  8
Point_ID
  6
Solid_Line
 62
     1
100
AcDbText
 10
422984.365
 20
545681.504
 30
93.552
 40
0.3
  1
1.2
100
AcDbText
  0
TEXT
  5
E4
330
1D
100
AcDbEntity
  8
Height
  6
Solid_Line
 62
     4
100
AcDbText
 10
422984.165
 20
545681.304
 30
93.552
 40
0.3
  1
93.552
 72
     2
 11
422984.165
 21
545681.304
 31
93.552
100
AcDbText
 73
     3
  0
TEXT
  5
E5
330
1D
100
AcDbEntity
  8
Point_Code
  6
Solid_Line
 62
     5
100
AcDbText
 10
422984.365
 20
545681.304
 30
93.552
 40
0.3
  1
Verge Top
 11
422984.365
 21
545681.304
 31
93.552
100
AcDbText
 73
     3
  0
POINT
  5
E6
330
1D
100
AcDbEntity
  8
0
  6
Solid_Line
 62
     0
100
AcDbPoint
 10
422988.545
 20
545681.256
 30
93.637
  0
TEXT
  5
E7
330
1D
100
AcDbEntity
  8
Point_ID
  6
Solid_Line
 62
     1
100
AcDbText
 10
422988.645
 20
545681.356
 30
93.637
 40
0.3
  1
1.1
100
AcDbText
  0
TEXT
  5
E8
330
1D
100
AcDbEntity
  8
Height
  6
Solid_Line
 62
     4
100
AcDbText
 10
422988.445
 20
545681.156
 30
93.637
 40
0.3
  1
93.637
 72
     2
 11
422988.445
 21
545681.156
 31
93.637
100
AcDbText
 73
     3
  0
TEXT
  5
E9
330
1D
100
AcDbEntity
  8
Point_Code
  6
Solid_Line
 62
     5
100
AcDbText
 10
422988.645
 20
545681.156
 30
93.637
 40
0.3
  1
Verge Top
 11
422988.645
 21
545681.156
 31
93.637
100
AcDbText
 73
     3
  0
POINT
  5
EA
330
1D
100
AcDbEntity
  8
0
  6
Solid_Line
 62
     0
100
AcDbPoint
 10
423027.789
 20
545665.19
 30
92.318
  0
TEXT
  5
EB
330
1D
100
AcDbEntity
  8
Point_ID
  6
Solid_Line
 62
     1
100
AcDbText
 10
423027.889
 20
545665.29
 30
92.318
 40
0.3
  1
4.34
100
AcDbText
  0
TEXT
  5
EC
330
1D
100
AcDbEntity
  8
Height
  6
Solid_Line
 62
     4
100
AcDbText
 10
423027.689
 20
545665.09
 30
92.318
 40
0.3
  1
92.318
 72
     2
 11
423027.689
 21
545665.09
 31
92.318
100
AcDbText
 73
     3
  0
TEXT
  5
ED
330
1D
100
AcDbEntity
  8
Point_Code
  6
Solid_Line
 62
     5
100
AcDbText
 10
423027.889
 20
545665.09
 30
92.318
 40
0.3
  1
Verge Bottom
 11
423027.889
 21
545665.09
 31
92.318
100
AcDbText
 73
     3
  0
POINT
  5
EE
330
1D
100
AcDbEntity
  8
0
  6
Solid_Line
 62
     0
100
AcDbPoint
 10
423026.889
 20
545665.35
 30
92.341
  0
TEXT
  5
EF
330
1D
100
AcDbEntity
  8
Point_ID
  6
Solid_Line
 62
     1
100
AcDbText
 10
423026.989
 20
545665.45
 30
92.341
 40
0.3
  1
4.33
100
AcDbText
  0
TEXT
  5
F0
330
1D
100
AcDbEntity
  8
Height
  6
Solid_Line
 62
     4
100
AcDbText
 10
423026.789
 20
545665.25
 30
92.341
 40
0.3
  1
92.341
 72
     2
 11
423026.789
 21
545665.25
 31
92.341
100
AcDbText
 73
     3
  0
TEXT
  5
F1
330
1D
100
AcDbEntity
  8
Point_Code
  6
Solid_Line
 62
     5
100
AcDbText
 10
423026.989
 20
545665.25
 30
92.341
 40
0.3
  1
Verge Bottom
 11
423026.989
 21
545665.25
 31
92.341
100
AcDbText
 73
     3
  0
POINT
  5
F2
330
1D
100
AcDbEntity
  8
0
  6
Solid_Line
 62
     0
100
AcDbPoint
 10
423026.947
 20
545670.911
 30
92.826
  0
TEXT
  5
F3
330
1D
100
AcDbEntity
  8
Point_ID
  6
Solid_Line
 62
     1
100
AcDbText
 10
423027.047
 20
545671.011
 30
92.826
 40
0.3
  1
4.32
100
AcDbText
  0
TEXT
  5
F4
330
1D
100
AcDbEntity
  8
Height
  6
Solid_Line
 62
     4
100
AcDbText
 10
423026.847
 20
545670.811
 30
92.826
 40
0.3
  1
92.826
 72
     2
 11
423026.847
 21
545670.811
 31
92.826
100
AcDbText
 73
     3
  0
TEXT
  5
F5
330
1D
100
AcDbEntity
  8
Point_Code
  6
Solid_Line
 62
     5
100
AcDbText
 10
423027.047
 20
545670.811
 30
92.826
 40
0.3
  1
Verge Bottom
 11
423027.047
 21
545670.811
 31
92.826
100
AcDbText
 73
     3
  0
POINT
  5
F6
330
1D
100
AcDbEntity
  8
0
  6
Solid_Line
 62
     0
100
AcDbPoint
 10
423026.842
 20
545676.613
 30
93.242
  0
TEXT
  5
F7
330
1D
100
AcDbEntity
  8
Point_ID
  6
Solid_Line
 62
     1
100
AcDbText
 10
423026.942
 20
545676.713
 30
93.242
 40
0.3
  1
4.31
100
AcDbText
  0
TEXT
  5
F8
330
1D
100
AcDbEntity
  8
Height
  6
Solid_Line
 62
     4
100
AcDbText
 10
423026.7420000001
 20
545676.513
 30
93.242
 40
0.3
  1
93.242
 72
     2
 11
423026.7420000001
 21
545676.513
 31
93.242
100
AcDbText
 73
     3
  0
TEXT
  5
F9
330
1D
100
AcDbEntity
  8
Point_Code
  6
Solid_Line
 62
     5
100
AcDbText
 10
423026.942
 20
545676.513
 30
93.242
 40
0.3
  1
Verge Bottom
 11
423026.942
 21
545676.513
 31
93.242
100
AcDbText
 73
     3
  0
POINT
  5
FA
330
1D
100
AcDbEntity
  8
0
  6
Solid_Line
 62
     0
100
AcDbPoint
 10
423026.744
 20
545682.299
 30
93.793
  0
TEXT
  5
FB
330
1D
100
AcDbEntity
  8
Point_ID
  6
Solid_Line
 62
     1
100
AcDbText
 10
423026.844
 20
545682.399
 30
93.793
 40
0.3
  1
4.30
100
AcDbText
  0
TEXT
  5
FC
330
1D
100
AcDbEntity
  8
Height
  6
Solid_Line
 62
     4
100
AcDbText
 10
423026.644
 20
545682.199
 30
93.793
 40
0.3
  1
93.793
 72
     2
 11
423026.644
 21
545682.199
 31
93.793
100
AcDbText
 73
     3
  0
TEXT
  5
FD
330
1D
100
AcDbEntity
  8
Point_Code
  6
Solid_Line
 62
     5
100
AcDbText
 10
423026.844
 20
545682.199
 30
93.793
 40
0.3
  1
Verge Bottom
 11
423026.844
 21
545682.199
 31
93.793
100
AcDbText
 73
     3
  0
POINT
  5
FE
330
1D
100
AcDbEntity
  8
0
  6
Solid_Line
 62
     0
100
AcDbPoint
 10
423026.744
 20
545687.935
 30
94.236
  0
TEXT
  5
FF
330
1D
100
AcDbEntity
  8
Point_ID
  6
Solid_Line
 62
     1
100
AcDbText
 10
423026.844
 20
545688.035
 30
94.236
 40
0.3
  1
4.29
100
AcDbText
  0
TEXT
  5
100
330
1D
100
AcDbEntity
  8
Height
  6
Solid_Line
 62
     4
100
AcDbText
 10
423026.644
 20
545687.835
 30
94.236
 40
0.3
  1
94.236
 72
     2
 11
423026.644
 21
545687.835
 31
94.236
100
AcDbText
 73
     3
  0
TEXT
  5
101
330
1D
100
AcDbEntity
  8
Point_Code
  6
Solid_Line
 62
     5
100
AcDbText
 10
423026.844
 20
545687.835
 30
94.236
 40
0.3
  1
Verge Bottom
 11
423026.844
 21
545687.835
 31
94.236
100
AcDbText
 73
     3
  0
POINT
  5
102
330
1D
100
AcDbEntity
  8
0
  6
Solid_Line
 62
     0
100
AcDbPoint
 10
423026.788
 20
545692.202
 30
94.582
  0
TEXT
  5
103
330
1D
100
AcDbEntity
  8
Point_ID
  6
Solid_Line
 62
     1
100
AcDbText
 10
423026.888
 20
545692.302
 30
94.582
 40
0.3
  1
4.28
100
AcDbText
  0
TEXT
  5
104
330
1D
100
AcDbEntity
  8
Height
  6
Solid_Line
 62
     4
100
AcDbText
 10
423026.688
 20
545692.102
 30
94.582
 40
0.3
  1
94.582
 72
     2
 11
423026.688
 21
545692.102
 31
94.582
100
AcDbText
 73
     3
  0
TEXT
  5
105
330
1D
100
AcDbEntity
  8
Point_Code
  6
Solid_Line
 62
     5
100
AcDbText
 10
423026.888
 20
545692.102
 30
94.582
 40
0.3
  1
Verge Bottom
 11
423026.888
 21
545692.102
 31
94.582
100
AcDbText
 73
     3
  0
POINT
  5
106
330
1D
100
AcDbEntity
  8
0
  6
Solid_Line
 62
     0
100
AcDbPoint
 10
423026.941
 20
545695.715
 30
94.83
  0
TEXT
  5
107
330
1D
100
AcDbEntity
  8
Point_ID
  6
Solid_Line
 62
     1
100
AcDbText
 10
423027.0410000001
 20
545695.815
 30
94.83
 40
0.3
  1
4.27
100
AcDbText
  0
TEXT
  5
108
330
1D
100
AcDbEntity
  8
Height
  6
Solid_Line
 62
     4
100
AcDbText
 10
423026.841
 20
545695.615
 30
94.83
 40
0.3
  1
94.830
 72
     2
 11
423026.841
 21
545695.615
 31
94.83
100
AcDbText
 73
     3
  0
TEXT
  5
109
330
1D
100
AcDbEntity
  8
Point_Code
  6
Solid_Line
 62
     5
100
AcDbText
 10
423027.0410000001
 20
545695.615
 30
94.83
 40
0.3
  1
Verge Bottom
 11
423027.0410000001
 21
545695.615
 31
94.83
100
AcDbText
 73
     3
  0
POINT
  5
10A
330
1D
100
AcDbEntity
  8
0
  6
Solid_Line
 62
     0
100
AcDbPoint
 10
423029.227
 20
545695.622
 30
94.813
  0
TEXT
  5
10B
330
1D
100
AcDbEntity
  8
Point_ID
  6
Solid_Line
 62
     1
100
AcDbText
 10
423029.327
 20
545695.722
 30
94.813
 40
0.3
  1
4.26
100
AcDbText
  0
TEXT
  5
10C
330
1D
100
AcDbEntity
  8
Height
  6
Solid_Line
 62
     4
100
AcDbText
 10
423029.127
 20
545695.522
 30
94.813
 40
0.3
  1
94.813
 72
     2
 11
423029.127
 21
545695.522
 31
94.813
100
AcDbText
 73
     3
  0
TEXT
  5
10D
330
1D
100
AcDbEntity
  8
Point_Code
  6
Solid_Line
 62
     5
100
AcDbText
 10
423029.327
 20
545695.522
 30
94.813
 40
0.3
  1
Verge Bottom
 11
423029.327
 21
545695.522
 31
94.813
100
AcDbText
 73
     3
  0
POINT
  5
10E
330
1D
100
AcDbEntity
  8
0
  6
Solid_Line
 62
     0
100
AcDbPoint
 10
423029.061
 20
545693.797
 30
94.714
  0
TEXT
  5
10F
330
1D
100
AcDbEntity
  8
Point_ID
  6
Solid_Line
 62
     1
100
AcDbText
 10
423029.161
 20
545693.897
 30
94.714
 40
0.3
  1
4.25
100
AcDbText
  0
TEXT
  5
110
330
1D
100
AcDbEntity
  8
Height
  6
Solid_Line
 62
     4
100
AcDbText
 10
423028.961
 20
545693.697
 30
94.714
 40
0.3
  1
94.714
 72
     2
 11
423028.961
 21
545693.697
 31
94.714
100
AcDbText
 73
     3
  0
TEXT
  5
111
330
1D
100
AcDbEntity
  8
Point_Code
  6
Solid_Line
 62
     5
100
AcDbText
 10
423029.161
 20
545693.697
 30
94.714
 40
0.3
  1
Verge Bottom
 11
423029.161
 21
545693.697
 31
94.714
100
AcDbText
 73
     3
  0
POINT
  5
112
330
1D
100
AcDbEntity
  8
0
  6
Solid_Line
 62
     0
100
AcDbPoint
 10
423028.852
 20
545690.057
 30
94.416
  0
TEXT
  5
113
330
1D
100
AcDbEntity
  8
Point_ID
  6
Solid_Line
 62
     1
100
AcDbText
 10
423028.952
 20
545690.157
 30
94.416
 40
0.3
  1
4.24
100
AcDbText
  0
TEXT
  5
114
330
1D
100
AcDbEntity
  8
Height
  6
Solid_Line
 62
     4
100
AcDbText
 10
423028.752
 20
545689.957
 30
94.416
 40
0.3
  1
94.416
 72
     2
 11
423028.752
 21
545689.957
 31
94.416
100
AcDbText
 73
     3
  0
TEXT
  5
115
330
1D
100
AcDbEntity
  8
Point_Code
  6
Solid_Line
 62
     5
100
AcDbText
 10
423028.952
 20
545689.957
 30
94.416
 40
0.3
  1
Verge Bottom
 11
423028.952
 21
545689.957
 31
94.416
100
AcDbText
 73
     3
  0
POINT
  5
116
330
1D
100
AcDbEntity
  8
0
  6
Solid_Line
 62
     0
100
AcDbPoint
 10
423028.773
 20
545685.845
 30
94.067
  0
TEXT
  5
117
330
1D
100
AcDbEntity
  8
Point_ID
  6
Solid_Line
 62
     1
100
AcDbText
 10
423028.873
 20
545685.945
 30
94.067
 40
0.3
  1
4.23
100
AcDbText
  0
TEXT
  5
118
330
1D
100
AcDbEntity
  8
Height
  6
Solid_Line
 62
     4
100
AcDbText
 10
423028.673
 20
545685.745
 30
94.067
 40
0.3
  1
94.067
 72
     2
 11
423028.673
 21
545685.745
 31
94.067
100
AcDbText
 73
     3
  0
TEXT
  5
119
330
1D
100
AcDbEntity
  8
Point_Code
  6
Solid_Line
 62
     5
100
AcDbText
 10
423028.873
 20
545685.745
 30
94.067
 40
0.3
  1
Verge Bottom
 11
423028.873
 21
545685.745
 31
94.067
100
AcDbText
 73
     3
  0
POINT
  5
11A
330
1D
100
AcDbEntity
  8
0
  6
Solid_Line
 62
     0
100
AcDbPoint
 10
423028.7530000001
 20
545680.898
 30
93.649
  0
TEXT
  5
11B
330
1D
100
AcDbEntity
  8
Point_ID
  6
Solid_Line
 62
     1
100
AcDbText
 10
423028.853
 20
545680.998
 30
93.649
 40
0.3
  1
4.22
100
AcDbText
  0
TEXT
  5
11C
330
1D
100
AcDbEntity
  8
Height
  6
Solid_Line
 62
     4
100
AcDbText
 10
423028.653
 20
545680.798
 30
93.649
 40
0.3
  1
93.649
 72
     2
 11
423028.653
 21
545680.798
 31
93.649
100
AcDbText
 73
     3
  0
TEXT
  5
11D
330
1D
100
AcDbEntity
  8
Point_Code
  6
Solid_Line
 62
     5
100
AcDbText
 10
423028.853
 20
545680.798
 30
93.649
 40
0.3
  1
Verge Bottom
 11
423028.853
 21
545680.798
 31
93.649
100
AcDbText
 73
     3
  0
POINT
  5
11E
330
1D
100
AcDbEntity
  8
0
  6
Solid_Line
 62
     0
100
AcDbPoint
 10
423028.827
 20
545676.681
 30
93.342
  0
TEXT
  5
11F
330
1D
100
AcDbEntity
  8
Point_ID
  6
Solid_Line
 62
     1
100
AcDbText
 10
423028.9270000001
 20
545676.781
 30
93.342
 40
0.3
  1
4.21
100
AcDbText
  0
TEXT
  5
120
330
1D
100
AcDbEntity
  8
Height
  6
Solid_Line
 62
     4
100
AcDbText
 10
423028.727
 20
545676.581
 30
93.342
 40
0.3
  1
93.342
 72
     2
 11
423028.727
 21
545676.581
 31
93.342
100
AcDbText
 73
     3
  0
TEXT
  5
121
330
1D
100
AcDbEntity
  8
Point_Code
  6
Solid_Line
 62
     5
100
AcDbText
 10
423028.9270000001
 20
545676.581
 30
93.342
 40
0.3
  1
Verge Bottom
 11
423028.9270000001
 21
545676.581
 31
93.342
100
AcDbText
 73
     3
  0
POINT
  5
122
330
1D
100
AcDbEntity
  8
0
  6
Solid_Line
 62
     0
100
AcDbPoint
 10
423028.86
 20
545672.445
 30
93.019
  0
TEXT
  5
123
330
1D
100
AcDbEntity
  8
Point_ID
  6
Solid_Line
 62
     1
100
AcDbText
 10
423028.96
 20
545672.545
 30
93.019
 40
0.3
  1
4.20
100
AcDbText
  0
TEXT
  5
124
330
1D
100
AcDbEntity
  8
Height
  6
Solid_Line
 62
     4
100
AcDbText
 10
423028.76
 20
545672.345
 30
93.019
 40
0.3
  1
93.019
 72
     2
 11
423028.76
 21
545672.345
 31
93.019
100
AcDbText
 73
     3
  0
TEXT
  5
125
330
1D
100
AcDbEntity
  8
Point_Code
  6
Solid_Line
 62
     5
100
AcDbText
 10
423028.96
 20
545672.345
 30
93.019
 40
0.3
  1
Verge Bottom
 11
423028.96
 21
545672.345
 31
93.019
100
AcDbText
 73
     3
  0
POINT
  5
126
330
1D
100
AcDbEntity
  8
0
  6
Solid_Line
 62
     0
100
AcDbPoint
 10
423028.87
 20
545668.556
 30
92.647
  0
TEXT
  5
127
330
1D
100
AcDbEntity
  8
Point_ID
  6
Solid_Line
 62
     1
100
AcDbText
 10
423028.97
 20
545668.656
 30
92.647
 40
0.3
  1
4.19
100
AcDbText
  0
TEXT
  5
128
330
1D
100
AcDbEntity
  8
Height
  6
Solid_Line
 62
     4
100
AcDbText
 10
423028.77
 20
545668.456
 30
92.647
 40
0.3
  1
92.647
 72
     2
 11
423028.77
 21
545668.456
 31
92.647
100
AcDbText
 73
     3
  0
TEXT
  5
129
330
1D
100
AcDbEntity
  8
Point_Code
  6
Solid_Line
 62
     5
100
AcDbText
 10
423028.97
 20
545668.456
 30
92.647
 40
0.3
  1
Verge Bottom
 11
423028.97
 21
545668.456
 31
92.647
100
AcDbText
 73
     3
  0
POINT
  5
12A
330
1D
100
AcDbEntity
  8
0
  6
Solid_Line
 62
     0
100
AcDbPoint
 10
423028.846
 20
545665.136
 30
92.388
  0
TEXT
  5
12B
330
1D
100
AcDbEntity
  8
Point_ID
  6
Solid_Line
 62
     1
100
AcDbText
 10
423028.946
 20
545665.236
 30
92.388
 40
0.3
  1
4.18
100
AcDbText
  0
TEXT
  5
12C
330
1D
100
AcDbEntity
  8
Height
  6
Solid_Line
 62
     4
100
AcDbText
 10
423028.746
 20
545665.036
 30
92.388
 40
0.3
  1
92.388
 72
     2
 11
423028.746
 21
545665.036
 31
92.388
100
AcDbText
 73
     3
  0
TEXT
  5
12D
330
1D
100
AcDbEntity
  8
Point_Code
  6
Solid_Line
 62
     5
100
AcDbText
 10
423028.946
 20
545665.036
 30
92.388
 40
0.3
  1
Verge Bottom
 11
423028.946
 21
545665.036
 31
92.388
100
AcDbText
 73
     3
  0
POINT
  5
12E
330
1D
100
AcDbEntity
  8
0
  6
Solid_Line
 62
     0
100
AcDbPoint
 10
423027.869
 20
545664.58
 30
93.05
  0
TEXT
  5
12F
330
1D
100
AcDbEntity
  8
Point_ID
  6
Solid_Line
 62
     1
100
AcDbText
 10
423027.969
 20
545664.68
 30
93.05
 40
0.3
  1
4.17
100
AcDbText
  0
TEXT
  5
130
330
1D
100
AcDbEntity
  8
Height
  6
Solid_Line
 62
     4
100
AcDbText
 10
423027.769
 20
545664.48
 30
93.05
 40
0.3
  1
93.050
 72
     2
 11
423027.769
 21
545664.48
 31
93.05
100
AcDbText
 73
     3
  0
TEXT
  5
131
330
1D
100
AcDbEntity
  8
Point_Code
  6
Solid_Line
 62
     5
100
AcDbText
 10
423027.969
 20
545664.48
 30
93.05
 40
0.3
  1
Verge Top
 11
423027.969
 21
545664.48
 31
93.05
100
AcDbText
 73
     3
  0
POINT
  5
132
330
1D
100
AcDbEntity
  8
0
  6
Solid_Line
 62
     0
100
AcDbPoint
 10
423029.173
 20
545665.06
 30
93.188
  0
TEXT
  5
133
330
1D
100
AcDbEntity
  8
Point_ID
  6
Solid_Line
 62
     1
100
AcDbText
 10
423029.273
 20
545665.16
 30
93.188
 40
0.3
  1
4.16
100
AcDbText
  0
TEXT
  5
134
330
1D
100
AcDbEntity
  8
Height
  6
Solid_Line
 62
     4
100
AcDbText
 10
423029.073
 20
545664.96
 30
93.188
 40
0.3
  1
93.188
 72
     2
 11
423029.073
 21
545664.96
 31
93.188
100
AcDbText
 73
     3
  0
TEXT
  5
135
330
1D
100
AcDbEntity
  8
Point_Code
  6
Solid_Line
 62
     5
100
AcDbText
 10
423029.273
 20
545664.96
 30
93.188
 40
0.3
  1
Verge Top
 11
423029.273
 21
545664.96
 31
93.188
100
AcDbText
 73
     3
  0
POINT
  5
136
330
1D
100
AcDbEntity
  8
0
  6
Solid_Line
 62
     0
100
AcDbPoint
 10
423029.103
 20
545670.836
 30
93.632
  0
TEXT
  5
137
330
1D
100
AcDbEntity
  8
Point_ID
  6
Solid_Line
 62
     1
100
AcDbText
 10
423029.203
 20
545670.936
 30
93.632
 40
0.3
  1
4.15
100
AcDbText
  0
TEXT
  5
138
330
1D
100
AcDbEntity
  8
Height
  6
Solid_Line
 62
     4
100
AcDbText
 10
423029.0030000001
 20
545670.736
 30
93.632
 40
0.3
  1
93.632
 72
     2
 11
423029.0030000001
 21
545670.736
 31
93.632
100
AcDbText
 73
     3
  0
TEXT
  5
139
330
1D
100
AcDbEntity
  8
Point_Code
  6
Solid_Line
 62
     5
100
AcDbText
 10
423029.203
 20
545670.736
 30
93.632
 40
0.3
  1
Verge Top
 11
423029.203
 21
545670.736
 31
93.632
100
AcDbText
 73
     3
  0
POINT
  5
13A
330
1D
100
AcDbEntity
  8
0
  6
Solid_Line
 62
     0
100
AcDbPoint
 10
423029.058
 20
545674.694
 30
94.095
  0
TEXT
  5
13B
330
1D
100
AcDbEntity
  8
Point_ID
  6
Solid_Line
 62
     1
100
AcDbText
 10
423029.158
 20
545674.794
 30
94.095
 40
0.3
  1
4.14
100
AcDbText
  0
TEXT
  5
13C
330
1D
100
AcDbEntity
  8
Height
  6
Solid_Line
 62
     4
100
AcDbText
 10
423028.958
 20
545674.594
 30
94.095
 40
0.3
  1
94.095
 72
     2
 11
423028.958
 21
545674.594
 31
94.095
100
AcDbText
 73
     3
  0
TEXT
  5
13D
330
1D
100
AcDbEntity
  8
Point_Code
  6
Solid_Line
 62
     5
100
AcDbText
 10
423029.158
 20
545674.594
 30
94.095
 40
0.3
  1
Verge Top
 11
423029.158
 21
545674.594
 31
94.095
100
AcDbText
 73
     3
  0
POINT
  5
13E
330
1D
100
AcDbEntity
  8
0
  6
Solid_Line
 62
     0
100
AcDbPoint
 10
423028.989
 20
545680.097
 30
94.538
  0
TEXT
  5
13F
330
1D
100
AcDbEntity
  8
Point_ID
  6
Solid_Line
 62
     1
100
AcDbText
 10
423029.089
 20
545680.197
 30
94.538
 40
0.3
  1
4.13
100
AcDbText
  0
TEXT
  5
140
330
1D
100
AcDbEntity
  8
Height
  6
Solid_Line
 62
     4
100
AcDbText
 10
423028.889
 20
545679.997
 30
94.538
 40
0.3
  1
94.538
 72
     2
 11
423028.889
 21
545679.997
 31
94.538
100
AcDbText
 73
     3
  0
TEXT
  5
141
330
1D
100
AcDbEntity
  8
Point_Code
  6
Solid_Line
 62
     5
100
AcDbText
 10
423029.089
 20
545679.997
 30
94.538
 40
0.3
  1
Verge Top
 11
423029.089
 21
545679.997
 31
94.538
100
AcDbText
 73
     3
  0
POINT
  5
142
330
1D
100
AcDbEntity
  8
0
  6
Solid_Line
 62
     0
100
AcDbPoint
 10
423028.8780000001
 20
545685.159
 30
94.89
  0
TEXT
  5
143
330
1D
100
AcDbEntity
  8
Point_ID
  6
Solid_Line
 62
     1
100
AcDbText
 10
423028.978
 20
545685.259
 30
94.89
 40
0.3
  1
4.12
100
AcDbText
  0
TEXT
  5
144
330
1D
100
AcDbEntity
  8
Height
  6
Solid_Line
 62
     4
100
AcDbText
 10
423028.778
 20
545685.059
 30
94.89
 40
0.3
  1
94.890
 72
     2
 11
423028.778
 21
545685.059
 31
94.89
100
AcDbText
 73
     3
  0
TEXT
  5
145
330
1D
100
AcDbEntity
  8
Point_Code
  6
Solid_Line
 62
     5
100
AcDbText
 10
423028.978
 20
545685.059
 30
94.89
 40
0.3
  1
Verge Top
 11
423028.978
 21
545685.059
 31
94.89
100
AcDbText
 73
     3
  0
POINT
  5
146
330
1D
100
AcDbEntity
  8
0
  6
Solid_Line
 62
     0
100
AcDbPoint
 10
423028.984
 20
545688.898
 30
95.209
  0
TEXT
  5
147
330
1D
100
AcDbEntity
  8
Point_ID
  6
Solid_Line
 62
     1
100
AcDbText
 10
423029.084
 20
545688.998
 30
95.209
 40
0.3
  1
4.11
100
AcDbText
  0
TEXT
  5
148
330
1D
100
AcDbEntity
  8
Height
  6
Solid_Line
 62
     4
100
AcDbText
 10
423028.884
 20
545688.798
 30
95.209
 40
0.3
  1
95.209
 72
     2
 11
423028.884
 21
545688.798
 31
95.209
100
AcDbText
 73
     3
  0
TEXT
  5
149
330
1D
100
AcDbEntity
  8
Point_Code
  6
Solid_Line
 62
     5
100
AcDbText
 10
423029.084
 20
545688.798
 30
95.209
 40
0.3
  1
Verge Top
 11
423029.084
 21
545688.798
 31
95.209
100
AcDbText
 73
     3
  0
POINT
  5
14A
330
1D
100
AcDbEntity
  8
0
  6
Solid_Line
 62
     0
100
AcDbPoint
 10
423029.217
 20
545693.006
 30
95.646
  0
TEXT
  5
14B
330
1D
100
AcDbEntity
  8
Point_ID
  6
Solid_Line
 62
     1
100
AcDbText
 10
423029.317
 20
545693.106
 30
95.646
 40
0.3
  1
4.10
100
AcDbText
  0
TEXT
  5
14C
330
1D
100
AcDbEntity
  8
Height
  6
Solid_Line
 62
     4
100
AcDbText
 10
423029.1170000001
 20
545692.906
 30
95.646
 40
0.3
  1
95.646
 72
     2
 11
423029.1170000001
 21
545692.906
 31
95.646
100
AcDbText
 73
     3
  0
TEXT
  5
14D
330
1D
100
AcDbEntity
  8
Point_Code
  6
Solid_Line
 62
     5
100
AcDbText
 10
423029.317
 20
545692.906
 30
95.646
 40
0.3
  1
Verge Top
 11
423029.317
 21
545692.906
 31
95.646
100
AcDbText
 73
     3
  0
POINT
  5
14E
330
1D
100
AcDbEntity
  8
0
  6
Solid_Line
 62
     0
100
AcDbPoint
 10
423029.261
 20
545696.235
 30
96.018
  0
TEXT
  5
14F
330
1D
100
AcDbEntity
  8
Point_ID
  6
Solid_Line
 62
     1
100
AcDbText
 10
423029.361
 20
545696.335
 30
96.018
 40
0.3
  1
4.9
100
AcDbText
  0
TEXT
  5
150
330
1D
100
AcDbEntity
  8
Height
  6
Solid_Line
 62
     4
100
AcDbText
 10
423029.161
 20
545696.135
 30
96.018
 40
0.3
  1
96.018
 72
     2
 11
423029.161
 21
545696.135
 31
96.018
100
AcDbText
 73
     3
  0
TEXT
  5
151
330
1D
100
AcDbEntity
  8
Point_Code
  6
Solid_Line
 62
     5
100
AcDbText
 10
423029.361
 20
545696.135
 30
96.018
 40
0.3
  1
Verge Top
 11
423029.361
 21
545696.135
 31
96.018
100
AcDbText
 73
     3
  0
POINT
  5
152
330
1D
100
AcDbEntity
  8
0
  6
Solid_Line
 62
     0
100
AcDbPoint
 10
423026.858
 20
545696.204
 30
96.078
  0
TEXT
  5
153
330
1D
100
AcDbEntity
  8
Point_ID
  6
Solid_Line
 62
     1
100
AcDbText
 10
423026.958
 20
545696.304
 30
96.078
 40
0.3
  1
4.8
100
AcDbText
  0
TEXT
  5
154
330
1D
100
AcDbEntity
  8
Height
  6
Solid_Line
 62
     4
100
AcDbText
 10
423026.758
 20
545696.104
 30
96.078
 40
0.3
  1
96.078
 72
     2
 11
423026.758
 21
545696.104
 31
96.078
100
AcDbText
 73
     3
  0
TEXT
  5
155
330
1D
100
AcDbEntity
  8
Point_Code
  6
Solid_Line
 62
     5
100
AcDbText
 10
423026.958
 20
545696.104
 30
96.078
 40
0.3
  1
Verge Top
 11
423026.958
 21
545696.104
 31
96.078
100
AcDbText
 73
     3
  0
POINT
  5
156
330
1D
100
AcDbEntity
  8
0
  6
Solid_Line
 62
     0
100
AcDbPoint
 10
423026.567
 20
545690.366
 30
95.234
  0
TEXT
  5
157
330
1D
100
AcDbEntity
  8
Point_ID
  6
Solid_Line
 62
     1
100
AcDbText
 10
423026.667
 20
545690.466
 30
95.234
 40
0.3
  1
4.7
100
AcDbText
  0
TEXT
  5
158
330
1D
100
AcDbEntity
  8
Height
  6
Solid_Line
 62
     4
100
AcDbText
 10
423026.467
 20
545690.266
 30
95.234
 40
0.3
  1
95.234
 72
     2
 11
423026.467
 21
545690.266
 31
95.234
100
AcDbText
 73
     3
  0
TEXT
  5
159
330
1D
100
AcDbEntity
  8
Point_Code
  6
Solid_Line
 62
     5
100
AcDbText
 10
423026.667
 20
545690.266
 30
95.234
 40
0.3
  1
Verge Top
 11
423026.667
 21
545690.266
 31
95.234
100
AcDbText
 73
     3
  0
POINT
  5
15A
330
1D
100
AcDbEntity
  8
0
  6
Solid_Line
 62
     0
100
AcDbPoint
 10
423026.557
 20
545686.093
 30
94.867
  0
TEXT
  5
15B
330
1D
100
AcDbEntity
  8
Point_ID
  6
Solid_Line
 62
     1
100
AcDbText
 10
423026.657
 20
545686.193
 30
94.867
 40
0.3
  1
4.6
100
AcDbText
  0
TEXT
  5
15C
330
1D
100
AcDbEntity
  8
Height
  6
Solid_Line
 62
     4
100
AcDbText
 10
423026.457
 20
545685.993
 30
94.867
 40
0.3
  1
94.867
 72
     2
 11
423026.457
 21
545685.993
 31
94.867
100
AcDbText
 73
     3
  0
TEXT
  5
15D
330
1D
100
AcDbEntity
  8
Point_Code
  6
Solid_Line
 62
     5
100
AcDbText
 10
423026.657
 20
545685.993
 30
94.867
 40
0.3
  1
Verge Top
 11
423026.657
 21
545685.993
 31
94.867
100
AcDbText
 73
     3
  0
POINT
  5
15E
330
1D
100
AcDbEntity
  8
0
  6
Solid_Line
 62
     0
100
AcDbPoint
 10
423026.513
 20
545681.903
 30
94.584
  0
TEXT
  5
15F
330
1D
100
AcDbEntity
  8
Point_ID
  6
Solid_Line
 62
     1
100
AcDbText
 10
423026.613
 20
545682.003
 30
94.584
 40
0.3
  1
4.5
100
AcDbText
  0
TEXT
  5
160
330
1D
100
AcDbEntity
  8
Height
  6
Solid_Line
 62
     4
100
AcDbText
 10
423026.413
 20
545681.803
 30
94.584
 40
0.3
  1
94.584
 72
     2
 11
423026.413
 21
545681.803
 31
94.584
100
AcDbText
 73
     3
  0
TEXT
  5
161
330
1D
100
AcDbEntity
  8
Point_Code
  6
Solid_Line
 62
     5
100
AcDbText
 10
423026.613
 20
545681.803
 30
94.584
 40
0.3
  1
Verge Top
 11
423026.613
 21
545681.803
 31
94.584
100
AcDbText
 73
     3
  0
POINT
  5
162
330
1D
100
AcDbEntity
  8
0
  6
Solid_Line
 62
     0
100
AcDbPoint
 10
423026.5300000001
 20
545676.477
 30
94.077
  0
TEXT
  5
163
330
1D
100
AcDbEntity
  8
Point_ID
  6
Solid_Line
 62
     1
100
AcDbText
 10
423026.63
 20
545676.577
 30
94.077
 40
0.3
  1
4.4
100
AcDbText
  0
TEXT
  5
164
330
1D
100
AcDbEntity
  8
Height
  6
Solid_Line
 62
     4
100
AcDbText
 10
423026.43
 20
545676.377
 30
94.077
 40
0.3
  1
94.077
 72
     2
 11
423026.43
 21
545676.377
 31
94.077
100
AcDbText
 73
     3
  0
TEXT
  5
165
330
1D
100
AcDbEntity
  8
Point_Code
  6
Solid_Line
 62
     5
100
AcDbText
 10
423026.63
 20
545676.377
 30
94.077
 40
0.3
  1
Verge Top
 11
423026.63
 21
545676.377
 31
94.077
100
AcDbText
 73
     3
  0
POINT
  5
166
330
1D
100
AcDbEntity
  8
0
  6
Solid_Line
 62
     0
100
AcDbPoint
 10
423026.767
 20
545671.552
 30
93.752
  0
TEXT
  5
167
330
1D
100
AcDbEntity
  8
Point_ID
  6
Solid_Line
 62
     1
100
AcDbText
 10
423026.8670000001
 20
545671.652
 30
93.752
 40
0.3
  1
4.3
100
AcDbText
  0
TEXT
  5
168
330
1D
100
AcDbEntity
  8
Height
  6
Solid_Line
 62
     4
100
AcDbText
 10
423026.667
 20
545671.452
 30
93.752
 40
0.3
  1
93.752
 72
     2
 11
423026.667
 21
545671.452
 31
93.752
100
AcDbText
 73
     3
  0
TEXT
  5
169
330
1D
100
AcDbEntity
  8
Point_Code
  6
Solid_Line
 62
     5
100
AcDbText
 10
423026.8670000001
 20
545671.452
 30
93.752
 40
0.3
  1
Verge Top
 11
423026.8670000001
 21
545671.452
 31
93.752
100
AcDbText
 73
     3
  0
POINT
  5
16A
330
1D
100
AcDbEntity
  8
0
  6
Solid_Line
 62
     0
100
AcDbPoint
 10
423026.786
 20
545667.896
 30
93.396
  0
TEXT
  5
16B
330
1D
100
AcDbEntity
  8
Point_ID
  6
Solid_Line
 62
     1
100
AcDbText
 10
423026.886
 20
545667.996
 30
93.396
 40
0.3
  1
4.2
100
AcDbText
  0
TEXT
  5
16C
330
1D
100
AcDbEntity
  8
Height
  6
Solid_Line
 62
     4
100
AcDbText
 10
423026.686
 20
545667.796
 30
93.396
 40
0.3
  1
93.396
 72
     2
 11
423026.686
 21
545667.796
 31
93.396
100
AcDbText
 73
     3
  0
TEXT
  5
16D
330
1D
100
AcDbEntity
  8
Point_Code
  6
Solid_Line
 62
     5
100
AcDbText
 10
423026.886
 20
545667.796
 30
93.396
 40
0.3
  1
Verge Top
 11
423026.886
 21
545667.796
 31
93.396
100
AcDbText
 73
     3
  0
POINT
  5
16E
330
1D
100
AcDbEntity
  8
0
  6
Solid_Line
 62
     0
100
AcDbPoint
 10
423026.8180000001
 20
545664.645
 30
92.999
  0
TEXT
  5
16F
330
1D
100
AcDbEntity
  8
Point_ID
  6
Solid_Line
 62
     1
100
AcDbText
 10
423026.918
 20
545664.745
 30
92.999
 40
0.3
  1
4.1
100
AcDbText
  0
TEXT
  5
170
330
1D
100
AcDbEntity
  8
Height
  6
Solid_Line
 62
     4
100
AcDbText
 10
423026.718
 20
545664.545
 30
92.999
 40
0.3
  1
92.999
 72
     2
 11
423026.718
 21
545664.545
 31
92.999
100
AcDbText
 73
     3
  0
TEXT
  5
171
330
1D
100
AcDbEntity
  8
Point_Code
  6
Solid_Line
 62
     5
100
AcDbText
 10
423026.918
 20
545664.545
 30
92.999
 40
0.3
  1
Verge Top
 11
423026.918
 21
545664.545
 31
92.999
100
AcDbText
 73
     3
  0
POINT
  5
172
330
1D
100
AcDbEntity
  8
0
  6
Solid_Line
 62
     0
100
AcDbPoint
 10
423020.659
 20
545658.855
 30
92.529
  0
TEXT
  5
173
330
1D
100
AcDbEntity
  8
Point_ID
  6
Solid_Line
 62
     1
100
AcDbText
 10
423020.759
 20
545658.955
 30
92.529
 40
0.3
  1
3.51
100
AcDbText
  0
TEXT
  5
174
330
1D
100
AcDbEntity
  8
Height
  6
Solid_Line
 62
     4
100
AcDbText
 10
423020.559
 20
545658.755
 30
92.529
 40
0.3
  1
92.529
 72
     2
 11
423020.559
 21
545658.755
 31
92.529
100
AcDbText
 73
     3
  0
TEXT
  5
175
330
1D
100
AcDbEntity
  8
Point_Code
  6
Solid_Line
 62
     5
100
AcDbText
 10
423020.759
 20
545658.755
 30
92.529
 40
0.3
  1
POINT
 11
423020.759
 21
545658.755
 31
92.529
100
AcDbText
 73
     3
  0
POINT
  5
176
330
1D
100
AcDbEntity
  8
0
  6
Solid_Line
 62
     0
100
AcDbPoint
 10
423019.91
 20
545659.622
 30
92.532
  0
TEXT
  5
177
330
1D
100
AcDbEntity
  8
Point_ID
  6
Solid_Line
 62
     1
100
AcDbText
 10
423020.01
 20
545659.722
 30
92.532
 40
0.3
  1
3.50
100
AcDbText
  0
TEXT
  5
178
330
1D
100
AcDbEntity
  8
Height
  6
Solid_Line
 62
     4
100
AcDbText
 10
423019.81
 20
545659.522
 30
92.532
 40
0.3
  1
92.532
 72
     2
 11
423019.81
 21
545659.522
 31
92.532
100
AcDbText
 73
     3
  0
TEXT
  5
179
330
1D
100
AcDbEntity
  8
Point_Code
  6
Solid_Line
 62
     5
100
AcDbText
 10
423020.01
 20
545659.522
 30
92.532
 40
0.3
  1
POINT
 11
423020.01
 21
545659.522
 31
92.532
100
AcDbText
 73
     3
  0
POINT
  5
17A
330
1D
100
AcDbEntity
  8
0
  6
Solid_Line
 62
     0
100
AcDbPoint
 10
423019.908
 20
545659.624
 30
92.555
  0
TEXT
  5
17B
330
1D
100
AcDbEntity
  8
Point_ID
  6
Solid_Line
 62
     1
100
AcDbText
 10
423020.008
 20
545659.724
 30
92.555
 40
0.3
  1
3.1
100
AcDbText
  0
TEXT
  5
17C
330
1D
100
AcDbEntity
  8
Height
  6
Solid_Line
 62
     4
100
AcDbText
 10
423019.808
 20
545659.524
 30
92.555
 40
0.3
  1
92.555
 72
     2
 11
423019.808
 21
545659.524
 31
92.555
100
AcDbText
 73
     3
  0
TEXT
  5
17D
330
1D
100
AcDbEntity
  8
Point_Code
  6
Solid_Line
 62
     5
100
AcDbText
 10
423020.008
 20
545659.524
 30
92.555
 40
0.3
  1
POINT
 11
423020.008
 21
545659.524
 31
92.555
100
AcDbText
 73
     3
  0
POINT
  5
17E
330
1D
100
AcDbEntity
  8
0
  6
Solid_Line
 62
     0
100
AcDbPoint
 10
423015.915
 20
545660.774
 30
91.962
  0
TEXT
  5
17F
330
1D
100
AcDbEntity
  8
Point_ID
  6
Solid_Line
 62
     1
100
AcDbText
 10
423016.015
 20
545660.874
 30
91.962
 40
0.3
  1
3.34
100
AcDbText
  0
TEXT
  5
180
330
1D
100
AcDbEntity
  8
Height
  6
Solid_Line
 62
     4
100
AcDbText
 10
423015.815
 20
545660.674
 30
91.962
 40
0.3
  1
91.962
 72
     2
 11
423015.815
 21
545660.674
 31
91.962
100
AcDbText
 73
     3
  0
TEXT
  5
181
330
1D
100
AcDbEntity
  8
Point_Code
  6
Solid_Line
 62
     5
100
AcDbText
 10
423016.015
 20
545660.674
 30
91.962
 40
0.3
  1
Verge Bottom
 11
423016.015
 21
545660.674
 31
91.962
100
AcDbText
 73
     3
  0
POINT
  5
182
330
1D
100
AcDbEntity
  8
0
  6
Solid_Line
 62
     0
100
AcDbPoint
 10
423018.8780000001
 20
545657.639
 30
91.848
  0
TEXT
  5
183
330
1D
100
AcDbEntity
  8
Point_ID
  6
Solid_Line
 62
     1
100
AcDbText
 10
423018.978
 20
545657.739
 30
91.848
 40
0.3
  1
3.33
100
AcDbText
  0
TEXT
  5
184
330
1D
100
AcDbEntity
  8
Height
  6
Solid_Line
 62
     4
100
AcDbText
 10
423018.778
 20
545657.539
 30
91.848
 40
0.3
  1
91.848
 72
     2
 11
423018.778
 21
545657.539
 31
91.848
100
AcDbText
 73
     3
  0
TEXT
  5
185
330
1D
100
AcDbEntity
  8
Point_Code
  6
Solid_Line
 62
     5
100
AcDbText
 10
423018.978
 20
545657.539
 30
91.848
 40
0.3
  1
Verge Bottom
 11
423018.978
 21
545657.539
 31
91.848
100
AcDbText
 73
     3
  0
POINT
  5
186
330
1D
100
AcDbEntity
  8
0
  6
Solid_Line
 62
     0
100
AcDbPoint
 10
423021.749
 20
545654.628
 30
91.764
  0
TEXT
  5
187
330
1D
100
AcDbEntity
  8
Point_ID
  6
Solid_Line
 62
     1
100
AcDbText
 10
423021.849
 20
545654.728
 30
91.764
 40
0.3
  1
3.32
100
AcDbText
  0
TEXT
  5
188
330
1D
100
AcDbEntity
  8
Height
  6
Solid_Line
 62
     4
100
AcDbText
 10
423021.649
 20
545654.528
 30
91.764
 40
0.3
  1
91.764
 72
     2
 11
423021.649
 21
545654.528
 31
91.764
100
AcDbText
 73
     3
  0
TEXT
  5
189
330
1D
100
AcDbEntity
  8
Point_Code
  6
Solid_Line
 62
     5
100
AcDbText
 10
423021.849
 20
545654.528
 30
91.764
 40
0.3
  1
Verge Bottom
 11
423021.849
 21
545654.528
 31
91.764
100
AcDbText
 73
     3
  0
POINT
  5
18A
330
1D
100
AcDbEntity
  8
0
  6
Solid_Line
 62
     0
100
AcDbPoint
 10
423024.548
 20
545651.833
 30
91.654
  0
TEXT
  5
18B
330
1D
100
AcDbEntity
  8
Point_ID
  6
Solid_Line
 62
     1
100
AcDbText
 10
423024.648
 20
545651.933
 30
91.654
 40
0.3
  1
3.31
100
AcDbText
  0
TEXT
  5
18C
330
1D
100
AcDbEntity
  8
Height
  6
Solid_Line
 62
     4
100
AcDbText
 10
423024.448
 20
545651.733
 30
91.654
 40
0.3
  1
91.654
 72
     2
 11
423024.448
 21
545651.733
 31
91.654
100
AcDbText
 73
     3
  0
TEXT
  5
18D
330
1D
100
AcDbEntity
  8
Point_Code
  6
Solid_Line
 62
     5
100
AcDbText
 10
423024.648
 20
545651.733
 30
91.654
 40
0.3
  1
Verge Bottom
 11
423024.648
 21
545651.733
 31
91.654
100
AcDbText
 73
     3
  0
POINT
  5
18E
330
1D
100
AcDbEntity
  8
0
  6
Solid_Line
 62
     0
100
AcDbPoint
 10
423026.935
 20
545649.414
 30
91.61
  0
TEXT
  5
18F
330
1D
100
AcDbEntity
  8
Point_ID
  6
Solid_Line
 62
     1
100
AcDbText
 10
423027.035
 20
545649.514
 30
91.61
 40
0.3
  1
3.30
100
AcDbText
  0
TEXT
  5
190
330
1D
100
AcDbEntity
  8
Height
  6
Solid_Line
 62
     4
100
AcDbText
 10
423026.835
 20
545649.314
 30
91.61
 40
0.3
  1
91.610
 72
     2
 11
423026.835
 21
545649.314
 31
91.61
100
AcDbText
 73
     3
  0
TEXT
  5
191
330
1D
100
AcDbEntity
  8
Point_Code
  6
Solid_Line
 62
     5
100
AcDbText
 10
423027.035
 20
545649.314
 30
91.61
 40
0.3
  1
Verge Bottom
 11
423027.035
 21
545649.314
 31
91.61
100
AcDbText
 73
     3
  0
POINT
  5
192
330
1D
100
AcDbEntity
  8
0
  6
Solid_Line
 62
     0
100
AcDbPoint
 10
423029.191
 20
545647.031
 30
91.618
  0
TEXT
  5
193
330
1D
100
AcDbEntity
  8
Point_ID
  6
Solid_Line
 62
     1
100
AcDbText
 10
423029.2910000001
 20
545647.131
 30
91.618
 40
0.3
  1
3.29
100
AcDbText
  0
TEXT
  5
194
330
1D
100
AcDbEntity
  8
Height
  6
Solid_Line
 62
     4
100
AcDbText
 10
423029.091
 20
545646.931
 30
91.618
 40
0.3
  1
91.618
 72
     2
 11
423029.091
 21
545646.931
 31
91.618
100
AcDbText
 73
     3
  0
TEXT
  5
195
330
1D
100
AcDbEntity
  8
Point_Code
  6
Solid_Line
 62
     5
100
AcDbText
 10
423029.2910000001
 20
545646.931
 30
91.618
 40
0.3
  1
Verge Bottom
 11
423029.2910000001
 21
545646.931
 31
91.618
100
AcDbText
 73
     3
  0
POINT
  5
196
330
1D
100
AcDbEntity
  8
0
  6
Solid_Line
 62
     0
100
AcDbPoint
 10
423031.967
 20
545644.288
 30
91.577
  0
TEXT
  5
197
330
1D
100
AcDbEntity
  8
Point_ID
  6
Solid_Line
 62
     1
100
AcDbText
 10
423032.067
 20
545644.388
 30
91.577
 40
0.3
  1
3.28
100
AcDbText
  0
TEXT
  5
198
330
1D
100
AcDbEntity
  8
Height
  6
Solid_Line
 62
     4
100
AcDbText
 10
423031.8670000001
 20
545644.188
 30
91.577
 40
0.3
  1
91.577
 72
     2
 11
423031.8670000001
 21
545644.188
 31
91.577
100
AcDbText
 73
     3
  0
TEXT
  5
199
330
1D
100
AcDbEntity
  8
Point_Code
  6
Solid_Line
 62
     5
100
AcDbText
 10
423032.067
 20
545644.188
 30
91.577
 40
0.3
  1
Verge Bottom
 11
423032.067
 21
545644.188
 31
91.577
100
AcDbText
 73
     3
  0
POINT
  5
19A
330
1D
100
AcDbEntity
  8
0
  6
Solid_Line
 62
     0
100
AcDbPoint
 10
423034.1060000001
 20
545642.158
 30
91.57
  0
TEXT
  5
19B
330
1D
100
AcDbEntity
  8
Point_ID
  6
Solid_Line
 62
     1
100
AcDbText
 10
423034.206
 20
545642.258
 30
91.57
 40
0.3
  1
3.27
100
AcDbText
  0
TEXT
  5
19C
330
1D
100
AcDbEntity
  8
Height
  6
Solid_Line
 62
     4
100
AcDbText
 10
423034.006
 20
545642.058
 30
91.57
 40
0.3
  1
91.570
 72
     2
 11
423034.006
 21
545642.058
 31
91.57
100
AcDbText
 73
     3
  0
TEXT
  5
19D
330
1D
100
AcDbEntity
  8
Point_Code
  6
Solid_Line
 62
     5
100
AcDbText
 10
423034.206
 20
545642.058
 30
91.57
 40
0.3
  1
Verge Bottom
 11
423034.206
 21
545642.058
 31
91.57
100
AcDbText
 73
     3
  0
POINT
  5
19E
330
1D
100
AcDbEntity
  8
0
  6
Solid_Line
 62
     0
100
AcDbPoint
 10
423035.482
 20
545643.592
 30
91.594
  0
TEXT
  5
19F
330
1D
100
AcDbEntity
  8
Point_ID
  6
Solid_Line
 62
     1
100
AcDbText
 10
423035.582
 20
545643.692
 30
91.594
 40
0.3
  1
3.26
100
AcDbText
  0
TEXT
  5
1A0
330
1D
100
AcDbEntity
  8
Height
  6
Solid_Line
 62
     4
100
AcDbText
 10
423035.382
 20
545643.492
 30
91.594
 40
0.3
  1
91.594
 72
     2
 11
423035.382
 21
545643.492
 31
91.594
100
AcDbText
 73
     3
  0
TEXT
  5
1A1
330
1D
100
AcDbEntity
  8
Point_Code
  6
Solid_Line
 62
     5
100
AcDbText
 10
423035.582
 20
545643.492
 30
91.594
 40
0.3
  1
Verge Bottom
 11
423035.582
 21
545643.492
 31
91.594
100
AcDbText
 73
     3
  0
POINT
  5
1A2
330
1D
100
AcDbEntity
  8
0
  6
Solid_Line
 62
     0
100
AcDbPoint
 10
423033.734
 20
545645.347
 30
91.493
  0
TEXT
  5
1A3
330
1D
100
AcDbEntity
  8
Point_ID
  6
Solid_Line
 62
     1
100
AcDbText
 10
423033.834
 20
545645.447
 30
91.493
 40
0.3
  1
3.25
100
AcDbText
  0
TEXT
  5
1A4
330
1D
100
AcDbEntity
  8
Height
  6
Solid_Line
 62
     4
100
AcDbText
 10
423033.634
 20
545645.247
 30
91.493
 40
0.3
  1
91.493
 72
     2
 11
423033.634
 21
545645.247
 31
91.493
100
AcDbText
 73
     3
  0
TEXT
  5
1A5
330
1D
100
AcDbEntity
  8
Point_Code
  6
Solid_Line
 62
     5
100
AcDbText
 10
423033.834
 20
545645.247
 30
91.493
 40
0.3
  1
Verge Bottom
 11
423033.834
 21
545645.247
 31
91.493
100
AcDbText
 73
     3
  0
POINT
  5
1A6
330
1D
100
AcDbEntity
  8
0
  6
Solid_Line
 62
     0
100
AcDbPoint
 10
423030.399
 20
545648.666
 30
91.569
  0
TEXT
  5
1A7
330
1D
100
AcDbEntity
  8
Point_ID
  6
Solid_Line
 62
     1
100
AcDbText
 10
423030.499
 20
545648.766
 30
91.569
 40
0.3
  1
3.24
100
AcDbText
  0
TEXT
  5
1A8
330
1D
100
AcDbEntity
  8
Height
  6
Solid_Line
 62
     4
100
AcDbText
 10
423030.299
 20
545648.566
 30
91.569
 40
0.3
  1
91.569
 72
     2
 11
423030.299
 21
545648.566
 31
91.569
100
AcDbText
 73
     3
  0
TEXT
  5
1A9
330
1D
100
AcDbEntity
  8
Point_Code
  6
Solid_Line
 62
     5
100
AcDbText
 10
423030.499
 20
545648.566
 30
91.569
 40
0.3
  1
Verge Bottom
 11
423030.499
 21
545648.566
 31
91.569
100
AcDbText
 73
     3
  0
POINT
  5
1AA
330
1D
100
AcDbEntity
  8
0
  6
Solid_Line
 62
     0
100
AcDbPoint
 10
423027.8020000001
 20
545651.357
 30
91.62
  0
TEXT
  5
1AB
330
1D
100
AcDbEntity
  8
Point_ID
  6
Solid_Line
 62
     1
100
AcDbText
 10
423027.902
 20
545651.457
 30
91.62
 40
0.3
  1
3.23
100
AcDbText
  0
TEXT
  5
1AC
330
1D
100
AcDbEntity
  8
Height
  6
Solid_Line
 62
     4
100
AcDbText
 10
423027.702
 20
545651.257
 30
91.62
 40
0.3
  1
91.620
 72
     2
 11
423027.702
 21
545651.257
 31
91.62
100
AcDbText
 73
     3
  0
TEXT
  5
1AD
330
1D
100
AcDbEntity
  8
Point_Code
  6
Solid_Line
 62
     5
100
AcDbText
 10
423027.902
 20
545651.257
 30
91.62
 40
0.3
  1
Verge Bottom
 11
423027.902
 21
545651.257
 31
91.62
100
AcDbText
 73
     3
  0
POINT
  5
1AE
330
1D
100
AcDbEntity
  8
0
  6
Solid_Line
 62
     0
100
AcDbPoint
 10
423025.949
 20
545653.164
 30
91.631
  0
TEXT
  5
1AF
330
1D
100
AcDbEntity
  8
Point_ID
  6
Solid_Line
 62
     1
100
AcDbText
 10
423026.049
 20
545653.264
 30
91.631
 40
0.3
  1
3.22
100
AcDbText
  0
TEXT
  5
1B0
330
1D
100
AcDbEntity
  8
Height
  6
Solid_Line
 62
     4
100
AcDbText
 10
423025.849
 20
545653.064
 30
91.631
 40
0.3
  1
91.631
 72
     2
 11
423025.849
 21
545653.064
 31
91.631
100
AcDbText
 73
     3
  0
TEXT
  5
1B1
330
1D
100
AcDbEntity
  8
Point_Code
  6
Solid_Line
 62
     5
100
AcDbText
 10
423026.049
 20
545653.064
 30
91.631
 40
0.3
  1
Verge Bottom
 11
423026.049
 21
545653.064
 31
91.631
100
AcDbText
 73
     3
  0
POINT
  5
1B2
330
1D
100
AcDbEntity
  8
0
  6
Solid_Line
 62
     0
100
AcDbPoint
 10
423023.267
 20
545655.899
 30
91.76
  0
TEXT
  5
1B3
330
1D
100
AcDbEntity
  8
Point_ID
  6
Solid_Line
 62
     1
100
AcDbText
 10
423023.3670000001
 20
545655.999
 30
91.76
 40
0.3
  1
3.21
100
AcDbText
  0
TEXT
  5
1B4
330
1D
100
AcDbEntity
  8
Height
  6
Solid_Line
 62
     4
100
AcDbText
 10
423023.167
 20
545655.799
 30
91.76
 40
0.3
  1
91.760
 72
     2
 11
423023.167
 21
545655.799
 31
91.76
100
AcDbText
 73
     3
  0
TEXT
  5
1B5
330
1D
100
AcDbEntity
  8
Point_Code
  6
Solid_Line
 62
     5
100
AcDbText
 10
423023.3670000001
 20
545655.799
 30
91.76
 40
0.3
  1
Verge Bottom
 11
423023.3670000001
 21
545655.799
 31
91.76
100
AcDbText
 73
     3
  0
POINT
  5
1B6
330
1D
100
AcDbEntity
  8
0
  6
Solid_Line
 62
     0
100
AcDbPoint
 10
423020.626
 20
545658.661
 30
91.84
  0
TEXT
  5
1B7
330
1D
100
AcDbEntity
  8
Point_ID
  6
Solid_Line
 62
     1
100
AcDbText
 10
423020.726
 20
545658.761
 30
91.84
 40
0.3
  1
3.20
100
AcDbText
  0
TEXT
  5
1B8
330
1D
100
AcDbEntity
  8
Height
  6
Solid_Line
 62
     4
100
AcDbText
 10
423020.526
 20
545658.561
 30
91.84
 40
0.3
  1
91.840
 72
     2
 11
423020.526
 21
545658.561
 31
91.84
100
AcDbText
 73
     3
  0
TEXT
  5
1B9
330
1D
100
AcDbEntity
  8
Point_Code
  6
Solid_Line
 62
     5
100
AcDbText
 10
423020.726
 20
545658.561
 30
91.84
 40
0.3
  1
Verge Bottom
 11
423020.726
 21
545658.561
 31
91.84
100
AcDbText
 73
     3
  0
POINT
  5
1BA
330
1D
100
AcDbEntity
  8
0
  6
Solid_Line
 62
     0
100
AcDbPoint
 10
423018.099
 20
545661.262
 30
91.977
  0
TEXT
  5
1BB
330
1D
100
AcDbEntity
  8
Point_ID
  6
Solid_Line
 62
     1
100
AcDbText
 10
423018.199
 20
545661.362
 30
91.977
 40
0.3
  1
3.19
100
AcDbText
  0
TEXT
  5
1BC
330
1D
100
AcDbEntity
  8
Height
  6
Solid_Line
 62
     4
100
AcDbText
 10
423017.999
 20
545661.162
 30
91.977
 40
0.3
  1
91.977
 72
     2
 11
423017.999
 21
545661.162
 31
91.977
100
AcDbText
 73
     3
  0
TEXT
  5
1BD
330
1D
100
AcDbEntity
  8
Point_Code
  6
Solid_Line
 62
     5
100
AcDbText
 10
423018.199
 20
545661.162
 30
91.977
 40
0.3
  1
Verge Bottom
 11
423018.199
 21
545661.162
 31
91.977
100
AcDbText
 73
     3
  0
POINT
  5
1BE
330
1D
100
AcDbEntity
  8
0
  6
Solid_Line
 62
     0
100
AcDbPoint
 10
423015.885
 20
545663.617
 30
92.027
  0
TEXT
  5
1BF
330
1D
100
AcDbEntity
  8
Point_ID
  6
Solid_Line
 62
     1
100
AcDbText
 10
423015.985
 20
545663.717
 30
92.027
 40
0.3
  1
3.18
100
AcDbText
  0
TEXT
  5
1C0
330
1D
100
AcDbEntity
  8
Height
  6
Solid_Line
 62
     4
100
AcDbText
 10
423015.785
 20
545663.517
 30
92.027
 40
0.3
  1
92.027
 72
     2
 11
423015.785
 21
545663.517
 31
92.027
100
AcDbText
 73
     3
  0
TEXT
  5
1C1
330
1D
100
AcDbEntity
  8
Point_Code
  6
Solid_Line
 62
     5
100
AcDbText
 10
423015.985
 20
545663.517
 30
92.027
 40
0.3
  1
Verge Bottom
 11
423015.985
 21
545663.517
 31
92.027
100
AcDbText
 73
     3
  0
POINT
  5
1C2
330
1D
100
AcDbEntity
  8
0
  6
Solid_Line
 62
     0
100
AcDbPoint
 10
423014.586
 20
545662.199
 30
91.944
  0
TEXT
  5
1C3
330
1D
100
AcDbEntity
  8
Point_ID
  6
Solid_Line
 62
     1
100
AcDbText
 10
423014.686
 20
545662.299
 30
91.944
 40
0.3
  1
3.17
100
AcDbText
  0
TEXT
  5
1C4
330
1D
100
AcDbEntity
  8
Height
  6
Solid_Line
 62
     4
100
AcDbText
 10
423014.486
 20
545662.099
 30
91.944
 40
0.3
  1
91.944
 72
     2
 11
423014.486
 21
545662.099
 31
91.944
100
AcDbText
 73
     3
  0
TEXT
  5
1C5
330
1D
100
AcDbEntity
  8
Point_Code
  6
Solid_Line
 62
     5
100
AcDbText
 10
423014.686
 20
545662.099
 30
91.944
 40
0.3
  1
Verge Bottom
 11
423014.686
 21
545662.099
 31
91.944
100
AcDbText
 73
     3
  0
POINT
  5
1C6
330
1D
100
AcDbEntity
  8
0
  6
Solid_Line
 62
     0
100
AcDbPoint
 10
423014.284
 20
545662.146
 30
92.711
  0
TEXT
  5
1C7
330
1D
100
AcDbEntity
  8
Point_ID
  6
Solid_Line
 62
     1
100
AcDbText
 10
423014.384
 20
545662.246
 30
92.711
 40
0.3
  1
3.16
100
AcDbText
  0
TEXT
  5
1C8
330
1D
100
AcDbEntity
  8
Height
  6
Solid_Line
 62
     4
100
AcDbText
 10
423014.184
 20
545662.046
 30
92.711
 40
0.3
  1
92.711
 72
     2
 11
423014.184
 21
545662.046
 31
92.711
100
AcDbText
 73
     3
  0
TEXT
  5
1C9
330
1D
100
AcDbEntity
  8
Point_Code
  6
Solid_Line
 62
     5
100
AcDbText
 10
423014.384
 20
545662.046
 30
92.711
 40
0.3
  1
Verge Top
 11
423014.384
 21
545662.046
 31
92.711
100
AcDbText
 73
     3
  0
POINT
  5
1CA
330
1D
100
AcDbEntity
  8
0
  6
Solid_Line
 62
     0
100
AcDbPoint
 10
423016.64
 20
545659.757
 30
92.454
  0
TEXT
  5
1CB
330
1D
100
AcDbEntity
  8
Point_ID
  6
Solid_Line
 62
     1
100
AcDbText
 10
423016.74
 20
545659.857
 30
92.454
 40
0.3
  1
3.15
100
AcDbText
  0
TEXT
  5
1CC
330
1D
100
AcDbEntity
  8
Height
  6
Solid_Line
 62
     4
100
AcDbText
 10
423016.54
 20
545659.657
 30
92.454
 40
0.3
  1
92.454
 72
     2
 11
423016.54
 21
545659.657
 31
92.454
100
AcDbText
 73
     3
  0
TEXT
  5
1CD
330
1D
100
AcDbEntity
  8
Point_Code
  6
Solid_Line
 62
     5
100
AcDbText
 10
423016.74
 20
545659.657
 30
92.454
 40
0.3
  1
Verge Top
 11
423016.74
 21
545659.657
 31
92.454
100
AcDbText
 73
     3
  0
POINT
  5
1CE
330
1D
100
AcDbEntity
  8
0
  6
Solid_Line
 62
     0
100
AcDbPoint
 10
423019.694
 20
545656.675
 30
92.436
  0
TEXT
  5
1CF
330
1D
100
AcDbEntity
  8
Point_ID
  6
Solid_Line
 62
     1
100
AcDbText
 10
423019.794
 20
545656.775
 30
92.436
 40
0.3
  1
3.14
100
AcDbText
  0
TEXT
  5
1D0
330
1D
100
AcDbEntity
  8
Height
  6
Solid_Line
 62
     4
100
AcDbText
 10
423019.594
 20
545656.575
 30
92.436
 40
0.3
  1
92.436
 72
     2
 11
423019.594
 21
545656.575
 31
92.436
100
AcDbText
 73
     3
  0
TEXT
  5
1D1
330
1D
100
AcDbEntity
  8
Point_Code
  6
Solid_Line
 62
     5
100
AcDbText
 10
423019.794
 20
545656.575
 30
92.436
 40
0.3
  1
Verge Top
 11
423019.794
 21
545656.575
 31
92.436
100
AcDbText
 73
     3
  0
POINT
  5
1D2
330
1D
100
AcDbEntity
  8
0
  6
Solid_Line
 62
     0
100
AcDbPoint
 10
423022.811
 20
545653.388
 30
92.284
  0
TEXT
  5
1D3
330
1D
100
AcDbEntity
  8
Point_ID
  6
Solid_Line
 62
     1
100
AcDbText
 10
423022.911
 20
545653.488
 30
92.284
 40
0.3
  1
3.13
100
AcDbText
  0
TEXT
  5
1D4
330
1D
100
AcDbEntity
  8
Height
  6
Solid_Line
 62
     4
100
AcDbText
 10
423022.711
 20
545653.288
 30
92.284
 40
0.3
  1
92.284
 72
     2
 11
423022.711
 21
545653.288
 31
92.284
100
AcDbText
 73
     3
  0
TEXT
  5
1D5
330
1D
100
AcDbEntity
  8
Point_Code
  6
Solid_Line
 62
     5
100
AcDbText
 10
423022.911
 20
545653.288
 30
92.284
 40
0.3
  1
Verge Top
 11
423022.911
 21
545653.288
 31
92.284
100
AcDbText
 73
     3
  0
POINT
  5
1D6
330
1D
100
AcDbEntity
  8
0
  6
Solid_Line
 62
     0
100
AcDbPoint
 10
423025.903
 20
545650.254
 30
92.277
  0
TEXT
  5
1D7
330
1D
100
AcDbEntity
  8
Point_ID
  6
Solid_Line
 62
     1
100
AcDbText
 10
423026.0030000001
 20
545650.354
 30
92.277
 40
0.3
  1
3.12
100
AcDbText
  0
TEXT
  5
1D8
330
1D
100
AcDbEntity
  8
Height
  6
Solid_Line
 62
     4
100
AcDbText
 10
423025.803
 20
545650.154
 30
92.277
 40
0.3
  1
92.277
 72
     2
 11
423025.803
 21
545650.154
 31
92.277
100
AcDbText
 73
     3
  0
TEXT
  5
1D9
330
1D
100
AcDbEntity
  8
Point_Code
  6
Solid_Line
 62
     5
100
AcDbText
 10
423026.0030000001
 20
545650.154
 30
92.277
 40
0.3
  1
Verge Top
 11
423026.0030000001
 21
545650.154
 31
92.277
100
AcDbText
 73
     3
  0
POINT
  5
1DA
330
1D
100
AcDbEntity
  8
0
  6
Solid_Line
 62
     0
100
AcDbPoint
 10
423029.403
 20
545646.569
 30
92.233
  0
TEXT
  5
1DB
330
1D
100
AcDbEntity
  8
Point_ID
  6
Solid_Line
 62
     1
100
AcDbText
 10
423029.5030000001
 20
545646.669
 30
92.233
 40
0.3
  1
3.11
100
AcDbText
  0
TEXT
  5
1DC
330
1D
100
AcDbEntity
  8
Height
  6
Solid_Line
 62
     4
100
AcDbText
 10
423029.303
 20
545646.469
 30
92.233
 40
0.3
  1
92.233
 72
     2
 11
423029.303
 21
545646.469
 31
92.233
100
AcDbText
 73
     3
  0
TEXT
  5
1DD
330
1D
100
AcDbEntity
  8
Point_Code
  6
Solid_Line
 62
     5
100
AcDbText
 10
423029.5030000001
 20
545646.469
 30
92.233
 40
0.3
  1
Verge Top
 11
423029.5030000001
 21
545646.469
 31
92.233
100
AcDbText
 73
     3
  0
POINT
  5
1DE
330
1D
100
AcDbEntity
  8
0
  6
Solid_Line
 62
     0
100
AcDbPoint
 10
423032.036
 20
545643.866
 30
92.15
  0
TEXT
  5
1DF
330
1D
100
AcDbEntity
  8
Point_ID
  6
Solid_Line
 62
     1
100
AcDbText
 10
423032.136
 20
545643.966
 30
92.15
 40
0.3
  1
3.10
100
AcDbText
  0
TEXT
  5
1E0
330
1D
100
AcDbEntity
  8
Height
  6
Solid_Line
 62
     4
100
AcDbText
 10
423031.936
 20
545643.766
 30
92.15
 40
0.3
  1
92.150
 72
     2
 11
423031.936
 21
545643.766
 31
92.15
100
AcDbText
 73
     3
  0
TEXT
  5
1E1
330
1D
100
AcDbEntity
  8
Point_Code
  6
Solid_Line
 62
     5
100
AcDbText
 10
423032.136
 20
545643.766
 30
92.15
 40
0.3
  1
Verge Top
 11
423032.136
 21
545643.766
 31
92.15
100
AcDbText
 73
     3
  0
POINT
  5
1E2
330
1D
100
AcDbEntity
  8
0
  6
Solid_Line
 62
     0
100
AcDbPoint
 10
423034.284
 20
545641.955
 30
92.117
  0
TEXT
  5
1E3
330
1D
100
AcDbEntity
  8
Point_ID
  6
Solid_Line
 62
     1
100
AcDbText
 10
423034.384
 20
545642.055
 30
92.117
 40
0.3
  1
3.9
100
AcDbText
  0
TEXT
  5
1E4
330
1D
100
AcDbEntity
  8
Height
  6
Solid_Line
 62
     4
100
AcDbText
 10
423034.184
 20
545641.855
 30
92.117
 40
0.3
  1
92.117
 72
     2
 11
423034.184
 21
545641.855
 31
92.117
100
AcDbText
 73
     3
  0
TEXT
  5
1E5
330
1D
100
AcDbEntity
  8
Point_Code
  6
Solid_Line
 62
     5
100
AcDbText
 10
423034.384
 20
545641.855
 30
92.117
 40
0.3
  1
Verge Top
 11
423034.384
 21
545641.855
 31
92.117
100
AcDbText
 73
     3
  0
POINT
  5
1E6
330
1D
100
AcDbEntity
  8
0
  6
Solid_Line
 62
     0
100
AcDbPoint
 10
423035.817
 20
545643.749
 30
92.079
  0
TEXT
  5
1E7
330
1D
100
AcDbEntity
  8
Point_ID
  6
Solid_Line
 62
     1
100
AcDbText
 10
423035.917
 20
545643.849
 30
92.079
 40
0.3
  1
3.8
100
AcDbText
  0
TEXT
  5
1E8
330
1D
100
AcDbEntity
  8
Height
  6
Solid_Line
 62
     4
100
AcDbText
 10
423035.717
 20
545643.649
 30
92.079
 40
0.3
  1
92.079
 72
     2
 11
423035.717
 21
545643.649
 31
92.079
100
AcDbText
 73
     3
  0
TEXT
  5
1E9
330
1D
100
AcDbEntity
  8
Point_Code
  6
Solid_Line
 62
     5
100
AcDbText
 10
423035.917
 20
545643.649
 30
92.079
 40
0.3
  1
Verge Top
 11
423035.917
 21
545643.649
 31
92.079
100
AcDbText
 73
     3
  0
POINT
  5
1EA
330
1D
100
AcDbEntity
  8
0
  6
Solid_Line
 62
     0
100
AcDbPoint
 10
423033.772
 20
545645.793
 30
92.181
  0
TEXT
  5
1EB
330
1D
100
AcDbEntity
  8
Point_ID
  6
Solid_Line
 62
     1
100
AcDbText
 10
423033.872
 20
545645.893
 30
92.181
 40
0.3
  1
3.7
100
AcDbText
  0
TEXT
  5
1EC
330
1D
100
AcDbEntity
  8
Height
  6
Solid_Line
 62
     4
100
AcDbText
 10
423033.672
 20
545645.693
 30
92.181
 40
0.3
  1
92.181
 72
     2
 11
423033.672
 21
545645.693
 31
92.181
100
AcDbText
 73
     3
  0
TEXT
  5
1ED
330
1D
100
AcDbEntity
  8
Point_Code
  6
Solid_Line
 62
     5
100
AcDbText
 10
423033.872
 20
545645.693
 30
92.181
 40
0.3
  1
Verge Top
 11
423033.872
 21
545645.693
 31
92.181
100
AcDbText
 73
     3
  0
POINT
  5
1EE
330
1D
100
AcDbEntity
  8
0
  6
Solid_Line
 62
     0
100
AcDbPoint
 10
423030.983
 20
545648.388
 30
92.184
  0
TEXT
  5
1EF
330
1D
100
AcDbEntity
  8
Point_ID
  6
Solid_Line
 62
     1
100
AcDbText
 10
423031.083
 20
545648.488
 30
92.184
 40
0.3
  1
3.6
100
AcDbText
  0
TEXT
  5
1F0
330
1D
100
AcDbEntity
  8
Height
  6
Solid_Line
 62
     4
100
AcDbText
 10
423030.883
 20
545648.288
 30
92.184
 40
0.3
  1
92.184
 72
     2
 11
423030.883
 21
545648.288
 31
92.184
100
AcDbText
 73
     3
  0
TEXT
  5
1F1
330
1D
100
AcDbEntity
  8
Point_Code
  6
Solid_Line
 62
     5
100
AcDbText
 10
423031.083
 20
545648.288
 30
92.184
 40
0.3
  1
Verge Top
 11
423031.083
 21
545648.288
 31
92.184
100
AcDbText
 73
     3
  0
POINT
  5
1F2
330
1D
100
AcDbEntity
  8
0
  6
Solid_Line
 62
     0
100
AcDbPoint
 10
423027.861
 20
545651.711
 30
92.312
  0
TEXT
  5
1F3
330
1D
100
AcDbEntity
  8
Point_ID
  6
Solid_Line
 62
     1
100
AcDbText
 10
423027.961
 20
545651.811
 30
92.312
 40
0.3
  1
3.5
100
AcDbText
  0
TEXT
  5
1F4
330
1D
100
AcDbEntity
  8
Height
  6
Solid_Line
 62
     4
100
AcDbText
 10
423027.761
 20
545651.611
 30
92.312
 40
0.3
  1
92.312
 72
     2
 11
423027.761
 21
545651.611
 31
92.312
100
AcDbText
 73
     3
  0
TEXT
  5
1F5
330
1D
100
AcDbEntity
  8
Point_Code
  6
Solid_Line
 62
     5
100
AcDbText
 10
423027.961
 20
545651.611
 30
92.312
 40
0.3
  1
Verge Top
 11
423027.961
 21
545651.611
 31
92.312
100
AcDbText
 73
     3
  0
POINT
  5
1F6
330
1D
100
AcDbEntity
  8
0
  6
Solid_Line
 62
     0
100
AcDbPoint
 10
423024.763
 20
545654.673
 30
92.428
  0
TEXT
  5
1F7
330
1D
100
AcDbEntity
  8
Point_ID
  6
Solid_Line
 62
     1
100
AcDbText
 10
423024.863
 20
545654.773
 30
92.428
 40
0.3
  1
3.4
100
AcDbText
  0
TEXT
  5
1F8
330
1D
100
AcDbEntity
  8
Height
  6
Solid_Line
 62
     4
100
AcDbText
 10
423024.663
 20
545654.573
 30
92.428
 40
0.3
  1
92.428
 72
     2
 11
423024.663
 21
545654.573
 31
92.428
100
AcDbText
 73
     3
  0
TEXT
  5
1F9
330
1D
100
AcDbEntity
  8
Point_Code
  6
Solid_Line
 62
     5
100
AcDbText
 10
423024.863
 20
545654.573
 30
92.428
 40
0.3
  1
Verge Top
 11
423024.863
 21
545654.573
 31
92.428
100
AcDbText
 73
     3
  0
POINT
  5
1FA
330
1D
100
AcDbEntity
  8
0
  6
Solid_Line
 62
     0
100
AcDbPoint
 10
423021.363
 20
545658.189
 30
92.483
  0
TEXT
  5
1FB
330
1D
100
AcDbEntity
  8
Point_ID
  6
Solid_Line
 62
     1
100
AcDbText
 10
423021.463
 20
545658.289
 30
92.483
 40
0.3
  1
3.3
100
AcDbText
  0
TEXT
  5
1FC
330
1D
100
AcDbEntity
  8
Height
  6
Solid_Line
 62
     4
100
AcDbText
 10
423021.263
 20
545658.089
 30
92.483
 40
0.3
  1
92.483
 72
     2
 11
423021.263
 21
545658.089
 31
92.483
100
AcDbText
 73
     3
  0
TEXT
  5
1FD
330
1D
100
AcDbEntity
  8
Point_Code
  6
Solid_Line
 62
     5
100
AcDbText
 10
423021.463
 20
545658.089
 30
92.483
 40
0.3
  1
Verge Top
 11
423021.463
 21
545658.089
 31
92.483
100
AcDbText
 73
     3
  0
POINT
  5
1FE
330
1D
100
AcDbEntity
  8
0
  6
Solid_Line
 62
     0
100
AcDbPoint
 10
423018.419
 20
545661.255
 30
92.622
  0
TEXT
  5
1FF
330
1D
100
AcDbEntity
  8
Point_ID
  6
Solid_Line
 62
     1
100
AcDbText
 10
423018.519
 20
545661.355
 30
92.622
 40
0.3
  1
3.2
100
AcDbText
  0
TEXT
  5
200
330
1D
100
AcDbEntity
  8
Height
  6
Solid_Line
 62
     4
100
AcDbText
 10
423018.319
 20
545661.155
 30
92.622
 40
0.3
  1
92.622
 72
     2
 11
423018.319
 21
545661.155
 31
92.622
100
AcDbText
 73
     3
  0
TEXT
  5
201
330
1D
100
AcDbEntity
  8
Point_Code
  6
Solid_Line
 62
     5
100
AcDbText
 10
423018.519
 20
545661.155
 30
92.622
 40
0.3
  1
Verge Top
 11
423018.519
 21
545661.155
 31
92.622
100
AcDbText
 73
     3
  0
POINT
  5
202
330
1D
100
AcDbEntity
  8
0
  6
Solid_Line
 62
     0
100
AcDbPoint
 10
423007.212
 20
545669.248
 30
92.399
  0
TEXT
  5
203
330
1D
100
AcDbEntity
  8
Point_ID
  6
Solid_Line
 62
     1
100
AcDbText
 10
423007.312
 20
545669.348
 30
92.399
 40
0.3
  1
2.31
100
AcDbText
  0
TEXT
  5
204
330
1D
100
AcDbEntity
  8
Height
  6
Solid_Line
 62
     4
100
AcDbText
 10
423007.112
 20
545669.148
 30
92.399
 40
0.3
  1
92.399
 72
     2
 11
423007.112
 21
545669.148
 31
92.399
100
AcDbText
 73
     3
  0
TEXT
  5
205
330
1D
100
AcDbEntity
  8
Point_Code
  6
Solid_Line
 62
     5
100
AcDbText
 10
423007.312
 20
545669.148
 30
92.399
 40
0.3
  1
Verge Bottom
 11
423007.312
 21
545669.148
 31
92.399
100
AcDbText
 73
     3
  0
POINT
  5
206
330
1D
100
AcDbEntity
  8
0
  6
Solid_Line
 62
     0
100
AcDbPoint
 10
423004.654
 20
545668.163
 30
92.317
  0
TEXT
  5
207
330
1D
100
AcDbEntity
  8
Point_ID
  6
Solid_Line
 62
     1
100
AcDbText
 10
423004.754
 20
545668.263
 30
92.317
 40
0.3
  1
2.30
100
AcDbText
  0
TEXT
  5
208
330
1D
100
AcDbEntity
  8
Height
  6
Solid_Line
 62
     4
100
AcDbText
 10
423004.554
 20
545668.063
 30
92.317
 40
0.3
  1
92.317
 72
     2
 11
423004.554
 21
545668.063
 31
92.317
100
AcDbText
 73
     3
  0
TEXT
  5
209
330
1D
100
AcDbEntity
  8
Point_Code
  6
Solid_Line
 62
     5
100
AcDbText
 10
423004.754
 20
545668.063
 30
92.317
 40
0.3
  1
Verge Bottom
 11
423004.754
 21
545668.063
 31
92.317
100
AcDbText
 73
     3
  0
POINT
  5
20A
330
1D
100
AcDbEntity
  8
0
  6
Solid_Line
 62
     0
100
AcDbPoint
 10
423001.315
 20
545666.779
 30
92.211
  0
TEXT
  5
20B
330
1D
100
AcDbEntity
  8
Point_ID
  6
Solid_Line
 62
     1
100
AcDbText
 10
423001.415
 20
545666.879
 30
92.211
 40
0.3
  1
2.29
100
AcDbText
  0
TEXT
  5
20C
330
1D
100
AcDbEntity
  8
Height
  6
Solid_Line
 62
     4
100
AcDbText
 10
423001.2150000001
 20
545666.679
 30
92.211
 40
0.3
  1
92.211
 72
     2
 11
423001.2150000001
 21
545666.679
 31
92.211
100
AcDbText
 73
     3
  0
TEXT
  5
20D
330
1D
100
AcDbEntity
  8
Point_Code
  6
Solid_Line
 62
     5
100
AcDbText
 10
423001.415
 20
545666.679
 30
92.211
 40
0.3
  1
Verge Bottom
 11
423001.415
 21
545666.679
 31
92.211
100
AcDbText
 73
     3
  0
POINT
  5
20E
330
1D
100
AcDbEntity
  8
0
  6
Solid_Line
 62
     0
100
AcDbPoint
 10
422996.084
 20
545664.61
 30
92.04
  0
TEXT
  5
20F
330
1D
100
AcDbEntity
  8
Point_ID
  6
Solid_Line
 62
     1
100
AcDbText
 10
422996.184
 20
545664.71
 30
92.04
 40
0.3
  1
2.28
100
AcDbText
  0
TEXT
  5
210
330
1D
100
AcDbEntity
  8
Height
  6
Solid_Line
 62
     4
100
AcDbText
 10
422995.984
 20
545664.51
 30
92.04
 40
0.3
  1
92.040
 72
     2
 11
422995.984
 21
545664.51
 31
92.04
100
AcDbText
 73
     3
  0
TEXT
  5
211
330
1D
100
AcDbEntity
  8
Point_Code
  6
Solid_Line
 62
     5
100
AcDbText
 10
422996.184
 20
545664.51
 30
92.04
 40
0.3
  1
Verge Bottom
 11
422996.184
 21
545664.51
 31
92.04
100
AcDbText
 73
     3
  0
POINT
  5
212
330
1D
100
AcDbEntity
  8
0
  6
Solid_Line
 62
     0
100
AcDbPoint
 10
422991.547
 20
545662.739
 30
91.912
  0
TEXT
  5
213
330
1D
100
AcDbEntity
  8
Point_ID
  6
Solid_Line
 62
     1
100
AcDbText
 10
422991.647
 20
545662.839
 30
91.912
 40
0.3
  1
2.27
100
AcDbText
  0
TEXT
  5
214
330
1D
100
AcDbEntity
  8
Height
  6
Solid_Line
 62
     4
100
AcDbText
 10
422991.447
 20
545662.639
 30
91.912
 40
0.3
  1
91.912
 72
     2
 11
422991.447
 21
545662.639
 31
91.912
100
AcDbText
 73
     3
  0
TEXT
  5
215
330
1D
100
AcDbEntity
  8
Point_Code
  6
Solid_Line
 62
     5
100
AcDbText
 10
422991.647
 20
545662.639
 30
91.912
 40
0.3
  1
Verge Bottom
 11
422991.647
 21
545662.639
 31
91.912
100
AcDbText
 73
     3
  0
POINT
  5
216
330
1D
100
AcDbEntity
  8
0
  6
Solid_Line
 62
     0
100
AcDbPoint
 10
422987.322
 20
545660.974
 30
91.907
  0
TEXT
  5
217
330
1D
100
AcDbEntity
  8
Point_ID
  6
Solid_Line
 62
     1
100
AcDbText
 10
422987.422
 20
545661.074
 30
91.907
 40
0.3
  1
2.26
100
AcDbText
  0
TEXT
  5
218
330
1D
100
AcDbEntity
  8
Height
  6
Solid_Line
 62
     4
100
AcDbText
 10
422987.222
 20
545660.874
 30
91.907
 40
0.3
  1
91.907
 72
     2
 11
422987.222
 21
545660.874
 31
91.907
100
AcDbText
 73
     3
  0
TEXT
  5
219
330
1D
100
AcDbEntity
  8
Point_Code
  6
Solid_Line
 62
     5
100
AcDbText
 10
422987.422
 20
545660.874
 30
91.907
 40
0.3
  1
Verge Bottom
 11
422987.422
 21
545660.874
 31
91.907
100
AcDbText
 73
     3
  0
POINT
  5
21A
330
1D
100
AcDbEntity
  8
0
  6
Solid_Line
 62
     0
100
AcDbPoint
 10
422984.195
 20
545659.626
 30
91.928
  0
TEXT
  5
21B
330
1D
100
AcDbEntity
  8
Point_ID
  6
Solid_Line
 62
     1
100
AcDbText
 10
422984.295
 20
545659.726
 30
91.928
 40
0.3
  1
2.25
100
AcDbText
  0
TEXT
  5
21C
330
1D
100
AcDbEntity
  8
Height
  6
Solid_Line
 62
     4
100
AcDbText
 10
422984.095
 20
545659.526
 30
91.928
 40
0.3
  1
91.928
 72
     2
 11
422984.095
 21
545659.526
 31
91.928
100
AcDbText
 73
     3
  0
TEXT
  5
21D
330
1D
100
AcDbEntity
  8
Point_Code
  6
Solid_Line
 62
     5
100
AcDbText
 10
422984.295
 20
545659.526
 30
91.928
 40
0.3
  1
Verge Bottom
 11
422984.295
 21
545659.526
 31
91.928
100
AcDbText
 73
     3
  0
POINT
  5
21E
330
1D
100
AcDbEntity
  8
0
  6
Solid_Line
 62
     0
100
AcDbPoint
 10
422980.884
 20
545658.147
 30
91.934
  0
TEXT
  5
21F
330
1D
100
AcDbEntity
  8
Point_ID
  6
Solid_Line
 62
     1
100
AcDbText
 10
422980.984
 20
545658.247
 30
91.934
 40
0.3
  1
2.24
100
AcDbText
  0
TEXT
  5
220
330
1D
100
AcDbEntity
  8
Height
  6
Solid_Line
 62
     4
100
AcDbText
 10
422980.784
 20
545658.047
 30
91.934
 40
0.3
  1
91.934
 72
     2
 11
422980.784
 21
545658.047
 31
91.934
100
AcDbText
 73
     3
  0
TEXT
  5
221
330
1D
100
AcDbEntity
  8
Point_Code
  6
Solid_Line
 62
     5
100
AcDbText
 10
422980.984
 20
545658.047
 30
91.934
 40
0.3
  1
Verge Bottom
 11
422980.984
 21
545658.047
 31
91.934
100
AcDbText
 73
     3
  0
POINT
  5
222
330
1D
100
AcDbEntity
  8
0
  6
Solid_Line
 62
     0
100
AcDbPoint
 10
422979.996
 20
545659.986
 30
91.992
  0
TEXT
  5
223
330
1D
100
AcDbEntity
  8
Point_ID
  6
Solid_Line
 62
     1
100
AcDbText
 10
422980.096
 20
545660.086
 30
91.992
 40
0.3
  1
2.23
100
AcDbText
  0
TEXT
  5
224
330
1D
100
AcDbEntity
  8
Height
  6
Solid_Line
 62
     4
100
AcDbText
 10
422979.896
 20
545659.886
 30
91.992
 40
0.3
  1
91.992
 72
     2
 11
422979.896
 21
545659.886
 31
91.992
100
AcDbText
 73
     3
  0
TEXT
  5
225
330
1D
100
AcDbEntity
  8
Point_Code
  6
Solid_Line
 62
     5
100
AcDbText
 10
422980.096
 20
545659.886
 30
91.992
 40
0.3
  1
Verge Bottom
 11
422980.096
 21
545659.886
 31
91.992
100
AcDbText
 73
     3
  0
POINT
  5
226
330
1D
100
AcDbEntity
  8
0
  6
Solid_Line
 62
     0
100
AcDbPoint
 10
422983.817
 20
545661.628
 30
91.961
  0
TEXT
  5
227
330
1D
100
AcDbEntity
  8
Point_ID
  6
Solid_Line
 62
     1
100
AcDbText
 10
422983.917
 20
545661.728
 30
91.961
 40
0.3
  1
2.22
100
AcDbText
  0
TEXT
  5
228
330
1D
100
AcDbEntity
  8
Height
  6
Solid_Line
 62
     4
100
AcDbText
 10
422983.717
 20
545661.528
 30
91.961
 40
0.3
  1
91.961
 72
     2
 11
422983.717
 21
545661.528
 31
91.961
100
AcDbText
 73
     3
  0
TEXT
  5
229
330
1D
100
AcDbEntity
  8
Point_Code
  6
Solid_Line
 62
     5
100
AcDbText
 10
422983.917
 20
545661.528
 30
91.961
 40
0.3
  1
Verge Bottom
 11
422983.917
 21
545661.528
 31
91.961
100
AcDbText
 73
     3
  0
POINT
  5
22A
330
1D
100
AcDbEntity
  8
0
  6
Solid_Line
 62
     0
100
AcDbPoint
 10
422988.035
 20
545663.334
 30
91.972
  0
TEXT
  5
22B
330
1D
100
AcDbEntity
  8
Point_ID
  6
Solid_Line
 62
     1
100
AcDbText
 10
422988.135
 20
545663.434
 30
91.972
 40
0.3
  1
2.21
100
AcDbText
  0
TEXT
  5
22C
330
1D
100
AcDbEntity
  8
Height
  6
Solid_Line
 62
     4
100
AcDbText
 10
422987.935
 20
545663.234
 30
91.972
 40
0.3
  1
91.972
 72
     2
 11
422987.935
 21
545663.234
 31
91.972
100
AcDbText
 73
     3
  0
TEXT
  5
22D
330
1D
100
AcDbEntity
  8
Point_Code
  6
Solid_Line
 62
     5
100
AcDbText
 10
422988.135
 20
545663.234
 30
91.972
 40
0.3
  1
Verge Bottom
 11
422988.135
 21
545663.234
 31
91.972
100
AcDbText
 73
     3
  0
POINT
  5
22E
330
1D
100
AcDbEntity
  8
0
  6
Solid_Line
 62
     0
100
AcDbPoint
 10
422992.164
 20
545665.07
 30
92.098
  0
TEXT
  5
22F
330
1D
100
AcDbEntity
  8
Point_ID
  6
Solid_Line
 62
     1
100
AcDbText
 10
422992.264
 20
545665.17
 30
92.098
 40
0.3
  1
2.20
100
AcDbText
  0
TEXT
  5
230
330
1D
100
AcDbEntity
  8
Height
  6
Solid_Line
 62
     4
100
AcDbText
 10
422992.064
 20
545664.97
 30
92.098
 40
0.3
  1
92.098
 72
     2
 11
422992.064
 21
545664.97
 31
92.098
100
AcDbText
 73
     3
  0
TEXT
  5
231
330
1D
100
AcDbEntity
  8
Point_Code
  6
Solid_Line
 62
     5
100
AcDbText
 10
422992.264
 20
545664.97
 30
92.098
 40
0.3
  1
Verge Bottom
 11
422992.264
 21
545664.97
 31
92.098
100
AcDbText
 73
     3
  0
POINT
  5
232
330
1D
100
AcDbEntity
  8
0
  6
Solid_Line
 62
     0
100
AcDbPoint
 10
422995.422
 20
545666.417
 30
92.108
  0
TEXT
  5
233
330
1D
100
AcDbEntity
  8
Point_ID
  6
Solid_Line
 62
     1
100
AcDbText
 10
422995.522
 20
545666.517
 30
92.108
 40
0.3
  1
2.19
100
AcDbText
  0
TEXT
  5
234
330
1D
100
AcDbEntity
  8
Height
  6
Solid_Line
 62
     4
100
AcDbText
 10
422995.322
 20
545666.317
 30
92.108
 40
0.3
  1
92.108
 72
     2
 11
422995.322
 21
545666.317
 31
92.108
100
AcDbText
 73
     3
  0
TEXT
  5
235
330
1D
100
AcDbEntity
  8
Point_Code
  6
Solid_Line
 62
     5
100
AcDbText
 10
422995.522
 20
545666.317
 30
92.108
 40
0.3
  1
Verge Bottom
 11
422995.522
 21
545666.317
 31
92.108
100
AcDbText
 73
     3
  0
POINT
  5
236
330
1D
100
AcDbEntity
  8
0
  6
Solid_Line
 62
     0
100
AcDbPoint
 10
422999.347
 20
545668.013
 30
92.259
  0
TEXT
  5
237
330
1D
100
AcDbEntity
  8
Point_ID
  6
Solid_Line
 62
     1
100
AcDbText
 10
422999.447
 20
545668.113
 30
92.259
 40
0.3
  1
2.18
100
AcDbText
  0
TEXT
  5
238
330
1D
100
AcDbEntity
  8
Height
  6
Solid_Line
 62
     4
100
AcDbText
 10
422999.247
 20
545667.913
 30
92.259
 40
0.3
  1
92.259
 72
     2
 11
422999.247
 21
545667.913
 31
92.259
100
AcDbText
 73
     3
  0
TEXT
  5
239
330
1D
100
AcDbEntity
  8
Point_Code
  6
Solid_Line
 62
     5
100
AcDbText
 10
422999.447
 20
545667.913
 30
92.259
 40
0.3
  1
Verge Bottom
 11
422999.447
 21
545667.913
 31
92.259
100
AcDbText
 73
     3
  0
POINT
  5
23A
330
1D
100
AcDbEntity
  8
0
  6
Solid_Line
 62
     0
100
AcDbPoint
 10
423002.832
 20
545669.476
 30
92.37
  0
TEXT
  5
23B
330
1D
100
AcDbEntity
  8
Point_ID
  6
Solid_Line
 62
     1
100
AcDbText
 10
423002.932
 20
545669.576
 30
92.37
 40
0.3
  1
2.17
100
AcDbText
  0
TEXT
  5
23C
330
1D
100
AcDbEntity
  8
Height
  6
Solid_Line
 62
     4
100
AcDbText
 10
423002.732
 20
545669.376
 30
92.37
 40
0.3
  1
92.370
 72
     2
 11
423002.732
 21
545669.376
 31
92.37
100
AcDbText
 73
     3
  0
TEXT
  5
23D
330
1D
100
AcDbEntity
  8
Point_Code
  6
Solid_Line
 62
     5
100
AcDbText
 10
423002.932
 20
545669.376
 30
92.37
 40
0.3
  1
Verge Bottom
 11
423002.932
 21
545669.376
 31
92.37
100
AcDbText
 73
     3
  0
POINT
  5
23E
330
1D
100
AcDbEntity
  8
0
  6
Solid_Line
 62
     0
100
AcDbPoint
 10
423006.42
 20
545671.023
 30
92.406
  0
TEXT
  5
23F
330
1D
100
AcDbEntity
  8
Point_ID
  6
Solid_Line
 62
     1
100
AcDbText
 10
423006.52
 20
545671.123
 30
92.406
 40
0.3
  1
2.16
100
AcDbText
  0
TEXT
  5
240
330
1D
100
AcDbEntity
  8
Height
  6
Solid_Line
 62
     4
100
AcDbText
 10
423006.32
 20
545670.923
 30
92.406
 40
0.3
  1
92.406
 72
     2
 11
423006.32
 21
545670.923
 31
92.406
100
AcDbText
 73
     3
  0
TEXT
  5
241
330
1D
100
AcDbEntity
  8
Point_Code
  6
Solid_Line
 62
     5
100
AcDbText
 10
423006.52
 20
545670.923
 30
92.406
 40
0.3
  1
Verge Bottom
 11
423006.52
 21
545670.923
 31
92.406
100
AcDbText
 73
     3
  0
POINT
  5
242
330
1D
100
AcDbEntity
  8
0
  6
Solid_Line
 62
     0
100
AcDbPoint
 10
423006.788
 20
545671.221
 30
93.274
  0
TEXT
  5
243
330
1D
100
AcDbEntity
  8
Point_ID
  6
Solid_Line
 62
     1
100
AcDbText
 10
423006.888
 20
545671.321
 30
93.274
 40
0.3
  1
2.15
100
AcDbText
  0
TEXT
  5
244
330
1D
100
AcDbEntity
  8
Height
  6
Solid_Line
 62
     4
100
AcDbText
 10
423006.688
 20
545671.121
 30
93.274
 40
0.3
  1
93.274
 72
     2
 11
423006.688
 21
545671.121
 31
93.274
100
AcDbText
 73
     3
  0
TEXT
  5
245
330
1D
100
AcDbEntity
  8
Point_Code
  6
Solid_Line
 62
     5
100
AcDbText
 10
423006.888
 20
545671.121
 30
93.274
 40
0.3
  1
Verge Top
 11
423006.888
 21
545671.121
 31
93.274
100
AcDbText
 73
     3
  0
POINT
  5
246
330
1D
100
AcDbEntity
  8
0
  6
Solid_Line
 62
     0
100
AcDbPoint
 10
423002.267
 20
545669.368
 30
93.205
  0
TEXT
  5
247
330
1D
100
AcDbEntity
  8
Point_ID
  6
Solid_Line
 62
     1
100
AcDbText
 10
423002.3670000001
 20
545669.468
 30
93.205
 40
0.3
  1
2.14
100
AcDbText
  0
TEXT
  5
248
330
1D
100
AcDbEntity
  8
Height
  6
Solid_Line
 62
     4
100
AcDbText
 10
423002.167
 20
545669.268
 30
93.205
 40
0.3
  1
93.205
 72
     2
 11
423002.167
 21
545669.268
 31
93.205
100
AcDbText
 73
     3
  0
TEXT
  5
249
330
1D
100
AcDbEntity
  8
Point_Code
  6
Solid_Line
 62
     5
100
AcDbText
 10
423002.3670000001
 20
545669.268
 30
93.205
 40
0.3
  1
Verge Top
 11
423002.3670000001
 21
545669.268
 31
93.205
100
AcDbText
 73
     3
  0
POINT
  5
24A
330
1D
100
AcDbEntity
  8
0
  6
Solid_Line
 62
     0
100
AcDbPoint
 10
422999.872
 20
545668.405
 30
93.041
  0
TEXT
  5
24B
330
1D
100
AcDbEntity
  8
Point_ID
  6
Solid_Line
 62
     1
100
AcDbText
 10
422999.972
 20
545668.505
 30
93.041
 40
0.3
  1
2.13
100
AcDbText
  0
TEXT
  5
24C
330
1D
100
AcDbEntity
  8
Height
  6
Solid_Line
 62
     4
100
AcDbText
 10
422999.772
 20
545668.305
 30
93.041
 40
0.3
  1
93.041
 72
     2
 11
422999.772
 21
545668.305
 31
93.041
100
AcDbText
 73
     3
  0
TEXT
  5
24D
330
1D
100
AcDbEntity
  8
Point_Code
  6
Solid_Line
 62
     5
100
AcDbText
 10
422999.972
 20
545668.305
 30
93.041
 40
0.3
  1
Verge Top
 11
422999.972
 21
545668.305
 31
93.041
100
AcDbText
 73
     3
  0
POINT
  5
24E
330
1D
100
AcDbEntity
  8
0
  6
Solid_Line
 62
     0
100
AcDbPoint
 10
422995.794
 20
545666.778
 30
92.926
  0
TEXT
  5
24F
330
1D
100
AcDbEntity
  8
Point_ID
  6
Solid_Line
 62
     1
100
AcDbText
 10
422995.894
 20
545666.878
 30
92.926
 40
0.3
  1
2.12
100
AcDbText
  0
TEXT
  5
250
330
1D
100
AcDbEntity
  8
Height
  6
Solid_Line
 62
     4
100
AcDbText
 10
422995.694
 20
545666.678
 30
92.926
 40
0.3
  1
92.926
 72
     2
 11
422995.694
 21
545666.678
 31
92.926
100
AcDbText
 73
     3
  0
TEXT
  5
251
330
1D
100
AcDbEntity
  8
Point_Code
  6
Solid_Line
 62
     5
100
AcDbText
 10
422995.894
 20
545666.678
 30
92.926
 40
0.3
  1
Verge Top
 11
422995.894
 21
545666.678
 31
92.926
100
AcDbText
 73
     3
  0
POINT
  5
252
330
1D
100
AcDbEntity
  8
0
  6
Solid_Line
 62
     0
100
AcDbPoint
 10
422990.958
 20
545664.709
 30
92.795
  0
TEXT
  5
253
330
1D
100
AcDbEntity
  8
Point_ID
  6
Solid_Line
 62
     1
100
AcDbText
 10
422991.058
 20
545664.809
 30
92.795
 40
0.3
  1
2.11
100
AcDbText
  0
TEXT
  5
254
330
1D
100
AcDbEntity
  8
Height
  6
Solid_Line
 62
     4
100
AcDbText
 10
422990.858
 20
545664.609
 30
92.795
 40
0.3
  1
92.795
 72
     2
 11
422990.858
 21
545664.609
 31
92.795
100
AcDbText
 73
     3
  0
TEXT
  5
255
330
1D
100
AcDbEntity
  8
Point_Code
  6
Solid_Line
 62
     5
100
AcDbText
 10
422991.058
 20
545664.609
 30
92.795
 40
0.3
  1
Verge Top
 11
422991.058
 21
545664.609
 31
92.795
100
AcDbText
 73
     3
  0
POINT
  5
256
330
1D
100
AcDbEntity
  8
0
  6
Solid_Line
 62
     0
100
AcDbPoint
 10
422986.577
 20
545662.893
 30
92.648
  0
TEXT
  5
257
330
1D
100
AcDbEntity
  8
Point_ID
  6
Solid_Line
 62
     1
100
AcDbText
 10
422986.6770000001
 20
545662.993
 30
92.648
 40
0.3
  1
2.10
100
AcDbText
  0
TEXT
  5
258
330
1D
100
AcDbEntity
  8
Height
  6
Solid_Line
 62
     4
100
AcDbText
 10
422986.477
 20
545662.793
 30
92.648
 40
0.3
  1
92.648
 72
     2
 11
422986.477
 21
545662.793
 31
92.648
100
AcDbText
 73
     3
  0
TEXT
  5
259
330
1D
100
AcDbEntity
  8
Point_Code
  6
Solid_Line
 62
     5
100
AcDbText
 10
422986.6770000001
 20
545662.793
 30
92.648
 40
0.3
  1
Verge Top
 11
422986.6770000001
 21
545662.793
 31
92.648
100
AcDbText
 73
     3
  0
POINT
  5
25A
330
1D
100
AcDbEntity
  8
0
  6
Solid_Line
 62
     0
100
AcDbPoint
 10
422982.763
 20
545661.287
 30
92.68
  0
TEXT
  5
25B
330
1D
100
AcDbEntity
  8
Point_ID
  6
Solid_Line
 62
     1
100
AcDbText
 10
422982.863
 20
545661.387
 30
92.68
 40
0.3
  1
2.9
100
AcDbText
  0
TEXT
  5
25C
330
1D
100
AcDbEntity
  8
Height
  6
Solid_Line
 62
     4
100
AcDbText
 10
422982.663
 20
545661.187
 30
92.68
 40
0.3
  1
92.680
 72
     2
 11
422982.663
 21
545661.187
 31
92.68
100
AcDbText
 73
     3
  0
TEXT
  5
25D
330
1D
100
AcDbEntity
  8
Point_Code
  6
Solid_Line
 62
     5
100
AcDbText
 10
422982.863
 20
545661.187
 30
92.68
 40
0.3
  1
Verge Top
 11
422982.863
 21
545661.187
 31
92.68
100
AcDbText
 73
     3
  0
POINT
  5
25E
330
1D
100
AcDbEntity
  8
0
  6
Solid_Line
 62
     0
100
AcDbPoint
 10
422979.489
 20
545659.926
 30
92.642
  0
TEXT
  5
25F
330
1D
100
AcDbEntity
  8
Point_ID
  6
Solid_Line
 62
     1
100
AcDbText
 10
422979.589
 20
545660.026
 30
92.642
 40
0.3
  1
2.8
100
AcDbText
  0
TEXT
  5
260
330
1D
100
AcDbEntity
  8
Height
  6
Solid_Line
 62
     4
100
AcDbText
 10
422979.389
 20
545659.826
 30
92.642
 40
0.3
  1
92.642
 72
     2
 11
422979.389
 21
545659.826
 31
92.642
100
AcDbText
 73
     3
  0
TEXT
  5
261
330
1D
100
AcDbEntity
  8
Point_Code
  6
Solid_Line
 62
     5
100
AcDbText
 10
422979.589
 20
545659.826
 30
92.642
 40
0.3
  1
Verge Top
 11
422979.589
 21
545659.826
 31
92.642
100
AcDbText
 73
     3
  0
POINT
  5
262
330
1D
100
AcDbEntity
  8
0
  6
Solid_Line
 62
     0
100
AcDbPoint
 10
422980.558
 20
545657.828
 30
92.581
  0
TEXT
  5
263
330
1D
100
AcDbEntity
  8
Point_ID
  6
Solid_Line
 62
     1
100
AcDbText
 10
422980.658
 20
545657.928
 30
92.581
 40
0.3
  1
2.7
100
AcDbText
  0
TEXT
  5
264
330
1D
100
AcDbEntity
  8
Height
  6
Solid_Line
 62
     4
100
AcDbText
 10
422980.458
 20
545657.728
 30
92.581
 40
0.3
  1
92.581
 72
     2
 11
422980.458
 21
545657.728
 31
92.581
100
AcDbText
 73
     3
  0
TEXT
  5
265
330
1D
100
AcDbEntity
  8
Point_Code
  6
Solid_Line
 62
     5
100
AcDbText
 10
422980.658
 20
545657.728
 30
92.581
 40
0.3
  1
Verge Top
 11
422980.658
 21
545657.728
 31
92.581
100
AcDbText
 73
     3
  0
POINT
  5
266
330
1D
100
AcDbEntity
  8
0
  6
Solid_Line
 62
     0
100
AcDbPoint
 10
422984.212
 20
545659.402
 30
92.54
  0
TEXT
  5
267
330
1D
100
AcDbEntity
  8
Point_ID
  6
Solid_Line
 62
     1
100
AcDbText
 10
422984.312
 20
545659.502
 30
92.54
 40
0.3
  1
2.6
100
AcDbText
  0
TEXT
  5
268
330
1D
100
AcDbEntity
  8
Height
  6
Solid_Line
 62
     4
100
AcDbText
 10
422984.112
 20
545659.302
 30
92.54
 40
0.3
  1
92.540
 72
     2
 11
422984.112
 21
545659.302
 31
92.54
100
AcDbText
 73
     3
  0
TEXT
  5
269
330
1D
100
AcDbEntity
  8
Point_Code
  6
Solid_Line
 62
     5
100
AcDbText
 10
422984.312
 20
545659.302
 30
92.54
 40
0.3
  1
Verge Top
 11
422984.312
 21
545659.302
 31
92.54
100
AcDbText
 73
     3
  0
POINT
  5
26A
330
1D
100
AcDbEntity
  8
0
  6
Solid_Line
 62
     0
100
AcDbPoint
 10
422987.4160000001
 20
545660.722
 30
92.622
  0
TEXT
  5
26B
330
1D
100
AcDbEntity
  8
Point_ID
  6
Solid_Line
 62
     1
100
AcDbText
 10
422987.516
 20
545660.822
 30
92.622
 40
0.3
  1
2.5
100
AcDbText
  0
TEXT
  5
26C
330
1D
100
AcDbEntity
  8
Height
  6
Solid_Line
 62
     4
100
AcDbText
 10
422987.316
 20
545660.622
 30
92.622
 40
0.3
  1
92.622
 72
     2
 11
422987.316
 21
545660.622
 31
92.622
100
AcDbText
 73
     3
  0
TEXT
  5
26D
330
1D
100
AcDbEntity
  8
Point_Code
  6
Solid_Line
 62
     5
100
AcDbText
 10
422987.516
 20
545660.622
 30
92.622
 40
0.3
  1
Verge Top
 11
422987.516
 21
545660.622
 31
92.622
100
AcDbText
 73
     3
  0
POINT
  5
26E
330
1D
100
AcDbEntity
  8
0
  6
Solid_Line
 62
     0
100
AcDbPoint
 10
422992.335
 20
545662.798
 30
92.722
  0
TEXT
  5
26F
330
1D
100
AcDbEntity
  8
Point_ID
  6
Solid_Line
 62
     1
100
AcDbText
 10
422992.435
 20
545662.898
 30
92.722
 40
0.3
  1
2.4
100
AcDbText
  0
TEXT
  5
270
330
1D
100
AcDbEntity
  8
Height
  6
Solid_Line
 62
     4
100
AcDbText
 10
422992.235
 20
545662.698
 30
92.722
 40
0.3
  1
92.722
 72
     2
 11
422992.235
 21
545662.698
 31
92.722
100
AcDbText
 73
     3
  0
TEXT
  5
271
330
1D
100
AcDbEntity
  8
Point_Code
  6
Solid_Line
 62
     5
100
AcDbText
 10
422992.435
 20
545662.698
 30
92.722
 40
0.3
  1
Verge Top
 11
422992.435
 21
545662.698
 31
92.722
100
AcDbText
 73
     3
  0
POINT
  5
272
330
1D
100
AcDbEntity
  8
0
  6
Solid_Line
 62
     0
100
AcDbPoint
 10
422997.331
 20
545664.915
 30
92.799
  0
TEXT
  5
273
330
1D
100
AcDbEntity
  8
Point_ID
  6
Solid_Line
 62
     1
100
AcDbText
 10
422997.431
 20
545665.015
 30
92.799
 40
0.3
  1
2.3
100
AcDbText
  0
TEXT
  5
274
330
1D
100
AcDbEntity
  8
Height
  6
Solid_Line
 62
     4
100
AcDbText
 10
422997.2310000001
 20
545664.815
 30
92.799
 40
0.3
  1
92.799
 72
     2
 11
422997.2310000001
 21
545664.815
 31
92.799
100
AcDbText
 73
     3
  0
TEXT
  5
275
330
1D
100
AcDbEntity
  8
Point_Code
  6
Solid_Line
 62
     5
100
AcDbText
 10
422997.431
 20
545664.815
 30
92.799
 40
0.3
  1
Verge Top
 11
422997.431
 21
545664.815
 31
92.799
100
AcDbText
 73
     3
  0
POINT
  5
276
330
1D
100
AcDbEntity
  8
0
  6
Solid_Line
 62
     0
100
AcDbPoint
 10
423002.51
 20
545666.996
 30
92.878
  0
TEXT
  5
277
330
1D
100
AcDbEntity
  8
Point_ID
  6
Solid_Line
 62
     1
100
AcDbText
 10
423002.61
 20
545667.096
 30
92.878
 40
0.3
  1
2.2
100
AcDbText
  0
TEXT
  5
278
330
1D
100
AcDbEntity
  8
Height
  6
Solid_Line
 62
     4
100
AcDbText
 10
423002.41
 20
545666.896
 30
92.878
 40
0.3
  1
92.878
 72
     2
 11
423002.41
 21
545666.896
 31
92.878
100
AcDbText
 73
     3
  0
TEXT
  5
279
330
1D
100
AcDbEntity
  8
Point_Code
  6
Solid_Line
 62
     5
100
AcDbText
 10
423002.61
 20
545666.896
 30
92.878
 40
0.3
  1
Verge Top
 11
423002.61
 21
545666.896
 31
92.878
100
AcDbText
 73
     3
  0
POINT
  5
27A
330
1D
100
AcDbEntity
  8
0
  6
Solid_Line
 62
     0
100
AcDbPoint
 10
423007.612
 20
545669.218
 30
93.16
  0
TEXT
  5
27B
330
1D
100
AcDbEntity
  8
Point_ID
  6
Solid_Line
 62
     1
100
AcDbText
 10
423007.712
 20
545669.318
 30
93.16
 40
0.3
  1
2.1
100
AcDbText
  0
TEXT
  5
27C
330
1D
100
AcDbEntity
  8
Height
  6
Solid_Line
 62
     4
100
AcDbText
 10
423007.512
 20
545669.118
 30
93.16
 40
0.3
  1
93.160
 72
     2
 11
423007.512
 21
545669.118
 31
93.16
100
AcDbText
 73
     3
  0
TEXT
  5
27D
330
1D
100
AcDbEntity
  8
Point_Code
  6
Solid_Line
 62
     5
100
AcDbText
 10
423007.712
 20
545669.118
 30
93.16
 40
0.3
  1
Verge Top
 11
423007.712
 21
545669.118
 31
93.16
100
AcDbText
 73
     3
  0
POINT
  5
27E
330
1D
100
AcDbEntity
  8
0
  6
Solid_Line
 62
     0
100
AcDbPoint
 10
424639.342
 20
565012.697
 30
76.52
  0
TEXT
  5
27F
330
1D
100
AcDbEntity
  8
Point_ID
  6
Solid_Line
 62
     1
100
AcDbText
 10
424639.442
 20
565012.797
 30
76.52
 40
0.3
  1
RTCM-Ref 0211
100
AcDbText
  0
TEXT
  5
280
330
1D
100
AcDbEntity
  8
Height
  6
Solid_Line
 62
     4
100
AcDbText
 10
424639.2420000001
 20
565012.597
 30
76.52
 40
0.3
  1
76.520
 72
     2
 11
424639.2420000001
 21
565012.597
 31
76.52
100
AcDbText
 73
     3
  0
TEXT
  5
281
330
1D
100
AcDbEntity
  8
Point_Code
  6
Solid_Line
 62
     5
100
AcDbText
 10
424639.442
 20
565012.597
 30
76.52
 40
0.3
  1

 11
424639.442
 21
565012.597
 31
76.52
100
AcDbText
 73
     3
  0
POLYLINE
  5
282
330
1D
100
AcDbEntity
  8
0
  6
DashDot_Line
 62
    40
100
AcDb3dPolyline
 66
     1
 10
0.0
 20
0.0
 30
0.0
 70
     9
  0
VERTEX
  5
283
330
282
100
AcDbEntity
  8
0
  6
DashDot_Line
 62
    40
100
AcDbVertex
100
AcDb3dPolylineVertex
 10
423007.612
 20
545669.218
 30
93.16
 70
    32
  0
VERTEX
  5
284
330
282
100
AcDbEntity
  8
0
  6
DashDot_Line
 62
    40
100
AcDbVertex
100
AcDb3dPolylineVertex
 10
423002.51
 20
545666.996
 30
92.878
 70
    32
  0
VERTEX
  5
285
330
282
100
AcDbEntity
  8
0
  6
DashDot_Line
 62
    40
100
AcDbVertex
100
AcDb3dPolylineVertex
 10
422997.331
 20
545664.915
 30
92.799
 70
    32
  0
VERTEX
  5
286
330
282
100
AcDbEntity
  8
0
  6
DashDot_Line
 62
    40
100
AcDbVertex
100
AcDb3dPolylineVertex
 10
422992.335
 20
545662.798
 30
92.722
 70
    32
  0
VERTEX
  5
287
330
282
100
AcDbEntity
  8
0
  6
DashDot_Line
 62
    40
100
AcDbVertex
100
AcDb3dPolylineVertex
 10
422987.4160000001
 20
545660.722
 30
92.622
 70
    32
  0
VERTEX
  5
288
330
282
100
AcDbEntity
  8
0
  6
DashDot_Line
 62
    40
100
AcDbVertex
100
AcDb3dPolylineVertex
 10
422984.212
 20
545659.402
 30
92.54
 70
    32
  0
VERTEX
  5
289
330
282
100
AcDbEntity
  8
0
  6
DashDot_Line
 62
    40
100
AcDbVertex
100
AcDb3dPolylineVertex
 10
422980.558
 20
545657.828
 30
92.581
 70
    32
  0
VERTEX
  5
28A
330
282
100
AcDbEntity
  8
0
  6
DashDot_Line
 62
    40
100
AcDbVertex
100
AcDb3dPolylineVertex
 10
422979.489
 20
545659.926
 30
92.642
 70
    32
  0
VERTEX
  5
28B
330
282
100
AcDbEntity
  8
0
  6
DashDot_Line
 62
    40
100
AcDbVertex
100
AcDb3dPolylineVertex
 10
422982.763
 20
545661.287
 30
92.68
 70
    32
  0
VERTEX
  5
28C
330
282
100
AcDbEntity
  8
0
  6
DashDot_Line
 62
    40
100
AcDbVertex
100
AcDb3dPolylineVertex
 10
422986.577
 20
545662.893
 30
92.648
 70
    32
  0
VERTEX
  5
28D
330
282
100
AcDbEntity
  8
0
  6
DashDot_Line
 62
    40
100
AcDbVertex
100
AcDb3dPolylineVertex
 10
422990.958
 20
545664.709
 30
92.795
 70
    32
  0
VERTEX
  5
28E
330
282
100
AcDbEntity
  8
0
  6
DashDot_Line
 62
    40
100
AcDbVertex
100
AcDb3dPolylineVertex
 10
422995.794
 20
545666.778
 30
92.926
 70
    32
  0
VERTEX
  5
28F
330
282
100
AcDbEntity
  8
0
  6
DashDot_Line
 62
    40
100
AcDbVertex
100
AcDb3dPolylineVertex
 10
422999.872
 20
545668.405
 30
93.041
 70
    32
  0
VERTEX
  5
290
330
282
100
AcDbEntity
  8
0
  6
DashDot_Line
 62
    40
100
AcDbVertex
100
AcDb3dPolylineVertex
 10
423002.267
 20
545669.368
 30
93.205
 70
    32
  0
VERTEX
  5
291
330
282
100
AcDbEntity
  8
0
  6
DashDot_Line
 62
    40
100
AcDbVertex
100
AcDb3dPolylineVertex
 10
423006.788
 20
545671.221
 30
93.274
 70
    32
  0
VERTEX
  5
292
330
282
100
AcDbEntity
  8
0
  6
DashDot_Line
 62
    40
100
AcDbVertex
100
AcDb3dPolylineVertex
 10
423007.612
 20
545669.218
 30
93.16
 70
    32
  0
SEQEND
  5
293
330
282
100
AcDbEntity
  8
0
  0
POLYLINE
  5
294
330
1D
100
AcDbEntity
  8
0
  6
DashDot_Line
 62
    40
100
AcDb3dPolyline
 66
     1
 10
0.0
 20
0.0
 30
0.0
 70
     9
  0
VERTEX
  5
295
330
294
100
AcDbEntity
  8
0
  6
DashDot_Line
 62
    40
100
AcDbVertex
100
AcDb3dPolylineVertex
 10
423006.42
 20
545671.023
 30
92.406
 70
    32
  0
VERTEX
  5
296
330
294
100
AcDbEntity
  8
0
  6
DashDot_Line
 62
    40
100
AcDbVertex
100
AcDb3dPolylineVertex
 10
423002.832
 20
545669.476
 30
92.37
 70
    32
  0
VERTEX
  5
297
330
294
100
AcDbEntity
  8
0
  6
DashDot_Line
 62
    40
100
AcDbVertex
100
AcDb3dPolylineVertex
 10
422999.347
 20
545668.013
 30
92.259
 70
    32
  0
VERTEX
  5
298
330
294
100
AcDbEntity
  8
0
  6
DashDot_Line
 62
    40
100
AcDbVertex
100
AcDb3dPolylineVertex
 10
422995.422
 20
545666.417
 30
92.108
 70
    32
  0
VERTEX
  5
299
330
294
100
AcDbEntity
  8
0
  6
DashDot_Line
 62
    40
100
AcDbVertex
100
AcDb3dPolylineVertex
 10
422992.164
 20
545665.07
 30
92.098
 70
    32
  0
VERTEX
  5
29A
330
294
100
AcDbEntity
  8
0
  6
DashDot_Line
 62
    40
100
AcDbVertex
100
AcDb3dPolylineVertex
 10
422988.035
 20
545663.334
 30
91.972
 70
    32
  0
VERTEX
  5
29B
330
294
100
AcDbEntity
  8
0
  6
DashDot_Line
 62
    40
100
AcDbVertex
100
AcDb3dPolylineVertex
 10
422983.817
 20
545661.628
 30
91.961
 70
    32
  0
VERTEX
  5
29C
330
294
100
AcDbEntity
  8
0
  6
DashDot_Line
 62
    40
100
AcDbVertex
100
AcDb3dPolylineVertex
 10
422979.996
 20
545659.986
 30
91.992
 70
    32
  0
VERTEX
  5
29D
330
294
100
AcDbEntity
  8
0
  6
DashDot_Line
 62
    40
100
AcDbVertex
100
AcDb3dPolylineVertex
 10
422980.884
 20
545658.147
 30
91.934
 70
    32
  0
VERTEX
  5
29E
330
294
100
AcDbEntity
  8
0
  6
DashDot_Line
 62
    40
100
AcDbVertex
100
AcDb3dPolylineVertex
 10
422984.195
 20
545659.626
 30
91.928
 70
    32
  0
VERTEX
  5
29F
330
294
100
AcDbEntity
  8
0
  6
DashDot_Line
 62
    40
100
AcDbVertex
100
AcDb3dPolylineVertex
 10
422987.322
 20
545660.974
 30
91.907
 70
    32
  0
VERTEX
  5
2A0
330
294
100
AcDbEntity
  8
0
  6
DashDot_Line
 62
    40
100
AcDbVertex
100
AcDb3dPolylineVertex
 10
422991.547
 20
545662.739
 30
91.912
 70
    32
  0
VERTEX
  5
2A1
330
294
100
AcDbEntity
  8
0
  6
DashDot_Line
 62
    40
100
AcDbVertex
100
AcDb3dPolylineVertex
 10
422996.084
 20
545664.61
 30
92.04
 70
    32
  0
VERTEX
  5
2A2
330
294
100
AcDbEntity
  8
0
  6
DashDot_Line
 62
    40
100
AcDbVertex
100
AcDb3dPolylineVertex
 10
423001.315
 20
545666.779
 30
92.211
 70
    32
  0
VERTEX
  5
2A3
330
294
100
AcDbEntity
  8
0
  6
DashDot_Line
 62
    40
100
AcDbVertex
100
AcDb3dPolylineVertex
 10
423004.654
 20
545668.163
 30
92.317
 70
    32
  0
VERTEX
  5
2A4
330
294
100
AcDbEntity
  8
0
  6
DashDot_Line
 62
    40
100
AcDbVertex
100
AcDb3dPolylineVertex
 10
423007.212
 20
545669.248
 30
92.399
 70
    32
  0
VERTEX
  5
2A5
330
294
100
AcDbEntity
  8
0
  6
DashDot_Line
 62
    40
100
AcDbVertex
100
AcDb3dPolylineVertex
 10
423006.42
 20
545671.023
 30
92.406
 70
    32
  0
SEQEND
  5
2A6
330
294
100
AcDbEntity
  8
0
  0
POLYLINE
  5
2A7
330
1D
100
AcDbEntity
  8
0
  6
DashDot_Line
 62
    40
100
AcDb3dPolyline
 66
     1
 10
0.0
 20
0.0
 30
0.0
 70
     9
  0
VERTEX
  5
2A8
330
2A7
100
AcDbEntity
  8
0
  6
DashDot_Line
 62
    40
100
AcDbVertex
100
AcDb3dPolylineVertex
 10
423019.908
 20
545659.624
 30
92.555
 70
    32
  0
VERTEX
  5
2A9
330
2A7
100
AcDbEntity
  8
0
  6
DashDot_Line
 62
    40
100
AcDbVertex
100
AcDb3dPolylineVertex
 10
423018.419
 20
545661.255
 30
92.622
 70
    32
  0
VERTEX
  5
2AA
330
2A7
100
AcDbEntity
  8
0
  6
DashDot_Line
 62
    40
100
AcDbVertex
100
AcDb3dPolylineVertex
 10
423021.363
 20
545658.189
 30
92.483
 70
    32
  0
VERTEX
  5
2AB
330
2A7
100
AcDbEntity
  8
0
  6
DashDot_Line
 62
    40
100
AcDbVertex
100
AcDb3dPolylineVertex
 10
423024.763
 20
545654.673
 30
92.428
 70
    32
  0
VERTEX
  5
2AC
330
2A7
100
AcDbEntity
  8
0
  6
DashDot_Line
 62
    40
100
AcDbVertex
100
AcDb3dPolylineVertex
 10
423027.861
 20
545651.711
 30
92.312
 70
    32
  0
VERTEX
  5
2AD
330
2A7
100
AcDbEntity
  8
0
  6
DashDot_Line
 62
    40
100
AcDbVertex
100
AcDb3dPolylineVertex
 10
423030.983
 20
545648.388
 30
92.184
 70
    32
  0
VERTEX
  5
2AE
330
2A7
100
AcDbEntity
  8
0
  6
DashDot_Line
 62
    40
100
AcDbVertex
100
AcDb3dPolylineVertex
 10
423033.772
 20
545645.793
 30
92.181
 70
    32
  0
VERTEX
  5
2AF
330
2A7
100
AcDbEntity
  8
0
  6
DashDot_Line
 62
    40
100
AcDbVertex
100
AcDb3dPolylineVertex
 10
423035.817
 20
545643.749
 30
92.079
 70
    32
  0
VERTEX
  5
2B0
330
2A7
100
AcDbEntity
  8
0
  6
DashDot_Line
 62
    40
100
AcDbVertex
100
AcDb3dPolylineVertex
 10
423034.284
 20
545641.955
 30
92.117
 70
    32
  0
VERTEX
  5
2B1
330
2A7
100
AcDbEntity
  8
0
  6
DashDot_Line
 62
    40
100
AcDbVertex
100
AcDb3dPolylineVertex
 10
423032.036
 20
545643.866
 30
92.15
 70
    32
  0
VERTEX
  5
2B2
330
2A7
100
AcDbEntity
  8
0
  6
DashDot_Line
 62
    40
100
AcDbVertex
100
AcDb3dPolylineVertex
 10
423029.403
 20
545646.569
 30
92.233
 70
    32
  0
VERTEX
  5
2B3
330
2A7
100
AcDbEntity
  8
0
  6
DashDot_Line
 62
    40
100
AcDbVertex
100
AcDb3dPolylineVertex
 10
423025.903
 20
545650.254
 30
92.277
 70
    32
  0
VERTEX
  5
2B4
330
2A7
100
AcDbEntity
  8
0
  6
DashDot_Line
 62
    40
100
AcDbVertex
100
AcDb3dPolylineVertex
 10
423022.811
 20
545653.388
 30
92.284
 70
    32
  0
VERTEX
  5
2B5
330
2A7
100
AcDbEntity
  8
0
  6
DashDot_Line
 62
    40
100
AcDbVertex
100
AcDb3dPolylineVertex
 10
423019.694
 20
545656.675
 30
92.436
 70
    32
  0
VERTEX
  5
2B6
330
2A7
100
AcDbEntity
  8
0
  6
DashDot_Line
 62
    40
100
AcDbVertex
100
AcDb3dPolylineVertex
 10
423016.64
 20
545659.757
 30
92.454
 70
    32
  0
VERTEX
  5
2B7
330
2A7
100
AcDbEntity
  8
0
  6
DashDot_Line
 62
    40
100
AcDbVertex
100
AcDb3dPolylineVertex
 10
423014.284
 20
545662.146
 30
92.711
 70
    32
  0
VERTEX
  5
2B8
330
2A7
100
AcDbEntity
  8
0
  6
DashDot_Line
 62
    40
100
AcDbVertex
100
AcDb3dPolylineVertex
 10
423019.908
 20
545659.624
 30
92.555
 70
    32
  0
SEQEND
  5
2B9
330
2A7
100
AcDbEntity
  8
0
  0
POLYLINE
  5
2BA
330
1D
100
AcDbEntity
  8
0
  6
DashDot_Line
 62
    40
100
AcDb3dPolyline
 66
     1
 10
0.0
 20
0.0
 30
0.0
 70
     9
  0
VERTEX
  5
2BB
330
2BA
100
AcDbEntity
  8
0
  6
DashDot_Line
 62
    40
100
AcDbVertex
100
AcDb3dPolylineVertex
 10
423014.586
 20
545662.199
 30
91.944
 70
    32
  0
VERTEX
  5
2BC
330
2BA
100
AcDbEntity
  8
0
  6
DashDot_Line
 62
    40
100
AcDbVertex
100
AcDb3dPolylineVertex
 10
423015.885
 20
545663.617
 30
92.027
 70
    32
  0
VERTEX
  5
2BD
330
2BA
100
AcDbEntity
  8
0
  6
DashDot_Line
 62
    40
100
AcDbVertex
100
AcDb3dPolylineVertex
 10
423018.099
 20
545661.262
 30
91.977
 70
    32
  0
VERTEX
  5
2BE
330
2BA
100
AcDbEntity
  8
0
  6
DashDot_Line
 62
    40
100
AcDbVertex
100
AcDb3dPolylineVertex
 10
423020.626
 20
545658.661
 30
91.84
 70
    32
  0
VERTEX
  5
2BF
330
2BA
100
AcDbEntity
  8
0
  6
DashDot_Line
 62
    40
100
AcDbVertex
100
AcDb3dPolylineVertex
 10
423023.267
 20
545655.899
 30
91.76
 70
    32
  0
VERTEX
  5
2C0
330
2BA
100
AcDbEntity
  8
0
  6
DashDot_Line
 62
    40
100
AcDbVertex
100
AcDb3dPolylineVertex
 10
423025.949
 20
545653.164
 30
91.631
 70
    32
  0
VERTEX
  5
2C1
330
2BA
100
AcDbEntity
  8
0
  6
DashDot_Line
 62
    40
100
AcDbVertex
100
AcDb3dPolylineVertex
 10
423027.8020000001
 20
545651.357
 30
91.62
 70
    32
  0
VERTEX
  5
2C2
330
2BA
100
AcDbEntity
  8
0
  6
DashDot_Line
 62
    40
100
AcDbVertex
100
AcDb3dPolylineVertex
 10
423030.399
 20
545648.666
 30
91.569
 70
    32
  0
VERTEX
  5
2C3
330
2BA
100
AcDbEntity
  8
0
  6
DashDot_Line
 62
    40
100
AcDbVertex
100
AcDb3dPolylineVertex
 10
423033.734
 20
545645.347
 30
91.493
 70
    32
  0
VERTEX
  5
2C4
330
2BA
100
AcDbEntity
  8
0
  6
DashDot_Line
 62
    40
100
AcDbVertex
100
AcDb3dPolylineVertex
 10
423035.482
 20
545643.592
 30
91.594
 70
    32
  0
VERTEX
  5
2C5
330
2BA
100
AcDbEntity
  8
0
  6
DashDot_Line
 62
    40
100
AcDbVertex
100
AcDb3dPolylineVertex
 10
423034.1060000001
 20
545642.158
 30
91.57
 70
    32
  0
VERTEX
  5
2C6
330
2BA
100
AcDbEntity
  8
0
  6
DashDot_Line
 62
    40
100
AcDbVertex
100
AcDb3dPolylineVertex
 10
423031.967
 20
545644.288
 30
91.577
 70
    32
  0
VERTEX
  5
2C7
330
2BA
100
AcDbEntity
  8
0
  6
DashDot_Line
 62
    40
100
AcDbVertex
100
AcDb3dPolylineVertex
 10
423029.191
 20
545647.031
 30
91.618
 70
    32
  0
VERTEX
  5
2C8
330
2BA
100
AcDbEntity
  8
0
  6
DashDot_Line
 62
    40
100
AcDbVertex
100
AcDb3dPolylineVertex
 10
423026.935
 20
545649.414
 30
91.61
 70
    32
  0
VERTEX
  5
2C9
330
2BA
100
AcDbEntity
  8
0
  6
DashDot_Line
 62
    40
100
AcDbVertex
100
AcDb3dPolylineVertex
 10
423024.548
 20
545651.833
 30
91.654
 70
    32
  0
VERTEX
  5
2CA
330
2BA
100
AcDbEntity
  8
0
  6
DashDot_Line
 62
    40
100
AcDbVertex
100
AcDb3dPolylineVertex
 10
423021.749
 20
545654.628
 30
91.764
 70
    32
  0
VERTEX
  5
2CB
330
2BA
100
AcDbEntity
  8
0
  6
DashDot_Line
 62
    40
100
AcDbVertex
100
AcDb3dPolylineVertex
 10
423018.8780000001
 20
545657.639
 30
91.848
 70
    32
  0
VERTEX
  5
2CC
330
2BA
100
AcDbEntity
  8
0
  6
DashDot_Line
 62
    40
100
AcDbVertex
100
AcDb3dPolylineVertex
 10
423015.915
 20
545660.774
 30
91.962
 70
    32
  0
VERTEX
  5
2CD
330
2BA
100
AcDbEntity
  8
0
  6
DashDot_Line
 62
    40
100
AcDbVertex
100
AcDb3dPolylineVertex
 10
423014.586
 20
545662.199
 30
91.944
 70
    32
  0
SEQEND
  5
2CE
330
2BA
100
AcDbEntity
  8
0
  0
POLYLINE
  5
2CF
330
1D
100
AcDbEntity
  8
0
  6
DashDot_Line
 62
    40
100
AcDb3dPolyline
 66
     1
 10
0.0
 20
0.0
 30
0.0
 70
     9
  0
VERTEX
  5
2D0
330
2CF
100
AcDbEntity
  8
0
  6
DashDot_Line
 62
    40
100
AcDbVertex
100
AcDb3dPolylineVertex
 10
423026.8180000001
 20
545664.645
 30
92.999
 70
    32
  0
VERTEX
  5
2D1
330
2CF
100
AcDbEntity
  8
0
  6
DashDot_Line
 62
    40
100
AcDbVertex
100
AcDb3dPolylineVertex
 10
423026.786
 20
545667.896
 30
93.396
 70
    32
  0
VERTEX
  5
2D2
330
2CF
100
AcDbEntity
  8
0
  6
DashDot_Line
 62
    40
100
AcDbVertex
100
AcDb3dPolylineVertex
 10
423026.767
 20
545671.552
 30
93.752
 70
    32
  0
VERTEX
  5
2D3
330
2CF
100
AcDbEntity
  8
0
  6
DashDot_Line
 62
    40
100
AcDbVertex
100
AcDb3dPolylineVertex
 10
423026.5300000001
 20
545676.477
 30
94.077
 70
    32
  0
VERTEX
  5
2D4
330
2CF
100
AcDbEntity
  8
0
  6
DashDot_Line
 62
    40
100
AcDbVertex
100
AcDb3dPolylineVertex
 10
423026.513
 20
545681.903
 30
94.584
 70
    32
  0
VERTEX
  5
2D5
330
2CF
100
AcDbEntity
  8
0
  6
DashDot_Line
 62
    40
100
AcDbVertex
100
AcDb3dPolylineVertex
 10
423026.557
 20
545686.093
 30
94.867
 70
    32
  0
VERTEX
  5
2D6
330
2CF
100
AcDbEntity
  8
0
  6
DashDot_Line
 62
    40
100
AcDbVertex
100
AcDb3dPolylineVertex
 10
423026.567
 20
545690.366
 30
95.234
 70
    32
  0
VERTEX
  5
2D7
330
2CF
100
AcDbEntity
  8
0
  6
DashDot_Line
 62
    40
100
AcDbVertex
100
AcDb3dPolylineVertex
 10
423026.858
 20
545696.204
 30
96.078
 70
    32
  0
VERTEX
  5
2D8
330
2CF
100
AcDbEntity
  8
0
  6
DashDot_Line
 62
    40
100
AcDbVertex
100
AcDb3dPolylineVertex
 10
423029.261
 20
545696.235
 30
96.018
 70
    32
  0
VERTEX
  5
2D9
330
2CF
100
AcDbEntity
  8
0
  6
DashDot_Line
 62
    40
100
AcDbVertex
100
AcDb3dPolylineVertex
 10
423029.217
 20
545693.006
 30
95.646
 70
    32
  0
VERTEX
  5
2DA
330
2CF
100
AcDbEntity
  8
0
  6
DashDot_Line
 62
    40
100
AcDbVertex
100
AcDb3dPolylineVertex
 10
423028.984
 20
545688.898
 30
95.209
 70
    32
  0
VERTEX
  5
2DB
330
2CF
100
AcDbEntity
  8
0
  6
DashDot_Line
 62
    40
100
AcDbVertex
100
AcDb3dPolylineVertex
 10
423028.8780000001
 20
545685.159
 30
94.89
 70
    32
  0
VERTEX
  5
2DC
330
2CF
100
AcDbEntity
  8
0
  6
DashDot_Line
 62
    40
100
AcDbVertex
100
AcDb3dPolylineVertex
 10
423028.989
 20
545680.097
 30
94.538
 70
    32
  0
VERTEX
  5
2DD
330
2CF
100
AcDbEntity
  8
0
  6
DashDot_Line
 62
    40
100
AcDbVertex
100
AcDb3dPolylineVertex
 10
423029.058
 20
545674.694
 30
94.095
 70
    32
  0
VERTEX
  5
2DE
330
2CF
100
AcDbEntity
  8
0
  6
DashDot_Line
 62
    40
100
AcDbVertex
100
AcDb3dPolylineVertex
 10
423029.103
 20
545670.836
 30
93.632
 70
    32
  0
VERTEX
  5
2DF
330
2CF
100
AcDbEntity
  8
0
  6
DashDot_Line
 62
    40
100
AcDbVertex
100
AcDb3dPolylineVertex
 10
423029.173
 20
545665.06
 30
93.188
 70
    32
  0
VERTEX
  5
2E0
330
2CF
100
AcDbEntity
  8
0
  6
DashDot_Line
 62
    40
100
AcDbVertex
100
AcDb3dPolylineVertex
 10
423027.869
 20
545664.58
 30
93.05
 70
    32
  0
VERTEX
  5
2E1
330
2CF
100
AcDbEntity
  8
0
  6
DashDot_Line
 62
    40
100
AcDbVertex
100
AcDb3dPolylineVertex
 10
423026.8180000001
 20
545664.645
 30
92.999
 70
    32
  0
SEQEND
  5
2E2
330
2CF
100
AcDbEntity
  8
0
  0
POLYLINE
  5
2E3
330
1D
100
AcDbEntity
  8
0
  6
DashDot_Line
 62
    40
100
AcDb3dPolyline
 66
     1
 10
0.0
 20
0.0
 30
0.0
 70
     9
  0
VERTEX
  5
2E4
330
2E3
100
AcDbEntity
  8
0
  6
DashDot_Line
 62
    40
100
AcDbVertex
100
AcDb3dPolylineVertex
 10
423028.846
 20
545665.136
 30
92.388
 70
    32
  0
VERTEX
  5
2E5
330
2E3
100
AcDbEntity
  8
0
  6
DashDot_Line
 62
    40
100
AcDbVertex
100
AcDb3dPolylineVertex
 10
423028.87
 20
545668.556
 30
92.647
 70
    32
  0
VERTEX
  5
2E6
330
2E3
100
AcDbEntity
  8
0
  6
DashDot_Line
 62
    40
100
AcDbVertex
100
AcDb3dPolylineVertex
 10
423028.86
 20
545672.445
 30
93.019
 70
    32
  0
VERTEX
  5
2E7
330
2E3
100
AcDbEntity
  8
0
  6
DashDot_Line
 62
    40
100
AcDbVertex
100
AcDb3dPolylineVertex
 10
423028.827
 20
545676.681
 30
93.342
 70
    32
  0
VERTEX
  5
2E8
330
2E3
100
AcDbEntity
  8
0
  6
DashDot_Line
 62
    40
100
AcDbVertex
100
AcDb3dPolylineVertex
 10
423028.7530000001
 20
545680.898
 30
93.649
 70
    32
  0
VERTEX
  5
2E9
330
2E3
100
AcDbEntity
  8
0
  6
DashDot_Line
 62
    40
100
AcDbVertex
100
AcDb3dPolylineVertex
 10
423028.773
 20
545685.845
 30
94.067
 70
    32
  0
VERTEX
  5
2EA
330
2E3
100
AcDbEntity
  8
0
  6
DashDot_Line
 62
    40
100
AcDbVertex
100
AcDb3dPolylineVertex
 10
423028.852
 20
545690.057
 30
94.416
 70
    32
  0
VERTEX
  5
2EB
330
2E3
100
AcDbEntity
  8
0
  6
DashDot_Line
 62
    40
100
AcDbVertex
100
AcDb3dPolylineVertex
 10
423029.061
 20
545693.797
 30
94.714
 70
    32
  0
VERTEX
  5
2EC
330
2E3
100
AcDbEntity
  8
0
  6
DashDot_Line
 62
    40
100
AcDbVertex
100
AcDb3dPolylineVertex
 10
423029.227
 20
545695.622
 30
94.813
 70
    32
  0
VERTEX
  5
2ED
330
2E3
100
AcDbEntity
  8
0
  6
DashDot_Line
 62
    40
100
AcDbVertex
100
AcDb3dPolylineVertex
 10
423026.941
 20
545695.715
 30
94.83
 70
    32
  0
VERTEX
  5
2EE
330
2E3
100
AcDbEntity
  8
0
  6
DashDot_Line
 62
    40
100
AcDbVertex
100
AcDb3dPolylineVertex
 10
423026.788
 20
545692.202
 30
94.582
 70
    32
  0
VERTEX
  5
2EF
330
2E3
100
AcDbEntity
  8
0
  6
DashDot_Line
 62
    40
100
AcDbVertex
100
AcDb3dPolylineVertex
 10
423026.744
 20
545687.935
 30
94.236
 70
    32
  0
VERTEX
  5
2F0
330
2E3
100
AcDbEntity
  8
0
  6
DashDot_Line
 62
    40
100
AcDbVertex
100
AcDb3dPolylineVertex
 10
423026.744
 20
545682.299
 30
93.793
 70
    32
  0
VERTEX
  5
2F1
330
2E3
100
AcDbEntity
  8
0
  6
DashDot_Line
 62
    40
100
AcDbVertex
100
AcDb3dPolylineVertex
 10
423026.842
 20
545676.613
 30
93.242
 70
    32
  0
VERTEX
  5
2F2
330
2E3
100
AcDbEntity
  8
0
  6
DashDot_Line
 62
    40
100
AcDbVertex
100
AcDb3dPolylineVertex
 10
423026.947
 20
545670.911
 30
92.826
 70
    32
  0
VERTEX
  5
2F3
330
2E3
100
AcDbEntity
  8
0
  6
DashDot_Line
 62
    40
100
AcDbVertex
100
AcDb3dPolylineVertex
 10
423026.889
 20
545665.35
 30
92.341
 70
    32
  0
VERTEX
  5
2F4
330
2E3
100
AcDbEntity
  8
0
  6
DashDot_Line
 62
    40
100
AcDbVertex
100
AcDb3dPolylineVertex
 10
423027.789
 20
545665.19
 30
92.318
 70
    32
  0
VERTEX
  5
2F5
330
2E3
100
AcDbEntity
  8
0
  6
DashDot_Line
 62
    40
100
AcDbVertex
100
AcDb3dPolylineVertex
 10
423028.846
 20
545665.136
 30
92.388
 70
    32
  0
SEQEND
  5
2F6
330
2E3
100
AcDbEntity
  8
0
  0
POLYLINE
  5
2F7
330
1D
100
AcDbEntity
  8
0
  6
DashDot_Line
 62
    40
100
AcDb3dPolyline
 66
     1
 10
0.0
 20
0.0
 30
0.0
 70
     9
  0
VERTEX
  5
2F8
330
2F7
100
AcDbEntity
  8
0
  6
DashDot_Line
 62
    40
100
AcDbVertex
100
AcDb3dPolylineVertex
 10
422988.545
 20
545681.256
 30
93.637
 70
    32
  0
VERTEX
  5
2F9
330
2F7
100
AcDbEntity
  8
0
  6
DashDot_Line
 62
    40
100
AcDbVertex
100
AcDb3dPolylineVertex
 10
422984.265
 20
545681.404
 30
93.552
 70
    32
  0
VERTEX
  5
2FA
330
2F7
100
AcDbEntity
  8
0
  6
DashDot_Line
 62
    40
100
AcDbVertex
100
AcDb3dPolylineVertex
 10
422978.997
 20
545681.494
 30
93.576
 70
    32
  0
VERTEX
  5
2FB
330
2F7
100
AcDbEntity
  8
0
  6
DashDot_Line
 62
    40
100
AcDbVertex
100
AcDb3dPolylineVertex
 10
422972.7800000001
 20
545681.318
 30
93.552
 70
    32
  0
VERTEX
  5
2FC
330
2F7
100
AcDbEntity
  8
0
  6
DashDot_Line
 62
    40
100
AcDbVertex
100
AcDb3dPolylineVertex
 10
422966.33
 20
545681.12
 30
93.53
 70
    32
  0
VERTEX
  5
2FD
330
2F7
100
AcDbEntity
  8
0
  6
DashDot_Line
 62
    40
100
AcDbVertex
100
AcDb3dPolylineVertex
 10
422959.05
 20
545680.386
 30
93.61
 70
    32
  0
VERTEX
  5
2FE
330
2F7
100
AcDbEntity
  8
0
  6
DashDot_Line
 62
    40
100
AcDbVertex
100
AcDb3dPolylineVertex
 10
422959.51
 20
545678.082
 30
93.497
 70
    32
  0
VERTEX
  5
2FF
330
2F7
100
AcDbEntity
  8
0
  6
DashDot_Line
 62
    40
100
AcDbVertex
100
AcDb3dPolylineVertex
 10
422965.625
 20
545678.659
 30
93.396
 70
    32
  0
VERTEX
  5
300
330
2F7
100
AcDbEntity
  8
0
  6
DashDot_Line
 62
    40
100
AcDbVertex
100
AcDb3dPolylineVertex
 10
422971.595
 20
545679.045
 30
93.36
 70
    32
  0
VERTEX
  5
301
330
2F7
100
AcDbEntity
  8
0
  6
DashDot_Line
 62
    40
100
AcDbVertex
100
AcDb3dPolylineVertex
 10
422977.13
 20
545679.151
 30
93.43
 70
    32
  0
VERTEX
  5
302
330
2F7
100
AcDbEntity
  8
0
  6
DashDot_Line
 62
    40
100
AcDbVertex
100
AcDb3dPolylineVertex
 10
422983.141
 20
545679.367
 30
93.413
 70
    32
  0
VERTEX
  5
303
330
2F7
100
AcDbEntity
  8
0
  6
DashDot_Line
 62
    40
100
AcDbVertex
100
AcDb3dPolylineVertex
 10
422986.2420000001
 20
545679.165
 30
93.444
 70
    32
  0
VERTEX
  5
304
330
2F7
100
AcDbEntity
  8
0
  6
DashDot_Line
 62
    40
100
AcDbVertex
100
AcDb3dPolylineVertex
 10
422988.524
 20
545679.321
 30
93.45
 70
    32
  0
VERTEX
  5
305
330
2F7
100
AcDbEntity
  8
0
  6
DashDot_Line
 62
    40
100
AcDbVertex
100
AcDb3dPolylineVertex
 10
422988.545
 20
545681.256
 30
93.637
 70
    32
  0
SEQEND
  5
306
330
2F7
100
AcDbEntity
  8
0
  0
POLYLINE
  5
307
330
1D
100
AcDbEntity
  8
0
  6
DashDot_Line
 62
    40
100
AcDb3dPolyline
 66
     1
 10
0.0
 20
0.0
 30
0.0
 70
     9
  0
VERTEX
  5
308
330
307
100
AcDbEntity
  8
0
  6
DashDot_Line
 62
    40
100
AcDbVertex
100
AcDb3dPolylineVertex
 10
422988.243
 20
545679.524
 30
92.886
 70
    32
  0
VERTEX
  5
309
330
307
100
AcDbEntity
  8
0
  6
DashDot_Line
 62
    40
100
AcDbVertex
100
AcDb3dPolylineVertex
 10
422984.621
 20
545679.512
 30
92.791
 70
    32
  0
VERTEX
  5
30A
330
307
100
AcDbEntity
  8
0
  6
DashDot_Line
 62
    40
100
AcDbVertex
100
AcDb3dPolylineVertex
 10
422980.563
 20
545679.567
 30
92.766
 70
    32
  0
VERTEX
  5
30B
330
307
100
AcDbEntity
  8
0
  6
DashDot_Line
 62
    40
100
AcDbVertex
100
AcDb3dPolylineVertex
 10
422976.517
 20
545679.399
 30
92.782
 70
    32
  0
VERTEX
  5
30C
330
307
100
AcDbEntity
  8
0
  6
DashDot_Line
 62
    40
100
AcDbVertex
100
AcDb3dPolylineVertex
 10
422971.595
 20
545679.283
 30
92.745
 70
    32
  0
VERTEX
  5
30D
330
307
100
AcDbEntity
  8
0
  6
DashDot_Line
 62
    40
100
AcDbVertex
100
AcDb3dPolylineVertex
 10
422966.118
 20
545679.005
 30
92.646
 70
    32
  0
VERTEX
  5
30E
330
307
100
AcDbEntity
  8
0
  6
DashDot_Line
 62
    40
100
AcDbVertex
100
AcDb3dPolylineVertex
 10
422959.776
 20
545678.274
 30
92.754
 70
    32
  0
VERTEX
  5
30F
330
307
100
AcDbEntity
  8
0
  6
DashDot_Line
 62
    40
100
AcDbVertex
100
AcDb3dPolylineVertex
 10
422959.411
 20
545680.368
 30
92.823
 70
    32
  0
VERTEX
  5
310
330
307
100
AcDbEntity
  8
0
  6
DashDot_Line
 62
    40
100
AcDbVertex
100
AcDb3dPolylineVertex
 10
422967.419
 20
545681.051
 30
92.642
 70
    32
  0
VERTEX
  5
311
330
307
100
AcDbEntity
  8
0
  6
DashDot_Line
 62
    40
100
AcDbVertex
100
AcDb3dPolylineVertex
 10
422972.397
 20
545681.13
 30
92.897
 70
    32
  0
VERTEX
  5
312
330
307
100
AcDbEntity
  8
0
  6
DashDot_Line
 62
    40
100
AcDbVertex
100
AcDb3dPolylineVertex
 10
422977.233
 20
545681.241
 30
92.956
 70
    32
  0
VERTEX
  5
313
330
307
100
AcDbEntity
  8
0
  6
DashDot_Line
 62
    40
100
AcDbVertex
100
AcDb3dPolylineVertex
 10
422981.678
 20
545681.274
 30
92.943
 70
    32
  0
VERTEX
  5
314
330
307
100
AcDbEntity
  8
0
  6
DashDot_Line
 62
    40
100
AcDbVertex
100
AcDb3dPolylineVertex
 10
422988.139
 20
545681.256
 30
92.814
 70
    32
  0
VERTEX
  5
315
330
307
100
AcDbEntity
  8
0
  6
DashDot_Line
 62
    40
100
AcDbVertex
100
AcDb3dPolylineVertex
 10
422988.243
 20
545679.524
 30
92.886
 70
    32
  0
SEQEND
  5
316
330
307
100
AcDbEntity
  8
0
  0
POLYLINE
  5
317
330
1D
100
AcDbEntity
  8
0
  6
Solid_Line
 62
   151
100
AcDb3dPolyline
 66
     1
 10
0.0
 20
0.0
 30
0.0
 70
     9
  0
VERTEX
  5
318
330
317
100
AcDbEntity
  8
0
  6
Solid_Line
 62
   151
100
AcDbVertex
100
AcDb3dPolylineVertex
 10
422983.391
 20
545679.587
 30
92.735
 70
    32
  0
VERTEX
  5
319
330
317
100
AcDbEntity
  8
0
  6
Solid_Line
 62
   151
100
AcDbVertex
100
AcDb3dPolylineVertex
 10
422983.191
 20
545680.321
 30
92.74
 70
    32
  0
VERTEX
  5
31A
330
317
100
AcDbEntity
  8
0
  6
Solid_Line
 62
   151
100
AcDbVertex
100
AcDb3dPolylineVertex
 10
422983.1280000001
 20
545681.341
 30
92.796
 70
    32
  0
VERTEX
  5
31B
330
317
100
AcDbEntity
  8
0
  6
Solid_Line
 62
   151
100
AcDbVertex
100
AcDb3dPolylineVertex
 10
422982.638
 20
545681.307
 30
92.717
 70
    32
  0
VERTEX
  5
31C
330
317
100
AcDbEntity
  8
0
  6
Solid_Line
 62
   151
100
AcDbVertex
100
AcDb3dPolylineVertex
 10
422982.756
 20
545680.396
 30
92.676
 70
    32
  0
VERTEX
  5
31D
330
317
100
AcDbEntity
  8
0
  6
Solid_Line
 62
   151
100
AcDbVertex
100
AcDb3dPolylineVertex
 10
422982.895
 20
545679.566
 30
92.723
 70
    32
  0
VERTEX
  5
31E
330
317
100
AcDbEntity
  8
0
  6
Solid_Line
 62
   151
100
AcDbVertex
100
AcDb3dPolylineVertex
 10
422983.391
 20
545679.587
 30
92.735
 70
    32
  0
SEQEND
  5
31F
330
317
100
AcDbEntity
  8
0
  0
POLYLINE
  5
320
330
1D
100
AcDbEntity
  8
0
  6
Solid_Line
 62
   151
100
AcDb3dPolyline
 66
     1
 10
0.0
 20
0.0
 30
0.0
 70
     9
  0
VERTEX
  5
321
330
320
100
AcDbEntity
  8
0
  6
Solid_Line
 62
   151
100
AcDbVertex
100
AcDb3dPolylineVertex
 10
422975.979
 20
545679.439
 30
92.842
 70
    32
  0
VERTEX
  5
322
330
320
100
AcDbEntity
  8
0
  6
Solid_Line
 62
   151
100
AcDbVertex
100
AcDb3dPolylineVertex
 10
422975.906
 20
545680.265
 30
92.801
 70
    32
  0
VERTEX
  5
323
330
320
100
AcDbEntity
  8
0
  6
Solid_Line
 62
   151
100
AcDbVertex
100
AcDb3dPolylineVertex
 10
422975.8
 20
545681.221
 30
92.819
 70
    32
  0
VERTEX
  5
324
330
320
100
AcDbEntity
  8
0
  6
Solid_Line
 62
   151
100
AcDbVertex
100
AcDb3dPolylineVertex
 10
422975.199
 20
545681.237
 30
92.883
 70
    32
  0
VERTEX
  5
325
330
320
100
AcDbEntity
  8
0
  6
Solid_Line
 62
   151
100
AcDbVertex
100
AcDb3dPolylineVertex
 10
422975.272
 20
545680.25
 30
92.778
 70
    32
  0
VERTEX
  5
326
330
320
100
AcDbEntity
  8
0
  6
Solid_Line
 62
   151
100
AcDbVertex
100
AcDb3dPolylineVertex
 10
422975.381
 20
545679.447
 30
92.841
 70
    32
  0
VERTEX
  5
327
330
320
100
AcDbEntity
  8
0
  6
Solid_Line
 62
   151
100
AcDbVertex
100
AcDb3dPolylineVertex
 10
422975.979
 20
545679.439
 30
92.842
 70
    32
  0
SEQEND
  5
328
330
320
100
AcDbEntity
  8
0
  0
POLYLINE
  5
329
330
1D
100
AcDbEntity
  8
0
  6
Solid_Line
 62
   151
100
AcDb3dPolyline
 66
     1
 10
0.0
 20
0.0
 30
0.0
 70
     9
  0
VERTEX
  5
32A
330
329
100
AcDbEntity
  8
0
  6
Solid_Line
 62
   151
100
AcDbVertex
100
AcDb3dPolylineVertex
 10
422969.705
 20
545679.178
 30
92.787
 70
    32
  0
VERTEX
  5
32B
330
329
100
AcDbEntity
  8
0
  6
Solid_Line
 62
   151
100
AcDbVertex
100
AcDb3dPolylineVertex
 10
422969.63
 20
545680.083
 30
92.781
 70
    32
  0
VERTEX
  5
32C
330
329
100
AcDbEntity
  8
0
  6
Solid_Line
 62
   151
100
AcDbVertex
100
AcDb3dPolylineVertex
 10
422969.491
 20
545681.052
 30
92.904
 70
    32
  0
VERTEX
  5
32D
330
329
100
AcDbEntity
  8
0
  6
Solid_Line
 62
   151
100
AcDbVertex
100
AcDb3dPolylineVertex
 10
422968.5410000001
 20
545681.042
 30
92.692
 70
    32
  0
VERTEX
  5
32E
330
329
100
AcDbEntity
  8
0
  6
Solid_Line
 62
   151
100
AcDbVertex
100
AcDb3dPolylineVertex
 10
422968.593
 20
545680.007
 30
92.687
 70
    32
  0
VERTEX
  5
32F
330
329
100
AcDbEntity
  8
0
  6
Solid_Line
 62
   151
100
AcDbVertex
100
AcDb3dPolylineVertex
 10
422968.68
 20
545679.138
 30
92.611
 70
    32
  0
VERTEX
  5
330
330
329
100
AcDbEntity
  8
0
  6
Solid_Line
 62
   151
100
AcDbVertex
100
AcDb3dPolylineVertex
 10
422969.705
 20
545679.178
 30
92.787
 70
    32
  0
SEQEND
  5
331
330
329
100
AcDbEntity
  8
0
  0
ENDSEC
  0
SECTION
  2
OBJECTS
  0
DICTIONARY
  5
C
330
0
100
AcDbDictionary
281
     1
  3
ACAD_DETAILVIEWSTYLE
350
375
  3
ACAD_GROUP
350
D
  3
ACAD_LAYOUT
350
1A
  3
ACAD_MATERIAL
350
365
  3
ACAD_MLEADERSTYLE
350
36B
  3
ACAD_MLINESTYLE
350
17
  3
ACAD_PLOTSETTINGS
350
19
  3
ACAD_PLOTSTYLENAME
350
E
  3
ACAD_SCALELIST
350
336
  3
ACAD_SECTIONVIEWSTYLE
350
376
  3
ACAD_TABLESTYLE
350
369
  3
ACAD_VISUALSTYLE
350
34C
  3
ACDB_RECOMPOSE_DATA
350
371
  3
AcDbVariableDictionary
350
36D
  0
DICTIONARY
  5
375
102
{ACAD_REACTORS
330
C
102
}
330
C
100
AcDbDictionary
281
     1
  0
DICTIONARY
  5
D
102
{ACAD_REACTORS
330
C
102
}
330
C
100
AcDbDictionary
281
     1
  0
DICTIONARY
  5
1A
102
{ACAD_REACTORS
330
C
102
}
330
C
100
AcDbDictionary
281
     1
  3
Layout1
350
1C
  3
Model
350
1E
  0
DICTIONARY
  5
365
102
{ACAD_REACTORS
330
C
102
}
330
C
100
AcDbDictionary
281
     1
  3
ByBlock
350
367
  3
ByLayer
350
366
  3
Global
350
368
  0
DICTIONARY
  5
36B
102
{ACAD_REACTORS
330
C
102
}
330
C
100
AcDbDictionary
281
     1
  3
Standard
350
36C
  0
DICTIONARY
  5
17
102
{ACAD_REACTORS
330
C
102
}
330
C
100
AcDbDictionary
281
     1
  3
Standard
350
18
  0
DICTIONARY
  5
19
102
{ACAD_REACTORS
330
C
102
}
330
C
100
AcDbDictionary
281
     1
  0
ACDBDICTIONARYWDFLT
  5
E
102
{ACAD_REACTORS
330
C
102
}
330
C
100
AcDbDictionary
281
     1
  3
Normal
350
F
100
AcDbDictionaryWithDefault
340
F
  0
DICTIONARY
  5
336
102
{ACAD_REACTORS
330
C
102
}
330
C
100
AcDbDictionary
281
     1
  3
A0
350
337
  3
A1
350
338
  3
A2
350
339
  3
A3
350
33A
  3
A4
350
33B
  3
A5
350
33C
  3
A6
350
33D
  3
A7
350
33E
  3
A8
350
33F
  3
A9
350
340
  3
B0
350
341
  3
B1
350
342
  3
B2
350
343
  3
B3
350
344
  3
B4
350
345
  3
B5
350
346
  3
B6
350
347
  0
DICTIONARY
  5
376
102
{ACAD_REACTORS
330
C
102
}
330
C
100
AcDbDictionary
281
     1
  0
DICTIONARY
  5
369
102
{ACAD_REACTORS
330
C
102
}
330
C
100
AcDbDictionary
281
     1
  3
Standard
350
36A
  0
DICTIONARY
  5
34C
102
{ACAD_REACTORS
330
C
102
}
330
C
100
AcDbDictionary
281
     1
  3
2dWireframe
350
351
  3
Basic
350
354
  3
Brighten
350
358
  3
ColorChange
350
35C
  3
Conceptual
350
356
  3
Dim
350
357
  3
EdgeColorOff
350
35F
  3
Facepattern
350
35B
  3
Flat
350
34D
  3
FlatWithEdges
350
34E
  3
Gouraud
350
34F
  3
GouraudWithEdges
350
350
  3
Hidden
350
353
  3
JitterOff
350
35D
  3
Linepattern
350
35A
  3
OverhangOff
350
35E
  3
Realistic
350
355
  3
Shaded
350
364
  3
Shaded with edges
350
363
  3
Shades of Gray
350
360
  3
Sketchy
350
361
  3
Thicken
350
359
  3
Wireframe
350
352
  3
X-Ray
350
362
  0
XRECORD
  5
371
102
{ACAD_REACTORS
330
C
102
}
330
C
100
AcDbXrecord
280
     1
 90
        1
330
36A
  0
DICTIONARY
  5
36D
102
{ACAD_REACTORS
330
C
102
}
330
C
100
AcDbDictionary
281
     1
  3
CANNOSCALE
350
36E
  3
CMLEADERSTYLE
350
373
  3
CTABLESTYLE
350
372
  3
MSLTSCALE
350
374
  0
LAYOUT
  5
1C
102
{ACAD_REACTORS
330
1A
102
}
330
1A
100
AcDbPlotSettings
  1

  2
none_device
  4

  6

 40
0.0
 41
0.0
 42
0.0
 43
0.0
 44
0.0
 45
0.0
 46
0.0
 47
0.0
 48
0.0
 49
0.0
140
0.0
141
0.0
142
1.0
143
1.0
 70
   688
 72
     0
 73
     0
 74
     5
  7

 75
    16
 76
     0
 77
     2
 78
   300
147
1.0
148
0.0
149
0.0
100
AcDbLayout
  1
Layout1
 70
     1
 71
     1
 10
0.0
 20
0.0
 11
12.0
 21
9.0
 12
0.0
 22
0.0
 32
0.0
 14
1.000000000000000E+20
 24
1.000000000000000E+20
 34
1.000000000000000E+20
 15
-1.000000000000000E+20
 25
-1.000000000000000E+20
 35
-1.000000000000000E+20
146
0.0
 13
0.0
 23
0.0
 33
0.0
 16
1.0
 26
0.0
 36
0.0
 17
0.0
 27
1.0
 37
0.0
 76
     0
330
1B
  0
LAYOUT
  5
1E
102
{ACAD_REACTORS
330
1A
102
}
330
1A
100
AcDbPlotSettings
  1

  2
none_device
  4
Letter_(8.50_x_11.00_Inches)
  6

 40
6.35
 41
6.35
 42
6.35000508
 43
6.35000508
 44
215.9
 45
279.4
 46
0.0
 47
0.0
 48
0.0
 49
0.0
140
0.0
141
0.0
142
1.0
143
1.0
 70
  1712
 72
     0
 73
     0
 74
     0
  7

 75
     0
 76
     0
 77
     2
 78
   300
147
1.0
148
0.0
149
0.0
100
AcDbLayout
  1
Model
 70
     1
 71
     0
 10
0.0
 20
0.0
 11
12.0
 21
9.0
 12
0.0
 22
0.0
 32
0.0
 14
0.0
 24
0.0
 34
0.0
 15
0.0
 25
0.0
 35
0.0
146
0.0
 13
0.0
 23
0.0
 33
0.0
 16
1.0
 26
0.0
 36
0.0
 17
0.0
 27
1.0
 37
0.0
 76
     0
330
1D
331
27
  0
MATERIAL
  5
367
102
{ACAD_REACTORS
330
365
102
}
330
365
100
AcDbMaterial
  1
ByBlock
 72
     1
 94
      127
  0
MATERIAL
  5
366
102
{ACAD_REACTORS
330
365
102
}
330
365
100
AcDbMaterial
  1
ByLayer
 72
     1
 94
      127
  0
MATERIAL
  5
368
102
{ACAD_REACTORS
330
365
102
}
330
365
100
AcDbMaterial
  1
Global
 72
     1
 94
      127
  0
MLEADERSTYLE
  5
36C
102
{ACAD_REACTORS
330
36B
102
}
330
36B
100
AcDbMLeaderStyle
179
     2
170
     2
171
     1
172
     0
 90
        2
 40
0.0
 41
0.0
173
     1
 91
-1056964608
340
14
 92
       -2
290
     1
 42
2.0
291
     1
 43
8.0
  3
Standard
341
0
 44
4.0
300

342
11
174
     1
178
     6
175
     1
176
     0
 93
-1056964608
 45
4.0
292
     0
297
     0
 46
4.0
343
0
 94
-1056964608
 47
1.0
 49
1.0
140
1.0
293
     1
141
0.0
294
     1
177
     0
142
1.0
295
     0
296
     0
143
3.75
271
     0
272
     9
273
     9
298
     0
  0
MLINESTYLE
  5
18
102
{ACAD_REACTORS
330
17
102
}
330
17
100
AcDbMlineStyle
  2
Standard
 70
     0
  3

 62
   256
 51
90.0
 52
90.0
 71
     2
 49
0.5
 62
   256
  6
BYLAYER
 49
-0.5
 62
   256
  6
BYLAYER
  0
ACDBPLACEHOLDER
  5
F
102
{ACAD_REACTORS
330
E
102
}
330
E
  0
SCALE
  5
337
102
{ACAD_REACTORS
330
336
102
}
330
336
100
AcDbScale
 70
     0
300
1:1
140
1.0
141
1.0
290
     1
  0
SCALE
  5
338
102
{ACAD_REACTORS
330
336
102
}
330
336
100
AcDbScale
 70
     0
300
1:2
140
1.0
141
2.0
290
     0
  0
SCALE
  5
339
102
{ACAD_REACTORS
330
336
102
}
330
336
100
AcDbScale
 70
     0
300
1:4
140
1.0
141
4.0
290
     0
  0
SCALE
  5
33A
102
{ACAD_REACTORS
330
336
102
}
330
336
100
AcDbScale
 70
     0
300
1:5
140
1.0
141
5.0
290
     0
  0
SCALE
  5
33B
102
{ACAD_REACTORS
330
336
102
}
330
336
100
AcDbScale
 70
     0
300
1:8
140
1.0
141
8.0
290
     0
  0
SCALE
  5
33C
102
{ACAD_REACTORS
330
336
102
}
330
336
100
AcDbScale
 70
     0
300
1:10
140
1.0
141
10.0
290
     0
  0
SCALE
  5
33D
102
{ACAD_REACTORS
330
336
102
}
330
336
100
AcDbScale
 70
     0
300
1:16
140
1.0
141
16.0
290
     0
  0
SCALE
  5
33E
102
{ACAD_REACTORS
330
336
102
}
330
336
100
AcDbScale
 70
     0
300
1:20
140
1.0
141
20.0
290
     0
  0
SCALE
  5
33F
102
{ACAD_REACTORS
330
336
102
}
330
336
100
AcDbScale
 70
     0
300
1:30
140
1.0
141
30.0
290
     0
  0
SCALE
  5
340
102
{ACAD_REACTORS
330
336
102
}
330
336
100
AcDbScale
 70
     0
300
1:40
140
1.0
141
40.0
290
     0
  0
SCALE
  5
341
102
{ACAD_REACTORS
330
336
102
}
330
336
100
AcDbScale
 70
     0
300
1:50
140
1.0
141
50.0
290
     0
  0
SCALE
  5
342
102
{ACAD_REACTORS
330
336
102
}
330
336
100
AcDbScale
 70
     0
300
1:100
140
1.0
141
100.0
290
     0
  0
SCALE
  5
343
102
{ACAD_REACTORS
330
336
102
}
330
336
100
AcDbScale
 70
     0
300
2:1
140
2.0
141
1.0
290
     0
  0
SCALE
  5
344
102
{ACAD_REACTORS
330
336
102
}
330
336
100
AcDbScale
 70
     0
300
4:1
140
4.0
141
1.0
290
     0
  0
SCALE
  5
345
102
{ACAD_REACTORS
330
336
102
}
330
336
100
AcDbScale
 70
     0
300
8:1
140
8.0
141
1.0
290
     0
  0
SCALE
  5
346
102
{ACAD_REACTORS
330
336
102
}
330
336
100
AcDbScale
 70
     0
300
10:1
140
10.0
141
1.0
290
     0
  0
SCALE
  5
347
102
{ACAD_REACTORS
330
336
102
}
330
336
100
AcDbScale
 70
     0
300
100:1
140
100.0
141
1.0
290
     0
  0
TABLESTYLE
  5
36A
102
{ACAD_REACTORS
330
369
102
}
102
{ACAD_XDICTIONARY
360
36F
102
}
330
369
100
AcDbTableStyle
  3
Standard
 70
     0
 71
     0
 40
0.06
 41
0.06
280
     0
281
     0
  7
Standard
140
4.5
170
     2
 62
     0
 63
   257
283
     0
 90
        4
 91
        0
  1

274
    -2
284
     1
 64
     0
275
    -2
285
     1
 65
     0
276
    -2
286
     1
 66
     0
277
    -2
287
     1
 67
     0
278
    -2
288
     1
 68
     0
279
    -2
289
     1
 69
     0
  7
Standard
140
6.0
170
     5
 62
     0
 63
   257
283
     0
 90
        4
 91
        0
  1

274
    -2
284
     1
 64
     0
275
    -2
285
     1
 65
     0
276
    -2
286
     1
 66
     0
277
    -2
287
     1
 67
     0
278
    -2
288
     1
 68
     0
279
    -2
289
     1
 69
     0
  7
Standard
140
4.5
170
     5
 62
     0
 63
   257
283
     0
 90
        4
 91
        0
  1

274
    -2
284
     1
 64
     0
275
    -2
285
     1
 65
     0
276
    -2
286
     1
 66
     0
277
    -2
287
     1
 67
     0
278
    -2
288
     1
 68
     0
279
    -2
289
     1
 69
     0
  0
VISUALSTYLE
  5
351
102
{ACAD_REACTORS
330
34C
102
}
330
34C
100
AcDbVisualStyle
  2
2dWireframe
 70
     4
177
     3
291
     0
 70
    58
 90
        0
176
     1
 90
        2
176
     1
 90
        0
176
     1
 90
        0
176
     1
 40
0.6
176
     1
 40
30.0
176
     1
 62
     7
420
 16777215
176
     1
 90
        1
176
     1
 90
        4
176
     1
 62
     7
176
     1
 62
   257
176
     1
 90
        1
176
     1
 90
        1
176
     1
 40
1.0
176
     1
 90
        0
176
     1
 62
   257
176
     1
 40
1.0
176
     1
 90
        1
176
     1
 90
        6
176
     1
 90
        2
176
     1
 62
     7
176
     1
 90
        5
176
     1
 90
        0
176
     1
 90
        0
176
     1
290
     0
176
     1
 90
        1
176
     1
 40
0.0
176
     1
 90
        0
176
     1
290
     1
176
     1
290
     1
176
     1
290
     0
176
     1
290
     0
176
     1
290
     0
176
     1
290
     0
176
     1
290
     0
176
     1
290
     0
176
     1
290
     0
176
     1
 90
       50
176
     1
 40
0.0
176
     1
 40
1.0
176
     1
 90
        0
176
     1
 62
    18
420
        0
176
     1
 90
       50
176
     1
 90
        3
176
     1
 62
     5
420
      255
176
     1
290
     0
176
     1
 90
       50
176
     1
 90
       50
176
     1
 90
       50
176
     1
290
     0
176
     1
 90
       50
176
     1
 62
   256
176
     0
 40
1.0
176
     0
 90
        2
176
     1
  1
strokes_ogs.tif
176
     1
290
     0
176
     1
 40
1.0
176
     1
 40
1.0
176
     1
  0
VISUALSTYLE
  5
354
102
{ACAD_REACTORS
330
34C
102
}
330
34C
100
AcDbVisualStyle
  2
Basic
 70
     7
177
     3
291
     1
 70
    58
 90
        1
176
     1
 90
        0
176
     1
 90
        1
176
     1
 90
        0
176
     1
 40
0.6
176
     1
 40
30.0
176
     1
 62
     7
420
 16777215
176
     1
 90
        0
176
     1
 90
        4
176
     1
 62
     7
176
     1
 62
   257
176
     1
 90
        1
176
     1
 90
        1
176
     1
 40
1.0
176
     1
 90
        8
176
     1
 62
     7
176
     1
 40
1.0
176
     1
 90
        1
176
     1
 90
        6
176
     1
 90
        2
176
     1
 62
     7
176
     1
 90
        5
176
     1
 90
        0
176
     1
 90
        0
176
     1
290
     0
176
     1
 90
        1
176
     1
 40
0.0
176
     1
 90
        0
176
     1
290
     0
176
     1
290
     1
176
     1
290
     1
176
     1
290
     0
176
     1
290
     0
176
     1
290
     0
176
     1
290
     0
176
     1
290
     0
176
     1
290
     0
176
     1
 90
       50
176
     1
 40
0.0
176
     1
 40
1.0
176
     1
 90
        0
176
     1
 62
    18
420
        0
176
     1
 90
       50
176
     1
 90
        3
176
     1
 62
     5
420
      255
176
     1
290
     0
176
     1
 90
       50
176
     1
 90
       50
176
     1
 90
       50
176
     1
290
     0
176
     1
 90
       50
176
     1
 62
   256
176
     0
 40
1.0
176
     0
 90
        2
176
     1
  1
strokes_ogs.tif
176
     1
290
     0
176
     1
 40
1.0
176
     1
 40
1.0
176
     1
  0
VISUALSTYLE
  5
358
102
{ACAD_REACTORS
330
34C
102
}
330
34C
100
AcDbVisualStyle
  2
Brighten
 70
    12
177
     3
291
     1
 70
    58
 90
        2
176
     1
 90
        2
176
     1
 90
        0
176
     1
 90
        0
176
     1
 40
0.6
176
     1
 40
30.0
176
     1
 62
     7
420
 16777215
176
     1
 90
        1
176
     1
 90
        4
176
     1
 62
     7
176
     1
 62
   257
176
     1
 90
        1
176
     1
 90
        1
176
     1
 40
1.0
176
     1
 90
        8
176
     1
 62
     7
176
     1
 40
1.0
176
     1
 90
        1
176
     1
 90
        6
176
     1
 90
        2
176
     1
 62
     7
176
     1
 90
        5
176
     1
 90
        0
176
     1
 90
        0
176
     1
290
     0
176
     1
 90
        1
176
     1
 40
50.0
176
     1
 90
        0
176
     1
290
     0
176
     1
290
     1
176
     1
290
     1
176
     1
290
     0
176
     1
290
     0
176
     1
290
     0
176
     1
290
     0
176
     1
290
     0
176
     1
290
     0
176
     1
 90
       50
176
     1
 40
0.0
176
     1
 40
1.0
176
     1
 90
        0
176
     1
 62
    18
420
        0
176
     1
 90
       50
176
     1
 90
        3
176
     1
 62
     5
420
      255
176
     1
290
     0
176
     1
 90
       50
176
     1
 90
       50
176
     1
 90
       50
176
     1
290
     0
176
     1
 90
       50
176
     1
 62
   256
176
     0
 40
1.0
176
     0
 90
        2
176
     1
  1
strokes_ogs.tif
176
     1
290
     0
176
     1
 40
1.0
176
     1
 40
1.0
176
     1
  0
VISUALSTYLE
  5
35C
102
{ACAD_REACTORS
330
34C
102
}
330
34C
100
AcDbVisualStyle
  2
ColorChange
 70
    16
177
     3
291
     1
 70
    58
 90
        2
176
     1
 90
        2
176
     1
 90
        3
176
     1
 90
        0
176
     1
 40
0.6
176
     1
 40
30.0
176
     1
 62
     8
420
  8421504
176
     1
 90
        1
176
     1
 90
        4
176
     1
 62
     7
176
     1
 62
   257
176
     1
 90
        1
176
     1
 90
        1
176
     1
 40
1.0
176
     1
 90
        8
176
     1
 62
     8
420
  8421504
176
     1
 40
1.0
176
     1
 90
        1
176
     1
 90
        6
176
     1
 90
        2
176
     1
 62
     7
176
     1
 90
        5
176
     1
 90
        0
176
     1
 90
        0
176
     1
290
     0
176
     1
 90
        1
176
     1
 40
0.0
176
     1
 90
        0
176
     1
290
     0
176
     1
290
     1
176
     1
290
     1
176
     1
290
     0
176
     1
290
     0
176
     1
290
     0
176
     1
290
     0
176
     1
290
     0
176
     1
290
     0
176
     1
 90
       50
176
     1
 40
0.0
176
     1
 40
1.0
176
     1
 90
        0
176
     1
 62
    18
420
        0
176
     1
 90
       50
176
     1
 90
        3
176
     1
 62
     5
420
      255
176
     1
290
     0
176
     1
 90
       50
176
     1
 90
       50
176
     1
 90
       50
176
     1
290
     0
176
     1
 90
       50
176
     1
 62
   256
176
     0
 40
1.0
176
     0
 90
        2
176
     1
  1
strokes_ogs.tif
176
     1
290
     0
176
     1
 40
1.0
176
     1
 40
1.0
176
     1
  0
VISUALSTYLE
  5
356
102
{ACAD_REACTORS
330
34C
102
}
330
34C
100
AcDbVisualStyle
  2
Conceptual
 70
     9
177
     3
291
     0
 70
    58
 90
        3
176
     1
 90
        2
176
     1
 90
        0
176
     1
 90
        0
176
     1
 40
0.6
176
     1
 40
30.0
176
     1
 62
     7
420
 16777215
176
     1
 90
        2
176
     1
 90
        2
176
     1
 62
     7
176
     1
 62
   257
176
     1
 90
        1
176
     1
 90
        1
176
     1
 40
179.0
176
     1
 90
        8
176
     1
 62
     7
176
     1
 40
1.0
176
     1
 90
        1
176
     1
 90
        6
176
     1
 90
        2
176
     1
 62
     7
176
     1
 90
        3
176
     1
 90
        0
176
     1
 90
        0
176
     1
290
     0
176
     1
 90
        1
176
     1
 40
0.0
176
     1
 90
        0
176
     1
290
     0
176
     1
290
     1
176
     1
290
     1
176
     1
290
     0
176
     1
290
     0
176
     1
290
     0
176
     1
290
     0
176
     1
290
     0
176
     1
290
     0
176
     1
 90
       50
176
     1
 40
0.0
176
     1
 40
1.0
176
     1
 90
        0
176
     1
 62
    18
420
        0
176
     1
 90
       50
176
     1
 90
        3
176
     1
 62
     5
420
      255
176
     1
290
     0
176
     1
 90
       50
176
     1
 90
       50
176
     1
 90
       50
176
     1
290
     0
176
     1
 90
       50
176
     1
 62
   256
176
     0
 40
1.0
176
     0
 90
        2
176
     1
  1
strokes_ogs.tif
176
     1
290
     0
176
     1
 40
1.0
176
     1
 40
1.0
176
     1
  0
VISUALSTYLE
  5
357
102
{ACAD_REACTORS
330
34C
102
}
330
34C
100
AcDbVisualStyle
  2
Dim
 70
    11
177
     3
291
     1
 70
    58
 90
        2
176
     1
 90
        2
176
     1
 90
        0
176
     1
 90
        0
176
     1
 40
0.6
176
     1
 40
30.0
176
     1
 62
     7
420
 16777215
176
     1
 90
        1
176
     1
 90
        4
176
     1
 62
     7
176
     1
 62
   257
176
     1
 90
        1
176
     1
 90
        1
176
     1
 40
1.0
176
     1
 90
        8
176
     1
 62
     7
176
     1
 40
1.0
176
     1
 90
        1
176
     1
 90
        6
176
     1
 90
        2
176
     1
 62
     7
176
     1
 90
        5
176
     1
 90
        0
176
     1
 90
        0
176
     1
290
     0
176
     1
 90
        1
176
     1
 40
-50.0
176
     1
 90
        0
176
     1
290
     0
176
     1
290
     1
176
     1
290
     1
176
     1
290
     0
176
     1
290
     0
176
     1
290
     0
176
     1
290
     0
176
     1
290
     0
176
     1
290
     0
176
     1
 90
       50
176
     1
 40
0.0
176
     1
 40
1.0
176
     1
 90
        0
176
     1
 62
    18
420
        0
176
     1
 90
       50
176
     1
 90
        3
176
     1
 62
     5
420
      255
176
     1
290
     0
176
     1
 90
       50
176
     1
 90
       50
176
     1
 90
       50
176
     1
290
     0
176
     1
 90
       50
176
     1
 62
   256
176
     0
 40
1.0
176
     0
 90
        2
176
     1
  1
strokes_ogs.tif
176
     1
290
     0
176
     1
 40
1.0
176
     1
 40
1.0
176
     1
  0
VISUALSTYLE
  5
35F
102
{ACAD_REACTORS
330
34C
102
}
330
34C
100
AcDbVisualStyle
  2
EdgeColorOff
 70
    22
177
     3
291
     1
 70
    58
 90
        2
176
     0
 90
        2
176
     0
 90
        0
176
     0
 90
        0
176
     0
 40
0.6
176
     0
 40
30.0
176
     0
 62
     7
420
 16777215
176
     0
 90
        1
176
     0
 90
        4
176
     0
 62
     7
176
     0
 62
   257
176
     0
 90
        1
176
     0
 90
        1
176
     0
 40
1.0
176
     0
 90
        8
176
     2
 62
     7
176
     0
 40
1.0
176
     0
 90
        1
176
     0
 90
        6
176
     0
 90
        2
176
     0
 62
     7
176
     0
 90
        5
176
     0
 90
        0
176
     0
 90
        0
176
     0
290
     0
176
     0
 90
        1
176
     0
 40
0.0
176
     0
 90
        0
176
     0
290
     0
176
     0
290
     1
176
     0
290
     1
176
     0
290
     0
176
     0
290
     0
176
     0
290
     0
176
     0
290
     0
176
     0
290
     0
176
     0
290
     0
176
     0
 90
       50
176
     0
 40
0.0
176
     0
 40
1.0
176
     0
 90
        0
176
     0
 62
    18
420
        0
176
     0
 90
       50
176
     0
 90
        3
176
     0
 62
     5
420
      255
176
     0
290
     0
176
     0
 90
       50
176
     0
 90
       50
176
     0
 90
       50
176
     0
290
     0
176
     0
 90
       50
176
     0
 62
   256
176
     0
 40
1.0
176
     0
 90
        2
176
     0
  1
strokes_ogs.tif
176
     0
290
     0
176
     0
 40
1.0
176
     0
 40
1.0
176
     0
  0
VISUALSTYLE
  5
35B
102
{ACAD_REACTORS
330
34C
102
}
330
34C
100
AcDbVisualStyle
  2
Facepattern
 70
    15
177
     3
291
     1
 70
    58
 90
        2
176
     1
 90
        2
176
     1
 90
        0
176
     1
 90
        0
176
     1
 40
0.6
176
     1
 40
30.0
176
     1
 62
     7
420
 16777215
176
     1
 90
        1
176
     1
 90
        4
176
     1
 62
     7
176
     1
 62
   257
176
     1
 90
        1
176
     1
 90
        1
176
     1
 40
1.0
176
     1
 90
        8
176
     1
 62
     7
176
     1
 40
1.0
176
     1
 90
        1
176
     1
 90
        6
176
     1
 90
        2
176
     1
 62
     7
176
     1
 90
        5
176
     1
 90
        0
176
     1
 90
        0
176
     1
290
     0
176
     1
 90
        1
176
     1
 40
0.0
176
     1
 90
        0
176
     1
290
     0
176
     1
290
     1
176
     1
290
     1
176
     1
290
     0
176
     1
290
     0
176
     1
290
     0
176
     1
290
     0
176
     1
290
     0
176
     1
290
     0
176
     1
 90
       50
176
     1
 40
0.0
176
     1
 40
1.0
176
     1
 90
        0
176
     1
 62
    18
420
        0
176
     1
 90
       50
176
     1
 90
        3
176
     1
 62
     5
420
      255
176
     1
290
     0
176
     1
 90
       50
176
     1
 90
       50
176
     1
 90
       50
176
     1
290
     0
176
     1
 90
       50
176
     1
 62
   256
176
     0
 40
1.0
176
     0
 90
        2
176
     1
  1
strokes_ogs.tif
176
     1
290
     0
176
     1
 40
1.0
176
     1
 40
1.0
176
     1
  0
VISUALSTYLE
  5
34D
102
{ACAD_REACTORS
330
34C
102
}
330
34C
100
AcDbVisualStyle
  2
Flat
 70
     0
177
     3
291
     1
 70
    58
 90
        2
176
     1
 90
        1
176
     1
 90
        1
176
     1
 90
        2
176
     1
 40
0.6
176
     1
 40
30.0
176
     1
 62
     7
420
 16777215
176
     1
 90
        0
176
     1
 90
        0
176
     1
 62
     7
176
     1
 62
   257
176
     1
 90
        1
176
     1
 90
        1
176
     1
 40
1.0
176
     1
 90
        8
176
     1
 62
     7
176
     1
 40
1.0
176
     1
 90
        1
176
     1
 90
        6
176
     1
 90
        2
176
     1
 62
     7
176
     1
 90
        5
176
     1
 90
        0
176
     1
 90
        0
176
     1
290
     0
176
     1
 90
       13
176
     1
 40
0.0
176
     1
 90
        0
176
     1
290
     0
176
     1
290
     1
176
     1
290
     1
176
     1
290
     0
176
     1
290
     0
176
     1
290
     0
176
     1
290
     0
176
     1
290
     0
176
     1
290
     0
176
     1
 90
       50
176
     1
 40
0.0
176
     1
 40
1.0
176
     1
 90
        0
176
     1
 62
    18
420
        0
176
     1
 90
       50
176
     1
 90
        3
176
     1
 62
     5
420
      255
176
     1
290
     0
176
     1
 90
       50
176
     1
 90
       50
176
     1
 90
       50
176
     1
290
     0
176
     1
 90
       50
176
     1
 62
   256
176
     0
 40
1.0
176
     0
 90
        2
176
     1
  1
strokes_ogs.tif
176
     1
290
     0
176
     1
 40
1.0
176
     1
 40
1.0
176
     1
  0
VISUALSTYLE
  5
34E
102
{ACAD_REACTORS
330
34C
102
}
330
34C
100
AcDbVisualStyle
  2
FlatWithEdges
 70
     1
177
     3
291
     1
 70
    58
 90
        2
176
     1
 90
        1
176
     1
 90
        1
176
     1
 90
        2
176
     1
 40
0.6
176
     1
 40
30.0
176
     1
 62
     7
420
 16777215
176
     1
 90
        1
176
     1
 90
        0
176
     1
 62
     7
176
     1
 62
   257
176
     1
 90
        1
176
     1
 90
        1
176
     1
 40
1.0
176
     1
 90
        0
176
     1
 62
   257
176
     1
 40
1.0
176
     1
 90
        1
176
     1
 90
        6
176
     1
 90
        2
176
     1
 62
     7
176
     1
 90
        5
176
     1
 90
        0
176
     1
 90
        0
176
     1
290
     0
176
     1
 90
       13
176
     1
 40
0.0
176
     1
 90
        0
176
     1
290
     0
176
     1
290
     1
176
     1
290
     1
176
     1
290
     0
176
     1
290
     0
176
     1
290
     0
176
     1
290
     0
176
     1
290
     0
176
     1
290
     0
176
     1
 90
       50
176
     1
 40
0.0
176
     1
 40
1.0
176
     1
 90
        0
176
     1
 62
    18
420
        0
176
     1
 90
       50
176
     1
 90
        3
176
     1
 62
     5
420
      255
176
     1
290
     0
176
     1
 90
       50
176
     1
 90
       50
176
     1
 90
       50
176
     1
290
     0
176
     1
 90
       50
176
     1
 62
   256
176
     0
 40
1.0
176
     0
 90
        2
176
     1
  1
strokes_ogs.tif
176
     1
290
     0
176
     1
 40
1.0
176
     1
 40
1.0
176
     1
  0
VISUALSTYLE
  5
34F
102
{ACAD_REACTORS
330
34C
102
}
330
34C
100
AcDbVisualStyle
  2
Gouraud
 70
     2
177
     3
291
     1
 70
    58
 90
        2
176
     1
 90
        2
176
     1
 90
        1
176
     1
 90
        2
176
     1
 40
0.6
176
     1
 40
30.0
176
     1
 62
     7
420
 16777215
176
     1
 90
        0
176
     1
 90
        0
176
     1
 62
     7
176
     1
 62
   257
176
     1
 90
        1
176
     1
 90
        1
176
     1
 40
1.0
176
     1
 90
        0
176
     1
 62
     7
176
     1
 40
1.0
176
     1
 90
        1
176
     1
 90
        6
176
     1
 90
        2
176
     1
 62
     7
176
     1
 90
        5
176
     1
 90
        0
176
     1
 90
        0
176
     1
290
     0
176
     1
 90
       13
176
     1
 40
0.0
176
     1
 90
        0
176
     1
290
     0
176
     1
290
     1
176
     1
290
     1
176
     1
290
     0
176
     1
290
     0
176
     1
290
     0
176
     1
290
     0
176
     1
290
     0
176
     1
290
     0
176
     1
 90
       50
176
     1
 40
0.0
176
     1
 40
1.0
176
     1
 90
        0
176
     1
 62
    18
420
        0
176
     1
 90
       50
176
     1
 90
        3
176
     1
 62
     5
420
      255
176
     1
290
     0
176
     1
 90
       50
176
     1
 90
       50
176
     1
 90
       50
176
     1
290
     0
176
     1
 90
       50
176
     1
 62
   256
176
     0
 40
1.0
176
     0
 90
        2
176
     1
  1
strokes_ogs.tif
176
     1
290
     0
176
     1
 40
1.0
176
     1
 40
1.0
176
     1
  0
VISUALSTYLE
  5
350
102
{ACAD_REACTORS
330
34C
102
}
330
34C
100
AcDbVisualStyle
  2
GouraudWithEdges
 70
     3
177
     3
291
     1
 70
    58
 90
        2
176
     1
 90
        2
176
     1
 90
        1
176
     1
 90
        2
176
     1
 40
0.6
176
     1
 40
30.0
176
     1
 62
     7
420
 16777215
176
     1
 90
        1
176
     1
 90
        0
176
     1
 62
     7
176
     1
 62
   257
176
     1
 90
        1
176
     1
 90
        1
176
     1
 40
1.0
176
     1
 90
        0
176
     1
 62
   257
176
     1
 40
1.0
176
     1
 90
        1
176
     1
 90
        6
176
     1
 90
        2
176
     1
 62
     7
176
     1
 90
        5
176
     1
 90
        0
176
     1
 90
        0
176
     1
290
     0
176
     1
 90
       13
176
     1
 40
0.0
176
     1
 90
        0
176
     1
290
     0
176
     1
290
     1
176
     1
290
     1
176
     1
290
     0
176
     1
290
     0
176
     1
290
     0
176
     1
290
     0
176
     1
290
     0
176
     1
290
     0
176
     1
 90
       50
176
     1
 40
0.0
176
     1
 40
1.0
176
     1
 90
        0
176
     1
 62
    18
420
        0
176
     1
 90
       50
176
     1
 90
        3
176
     1
 62
     5
420
      255
176
     1
290
     0
176
     1
 90
       50
176
     1
 90
       50
176
     1
 90
       50
176
     1
290
     0
176
     1
 90
       50
176
     1
 62
   256
176
     0
 40
1.0
176
     0
 90
        2
176
     1
  1
strokes_ogs.tif
176
     1
290
     0
176
     1
 40
1.0
176
     1
 40
1.0
176
     1
  0
VISUALSTYLE
  5
353
102
{ACAD_REACTORS
330
34C
102
}
330
34C
100
AcDbVisualStyle
  2
Hidden
 70
     6
177
     3
291
     0
 70
    58
 90
        1
176
     1
 90
        2
176
     1
 90
        2
176
     1
 90
        0
176
     1
 40
0.6
176
     1
 40
30.0
176
     1
 62
     7
420
 16777215
176
     1
 90
        2
176
     1
 90
        2
176
     1
 62
     7
176
     1
 62
   257
176
     1
 90
        2
176
     1
 90
        1
176
     1
 40
40.0
176
     1
 90
        0
176
     1
 62
   257
176
     1
 40
1.0
176
     1
 90
        1
176
     1
 90
        6
176
     1
 90
        2
176
     1
 62
     7
176
     1
 90
        3
176
     1
 90
        0
176
     1
 90
        0
176
     1
290
     0
176
     1
 90
        1
176
     1
 40
0.0
176
     1
 90
        0
176
     1
290
     0
176
     1
290
     1
176
     1
290
     1
176
     1
290
     0
176
     1
290
     0
176
     1
290
     0
176
     1
290
     0
176
     1
290
     0
176
     1
290
     0
176
     1
 90
       50
176
     1
 40
0.0
176
     1
 40
1.0
176
     1
 90
        0
176
     1
 62
    18
420
        0
176
     1
 90
       50
176
     1
 90
        3
176
     1
 62
     5
420
      255
176
     1
290
     0
176
     1
 90
       50
176
     1
 90
       50
176
     1
 90
       50
176
     1
290
     0
176
     1
 90
       50
176
     1
 62
   256
176
     0
 40
1.0
176
     0
 90
        2
176
     1
  1
strokes_ogs.tif
176
     1
290
     0
176
     1
 40
1.0
176
     1
 40
1.0
176
     1
  0
VISUALSTYLE
  5
35D
102
{ACAD_REACTORS
330
34C
102
}
330
34C
100
AcDbVisualStyle
  2
JitterOff
 70
    20
177
     3
291
     1
 70
    58
 90
        2
176
     0
 90
        2
176
     0
 90
        0
176
     0
 90
        0
176
     0
 40
0.6
176
     0
 40
30.0
176
     0
 62
     7
420
 16777215
176
     0
 90
        1
176
     0
 90
        4
176
     0
 62
     7
176
     0
 62
   257
176
     0
 90
        1
176
     0
 90
        1
176
     0
 40
1.0
176
     0
 90
       10
176
     2
 62
     7
176
     0
 40
1.0
176
     0
 90
        1
176
     0
 90
        6
176
     0
 90
        2
176
     0
 62
     7
176
     0
 90
        5
176
     0
 90
        0
176
     0
 90
        0
176
     0
290
     0
176
     0
 90
        1
176
     0
 40
0.0
176
     0
 90
        0
176
     0
290
     0
176
     0
290
     1
176
     0
290
     1
176
     0
290
     0
176
     0
290
     0
176
     0
290
     0
176
     0
290
     0
176
     0
290
     0
176
     0
290
     0
176
     0
 90
       50
176
     0
 40
0.0
176
     0
 40
1.0
176
     0
 90
        0
176
     0
 62
    18
420
        0
176
     0
 90
       50
176
     0
 90
        3
176
     0
 62
     5
420
      255
176
     0
290
     0
176
     0
 90
       50
176
     0
 90
       50
176
     0
 90
       50
176
     0
290
     0
176
     0
 90
       50
176
     0
 62
   256
176
     0
 40
1.0
176
     0
 90
        2
176
     0
  1
strokes_ogs.tif
176
     0
290
     0
176
     0
 40
1.0
176
     0
 40
1.0
176
     0
  0
VISUALSTYLE
  5
35A
102
{ACAD_REACTORS
330
34C
102
}
330
34C
100
AcDbVisualStyle
  2
Linepattern
 70
    14
177
     3
291
     1
 70
    58
 90
        2
176
     1
 90
        2
176
     1
 90
        0
176
     1
 90
        0
176
     1
 40
0.6
176
     1
 40
30.0
176
     1
 62
     7
420
 16777215
176
     1
 90
        1
176
     1
 90
        4
176
     1
 62
     7
176
     1
 62
   257
176
     1
 90
        7
176
     1
 90
        7
176
     1
 40
1.0
176
     1
 90
        8
176
     1
 62
     7
176
     1
 40
1.0
176
     1
 90
        1
176
     1
 90
        6
176
     1
 90
        2
176
     1
 62
     7
176
     1
 90
        5
176
     1
 90
        0
176
     1
 90
        0
176
     1
290
     0
176
     1
 90
        1
176
     1
 40
0.0
176
     1
 90
        0
176
     1
290
     0
176
     1
290
     1
176
     1
290
     1
176
     1
290
     0
176
     1
290
     0
176
     1
290
     0
176
     1
290
     0
176
     1
290
     0
176
     1
290
     0
176
     1
 90
       50
176
     1
 40
0.0
176
     1
 40
1.0
176
     1
 90
        0
176
     1
 62
    18
420
        0
176
     1
 90
       50
176
     1
 90
        3
176
     1
 62
     5
420
      255
176
     1
290
     0
176
     1
 90
       50
176
     1
 90
       50
176
     1
 90
       50
176
     1
290
     0
176
     1
 90
       50
176
     1
 62
   256
176
     0
 40
1.0
176
     0
 90
        2
176
     1
  1
strokes_ogs.tif
176
     1
290
     0
176
     1
 40
1.0
176
     1
 40
1.0
176
     1
  0
VISUALSTYLE
  5
35E
102
{ACAD_REACTORS
330
34C
102
}
330
34C
100
AcDbVisualStyle
  2
OverhangOff
 70
    21
177
     3
291
     1
 70
    58
 90
        2
176
     0
 90
        2
176
     0
 90
        0
176
     0
 90
        0
176
     0
 40
0.6
176
     0
 40
30.0
176
     0
 62
     7
420
 16777215
176
     0
 90
        1
176
     0
 90
        4
176
     0
 62
     7
176
     0
 62
   257
176
     0
 90
        1
176
     0
 90
        1
176
     0
 40
1.0
176
     0
 90
        9
176
     2
 62
     7
176
     0
 40
1.0
176
     0
 90
        1
176
     0
 90
        6
176
     0
 90
        2
176
     0
 62
     7
176
     0
 90
        5
176
     0
 90
        0
176
     0
 90
        0
176
     0
290
     0
176
     0
 90
        1
176
     0
 40
0.0
176
     0
 90
        0
176
     0
290
     0
176
     0
290
     1
176
     0
290
     1
176
     0
290
     0
176
     0
290
     0
176
     0
290
     0
176
     0
290
     0
176
     0
290
     0
176
     0
290
     0
176
     0
 90
       50
176
     0
 40
0.0
176
     0
 40
1.0
176
     0
 90
        0
176
     0
 62
    18
420
        0
176
     0
 90
       50
176
     0
 90
        3
176
     0
 62
     5
420
      255
176
     0
290
     0
176
     0
 90
       50
176
     0
 90
       50
176
     0
 90
       50
176
     0
290
     0
176
     0
 90
       50
176
     0
 62
   256
176
     0
 40
1.0
176
     0
 90
        2
176
     0
  1
strokes_ogs.tif
176
     0
290
     0
176
     0
 40
1.0
176
     0
 40
1.0
176
     0
  0
VISUALSTYLE
  5
355
102
{ACAD_REACTORS
330
34C
102
}
330
34C
100
AcDbVisualStyle
  2
Realistic
 70
     8
177
     3
291
     0
 70
    58
 90
        2
176
     1
 90
        3
176
     1
 90
        0
176
     1
 90
        2
176
     1
 40
0.6
176
     1
 40
30.0
176
     1
 62
     7
420
 16777215
176
     1
 90
        0
176
     1
 90
        0
176
     1
 62
     7
176
     1
 62
   257
176
     1
 90
        1
176
     1
 90
        1
176
     1
 40
1.0
176
     1
 90
        8
176
     1
 62
   257
176
     1
 40
1.0
176
     1
 90
        1
176
     1
 90
        6
176
     1
 90
        2
176
     1
 62
     7
176
     1
 90
        3
176
     1
 90
        0
176
     1
 90
        0
176
     1
290
     0
176
     1
 90
       13
176
     1
 40
0.0
176
     1
 90
        0
176
     1
290
     0
176
     1
290
     1
176
     1
290
     1
176
     1
290
     0
176
     1
290
     0
176
     1
290
     0
176
     1
290
     0
176
     1
290
     0
176
     1
290
     0
176
     1
 90
       50
176
     1
 40
0.0
176
     1
 40
1.0
176
     1
 90
        0
176
     1
 62
    18
420
        0
176
     1
 90
       50
176
     1
 90
        3
176
     1
 62
     5
420
      255
176
     1
290
     0
176
     1
 90
       50
176
     1
 90
       50
176
     1
 90
       50
176
     1
290
     0
176
     1
 90
       50
176
     1
 62
   256
176
     0
 40
1.0
176
     0
 90
        2
176
     1
  1
strokes_ogs.tif
176
     1
290
     0
176
     1
 40
1.0
176
     1
 40
1.0
176
     1
  0
VISUALSTYLE
  5
364
102
{ACAD_REACTORS
330
34C
102
}
330
34C
100
AcDbVisualStyle
  2
Shaded
 70
    27
177
     3
291
     0
 70
    58
 90
        2
176
     1
 90
        2
176
     1
 90
        1
176
     1
 90
        2
176
     1
 40
0.6
176
     1
 40
30.0
176
     1
 62
     7
420
 16777215
176
     1
 90
        0
176
     1
 90
        4
176
     1
 62
     7
176
     1
 62
   257
176
     1
 90
        1
176
     1
 90
        1
176
     1
 40
1.0
176
     1
 90
        8
176
     1
 62
   257
176
     1
 40
1.0
176
     1
 90
        1
176
     1
 90
        6
176
     1
 90
        2
176
     1
 62
     8
420
  7895160
176
     1
 90
        3
176
     1
 90
        0
176
     1
 90
        0
176
     1
290
     0
176
     1
 90
        5
176
     1
 40
0.0
176
     1
 90
        0
176
     1
290
     0
176
     1
290
     1
176
     1
290
     1
176
     1
290
     0
176
     1
290
     0
176
     1
290
     0
176
     1
290
     0
176
     1
290
     0
176
     1
290
     0
176
     1
 90
       50
176
     1
 40
0.0
176
     1
 40
1.0
176
     1
 90
        0
176
     1
 62
    18
420
        0
176
     1
 90
       50
176
     1
 90
        3
176
     1
 62
     5
420
      255
176
     1
290
     0
176
     1
 90
       50
176
     1
 90
       50
176
     1
 90
       50
176
     1
290
     0
176
     1
 90
       50
176
     1
 62
   256
176
     0
 40
1.0
176
     0
 90
        2
176
     1
  1
strokes_ogs.tif
176
     1
290
     0
176
     1
 40
1.0
176
     1
 40
1.0
176
     1
  0
VISUALSTYLE
  5
363
102
{ACAD_REACTORS
330
34C
102
}
330
34C
100
AcDbVisualStyle
  2
Shaded with edges
 70
    26
177
     3
291
     0
 70
    58
 90
        2
176
     1
 90
        2
176
     1
 90
        1
176
     1
 90
        2
176
     1
 40
0.6
176
     1
 40
30.0
176
     1
 62
     7
420
 16777215
176
     1
 90
        1
176
     1
 90
       10
176
     1
 62
     7
176
     1
 62
   257
176
     1
 90
        2
176
     1
 90
        1
176
     1
 40
1.0
176
     1
 90
        8
176
     1
 62
   257
176
     1
 40
1.0
176
     1
 90
        1
176
     1
 90
        6
176
     1
 90
        2
176
     1
 62
     7
176
     1
 90
        3
176
     1
 90
        0
176
     1
 90
        0
176
     1
290
     0
176
     1
 90
        5
176
     1
 40
0.0
176
     1
 90
        0
176
     1
290
     0
176
     1
290
     1
176
     1
290
     1
176
     1
290
     0
176
     1
290
     0
176
     1
290
     0
176
     1
290
     0
176
     1
290
     0
176
     1
290
     0
176
     1
 90
       50
176
     1
 40
0.0
176
     1
 40
1.0
176
     1
 90
        0
176
     1
 62
    18
420
        0
176
     1
 90
       50
176
     1
 90
        3
176
     1
 62
     5
420
      255
176
     1
290
     0
176
     1
 90
       50
176
     1
 90
       50
176
     1
 90
       50
176
     1
290
     0
176
     1
 90
       50
176
     1
 62
   256
176
     0
 40
1.0
176
     0
 90
        2
176
     1
  1
strokes_ogs.tif
176
     1
290
     0
176
     1
 40
1.0
176
     1
 40
1.0
176
     1
  0
VISUALSTYLE
  5
360
102
{ACAD_REACTORS
330
34C
102
}
330
34C
100
AcDbVisualStyle
  2
Shades of Gray
 70
    23
177
     3
291
     0
 70
    58
 90
        2
176
     1
 90
        2
176
     1
 90
        3
176
     1
 90
        0
176
     1
 40
0.6
176
     1
 40
30.0
176
     1
 62
     7
420
 16777215
176
     1
 90
        2
176
     1
 90
        2
176
     1
 62
     7
176
     1
 62
     7
176
     1
 90
        1
176
     1
 90
        1
176
     1
 40
40.0
176
     1
 90
        8
176
     1
 62
     7
176
     1
 40
1.0
176
     1
 90
        1
176
     1
 90
        6
176
     1
 90
        2
176
     1
 62
     7
176
     1
 90
        3
176
     1
 90
        0
176
     1
 90
        0
176
     1
290
     0
176
     1
 90
        1
176
     1
 40
0.0
176
     1
 90
        0
176
     1
290
     0
176
     1
290
     1
176
     1
290
     1
176
     1
290
     0
176
     1
290
     0
176
     1
290
     0
176
     1
290
     0
176
     1
290
     0
176
     1
290
     0
176
     1
 90
       50
176
     1
 40
0.0
176
     1
 40
1.0
176
     1
 90
        0
176
     1
 62
    18
420
        0
176
     1
 90
       50
176
     1
 90
        3
176
     1
 62
     5
420
      255
176
     1
290
     0
176
     1
 90
       50
176
     1
 90
       50
176
     1
 90
       50
176
     1
290
     0
176
     1
 90
       50
176
     1
 62
   256
176
     0
 40
1.0
176
     0
 90
        2
176
     1
  1
strokes_ogs.tif
176
     1
290
     0
176
     1
 40
1.0
176
     1
 40
1.0
176
     1
  0
VISUALSTYLE
  5
361
102
{ACAD_REACTORS
330
34C
102
}
330
34C
100
AcDbVisualStyle
  2
Sketchy
 70
    24
177
     3
291
     0
 70
    58
 90
        1
176
     1
 90
        2
176
     1
 90
        2
176
     1
 90
        0
176
     1
 40
0.6
176
     1
 40
30.0
176
     1
 62
     7
420
 16777215
176
     1
 90
        2
176
     1
 90
        2
176
     1
 62
     7
176
     1
 62
     7
176
     1
 90
        1
176
     1
 90
        1
176
     1
 40
40.0
176
     1
 90
       11
176
     1
 62
     7
176
     1
 40
1.0
176
     1
 90
        1
176
     1
 90
        6
176
     1
 90
        2
176
     1
 62
     7
176
     1
 90
        6
176
     1
 90
        0
176
     1
 90
        0
176
     1
290
     0
176
     1
 90
        1
176
     1
 40
0.0
176
     1
 90
        0
176
     1
290
     0
176
     1
290
     1
176
     1
290
     1
176
     1
290
     0
176
     1
290
     0
176
     1
290
     0
176
     1
290
     0
176
     1
290
     0
176
     1
290
     0
176
     1
 90
       50
176
     1
 40
0.0
176
     1
 40
1.0
176
     1
 90
        0
176
     1
 62
    18
420
        0
176
     1
 90
       50
176
     1
 90
        3
176
     1
 62
     5
420
      255
176
     1
290
     0
176
     1
 90
       50
176
     1
 90
       50
176
     1
 90
       50
176
     1
290
     0
176
     1
 90
       50
176
     1
 62
   256
176
     0
 40
1.0
176
     0
 90
        2
176
     1
  1
strokes_ogs.tif
176
     1
290
     0
176
     1
 40
1.0
176
     1
 40
1.0
176
     1
  0
VISUALSTYLE
  5
359
102
{ACAD_REACTORS
330
34C
102
}
330
34C
100
AcDbVisualStyle
  2
Thicken
 70
    13
177
     3
291
     1
 70
    58
 90
        2
176
     1
 90
        2
176
     1
 90
        0
176
     1
 90
        0
176
     1
 40
0.6
176
     1
 40
30.0
176
     1
 62
     7
420
 16777215
176
     1
 90
        1
176
     1
 90
        4
176
     1
 62
     7
176
     1
 62
   257
176
     1
 90
        1
176
     1
 90
        1
176
     1
 40
1.0
176
     1
 90
       12
176
     1
 62
     7
176
     1
 40
1.0
176
     1
 90
        1
176
     1
 90
        6
176
     1
 90
        2
176
     1
 62
     7
176
     1
 90
        5
176
     1
 90
        0
176
     1
 90
        0
176
     1
290
     0
176
     1
 90
        1
176
     1
 40
0.0
176
     1
 90
        0
176
     1
290
     0
176
     1
290
     1
176
     1
290
     1
176
     1
290
     0
176
     1
290
     0
176
     1
290
     0
176
     1
290
     0
176
     1
290
     0
176
     1
290
     0
176
     1
 90
       50
176
     1
 40
0.0
176
     1
 40
1.0
176
     1
 90
        0
176
     1
 62
    18
420
        0
176
     1
 90
       50
176
     1
 90
        3
176
     1
 62
     5
420
      255
176
     1
290
     0
176
     1
 90
       50
176
     1
 90
       50
176
     1
 90
       50
176
     1
290
     0
176
     1
 90
       50
176
     1
 62
   256
176
     0
 40
1.0
176
     0
 90
        2
176
     1
  1
strokes_ogs.tif
176
     1
290
     0
176
     1
 40
1.0
176
     1
 40
1.0
176
     1
  0
VISUALSTYLE
  5
352
102
{ACAD_REACTORS
330
34C
102
}
330
34C
100
AcDbVisualStyle
  2
Wireframe
 70
     5
177
     3
291
     0
 70
    58
 90
        0
176
     1
 90
        2
176
     1
 90
        0
176
     1
 90
        0
176
     1
 40
0.6
176
     1
 40
30.0
176
     1
 62
     7
420
 16777215
176
     1
 90
        1
176
     1
 90
        4
176
     1
 62
     7
176
     1
 62
   257
176
     1
 90
        1
176
     1
 90
        1
176
     1
 40
1.0
176
     1
 90
        0
176
     1
 62
   257
176
     1
 40
1.0
176
     1
 90
        1
176
     1
 90
        6
176
     1
 90
        2
176
     1
 62
     7
176
     1
 90
        3
176
     1
 90
        0
176
     1
 90
        0
176
     1
290
     0
176
     1
 90
        1
176
     1
 40
0.0
176
     1
 90
        0
176
     1
290
     0
176
     1
290
     1
176
     1
290
     1
176
     1
290
     0
176
     1
290
     0
176
     1
290
     0
176
     1
290
     0
176
     1
290
     0
176
     1
290
     0
176
     1
 90
       50
176
     1
 40
0.0
176
     1
 40
1.0
176
     1
 90
        0
176
     1
 62
    18
420
        0
176
     1
 90
       50
176
     1
 90
        3
176
     1
 62
     5
420
      255
176
     1
290
     0
176
     1
 90
       50
176
     1
 90
       50
176
     1
 90
       50
176
     1
290
     0
176
     1
 90
       50
176
     1
 62
   256
176
     0
 40
1.0
176
     0
 90
        2
176
     1
  1
strokes_ogs.tif
176
     1
290
     0
176
     1
 40
1.0
176
     1
 40
1.0
176
     1
  0
VISUALSTYLE
  5
362
102
{ACAD_REACTORS
330
34C
102
}
330
34C
100
AcDbVisualStyle
  2
X-Ray
 70
    25
177
     3
291
     0
 70
    58
 90
        2
176
     1
 90
        2
176
     1
 90
        1
176
     1
 90
        1
176
     1
 40
0.5
176
     1
 40
30.0
176
     1
 62
     7
420
 16777215
176
     1
 90
        1
176
     1
 90
        0
176
     1
 62
     7
176
     1
 62
   257
176
     1
 90
        1
176
     1
 90
        1
176
     1
 40
1.0
176
     1
 90
        8
176
     1
 62
     7
176
     1
 40
1.0
176
     1
 90
        1
176
     1
 90
        6
176
     1
 90
        2
176
     1
 62
     7
176
     1
 90
        3
176
     1
 90
        0
176
     1
 90
        0
176
     1
290
     0
176
     1
 90
       13
176
     1
 40
0.0
176
     1
 90
        0
176
     1
290
     0
176
     1
290
     1
176
     1
290
     1
176
     1
290
     0
176
     1
290
     0
176
     1
290
     0
176
     1
290
     0
176
     1
290
     0
176
     1
290
     0
176
     1
 90
       50
176
     1
 40
0.0
176
     1
 40
1.0
176
     1
 90
        0
176
     1
 62
    18
420
        0
176
     1
 90
       50
176
     1
 90
        3
176
     1
 62
     5
420
      255
176
     1
290
     0
176
     1
 90
       50
176
     1
 90
       50
176
     1
 90
       50
176
     1
290
     0
176
     1
 90
       50
176
     1
 62
   256
176
     0
 40
1.0
176
     0
 90
        2
176
     1
  1
strokes_ogs.tif
176
     1
290
     0
176
     1
 40
1.0
176
     1
 40
1.0
176
     1
  0
DICTIONARYVAR
  5
36E
102
{ACAD_REACTORS
330
36D
102
}
330
36D
100
DictionaryVariables
280
     0
  1
1:1
  0
DICTIONARYVAR
  5
373
102
{ACAD_REACTORS
330
36D
102
}
330
36D
100
DictionaryVariables
280
     0
  1
Standard
  0
DICTIONARYVAR
  5
372
102
{ACAD_REACTORS
330
36D
102
}
330
36D
100
DictionaryVariables
280
     0
  1
Standard
  0
DICTIONARYVAR
  5
374
102
{ACAD_REACTORS
330
36D
102
}
330
36D
100
DictionaryVariables
280
     0
  1
0
  0
DICTIONARY
  5
36F
330
36A
100
AcDbDictionary
280
     1
281
     1
  3
ACAD_ROUNDTRIP_2008_TABLESTYLE_CELLSTYLEMAP
360
370
  0
CELLSTYLEMAP
  5
370
102
{ACAD_REACTORS
330
36F
102
}
330
36F
100
AcDbCellStyleMap
 90
        3
300
CELLSTYLE
  1
TABLEFORMAT_BEGIN
 90
        5
170
     1
 91
        0
 92
    32768
 62
   257
 93
        1
300
CONTENTFORMAT
  1
CONTENTFORMAT_BEGIN
 90
        0
 91
        0
 92
        4
 93
        0
300

 40
0.0
140
1.0
 94
        5
 62
     0
340
11
144
6.0
309
CONTENTFORMAT_END
171
     1
301
MARGIN
  1
CELLMARGIN_BEGIN
 40
1.5
 40
1.5
 40
1.5
 40
1.5
 40
1.5
 40
1.5
309
CELLMARGIN_END
 94
        6
 95
        1
302
GRIDFORMAT
  1
GRIDFORMAT_BEGIN
 90
        0
 91
        1
 62
     0
 92
       -2
340
14
 93
        0
 40
0.045
309
GRIDFORMAT_END
 95
        2
302
GRIDFORMAT
  1
GRIDFORMAT_BEGIN
 90
        0
 91
        1
 62
     0
 92
       -2
340
14
 93
        0
 40
0.045
309
GRIDFORMAT_END
 95
        4
302
GRIDFORMAT
  1
GRIDFORMAT_BEGIN
 90
        0
 91
        1
 62
     0
 92
       -2
340
14
 93
        0
 40
0.045
309
GRIDFORMAT_END
 95
        8
302
GRIDFORMAT
  1
GRIDFORMAT_BEGIN
 90
        0
 91
        1
 62
     0
 92
       -2
340
14
 93
        0
 40
0.045
309
GRIDFORMAT_END
 95
       16
302
GRIDFORMAT
  1
GRIDFORMAT_BEGIN
 90
        0
 91
        1
 62
     0
 92
       -2
340
14
 93
        0
 40
0.045
309
GRIDFORMAT_END
 95
       32
302
GRIDFORMAT
  1
GRIDFORMAT_BEGIN
 90
        0
 91
        1
 62
     0
 92
       -2
340
14
 93
        0
 40
0.045
309
GRIDFORMAT_END
309
TABLEFORMAT_END
  1
CELLSTYLE_BEGIN
 90
        1
 91
        1
300
_TITLE
309
CELLSTYLE_END
300
CELLSTYLE
  1
TABLEFORMAT_BEGIN
 90
        5
170
     1
 91
        0
 92
        0
 62
   257
 93
        1
300
CONTENTFORMAT
  1
CONTENTFORMAT_BEGIN
 90
        0
 91
        0
 92
        4
 93
        0
300

 40
0.0
140
1.0
 94
        5
 62
     0
340
11
144
4.5
309
CONTENTFORMAT_END
171
     1
301
MARGIN
  1
CELLMARGIN_BEGIN
 40
1.5
 40
1.5
 40
1.5
 40
1.5
 40
1.5
 40
1.5
309
CELLMARGIN_END
 94
        6
 95
        1
302
GRIDFORMAT
  1
GRIDFORMAT_BEGIN
 90
        0
 91
        1
 62
     0
 92
       -2
340
14
 93
        0
 40
0.045
309
GRIDFORMAT_END
 95
        2
302
GRIDFORMAT
  1
GRIDFORMAT_BEGIN
 90
        0
 91
        1
 62
     0
 92
       -2
340
14
 93
        0
 40
0.045
309
GRIDFORMAT_END
 95
        4
302
GRIDFORMAT
  1
GRIDFORMAT_BEGIN
 90
        0
 91
        1
 62
     0
 92
       -2
340
14
 93
        0
 40
0.045
309
GRIDFORMAT_END
 95
        8
302
GRIDFORMAT
  1
GRIDFORMAT_BEGIN
 90
        0
 91
        1
 62
     0
 92
       -2
340
14
 93
        0
 40
0.045
309
GRIDFORMAT_END
 95
       16
302
GRIDFORMAT
  1
GRIDFORMAT_BEGIN
 90
        0
 91
        1
 62
     0
 92
       -2
340
14
 93
        0
 40
0.045
309
GRIDFORMAT_END
 95
       32
302
GRIDFORMAT
  1
GRIDFORMAT_BEGIN
 90
        0
 91
        1
 62
     0
 92
       -2
340
14
 93
        0
 40
0.045
309
GRIDFORMAT_END
309
TABLEFORMAT_END
  1
CELLSTYLE_BEGIN
 90
        2
 91
        1
300
_HEADER
309
CELLSTYLE_END
300
CELLSTYLE
  1
TABLEFORMAT_BEGIN
 90
        5
170
     1
 91
        0
 92
        0
 62
   257
 93
        1
300
CONTENTFORMAT
  1
CONTENTFORMAT_BEGIN
 90
        0
 91
        0
 92
        4
 93
        0
300

 40
0.0
140
1.0
 94
        2
 62
     0
340
11
144
4.5
309
CONTENTFORMAT_END
171
     1
301
MARGIN
  1
CELLMARGIN_BEGIN
 40
1.5
 40
1.5
 40
1.5
 40
1.5
 40
1.5
 40
1.5
309
CELLMARGIN_END
 94
        6
 95
        1
302
GRIDFORMAT
  1
GRIDFORMAT_BEGIN
 90
        0
 91
        1
 62
     0
 92
       -2
340
14
 93
        0
 40
0.045
309
GRIDFORMAT_END
 95
        2
302
GRIDFORMAT
  1
GRIDFORMAT_BEGIN
 90
        0
 91
        1
 62
     0
 92
       -2
340
14
 93
        0
 40
0.045
309
GRIDFORMAT_END
 95
        4
302
GRIDFORMAT
  1
GRIDFORMAT_BEGIN
 90
        0
 91
        1
 62
     0
 92
       -2
340
14
 93
        0
 40
0.045
309
GRIDFORMAT_END
 95
        8
302
GRIDFORMAT
  1
GRIDFORMAT_BEGIN
 90
        0
 91
        1
 62
     0
 92
       -2
340
14
 93
        0
 40
0.045
309
GRIDFORMAT_END
 95
       16
302
GRIDFORMAT
  1
GRIDFORMAT_BEGIN
 90
        0
 91
        1
 62
     0
 92
       -2
340
14
 93
        0
 40
0.045
309
GRIDFORMAT_END
 95
       32
302
GRIDFORMAT
  1
GRIDFORMAT_BEGIN
 90
        0
 91
        1
 62
     0
 92
       -2
340
14
 93
        0
 40
0.045
309
GRIDFORMAT_END
309
TABLEFORMAT_END
  1
CELLSTYLE_BEGIN
 90
        3
 91
        2
300
_DATA
309
CELLSTYLE_END
  0
ENDSEC
  0
EOF
