  0
SECTION
  2
HEADER
  9
$ACADVER
  1
AC1032
  9
$ACADMAINTVER
 90
       55
  9
$DWGCODEPAGE
  3
ANSI_1252
  9
$LASTSAVEDBY
  1
rh1972
  9
$REQUIREDVERSIONS
160
                 0
  9
$INSBASE
 10
0.0
 20
0.0
 30
0.0
  9
$EXTMIN
 10
0.0
 20
0.0
 30
0.0
  9
$EXTMAX
 10
0.0
 20
0.0
 30
0.0
  9
$LIMMIN
 10
0.0
 20
0.0
  9
$LIMMAX
 10
0.0
 20
0.0
  9
$ORTHOMODE
 70
     0
  9
$REGENMODE
 70
     1
  9
$FILLMODE
 70
     1
  9
$QTEXTMODE
 70
     0
  9
$MIRRTEXT
 70
     1
  9
$LTSCALE
 40
0.1
  9
$ATTMODE
 70
     1
  9
$TEXTSIZE
 40
0.2
  9
$TRACEWID
 40
0.05
  9
$TEXTSTYLE
  7
Standard
  9
$CLAYER
  8
0
  9
$CELTYPE
  6
ByLayer
  9
$CECOLOR
 62
     0
  9
$CELTSCALE
 40
1.0
  9
$DISPSILH
 70
     0
  9
$DIMSCALE
 40
1.0
  9
$DIMASZ
 40
0.18
  9
$DIMEXO
 40
0.0625
  9
$DIMDLI
 40
0.38
  9
$DIMRND
 40
0.0
  9
$DIMDLE
 40
0.0
  9
$DIMEXE
 40
0.18
  9
$DIMTP
 40
0.0
  9
$DIMTM
 40
0.0
  9
$DIMTXT
 40
0.18
  9
$DIMCEN
 40
0.09
  9
$DIMTSZ
 40
0.0
  9
$DIMTOL
 70
     0
  9
$DIMLIM
 70
     0
  9
$DIMTIH
 70
     1
  9
$DIMTOH
 70
     1
  9
$DIMSE1
 70
     0
  9
$DIMSE2
 70
     0
  9
$DIMTAD
 70
     0
  9
$DIMZIN
 70
     0
  9
$DIMBLK
  1

  9
$DIMASO
 70
     1
  9
$DIMSHO
 70
     1
  9
$DIMPOST
  1

  9
$DIMAPOST
  1

  9
$DIMALT
 70
     0
  9
$DIMALTD
 70
     2
  9
$DIMALTF
 40
25.4
  9
$DIMLFAC
 40
1.0
  9
$DIMTOFL
 70
     0
  9
$DIMTVP
 40
0.0
  9
$DIMTIX
 70
     0
  9
$DIMSOXD
 70
     0
  9
$DIMSAH
 70
     0
  9
$DIMBLK1
  1

  9
$DIMBLK2
  1

  9
$DIMSTYLE
  2
ISO-25
  9
$DIMCLRD
 70
     0
  9
$DIMCLRE
 70
     0
  9
$DIMCLRT
 70
     0
  9
$DIMTFAC
 40
1.0
  9
$DIMGAP
 40
0.09
  9
$DIMJUST
 70
     0
  9
$DIMSD1
 70
     0
  9
$DIMSD2
 70
     0
  9
$DIMTOLJ
 70
     1
  9
$DIMTZIN
 70
     0
  9
$DIMALTZ
 70
     0
  9
$DIMALTTZ
 70
     0
  9
$DIMUPT
 70
     0
  9
$DIMDEC
 70
     3
  9
$DIMTDEC
 70
     3
  9
$DIMALTU
 70
     2
  9
$DIMALTTD
 70
     2
  9
$DIMTXSTY
  7
Standard
  9
$DIMAUNIT
 70
     0
  9
$DIMADEC
 70
     0
  9
$DIMALTRND
 40
0.0
  9
$DIMAZIN
 70
     0
  9
$DIMDSEP
 70
    46
  9
$DIMATFIT
 70
     3
  9
$DIMFRAC
 70
     0
  9
$DIMLDRBLK
  1

  9
$DIMLUNIT
 70
     2
  9
$DIMLWD
 70
    -2
  9
$DIMLWE
 70
    -2
  9
$DIMTMOVE
 70
     2
  9
$DIMFXL
 40
1.0
  9
$DIMFXLON
 70
     0
  9
$DIMJOGANG
 40
0.7853981633974483
  9
$DIMTFILL
 70
     0
  9
$DIMTFILLCLR
 70
     0
  9
$DIMARCSYM
 70
     0
  9
$DIMLTYPE
  6

  9
$DIMLTEX1
  6

  9
$DIMLTEX2
  6

  9
$DIMTXTDIRECTION
 70
     0
  9
$LUNITS
 70
     2
  9
$LUPREC
 70
     3
  9
$SKETCHINC
 40
0.1
  9
$FILLETRAD
 40
0.0
  9
$AUNITS
 70
     0
  9
$AUPREC
 70
     4
  9
$MENU
  1
.
  9
$ELEVATION
 40
0.0
  9
$PELEVATION
 40
0.0
  9
$THICKNESS
 40
0.0
  9
$LIMCHECK
 70
     0
  9
$CHAMFERA
 40
0.0
  9
$CHAMFERB
 40
0.0
  9
$CHAMFERC
 40
0.0
  9
$CHAMFERD
 40
0.0
  9
$SKPOLY
 70
     0
  9
$TDCREATE
 40
2459996.548593588
  9
$TDUCREATE
 40
2459996.548593588
  9
$TDUPDATE
 40
2459996.548594005
  9
$TDUUPDATE
 40
2459996.548594005
  9
$TDINDWG
 40
0.0000000116
  9
$TDUSRTIMER
 40
0.0000000116
  9
$USRTIMER
 70
     1
  9
$ANGBASE
 50
0.0
  9
$ANGDIR
 70
     0
  9
$PDMODE
 70
     2
  9
$PDSIZE
 40
0.1
  9
$PLINEWID
 40
0.0
  9
$SPLFRAME
 70
     0
  9
$SPLINETYPE
 70
     6
  9
$SPLINESEGS
 70
     8
  9
$HANDSEED
  5
3D1
  9
$SURFTAB1
 70
     6
  9
$SURFTAB2
 70
     6
  9
$SURFTYPE
 70
     6
  9
$SURFU
 70
     6
  9
$SURFV
 70
     6
  9
$UCSBASE
  2

  9
$UCSNAME
  2

  9
$UCSORG
 10
0.0
 20
0.0
 30
0.0
  9
$UCSXDIR
 10
1.0
 20
0.0
 30
0.0
  9
$UCSYDIR
 10
0.0
 20
1.0
 30
0.0
  9
$UCSORTHOREF
  2

  9
$UCSORTHOVIEW
 70
     0
  9
$UCSORGTOP
 10
0.0
 20
0.0
 30
0.0
  9
$UCSORGBOTTOM
 10
0.0
 20
0.0
 30
0.0
  9
$UCSORGLEFT
 10
0.0
 20
0.0
 30
0.0
  9
$UCSORGRIGHT
 10
0.0
 20
0.0
 30
0.0
  9
$UCSORGFRONT
 10
0.0
 20
0.0
 30
0.0
  9
$UCSORGBACK
 10
0.0
 20
0.0
 30
0.0
  9
$PUCSBASE
  2

  9
$PUCSNAME
  2

  9
$PUCSORG
 10
0.0
 20
0.0
 30
0.0
  9
$PUCSXDIR
 10
1.0
 20
0.0
 30
0.0
  9
$PUCSYDIR
 10
0.0
 20
1.0
 30
0.0
  9
$PUCSORTHOREF
  2

  9
$PUCSORTHOVIEW
 70
     0
  9
$PUCSORGTOP
 10
0.0
 20
0.0
 30
0.0
  9
$PUCSORGBOTTOM
 10
0.0
 20
0.0
 30
0.0
  9
$PUCSORGLEFT
 10
0.0
 20
0.0
 30
0.0
  9
$PUCSORGRIGHT
 10
0.0
 20
0.0
 30
0.0
  9
$PUCSORGFRONT
 10
0.0
 20
0.0
 30
0.0
  9
$PUCSORGBACK
 10
0.0
 20
0.0
 30
0.0
  9
$USERI1
 70
     0
  9
$USERI2
 70
     0
  9
$USERI3
 70
     0
  9
$USERI4
 70
     0
  9
$USERI5
 70
     0
  9
$USERR1
 40
0.0
  9
$USERR2
 40
0.0
  9
$USERR3
 40
0.0
  9
$USERR4
 40
0.0
  9
$USERR5
 40
0.0
  9
$WORLDVIEW
 70
     1
  9
$SHADEDGE
 70
     3
  9
$SHADEDIF
 70
    70
  9
$TILEMODE
 70
     1
  9
$MAXACTVP
 70
    64
  9
$PINSBASE
 10
0.0
 20
0.0
 30
0.0
  9
$PLIMCHECK
 70
     0
  9
$PEXTMIN
 10
1.000000000000000E+20
 20
1.000000000000000E+20
 30
1.000000000000000E+20
  9
$PEXTMAX
 10
-1.000000000000000E+20
 20
-1.000000000000000E+20
 30
-1.000000000000000E+20
  9
$PLIMMIN
 10
0.0
 20
0.0
  9
$PLIMMAX
 10
12.0
 20
9.0
  9
$UNITMODE
 70
     0
  9
$VISRETAIN
 70
     1
  9
$PLINEGEN
 70
     1
  9
$PSLTSCALE
 70
     1
  9
$TREEDEPTH
 70
  3020
  9
$CMLSTYLE
  2
Standard
  9
$CMLJUST
 70
     0
  9
$CMLSCALE
 40
1.0
  9
$PROXYGRAPHICS
 70
     1
  9
$MEASUREMENT
 70
     1
  9
$CELWEIGHT
370
    -1
  9
$ENDCAPS
280
     0
  9
$JOINSTYLE
280
     0
  9
$LWDISPLAY
290
     0
  9
$INSUNITS
 70
     0
  9
$HYPERLINKBASE
  1

  9
$STYLESHEET
  1

  9
$XEDIT
290
     1
  9
$CEPSNTYPE
380
     0
  9
$PSTYLEMODE
290
     1
  9
$FINGERPRINTGUID
  2
{13ec9db4-4d0b-4b6f-a68e-bb56ce50959c}
  9
$VERSIONGUID
  2
{FAEB1C32-E019-11D5-929B-00C0DF256EC4}
  9
$EXTNAMES
290
     1
  9
$PSVPSCALE
 40
0.0
  9
$OLESTARTUP
290
     0
  9
$SORTENTS
280
   127
  9
$INDEXCTL
280
     0
  9
$HIDETEXT
280
     1
  9
$XCLIPFRAME
280
     2
  9
$HALOGAP
280
     0
  9
$OBSCOLOR
 70
   257
  9
$OBSLTYPE
280
     0
  9
$INTERSECTIONDISPLAY
280
     0
  9
$INTERSECTIONCOLOR
 70
   257
  9
$DIMASSOC
280
     2
  9
$PROJECTNAME
  1

  9
$CAMERADISPLAY
290
     0
  9
$LENSLENGTH
 40
50.0
  9
$CAMERAHEIGHT
 40
0.0
  9
$STEPSPERSEC
 40
2.0
  9
$STEPSIZE
 40
6.0
  9
$3DDWFPREC
 40
2.0
  9
$PSOLWIDTH
 40
0.25
  9
$PSOLHEIGHT
 40
4.0
  9
$LOFTANG1
 40
1.570796326794897
  9
$LOFTANG2
 40
1.570796326794897
  9
$LOFTMAG1
 40
0.0
  9
$LOFTMAG2
 40
0.0
  9
$LOFTPARAM
 70
     7
  9
$LOFTNORMALS
280
     1
  9
$LATITUDE
 40
37.795
  9
$LONGITUDE
 40
-122.394
  9
$NORTHDIRECTION
 40
0.0
  9
$TIMEZONE
 70
 -8000
  9
$LIGHTGLYPHDISPLAY
280
     1
  9
$TILEMODELIGHTSYNCH
280
     1
  9
$CMATERIAL
347
3C0
  9
$SOLIDHIST
280
     0
  9
$SHOWHIST
280
     1
  9
$DWFFRAME
280
     2
  9
$DGNFRAME
280
     2
  9
$REALWORLDSCALE
290
     1
  9
$INTERFERECOLOR
 62
   256
  9
$CSHADOW
280
     0
  9
$SHADOWPLANELOCATION
 40
0.0
  0
ENDSEC
  0
SECTION
  2
CLASSES
  0
CLASS
  1
ACDBDICTIONARYWDFLT
  2
AcDbDictionaryWithDefault
  3
ObjectDBX Classes
 90
        0
 91
        3
280
     0
281
     0
  0
CLASS
  1
SCALE
  2
AcDbScale
  3
ObjectDBX Classes
 90
     1153
 91
        3
280
     0
281
     0
  0
CLASS
  1
VISUALSTYLE
  2
AcDbVisualStyle
  3
ObjectDBX Classes
 90
     4095
 91
        3
280
     0
281
     0
  0
CLASS
  1
MATERIAL
  2
AcDbMaterial
  3
ObjectDBX Classes
 90
     1153
 91
        3
280
     0
281
     0
  0
CLASS
  1
TABLESTYLE
  2
AcDbTableStyle
  3
ObjectDBX Classes
 90
     4095
 91
        3
280
     0
281
     0
  0
CLASS
  1
MLEADERSTYLE
  2
AcDbMLeaderStyle
  3
ACDB_MLEADERSTYLE_CLASS
 90
     4095
 91
        3
280
     0
281
     0
  0
CLASS
  1
DICTIONARYVAR
  2
AcDbDictionaryVar
  3
ObjectDBX Classes
 90
        0
 91
        3
280
     0
281
     0
  0
CLASS
  1
CELLSTYLEMAP
  2
AcDbCellStyleMap
  3
ObjectDBX Classes
 90
     1152
 91
        3
280
     0
281
     0
  0
ENDSEC
  0
SECTION
  2
TABLES
  0
TABLE
  2
VPORT
  5
8
330
0
100
AcDbSymbolTable
 70
     1
  0
VPORT
  5
27
330
8
100
AcDbSymbolTableRecord
100
AcDbViewportTableRecord
  2
*Active
 70
     0
 10
0.0
 20
0.0
 11
1.0
 21
1.0
 12
344.1869158878504
 22
148.5
 13
0.0
 23
0.0
 14
10.0
 24
10.0
 15
10.0
 25
10.0
 16
0.0
 26
0.0
 36
1.0
 17
0.0
 27
0.0
 37
0.0
 40
297.0
 41
1.972972972850329
 42
50.0
 43
0.0
 44
0.0
 50
0.0
 51
0.0
 71
     0
 72
   100
 73
     1
 74
     3
 75
     0
 76
     0
 77
     0
 78
     0
281
     0
 65
     1
110
0.0
120
0.0
130
0.0
111
1.0
121
0.0
131
0.0
112
0.0
122
1.0
132
0.0
 79
     0
146
0.0
348
3AB
 60
     3
 61
     5
292
     1
282
     1
141
0.0
142
0.0
 63
   250
  0
ENDTAB
  0
TABLE
  2
LTYPE
  5
5
330
0
100
AcDbSymbolTable
 70
     6
  0
LTYPE
  5
14
330
5
100
AcDbSymbolTableRecord
100
AcDbLinetypeTableRecord
  2
ByBlock
 70
     0
  3

 72
    65
 73
     0
 40
0.0
  0
LTYPE
  5
15
330
5
100
AcDbSymbolTableRecord
100
AcDbLinetypeTableRecord
  2
ByLayer
 70
     0
  3

 72
    65
 73
     0
 40
0.0
  0
LTYPE
  5
16
330
5
100
AcDbSymbolTableRecord
100
AcDbLinetypeTableRecord
  2
Continuous
 70
     0
  3
Solid line
 72
    65
 73
     0
 40
0.0
  0
LTYPE
  5
20
330
5
100
AcDbSymbolTableRecord
100
AcDbLinetypeTableRecord
  2
Solid_Line
 70
     0
  3
Solid Line
 72
    65
 73
     0
 40
0.0
  0
LTYPE
  5
21
330
5
100
AcDbSymbolTableRecord
100
AcDbLinetypeTableRecord
  2
Dashed_Line
 70
     0
  3
Dashed Line
 72
    65
 73
     2
 40
0.75
 49
0.5
 74
     0
 49
-0.25
 74
     0
  0
LTYPE
  5
22
330
5
100
AcDbSymbolTableRecord
100
AcDbLinetypeTableRecord
  2
Dotted_Line
 70
     0
  3
Dotted Line
 72
    65
 73
     2
 40
0.25
 49
0.0
 74
     0
 49
-0.25
 74
     0
  0
LTYPE
  5
23
330
5
100
AcDbSymbolTableRecord
100
AcDbLinetypeTableRecord
  2
DashDot_Line
 70
     0
  3
DashDot Line
 72
    65
 73
     4
 40
18.0
 49
12.0
 74
     0
 49
-3.0
 74
     0
 49
0.0
 74
     0
 49
-3.0
 74
     0
  0
LTYPE
  5
24
330
5
100
AcDbSymbolTableRecord
100
AcDbLinetypeTableRecord
  2
DashDotDot_Line
 70
     0
  3
DashDotDot Line
 72
    65
 73
     6
 40
21.0
 49
12.0
 74
     0
 49
-3.0
 74
     0
 49
0.0
 74
     0
 49
-3.0
 74
     0
 49
0.0
 74
     0
 49
-3.0
 74
     0
  0
ENDTAB
  0
TABLE
  2
LAYER
  5
2
330
0
100
AcDbSymbolTable
 70
     5
  0
LAYER
  5
10
330
2
100
AcDbSymbolTableRecord
100
AcDbLayerTableRecord
  2
0
 70
     0
 62
     7
  6
Continuous
370
    -3
390
F
347
3C2
348
0
  0
LAYER
  5
38C
330
2
100
AcDbSymbolTableRecord
100
AcDbLayerTableRecord
  2
Point_Code
 70
     0
 62
     7
  6
Continuous
370
    -3
390
F
347
3C2
348
0
  0
LAYER
  5
38D
330
2
100
AcDbSymbolTableRecord
100
AcDbLayerTableRecord
  2
Height
 70
     0
 62
     7
  6
Continuous
370
    -3
390
F
347
3C2
348
0
  0
LAYER
  5
38E
330
2
100
AcDbSymbolTableRecord
100
AcDbLayerTableRecord
  2
Point_ID
 70
     0
 62
     7
  6
Continuous
370
    -3
390
F
347
3C2
348
0
  0
LAYER
  5
38F
330
2
100
AcDbSymbolTableRecord
100
AcDbLayerTableRecord
  2
Attribute
 70
     0
 62
     7
  6
Continuous
370
    -3
390
F
347
3C2
348
0
  0
ENDTAB
  0
TABLE
  2
STYLE
  5
3
330
0
100
AcDbSymbolTable
 70
     1
  0
STYLE
  5
11
330
3
100
AcDbSymbolTableRecord
100
AcDbTextStyleTableRecord
  2
Standard
 70
     0
 40
0.0
 41
1.0
 50
0.0
 71
     0
 42
0.2
  3
txt
  4

  0
ENDTAB
  0
TABLE
  2
VIEW
  5
6
330
0
100
AcDbSymbolTable
 70
     0
  0
ENDTAB
  0
TABLE
  2
UCS
  5
7
330
0
100
AcDbSymbolTable
 70
     0
  0
ENDTAB
  0
TABLE
  2
APPID
  5
9
330
0
100
AcDbSymbolTable
 70
     2
  0
APPID
  5
12
330
9
100
AcDbSymbolTableRecord
100
AcDbRegAppTableRecord
  2
ACAD
 70
     0
  0
APPID
  5
25
330
9
100
AcDbSymbolTableRecord
100
AcDbRegAppTableRecord
  2
PE_URL
 70
     0
  0
ENDTAB
  0
TABLE
  2
DIMSTYLE
  5
A
330
0
100
AcDbSymbolTable
 70
     1
100
AcDbDimStyleTable
  0
DIMSTYLE
105
26
330
A
100
AcDbSymbolTableRecord
100
AcDbDimStyleTableRecord
  2
ISO-25
 70
     0
 41
2.5
 42
0.625
 43
3.75
 44
1.25
 73
     0
 74
     0
 77
     1
 78
     8
140
2.5
141
2.5
143
0.03937007874016
147
0.625
171
     3
172
     1
178
     0
271
     2
272
     2
274
     3
278
    44
283
     0
284
     8
340
11
  0
ENDTAB
  0
TABLE
  2
BLOCK_RECORD
  5
1
330
0
100
AcDbSymbolTable
 70
     0
  0
BLOCK_RECORD
  5
1D
330
1
100
AcDbSymbolTableRecord
100
AcDbBlockTableRecord
  2
*Model_Space
340
1E
 70
     0
280
     1
281
     0
  0
BLOCK_RECORD
  5
1B
330
1
100
AcDbSymbolTableRecord
100
AcDbBlockTableRecord
  2
*Paper_Space
340
1C
 70
     0
280
     1
281
     0
  0
ENDTAB
  0
ENDSEC
  0
SECTION
  2
BLOCKS
  0
BLOCK
  5
3A2
330
1D
100
AcDbEntity
  8
0
100
AcDbBlockBegin
  2
*Model_Space
 70
     0
 10
0.0
 20
0.0
 30
0.0
  3
*Model_Space
  1

  0
ENDBLK
  5
3A3
330
1D
100
AcDbEntity
  8
0
100
AcDbBlockEnd
  0
BLOCK
  5
3A4
330
1B
100
AcDbEntity
 67
     1
  8
0
100
AcDbBlockBegin
  2
*Paper_Space
 70
     0
 10
0.0
 20
0.0
 30
0.0
  3
*Paper_Space
  1

  0
ENDBLK
  5
3A5
330
1B
100
AcDbEntity
 67
     1
  8
0
100
AcDbBlockEnd
  0
ENDSEC
  0
SECTION
  2
ENTITIES
  0
POINT
  5
28
330
1D
100
AcDbEntity
  8
0
  6
Solid_Line
 62
     0
100
AcDbPoint
 10
423176.494
 20
545605.85
 30
94.571
  0
TEXT
  5
29
330
1D
100
AcDbEntity
  8
Point_ID
  6
Solid_Line
 62
     1
100
AcDbText
 10
423176.594
 20
545605.95
 30
94.571
 40
0.3
  1
1003.6
100
AcDbText
  0
TEXT
  5
2A
330
1D
100
AcDbEntity
  8
Height
  6
Solid_Line
 62
     4
100
AcDbText
 10
423176.394
 20
545605.75
 30
94.571
 40
0.3
  1
94.571
 72
     2
 11
423176.394
 21
545605.75
 31
94.571
100
AcDbText
 73
     3
  0
TEXT
  5
2B
330
1D
100
AcDbEntity
  8
Point_Code
  6
Solid_Line
 62
     5
100
AcDbText
 10
423176.594
 20
545605.75
 30
94.571
 40
0.3
  1
WA
 11
423176.594
 21
545605.75
 31
94.571
100
AcDbText
 73
     3
  0
TEXT
  5
2C
330
1D
100
AcDbEntity
  8
Attribute
  6
Solid_Line
 62
     5
100
AcDbText
 10
423176.594
 20
545605.25
 30
94.571
 40
0.3
  1
6
 11
423176.594
 21
545605.25
 31
94.571
100
AcDbText
 73
     3
  0
POINT
  5
2D
330
1D
100
AcDbEntity
  8
0
  6
Solid_Line
 62
     0
100
AcDbPoint
 10
423176.174
 20
545604.807
 30
94.491
  0
TEXT
  5
2E
330
1D
100
AcDbEntity
  8
Point_ID
  6
Solid_Line
 62
     1
100
AcDbText
 10
423176.274
 20
545604.907
 30
94.491
 40
0.3
  1
1003.5
100
AcDbText
  0
TEXT
  5
2F
330
1D
100
AcDbEntity
  8
Height
  6
Solid_Line
 62
     4
100
AcDbText
 10
423176.074
 20
545604.707
 30
94.491
 40
0.3
  1
94.491
 72
     2
 11
423176.074
 21
545604.707
 31
94.491
100
AcDbText
 73
     3
  0
TEXT
  5
30
330
1D
100
AcDbEntity
  8
Point_Code
  6
Solid_Line
 62
     5
100
AcDbText
 10
423176.274
 20
545604.707
 30
94.491
 40
0.3
  1
WA
 11
423176.274
 21
545604.707
 31
94.491
100
AcDbText
 73
     3
  0
TEXT
  5
31
330
1D
100
AcDbEntity
  8
Attribute
  6
Solid_Line
 62
     5
100
AcDbText
 10
423176.274
 20
545604.207
 30
94.491
 40
0.3
  1
5
 11
423176.274
 21
545604.207
 31
94.491
100
AcDbText
 73
     3
  0
POINT
  5
32
330
1D
100
AcDbEntity
  8
0
  6
Solid_Line
 62
     0
100
AcDbPoint
 10
423175.755
 20
545603.639
 30
94.55
  0
TEXT
  5
33
330
1D
100
AcDbEntity
  8
Point_ID
  6
Solid_Line
 62
     1
100
AcDbText
 10
423175.855
 20
545603.739
 30
94.55
 40
0.3
  1
1003.4
100
AcDbText
  0
TEXT
  5
34
330
1D
100
AcDbEntity
  8
Height
  6
Solid_Line
 62
     4
100
AcDbText
 10
423175.6550000001
 20
545603.539
 30
94.55
 40
0.3
  1
94.550
 72
     2
 11
423175.6550000001
 21
545603.539
 31
94.55
100
AcDbText
 73
     3
  0
TEXT
  5
35
330
1D
100
AcDbEntity
  8
Point_Code
  6
Solid_Line
 62
     5
100
AcDbText
 10
423175.855
 20
545603.539
 30
94.55
 40
0.3
  1
WA
 11
423175.855
 21
545603.539
 31
94.55
100
AcDbText
 73
     3
  0
TEXT
  5
36
330
1D
100
AcDbEntity
  8
Attribute
  6
Solid_Line
 62
     5
100
AcDbText
 10
423175.855
 20
545603.039
 30
94.55
 40
0.3
  1
4
 11
423175.855
 21
545603.039
 31
94.55
100
AcDbText
 73
     3
  0
POINT
  5
37
330
1D
100
AcDbEntity
  8
0
  6
Solid_Line
 62
     0
100
AcDbPoint
 10
423176.207
 20
545603.259
 30
94.578
  0
TEXT
  5
38
330
1D
100
AcDbEntity
  8
Point_ID
  6
Solid_Line
 62
     1
100
AcDbText
 10
423176.307
 20
545603.359
 30
94.578
 40
0.3
  1
1003.3
100
AcDbText
  0
TEXT
  5
39
330
1D
100
AcDbEntity
  8
Height
  6
Solid_Line
 62
     4
100
AcDbText
 10
423176.107
 20
545603.159
 30
94.578
 40
0.3
  1
94.578
 72
     2
 11
423176.107
 21
545603.159
 31
94.578
100
AcDbText
 73
     3
  0
TEXT
  5
3A
330
1D
100
AcDbEntity
  8
Point_Code
  6
Solid_Line
 62
     5
100
AcDbText
 10
423176.307
 20
545603.159
 30
94.578
 40
0.3
  1
WA
 11
423176.307
 21
545603.159
 31
94.578
100
AcDbText
 73
     3
  0
TEXT
  5
3B
330
1D
100
AcDbEntity
  8
Attribute
  6
Solid_Line
 62
     5
100
AcDbText
 10
423176.307
 20
545602.659
 30
94.578
 40
0.3
  1
3
 11
423176.307
 21
545602.659
 31
94.578
100
AcDbText
 73
     3
  0
POINT
  5
3C
330
1D
100
AcDbEntity
  8
0
  6
Solid_Line
 62
     0
100
AcDbPoint
 10
423177.021
 20
545603.911
 30
94.531
  0
TEXT
  5
3D
330
1D
100
AcDbEntity
  8
Point_ID
  6
Solid_Line
 62
     1
100
AcDbText
 10
423177.121
 20
545604.011
 30
94.531
 40
0.3
  1
1003.2
100
AcDbText
  0
TEXT
  5
3E
330
1D
100
AcDbEntity
  8
Height
  6
Solid_Line
 62
     4
100
AcDbText
 10
423176.921
 20
545603.811
 30
94.531
 40
0.3
  1
94.531
 72
     2
 11
423176.921
 21
545603.811
 31
94.531
100
AcDbText
 73
     3
  0
TEXT
  5
3F
330
1D
100
AcDbEntity
  8
Point_Code
  6
Solid_Line
 62
     5
100
AcDbText
 10
423177.121
 20
545603.811
 30
94.531
 40
0.3
  1
WA
 11
423177.121
 21
545603.811
 31
94.531
100
AcDbText
 73
     3
  0
TEXT
  5
40
330
1D
100
AcDbEntity
  8
Attribute
  6
Solid_Line
 62
     5
100
AcDbText
 10
423177.121
 20
545603.311
 30
94.531
 40
0.3
  1
2
 11
423177.121
 21
545603.311
 31
94.531
100
AcDbText
 73
     3
  0
POINT
  5
41
330
1D
100
AcDbEntity
  8
0
  6
Solid_Line
 62
     0
100
AcDbPoint
 10
423177.844
 20
545604.606
 30
94.437
  0
TEXT
  5
42
330
1D
100
AcDbEntity
  8
Point_ID
  6
Solid_Line
 62
     1
100
AcDbText
 10
423177.944
 20
545604.706
 30
94.437
 40
0.3
  1
1003.1
100
AcDbText
  0
TEXT
  5
43
330
1D
100
AcDbEntity
  8
Height
  6
Solid_Line
 62
     4
100
AcDbText
 10
423177.744
 20
545604.506
 30
94.437
 40
0.3
  1
94.437
 72
     2
 11
423177.744
 21
545604.506
 31
94.437
100
AcDbText
 73
     3
  0
TEXT
  5
44
330
1D
100
AcDbEntity
  8
Point_Code
  6
Solid_Line
 62
     5
100
AcDbText
 10
423177.944
 20
545604.506
 30
94.437
 40
0.3
  1
WA
 11
423177.944
 21
545604.506
 31
94.437
100
AcDbText
 73
     3
  0
TEXT
  5
45
330
1D
100
AcDbEntity
  8
Attribute
  6
Solid_Line
 62
     5
100
AcDbText
 10
423177.944
 20
545604.006
 30
94.437
 40
0.3
  1
1
 11
423177.944
 21
545604.006
 31
94.437
100
AcDbText
 73
     3
  0
POINT
  5
46
330
1D
100
AcDbEntity
  8
0
  6
Solid_Line
 62
     0
100
AcDbPoint
 10
423215.241
 20
545591.834
 30
95.708
  0
TEXT
  5
47
330
1D
100
AcDbEntity
  8
Point_ID
  6
Solid_Line
 62
     1
100
AcDbText
 10
423215.341
 20
545591.934
 30
95.708
 40
0.3
  1
11.24
100
AcDbText
  0
TEXT
  5
48
330
1D
100
AcDbEntity
  8
Height
  6
Solid_Line
 62
     4
100
AcDbText
 10
423215.141
 20
545591.734
 30
95.708
 40
0.3
  1
95.708
 72
     2
 11
423215.141
 21
545591.734
 31
95.708
100
AcDbText
 73
     3
  0
TEXT
  5
49
330
1D
100
AcDbEntity
  8
Point_Code
  6
Solid_Line
 62
     5
100
AcDbText
 10
423215.341
 20
545591.734
 30
95.708
 40
0.3
  1
Verge Bottom
 11
423215.341
 21
545591.734
 31
95.708
100
AcDbText
 73
     3
  0
POINT
  5
4A
330
1D
100
AcDbEntity
  8
0
  6
Solid_Line
 62
     0
100
AcDbPoint
 10
423224.44
 20
545590.972
 30
95.781
  0
TEXT
  5
4B
330
1D
100
AcDbEntity
  8
Point_ID
  6
Solid_Line
 62
     1
100
AcDbText
 10
423224.54
 20
545591.072
 30
95.781
 40
0.3
  1
11.23
100
AcDbText
  0
TEXT
  5
4C
330
1D
100
AcDbEntity
  8
Height
  6
Solid_Line
 62
     4
100
AcDbText
 10
423224.3400000001
 20
545590.872
 30
95.781
 40
0.3
  1
95.781
 72
     2
 11
423224.3400000001
 21
545590.872
 31
95.781
100
AcDbText
 73
     3
  0
TEXT
  5
4D
330
1D
100
AcDbEntity
  8
Point_Code
  6
Solid_Line
 62
     5
100
AcDbText
 10
423224.54
 20
545590.872
 30
95.781
 40
0.3
  1
Verge Bottom
 11
423224.54
 21
545590.872
 31
95.781
100
AcDbText
 73
     3
  0
POINT
  5
4E
330
1D
100
AcDbEntity
  8
0
  6
Solid_Line
 62
     0
100
AcDbPoint
 10
423230.756
 20
545590.266
 30
95.934
  0
TEXT
  5
4F
330
1D
100
AcDbEntity
  8
Point_ID
  6
Solid_Line
 62
     1
100
AcDbText
 10
423230.8560000001
 20
545590.366
 30
95.934
 40
0.3
  1
11.22
100
AcDbText
  0
TEXT
  5
50
330
1D
100
AcDbEntity
  8
Height
  6
Solid_Line
 62
     4
100
AcDbText
 10
423230.656
 20
545590.166
 30
95.934
 40
0.3
  1
95.934
 72
     2
 11
423230.656
 21
545590.166
 31
95.934
100
AcDbText
 73
     3
  0
TEXT
  5
51
330
1D
100
AcDbEntity
  8
Point_Code
  6
Solid_Line
 62
     5
100
AcDbText
 10
423230.8560000001
 20
545590.166
 30
95.934
 40
0.3
  1
Verge Bottom
 11
423230.8560000001
 21
545590.166
 31
95.934
100
AcDbText
 73
     3
  0
POINT
  5
52
330
1D
100
AcDbEntity
  8
0
  6
Solid_Line
 62
     0
100
AcDbPoint
 10
423238.7
 20
545589.507
 30
96.092
  0
TEXT
  5
53
330
1D
100
AcDbEntity
  8
Point_ID
  6
Solid_Line
 62
     1
100
AcDbText
 10
423238.8
 20
545589.607
 30
96.092
 40
0.3
  1
11.21
100
AcDbText
  0
TEXT
  5
54
330
1D
100
AcDbEntity
  8
Height
  6
Solid_Line
 62
     4
100
AcDbText
 10
423238.6
 20
545589.407
 30
96.092
 40
0.3
  1
96.092
 72
     2
 11
423238.6
 21
545589.407
 31
96.092
100
AcDbText
 73
     3
  0
TEXT
  5
55
330
1D
100
AcDbEntity
  8
Point_Code
  6
Solid_Line
 62
     5
100
AcDbText
 10
423238.8
 20
545589.407
 30
96.092
 40
0.3
  1
Verge Bottom
 11
423238.8
 21
545589.407
 31
96.092
100
AcDbText
 73
     3
  0
POINT
  5
56
330
1D
100
AcDbEntity
  8
0
  6
Solid_Line
 62
     0
100
AcDbPoint
 10
423245.235
 20
545589.037
 30
96.314
  0
TEXT
  5
57
330
1D
100
AcDbEntity
  8
Point_ID
  6
Solid_Line
 62
     1
100
AcDbText
 10
423245.335
 20
545589.137
 30
96.314
 40
0.3
  1
11.20
100
AcDbText
  0
TEXT
  5
58
330
1D
100
AcDbEntity
  8
Height
  6
Solid_Line
 62
     4
100
AcDbText
 10
423245.135
 20
545588.937
 30
96.314
 40
0.3
  1
96.314
 72
     2
 11
423245.135
 21
545588.937
 31
96.314
100
AcDbText
 73
     3
  0
TEXT
  5
59
330
1D
100
AcDbEntity
  8
Point_Code
  6
Solid_Line
 62
     5
100
AcDbText
 10
423245.335
 20
545588.937
 30
96.314
 40
0.3
  1
Verge Bottom
 11
423245.335
 21
545588.937
 31
96.314
100
AcDbText
 73
     3
  0
POINT
  5
5A
330
1D
100
AcDbEntity
  8
0
  6
Solid_Line
 62
     0
100
AcDbPoint
 10
423245.034
 20
545586.893
 30
96.39
  0
TEXT
  5
5B
330
1D
100
AcDbEntity
  8
Point_ID
  6
Solid_Line
 62
     1
100
AcDbText
 10
423245.134
 20
545586.993
 30
96.39
 40
0.3
  1
11.19
100
AcDbText
  0
TEXT
  5
5C
330
1D
100
AcDbEntity
  8
Height
  6
Solid_Line
 62
     4
100
AcDbText
 10
423244.934
 20
545586.793
 30
96.39
 40
0.3
  1
96.390
 72
     2
 11
423244.934
 21
545586.793
 31
96.39
100
AcDbText
 73
     3
  0
TEXT
  5
5D
330
1D
100
AcDbEntity
  8
Point_Code
  6
Solid_Line
 62
     5
100
AcDbText
 10
423245.134
 20
545586.793
 30
96.39
 40
0.3
  1
Verge Bottom
 11
423245.134
 21
545586.793
 31
96.39
100
AcDbText
 73
     3
  0
POINT
  5
5E
330
1D
100
AcDbEntity
  8
0
  6
Solid_Line
 62
     0
100
AcDbPoint
 10
423237.277
 20
545587.614
 30
96.185
  0
TEXT
  5
5F
330
1D
100
AcDbEntity
  8
Point_ID
  6
Solid_Line
 62
     1
100
AcDbText
 10
423237.377
 20
545587.714
 30
96.185
 40
0.3
  1
11.18
100
AcDbText
  0
TEXT
  5
60
330
1D
100
AcDbEntity
  8
Height
  6
Solid_Line
 62
     4
100
AcDbText
 10
423237.1770000001
 20
545587.514
 30
96.185
 40
0.3
  1
96.185
 72
     2
 11
423237.1770000001
 21
545587.514
 31
96.185
100
AcDbText
 73
     3
  0
TEXT
  5
61
330
1D
100
AcDbEntity
  8
Point_Code
  6
Solid_Line
 62
     5
100
AcDbText
 10
423237.377
 20
545587.514
 30
96.185
 40
0.3
  1
Verge Bottom
 11
423237.377
 21
545587.514
 31
96.185
100
AcDbText
 73
     3
  0
POINT
  5
62
330
1D
100
AcDbEntity
  8
0
  6
Solid_Line
 62
     0
100
AcDbPoint
 10
423230.461
 20
545588.436
 30
95.963
  0
TEXT
  5
63
330
1D
100
AcDbEntity
  8
Point_ID
  6
Solid_Line
 62
     1
100
AcDbText
 10
423230.561
 20
545588.536
 30
95.963
 40
0.3
  1
11.17
100
AcDbText
  0
TEXT
  5
64
330
1D
100
AcDbEntity
  8
Height
  6
Solid_Line
 62
     4
100
AcDbText
 10
423230.361
 20
545588.336
 30
95.963
 40
0.3
  1
95.963
 72
     2
 11
423230.361
 21
545588.336
 31
95.963
100
AcDbText
 73
     3
  0
TEXT
  5
65
330
1D
100
AcDbEntity
  8
Point_Code
  6
Solid_Line
 62
     5
100
AcDbText
 10
423230.561
 20
545588.336
 30
95.963
 40
0.3
  1
Verge Bottom
 11
423230.561
 21
545588.336
 31
95.963
100
AcDbText
 73
     3
  0
POINT
  5
66
330
1D
100
AcDbEntity
  8
0
  6
Solid_Line
 62
     0
100
AcDbPoint
 10
423224.2150000001
 20
545588.972
 30
95.788
  0
TEXT
  5
67
330
1D
100
AcDbEntity
  8
Point_ID
  6
Solid_Line
 62
     1
100
AcDbText
 10
423224.315
 20
545589.072
 30
95.788
 40
0.3
  1
11.16
100
AcDbText
  0
TEXT
  5
68
330
1D
100
AcDbEntity
  8
Height
  6
Solid_Line
 62
     4
100
AcDbText
 10
423224.115
 20
545588.872
 30
95.788
 40
0.3
  1
95.788
 72
     2
 11
423224.115
 21
545588.872
 31
95.788
100
AcDbText
 73
     3
  0
TEXT
  5
69
330
1D
100
AcDbEntity
  8
Point_Code
  6
Solid_Line
 62
     5
100
AcDbText
 10
423224.315
 20
545588.872
 30
95.788
 40
0.3
  1
Verge Bottom
 11
423224.315
 21
545588.872
 31
95.788
100
AcDbText
 73
     3
  0
POINT
  5
6A
330
1D
100
AcDbEntity
  8
0
  6
Solid_Line
 62
     0
100
AcDbPoint
 10
423219.321
 20
545589.397
 30
95.714
  0
TEXT
  5
6B
330
1D
100
AcDbEntity
  8
Point_ID
  6
Solid_Line
 62
     1
100
AcDbText
 10
423219.421
 20
545589.497
 30
95.714
 40
0.3
  1
11.15
100
AcDbText
  0
TEXT
  5
6C
330
1D
100
AcDbEntity
  8
Height
  6
Solid_Line
 62
     4
100
AcDbText
 10
423219.221
 20
545589.297
 30
95.714
 40
0.3
  1
95.714
 72
     2
 11
423219.221
 21
545589.297
 31
95.714
100
AcDbText
 73
     3
  0
TEXT
  5
6D
330
1D
100
AcDbEntity
  8
Point_Code
  6
Solid_Line
 62
     5
100
AcDbText
 10
423219.421
 20
545589.297
 30
95.714
 40
0.3
  1
Verge Bottom
 11
423219.421
 21
545589.297
 31
95.714
100
AcDbText
 73
     3
  0
POINT
  5
6E
330
1D
100
AcDbEntity
  8
0
  6
Solid_Line
 62
     0
100
AcDbPoint
 10
423215.173
 20
545589.879
 30
95.751
  0
TEXT
  5
6F
330
1D
100
AcDbEntity
  8
Point_ID
  6
Solid_Line
 62
     1
100
AcDbText
 10
423215.273
 20
545589.979
 30
95.751
 40
0.3
  1
11.14
100
AcDbText
  0
TEXT
  5
70
330
1D
100
AcDbEntity
  8
Height
  6
Solid_Line
 62
     4
100
AcDbText
 10
423215.073
 20
545589.779
 30
95.751
 40
0.3
  1
95.751
 72
     2
 11
423215.073
 21
545589.779
 31
95.751
100
AcDbText
 73
     3
  0
TEXT
  5
71
330
1D
100
AcDbEntity
  8
Point_Code
  6
Solid_Line
 62
     5
100
AcDbText
 10
423215.273
 20
545589.779
 30
95.751
 40
0.3
  1
Verge Bottom
 11
423215.273
 21
545589.779
 31
95.751
100
AcDbText
 73
     3
  0
POINT
  5
72
330
1D
100
AcDbEntity
  8
0
  6
Solid_Line
 62
     0
100
AcDbPoint
 10
423214.8400000001
 20
545589.779
 30
96.177
  0
TEXT
  5
73
330
1D
100
AcDbEntity
  8
Point_ID
  6
Solid_Line
 62
     1
100
AcDbText
 10
423214.94
 20
545589.879
 30
96.177
 40
0.3
  1
11.13
100
AcDbText
  0
TEXT
  5
74
330
1D
100
AcDbEntity
  8
Height
  6
Solid_Line
 62
     4
100
AcDbText
 10
423214.74
 20
545589.679
 30
96.177
 40
0.3
  1
96.177
 72
     2
 11
423214.74
 21
545589.679
 31
96.177
100
AcDbText
 73
     3
  0
TEXT
  5
75
330
1D
100
AcDbEntity
  8
Point_Code
  6
Solid_Line
 62
     5
100
AcDbText
 10
423214.94
 20
545589.679
 30
96.177
 40
0.3
  1
Verge Top
 11
423214.94
 21
545589.679
 31
96.177
100
AcDbText
 73
     3
  0
POINT
  5
76
330
1D
100
AcDbEntity
  8
0
  6
Solid_Line
 62
     0
100
AcDbPoint
 10
423221.157
 20
545589.151
 30
96.197
  0
TEXT
  5
77
330
1D
100
AcDbEntity
  8
Point_ID
  6
Solid_Line
 62
     1
100
AcDbText
 10
423221.257
 20
545589.251
 30
96.197
 40
0.3
  1
11.12
100
AcDbText
  0
TEXT
  5
78
330
1D
100
AcDbEntity
  8
Height
  6
Solid_Line
 62
     4
100
AcDbText
 10
423221.057
 20
545589.051
 30
96.197
 40
0.3
  1
96.197
 72
     2
 11
423221.057
 21
545589.051
 31
96.197
100
AcDbText
 73
     3
  0
TEXT
  5
79
330
1D
100
AcDbEntity
  8
Point_Code
  6
Solid_Line
 62
     5
100
AcDbText
 10
423221.257
 20
545589.051
 30
96.197
 40
0.3
  1
Verge Top
 11
423221.257
 21
545589.051
 31
96.197
100
AcDbText
 73
     3
  0
POINT
  5
7A
330
1D
100
AcDbEntity
  8
0
  6
Solid_Line
 62
     0
100
AcDbPoint
 10
423226.985
 20
545588.63
 30
96.337
  0
TEXT
  5
7B
330
1D
100
AcDbEntity
  8
Point_ID
  6
Solid_Line
 62
     1
100
AcDbText
 10
423227.085
 20
545588.73
 30
96.337
 40
0.3
  1
11.11
100
AcDbText
  0
TEXT
  5
7C
330
1D
100
AcDbEntity
  8
Height
  6
Solid_Line
 62
     4
100
AcDbText
 10
423226.885
 20
545588.53
 30
96.337
 40
0.3
  1
96.337
 72
     2
 11
423226.885
 21
545588.53
 31
96.337
100
AcDbText
 73
     3
  0
TEXT
  5
7D
330
1D
100
AcDbEntity
  8
Point_Code
  6
Solid_Line
 62
     5
100
AcDbText
 10
423227.085
 20
545588.53
 30
96.337
 40
0.3
  1
Verge Top
 11
423227.085
 21
545588.53
 31
96.337
100
AcDbText
 73
     3
  0
POINT
  5
7E
330
1D
100
AcDbEntity
  8
0
  6
Solid_Line
 62
     0
100
AcDbPoint
 10
423232.885
 20
545587.94
 30
96.572
  0
TEXT
  5
7F
330
1D
100
AcDbEntity
  8
Point_ID
  6
Solid_Line
 62
     1
100
AcDbText
 10
423232.985
 20
545588.04
 30
96.572
 40
0.3
  1
11.10
100
AcDbText
  0
TEXT
  5
80
330
1D
100
AcDbEntity
  8
Height
  6
Solid_Line
 62
     4
100
AcDbText
 10
423232.785
 20
545587.84
 30
96.572
 40
0.3
  1
96.572
 72
     2
 11
423232.785
 21
545587.84
 31
96.572
100
AcDbText
 73
     3
  0
TEXT
  5
81
330
1D
100
AcDbEntity
  8
Point_Code
  6
Solid_Line
 62
     5
100
AcDbText
 10
423232.985
 20
545587.84
 30
96.572
 40
0.3
  1
Verge Top
 11
423232.985
 21
545587.84
 31
96.572
100
AcDbText
 73
     3
  0
POINT
  5
82
330
1D
100
AcDbEntity
  8
0
  6
Solid_Line
 62
     0
100
AcDbPoint
 10
423239.246
 20
545587.243
 30
96.748
  0
TEXT
  5
83
330
1D
100
AcDbEntity
  8
Point_ID
  6
Solid_Line
 62
     1
100
AcDbText
 10
423239.346
 20
545587.343
 30
96.748
 40
0.3
  1
11.9
100
AcDbText
  0
TEXT
  5
84
330
1D
100
AcDbEntity
  8
Height
  6
Solid_Line
 62
     4
100
AcDbText
 10
423239.146
 20
545587.143
 30
96.748
 40
0.3
  1
96.748
 72
     2
 11
423239.146
 21
545587.143
 31
96.748
100
AcDbText
 73
     3
  0
TEXT
  5
85
330
1D
100
AcDbEntity
  8
Point_Code
  6
Solid_Line
 62
     5
100
AcDbText
 10
423239.346
 20
545587.143
 30
96.748
 40
0.3
  1
Verge Top
 11
423239.346
 21
545587.143
 31
96.748
100
AcDbText
 73
     3
  0
POINT
  5
86
330
1D
100
AcDbEntity
  8
0
  6
Solid_Line
 62
     0
100
AcDbPoint
 10
423245.346
 20
545586.921
 30
96.873
  0
TEXT
  5
87
330
1D
100
AcDbEntity
  8
Point_ID
  6
Solid_Line
 62
     1
100
AcDbText
 10
423245.446
 20
545587.021
 30
96.873
 40
0.3
  1
11.8
100
AcDbText
  0
TEXT
  5
88
330
1D
100
AcDbEntity
  8
Height
  6
Solid_Line
 62
     4
100
AcDbText
 10
423245.246
 20
545586.821
 30
96.873
 40
0.3
  1
96.873
 72
     2
 11
423245.246
 21
545586.821
 31
96.873
100
AcDbText
 73
     3
  0
TEXT
  5
89
330
1D
100
AcDbEntity
  8
Point_Code
  6
Solid_Line
 62
     5
100
AcDbText
 10
423245.446
 20
545586.821
 30
96.873
 40
0.3
  1
Verge Top
 11
423245.446
 21
545586.821
 31
96.873
100
AcDbText
 73
     3
  0
POINT
  5
8A
330
1D
100
AcDbEntity
  8
0
  6
Solid_Line
 62
     0
100
AcDbPoint
 10
423245.453
 20
545589.167
 30
96.956
  0
TEXT
  5
8B
330
1D
100
AcDbEntity
  8
Point_ID
  6
Solid_Line
 62
     1
100
AcDbText
 10
423245.553
 20
545589.267
 30
96.956
 40
0.3
  1
11.7
100
AcDbText
  0
TEXT
  5
8C
330
1D
100
AcDbEntity
  8
Height
  6
Solid_Line
 62
     4
100
AcDbText
 10
423245.353
 20
545589.067
 30
96.956
 40
0.3
  1
96.956
 72
     2
 11
423245.353
 21
545589.067
 31
96.956
100
AcDbText
 73
     3
  0
TEXT
  5
8D
330
1D
100
AcDbEntity
  8
Point_Code
  6
Solid_Line
 62
     5
100
AcDbText
 10
423245.553
 20
545589.067
 30
96.956
 40
0.3
  1
Verge Top
 11
423245.553
 21
545589.067
 31
96.956
100
AcDbText
 73
     3
  0
POINT
  5
8E
330
1D
100
AcDbEntity
  8
0
  6
Solid_Line
 62
     0
100
AcDbPoint
 10
423240.48
 20
545589.587
 30
96.903
  0
TEXT
  5
8F
330
1D
100
AcDbEntity
  8
Point_ID
  6
Solid_Line
 62
     1
100
AcDbText
 10
423240.58
 20
545589.687
 30
96.903
 40
0.3
  1
11.6
100
AcDbText
  0
TEXT
  5
90
330
1D
100
AcDbEntity
  8
Height
  6
Solid_Line
 62
     4
100
AcDbText
 10
423240.38
 20
545589.487
 30
96.903
 40
0.3
  1
96.903
 72
     2
 11
423240.38
 21
545589.487
 31
96.903
100
AcDbText
 73
     3
  0
TEXT
  5
91
330
1D
100
AcDbEntity
  8
Point_Code
  6
Solid_Line
 62
     5
100
AcDbText
 10
423240.58
 20
545589.487
 30
96.903
 40
0.3
  1
Verge Top
 11
423240.58
 21
545589.487
 31
96.903
100
AcDbText
 73
     3
  0
POINT
  5
92
330
1D
100
AcDbEntity
  8
0
  6
Solid_Line
 62
     0
100
AcDbPoint
 10
423235.229
 20
545589.944
 30
96.858
  0
TEXT
  5
93
330
1D
100
AcDbEntity
  8
Point_ID
  6
Solid_Line
 62
     1
100
AcDbText
 10
423235.3290000001
 20
545590.044
 30
96.858
 40
0.3
  1
11.5
100
AcDbText
  0
TEXT
  5
94
330
1D
100
AcDbEntity
  8
Height
  6
Solid_Line
 62
     4
100
AcDbText
 10
423235.129
 20
545589.844
 30
96.858
 40
0.3
  1
96.858
 72
     2
 11
423235.129
 21
545589.844
 31
96.858
100
AcDbText
 73
     3
  0
TEXT
  5
95
330
1D
100
AcDbEntity
  8
Point_Code
  6
Solid_Line
 62
     5
100
AcDbText
 10
423235.3290000001
 20
545589.844
 30
96.858
 40
0.3
  1
Verge Top
 11
423235.3290000001
 21
545589.844
 31
96.858
100
AcDbText
 73
     3
  0
POINT
  5
96
330
1D
100
AcDbEntity
  8
0
  6
Solid_Line
 62
     0
100
AcDbPoint
 10
423229.953
 20
545590.506
 30
96.637
  0
TEXT
  5
97
330
1D
100
AcDbEntity
  8
Point_ID
  6
Solid_Line
 62
     1
100
AcDbText
 10
423230.053
 20
545590.606
 30
96.637
 40
0.3
  1
11.4
100
AcDbText
  0
TEXT
  5
98
330
1D
100
AcDbEntity
  8
Height
  6
Solid_Line
 62
     4
100
AcDbText
 10
423229.853
 20
545590.406
 30
96.637
 40
0.3
  1
96.637
 72
     2
 11
423229.853
 21
545590.406
 31
96.637
100
AcDbText
 73
     3
  0
TEXT
  5
99
330
1D
100
AcDbEntity
  8
Point_Code
  6
Solid_Line
 62
     5
100
AcDbText
 10
423230.053
 20
545590.406
 30
96.637
 40
0.3
  1
Verge Top
 11
423230.053
 21
545590.406
 31
96.637
100
AcDbText
 73
     3
  0
POINT
  5
9A
330
1D
100
AcDbEntity
  8
0
  6
Solid_Line
 62
     0
100
AcDbPoint
 10
423225.272
 20
545591.075
 30
96.471
  0
TEXT
  5
9B
330
1D
100
AcDbEntity
  8
Point_ID
  6
Solid_Line
 62
     1
100
AcDbText
 10
423225.372
 20
545591.175
 30
96.471
 40
0.3
  1
11.3
100
AcDbText
  0
TEXT
  5
9C
330
1D
100
AcDbEntity
  8
Height
  6
Solid_Line
 62
     4
100
AcDbText
 10
423225.172
 20
545590.975
 30
96.471
 40
0.3
  1
96.471
 72
     2
 11
423225.172
 21
545590.975
 31
96.471
100
AcDbText
 73
     3
  0
TEXT
  5
9D
330
1D
100
AcDbEntity
  8
Point_Code
  6
Solid_Line
 62
     5
100
AcDbText
 10
423225.372
 20
545590.975
 30
96.471
 40
0.3
  1
Verge Top
 11
423225.372
 21
545590.975
 31
96.471
100
AcDbText
 73
     3
  0
POINT
  5
9E
330
1D
100
AcDbEntity
  8
0
  6
Solid_Line
 62
     0
100
AcDbPoint
 10
423219.33
 20
545591.618
 30
96.373
  0
TEXT
  5
9F
330
1D
100
AcDbEntity
  8
Point_ID
  6
Solid_Line
 62
     1
100
AcDbText
 10
423219.43
 20
545591.718
 30
96.373
 40
0.3
  1
11.2
100
AcDbText
  0
TEXT
  5
A0
330
1D
100
AcDbEntity
  8
Height
  6
Solid_Line
 62
     4
100
AcDbText
 10
423219.23
 20
545591.518
 30
96.373
 40
0.3
  1
96.373
 72
     2
 11
423219.23
 21
545591.518
 31
96.373
100
AcDbText
 73
     3
  0
TEXT
  5
A1
330
1D
100
AcDbEntity
  8
Point_Code
  6
Solid_Line
 62
     5
100
AcDbText
 10
423219.43
 20
545591.518
 30
96.373
 40
0.3
  1
Verge Top
 11
423219.43
 21
545591.518
 31
96.373
100
AcDbText
 73
     3
  0
POINT
  5
A2
330
1D
100
AcDbEntity
  8
0
  6
Solid_Line
 62
     0
100
AcDbPoint
 10
423214.938
 20
545591.972
 30
96.262
  0
TEXT
  5
A3
330
1D
100
AcDbEntity
  8
Point_ID
  6
Solid_Line
 62
     1
100
AcDbText
 10
423215.038
 20
545592.072
 30
96.262
 40
0.3
  1
11.1
100
AcDbText
  0
TEXT
  5
A4
330
1D
100
AcDbEntity
  8
Height
  6
Solid_Line
 62
     4
100
AcDbText
 10
423214.838
 20
545591.872
 30
96.262
 40
0.3
  1
96.262
 72
     2
 11
423214.838
 21
545591.872
 31
96.262
100
AcDbText
 73
     3
  0
TEXT
  5
A5
330
1D
100
AcDbEntity
  8
Point_Code
  6
Solid_Line
 62
     5
100
AcDbText
 10
423215.038
 20
545591.872
 30
96.262
 40
0.3
  1
Verge Top
 11
423215.038
 21
545591.872
 31
96.262
100
AcDbText
 73
     3
  0
POINT
  5
A6
330
1D
100
AcDbEntity
  8
0
  6
Solid_Line
 62
     0
100
AcDbPoint
 10
423161.008
 20
545621.298
 30
95.471
  0
TEXT
  5
A7
330
1D
100
AcDbEntity
  8
Point_ID
  6
Solid_Line
 62
     1
100
AcDbText
 10
423161.108
 20
545621.398
 30
95.471
 40
0.3
  1
10.27
100
AcDbText
  0
TEXT
  5
A8
330
1D
100
AcDbEntity
  8
Height
  6
Solid_Line
 62
     4
100
AcDbText
 10
423160.908
 20
545621.198
 30
95.471
 40
0.3
  1
95.471
 72
     2
 11
423160.908
 21
545621.198
 31
95.471
100
AcDbText
 73
     3
  0
TEXT
  5
A9
330
1D
100
AcDbEntity
  8
Point_Code
  6
Solid_Line
 62
     5
100
AcDbText
 10
423161.108
 20
545621.198
 30
95.471
 40
0.3
  1
Verge Bottom
 11
423161.108
 21
545621.198
 31
95.471
100
AcDbText
 73
     3
  0
POINT
  5
AA
330
1D
100
AcDbEntity
  8
0
  6
Solid_Line
 62
     0
100
AcDbPoint
 10
423165.601
 20
545616.497
 30
95.263
  0
TEXT
  5
AB
330
1D
100
AcDbEntity
  8
Point_ID
  6
Solid_Line
 62
     1
100
AcDbText
 10
423165.701
 20
545616.597
 30
95.263
 40
0.3
  1
10.26
100
AcDbText
  0
TEXT
  5
AC
330
1D
100
AcDbEntity
  8
Height
  6
Solid_Line
 62
     4
100
AcDbText
 10
423165.501
 20
545616.397
 30
95.263
 40
0.3
  1
95.263
 72
     2
 11
423165.501
 21
545616.397
 31
95.263
100
AcDbText
 73
     3
  0
TEXT
  5
AD
330
1D
100
AcDbEntity
  8
Point_Code
  6
Solid_Line
 62
     5
100
AcDbText
 10
423165.701
 20
545616.397
 30
95.263
 40
0.3
  1
Verge Bottom
 11
423165.701
 21
545616.397
 31
95.263
100
AcDbText
 73
     3
  0
POINT
  5
AE
330
1D
100
AcDbEntity
  8
0
  6
Solid_Line
 62
     0
100
AcDbPoint
 10
423170.002
 20
545611.995
 30
95.047
  0
TEXT
  5
AF
330
1D
100
AcDbEntity
  8
Point_ID
  6
Solid_Line
 62
     1
100
AcDbText
 10
423170.102
 20
545612.095
 30
95.047
 40
0.3
  1
10.25
100
AcDbText
  0
TEXT
  5
B0
330
1D
100
AcDbEntity
  8
Height
  6
Solid_Line
 62
     4
100
AcDbText
 10
423169.902
 20
545611.895
 30
95.047
 40
0.3
  1
95.047
 72
     2
 11
423169.902
 21
545611.895
 31
95.047
100
AcDbText
 73
     3
  0
TEXT
  5
B1
330
1D
100
AcDbEntity
  8
Point_Code
  6
Solid_Line
 62
     5
100
AcDbText
 10
423170.102
 20
545611.895
 30
95.047
 40
0.3
  1
Verge Bottom
 11
423170.102
 21
545611.895
 31
95.047
100
AcDbText
 73
     3
  0
POINT
  5
B2
330
1D
100
AcDbEntity
  8
0
  6
Solid_Line
 62
     0
100
AcDbPoint
 10
423174.711
 20
545607.63
 30
94.293
  0
TEXT
  5
B3
330
1D
100
AcDbEntity
  8
Point_ID
  6
Solid_Line
 62
     1
100
AcDbText
 10
423174.811
 20
545607.73
 30
94.293
 40
0.3
  1
10.24
100
AcDbText
  0
TEXT
  5
B4
330
1D
100
AcDbEntity
  8
Height
  6
Solid_Line
 62
     4
100
AcDbText
 10
423174.611
 20
545607.53
 30
94.293
 40
0.3
  1
94.293
 72
     2
 11
423174.611
 21
545607.53
 31
94.293
100
AcDbText
 73
     3
  0
TEXT
  5
B5
330
1D
100
AcDbEntity
  8
Point_Code
  6
Solid_Line
 62
     5
100
AcDbText
 10
423174.811
 20
545607.53
 30
94.293
 40
0.3
  1
Verge Bottom
 11
423174.811
 21
545607.53
 31
94.293
100
AcDbText
 73
     3
  0
POINT
  5
B6
330
1D
100
AcDbEntity
  8
0
  6
Solid_Line
 62
     0
100
AcDbPoint
 10
423178.8290000001
 20
545603.796
 30
94.311
  0
TEXT
  5
B7
330
1D
100
AcDbEntity
  8
Point_ID
  6
Solid_Line
 62
     1
100
AcDbText
 10
423178.929
 20
545603.896
 30
94.311
 40
0.3
  1
10.23
100
AcDbText
  0
TEXT
  5
B8
330
1D
100
AcDbEntity
  8
Height
  6
Solid_Line
 62
     4
100
AcDbText
 10
423178.729
 20
545603.696
 30
94.311
 40
0.3
  1
94.311
 72
     2
 11
423178.729
 21
545603.696
 31
94.311
100
AcDbText
 73
     3
  0
TEXT
  5
B9
330
1D
100
AcDbEntity
  8
Point_Code
  6
Solid_Line
 62
     5
100
AcDbText
 10
423178.929
 20
545603.696
 30
94.311
 40
0.3
  1
Verge Bottom
 11
423178.929
 21
545603.696
 31
94.311
100
AcDbText
 73
     3
  0
POINT
  5
BA
330
1D
100
AcDbEntity
  8
0
  6
Solid_Line
 62
     0
100
AcDbPoint
 10
423182.07
 20
545600.654
 30
94.644
  0
TEXT
  5
BB
330
1D
100
AcDbEntity
  8
Point_ID
  6
Solid_Line
 62
     1
100
AcDbText
 10
423182.17
 20
545600.754
 30
94.644
 40
0.3
  1
10.22
100
AcDbText
  0
TEXT
  5
BC
330
1D
100
AcDbEntity
  8
Height
  6
Solid_Line
 62
     4
100
AcDbText
 10
423181.97
 20
545600.554
 30
94.644
 40
0.3
  1
94.644
 72
     2
 11
423181.97
 21
545600.554
 31
94.644
100
AcDbText
 73
     3
  0
TEXT
  5
BD
330
1D
100
AcDbEntity
  8
Point_Code
  6
Solid_Line
 62
     5
100
AcDbText
 10
423182.17
 20
545600.554
 30
94.644
 40
0.3
  1
Verge Bottom
 11
423182.17
 21
545600.554
 31
94.644
100
AcDbText
 73
     3
  0
POINT
  5
BE
330
1D
100
AcDbEntity
  8
0
  6
Solid_Line
 62
     0
100
AcDbPoint
 10
423180.556
 20
545599.097
 30
94.526
  0
TEXT
  5
BF
330
1D
100
AcDbEntity
  8
Point_ID
  6
Solid_Line
 62
     1
100
AcDbText
 10
423180.656
 20
545599.197
 30
94.526
 40
0.3
  1
10.21
100
AcDbText
  0
TEXT
  5
C0
330
1D
100
AcDbEntity
  8
Height
  6
Solid_Line
 62
     4
100
AcDbText
 10
423180.456
 20
545598.997
 30
94.526
 40
0.3
  1
94.526
 72
     2
 11
423180.456
 21
545598.997
 31
94.526
100
AcDbText
 73
     3
  0
TEXT
  5
C1
330
1D
100
AcDbEntity
  8
Point_Code
  6
Solid_Line
 62
     5
100
AcDbText
 10
423180.656
 20
545598.997
 30
94.526
 40
0.3
  1
Verge Bottom
 11
423180.656
 21
545598.997
 31
94.526
100
AcDbText
 73
     3
  0
POINT
  5
C2
330
1D
100
AcDbEntity
  8
0
  6
Solid_Line
 62
     0
100
AcDbPoint
 10
423178.009
 20
545601.64
 30
94.376
  0
TEXT
  5
C3
330
1D
100
AcDbEntity
  8
Point_ID
  6
Solid_Line
 62
     1
100
AcDbText
 10
423178.109
 20
545601.74
 30
94.376
 40
0.3
  1
10.20
100
AcDbText
  0
TEXT
  5
C4
330
1D
100
AcDbEntity
  8
Height
  6
Solid_Line
 62
     4
100
AcDbText
 10
423177.909
 20
545601.54
 30
94.376
 40
0.3
  1
94.376
 72
     2
 11
423177.909
 21
545601.54
 31
94.376
100
AcDbText
 73
     3
  0
TEXT
  5
C5
330
1D
100
AcDbEntity
  8
Point_Code
  6
Solid_Line
 62
     5
100
AcDbText
 10
423178.109
 20
545601.54
 30
94.376
 40
0.3
  1
Verge Bottom
 11
423178.109
 21
545601.54
 31
94.376
100
AcDbText
 73
     3
  0
POINT
  5
C6
330
1D
100
AcDbEntity
  8
0
  6
Solid_Line
 62
     0
100
AcDbPoint
 10
423174.55
 20
545604.758
 30
94.427
  0
TEXT
  5
C7
330
1D
100
AcDbEntity
  8
Point_ID
  6
Solid_Line
 62
     1
100
AcDbText
 10
423174.65
 20
545604.858
 30
94.427
 40
0.3
  1
10.19
100
AcDbText
  0
TEXT
  5
C8
330
1D
100
AcDbEntity
  8
Height
  6
Solid_Line
 62
     4
100
AcDbText
 10
423174.45
 20
545604.658
 30
94.427
 40
0.3
  1
94.427
 72
     2
 11
423174.45
 21
545604.658
 31
94.427
100
AcDbText
 73
     3
  0
TEXT
  5
C9
330
1D
100
AcDbEntity
  8
Point_Code
  6
Solid_Line
 62
     5
100
AcDbText
 10
423174.65
 20
545604.658
 30
94.427
 40
0.3
  1
Verge Bottom
 11
423174.65
 21
545604.658
 31
94.427
100
AcDbText
 73
     3
  0
POINT
  5
CA
330
1D
100
AcDbEntity
  8
0
  6
Solid_Line
 62
     0
100
AcDbPoint
 10
423170.258
 20
545609.085
 30
94.589
  0
TEXT
  5
CB
330
1D
100
AcDbEntity
  8
Point_ID
  6
Solid_Line
 62
     1
100
AcDbText
 10
423170.358
 20
545609.185
 30
94.589
 40
0.3
  1
10.18
100
AcDbText
  0
TEXT
  5
CC
330
1D
100
AcDbEntity
  8
Height
  6
Solid_Line
 62
     4
100
AcDbText
 10
423170.158
 20
545608.985
 30
94.589
 40
0.3
  1
94.589
 72
     2
 11
423170.158
 21
545608.985
 31
94.589
100
AcDbText
 73
     3
  0
TEXT
  5
CD
330
1D
100
AcDbEntity
  8
Point_Code
  6
Solid_Line
 62
     5
100
AcDbText
 10
423170.358
 20
545608.985
 30
94.589
 40
0.3
  1
Verge Bottom
 11
423170.358
 21
545608.985
 31
94.589
100
AcDbText
 73
     3
  0
POINT
  5
CE
330
1D
100
AcDbEntity
  8
0
  6
Solid_Line
 62
     0
100
AcDbPoint
 10
423166.331
 20
545612.919
 30
95.121
  0
TEXT
  5
CF
330
1D
100
AcDbEntity
  8
Point_ID
  6
Solid_Line
 62
     1
100
AcDbText
 10
423166.431
 20
545613.019
 30
95.121
 40
0.3
  1
10.17
100
AcDbText
  0
TEXT
  5
D0
330
1D
100
AcDbEntity
  8
Height
  6
Solid_Line
 62
     4
100
AcDbText
 10
423166.2310000001
 20
545612.819
 30
95.121
 40
0.3
  1
95.121
 72
     2
 11
423166.2310000001
 21
545612.819
 31
95.121
100
AcDbText
 73
     3
  0
TEXT
  5
D1
330
1D
100
AcDbEntity
  8
Point_Code
  6
Solid_Line
 62
     5
100
AcDbText
 10
423166.431
 20
545612.819
 30
95.121
 40
0.3
  1
Verge Bottom
 11
423166.431
 21
545612.819
 31
95.121
100
AcDbText
 73
     3
  0
POINT
  5
D2
330
1D
100
AcDbEntity
  8
0
  6
Solid_Line
 62
     0
100
AcDbPoint
 10
423161.034
 20
545618.516
 30
95.123
  0
TEXT
  5
D3
330
1D
100
AcDbEntity
  8
Point_ID
  6
Solid_Line
 62
     1
100
AcDbText
 10
423161.134
 20
545618.616
 30
95.123
 40
0.3
  1
10.16
100
AcDbText
  0
TEXT
  5
D4
330
1D
100
AcDbEntity
  8
Height
  6
Solid_Line
 62
     4
100
AcDbText
 10
423160.934
 20
545618.416
 30
95.123
 40
0.3
  1
95.123
 72
     2
 11
423160.934
 21
545618.416
 31
95.123
100
AcDbText
 73
     3
  0
TEXT
  5
D5
330
1D
100
AcDbEntity
  8
Point_Code
  6
Solid_Line
 62
     5
100
AcDbText
 10
423161.134
 20
545618.416
 30
95.123
 40
0.3
  1
Verge Bottom
 11
423161.134
 21
545618.416
 31
95.123
100
AcDbText
 73
     3
  0
POINT
  5
D6
330
1D
100
AcDbEntity
  8
0
  6
Solid_Line
 62
     0
100
AcDbPoint
 10
423159.641
 20
545619.906
 30
95.237
  0
TEXT
  5
D7
330
1D
100
AcDbEntity
  8
Point_ID
  6
Solid_Line
 62
     1
100
AcDbText
 10
423159.741
 20
545620.006
 30
95.237
 40
0.3
  1
10.15
100
AcDbText
  0
TEXT
  5
D8
330
1D
100
AcDbEntity
  8
Height
  6
Solid_Line
 62
     4
100
AcDbText
 10
423159.5410000001
 20
545619.806
 30
95.237
 40
0.3
  1
95.237
 72
     2
 11
423159.5410000001
 21
545619.806
 31
95.237
100
AcDbText
 73
     3
  0
TEXT
  5
D9
330
1D
100
AcDbEntity
  8
Point_Code
  6
Solid_Line
 62
     5
100
AcDbText
 10
423159.741
 20
545619.806
 30
95.237
 40
0.3
  1
Verge Bottom
 11
423159.741
 21
545619.806
 31
95.237
100
AcDbText
 73
     3
  0
POINT
  5
DA
330
1D
100
AcDbEntity
  8
0
  6
Solid_Line
 62
     0
100
AcDbPoint
 10
423159.309
 20
545620.098
 30
95.721
  0
TEXT
  5
DB
330
1D
100
AcDbEntity
  8
Point_ID
  6
Solid_Line
 62
     1
100
AcDbText
 10
423159.409
 20
545620.198
 30
95.721
 40
0.3
  1
10.14
100
AcDbText
  0
TEXT
  5
DC
330
1D
100
AcDbEntity
  8
Height
  6
Solid_Line
 62
     4
100
AcDbText
 10
423159.209
 20
545619.998
 30
95.721
 40
0.3
  1
95.721
 72
     2
 11
423159.209
 21
545619.998
 31
95.721
100
AcDbText
 73
     3
  0
TEXT
  5
DD
330
1D
100
AcDbEntity
  8
Point_Code
  6
Solid_Line
 62
     5
100
AcDbText
 10
423159.409
 20
545619.998
 30
95.721
 40
0.3
  1
Verge Top
 11
423159.409
 21
545619.998
 31
95.721
100
AcDbText
 73
     3
  0
POINT
  5
DE
330
1D
100
AcDbEntity
  8
0
  6
Solid_Line
 62
     0
100
AcDbPoint
 10
423164.522
 20
545614.627
 30
95.785
  0
TEXT
  5
DF
330
1D
100
AcDbEntity
  8
Point_ID
  6
Solid_Line
 62
     1
100
AcDbText
 10
423164.622
 20
545614.727
 30
95.785
 40
0.3
  1
10.13
100
AcDbText
  0
TEXT
  5
E0
330
1D
100
AcDbEntity
  8
Height
  6
Solid_Line
 62
     4
100
AcDbText
 10
423164.422
 20
545614.527
 30
95.785
 40
0.3
  1
95.785
 72
     2
 11
423164.422
 21
545614.527
 31
95.785
100
AcDbText
 73
     3
  0
TEXT
  5
E1
330
1D
100
AcDbEntity
  8
Point_Code
  6
Solid_Line
 62
     5
100
AcDbText
 10
423164.622
 20
545614.527
 30
95.785
 40
0.3
  1
Verge Top
 11
423164.622
 21
545614.527
 31
95.785
100
AcDbText
 73
     3
  0
POINT
  5
E2
330
1D
100
AcDbEntity
  8
0
  6
Solid_Line
 62
     0
100
AcDbPoint
 10
423169.988
 20
545609.209
 30
95.267
  0
TEXT
  5
E3
330
1D
100
AcDbEntity
  8
Point_ID
  6
Solid_Line
 62
     1
100
AcDbText
 10
423170.088
 20
545609.309
 30
95.267
 40
0.3
  1
10.12
100
AcDbText
  0
TEXT
  5
E4
330
1D
100
AcDbEntity
  8
Height
  6
Solid_Line
 62
     4
100
AcDbText
 10
423169.888
 20
545609.109
 30
95.267
 40
0.3
  1
95.267
 72
     2
 11
423169.888
 21
545609.109
 31
95.267
100
AcDbText
 73
     3
  0
TEXT
  5
E5
330
1D
100
AcDbEntity
  8
Point_Code
  6
Solid_Line
 62
     5
100
AcDbText
 10
423170.088
 20
545609.109
 30
95.267
 40
0.3
  1
Verge Top
 11
423170.088
 21
545609.109
 31
95.267
100
AcDbText
 73
     3
  0
POINT
  5
E6
330
1D
100
AcDbEntity
  8
0
  6
Solid_Line
 62
     0
100
AcDbPoint
 10
423174.271
 20
545604.978
 30
94.766
  0
TEXT
  5
E7
330
1D
100
AcDbEntity
  8
Point_ID
  6
Solid_Line
 62
     1
100
AcDbText
 10
423174.371
 20
545605.078
 30
94.766
 40
0.3
  1
10.11
100
AcDbText
  0
TEXT
  5
E8
330
1D
100
AcDbEntity
  8
Height
  6
Solid_Line
 62
     4
100
AcDbText
 10
423174.171
 20
545604.878
 30
94.766
 40
0.3
  1
94.766
 72
     2
 11
423174.171
 21
545604.878
 31
94.766
100
AcDbText
 73
     3
  0
TEXT
  5
E9
330
1D
100
AcDbEntity
  8
Point_Code
  6
Solid_Line
 62
     5
100
AcDbText
 10
423174.371
 20
545604.878
 30
94.766
 40
0.3
  1
Verge Top
 11
423174.371
 21
545604.878
 31
94.766
100
AcDbText
 73
     3
  0
POINT
  5
EA
330
1D
100
AcDbEntity
  8
0
  6
Solid_Line
 62
     0
100
AcDbPoint
 10
423178.304
 20
545601.294
 30
94.869
  0
TEXT
  5
EB
330
1D
100
AcDbEntity
  8
Point_ID
  6
Solid_Line
 62
     1
100
AcDbText
 10
423178.404
 20
545601.394
 30
94.869
 40
0.3
  1
10.10
100
AcDbText
  0
TEXT
  5
EC
330
1D
100
AcDbEntity
  8
Height
  6
Solid_Line
 62
     4
100
AcDbText
 10
423178.2040000001
 20
545601.194
 30
94.869
 40
0.3
  1
94.869
 72
     2
 11
423178.2040000001
 21
545601.194
 31
94.869
100
AcDbText
 73
     3
  0
TEXT
  5
ED
330
1D
100
AcDbEntity
  8
Point_Code
  6
Solid_Line
 62
     5
100
AcDbText
 10
423178.404
 20
545601.194
 30
94.869
 40
0.3
  1
Verge Top
 11
423178.404
 21
545601.194
 31
94.869
100
AcDbText
 73
     3
  0
POINT
  5
EE
330
1D
100
AcDbEntity
  8
0
  6
Solid_Line
 62
     0
100
AcDbPoint
 10
423180.8020000001
 20
545598.766
 30
94.973
  0
TEXT
  5
EF
330
1D
100
AcDbEntity
  8
Point_ID
  6
Solid_Line
 62
     1
100
AcDbText
 10
423180.902
 20
545598.866
 30
94.973
 40
0.3
  1
10.9
100
AcDbText
  0
TEXT
  5
F0
330
1D
100
AcDbEntity
  8
Height
  6
Solid_Line
 62
     4
100
AcDbText
 10
423180.702
 20
545598.666
 30
94.973
 40
0.3
  1
94.973
 72
     2
 11
423180.702
 21
545598.666
 31
94.973
100
AcDbText
 73
     3
  0
TEXT
  5
F1
330
1D
100
AcDbEntity
  8
Point_Code
  6
Solid_Line
 62
     5
100
AcDbText
 10
423180.902
 20
545598.666
 30
94.973
 40
0.3
  1
Verge Top
 11
423180.902
 21
545598.666
 31
94.973
100
AcDbText
 73
     3
  0
POINT
  5
F2
330
1D
100
AcDbEntity
  8
0
  6
Solid_Line
 62
     0
100
AcDbPoint
 10
423182.333
 20
545600.532
 30
95.077
  0
TEXT
  5
F3
330
1D
100
AcDbEntity
  8
Point_ID
  6
Solid_Line
 62
     1
100
AcDbText
 10
423182.433
 20
545600.632
 30
95.077
 40
0.3
  1
10.6
100
AcDbText
  0
TEXT
  5
F4
330
1D
100
AcDbEntity
  8
Height
  6
Solid_Line
 62
     4
100
AcDbText
 10
423182.233
 20
545600.432
 30
95.077
 40
0.3
  1
95.077
 72
     2
 11
423182.233
 21
545600.432
 31
95.077
100
AcDbText
 73
     3
  0
TEXT
  5
F5
330
1D
100
AcDbEntity
  8
Point_Code
  6
Solid_Line
 62
     5
100
AcDbText
 10
423182.433
 20
545600.432
 30
95.077
 40
0.3
  1
Verge Top
 11
423182.433
 21
545600.432
 31
95.077
100
AcDbText
 73
     3
  0
POINT
  5
F6
330
1D
100
AcDbEntity
  8
0
  6
Solid_Line
 62
     0
100
AcDbPoint
 10
423175.23
 20
545607.239
 30
95.02
  0
TEXT
  5
F7
330
1D
100
AcDbEntity
  8
Point_ID
  6
Solid_Line
 62
     1
100
AcDbText
 10
423175.33
 20
545607.339
 30
95.02
 40
0.3
  1
10.5
100
AcDbText
  0
TEXT
  5
F8
330
1D
100
AcDbEntity
  8
Height
  6
Solid_Line
 62
     4
100
AcDbText
 10
423175.13
 20
545607.139
 30
95.02
 40
0.3
  1
95.020
 72
     2
 11
423175.13
 21
545607.139
 31
95.02
100
AcDbText
 73
     3
  0
TEXT
  5
F9
330
1D
100
AcDbEntity
  8
Point_Code
  6
Solid_Line
 62
     5
100
AcDbText
 10
423175.33
 20
545607.139
 30
95.02
 40
0.3
  1
Verge Top
 11
423175.33
 21
545607.139
 31
95.02
100
AcDbText
 73
     3
  0
POINT
  5
FA
330
1D
100
AcDbEntity
  8
0
  6
Solid_Line
 62
     0
100
AcDbPoint
 10
423171.045
 20
545611.242
 30
95.582
  0
TEXT
  5
FB
330
1D
100
AcDbEntity
  8
Point_ID
  6
Solid_Line
 62
     1
100
AcDbText
 10
423171.145
 20
545611.342
 30
95.582
 40
0.3
  1
10.4
100
AcDbText
  0
TEXT
  5
FC
330
1D
100
AcDbEntity
  8
Height
  6
Solid_Line
 62
     4
100
AcDbText
 10
423170.945
 20
545611.142
 30
95.582
 40
0.3
  1
95.582
 72
     2
 11
423170.945
 21
545611.142
 31
95.582
100
AcDbText
 73
     3
  0
TEXT
  5
FD
330
1D
100
AcDbEntity
  8
Point_Code
  6
Solid_Line
 62
     5
100
AcDbText
 10
423171.145
 20
545611.142
 30
95.582
 40
0.3
  1
Verge Top
 11
423171.145
 21
545611.142
 31
95.582
100
AcDbText
 73
     3
  0
POINT
  5
FE
330
1D
100
AcDbEntity
  8
0
  6
Solid_Line
 62
     0
100
AcDbPoint
 10
423166.644
 20
545615.637
 30
95.933
  0
TEXT
  5
FF
330
1D
100
AcDbEntity
  8
Point_ID
  6
Solid_Line
 62
     1
100
AcDbText
 10
423166.744
 20
545615.737
 30
95.933
 40
0.3
  1
10.3
100
AcDbText
  0
TEXT
  5
100
330
1D
100
AcDbEntity
  8
Height
  6
Solid_Line
 62
     4
100
AcDbText
 10
423166.544
 20
545615.537
 30
95.933
 40
0.3
  1
95.933
 72
     2
 11
423166.544
 21
545615.537
 31
95.933
100
AcDbText
 73
     3
  0
TEXT
  5
101
330
1D
100
AcDbEntity
  8
Point_Code
  6
Solid_Line
 62
     5
100
AcDbText
 10
423166.744
 20
545615.537
 30
95.933
 40
0.3
  1
Verge Top
 11
423166.744
 21
545615.537
 31
95.933
100
AcDbText
 73
     3
  0
POINT
  5
102
330
1D
100
AcDbEntity
  8
0
  6
Solid_Line
 62
     0
100
AcDbPoint
 10
423162.424
 20
545620.099
 30
96.043
  0
TEXT
  5
103
330
1D
100
AcDbEntity
  8
Point_ID
  6
Solid_Line
 62
     1
100
AcDbText
 10
423162.524
 20
545620.199
 30
96.043
 40
0.3
  1
10.2
100
AcDbText
  0
TEXT
  5
104
330
1D
100
AcDbEntity
  8
Height
  6
Solid_Line
 62
     4
100
AcDbText
 10
423162.324
 20
545619.999
 30
96.043
 40
0.3
  1
96.043
 72
     2
 11
423162.324
 21
545619.999
 31
96.043
100
AcDbText
 73
     3
  0
TEXT
  5
105
330
1D
100
AcDbEntity
  8
Point_Code
  6
Solid_Line
 62
     5
100
AcDbText
 10
423162.524
 20
545619.999
 30
96.043
 40
0.3
  1
Verge Top
 11
423162.524
 21
545619.999
 31
96.043
100
AcDbText
 73
     3
  0
POINT
  5
106
330
1D
100
AcDbEntity
  8
0
  6
Solid_Line
 62
     0
100
AcDbPoint
 10
423160.917
 20
545621.55
 30
95.993
  0
TEXT
  5
107
330
1D
100
AcDbEntity
  8
Point_ID
  6
Solid_Line
 62
     1
100
AcDbText
 10
423161.017
 20
545621.65
 30
95.993
 40
0.3
  1
10.1
100
AcDbText
  0
TEXT
  5
108
330
1D
100
AcDbEntity
  8
Height
  6
Solid_Line
 62
     4
100
AcDbText
 10
423160.817
 20
545621.45
 30
95.993
 40
0.3
  1
95.993
 72
     2
 11
423160.817
 21
545621.45
 31
95.993
100
AcDbText
 73
     3
  0
TEXT
  5
109
330
1D
100
AcDbEntity
  8
Point_Code
  6
Solid_Line
 62
     5
100
AcDbText
 10
423161.017
 20
545621.45
 30
95.993
 40
0.3
  1
Verge Top
 11
423161.017
 21
545621.45
 31
95.993
100
AcDbText
 73
     3
  0
POINT
  5
10A
330
1D
100
AcDbEntity
  8
0
  6
Solid_Line
 62
     0
100
AcDbPoint
 10
423153.459
 20
545637.501
 30
96.318
  0
TEXT
  5
10B
330
1D
100
AcDbEntity
  8
Point_ID
  6
Solid_Line
 62
     1
100
AcDbText
 10
423153.559
 20
545637.601
 30
96.318
 40
0.3
  1
9.24
100
AcDbText
  0
TEXT
  5
10C
330
1D
100
AcDbEntity
  8
Height
  6
Solid_Line
 62
     4
100
AcDbText
 10
423153.359
 20
545637.401
 30
96.318
 40
0.3
  1
96.318
 72
     2
 11
423153.359
 21
545637.401
 31
96.318
100
AcDbText
 73
     3
  0
TEXT
  5
10D
330
1D
100
AcDbEntity
  8
Point_Code
  6
Solid_Line
 62
     5
100
AcDbText
 10
423153.559
 20
545637.401
 30
96.318
 40
0.3
  1
Verge Bottom
 11
423153.559
 21
545637.401
 31
96.318
100
AcDbText
 73
     3
  0
POINT
  5
10E
330
1D
100
AcDbEntity
  8
0
  6
Solid_Line
 62
     0
100
AcDbPoint
 10
423153.635
 20
545640.762
 30
96.436
  0
TEXT
  5
10F
330
1D
100
AcDbEntity
  8
Point_ID
  6
Solid_Line
 62
     1
100
AcDbText
 10
423153.735
 20
545640.862
 30
96.436
 40
0.3
  1
9.23
100
AcDbText
  0
TEXT
  5
110
330
1D
100
AcDbEntity
  8
Height
  6
Solid_Line
 62
     4
100
AcDbText
 10
423153.535
 20
545640.662
 30
96.436
 40
0.3
  1
96.436
 72
     2
 11
423153.535
 21
545640.662
 31
96.436
100
AcDbText
 73
     3
  0
TEXT
  5
111
330
1D
100
AcDbEntity
  8
Point_Code
  6
Solid_Line
 62
     5
100
AcDbText
 10
423153.735
 20
545640.662
 30
96.436
 40
0.3
  1
Verge Bottom
 11
423153.735
 21
545640.662
 31
96.436
100
AcDbText
 73
     3
  0
POINT
  5
112
330
1D
100
AcDbEntity
  8
0
  6
Solid_Line
 62
     0
100
AcDbPoint
 10
423153.793
 20
545646.079
 30
97.189
  0
TEXT
  5
113
330
1D
100
AcDbEntity
  8
Point_ID
  6
Solid_Line
 62
     1
100
AcDbText
 10
423153.893
 20
545646.179
 30
97.189
 40
0.3
  1
9.22
100
AcDbText
  0
TEXT
  5
114
330
1D
100
AcDbEntity
  8
Height
  6
Solid_Line
 62
     4
100
AcDbText
 10
423153.6930000001
 20
545645.979
 30
97.189
 40
0.3
  1
97.189
 72
     2
 11
423153.6930000001
 21
545645.979
 31
97.189
100
AcDbText
 73
     3
  0
TEXT
  5
115
330
1D
100
AcDbEntity
  8
Point_Code
  6
Solid_Line
 62
     5
100
AcDbText
 10
423153.893
 20
545645.979
 30
97.189
 40
0.3
  1
Verge Bottom
 11
423153.893
 21
545645.979
 31
97.189
100
AcDbText
 73
     3
  0
POINT
  5
116
330
1D
100
AcDbEntity
  8
0
  6
Solid_Line
 62
     0
100
AcDbPoint
 10
423154.1660000001
 20
545653.218
 30
97.468
  0
TEXT
  5
117
330
1D
100
AcDbEntity
  8
Point_ID
  6
Solid_Line
 62
     1
100
AcDbText
 10
423154.266
 20
545653.318
 30
97.468
 40
0.3
  1
9.21
100
AcDbText
  0
TEXT
  5
118
330
1D
100
AcDbEntity
  8
Height
  6
Solid_Line
 62
     4
100
AcDbText
 10
423154.066
 20
545653.118
 30
97.468
 40
0.3
  1
97.468
 72
     2
 11
423154.066
 21
545653.118
 31
97.468
100
AcDbText
 73
     3
  0
TEXT
  5
119
330
1D
100
AcDbEntity
  8
Point_Code
  6
Solid_Line
 62
     5
100
AcDbText
 10
423154.266
 20
545653.118
 30
97.468
 40
0.3
  1
Verge Bottom
 11
423154.266
 21
545653.118
 31
97.468
100
AcDbText
 73
     3
  0
POINT
  5
11A
330
1D
100
AcDbEntity
  8
0
  6
Solid_Line
 62
     0
100
AcDbPoint
 10
423154.668
 20
545661.343
 30
97.938
  0
TEXT
  5
11B
330
1D
100
AcDbEntity
  8
Point_ID
  6
Solid_Line
 62
     1
100
AcDbText
 10
423154.768
 20
545661.443
 30
97.938
 40
0.3
  1
9.20
100
AcDbText
  0
TEXT
  5
11C
330
1D
100
AcDbEntity
  8
Height
  6
Solid_Line
 62
     4
100
AcDbText
 10
423154.5680000001
 20
545661.243
 30
97.938
 40
0.3
  1
97.938
 72
     2
 11
423154.5680000001
 21
545661.243
 31
97.938
100
AcDbText
 73
     3
  0
TEXT
  5
11D
330
1D
100
AcDbEntity
  8
Point_Code
  6
Solid_Line
 62
     5
100
AcDbText
 10
423154.768
 20
545661.243
 30
97.938
 40
0.3
  1
Verge Bottom
 11
423154.768
 21
545661.243
 31
97.938
100
AcDbText
 73
     3
  0
POINT
  5
11E
330
1D
100
AcDbEntity
  8
0
  6
Solid_Line
 62
     0
100
AcDbPoint
 10
423154.993
 20
545667.046
 30
98.412
  0
TEXT
  5
11F
330
1D
100
AcDbEntity
  8
Point_ID
  6
Solid_Line
 62
     1
100
AcDbText
 10
423155.093
 20
545667.146
 30
98.412
 40
0.3
  1
9.19
100
AcDbText
  0
TEXT
  5
120
330
1D
100
AcDbEntity
  8
Height
  6
Solid_Line
 62
     4
100
AcDbText
 10
423154.893
 20
545666.946
 30
98.412
 40
0.3
  1
98.412
 72
     2
 11
423154.893
 21
545666.946
 31
98.412
100
AcDbText
 73
     3
  0
TEXT
  5
121
330
1D
100
AcDbEntity
  8
Point_Code
  6
Solid_Line
 62
     5
100
AcDbText
 10
423155.093
 20
545666.946
 30
98.412
 40
0.3
  1
Verge Bottom
 11
423155.093
 21
545666.946
 31
98.412
100
AcDbText
 73
     3
  0
POINT
  5
122
330
1D
100
AcDbEntity
  8
0
  6
Solid_Line
 62
     0
100
AcDbPoint
 10
423152.976
 20
545667.328
 30
98.427
  0
TEXT
  5
123
330
1D
100
AcDbEntity
  8
Point_ID
  6
Solid_Line
 62
     1
100
AcDbText
 10
423153.076
 20
545667.428
 30
98.427
 40
0.3
  1
9.18
100
AcDbText
  0
TEXT
  5
124
330
1D
100
AcDbEntity
  8
Height
  6
Solid_Line
 62
     4
100
AcDbText
 10
423152.876
 20
545667.228
 30
98.427
 40
0.3
  1
98.427
 72
     2
 11
423152.876
 21
545667.228
 31
98.427
100
AcDbText
 73
     3
  0
TEXT
  5
125
330
1D
100
AcDbEntity
  8
Point_Code
  6
Solid_Line
 62
     5
100
AcDbText
 10
423153.076
 20
545667.228
 30
98.427
 40
0.3
  1
Verge Bottom
 11
423153.076
 21
545667.228
 31
98.427
100
AcDbText
 73
     3
  0
POINT
  5
126
330
1D
100
AcDbEntity
  8
0
  6
Solid_Line
 62
     0
100
AcDbPoint
 10
423152.467
 20
545657.137
 30
97.504
  0
TEXT
  5
127
330
1D
100
AcDbEntity
  8
Point_ID
  6
Solid_Line
 62
     1
100
AcDbText
 10
423152.567
 20
545657.237
 30
97.504
 40
0.3
  1
9.17
100
AcDbText
  0
TEXT
  5
128
330
1D
100
AcDbEntity
  8
Height
  6
Solid_Line
 62
     4
100
AcDbText
 10
423152.3670000001
 20
545657.037
 30
97.504
 40
0.3
  1
97.504
 72
     2
 11
423152.3670000001
 21
545657.037
 31
97.504
100
AcDbText
 73
     3
  0
TEXT
  5
129
330
1D
100
AcDbEntity
  8
Point_Code
  6
Solid_Line
 62
     5
100
AcDbText
 10
423152.567
 20
545657.037
 30
97.504
 40
0.3
  1
Verge Bottom
 11
423152.567
 21
545657.037
 31
97.504
100
AcDbText
 73
     3
  0
POINT
  5
12A
330
1D
100
AcDbEntity
  8
0
  6
Solid_Line
 62
     0
100
AcDbPoint
 10
423151.833
 20
545649.294
 30
97.249
  0
TEXT
  5
12B
330
1D
100
AcDbEntity
  8
Point_ID
  6
Solid_Line
 62
     1
100
AcDbText
 10
423151.933
 20
545649.394
 30
97.249
 40
0.3
  1
9.16
100
AcDbText
  0
TEXT
  5
12C
330
1D
100
AcDbEntity
  8
Height
  6
Solid_Line
 62
     4
100
AcDbText
 10
423151.733
 20
545649.194
 30
97.249
 40
0.3
  1
97.249
 72
     2
 11
423151.733
 21
545649.194
 31
97.249
100
AcDbText
 73
     3
  0
TEXT
  5
12D
330
1D
100
AcDbEntity
  8
Point_Code
  6
Solid_Line
 62
     5
100
AcDbText
 10
423151.933
 20
545649.194
 30
97.249
 40
0.3
  1
Verge Bottom
 11
423151.933
 21
545649.194
 31
97.249
100
AcDbText
 73
     3
  0
POINT
  5
12E
330
1D
100
AcDbEntity
  8
0
  6
Solid_Line
 62
     0
100
AcDbPoint
 10
423151.6280000001
 20
545644.058
 30
97.053
  0
TEXT
  5
12F
330
1D
100
AcDbEntity
  8
Point_ID
  6
Solid_Line
 62
     1
100
AcDbText
 10
423151.728
 20
545644.158
 30
97.053
 40
0.3
  1
9.15
100
AcDbText
  0
TEXT
  5
130
330
1D
100
AcDbEntity
  8
Height
  6
Solid_Line
 62
     4
100
AcDbText
 10
423151.528
 20
545643.958
 30
97.053
 40
0.3
  1
97.053
 72
     2
 11
423151.528
 21
545643.958
 31
97.053
100
AcDbText
 73
     3
  0
TEXT
  5
131
330
1D
100
AcDbEntity
  8
Point_Code
  6
Solid_Line
 62
     5
100
AcDbText
 10
423151.728
 20
545643.958
 30
97.053
 40
0.3
  1
Verge Bottom
 11
423151.728
 21
545643.958
 31
97.053
100
AcDbText
 73
     3
  0
POINT
  5
132
330
1D
100
AcDbEntity
  8
0
  6
Solid_Line
 62
     0
100
AcDbPoint
 10
423151.517
 20
545641.179
 30
96.442
  0
TEXT
  5
133
330
1D
100
AcDbEntity
  8
Point_ID
  6
Solid_Line
 62
     1
100
AcDbText
 10
423151.6170000001
 20
545641.279
 30
96.442
 40
0.3
  1
9.14
100
AcDbText
  0
TEXT
  5
134
330
1D
100
AcDbEntity
  8
Height
  6
Solid_Line
 62
     4
100
AcDbText
 10
423151.417
 20
545641.079
 30
96.442
 40
0.3
  1
96.442
 72
     2
 11
423151.417
 21
545641.079
 31
96.442
100
AcDbText
 73
     3
  0
TEXT
  5
135
330
1D
100
AcDbEntity
  8
Point_Code
  6
Solid_Line
 62
     5
100
AcDbText
 10
423151.6170000001
 20
545641.079
 30
96.442
 40
0.3
  1
Verge Bottom
 11
423151.6170000001
 21
545641.079
 31
96.442
100
AcDbText
 73
     3
  0
POINT
  5
136
330
1D
100
AcDbEntity
  8
0
  6
Solid_Line
 62
     0
100
AcDbPoint
 10
423151.197
 20
545637.561
 30
96.357
  0
TEXT
  5
137
330
1D
100
AcDbEntity
  8
Point_ID
  6
Solid_Line
 62
     1
100
AcDbText
 10
423151.297
 20
545637.661
 30
96.357
 40
0.3
  1
9.13
100
AcDbText
  0
TEXT
  5
138
330
1D
100
AcDbEntity
  8
Height
  6
Solid_Line
 62
     4
100
AcDbText
 10
423151.097
 20
545637.461
 30
96.357
 40
0.3
  1
96.357
 72
     2
 11
423151.097
 21
545637.461
 31
96.357
100
AcDbText
 73
     3
  0
TEXT
  5
139
330
1D
100
AcDbEntity
  8
Point_Code
  6
Solid_Line
 62
     5
100
AcDbText
 10
423151.297
 20
545637.461
 30
96.357
 40
0.3
  1
Verge Bottom
 11
423151.297
 21
545637.461
 31
96.357
100
AcDbText
 73
     3
  0
POINT
  5
13A
330
1D
100
AcDbEntity
  8
0
  6
Solid_Line
 62
     0
100
AcDbPoint
 10
423151.266
 20
545636.949
 30
97.106
  0
TEXT
  5
13B
330
1D
100
AcDbEntity
  8
Point_ID
  6
Solid_Line
 62
     1
100
AcDbText
 10
423151.366
 20
545637.049
 30
97.106
 40
0.3
  1
9.12
100
AcDbText
  0
TEXT
  5
13C
330
1D
100
AcDbEntity
  8
Height
  6
Solid_Line
 62
     4
100
AcDbText
 10
423151.1660000001
 20
545636.849
 30
97.106
 40
0.3
  1
97.106
 72
     2
 11
423151.1660000001
 21
545636.849
 31
97.106
100
AcDbText
 73
     3
  0
TEXT
  5
13D
330
1D
100
AcDbEntity
  8
Point_Code
  6
Solid_Line
 62
     5
100
AcDbText
 10
423151.366
 20
545636.849
 30
97.106
 40
0.3
  1
Verge Top
 11
423151.366
 21
545636.849
 31
97.106
100
AcDbText
 73
     3
  0
POINT
  5
13E
330
1D
100
AcDbEntity
  8
0
  6
Solid_Line
 62
     0
100
AcDbPoint
 10
423151.33
 20
545640.908
 30
97.52
  0
TEXT
  5
13F
330
1D
100
AcDbEntity
  8
Point_ID
  6
Solid_Line
 62
     1
100
AcDbText
 10
423151.43
 20
545641.008
 30
97.52
 40
0.3
  1
9.11
100
AcDbText
  0
TEXT
  5
140
330
1D
100
AcDbEntity
  8
Height
  6
Solid_Line
 62
     4
100
AcDbText
 10
423151.23
 20
545640.808
 30
97.52
 40
0.3
  1
97.520
 72
     2
 11
423151.23
 21
545640.808
 31
97.52
100
AcDbText
 73
     3
  0
TEXT
  5
141
330
1D
100
AcDbEntity
  8
Point_Code
  6
Solid_Line
 62
     5
100
AcDbText
 10
423151.43
 20
545640.808
 30
97.52
 40
0.3
  1
Verge Top
 11
423151.43
 21
545640.808
 31
97.52
100
AcDbText
 73
     3
  0
POINT
  5
142
330
1D
100
AcDbEntity
  8
0
  6
Solid_Line
 62
     0
100
AcDbPoint
 10
423151.615
 20
545647.9
 30
97.95
  0
TEXT
  5
143
330
1D
100
AcDbEntity
  8
Point_ID
  6
Solid_Line
 62
     1
100
AcDbText
 10
423151.7150000001
 20
545648.0
 30
97.95
 40
0.3
  1
9.10
100
AcDbText
  0
TEXT
  5
144
330
1D
100
AcDbEntity
  8
Height
  6
Solid_Line
 62
     4
100
AcDbText
 10
423151.515
 20
545647.8
 30
97.95
 40
0.3
  1
97.950
 72
     2
 11
423151.515
 21
545647.8
 31
97.95
100
AcDbText
 73
     3
  0
TEXT
  5
145
330
1D
100
AcDbEntity
  8
Point_Code
  6
Solid_Line
 62
     5
100
AcDbText
 10
423151.7150000001
 20
545647.8
 30
97.95
 40
0.3
  1
Verge Top
 11
423151.7150000001
 21
545647.8
 31
97.95
100
AcDbText
 73
     3
  0
POINT
  5
146
330
1D
100
AcDbEntity
  8
0
  6
Solid_Line
 62
     0
100
AcDbPoint
 10
423152.198
 20
545655.304
 30
98.401
  0
TEXT
  5
147
330
1D
100
AcDbEntity
  8
Point_ID
  6
Solid_Line
 62
     1
100
AcDbText
 10
423152.298
 20
545655.404
 30
98.401
 40
0.3
  1
9.9
100
AcDbText
  0
TEXT
  5
148
330
1D
100
AcDbEntity
  8
Height
  6
Solid_Line
 62
     4
100
AcDbText
 10
423152.098
 20
545655.204
 30
98.401
 40
0.3
  1
98.401
 72
     2
 11
423152.098
 21
545655.204
 31
98.401
100
AcDbText
 73
     3
  0
TEXT
  5
149
330
1D
100
AcDbEntity
  8
Point_Code
  6
Solid_Line
 62
     5
100
AcDbText
 10
423152.298
 20
545655.204
 30
98.401
 40
0.3
  1
Verge Top
 11
423152.298
 21
545655.204
 31
98.401
100
AcDbText
 73
     3
  0
POINT
  5
14A
330
1D
100
AcDbEntity
  8
0
  6
Solid_Line
 62
     0
100
AcDbPoint
 10
423152.482
 20
545659.539
 30
98.685
  0
TEXT
  5
14B
330
1D
100
AcDbEntity
  8
Point_ID
  6
Solid_Line
 62
     1
100
AcDbText
 10
423152.582
 20
545659.639
 30
98.685
 40
0.3
  1
9.8
100
AcDbText
  0
TEXT
  5
14C
330
1D
100
AcDbEntity
  8
Height
  6
Solid_Line
 62
     4
100
AcDbText
 10
423152.382
 20
545659.439
 30
98.685
 40
0.3
  1
98.685
 72
     2
 11
423152.382
 21
545659.439
 31
98.685
100
AcDbText
 73
     3
  0
TEXT
  5
14D
330
1D
100
AcDbEntity
  8
Point_Code
  6
Solid_Line
 62
     5
100
AcDbText
 10
423152.582
 20
545659.439
 30
98.685
 40
0.3
  1
Verge Top
 11
423152.582
 21
545659.439
 31
98.685
100
AcDbText
 73
     3
  0
POINT
  5
14E
330
1D
100
AcDbEntity
  8
0
  6
Solid_Line
 62
     0
100
AcDbPoint
 10
423153.008
 20
545667.486
 30
99.359
  0
TEXT
  5
14F
330
1D
100
AcDbEntity
  8
Point_ID
  6
Solid_Line
 62
     1
100
AcDbText
 10
423153.108
 20
545667.586
 30
99.359
 40
0.3
  1
9.7
100
AcDbText
  0
TEXT
  5
150
330
1D
100
AcDbEntity
  8
Height
  6
Solid_Line
 62
     4
100
AcDbText
 10
423152.908
 20
545667.386
 30
99.359
 40
0.3
  1
99.359
 72
     2
 11
423152.908
 21
545667.386
 31
99.359
100
AcDbText
 73
     3
  0
TEXT
  5
151
330
1D
100
AcDbEntity
  8
Point_Code
  6
Solid_Line
 62
     5
100
AcDbText
 10
423153.108
 20
545667.386
 30
99.359
 40
0.3
  1
Verge Top
 11
423153.108
 21
545667.386
 31
99.359
100
AcDbText
 73
     3
  0
POINT
  5
152
330
1D
100
AcDbEntity
  8
0
  6
Solid_Line
 62
     0
100
AcDbPoint
 10
423155.1280000001
 20
545667.715
 30
99.491
  0
TEXT
  5
153
330
1D
100
AcDbEntity
  8
Point_ID
  6
Solid_Line
 62
     1
100
AcDbText
 10
423155.228
 20
545667.815
 30
99.491
 40
0.3
  1
9.6
100
AcDbText
  0
TEXT
  5
154
330
1D
100
AcDbEntity
  8
Height
  6
Solid_Line
 62
     4
100
AcDbText
 10
423155.028
 20
545667.615
 30
99.491
 40
0.3
  1
99.491
 72
     2
 11
423155.028
 21
545667.615
 31
99.491
100
AcDbText
 73
     3
  0
TEXT
  5
155
330
1D
100
AcDbEntity
  8
Point_Code
  6
Solid_Line
 62
     5
100
AcDbText
 10
423155.228
 20
545667.615
 30
99.491
 40
0.3
  1
Verge Top
 11
423155.228
 21
545667.615
 31
99.491
100
AcDbText
 73
     3
  0
POINT
  5
156
330
1D
100
AcDbEntity
  8
0
  6
Solid_Line
 62
     0
100
AcDbPoint
 10
423154.857
 20
545660.945
 30
99.023
  0
TEXT
  5
157
330
1D
100
AcDbEntity
  8
Point_ID
  6
Solid_Line
 62
     1
100
AcDbText
 10
423154.957
 20
545661.045
 30
99.023
 40
0.3
  1
9.5
100
AcDbText
  0
TEXT
  5
158
330
1D
100
AcDbEntity
  8
Height
  6
Solid_Line
 62
     4
100
AcDbText
 10
423154.757
 20
545660.845
 30
99.023
 40
0.3
  1
99.023
 72
     2
 11
423154.757
 21
545660.845
 31
99.023
100
AcDbText
 73
     3
  0
TEXT
  5
159
330
1D
100
AcDbEntity
  8
Point_Code
  6
Solid_Line
 62
     5
100
AcDbText
 10
423154.957
 20
545660.845
 30
99.023
 40
0.3
  1
Verge Top
 11
423154.957
 21
545660.845
 31
99.023
100
AcDbText
 73
     3
  0
POINT
  5
15A
330
1D
100
AcDbEntity
  8
0
  6
Solid_Line
 62
     0
100
AcDbPoint
 10
423154.489
 20
545654.585
 30
98.518
  0
TEXT
  5
15B
330
1D
100
AcDbEntity
  8
Point_ID
  6
Solid_Line
 62
     1
100
AcDbText
 10
423154.589
 20
545654.685
 30
98.518
 40
0.3
  1
9.4
100
AcDbText
  0
TEXT
  5
15C
330
1D
100
AcDbEntity
  8
Height
  6
Solid_Line
 62
     4
100
AcDbText
 10
423154.389
 20
545654.485
 30
98.518
 40
0.3
  1
98.518
 72
     2
 11
423154.389
 21
545654.485
 31
98.518
100
AcDbText
 73
     3
  0
TEXT
  5
15D
330
1D
100
AcDbEntity
  8
Point_Code
  6
Solid_Line
 62
     5
100
AcDbText
 10
423154.589
 20
545654.485
 30
98.518
 40
0.3
  1
Verge Top
 11
423154.589
 21
545654.485
 31
98.518
100
AcDbText
 73
     3
  0
POINT
  5
15E
330
1D
100
AcDbEntity
  8
0
  6
Solid_Line
 62
     0
100
AcDbPoint
 10
423154.261
 20
545647.766
 30
98.064
  0
TEXT
  5
15F
330
1D
100
AcDbEntity
  8
Point_ID
  6
Solid_Line
 62
     1
100
AcDbText
 10
423154.361
 20
545647.866
 30
98.064
 40
0.3
  1
9.3
100
AcDbText
  0
TEXT
  5
160
330
1D
100
AcDbEntity
  8
Height
  6
Solid_Line
 62
     4
100
AcDbText
 10
423154.161
 20
545647.666
 30
98.064
 40
0.3
  1
98.064
 72
     2
 11
423154.161
 21
545647.666
 31
98.064
100
AcDbText
 73
     3
  0
TEXT
  5
161
330
1D
100
AcDbEntity
  8
Point_Code
  6
Solid_Line
 62
     5
100
AcDbText
 10
423154.361
 20
545647.666
 30
98.064
 40
0.3
  1
Verge Top
 11
423154.361
 21
545647.666
 31
98.064
100
AcDbText
 73
     3
  0
POINT
  5
162
330
1D
100
AcDbEntity
  8
0
  6
Solid_Line
 62
     0
100
AcDbPoint
 10
423153.912
 20
545641.82
 30
97.722
  0
TEXT
  5
163
330
1D
100
AcDbEntity
  8
Point_ID
  6
Solid_Line
 62
     1
100
AcDbText
 10
423154.012
 20
545641.92
 30
97.722
 40
0.3
  1
9.2
100
AcDbText
  0
TEXT
  5
164
330
1D
100
AcDbEntity
  8
Height
  6
Solid_Line
 62
     4
100
AcDbText
 10
423153.812
 20
545641.72
 30
97.722
 40
0.3
  1
97.722
 72
     2
 11
423153.812
 21
545641.72
 31
97.722
100
AcDbText
 73
     3
  0
TEXT
  5
165
330
1D
100
AcDbEntity
  8
Point_Code
  6
Solid_Line
 62
     5
100
AcDbText
 10
423154.012
 20
545641.72
 30
97.722
 40
0.3
  1
Verge Top
 11
423154.012
 21
545641.72
 31
97.722
100
AcDbText
 73
     3
  0
POINT
  5
166
330
1D
100
AcDbEntity
  8
0
  6
Solid_Line
 62
     0
100
AcDbPoint
 10
423153.478
 20
545636.94
 30
97.144
  0
TEXT
  5
167
330
1D
100
AcDbEntity
  8
Point_ID
  6
Solid_Line
 62
     1
100
AcDbText
 10
423153.578
 20
545637.04
 30
97.144
 40
0.3
  1
9.1
100
AcDbText
  0
TEXT
  5
168
330
1D
100
AcDbEntity
  8
Height
  6
Solid_Line
 62
     4
100
AcDbText
 10
423153.3780000001
 20
545636.84
 30
97.144
 40
0.3
  1
97.144
 72
     2
 11
423153.3780000001
 21
545636.84
 31
97.144
100
AcDbText
 73
     3
  0
TEXT
  5
169
330
1D
100
AcDbEntity
  8
Point_Code
  6
Solid_Line
 62
     5
100
AcDbText
 10
423153.578
 20
545636.84
 30
97.144
 40
0.3
  1
Verge Top
 11
423153.578
 21
545636.84
 31
97.144
100
AcDbText
 73
     3
  0
POINT
  5
16A
330
1D
100
AcDbEntity
  8
0
  6
Solid_Line
 62
     0
100
AcDbPoint
 10
423129.4270000001
 20
545595.886
 30
94.362
  0
TEXT
  5
16B
330
1D
100
AcDbEntity
  8
Point_ID
  6
Solid_Line
 62
     1
100
AcDbText
 10
423129.527
 20
545595.986
 30
94.362
 40
0.3
  1
8.25
100
AcDbText
  0
TEXT
  5
16C
330
1D
100
AcDbEntity
  8
Height
  6
Solid_Line
 62
     4
100
AcDbText
 10
423129.327
 20
545595.786
 30
94.362
 40
0.3
  1
94.362
 72
     2
 11
423129.327
 21
545595.786
 31
94.362
100
AcDbText
 73
     3
  0
TEXT
  5
16D
330
1D
100
AcDbEntity
  8
Point_Code
  6
Solid_Line
 62
     5
100
AcDbText
 10
423129.527
 20
545595.786
 30
94.362
 40
0.3
  1
Verge Bottom
 11
423129.527
 21
545595.786
 31
94.362
100
AcDbText
 73
     3
  0
POINT
  5
16E
330
1D
100
AcDbEntity
  8
0
  6
Solid_Line
 62
     0
100
AcDbPoint
 10
423129.766
 20
545602.851
 30
94.435
  0
TEXT
  5
16F
330
1D
100
AcDbEntity
  8
Point_ID
  6
Solid_Line
 62
     1
100
AcDbText
 10
423129.866
 20
545602.951
 30
94.435
 40
0.3
  1
8.24
100
AcDbText
  0
TEXT
  5
170
330
1D
100
AcDbEntity
  8
Height
  6
Solid_Line
 62
     4
100
AcDbText
 10
423129.6660000001
 20
545602.751
 30
94.435
 40
0.3
  1
94.435
 72
     2
 11
423129.6660000001
 21
545602.751
 31
94.435
100
AcDbText
 73
     3
  0
TEXT
  5
171
330
1D
100
AcDbEntity
  8
Point_Code
  6
Solid_Line
 62
     5
100
AcDbText
 10
423129.866
 20
545602.751
 30
94.435
 40
0.3
  1
Verge Bottom
 11
423129.866
 21
545602.751
 31
94.435
100
AcDbText
 73
     3
  0
POINT
  5
172
330
1D
100
AcDbEntity
  8
0
  6
Solid_Line
 62
     0
100
AcDbPoint
 10
423129.774
 20
545602.839
 30
94.426
  0
TEXT
  5
173
330
1D
100
AcDbEntity
  8
Point_ID
  6
Solid_Line
 62
     1
100
AcDbText
 10
423129.874
 20
545602.939
 30
94.426
 40
0.3
  1
8.23
100
AcDbText
  0
TEXT
  5
174
330
1D
100
AcDbEntity
  8
Height
  6
Solid_Line
 62
     4
100
AcDbText
 10
423129.674
 20
545602.739
 30
94.426
 40
0.3
  1
94.426
 72
     2
 11
423129.674
 21
545602.739
 31
94.426
100
AcDbText
 73
     3
  0
TEXT
  5
175
330
1D
100
AcDbEntity
  8
Point_Code
  6
Solid_Line
 62
     5
100
AcDbText
 10
423129.874
 20
545602.739
 30
94.426
 40
0.3
  1
Verge Bottom
 11
423129.874
 21
545602.739
 31
94.426
100
AcDbText
 73
     3
  0
POINT
  5
176
330
1D
100
AcDbEntity
  8
0
  6
Solid_Line
 62
     0
100
AcDbPoint
 10
423130.4
 20
545611.61
 30
94.848
  0
TEXT
  5
177
330
1D
100
AcDbEntity
  8
Point_ID
  6
Solid_Line
 62
     1
100
AcDbText
 10
423130.5
 20
545611.71
 30
94.848
 40
0.3
  1
8.22
100
AcDbText
  0
TEXT
  5
178
330
1D
100
AcDbEntity
  8
Height
  6
Solid_Line
 62
     4
100
AcDbText
 10
423130.3
 20
545611.51
 30
94.848
 40
0.3
  1
94.848
 72
     2
 11
423130.3
 21
545611.51
 31
94.848
100
AcDbText
 73
     3
  0
TEXT
  5
179
330
1D
100
AcDbEntity
  8
Point_Code
  6
Solid_Line
 62
     5
100
AcDbText
 10
423130.5
 20
545611.51
 30
94.848
 40
0.3
  1
Verge Bottom
 11
423130.5
 21
545611.51
 31
94.848
100
AcDbText
 73
     3
  0
POINT
  5
17A
330
1D
100
AcDbEntity
  8
0
  6
Solid_Line
 62
     0
100
AcDbPoint
 10
423130.814
 20
545619.598
 30
95.173
  0
TEXT
  5
17B
330
1D
100
AcDbEntity
  8
Point_ID
  6
Solid_Line
 62
     1
100
AcDbText
 10
423130.914
 20
545619.698
 30
95.173
 40
0.3
  1
8.21
100
AcDbText
  0
TEXT
  5
17C
330
1D
100
AcDbEntity
  8
Height
  6
Solid_Line
 62
     4
100
AcDbText
 10
423130.714
 20
545619.498
 30
95.173
 40
0.3
  1
95.173
 72
     2
 11
423130.714
 21
545619.498
 31
95.173
100
AcDbText
 73
     3
  0
TEXT
  5
17D
330
1D
100
AcDbEntity
  8
Point_Code
  6
Solid_Line
 62
     5
100
AcDbText
 10
423130.914
 20
545619.498
 30
95.173
 40
0.3
  1
Verge Bottom
 11
423130.914
 21
545619.498
 31
95.173
100
AcDbText
 73
     3
  0
POINT
  5
17E
330
1D
100
AcDbEntity
  8
0
  6
Solid_Line
 62
     0
100
AcDbPoint
 10
423130.789
 20
545625.802
 30
95.674
  0
TEXT
  5
17F
330
1D
100
AcDbEntity
  8
Point_ID
  6
Solid_Line
 62
     1
100
AcDbText
 10
423130.889
 20
545625.902
 30
95.674
 40
0.3
  1
8.20
100
AcDbText
  0
TEXT
  5
180
330
1D
100
AcDbEntity
  8
Height
  6
Solid_Line
 62
     4
100
AcDbText
 10
423130.689
 20
545625.702
 30
95.674
 40
0.3
  1
95.674
 72
     2
 11
423130.689
 21
545625.702
 31
95.674
100
AcDbText
 73
     3
  0
TEXT
  5
181
330
1D
100
AcDbEntity
  8
Point_Code
  6
Solid_Line
 62
     5
100
AcDbText
 10
423130.889
 20
545625.702
 30
95.674
 40
0.3
  1
Verge Bottom
 11
423130.889
 21
545625.702
 31
95.674
100
AcDbText
 73
     3
  0
POINT
  5
182
330
1D
100
AcDbEntity
  8
0
  6
Solid_Line
 62
     0
100
AcDbPoint
 10
423128.733
 20
545625.667
 30
95.476
  0
TEXT
  5
183
330
1D
100
AcDbEntity
  8
Point_ID
  6
Solid_Line
 62
     1
100
AcDbText
 10
423128.833
 20
545625.767
 30
95.476
 40
0.3
  1
8.19
100
AcDbText
  0
TEXT
  5
184
330
1D
100
AcDbEntity
  8
Height
  6
Solid_Line
 62
     4
100
AcDbText
 10
423128.633
 20
545625.567
 30
95.476
 40
0.3
  1
95.476
 72
     2
 11
423128.633
 21
545625.567
 31
95.476
100
AcDbText
 73
     3
  0
TEXT
  5
185
330
1D
100
AcDbEntity
  8
Point_Code
  6
Solid_Line
 62
     5
100
AcDbText
 10
423128.833
 20
545625.567
 30
95.476
 40
0.3
  1
Verge Bottom
 11
423128.833
 21
545625.567
 31
95.476
100
AcDbText
 73
     3
  0
POINT
  5
186
330
1D
100
AcDbEntity
  8
0
  6
Solid_Line
 62
     0
100
AcDbPoint
 10
423128.685
 20
545620.969
 30
95.231
  0
TEXT
  5
187
330
1D
100
AcDbEntity
  8
Point_ID
  6
Solid_Line
 62
     1
100
AcDbText
 10
423128.785
 20
545621.069
 30
95.231
 40
0.3
  1
8.18
100
AcDbText
  0
TEXT
  5
188
330
1D
100
AcDbEntity
  8
Height
  6
Solid_Line
 62
     4
100
AcDbText
 10
423128.585
 20
545620.869
 30
95.231
 40
0.3
  1
95.231
 72
     2
 11
423128.585
 21
545620.869
 31
95.231
100
AcDbText
 73
     3
  0
TEXT
  5
189
330
1D
100
AcDbEntity
  8
Point_Code
  6
Solid_Line
 62
     5
100
AcDbText
 10
423128.785
 20
545620.869
 30
95.231
 40
0.3
  1
Verge Bottom
 11
423128.785
 21
545620.869
 31
95.231
100
AcDbText
 73
     3
  0
POINT
  5
18A
330
1D
100
AcDbEntity
  8
0
  6
Solid_Line
 62
     0
100
AcDbPoint
 10
423128.619
 20
545614.862
 30
94.97
  0
TEXT
  5
18B
330
1D
100
AcDbEntity
  8
Point_ID
  6
Solid_Line
 62
     1
100
AcDbText
 10
423128.719
 20
545614.962
 30
94.97
 40
0.3
  1
8.17
100
AcDbText
  0
TEXT
  5
18C
330
1D
100
AcDbEntity
  8
Height
  6
Solid_Line
 62
     4
100
AcDbText
 10
423128.519
 20
545614.762
 30
94.97
 40
0.3
  1
94.970
 72
     2
 11
423128.519
 21
545614.762
 31
94.97
100
AcDbText
 73
     3
  0
TEXT
  5
18D
330
1D
100
AcDbEntity
  8
Point_Code
  6
Solid_Line
 62
     5
100
AcDbText
 10
423128.719
 20
545614.762
 30
94.97
 40
0.3
  1
Verge Bottom
 11
423128.719
 21
545614.762
 31
94.97
100
AcDbText
 73
     3
  0
POINT
  5
18E
330
1D
100
AcDbEntity
  8
0
  6
Solid_Line
 62
     0
100
AcDbPoint
 10
423128.227
 20
545608.36
 30
94.61
  0
TEXT
  5
18F
330
1D
100
AcDbEntity
  8
Point_ID
  6
Solid_Line
 62
     1
100
AcDbText
 10
423128.327
 20
545608.46
 30
94.61
 40
0.3
  1
8.16
100
AcDbText
  0
TEXT
  5
190
330
1D
100
AcDbEntity
  8
Height
  6
Solid_Line
 62
     4
100
AcDbText
 10
423128.127
 20
545608.26
 30
94.61
 40
0.3
  1
94.610
 72
     2
 11
423128.127
 21
545608.26
 31
94.61
100
AcDbText
 73
     3
  0
TEXT
  5
191
330
1D
100
AcDbEntity
  8
Point_Code
  6
Solid_Line
 62
     5
100
AcDbText
 10
423128.327
 20
545608.26
 30
94.61
 40
0.3
  1
Verge Bottom
 11
423128.327
 21
545608.26
 31
94.61
100
AcDbText
 73
     3
  0
POINT
  5
192
330
1D
100
AcDbEntity
  8
0
  6
Solid_Line
 62
     0
100
AcDbPoint
 10
423127.553
 20
545600.7
 30
94.38
  0
TEXT
  5
193
330
1D
100
AcDbEntity
  8
Point_ID
  6
Solid_Line
 62
     1
100
AcDbText
 10
423127.653
 20
545600.8
 30
94.38
 40
0.3
  1
8.15
100
AcDbText
  0
TEXT
  5
194
330
1D
100
AcDbEntity
  8
Height
  6
Solid_Line
 62
     4
100
AcDbText
 10
423127.453
 20
545600.6
 30
94.38
 40
0.3
  1
94.380
 72
     2
 11
423127.453
 21
545600.6
 31
94.38
100
AcDbText
 73
     3
  0
TEXT
  5
195
330
1D
100
AcDbEntity
  8
Point_Code
  6
Solid_Line
 62
     5
100
AcDbText
 10
423127.653
 20
545600.6
 30
94.38
 40
0.3
  1
Verge Bottom
 11
423127.653
 21
545600.6
 31
94.38
100
AcDbText
 73
     3
  0
POINT
  5
196
330
1D
100
AcDbEntity
  8
0
  6
Solid_Line
 62
     0
100
AcDbPoint
 10
423127.605
 20
545596.15
 30
94.088
  0
TEXT
  5
197
330
1D
100
AcDbEntity
  8
Point_ID
  6
Solid_Line
 62
     1
100
AcDbText
 10
423127.705
 20
545596.25
 30
94.088
 40
0.3
  1
8.14
100
AcDbText
  0
TEXT
  5
198
330
1D
100
AcDbEntity
  8
Height
  6
Solid_Line
 62
     4
100
AcDbText
 10
423127.505
 20
545596.05
 30
94.088
 40
0.3
  1
94.088
 72
     2
 11
423127.505
 21
545596.05
 31
94.088
100
AcDbText
 73
     3
  0
TEXT
  5
199
330
1D
100
AcDbEntity
  8
Point_Code
  6
Solid_Line
 62
     5
100
AcDbText
 10
423127.705
 20
545596.05
 30
94.088
 40
0.3
  1
Verge Bottom
 11
423127.705
 21
545596.05
 31
94.088
100
AcDbText
 73
     3
  0
POINT
  5
19A
330
1D
100
AcDbEntity
  8
0
  6
Solid_Line
 62
     0
100
AcDbPoint
 10
423127.1170000001
 20
545595.746
 30
94.869
  0
TEXT
  5
19B
330
1D
100
AcDbEntity
  8
Point_ID
  6
Solid_Line
 62
     1
100
AcDbText
 10
423127.217
 20
545595.846
 30
94.869
 40
0.3
  1
8.13
100
AcDbText
  0
TEXT
  5
19C
330
1D
100
AcDbEntity
  8
Height
  6
Solid_Line
 62
     4
100
AcDbText
 10
423127.017
 20
545595.646
 30
94.869
 40
0.3
  1
94.869
 72
     2
 11
423127.017
 21
545595.646
 31
94.869
100
AcDbText
 73
     3
  0
TEXT
  5
19D
330
1D
100
AcDbEntity
  8
Point_Code
  6
Solid_Line
 62
     5
100
AcDbText
 10
423127.217
 20
545595.646
 30
94.869
 40
0.3
  1
Verge Top
 11
423127.217
 21
545595.646
 31
94.869
100
AcDbText
 73
     3
  0
POINT
  5
19E
330
1D
100
AcDbEntity
  8
0
  6
Solid_Line
 62
     0
100
AcDbPoint
 10
423127.387
 20
545601.679
 30
95.067
  0
TEXT
  5
19F
330
1D
100
AcDbEntity
  8
Point_ID
  6
Solid_Line
 62
     1
100
AcDbText
 10
423127.487
 20
545601.779
 30
95.067
 40
0.3
  1
8.12
100
AcDbText
  0
TEXT
  5
1A0
330
1D
100
AcDbEntity
  8
Height
  6
Solid_Line
 62
     4
100
AcDbText
 10
423127.287
 20
545601.579
 30
95.067
 40
0.3
  1
95.067
 72
     2
 11
423127.287
 21
545601.579
 31
95.067
100
AcDbText
 73
     3
  0
TEXT
  5
1A1
330
1D
100
AcDbEntity
  8
Point_Code
  6
Solid_Line
 62
     5
100
AcDbText
 10
423127.487
 20
545601.579
 30
95.067
 40
0.3
  1
Verge Top
 11
423127.487
 21
545601.579
 31
95.067
100
AcDbText
 73
     3
  0
POINT
  5
1A2
330
1D
100
AcDbEntity
  8
0
  6
Solid_Line
 62
     0
100
AcDbPoint
 10
423127.902
 20
545606.338
 30
95.336
  0
TEXT
  5
1A3
330
1D
100
AcDbEntity
  8
Point_ID
  6
Solid_Line
 62
     1
100
AcDbText
 10
423128.002
 20
545606.438
 30
95.336
 40
0.3
  1
8.11
100
AcDbText
  0
TEXT
  5
1A4
330
1D
100
AcDbEntity
  8
Height
  6
Solid_Line
 62
     4
100
AcDbText
 10
423127.8020000001
 20
545606.238
 30
95.336
 40
0.3
  1
95.336
 72
     2
 11
423127.8020000001
 21
545606.238
 31
95.336
100
AcDbText
 73
     3
  0
TEXT
  5
1A5
330
1D
100
AcDbEntity
  8
Point_Code
  6
Solid_Line
 62
     5
100
AcDbText
 10
423128.002
 20
545606.238
 30
95.336
 40
0.3
  1
Verge Top
 11
423128.002
 21
545606.238
 31
95.336
100
AcDbText
 73
     3
  0
POINT
  5
1A6
330
1D
100
AcDbEntity
  8
0
  6
Solid_Line
 62
     0
100
AcDbPoint
 10
423128.202
 20
545613.177
 30
95.603
  0
TEXT
  5
1A7
330
1D
100
AcDbEntity
  8
Point_ID
  6
Solid_Line
 62
     1
100
AcDbText
 10
423128.3020000001
 20
545613.277
 30
95.603
 40
0.3
  1
8.10
100
AcDbText
  0
TEXT
  5
1A8
330
1D
100
AcDbEntity
  8
Height
  6
Solid_Line
 62
     4
100
AcDbText
 10
423128.102
 20
545613.077
 30
95.603
 40
0.3
  1
95.603
 72
     2
 11
423128.102
 21
545613.077
 31
95.603
100
AcDbText
 73
     3
  0
TEXT
  5
1A9
330
1D
100
AcDbEntity
  8
Point_Code
  6
Solid_Line
 62
     5
100
AcDbText
 10
423128.3020000001
 20
545613.077
 30
95.603
 40
0.3
  1
Verge Top
 11
423128.3020000001
 21
545613.077
 31
95.603
100
AcDbText
 73
     3
  0
POINT
  5
1AA
330
1D
100
AcDbEntity
  8
0
  6
Solid_Line
 62
     0
100
AcDbPoint
 10
423128.476
 20
545619.81
 30
95.679
  0
TEXT
  5
1AB
330
1D
100
AcDbEntity
  8
Point_ID
  6
Solid_Line
 62
     1
100
AcDbText
 10
423128.576
 20
545619.91
 30
95.679
 40
0.3
  1
8.9
100
AcDbText
  0
TEXT
  5
1AC
330
1D
100
AcDbEntity
  8
Height
  6
Solid_Line
 62
     4
100
AcDbText
 10
423128.376
 20
545619.71
 30
95.679
 40
0.3
  1
95.679
 72
     2
 11
423128.376
 21
545619.71
 31
95.679
100
AcDbText
 73
     3
  0
TEXT
  5
1AD
330
1D
100
AcDbEntity
  8
Point_Code
  6
Solid_Line
 62
     5
100
AcDbText
 10
423128.576
 20
545619.71
 30
95.679
 40
0.3
  1
Verge Top
 11
423128.576
 21
545619.71
 31
95.679
100
AcDbText
 73
     3
  0
POINT
  5
1AE
330
1D
100
AcDbEntity
  8
0
  6
Solid_Line
 62
     0
100
AcDbPoint
 10
423128.6550000001
 20
545625.791
 30
96.081
  0
TEXT
  5
1AF
330
1D
100
AcDbEntity
  8
Point_ID
  6
Solid_Line
 62
     1
100
AcDbText
 10
423128.755
 20
545625.891
 30
96.081
 40
0.3
  1
8.8
100
AcDbText
  0
TEXT
  5
1B0
330
1D
100
AcDbEntity
  8
Height
  6
Solid_Line
 62
     4
100
AcDbText
 10
423128.555
 20
545625.691
 30
96.081
 40
0.3
  1
96.081
 72
     2
 11
423128.555
 21
545625.691
 31
96.081
100
AcDbText
 73
     3
  0
TEXT
  5
1B1
330
1D
100
AcDbEntity
  8
Point_Code
  6
Solid_Line
 62
     5
100
AcDbText
 10
423128.755
 20
545625.691
 30
96.081
 40
0.3
  1
Verge Top
 11
423128.755
 21
545625.691
 31
96.081
100
AcDbText
 73
     3
  0
POINT
  5
1B2
330
1D
100
AcDbEntity
  8
0
  6
Solid_Line
 62
     0
100
AcDbPoint
 10
423130.896
 20
545626.183
 30
96.201
  0
TEXT
  5
1B3
330
1D
100
AcDbEntity
  8
Point_ID
  6
Solid_Line
 62
     1
100
AcDbText
 10
423130.996
 20
545626.283
 30
96.201
 40
0.3
  1
8.7
100
AcDbText
  0
TEXT
  5
1B4
330
1D
100
AcDbEntity
  8
Height
  6
Solid_Line
 62
     4
100
AcDbText
 10
423130.796
 20
545626.083
 30
96.201
 40
0.3
  1
96.201
 72
     2
 11
423130.796
 21
545626.083
 31
96.201
100
AcDbText
 73
     3
  0
TEXT
  5
1B5
330
1D
100
AcDbEntity
  8
Point_Code
  6
Solid_Line
 62
     5
100
AcDbText
 10
423130.996
 20
545626.083
 30
96.201
 40
0.3
  1
Verge Top
 11
423130.996
 21
545626.083
 31
96.201
100
AcDbText
 73
     3
  0
POINT
  5
1B6
330
1D
100
AcDbEntity
  8
0
  6
Solid_Line
 62
     0
100
AcDbPoint
 10
423131.198
 20
545621.791
 30
95.888
  0
TEXT
  5
1B7
330
1D
100
AcDbEntity
  8
Point_ID
  6
Solid_Line
 62
     1
100
AcDbText
 10
423131.298
 20
545621.891
 30
95.888
 40
0.3
  1
8.6
100
AcDbText
  0
TEXT
  5
1B8
330
1D
100
AcDbEntity
  8
Height
  6
Solid_Line
 62
     4
100
AcDbText
 10
423131.098
 20
545621.691
 30
95.888
 40
0.3
  1
95.888
 72
     2
 11
423131.098
 21
545621.691
 31
95.888
100
AcDbText
 73
     3
  0
TEXT
  5
1B9
330
1D
100
AcDbEntity
  8
Point_Code
  6
Solid_Line
 62
     5
100
AcDbText
 10
423131.298
 20
545621.691
 30
95.888
 40
0.3
  1
Verge Top
 11
423131.298
 21
545621.691
 31
95.888
100
AcDbText
 73
     3
  0
POINT
  5
1BA
330
1D
100
AcDbEntity
  8
0
  6
Solid_Line
 62
     0
100
AcDbPoint
 10
423130.845
 20
545616.476
 30
95.826
  0
TEXT
  5
1BB
330
1D
100
AcDbEntity
  8
Point_ID
  6
Solid_Line
 62
     1
100
AcDbText
 10
423130.945
 20
545616.576
 30
95.826
 40
0.3
  1
8.5
100
AcDbText
  0
TEXT
  5
1BC
330
1D
100
AcDbEntity
  8
Height
  6
Solid_Line
 62
     4
100
AcDbText
 10
423130.745
 20
545616.376
 30
95.826
 40
0.3
  1
95.826
 72
     2
 11
423130.745
 21
545616.376
 31
95.826
100
AcDbText
 73
     3
  0
TEXT
  5
1BD
330
1D
100
AcDbEntity
  8
Point_Code
  6
Solid_Line
 62
     5
100
AcDbText
 10
423130.945
 20
545616.376
 30
95.826
 40
0.3
  1
Verge Top
 11
423130.945
 21
545616.376
 31
95.826
100
AcDbText
 73
     3
  0
POINT
  5
1BE
330
1D
100
AcDbEntity
  8
0
  6
Solid_Line
 62
     0
100
AcDbPoint
 10
423130.424
 20
545608.82
 30
95.356
  0
TEXT
  5
1BF
330
1D
100
AcDbEntity
  8
Point_ID
  6
Solid_Line
 62
     1
100
AcDbText
 10
423130.524
 20
545608.92
 30
95.356
 40
0.3
  1
8.4
100
AcDbText
  0
TEXT
  5
1C0
330
1D
100
AcDbEntity
  8
Height
  6
Solid_Line
 62
     4
100
AcDbText
 10
423130.324
 20
545608.72
 30
95.356
 40
0.3
  1
95.356
 72
     2
 11
423130.324
 21
545608.72
 31
95.356
100
AcDbText
 73
     3
  0
TEXT
  5
1C1
330
1D
100
AcDbEntity
  8
Point_Code
  6
Solid_Line
 62
     5
100
AcDbText
 10
423130.524
 20
545608.72
 30
95.356
 40
0.3
  1
Verge Top
 11
423130.524
 21
545608.72
 31
95.356
100
AcDbText
 73
     3
  0
POINT
  5
1C2
330
1D
100
AcDbEntity
  8
0
  6
Solid_Line
 62
     0
100
AcDbPoint
 10
423129.939
 20
545602.515
 30
94.99
  0
TEXT
  5
1C3
330
1D
100
AcDbEntity
  8
Point_ID
  6
Solid_Line
 62
     1
100
AcDbText
 10
423130.039
 20
545602.615
 30
94.99
 40
0.3
  1
8.3
100
AcDbText
  0
TEXT
  5
1C4
330
1D
100
AcDbEntity
  8
Height
  6
Solid_Line
 62
     4
100
AcDbText
 10
423129.839
 20
545602.415
 30
94.99
 40
0.3
  1
94.990
 72
     2
 11
423129.839
 21
545602.415
 31
94.99
100
AcDbText
 73
     3
  0
TEXT
  5
1C5
330
1D
100
AcDbEntity
  8
Point_Code
  6
Solid_Line
 62
     5
100
AcDbText
 10
423130.039
 20
545602.415
 30
94.99
 40
0.3
  1
Verge Top
 11
423130.039
 21
545602.415
 31
94.99
100
AcDbText
 73
     3
  0
POINT
  5
1C6
330
1D
100
AcDbEntity
  8
0
  6
Solid_Line
 62
     0
100
AcDbPoint
 10
423129.711
 20
545598.799
 30
94.751
  0
TEXT
  5
1C7
330
1D
100
AcDbEntity
  8
Point_ID
  6
Solid_Line
 62
     1
100
AcDbText
 10
423129.811
 20
545598.899
 30
94.751
 40
0.3
  1
8.2
100
AcDbText
  0
TEXT
  5
1C8
330
1D
100
AcDbEntity
  8
Height
  6
Solid_Line
 62
     4
100
AcDbText
 10
423129.611
 20
545598.699
 30
94.751
 40
0.3
  1
94.751
 72
     2
 11
423129.611
 21
545598.699
 31
94.751
100
AcDbText
 73
     3
  0
TEXT
  5
1C9
330
1D
100
AcDbEntity
  8
Point_Code
  6
Solid_Line
 62
     5
100
AcDbText
 10
423129.811
 20
545598.699
 30
94.751
 40
0.3
  1
Verge Top
 11
423129.811
 21
545598.699
 31
94.751
100
AcDbText
 73
     3
  0
POINT
  5
1CA
330
1D
100
AcDbEntity
  8
0
  6
Solid_Line
 62
     0
100
AcDbPoint
 10
423129.498
 20
545595.529
 30
94.739
  0
TEXT
  5
1CB
330
1D
100
AcDbEntity
  8
Point_ID
  6
Solid_Line
 62
     1
100
AcDbText
 10
423129.598
 20
545595.629
 30
94.739
 40
0.3
  1
8.1
100
AcDbText
  0
TEXT
  5
1CC
330
1D
100
AcDbEntity
  8
Height
  6
Solid_Line
 62
     4
100
AcDbText
 10
423129.398
 20
545595.429
 30
94.739
 40
0.3
  1
94.739
 72
     2
 11
423129.398
 21
545595.429
 31
94.739
100
AcDbText
 73
     3
  0
TEXT
  5
1CD
330
1D
100
AcDbEntity
  8
Point_Code
  6
Solid_Line
 62
     5
100
AcDbText
 10
423129.598
 20
545595.429
 30
94.739
 40
0.3
  1
Verge Top
 11
423129.598
 21
545595.429
 31
94.739
100
AcDbText
 73
     3
  0
POINT
  5
1CE
330
1D
100
AcDbEntity
  8
0
  6
Solid_Line
 62
     0
100
AcDbPoint
 10
423114.372
 20
545610.532
 30
94.338
  0
TEXT
  5
1CF
330
1D
100
AcDbEntity
  8
Point_ID
  6
Solid_Line
 62
     1
100
AcDbText
 10
423114.472
 20
545610.632
 30
94.338
 40
0.3
  1
703.6
100
AcDbText
  0
TEXT
  5
1D0
330
1D
100
AcDbEntity
  8
Height
  6
Solid_Line
 62
     4
100
AcDbText
 10
423114.272
 20
545610.432
 30
94.338
 40
0.3
  1
94.338
 72
     2
 11
423114.272
 21
545610.432
 31
94.338
100
AcDbText
 73
     3
  0
TEXT
  5
1D1
330
1D
100
AcDbEntity
  8
Point_Code
  6
Solid_Line
 62
     5
100
AcDbText
 10
423114.472
 20
545610.432
 30
94.338
 40
0.3
  1
WA
 11
423114.472
 21
545610.432
 31
94.338
100
AcDbText
 73
     3
  0
TEXT
  5
1D2
330
1D
100
AcDbEntity
  8
Attribute
  6
Solid_Line
 62
     5
100
AcDbText
 10
423114.472
 20
545609.932
 30
94.338
 40
0.3
  1
6
 11
423114.472
 21
545609.932
 31
94.338
100
AcDbText
 73
     3
  0
POINT
  5
1D3
330
1D
100
AcDbEntity
  8
0
  6
Solid_Line
 62
     0
100
AcDbPoint
 10
423114.07
 20
545609.638
 30
94.298
  0
TEXT
  5
1D4
330
1D
100
AcDbEntity
  8
Point_ID
  6
Solid_Line
 62
     1
100
AcDbText
 10
423114.17
 20
545609.738
 30
94.298
 40
0.3
  1
703.5
100
AcDbText
  0
TEXT
  5
1D5
330
1D
100
AcDbEntity
  8
Height
  6
Solid_Line
 62
     4
100
AcDbText
 10
423113.97
 20
545609.538
 30
94.298
 40
0.3
  1
94.298
 72
     2
 11
423113.97
 21
545609.538
 31
94.298
100
AcDbText
 73
     3
  0
TEXT
  5
1D6
330
1D
100
AcDbEntity
  8
Point_Code
  6
Solid_Line
 62
     5
100
AcDbText
 10
423114.17
 20
545609.538
 30
94.298
 40
0.3
  1
WA
 11
423114.17
 21
545609.538
 31
94.298
100
AcDbText
 73
     3
  0
TEXT
  5
1D7
330
1D
100
AcDbEntity
  8
Attribute
  6
Solid_Line
 62
     5
100
AcDbText
 10
423114.17
 20
545609.038
 30
94.298
 40
0.3
  1
5
 11
423114.17
 21
545609.038
 31
94.298
100
AcDbText
 73
     3
  0
POINT
  5
1D8
330
1D
100
AcDbEntity
  8
0
  6
Solid_Line
 62
     0
100
AcDbPoint
 10
423113.8
 20
545608.596
 30
94.337
  0
TEXT
  5
1D9
330
1D
100
AcDbEntity
  8
Point_ID
  6
Solid_Line
 62
     1
100
AcDbText
 10
423113.9
 20
545608.696
 30
94.337
 40
0.3
  1
703.4
100
AcDbText
  0
TEXT
  5
1DA
330
1D
100
AcDbEntity
  8
Height
  6
Solid_Line
 62
     4
100
AcDbText
 10
423113.7
 20
545608.496
 30
94.337
 40
0.3
  1
94.337
 72
     2
 11
423113.7
 21
545608.496
 31
94.337
100
AcDbText
 73
     3
  0
TEXT
  5
1DB
330
1D
100
AcDbEntity
  8
Point_Code
  6
Solid_Line
 62
     5
100
AcDbText
 10
423113.9
 20
545608.496
 30
94.337
 40
0.3
  1
WA
 11
423113.9
 21
545608.496
 31
94.337
100
AcDbText
 73
     3
  0
TEXT
  5
1DC
330
1D
100
AcDbEntity
  8
Attribute
  6
Solid_Line
 62
     5
100
AcDbText
 10
423113.9
 20
545607.996
 30
94.337
 40
0.3
  1
4
 11
423113.9
 21
545607.996
 31
94.337
100
AcDbText
 73
     3
  0
POINT
  5
1DD
330
1D
100
AcDbEntity
  8
0
  6
Solid_Line
 62
     0
100
AcDbPoint
 10
423112.522
 20
545609.261
 30
93.91
  0
TEXT
  5
1DE
330
1D
100
AcDbEntity
  8
Point_ID
  6
Solid_Line
 62
     1
100
AcDbText
 10
423112.622
 20
545609.361
 30
93.91
 40
0.3
  1
703.3
100
AcDbText
  0
TEXT
  5
1DF
330
1D
100
AcDbEntity
  8
Height
  6
Solid_Line
 62
     4
100
AcDbText
 10
423112.422
 20
545609.161
 30
93.91
 40
0.3
  1
93.910
 72
     2
 11
423112.422
 21
545609.161
 31
93.91
100
AcDbText
 73
     3
  0
TEXT
  5
1E0
330
1D
100
AcDbEntity
  8
Point_Code
  6
Solid_Line
 62
     5
100
AcDbText
 10
423112.622
 20
545609.161
 30
93.91
 40
0.3
  1
WA
 11
423112.622
 21
545609.161
 31
93.91
100
AcDbText
 73
     3
  0
TEXT
  5
1E1
330
1D
100
AcDbEntity
  8
Attribute
  6
Solid_Line
 62
     5
100
AcDbText
 10
423112.622
 20
545608.661
 30
93.91
 40
0.3
  1
3
 11
423112.622
 21
545608.661
 31
93.91
100
AcDbText
 73
     3
  0
POINT
  5
1E2
330
1D
100
AcDbEntity
  8
0
  6
Solid_Line
 62
     0
100
AcDbPoint
 10
423112.759
 20
545610.003
 30
93.945
  0
TEXT
  5
1E3
330
1D
100
AcDbEntity
  8
Point_ID
  6
Solid_Line
 62
     1
100
AcDbText
 10
423112.859
 20
545610.103
 30
93.945
 40
0.3
  1
703.2
100
AcDbText
  0
TEXT
  5
1E4
330
1D
100
AcDbEntity
  8
Height
  6
Solid_Line
 62
     4
100
AcDbText
 10
423112.659
 20
545609.903
 30
93.945
 40
0.3
  1
93.945
 72
     2
 11
423112.659
 21
545609.903
 31
93.945
100
AcDbText
 73
     3
  0
TEXT
  5
1E5
330
1D
100
AcDbEntity
  8
Point_Code
  6
Solid_Line
 62
     5
100
AcDbText
 10
423112.859
 20
545609.903
 30
93.945
 40
0.3
  1
WA
 11
423112.859
 21
545609.903
 31
93.945
100
AcDbText
 73
     3
  0
TEXT
  5
1E6
330
1D
100
AcDbEntity
  8
Attribute
  6
Solid_Line
 62
     5
100
AcDbText
 10
423112.859
 20
545609.403
 30
93.945
 40
0.3
  1
2
 11
423112.859
 21
545609.403
 31
93.945
100
AcDbText
 73
     3
  0
POINT
  5
1E7
330
1D
100
AcDbEntity
  8
0
  6
Solid_Line
 62
     0
100
AcDbPoint
 10
423112.974
 20
545611.145
 30
93.936
  0
TEXT
  5
1E8
330
1D
100
AcDbEntity
  8
Point_ID
  6
Solid_Line
 62
     1
100
AcDbText
 10
423113.074
 20
545611.245
 30
93.936
 40
0.3
  1
703.1
100
AcDbText
  0
TEXT
  5
1E9
330
1D
100
AcDbEntity
  8
Height
  6
Solid_Line
 62
     4
100
AcDbText
 10
423112.874
 20
545611.045
 30
93.936
 40
0.3
  1
93.936
 72
     2
 11
423112.874
 21
545611.045
 31
93.936
100
AcDbText
 73
     3
  0
TEXT
  5
1EA
330
1D
100
AcDbEntity
  8
Point_Code
  6
Solid_Line
 62
     5
100
AcDbText
 10
423113.074
 20
545611.045
 30
93.936
 40
0.3
  1
WA
 11
423113.074
 21
545611.045
 31
93.936
100
AcDbText
 73
     3
  0
TEXT
  5
1EB
330
1D
100
AcDbEntity
  8
Attribute
  6
Solid_Line
 62
     5
100
AcDbText
 10
423113.074
 20
545610.545
 30
93.936
 40
0.3
  1
1
 11
423113.074
 21
545610.545
 31
93.936
100
AcDbText
 73
     3
  0
POINT
  5
1EC
330
1D
100
AcDbEntity
  8
0
  6
Solid_Line
 62
     0
100
AcDbPoint
 10
423098.863
 20
545617.661
 30
95.585
  0
TEXT
  5
1ED
330
1D
100
AcDbEntity
  8
Point_ID
  6
Solid_Line
 62
     1
100
AcDbText
 10
423098.963
 20
545617.761
 30
95.585
 40
0.3
  1
GPS0008
100
AcDbText
  0
TEXT
  5
1EE
330
1D
100
AcDbEntity
  8
Height
  6
Solid_Line
 62
     4
100
AcDbText
 10
423098.763
 20
545617.561
 30
95.585
 40
0.3
  1
95.585
 72
     2
 11
423098.763
 21
545617.561
 31
95.585
100
AcDbText
 73
     3
  0
TEXT
  5
1EF
330
1D
100
AcDbEntity
  8
Point_Code
  6
Solid_Line
 62
     5
100
AcDbText
 10
423098.963
 20
545617.561
 30
95.585
 40
0.3
  1
Verge Bottom
 11
423098.963
 21
545617.561
 31
95.585
100
AcDbText
 73
     3
  0
POINT
  5
1F0
330
1D
100
AcDbEntity
  8
0
  6
Solid_Line
 62
     0
100
AcDbPoint
 10
423104.637
 20
545615.005
 30
94.069
  0
TEXT
  5
1F1
330
1D
100
AcDbEntity
  8
Point_ID
  6
Solid_Line
 62
     1
100
AcDbText
 10
423104.737
 20
545615.105
 30
94.069
 40
0.3
  1
GPS0007
100
AcDbText
  0
TEXT
  5
1F2
330
1D
100
AcDbEntity
  8
Height
  6
Solid_Line
 62
     4
100
AcDbText
 10
423104.537
 20
545614.905
 30
94.069
 40
0.3
  1
94.069
 72
     2
 11
423104.537
 21
545614.905
 31
94.069
100
AcDbText
 73
     3
  0
TEXT
  5
1F3
330
1D
100
AcDbEntity
  8
Point_Code
  6
Solid_Line
 62
     5
100
AcDbText
 10
423104.737
 20
545614.905
 30
94.069
 40
0.3
  1
Verge Bottom
 11
423104.737
 21
545614.905
 31
94.069
100
AcDbText
 73
     3
  0
POINT
  5
1F4
330
1D
100
AcDbEntity
  8
0
  6
Solid_Line
 62
     0
100
AcDbPoint
 10
423111.296
 20
545611.953
 30
93.975
  0
TEXT
  5
1F5
330
1D
100
AcDbEntity
  8
Point_ID
  6
Solid_Line
 62
     1
100
AcDbText
 10
423111.396
 20
545612.053
 30
93.975
 40
0.3
  1
GPS0006
100
AcDbText
  0
TEXT
  5
1F6
330
1D
100
AcDbEntity
  8
Height
  6
Solid_Line
 62
     4
100
AcDbText
 10
423111.196
 20
545611.853
 30
93.975
 40
0.3
  1
93.975
 72
     2
 11
423111.196
 21
545611.853
 31
93.975
100
AcDbText
 73
     3
  0
TEXT
  5
1F7
330
1D
100
AcDbEntity
  8
Point_Code
  6
Solid_Line
 62
     5
100
AcDbText
 10
423111.396
 20
545611.853
 30
93.975
 40
0.3
  1
Verge Bottom
 11
423111.396
 21
545611.853
 31
93.975
100
AcDbText
 73
     3
  0
POINT
  5
1F8
330
1D
100
AcDbEntity
  8
0
  6
Solid_Line
 62
     0
100
AcDbPoint
 10
423115.12
 20
545610.248
 30
94.275
  0
TEXT
  5
1F9
330
1D
100
AcDbEntity
  8
Point_ID
  6
Solid_Line
 62
     1
100
AcDbText
 10
423115.22
 20
545610.348
 30
94.275
 40
0.3
  1
GPS0005
100
AcDbText
  0
TEXT
  5
1FA
330
1D
100
AcDbEntity
  8
Height
  6
Solid_Line
 62
     4
100
AcDbText
 10
423115.02
 20
545610.148
 30
94.275
 40
0.3
  1
94.275
 72
     2
 11
423115.02
 21
545610.148
 31
94.275
100
AcDbText
 73
     3
  0
TEXT
  5
1FB
330
1D
100
AcDbEntity
  8
Point_Code
  6
Solid_Line
 62
     5
100
AcDbText
 10
423115.22
 20
545610.148
 30
94.275
 40
0.3
  1
Verge Bottom
 11
423115.22
 21
545610.148
 31
94.275
100
AcDbText
 73
     3
  0
POINT
  5
1FC
330
1D
100
AcDbEntity
  8
0
  6
Solid_Line
 62
     0
100
AcDbPoint
 10
423118.521
 20
545608.762
 30
94.263
  0
TEXT
  5
1FD
330
1D
100
AcDbEntity
  8
Point_ID
  6
Solid_Line
 62
     1
100
AcDbText
 10
423118.621
 20
545608.862
 30
94.263
 40
0.3
  1
GPS0004
100
AcDbText
  0
TEXT
  5
1FE
330
1D
100
AcDbEntity
  8
Height
  6
Solid_Line
 62
     4
100
AcDbText
 10
423118.421
 20
545608.662
 30
94.263
 40
0.3
  1
94.263
 72
     2
 11
423118.421
 21
545608.662
 31
94.263
100
AcDbText
 73
     3
  0
TEXT
  5
1FF
330
1D
100
AcDbEntity
  8
Point_Code
  6
Solid_Line
 62
     5
100
AcDbText
 10
423118.621
 20
545608.662
 30
94.263
 40
0.3
  1
Verge Bottom
 11
423118.621
 21
545608.662
 31
94.263
100
AcDbText
 73
     3
  0
POINT
  5
200
330
1D
100
AcDbEntity
  8
0
  6
Solid_Line
 62
     0
100
AcDbPoint
 10
423123.232
 20
545606.524
 30
94.611
  0
TEXT
  5
201
330
1D
100
AcDbEntity
  8
Point_ID
  6
Solid_Line
 62
     1
100
AcDbText
 10
423123.332
 20
545606.624
 30
94.611
 40
0.3
  1
GPS0003
100
AcDbText
  0
TEXT
  5
202
330
1D
100
AcDbEntity
  8
Height
  6
Solid_Line
 62
     4
100
AcDbText
 10
423123.132
 20
545606.424
 30
94.611
 40
0.3
  1
94.611
 72
     2
 11
423123.132
 21
545606.424
 31
94.611
100
AcDbText
 73
     3
  0
TEXT
  5
203
330
1D
100
AcDbEntity
  8
Point_Code
  6
Solid_Line
 62
     5
100
AcDbText
 10
423123.332
 20
545606.424
 30
94.611
 40
0.3
  1
Verge Bottom
 11
423123.332
 21
545606.424
 31
94.611
100
AcDbText
 73
     3
  0
POINT
  5
204
330
1D
100
AcDbEntity
  8
0
  6
Solid_Line
 62
     0
100
AcDbPoint
 10
423122.412
 20
545604.792
 30
94.616
  0
TEXT
  5
205
330
1D
100
AcDbEntity
  8
Point_ID
  6
Solid_Line
 62
     1
100
AcDbText
 10
423122.512
 20
545604.892
 30
94.616
 40
0.3
  1
GPS0002
100
AcDbText
  0
TEXT
  5
206
330
1D
100
AcDbEntity
  8
Height
  6
Solid_Line
 62
     4
100
AcDbText
 10
423122.312
 20
545604.692
 30
94.616
 40
0.3
  1
94.616
 72
     2
 11
423122.312
 21
545604.692
 31
94.616
100
AcDbText
 73
     3
  0
TEXT
  5
207
330
1D
100
AcDbEntity
  8
Point_Code
  6
Solid_Line
 62
     5
100
AcDbText
 10
423122.512
 20
545604.692
 30
94.616
 40
0.3
  1
Verge Bottom
 11
423122.512
 21
545604.692
 31
94.616
100
AcDbText
 73
     3
  0
POINT
  5
208
330
1D
100
AcDbEntity
  8
0
  6
Solid_Line
 62
     0
100
AcDbPoint
 10
423116.798
 20
545607.337
 30
94.139
  0
TEXT
  5
209
330
1D
100
AcDbEntity
  8
Point_ID
  6
Solid_Line
 62
     1
100
AcDbText
 10
423116.898
 20
545607.437
 30
94.139
 40
0.3
  1
GPS0001
100
AcDbText
  0
TEXT
  5
20A
330
1D
100
AcDbEntity
  8
Height
  6
Solid_Line
 62
     4
100
AcDbText
 10
423116.698
 20
545607.237
 30
94.139
 40
0.3
  1
94.139
 72
     2
 11
423116.698
 21
545607.237
 31
94.139
100
AcDbText
 73
     3
  0
TEXT
  5
20B
330
1D
100
AcDbEntity
  8
Point_Code
  6
Solid_Line
 62
     5
100
AcDbText
 10
423116.898
 20
545607.237
 30
94.139
 40
0.3
  1
Verge Bottom
 11
423116.898
 21
545607.237
 31
94.139
100
AcDbText
 73
     3
  0
POINT
  5
20C
330
1D
100
AcDbEntity
  8
0
  6
Solid_Line
 62
     0
100
AcDbPoint
 10
423111.233
 20
545609.887
 30
93.916
  0
TEXT
  5
20D
330
1D
100
AcDbEntity
  8
Point_ID
  6
Solid_Line
 62
     1
100
AcDbText
 10
423111.333
 20
545609.987
 30
93.916
 40
0.3
  1
7.18
100
AcDbText
  0
TEXT
  5
20E
330
1D
100
AcDbEntity
  8
Height
  6
Solid_Line
 62
     4
100
AcDbText
 10
423111.133
 20
545609.787
 30
93.916
 40
0.3
  1
93.916
 72
     2
 11
423111.133
 21
545609.787
 31
93.916
100
AcDbText
 73
     3
  0
TEXT
  5
20F
330
1D
100
AcDbEntity
  8
Point_Code
  6
Solid_Line
 62
     5
100
AcDbText
 10
423111.333
 20
545609.787
 30
93.916
 40
0.3
  1
Verge Bottom
 11
423111.333
 21
545609.787
 31
93.916
100
AcDbText
 73
     3
  0
POINT
  5
210
330
1D
100
AcDbEntity
  8
0
  6
Solid_Line
 62
     0
100
AcDbPoint
 10
423106.544
 20
545611.953
 30
93.915
  0
TEXT
  5
211
330
1D
100
AcDbEntity
  8
Point_ID
  6
Solid_Line
 62
     1
100
AcDbText
 10
423106.644
 20
545612.053
 30
93.915
 40
0.3
  1
7.17
100
AcDbText
  0
TEXT
  5
212
330
1D
100
AcDbEntity
  8
Height
  6
Solid_Line
 62
     4
100
AcDbText
 10
423106.444
 20
545611.853
 30
93.915
 40
0.3
  1
93.915
 72
     2
 11
423106.444
 21
545611.853
 31
93.915
100
AcDbText
 73
     3
  0
TEXT
  5
213
330
1D
100
AcDbEntity
  8
Point_Code
  6
Solid_Line
 62
     5
100
AcDbText
 10
423106.644
 20
545611.853
 30
93.915
 40
0.3
  1
Verge Bottom
 11
423106.644
 21
545611.853
 31
93.915
100
AcDbText
 73
     3
  0
POINT
  5
214
330
1D
100
AcDbEntity
  8
0
  6
Solid_Line
 62
     0
100
AcDbPoint
 10
423101.787
 20
545614.158
 30
94.511
  0
TEXT
  5
215
330
1D
100
AcDbEntity
  8
Point_ID
  6
Solid_Line
 62
     1
100
AcDbText
 10
423101.887
 20
545614.258
 30
94.511
 40
0.3
  1
7.16
100
AcDbText
  0
TEXT
  5
216
330
1D
100
AcDbEntity
  8
Height
  6
Solid_Line
 62
     4
100
AcDbText
 10
423101.687
 20
545614.058
 30
94.511
 40
0.3
  1
94.511
 72
     2
 11
423101.687
 21
545614.058
 31
94.511
100
AcDbText
 73
     3
  0
TEXT
  5
217
330
1D
100
AcDbEntity
  8
Point_Code
  6
Solid_Line
 62
     5
100
AcDbText
 10
423101.887
 20
545614.058
 30
94.511
 40
0.3
  1
Verge Bottom
 11
423101.887
 21
545614.058
 31
94.511
100
AcDbText
 73
     3
  0
POINT
  5
218
330
1D
100
AcDbEntity
  8
0
  6
Solid_Line
 62
     0
100
AcDbPoint
 10
423098.074
 20
545615.855
 30
95.614
  0
TEXT
  5
219
330
1D
100
AcDbEntity
  8
Point_ID
  6
Solid_Line
 62
     1
100
AcDbText
 10
423098.174
 20
545615.955
 30
95.614
 40
0.3
  1
7.15
100
AcDbText
  0
TEXT
  5
21A
330
1D
100
AcDbEntity
  8
Height
  6
Solid_Line
 62
     4
100
AcDbText
 10
423097.974
 20
545615.755
 30
95.614
 40
0.3
  1
95.614
 72
     2
 11
423097.974
 21
545615.755
 31
95.614
100
AcDbText
 73
     3
  0
TEXT
  5
21B
330
1D
100
AcDbEntity
  8
Point_Code
  6
Solid_Line
 62
     5
100
AcDbText
 10
423098.174
 20
545615.755
 30
95.614
 40
0.3
  1
Verge Bottom
 11
423098.174
 21
545615.755
 31
95.614
100
AcDbText
 73
     3
  0
POINT
  5
21C
330
1D
100
AcDbEntity
  8
0
  6
Solid_Line
 62
     0
100
AcDbPoint
 10
423097.779
 20
545615.583
 30
96.802
  0
TEXT
  5
21D
330
1D
100
AcDbEntity
  8
Point_ID
  6
Solid_Line
 62
     1
100
AcDbText
 10
423097.879
 20
545615.683
 30
96.802
 40
0.3
  1
7.14
100
AcDbText
  0
TEXT
  5
21E
330
1D
100
AcDbEntity
  8
Height
  6
Solid_Line
 62
     4
100
AcDbText
 10
423097.679
 20
545615.483
 30
96.802
 40
0.3
  1
96.802
 72
     2
 11
423097.679
 21
545615.483
 31
96.802
100
AcDbText
 73
     3
  0
TEXT
  5
21F
330
1D
100
AcDbEntity
  8
Point_Code
  6
Solid_Line
 62
     5
100
AcDbText
 10
423097.879
 20
545615.483
 30
96.802
 40
0.3
  1
Verge Top
 11
423097.879
 21
545615.483
 31
96.802
100
AcDbText
 73
     3
  0
POINT
  5
220
330
1D
100
AcDbEntity
  8
0
  6
Solid_Line
 62
     0
100
AcDbPoint
 10
423101.0410000001
 20
545614.399
 30
95.986
  0
TEXT
  5
221
330
1D
100
AcDbEntity
  8
Point_ID
  6
Solid_Line
 62
     1
100
AcDbText
 10
423101.141
 20
545614.499
 30
95.986
 40
0.3
  1
7.13
100
AcDbText
  0
TEXT
  5
222
330
1D
100
AcDbEntity
  8
Height
  6
Solid_Line
 62
     4
100
AcDbText
 10
423100.941
 20
545614.299
 30
95.986
 40
0.3
  1
95.986
 72
     2
 11
423100.941
 21
545614.299
 31
95.986
100
AcDbText
 73
     3
  0
TEXT
  5
223
330
1D
100
AcDbEntity
  8
Point_Code
  6
Solid_Line
 62
     5
100
AcDbText
 10
423101.141
 20
545614.299
 30
95.986
 40
0.3
  1
Verge Top
 11
423101.141
 21
545614.299
 31
95.986
100
AcDbText
 73
     3
  0
POINT
  5
224
330
1D
100
AcDbEntity
  8
0
  6
Solid_Line
 62
     0
100
AcDbPoint
 10
423104.866
 20
545612.508
 30
94.973
  0
TEXT
  5
225
330
1D
100
AcDbEntity
  8
Point_ID
  6
Solid_Line
 62
     1
100
AcDbText
 10
423104.966
 20
545612.608
 30
94.973
 40
0.3
  1
7.12
100
AcDbText
  0
TEXT
  5
226
330
1D
100
AcDbEntity
  8
Height
  6
Solid_Line
 62
     4
100
AcDbText
 10
423104.766
 20
545612.408
 30
94.973
 40
0.3
  1
94.973
 72
     2
 11
423104.766
 21
545612.408
 31
94.973
100
AcDbText
 73
     3
  0
TEXT
  5
227
330
1D
100
AcDbEntity
  8
Point_Code
  6
Solid_Line
 62
     5
100
AcDbText
 10
423104.966
 20
545612.408
 30
94.973
 40
0.3
  1
Verge Top
 11
423104.966
 21
545612.408
 31
94.973
100
AcDbText
 73
     3
  0
POINT
  5
228
330
1D
100
AcDbEntity
  8
0
  6
Solid_Line
 62
     0
100
AcDbPoint
 10
423108.866
 20
545610.626
 30
94.858
  0
TEXT
  5
229
330
1D
100
AcDbEntity
  8
Point_ID
  6
Solid_Line
 62
     1
100
AcDbText
 10
423108.966
 20
545610.726
 30
94.858
 40
0.3
  1
7.11
100
AcDbText
  0
TEXT
  5
22A
330
1D
100
AcDbEntity
  8
Height
  6
Solid_Line
 62
     4
100
AcDbText
 10
423108.766
 20
545610.526
 30
94.858
 40
0.3
  1
94.858
 72
     2
 11
423108.766
 21
545610.526
 31
94.858
100
AcDbText
 73
     3
  0
TEXT
  5
22B
330
1D
100
AcDbEntity
  8
Point_Code
  6
Solid_Line
 62
     5
100
AcDbText
 10
423108.966
 20
545610.526
 30
94.858
 40
0.3
  1
Verge Top
 11
423108.966
 21
545610.526
 31
94.858
100
AcDbText
 73
     3
  0
POINT
  5
22C
330
1D
100
AcDbEntity
  8
0
  6
Solid_Line
 62
     0
100
AcDbPoint
 10
423113.348
 20
545608.646
 30
94.874
  0
TEXT
  5
22D
330
1D
100
AcDbEntity
  8
Point_ID
  6
Solid_Line
 62
     1
100
AcDbText
 10
423113.448
 20
545608.746
 30
94.874
 40
0.3
  1
7.10
100
AcDbText
  0
TEXT
  5
22E
330
1D
100
AcDbEntity
  8
Height
  6
Solid_Line
 62
     4
100
AcDbText
 10
423113.248
 20
545608.546
 30
94.874
 40
0.3
  1
94.874
 72
     2
 11
423113.248
 21
545608.546
 31
94.874
100
AcDbText
 73
     3
  0
TEXT
  5
22F
330
1D
100
AcDbEntity
  8
Point_Code
  6
Solid_Line
 62
     5
100
AcDbText
 10
423113.448
 20
545608.546
 30
94.874
 40
0.3
  1
Verge Top
 11
423113.448
 21
545608.546
 31
94.874
100
AcDbText
 73
     3
  0
POINT
  5
230
330
1D
100
AcDbEntity
  8
0
  6
Solid_Line
 62
     0
100
AcDbPoint
 10
423117.866
 20
545606.597
 30
94.969
  0
TEXT
  5
231
330
1D
100
AcDbEntity
  8
Point_ID
  6
Solid_Line
 62
     1
100
AcDbText
 10
423117.966
 20
545606.697
 30
94.969
 40
0.3
  1
7.9
100
AcDbText
  0
TEXT
  5
232
330
1D
100
AcDbEntity
  8
Height
  6
Solid_Line
 62
     4
100
AcDbText
 10
423117.766
 20
545606.497
 30
94.969
 40
0.3
  1
94.969
 72
     2
 11
423117.766
 21
545606.497
 31
94.969
100
AcDbText
 73
     3
  0
TEXT
  5
233
330
1D
100
AcDbEntity
  8
Point_Code
  6
Solid_Line
 62
     5
100
AcDbText
 10
423117.966
 20
545606.497
 30
94.969
 40
0.3
  1
Verge Top
 11
423117.966
 21
545606.497
 31
94.969
100
AcDbText
 73
     3
  0
POINT
  5
234
330
1D
100
AcDbEntity
  8
0
  6
Solid_Line
 62
     0
100
AcDbPoint
 10
423122.687
 20
545604.686
 30
95.229
  0
TEXT
  5
235
330
1D
100
AcDbEntity
  8
Point_ID
  6
Solid_Line
 62
     1
100
AcDbText
 10
423122.787
 20
545604.786
 30
95.229
 40
0.3
  1
7.8
100
AcDbText
  0
TEXT
  5
236
330
1D
100
AcDbEntity
  8
Height
  6
Solid_Line
 62
     4
100
AcDbText
 10
423122.587
 20
545604.586
 30
95.229
 40
0.3
  1
95.229
 72
     2
 11
423122.587
 21
545604.586
 31
95.229
100
AcDbText
 73
     3
  0
TEXT
  5
237
330
1D
100
AcDbEntity
  8
Point_Code
  6
Solid_Line
 62
     5
100
AcDbText
 10
423122.787
 20
545604.586
 30
95.229
 40
0.3
  1
Verge Top
 11
423122.787
 21
545604.586
 31
95.229
100
AcDbText
 73
     3
  0
POINT
  5
238
330
1D
100
AcDbEntity
  8
0
  6
Solid_Line
 62
     0
100
AcDbPoint
 10
423123.312
 20
545606.488
 30
95.241
  0
TEXT
  5
239
330
1D
100
AcDbEntity
  8
Point_ID
  6
Solid_Line
 62
     1
100
AcDbText
 10
423123.412
 20
545606.588
 30
95.241
 40
0.3
  1
7.7
100
AcDbText
  0
TEXT
  5
23A
330
1D
100
AcDbEntity
  8
Height
  6
Solid_Line
 62
     4
100
AcDbText
 10
423123.212
 20
545606.388
 30
95.241
 40
0.3
  1
95.241
 72
     2
 11
423123.212
 21
545606.388
 31
95.241
100
AcDbText
 73
     3
  0
TEXT
  5
23B
330
1D
100
AcDbEntity
  8
Point_Code
  6
Solid_Line
 62
     5
100
AcDbText
 10
423123.412
 20
545606.388
 30
95.241
 40
0.3
  1
Verge Top
 11
423123.412
 21
545606.388
 31
95.241
100
AcDbText
 73
     3
  0
POINT
  5
23C
330
1D
100
AcDbEntity
  8
0
  6
Solid_Line
 62
     0
100
AcDbPoint
 10
423116.388
 20
545609.634
 30
94.918
  0
TEXT
  5
23D
330
1D
100
AcDbEntity
  8
Point_ID
  6
Solid_Line
 62
     1
100
AcDbText
 10
423116.488
 20
545609.734
 30
94.918
 40
0.3
  1
7.6
100
AcDbText
  0
TEXT
  5
23E
330
1D
100
AcDbEntity
  8
Height
  6
Solid_Line
 62
     4
100
AcDbText
 10
423116.288
 20
545609.534
 30
94.918
 40
0.3
  1
94.918
 72
     2
 11
423116.288
 21
545609.534
 31
94.918
100
AcDbText
 73
     3
  0
TEXT
  5
23F
330
1D
100
AcDbEntity
  8
Point_Code
  6
Solid_Line
 62
     5
100
AcDbText
 10
423116.488
 20
545609.534
 30
94.918
 40
0.3
  1
Verge Top
 11
423116.488
 21
545609.534
 31
94.918
100
AcDbText
 73
     3
  0
POINT
  5
240
330
1D
100
AcDbEntity
  8
0
  6
Solid_Line
 62
     0
100
AcDbPoint
 10
423111.459
 20
545611.982
 30
94.983
  0
TEXT
  5
241
330
1D
100
AcDbEntity
  8
Point_ID
  6
Solid_Line
 62
     1
100
AcDbText
 10
423111.559
 20
545612.082
 30
94.983
 40
0.3
  1
7.5
100
AcDbText
  0
TEXT
  5
242
330
1D
100
AcDbEntity
  8
Height
  6
Solid_Line
 62
     4
100
AcDbText
 10
423111.359
 20
545611.882
 30
94.983
 40
0.3
  1
94.983
 72
     2
 11
423111.359
 21
545611.882
 31
94.983
100
AcDbText
 73
     3
  0
TEXT
  5
243
330
1D
100
AcDbEntity
  8
Point_Code
  6
Solid_Line
 62
     5
100
AcDbText
 10
423111.559
 20
545611.882
 30
94.983
 40
0.3
  1
Verge Top
 11
423111.559
 21
545611.882
 31
94.983
100
AcDbText
 73
     3
  0
POINT
  5
244
330
1D
100
AcDbEntity
  8
0
  6
Solid_Line
 62
     0
100
AcDbPoint
 10
423107.727
 20
545613.737
 30
95.178
  0
TEXT
  5
245
330
1D
100
AcDbEntity
  8
Point_ID
  6
Solid_Line
 62
     1
100
AcDbText
 10
423107.827
 20
545613.837
 30
95.178
 40
0.3
  1
7.4
100
AcDbText
  0
TEXT
  5
246
330
1D
100
AcDbEntity
  8
Height
  6
Solid_Line
 62
     4
100
AcDbText
 10
423107.627
 20
545613.637
 30
95.178
 40
0.3
  1
95.178
 72
     2
 11
423107.627
 21
545613.637
 31
95.178
100
AcDbText
 73
     3
  0
TEXT
  5
247
330
1D
100
AcDbEntity
  8
Point_Code
  6
Solid_Line
 62
     5
100
AcDbText
 10
423107.827
 20
545613.637
 30
95.178
 40
0.3
  1
Verge Top
 11
423107.827
 21
545613.637
 31
95.178
100
AcDbText
 73
     3
  0
POINT
  5
248
330
1D
100
AcDbEntity
  8
0
  6
Solid_Line
 62
     0
100
AcDbPoint
 10
423104.649
 20
545615.184
 30
95.07
  0
TEXT
  5
249
330
1D
100
AcDbEntity
  8
Point_ID
  6
Solid_Line
 62
     1
100
AcDbText
 10
423104.749
 20
545615.284
 30
95.07
 40
0.3
  1
7.3
100
AcDbText
  0
TEXT
  5
24A
330
1D
100
AcDbEntity
  8
Height
  6
Solid_Line
 62
     4
100
AcDbText
 10
423104.549
 20
545615.084
 30
95.07
 40
0.3
  1
95.070
 72
     2
 11
423104.549
 21
545615.084
 31
95.07
100
AcDbText
 73
     3
  0
TEXT
  5
24B
330
1D
100
AcDbEntity
  8
Point_Code
  6
Solid_Line
 62
     5
100
AcDbText
 10
423104.749
 20
545615.084
 30
95.07
 40
0.3
  1
Verge Top
 11
423104.749
 21
545615.084
 31
95.07
100
AcDbText
 73
     3
  0
POINT
  5
24C
330
1D
100
AcDbEntity
  8
0
  6
Solid_Line
 62
     0
100
AcDbPoint
 10
423100.61
 20
545617.039
 30
96.233
  0
TEXT
  5
24D
330
1D
100
AcDbEntity
  8
Point_ID
  6
Solid_Line
 62
     1
100
AcDbText
 10
423100.71
 20
545617.139
 30
96.233
 40
0.3
  1
7.2
100
AcDbText
  0
TEXT
  5
24E
330
1D
100
AcDbEntity
  8
Height
  6
Solid_Line
 62
     4
100
AcDbText
 10
423100.51
 20
545616.939
 30
96.233
 40
0.3
  1
96.233
 72
     2
 11
423100.51
 21
545616.939
 31
96.233
100
AcDbText
 73
     3
  0
TEXT
  5
24F
330
1D
100
AcDbEntity
  8
Point_Code
  6
Solid_Line
 62
     5
100
AcDbText
 10
423100.71
 20
545616.939
 30
96.233
 40
0.3
  1
Verge Top
 11
423100.71
 21
545616.939
 31
96.233
100
AcDbText
 73
     3
  0
POINT
  5
250
330
1D
100
AcDbEntity
  8
0
  6
Solid_Line
 62
     0
100
AcDbPoint
 10
423098.691
 20
545617.78
 30
96.602
  0
TEXT
  5
251
330
1D
100
AcDbEntity
  8
Point_ID
  6
Solid_Line
 62
     1
100
AcDbText
 10
423098.7910000001
 20
545617.88
 30
96.602
 40
0.3
  1
7.1
100
AcDbText
  0
TEXT
  5
252
330
1D
100
AcDbEntity
  8
Height
  6
Solid_Line
 62
     4
100
AcDbText
 10
423098.591
 20
545617.68
 30
96.602
 40
0.3
  1
96.602
 72
     2
 11
423098.591
 21
545617.68
 31
96.602
100
AcDbText
 73
     3
  0
TEXT
  5
253
330
1D
100
AcDbEntity
  8
Point_Code
  6
Solid_Line
 62
     5
100
AcDbText
 10
423098.7910000001
 20
545617.68
 30
96.602
 40
0.3
  1
Verge Top
 11
423098.7910000001
 21
545617.68
 31
96.602
100
AcDbText
 73
     3
  0
POINT
  5
254
330
1D
100
AcDbEntity
  8
0
  6
Solid_Line
 62
     0
100
AcDbPoint
 10
423087.702
 20
545656.721
 30
98.22
  0
TEXT
  5
255
330
1D
100
AcDbEntity
  8
Point_ID
  6
Solid_Line
 62
     1
100
AcDbText
 10
423087.8020000001
 20
545656.821
 30
98.22
 40
0.3
  1
6.26
100
AcDbText
  0
TEXT
  5
256
330
1D
100
AcDbEntity
  8
Height
  6
Solid_Line
 62
     4
100
AcDbText
 10
423087.602
 20
545656.621
 30
98.22
 40
0.3
  1
98.220
 72
     2
 11
423087.602
 21
545656.621
 31
98.22
100
AcDbText
 73
     3
  0
TEXT
  5
257
330
1D
100
AcDbEntity
  8
Point_Code
  6
Solid_Line
 62
     5
100
AcDbText
 10
423087.8020000001
 20
545656.621
 30
98.22
 40
0.3
  1
Verge Bottom
 11
423087.8020000001
 21
545656.621
 31
98.22
100
AcDbText
 73
     3
  0
POINT
  5
258
330
1D
100
AcDbEntity
  8
0
  6
Solid_Line
 62
     0
100
AcDbPoint
 10
423088.401
 20
545657.191
 30
98.33
  0
TEXT
  5
259
330
1D
100
AcDbEntity
  8
Point_ID
  6
Solid_Line
 62
     1
100
AcDbText
 10
423088.501
 20
545657.291
 30
98.33
 40
0.3
  1
6.25
100
AcDbText
  0
TEXT
  5
25A
330
1D
100
AcDbEntity
  8
Height
  6
Solid_Line
 62
     4
100
AcDbText
 10
423088.301
 20
545657.091
 30
98.33
 40
0.3
  1
98.330
 72
     2
 11
423088.301
 21
545657.091
 31
98.33
100
AcDbText
 73
     3
  0
TEXT
  5
25B
330
1D
100
AcDbEntity
  8
Point_Code
  6
Solid_Line
 62
     5
100
AcDbText
 10
423088.501
 20
545657.091
 30
98.33
 40
0.3
  1
Verge Bottom
 11
423088.501
 21
545657.091
 31
98.33
100
AcDbText
 73
     3
  0
POINT
  5
25C
330
1D
100
AcDbEntity
  8
0
  6
Solid_Line
 62
     0
100
AcDbPoint
 10
423090.279
 20
545654.704
 30
97.8
  0
TEXT
  5
25D
330
1D
100
AcDbEntity
  8
Point_ID
  6
Solid_Line
 62
     1
100
AcDbText
 10
423090.379
 20
545654.804
 30
97.8
 40
0.3
  1
6.24
100
AcDbText
  0
TEXT
  5
25E
330
1D
100
AcDbEntity
  8
Height
  6
Solid_Line
 62
     4
100
AcDbText
 10
423090.179
 20
545654.604
 30
97.8
 40
0.3
  1
97.800
 72
     2
 11
423090.179
 21
545654.604
 31
97.8
100
AcDbText
 73
     3
  0
TEXT
  5
25F
330
1D
100
AcDbEntity
  8
Point_Code
  6
Solid_Line
 62
     5
100
AcDbText
 10
423090.379
 20
545654.604
 30
97.8
 40
0.3
  1
Verge Bottom
 11
423090.379
 21
545654.604
 31
97.8
100
AcDbText
 73
     3
  0
POINT
  5
260
330
1D
100
AcDbEntity
  8
0
  6
Solid_Line
 62
     0
100
AcDbPoint
 10
423092.782
 20
545651.095
 30
97.538
  0
TEXT
  5
261
330
1D
100
AcDbEntity
  8
Point_ID
  6
Solid_Line
 62
     1
100
AcDbText
 10
423092.882
 20
545651.195
 30
97.538
 40
0.3
  1
6.23
100
AcDbText
  0
TEXT
  5
262
330
1D
100
AcDbEntity
  8
Height
  6
Solid_Line
 62
     4
100
AcDbText
 10
423092.682
 20
545650.995
 30
97.538
 40
0.3
  1
97.538
 72
     2
 11
423092.682
 21
545650.995
 31
97.538
100
AcDbText
 73
     3
  0
TEXT
  5
263
330
1D
100
AcDbEntity
  8
Point_Code
  6
Solid_Line
 62
     5
100
AcDbText
 10
423092.882
 20
545650.995
 30
97.538
 40
0.3
  1
Verge Bottom
 11
423092.882
 21
545650.995
 31
97.538
100
AcDbText
 73
     3
  0
POINT
  5
264
330
1D
100
AcDbEntity
  8
0
  6
Solid_Line
 62
     0
100
AcDbPoint
 10
423095.5900000001
 20
545647.213
 30
97.393
  0
TEXT
  5
265
330
1D
100
AcDbEntity
  8
Point_ID
  6
Solid_Line
 62
     1
100
AcDbText
 10
423095.69
 20
545647.313
 30
97.393
 40
0.3
  1
6.22
100
AcDbText
  0
TEXT
  5
266
330
1D
100
AcDbEntity
  8
Height
  6
Solid_Line
 62
     4
100
AcDbText
 10
423095.49
 20
545647.113
 30
97.393
 40
0.3
  1
97.393
 72
     2
 11
423095.49
 21
545647.113
 31
97.393
100
AcDbText
 73
     3
  0
TEXT
  5
267
330
1D
100
AcDbEntity
  8
Point_Code
  6
Solid_Line
 62
     5
100
AcDbText
 10
423095.69
 20
545647.113
 30
97.393
 40
0.3
  1
Verge Bottom
 11
423095.69
 21
545647.113
 31
97.393
100
AcDbText
 73
     3
  0
POINT
  5
268
330
1D
100
AcDbEntity
  8
0
  6
Solid_Line
 62
     0
100
AcDbPoint
 10
423097.929
 20
545643.884
 30
96.997
  0
TEXT
  5
269
330
1D
100
AcDbEntity
  8
Point_ID
  6
Solid_Line
 62
     1
100
AcDbText
 10
423098.029
 20
545643.984
 30
96.997
 40
0.3
  1
6.21
100
AcDbText
  0
TEXT
  5
26A
330
1D
100
AcDbEntity
  8
Height
  6
Solid_Line
 62
     4
100
AcDbText
 10
423097.8290000001
 20
545643.784
 30
96.997
 40
0.3
  1
96.997
 72
     2
 11
423097.8290000001
 21
545643.784
 31
96.997
100
AcDbText
 73
     3
  0
TEXT
  5
26B
330
1D
100
AcDbEntity
  8
Point_Code
  6
Solid_Line
 62
     5
100
AcDbText
 10
423098.029
 20
545643.784
 30
96.997
 40
0.3
  1
Verge Bottom
 11
423098.029
 21
545643.784
 31
96.997
100
AcDbText
 73
     3
  0
POINT
  5
26C
330
1D
100
AcDbEntity
  8
0
  6
Solid_Line
 62
     0
100
AcDbPoint
 10
423101.441
 20
545638.996
 30
96.674
  0
TEXT
  5
26D
330
1D
100
AcDbEntity
  8
Point_ID
  6
Solid_Line
 62
     1
100
AcDbText
 10
423101.5410000001
 20
545639.096
 30
96.674
 40
0.3
  1
6.20
100
AcDbText
  0
TEXT
  5
26E
330
1D
100
AcDbEntity
  8
Height
  6
Solid_Line
 62
     4
100
AcDbText
 10
423101.341
 20
545638.896
 30
96.674
 40
0.3
  1
96.674
 72
     2
 11
423101.341
 21
545638.896
 31
96.674
100
AcDbText
 73
     3
  0
TEXT
  5
26F
330
1D
100
AcDbEntity
  8
Point_Code
  6
Solid_Line
 62
     5
100
AcDbText
 10
423101.5410000001
 20
545638.896
 30
96.674
 40
0.3
  1
Verge Bottom
 11
423101.5410000001
 21
545638.896
 31
96.674
100
AcDbText
 73
     3
  0
POINT
  5
270
330
1D
100
AcDbEntity
  8
0
  6
Solid_Line
 62
     0
100
AcDbPoint
 10
423099.7530000001
 20
545637.848
 30
96.661
  0
TEXT
  5
271
330
1D
100
AcDbEntity
  8
Point_ID
  6
Solid_Line
 62
     1
100
AcDbText
 10
423099.853
 20
545637.948
 30
96.661
 40
0.3
  1
6.19
100
AcDbText
  0
TEXT
  5
272
330
1D
100
AcDbEntity
  8
Height
  6
Solid_Line
 62
     4
100
AcDbText
 10
423099.653
 20
545637.748
 30
96.661
 40
0.3
  1
96.661
 72
     2
 11
423099.653
 21
545637.748
 31
96.661
100
AcDbText
 73
     3
  0
TEXT
  5
273
330
1D
100
AcDbEntity
  8
Point_Code
  6
Solid_Line
 62
     5
100
AcDbText
 10
423099.853
 20
545637.748
 30
96.661
 40
0.3
  1
Verge Bottom
 11
423099.853
 21
545637.748
 31
96.661
100
AcDbText
 73
     3
  0
POINT
  5
274
330
1D
100
AcDbEntity
  8
0
  6
Solid_Line
 62
     0
100
AcDbPoint
 10
423097.47
 20
545641.116
 30
96.886
  0
TEXT
  5
275
330
1D
100
AcDbEntity
  8
Point_ID
  6
Solid_Line
 62
     1
100
AcDbText
 10
423097.57
 20
545641.216
 30
96.886
 40
0.3
  1
6.18
100
AcDbText
  0
TEXT
  5
276
330
1D
100
AcDbEntity
  8
Height
  6
Solid_Line
 62
     4
100
AcDbText
 10
423097.37
 20
545641.016
 30
96.886
 40
0.3
  1
96.886
 72
     2
 11
423097.37
 21
545641.016
 31
96.886
100
AcDbText
 73
     3
  0
TEXT
  5
277
330
1D
100
AcDbEntity
  8
Point_Code
  6
Solid_Line
 62
     5
100
AcDbText
 10
423097.57
 20
545641.016
 30
96.886
 40
0.3
  1
Verge Bottom
 11
423097.57
 21
545641.016
 31
96.886
100
AcDbText
 73
     3
  0
POINT
  5
278
330
1D
100
AcDbEntity
  8
0
  6
Solid_Line
 62
     0
100
AcDbPoint
 10
423093.476
 20
545646.732
 30
97.418
  0
TEXT
  5
279
330
1D
100
AcDbEntity
  8
Point_ID
  6
Solid_Line
 62
     1
100
AcDbText
 10
423093.576
 20
545646.832
 30
97.418
 40
0.3
  1
6.17
100
AcDbText
  0
TEXT
  5
27A
330
1D
100
AcDbEntity
  8
Height
  6
Solid_Line
 62
     4
100
AcDbText
 10
423093.376
 20
545646.632
 30
97.418
 40
0.3
  1
97.418
 72
     2
 11
423093.376
 21
545646.632
 31
97.418
100
AcDbText
 73
     3
  0
TEXT
  5
27B
330
1D
100
AcDbEntity
  8
Point_Code
  6
Solid_Line
 62
     5
100
AcDbText
 10
423093.576
 20
545646.632
 30
97.418
 40
0.3
  1
Verge Bottom
 11
423093.576
 21
545646.632
 31
97.418
100
AcDbText
 73
     3
  0
POINT
  5
27C
330
1D
100
AcDbEntity
  8
0
  6
Solid_Line
 62
     0
100
AcDbPoint
 10
423090.588
 20
545650.589
 30
97.703
  0
TEXT
  5
27D
330
1D
100
AcDbEntity
  8
Point_ID
  6
Solid_Line
 62
     1
100
AcDbText
 10
423090.688
 20
545650.689
 30
97.703
 40
0.3
  1
6.16
100
AcDbText
  0
TEXT
  5
27E
330
1D
100
AcDbEntity
  8
Height
  6
Solid_Line
 62
     4
100
AcDbText
 10
423090.488
 20
545650.489
 30
97.703
 40
0.3
  1
97.703
 72
     2
 11
423090.488
 21
545650.489
 31
97.703
100
AcDbText
 73
     3
  0
TEXT
  5
27F
330
1D
100
AcDbEntity
  8
Point_Code
  6
Solid_Line
 62
     5
100
AcDbText
 10
423090.688
 20
545650.489
 30
97.703
 40
0.3
  1
Verge Bottom
 11
423090.688
 21
545650.489
 31
97.703
100
AcDbText
 73
     3
  0
POINT
  5
280
330
1D
100
AcDbEntity
  8
0
  6
Solid_Line
 62
     0
100
AcDbPoint
 10
423088.081
 20
545654.127
 30
97.933
  0
TEXT
  5
281
330
1D
100
AcDbEntity
  8
Point_ID
  6
Solid_Line
 62
     1
100
AcDbText
 10
423088.181
 20
545654.227
 30
97.933
 40
0.3
  1
6.15
100
AcDbText
  0
TEXT
  5
282
330
1D
100
AcDbEntity
  8
Height
  6
Solid_Line
 62
     4
100
AcDbText
 10
423087.9810000001
 20
545654.027
 30
97.933
 40
0.3
  1
97.933
 72
     2
 11
423087.9810000001
 21
545654.027
 31
97.933
100
AcDbText
 73
     3
  0
TEXT
  5
283
330
1D
100
AcDbEntity
  8
Point_Code
  6
Solid_Line
 62
     5
100
AcDbText
 10
423088.181
 20
545654.027
 30
97.933
 40
0.3
  1
Verge Bottom
 11
423088.181
 21
545654.027
 31
97.933
100
AcDbText
 73
     3
  0
POINT
  5
284
330
1D
100
AcDbEntity
  8
0
  6
Solid_Line
 62
     0
100
AcDbPoint
 10
423086.851
 20
545655.88
 30
98.301
  0
TEXT
  5
285
330
1D
100
AcDbEntity
  8
Point_ID
  6
Solid_Line
 62
     1
100
AcDbText
 10
423086.951
 20
545655.98
 30
98.301
 40
0.3
  1
6.14
100
AcDbText
  0
TEXT
  5
286
330
1D
100
AcDbEntity
  8
Height
  6
Solid_Line
 62
     4
100
AcDbText
 10
423086.751
 20
545655.78
 30
98.301
 40
0.3
  1
98.301
 72
     2
 11
423086.751
 21
545655.78
 31
98.301
100
AcDbText
 73
     3
  0
TEXT
  5
287
330
1D
100
AcDbEntity
  8
Point_Code
  6
Solid_Line
 62
     5
100
AcDbText
 10
423086.951
 20
545655.78
 30
98.301
 40
0.3
  1
Verge Bottom
 11
423086.951
 21
545655.78
 31
98.301
100
AcDbText
 73
     3
  0
POINT
  5
288
330
1D
100
AcDbEntity
  8
0
  6
Solid_Line
 62
     0
100
AcDbPoint
 10
423100.228
 20
545637.366
 30
97.958
  0
TEXT
  5
289
330
1D
100
AcDbEntity
  8
Point_ID
  6
Solid_Line
 62
     1
100
AcDbText
 10
423100.328
 20
545637.466
 30
97.958
 40
0.3
  1
6.13
100
AcDbText
  0
TEXT
  5
28A
330
1D
100
AcDbEntity
  8
Height
  6
Solid_Line
 62
     4
100
AcDbText
 10
423100.1280000001
 20
545637.266
 30
97.958
 40
0.3
  1
97.958
 72
     2
 11
423100.1280000001
 21
545637.266
 31
97.958
100
AcDbText
 73
     3
  0
TEXT
  5
28B
330
1D
100
AcDbEntity
  8
Point_Code
  6
Solid_Line
 62
     5
100
AcDbText
 10
423100.328
 20
545637.266
 30
97.958
 40
0.3
  1
Verge Top
 11
423100.328
 21
545637.266
 31
97.958
100
AcDbText
 73
     3
  0
POINT
  5
28C
330
1D
100
AcDbEntity
  8
0
  6
Solid_Line
 62
     0
100
AcDbPoint
 10
423096.701
 20
545642.069
 30
98.238
  0
TEXT
  5
28D
330
1D
100
AcDbEntity
  8
Point_ID
  6
Solid_Line
 62
     1
100
AcDbText
 10
423096.801
 20
545642.169
 30
98.238
 40
0.3
  1
6.12
100
AcDbText
  0
TEXT
  5
28E
330
1D
100
AcDbEntity
  8
Height
  6
Solid_Line
 62
     4
100
AcDbText
 10
423096.601
 20
545641.969
 30
98.238
 40
0.3
  1
98.238
 72
     2
 11
423096.601
 21
545641.969
 31
98.238
100
AcDbText
 73
     3
  0
TEXT
  5
28F
330
1D
100
AcDbEntity
  8
Point_Code
  6
Solid_Line
 62
     5
100
AcDbText
 10
423096.801
 20
545641.969
 30
98.238
 40
0.3
  1
Verge Top
 11
423096.801
 21
545641.969
 31
98.238
100
AcDbText
 73
     3
  0
POINT
  5
290
330
1D
100
AcDbEntity
  8
0
  6
Solid_Line
 62
     0
100
AcDbPoint
 10
423093.651
 20
545646.331
 30
98.193
  0
TEXT
  5
291
330
1D
100
AcDbEntity
  8
Point_ID
  6
Solid_Line
 62
     1
100
AcDbText
 10
423093.751
 20
545646.431
 30
98.193
 40
0.3
  1
6.11
100
AcDbText
  0
TEXT
  5
292
330
1D
100
AcDbEntity
  8
Height
  6
Solid_Line
 62
     4
100
AcDbText
 10
423093.551
 20
545646.231
 30
98.193
 40
0.3
  1
98.193
 72
     2
 11
423093.551
 21
545646.231
 31
98.193
100
AcDbText
 73
     3
  0
TEXT
  5
293
330
1D
100
AcDbEntity
  8
Point_Code
  6
Solid_Line
 62
     5
100
AcDbText
 10
423093.751
 20
545646.231
 30
98.193
 40
0.3
  1
Verge Top
 11
423093.751
 21
545646.231
 31
98.193
100
AcDbText
 73
     3
  0
POINT
  5
294
330
1D
100
AcDbEntity
  8
0
  6
Solid_Line
 62
     0
100
AcDbPoint
 10
423090.724
 20
545650.223
 30
98.44
  0
TEXT
  5
295
330
1D
100
AcDbEntity
  8
Point_ID
  6
Solid_Line
 62
     1
100
AcDbText
 10
423090.824
 20
545650.323
 30
98.44
 40
0.3
  1
6.10
100
AcDbText
  0
TEXT
  5
296
330
1D
100
AcDbEntity
  8
Height
  6
Solid_Line
 62
     4
100
AcDbText
 10
423090.624
 20
545650.123
 30
98.44
 40
0.3
  1
98.440
 72
     2
 11
423090.624
 21
545650.123
 31
98.44
100
AcDbText
 73
     3
  0
TEXT
  5
297
330
1D
100
AcDbEntity
  8
Point_Code
  6
Solid_Line
 62
     5
100
AcDbText
 10
423090.824
 20
545650.123
 30
98.44
 40
0.3
  1
Verge Top
 11
423090.824
 21
545650.123
 31
98.44
100
AcDbText
 73
     3
  0
POINT
  5
298
330
1D
100
AcDbEntity
  8
0
  6
Solid_Line
 62
     0
100
AcDbPoint
 10
423088.73
 20
545653.096
 30
98.731
  0
TEXT
  5
299
330
1D
100
AcDbEntity
  8
Point_ID
  6
Solid_Line
 62
     1
100
AcDbText
 10
423088.83
 20
545653.196
 30
98.731
 40
0.3
  1
6.9
100
AcDbText
  0
TEXT
  5
29A
330
1D
100
AcDbEntity
  8
Height
  6
Solid_Line
 62
     4
100
AcDbText
 10
423088.63
 20
545652.996
 30
98.731
 40
0.3
  1
98.731
 72
     2
 11
423088.63
 21
545652.996
 31
98.731
100
AcDbText
 73
     3
  0
TEXT
  5
29B
330
1D
100
AcDbEntity
  8
Point_Code
  6
Solid_Line
 62
     5
100
AcDbText
 10
423088.83
 20
545652.996
 30
98.731
 40
0.3
  1
Verge Top
 11
423088.83
 21
545652.996
 31
98.731
100
AcDbText
 73
     3
  0
POINT
  5
29C
330
1D
100
AcDbEntity
  8
0
  6
Solid_Line
 62
     0
100
AcDbPoint
 10
423086.629
 20
545656.125
 30
99.127
  0
TEXT
  5
29D
330
1D
100
AcDbEntity
  8
Point_ID
  6
Solid_Line
 62
     1
100
AcDbText
 10
423086.729
 20
545656.225
 30
99.127
 40
0.3
  1
6.8
100
AcDbText
  0
TEXT
  5
29E
330
1D
100
AcDbEntity
  8
Height
  6
Solid_Line
 62
     4
100
AcDbText
 10
423086.529
 20
545656.025
 30
99.127
 40
0.3
  1
99.127
 72
     2
 11
423086.529
 21
545656.025
 31
99.127
100
AcDbText
 73
     3
  0
TEXT
  5
29F
330
1D
100
AcDbEntity
  8
Point_Code
  6
Solid_Line
 62
     5
100
AcDbText
 10
423086.729
 20
545656.025
 30
99.127
 40
0.3
  1
Verge Top
 11
423086.729
 21
545656.025
 31
99.127
100
AcDbText
 73
     3
  0
POINT
  5
2A0
330
1D
100
AcDbEntity
  8
0
  6
Solid_Line
 62
     0
100
AcDbPoint
 10
423088.186
 20
545657.625
 30
99.039
  0
TEXT
  5
2A1
330
1D
100
AcDbEntity
  8
Point_ID
  6
Solid_Line
 62
     1
100
AcDbText
 10
423088.286
 20
545657.725
 30
99.039
 40
0.3
  1
6.7
100
AcDbText
  0
TEXT
  5
2A2
330
1D
100
AcDbEntity
  8
Height
  6
Solid_Line
 62
     4
100
AcDbText
 10
423088.086
 20
545657.525
 30
99.039
 40
0.3
  1
99.039
 72
     2
 11
423088.086
 21
545657.525
 31
99.039
100
AcDbText
 73
     3
  0
TEXT
  5
2A3
330
1D
100
AcDbEntity
  8
Point_Code
  6
Solid_Line
 62
     5
100
AcDbText
 10
423088.286
 20
545657.525
 30
99.039
 40
0.3
  1
Verge Top
 11
423088.286
 21
545657.525
 31
99.039
100
AcDbText
 73
     3
  0
POINT
  5
2A4
330
1D
100
AcDbEntity
  8
0
  6
Solid_Line
 62
     0
100
AcDbPoint
 10
423090.858
 20
545654.141
 30
98.535
  0
TEXT
  5
2A5
330
1D
100
AcDbEntity
  8
Point_ID
  6
Solid_Line
 62
     1
100
AcDbText
 10
423090.958
 20
545654.241
 30
98.535
 40
0.3
  1
6.6
100
AcDbText
  0
TEXT
  5
2A6
330
1D
100
AcDbEntity
  8
Height
  6
Solid_Line
 62
     4
100
AcDbText
 10
423090.758
 20
545654.041
 30
98.535
 40
0.3
  1
98.535
 72
     2
 11
423090.758
 21
545654.041
 31
98.535
100
AcDbText
 73
     3
  0
TEXT
  5
2A7
330
1D
100
AcDbEntity
  8
Point_Code
  6
Solid_Line
 62
     5
100
AcDbText
 10
423090.958
 20
545654.041
 30
98.535
 40
0.3
  1
Verge Top
 11
423090.958
 21
545654.041
 31
98.535
100
AcDbText
 73
     3
  0
POINT
  5
2A8
330
1D
100
AcDbEntity
  8
0
  6
Solid_Line
 62
     0
100
AcDbPoint
 10
423093.464
 20
545650.461
 30
98.379
  0
TEXT
  5
2A9
330
1D
100
AcDbEntity
  8
Point_ID
  6
Solid_Line
 62
     1
100
AcDbText
 10
423093.564
 20
545650.561
 30
98.379
 40
0.3
  1
6.5
100
AcDbText
  0
TEXT
  5
2AA
330
1D
100
AcDbEntity
  8
Height
  6
Solid_Line
 62
     4
100
AcDbText
 10
423093.364
 20
545650.361
 30
98.379
 40
0.3
  1
98.379
 72
     2
 11
423093.364
 21
545650.361
 31
98.379
100
AcDbText
 73
     3
  0
TEXT
  5
2AB
330
1D
100
AcDbEntity
  8
Point_Code
  6
Solid_Line
 62
     5
100
AcDbText
 10
423093.564
 20
545650.361
 30
98.379
 40
0.3
  1
Verge Top
 11
423093.564
 21
545650.361
 31
98.379
100
AcDbText
 73
     3
  0
POINT
  5
2AC
330
1D
100
AcDbEntity
  8
0
  6
Solid_Line
 62
     0
100
AcDbPoint
 10
423095.775
 20
545647.094
 30
98.185
  0
TEXT
  5
2AD
330
1D
100
AcDbEntity
  8
Point_ID
  6
Solid_Line
 62
     1
100
AcDbText
 10
423095.875
 20
545647.194
 30
98.185
 40
0.3
  1
6.4
100
AcDbText
  0
TEXT
  5
2AE
330
1D
100
AcDbEntity
  8
Height
  6
Solid_Line
 62
     4
100
AcDbText
 10
423095.675
 20
545646.994
 30
98.185
 40
0.3
  1
98.185
 72
     2
 11
423095.675
 21
545646.994
 31
98.185
100
AcDbText
 73
     3
  0
TEXT
  5
2AF
330
1D
100
AcDbEntity
  8
Point_Code
  6
Solid_Line
 62
     5
100
AcDbText
 10
423095.875
 20
545646.994
 30
98.185
 40
0.3
  1
Verge Top
 11
423095.875
 21
545646.994
 31
98.185
100
AcDbText
 73
     3
  0
POINT
  5
2B0
330
1D
100
AcDbEntity
  8
0
  6
Solid_Line
 62
     0
100
AcDbPoint
 10
423098.212
 20
545643.967
 30
97.985
  0
TEXT
  5
2B1
330
1D
100
AcDbEntity
  8
Point_ID
  6
Solid_Line
 62
     1
100
AcDbText
 10
423098.312
 20
545644.067
 30
97.985
 40
0.3
  1
6.3
100
AcDbText
  0
TEXT
  5
2B2
330
1D
100
AcDbEntity
  8
Height
  6
Solid_Line
 62
     4
100
AcDbText
 10
423098.112
 20
545643.867
 30
97.985
 40
0.3
  1
97.985
 72
     2
 11
423098.112
 21
545643.867
 31
97.985
100
AcDbText
 73
     3
  0
TEXT
  5
2B3
330
1D
100
AcDbEntity
  8
Point_Code
  6
Solid_Line
 62
     5
100
AcDbText
 10
423098.312
 20
545643.867
 30
97.985
 40
0.3
  1
Verge Top
 11
423098.312
 21
545643.867
 31
97.985
100
AcDbText
 73
     3
  0
POINT
  5
2B4
330
1D
100
AcDbEntity
  8
0
  6
Solid_Line
 62
     0
100
AcDbPoint
 10
423100.17
 20
545641.511
 30
97.989
  0
TEXT
  5
2B5
330
1D
100
AcDbEntity
  8
Point_ID
  6
Solid_Line
 62
     1
100
AcDbText
 10
423100.27
 20
545641.611
 30
97.989
 40
0.3
  1
6.2
100
AcDbText
  0
TEXT
  5
2B6
330
1D
100
AcDbEntity
  8
Height
  6
Solid_Line
 62
     4
100
AcDbText
 10
423100.07
 20
545641.411
 30
97.989
 40
0.3
  1
97.989
 72
     2
 11
423100.07
 21
545641.411
 31
97.989
100
AcDbText
 73
     3
  0
TEXT
  5
2B7
330
1D
100
AcDbEntity
  8
Point_Code
  6
Solid_Line
 62
     5
100
AcDbText
 10
423100.27
 20
545641.411
 30
97.989
 40
0.3
  1
Verge Top
 11
423100.27
 21
545641.411
 31
97.989
100
AcDbText
 73
     3
  0
POINT
  5
2B8
330
1D
100
AcDbEntity
  8
0
  6
Solid_Line
 62
     0
100
AcDbPoint
 10
423101.967
 20
545638.736
 30
97.905
  0
TEXT
  5
2B9
330
1D
100
AcDbEntity
  8
Point_ID
  6
Solid_Line
 62
     1
100
AcDbText
 10
423102.067
 20
545638.836
 30
97.905
 40
0.3
  1
6.1
100
AcDbText
  0
TEXT
  5
2BA
330
1D
100
AcDbEntity
  8
Height
  6
Solid_Line
 62
     4
100
AcDbText
 10
423101.8670000001
 20
545638.636
 30
97.905
 40
0.3
  1
97.905
 72
     2
 11
423101.8670000001
 21
545638.636
 31
97.905
100
AcDbText
 73
     3
  0
TEXT
  5
2BB
330
1D
100
AcDbEntity
  8
Point_Code
  6
Solid_Line
 62
     5
100
AcDbText
 10
423102.067
 20
545638.636
 30
97.905
 40
0.3
  1
Verge Top
 11
423102.067
 21
545638.636
 31
97.905
100
AcDbText
 73
     3
  0
POINT
  5
2BC
330
1D
100
AcDbEntity
  8
0
  6
Solid_Line
 62
     0
100
AcDbPoint
 10
424639.342
 20
565012.697
 30
76.52
  0
TEXT
  5
2BD
330
1D
100
AcDbEntity
  8
Point_ID
  6
Solid_Line
 62
     1
100
AcDbText
 10
424639.442
 20
565012.797
 30
76.52
 40
0.3
  1
RTCM-Ref 0211
100
AcDbText
  0
TEXT
  5
2BE
330
1D
100
AcDbEntity
  8
Height
  6
Solid_Line
 62
     4
100
AcDbText
 10
424639.2420000001
 20
565012.597
 30
76.52
 40
0.3
  1
76.520
 72
     2
 11
424639.2420000001
 21
565012.597
 31
76.52
100
AcDbText
 73
     3
  0
TEXT
  5
2BF
330
1D
100
AcDbEntity
  8
Point_Code
  6
Solid_Line
 62
     5
100
AcDbText
 10
424639.442
 20
565012.597
 30
76.52
 40
0.3
  1

 11
424639.442
 21
565012.597
 31
76.52
100
AcDbText
 73
     3
  0
POLYLINE
  5
2C0
330
1D
100
AcDbEntity
  8
0
  6
DashDot_Line
 62
    40
100
AcDb3dPolyline
 66
     1
 10
0.0
 20
0.0
 30
0.0
 70
     9
  0
VERTEX
  5
2C1
330
2C0
100
AcDbEntity
  8
0
  6
DashDot_Line
 62
    40
100
AcDbVertex
100
AcDb3dPolylineVertex
 10
423101.967
 20
545638.736
 30
97.905
 70
    32
  0
VERTEX
  5
2C2
330
2C0
100
AcDbEntity
  8
0
  6
DashDot_Line
 62
    40
100
AcDbVertex
100
AcDb3dPolylineVertex
 10
423100.17
 20
545641.511
 30
97.989
 70
    32
  0
VERTEX
  5
2C3
330
2C0
100
AcDbEntity
  8
0
  6
DashDot_Line
 62
    40
100
AcDbVertex
100
AcDb3dPolylineVertex
 10
423098.212
 20
545643.967
 30
97.985
 70
    32
  0
VERTEX
  5
2C4
330
2C0
100
AcDbEntity
  8
0
  6
DashDot_Line
 62
    40
100
AcDbVertex
100
AcDb3dPolylineVertex
 10
423095.775
 20
545647.094
 30
98.185
 70
    32
  0
VERTEX
  5
2C5
330
2C0
100
AcDbEntity
  8
0
  6
DashDot_Line
 62
    40
100
AcDbVertex
100
AcDb3dPolylineVertex
 10
423093.464
 20
545650.461
 30
98.379
 70
    32
  0
VERTEX
  5
2C6
330
2C0
100
AcDbEntity
  8
0
  6
DashDot_Line
 62
    40
100
AcDbVertex
100
AcDb3dPolylineVertex
 10
423090.858
 20
545654.141
 30
98.535
 70
    32
  0
VERTEX
  5
2C7
330
2C0
100
AcDbEntity
  8
0
  6
DashDot_Line
 62
    40
100
AcDbVertex
100
AcDb3dPolylineVertex
 10
423088.186
 20
545657.625
 30
99.039
 70
    32
  0
VERTEX
  5
2C8
330
2C0
100
AcDbEntity
  8
0
  6
DashDot_Line
 62
    40
100
AcDbVertex
100
AcDb3dPolylineVertex
 10
423086.629
 20
545656.125
 30
99.127
 70
    32
  0
VERTEX
  5
2C9
330
2C0
100
AcDbEntity
  8
0
  6
DashDot_Line
 62
    40
100
AcDbVertex
100
AcDb3dPolylineVertex
 10
423088.73
 20
545653.096
 30
98.731
 70
    32
  0
VERTEX
  5
2CA
330
2C0
100
AcDbEntity
  8
0
  6
DashDot_Line
 62
    40
100
AcDbVertex
100
AcDb3dPolylineVertex
 10
423090.724
 20
545650.223
 30
98.44
 70
    32
  0
VERTEX
  5
2CB
330
2C0
100
AcDbEntity
  8
0
  6
DashDot_Line
 62
    40
100
AcDbVertex
100
AcDb3dPolylineVertex
 10
423093.651
 20
545646.331
 30
98.193
 70
    32
  0
VERTEX
  5
2CC
330
2C0
100
AcDbEntity
  8
0
  6
DashDot_Line
 62
    40
100
AcDbVertex
100
AcDb3dPolylineVertex
 10
423096.701
 20
545642.069
 30
98.238
 70
    32
  0
VERTEX
  5
2CD
330
2C0
100
AcDbEntity
  8
0
  6
DashDot_Line
 62
    40
100
AcDbVertex
100
AcDb3dPolylineVertex
 10
423100.228
 20
545637.366
 30
97.958
 70
    32
  0
VERTEX
  5
2CE
330
2C0
100
AcDbEntity
  8
0
  6
DashDot_Line
 62
    40
100
AcDbVertex
100
AcDb3dPolylineVertex
 10
423101.967
 20
545638.736
 30
97.905
 70
    32
  0
SEQEND
  5
2CF
330
2C0
100
AcDbEntity
  8
0
  0
POLYLINE
  5
2D0
330
1D
100
AcDbEntity
  8
0
  6
DashDot_Line
 62
    40
100
AcDb3dPolyline
 66
     1
 10
0.0
 20
0.0
 30
0.0
 70
     9
  0
VERTEX
  5
2D1
330
2D0
100
AcDbEntity
  8
0
  6
DashDot_Line
 62
    40
100
AcDbVertex
100
AcDb3dPolylineVertex
 10
423086.851
 20
545655.88
 30
98.301
 70
    32
  0
VERTEX
  5
2D2
330
2D0
100
AcDbEntity
  8
0
  6
DashDot_Line
 62
    40
100
AcDbVertex
100
AcDb3dPolylineVertex
 10
423088.081
 20
545654.127
 30
97.933
 70
    32
  0
VERTEX
  5
2D3
330
2D0
100
AcDbEntity
  8
0
  6
DashDot_Line
 62
    40
100
AcDbVertex
100
AcDb3dPolylineVertex
 10
423090.588
 20
545650.589
 30
97.703
 70
    32
  0
VERTEX
  5
2D4
330
2D0
100
AcDbEntity
  8
0
  6
DashDot_Line
 62
    40
100
AcDbVertex
100
AcDb3dPolylineVertex
 10
423093.476
 20
545646.732
 30
97.418
 70
    32
  0
VERTEX
  5
2D5
330
2D0
100
AcDbEntity
  8
0
  6
DashDot_Line
 62
    40
100
AcDbVertex
100
AcDb3dPolylineVertex
 10
423097.47
 20
545641.116
 30
96.886
 70
    32
  0
VERTEX
  5
2D6
330
2D0
100
AcDbEntity
  8
0
  6
DashDot_Line
 62
    40
100
AcDbVertex
100
AcDb3dPolylineVertex
 10
423099.7530000001
 20
545637.848
 30
96.661
 70
    32
  0
VERTEX
  5
2D7
330
2D0
100
AcDbEntity
  8
0
  6
DashDot_Line
 62
    40
100
AcDbVertex
100
AcDb3dPolylineVertex
 10
423101.441
 20
545638.996
 30
96.674
 70
    32
  0
VERTEX
  5
2D8
330
2D0
100
AcDbEntity
  8
0
  6
DashDot_Line
 62
    40
100
AcDbVertex
100
AcDb3dPolylineVertex
 10
423097.929
 20
545643.884
 30
96.997
 70
    32
  0
VERTEX
  5
2D9
330
2D0
100
AcDbEntity
  8
0
  6
DashDot_Line
 62
    40
100
AcDbVertex
100
AcDb3dPolylineVertex
 10
423095.5900000001
 20
545647.213
 30
97.393
 70
    32
  0
VERTEX
  5
2DA
330
2D0
100
AcDbEntity
  8
0
  6
DashDot_Line
 62
    40
100
AcDbVertex
100
AcDb3dPolylineVertex
 10
423092.782
 20
545651.095
 30
97.538
 70
    32
  0
VERTEX
  5
2DB
330
2D0
100
AcDbEntity
  8
0
  6
DashDot_Line
 62
    40
100
AcDbVertex
100
AcDb3dPolylineVertex
 10
423090.279
 20
545654.704
 30
97.8
 70
    32
  0
VERTEX
  5
2DC
330
2D0
100
AcDbEntity
  8
0
  6
DashDot_Line
 62
    40
100
AcDbVertex
100
AcDb3dPolylineVertex
 10
423088.401
 20
545657.191
 30
98.33
 70
    32
  0
VERTEX
  5
2DD
330
2D0
100
AcDbEntity
  8
0
  6
DashDot_Line
 62
    40
100
AcDbVertex
100
AcDb3dPolylineVertex
 10
423087.702
 20
545656.721
 30
98.22
 70
    32
  0
VERTEX
  5
2DE
330
2D0
100
AcDbEntity
  8
0
  6
DashDot_Line
 62
    40
100
AcDbVertex
100
AcDb3dPolylineVertex
 10
423086.851
 20
545655.88
 30
98.301
 70
    32
  0
SEQEND
  5
2DF
330
2D0
100
AcDbEntity
  8
0
  0
POLYLINE
  5
2E0
330
1D
100
AcDbEntity
  8
0
  6
DashDot_Line
 62
    40
100
AcDb3dPolyline
 66
     1
 10
0.0
 20
0.0
 30
0.0
 70
     9
  0
VERTEX
  5
2E1
330
2E0
100
AcDbEntity
  8
0
  6
DashDot_Line
 62
    40
100
AcDbVertex
100
AcDb3dPolylineVertex
 10
423098.691
 20
545617.78
 30
96.602
 70
    32
  0
VERTEX
  5
2E2
330
2E0
100
AcDbEntity
  8
0
  6
DashDot_Line
 62
    40
100
AcDbVertex
100
AcDb3dPolylineVertex
 10
423100.61
 20
545617.039
 30
96.233
 70
    32
  0
VERTEX
  5
2E3
330
2E0
100
AcDbEntity
  8
0
  6
DashDot_Line
 62
    40
100
AcDbVertex
100
AcDb3dPolylineVertex
 10
423104.649
 20
545615.184
 30
95.07
 70
    32
  0
VERTEX
  5
2E4
330
2E0
100
AcDbEntity
  8
0
  6
DashDot_Line
 62
    40
100
AcDbVertex
100
AcDb3dPolylineVertex
 10
423107.727
 20
545613.737
 30
95.178
 70
    32
  0
VERTEX
  5
2E5
330
2E0
100
AcDbEntity
  8
0
  6
DashDot_Line
 62
    40
100
AcDbVertex
100
AcDb3dPolylineVertex
 10
423111.459
 20
545611.982
 30
94.983
 70
    32
  0
VERTEX
  5
2E6
330
2E0
100
AcDbEntity
  8
0
  6
DashDot_Line
 62
    40
100
AcDbVertex
100
AcDb3dPolylineVertex
 10
423116.388
 20
545609.634
 30
94.918
 70
    32
  0
VERTEX
  5
2E7
330
2E0
100
AcDbEntity
  8
0
  6
DashDot_Line
 62
    40
100
AcDbVertex
100
AcDb3dPolylineVertex
 10
423123.312
 20
545606.488
 30
95.241
 70
    32
  0
VERTEX
  5
2E8
330
2E0
100
AcDbEntity
  8
0
  6
DashDot_Line
 62
    40
100
AcDbVertex
100
AcDb3dPolylineVertex
 10
423122.687
 20
545604.686
 30
95.229
 70
    32
  0
VERTEX
  5
2E9
330
2E0
100
AcDbEntity
  8
0
  6
DashDot_Line
 62
    40
100
AcDbVertex
100
AcDb3dPolylineVertex
 10
423117.866
 20
545606.597
 30
94.969
 70
    32
  0
VERTEX
  5
2EA
330
2E0
100
AcDbEntity
  8
0
  6
DashDot_Line
 62
    40
100
AcDbVertex
100
AcDb3dPolylineVertex
 10
423113.348
 20
545608.646
 30
94.874
 70
    32
  0
VERTEX
  5
2EB
330
2E0
100
AcDbEntity
  8
0
  6
DashDot_Line
 62
    40
100
AcDbVertex
100
AcDb3dPolylineVertex
 10
423108.866
 20
545610.626
 30
94.858
 70
    32
  0
VERTEX
  5
2EC
330
2E0
100
AcDbEntity
  8
0
  6
DashDot_Line
 62
    40
100
AcDbVertex
100
AcDb3dPolylineVertex
 10
423104.866
 20
545612.508
 30
94.973
 70
    32
  0
VERTEX
  5
2ED
330
2E0
100
AcDbEntity
  8
0
  6
DashDot_Line
 62
    40
100
AcDbVertex
100
AcDb3dPolylineVertex
 10
423101.0410000001
 20
545614.399
 30
95.986
 70
    32
  0
VERTEX
  5
2EE
330
2E0
100
AcDbEntity
  8
0
  6
DashDot_Line
 62
    40
100
AcDbVertex
100
AcDb3dPolylineVertex
 10
423097.779
 20
545615.583
 30
96.802
 70
    32
  0
VERTEX
  5
2EF
330
2E0
100
AcDbEntity
  8
0
  6
DashDot_Line
 62
    40
100
AcDbVertex
100
AcDb3dPolylineVertex
 10
423098.691
 20
545617.78
 30
96.602
 70
    32
  0
SEQEND
  5
2F0
330
2E0
100
AcDbEntity
  8
0
  0
POLYLINE
  5
2F1
330
1D
100
AcDbEntity
  8
0
  6
DashDot_Line
 62
    40
100
AcDb3dPolyline
 66
     1
 10
0.0
 20
0.0
 30
0.0
 70
     9
  0
VERTEX
  5
2F2
330
2F1
100
AcDbEntity
  8
0
  6
DashDot_Line
 62
    40
100
AcDbVertex
100
AcDb3dPolylineVertex
 10
423098.074
 20
545615.855
 30
95.614
 70
    32
  0
VERTEX
  5
2F3
330
2F1
100
AcDbEntity
  8
0
  6
DashDot_Line
 62
    40
100
AcDbVertex
100
AcDb3dPolylineVertex
 10
423101.787
 20
545614.158
 30
94.511
 70
    32
  0
VERTEX
  5
2F4
330
2F1
100
AcDbEntity
  8
0
  6
DashDot_Line
 62
    40
100
AcDbVertex
100
AcDb3dPolylineVertex
 10
423106.544
 20
545611.953
 30
93.915
 70
    32
  0
VERTEX
  5
2F5
330
2F1
100
AcDbEntity
  8
0
  6
DashDot_Line
 62
    40
100
AcDbVertex
100
AcDb3dPolylineVertex
 10
423111.233
 20
545609.887
 30
93.916
 70
    32
  0
VERTEX
  5
2F6
330
2F1
100
AcDbEntity
  8
0
  6
DashDot_Line
 62
    40
100
AcDbVertex
100
AcDb3dPolylineVertex
 10
423116.798
 20
545607.337
 30
94.139
 70
    32
  0
VERTEX
  5
2F7
330
2F1
100
AcDbEntity
  8
0
  6
DashDot_Line
 62
    40
100
AcDbVertex
100
AcDb3dPolylineVertex
 10
423122.412
 20
545604.792
 30
94.616
 70
    32
  0
VERTEX
  5
2F8
330
2F1
100
AcDbEntity
  8
0
  6
DashDot_Line
 62
    40
100
AcDbVertex
100
AcDb3dPolylineVertex
 10
423123.232
 20
545606.524
 30
94.611
 70
    32
  0
VERTEX
  5
2F9
330
2F1
100
AcDbEntity
  8
0
  6
DashDot_Line
 62
    40
100
AcDbVertex
100
AcDb3dPolylineVertex
 10
423118.521
 20
545608.762
 30
94.263
 70
    32
  0
VERTEX
  5
2FA
330
2F1
100
AcDbEntity
  8
0
  6
DashDot_Line
 62
    40
100
AcDbVertex
100
AcDb3dPolylineVertex
 10
423115.12
 20
545610.248
 30
94.275
 70
    32
  0
VERTEX
  5
2FB
330
2F1
100
AcDbEntity
  8
0
  6
DashDot_Line
 62
    40
100
AcDbVertex
100
AcDb3dPolylineVertex
 10
423111.296
 20
545611.953
 30
93.975
 70
    32
  0
VERTEX
  5
2FC
330
2F1
100
AcDbEntity
  8
0
  6
DashDot_Line
 62
    40
100
AcDbVertex
100
AcDb3dPolylineVertex
 10
423104.637
 20
545615.005
 30
94.069
 70
    32
  0
VERTEX
  5
2FD
330
2F1
100
AcDbEntity
  8
0
  6
DashDot_Line
 62
    40
100
AcDbVertex
100
AcDb3dPolylineVertex
 10
423098.863
 20
545617.661
 30
95.585
 70
    32
  0
VERTEX
  5
2FE
330
2F1
100
AcDbEntity
  8
0
  6
DashDot_Line
 62
    40
100
AcDbVertex
100
AcDb3dPolylineVertex
 10
423098.074
 20
545615.855
 30
95.614
 70
    32
  0
SEQEND
  5
2FF
330
2F1
100
AcDbEntity
  8
0
  0
POLYLINE
  5
300
330
1D
100
AcDbEntity
  8
0
  6
Solid_Line
 62
   151
100
AcDb3dPolyline
 66
     1
 10
0.0
 20
0.0
 30
0.0
 70
     9
  0
VERTEX
  5
301
330
300
100
AcDbEntity
  8
0
  6
Solid_Line
 62
   151
100
AcDbVertex
100
AcDb3dPolylineVertex
 10
423112.974
 20
545611.145
 30
93.936
 70
    32
  0
VERTEX
  5
302
330
300
100
AcDbEntity
  8
0
  6
Solid_Line
 62
   151
100
AcDbVertex
100
AcDb3dPolylineVertex
 10
423112.759
 20
545610.003
 30
93.945
 70
    32
  0
VERTEX
  5
303
330
300
100
AcDbEntity
  8
0
  6
Solid_Line
 62
   151
100
AcDbVertex
100
AcDb3dPolylineVertex
 10
423112.522
 20
545609.261
 30
93.91
 70
    32
  0
VERTEX
  5
304
330
300
100
AcDbEntity
  8
0
  6
Solid_Line
 62
   151
100
AcDbVertex
100
AcDb3dPolylineVertex
 10
423113.8
 20
545608.596
 30
94.337
 70
    32
  0
VERTEX
  5
305
330
300
100
AcDbEntity
  8
0
  6
Solid_Line
 62
   151
100
AcDbVertex
100
AcDb3dPolylineVertex
 10
423114.07
 20
545609.638
 30
94.298
 70
    32
  0
VERTEX
  5
306
330
300
100
AcDbEntity
  8
0
  6
Solid_Line
 62
   151
100
AcDbVertex
100
AcDb3dPolylineVertex
 10
423114.372
 20
545610.532
 30
94.338
 70
    32
  0
VERTEX
  5
307
330
300
100
AcDbEntity
  8
0
  6
Solid_Line
 62
   151
100
AcDbVertex
100
AcDb3dPolylineVertex
 10
423112.974
 20
545611.145
 30
93.936
 70
    32
  0
SEQEND
  5
308
330
300
100
AcDbEntity
  8
0
  0
POLYLINE
  5
309
330
1D
100
AcDbEntity
  8
0
  6
DashDot_Line
 62
    40
100
AcDb3dPolyline
 66
     1
 10
0.0
 20
0.0
 30
0.0
 70
     9
  0
VERTEX
  5
30A
330
309
100
AcDbEntity
  8
0
  6
DashDot_Line
 62
    40
100
AcDbVertex
100
AcDb3dPolylineVertex
 10
423129.498
 20
545595.529
 30
94.739
 70
    32
  0
VERTEX
  5
30B
330
309
100
AcDbEntity
  8
0
  6
DashDot_Line
 62
    40
100
AcDbVertex
100
AcDb3dPolylineVertex
 10
423129.711
 20
545598.799
 30
94.751
 70
    32
  0
VERTEX
  5
30C
330
309
100
AcDbEntity
  8
0
  6
DashDot_Line
 62
    40
100
AcDbVertex
100
AcDb3dPolylineVertex
 10
423129.939
 20
545602.515
 30
94.99
 70
    32
  0
VERTEX
  5
30D
330
309
100
AcDbEntity
  8
0
  6
DashDot_Line
 62
    40
100
AcDbVertex
100
AcDb3dPolylineVertex
 10
423130.424
 20
545608.82
 30
95.356
 70
    32
  0
VERTEX
  5
30E
330
309
100
AcDbEntity
  8
0
  6
DashDot_Line
 62
    40
100
AcDbVertex
100
AcDb3dPolylineVertex
 10
423130.845
 20
545616.476
 30
95.826
 70
    32
  0
VERTEX
  5
30F
330
309
100
AcDbEntity
  8
0
  6
DashDot_Line
 62
    40
100
AcDbVertex
100
AcDb3dPolylineVertex
 10
423131.198
 20
545621.791
 30
95.888
 70
    32
  0
VERTEX
  5
310
330
309
100
AcDbEntity
  8
0
  6
DashDot_Line
 62
    40
100
AcDbVertex
100
AcDb3dPolylineVertex
 10
423130.896
 20
545626.183
 30
96.201
 70
    32
  0
VERTEX
  5
311
330
309
100
AcDbEntity
  8
0
  6
DashDot_Line
 62
    40
100
AcDbVertex
100
AcDb3dPolylineVertex
 10
423128.6550000001
 20
545625.791
 30
96.081
 70
    32
  0
VERTEX
  5
312
330
309
100
AcDbEntity
  8
0
  6
DashDot_Line
 62
    40
100
AcDbVertex
100
AcDb3dPolylineVertex
 10
423128.476
 20
545619.81
 30
95.679
 70
    32
  0
VERTEX
  5
313
330
309
100
AcDbEntity
  8
0
  6
DashDot_Line
 62
    40
100
AcDbVertex
100
AcDb3dPolylineVertex
 10
423128.202
 20
545613.177
 30
95.603
 70
    32
  0
VERTEX
  5
314
330
309
100
AcDbEntity
  8
0
  6
DashDot_Line
 62
    40
100
AcDbVertex
100
AcDb3dPolylineVertex
 10
423127.902
 20
545606.338
 30
95.336
 70
    32
  0
VERTEX
  5
315
330
309
100
AcDbEntity
  8
0
  6
DashDot_Line
 62
    40
100
AcDbVertex
100
AcDb3dPolylineVertex
 10
423127.387
 20
545601.679
 30
95.067
 70
    32
  0
VERTEX
  5
316
330
309
100
AcDbEntity
  8
0
  6
DashDot_Line
 62
    40
100
AcDbVertex
100
AcDb3dPolylineVertex
 10
423127.1170000001
 20
545595.746
 30
94.869
 70
    32
  0
VERTEX
  5
317
330
309
100
AcDbEntity
  8
0
  6
DashDot_Line
 62
    40
100
AcDbVertex
100
AcDb3dPolylineVertex
 10
423129.498
 20
545595.529
 30
94.739
 70
    32
  0
SEQEND
  5
318
330
309
100
AcDbEntity
  8
0
  0
POLYLINE
  5
319
330
1D
100
AcDbEntity
  8
0
  6
DashDot_Line
 62
    40
100
AcDb3dPolyline
 66
     1
 10
0.0
 20
0.0
 30
0.0
 70
     9
  0
VERTEX
  5
31A
330
319
100
AcDbEntity
  8
0
  6
DashDot_Line
 62
    40
100
AcDbVertex
100
AcDb3dPolylineVertex
 10
423127.605
 20
545596.15
 30
94.088
 70
    32
  0
VERTEX
  5
31B
330
319
100
AcDbEntity
  8
0
  6
DashDot_Line
 62
    40
100
AcDbVertex
100
AcDb3dPolylineVertex
 10
423127.553
 20
545600.7
 30
94.38
 70
    32
  0
VERTEX
  5
31C
330
319
100
AcDbEntity
  8
0
  6
DashDot_Line
 62
    40
100
AcDbVertex
100
AcDb3dPolylineVertex
 10
423128.227
 20
545608.36
 30
94.61
 70
    32
  0
VERTEX
  5
31D
330
319
100
AcDbEntity
  8
0
  6
DashDot_Line
 62
    40
100
AcDbVertex
100
AcDb3dPolylineVertex
 10
423128.619
 20
545614.862
 30
94.97
 70
    32
  0
VERTEX
  5
31E
330
319
100
AcDbEntity
  8
0
  6
DashDot_Line
 62
    40
100
AcDbVertex
100
AcDb3dPolylineVertex
 10
423128.685
 20
545620.969
 30
95.231
 70
    32
  0
VERTEX
  5
31F
330
319
100
AcDbEntity
  8
0
  6
DashDot_Line
 62
    40
100
AcDbVertex
100
AcDb3dPolylineVertex
 10
423128.733
 20
545625.667
 30
95.476
 70
    32
  0
VERTEX
  5
320
330
319
100
AcDbEntity
  8
0
  6
DashDot_Line
 62
    40
100
AcDbVertex
100
AcDb3dPolylineVertex
 10
423130.789
 20
545625.802
 30
95.674
 70
    32
  0
VERTEX
  5
321
330
319
100
AcDbEntity
  8
0
  6
DashDot_Line
 62
    40
100
AcDbVertex
100
AcDb3dPolylineVertex
 10
423130.814
 20
545619.598
 30
95.173
 70
    32
  0
VERTEX
  5
322
330
319
100
AcDbEntity
  8
0
  6
DashDot_Line
 62
    40
100
AcDbVertex
100
AcDb3dPolylineVertex
 10
423130.4
 20
545611.61
 30
94.848
 70
    32
  0
VERTEX
  5
323
330
319
100
AcDbEntity
  8
0
  6
DashDot_Line
 62
    40
100
AcDbVertex
100
AcDb3dPolylineVertex
 10
423129.774
 20
545602.839
 30
94.426
 70
    32
  0
VERTEX
  5
324
330
319
100
AcDbEntity
  8
0
  6
DashDot_Line
 62
    40
100
AcDbVertex
100
AcDb3dPolylineVertex
 10
423129.766
 20
545602.851
 30
94.435
 70
    32
  0
VERTEX
  5
325
330
319
100
AcDbEntity
  8
0
  6
DashDot_Line
 62
    40
100
AcDbVertex
100
AcDb3dPolylineVertex
 10
423129.4270000001
 20
545595.886
 30
94.362
 70
    32
  0
VERTEX
  5
326
330
319
100
AcDbEntity
  8
0
  6
DashDot_Line
 62
    40
100
AcDbVertex
100
AcDb3dPolylineVertex
 10
423127.605
 20
545596.15
 30
94.088
 70
    32
  0
SEQEND
  5
327
330
319
100
AcDbEntity
  8
0
  0
POLYLINE
  5
328
330
1D
100
AcDbEntity
  8
0
  6
DashDot_Line
 62
    40
100
AcDb3dPolyline
 66
     1
 10
0.0
 20
0.0
 30
0.0
 70
     9
  0
VERTEX
  5
329
330
328
100
AcDbEntity
  8
0
  6
DashDot_Line
 62
    40
100
AcDbVertex
100
AcDb3dPolylineVertex
 10
423153.478
 20
545636.94
 30
97.144
 70
    32
  0
VERTEX
  5
32A
330
328
100
AcDbEntity
  8
0
  6
DashDot_Line
 62
    40
100
AcDbVertex
100
AcDb3dPolylineVertex
 10
423153.912
 20
545641.82
 30
97.722
 70
    32
  0
VERTEX
  5
32B
330
328
100
AcDbEntity
  8
0
  6
DashDot_Line
 62
    40
100
AcDbVertex
100
AcDb3dPolylineVertex
 10
423154.261
 20
545647.766
 30
98.064
 70
    32
  0
VERTEX
  5
32C
330
328
100
AcDbEntity
  8
0
  6
DashDot_Line
 62
    40
100
AcDbVertex
100
AcDb3dPolylineVertex
 10
423154.489
 20
545654.585
 30
98.518
 70
    32
  0
VERTEX
  5
32D
330
328
100
AcDbEntity
  8
0
  6
DashDot_Line
 62
    40
100
AcDbVertex
100
AcDb3dPolylineVertex
 10
423154.857
 20
545660.945
 30
99.023
 70
    32
  0
VERTEX
  5
32E
330
328
100
AcDbEntity
  8
0
  6
DashDot_Line
 62
    40
100
AcDbVertex
100
AcDb3dPolylineVertex
 10
423155.1280000001
 20
545667.715
 30
99.491
 70
    32
  0
VERTEX
  5
32F
330
328
100
AcDbEntity
  8
0
  6
DashDot_Line
 62
    40
100
AcDbVertex
100
AcDb3dPolylineVertex
 10
423153.008
 20
545667.486
 30
99.359
 70
    32
  0
VERTEX
  5
330
330
328
100
AcDbEntity
  8
0
  6
DashDot_Line
 62
    40
100
AcDbVertex
100
AcDb3dPolylineVertex
 10
423152.482
 20
545659.539
 30
98.685
 70
    32
  0
VERTEX
  5
331
330
328
100
AcDbEntity
  8
0
  6
DashDot_Line
 62
    40
100
AcDbVertex
100
AcDb3dPolylineVertex
 10
423152.198
 20
545655.304
 30
98.401
 70
    32
  0
VERTEX
  5
332
330
328
100
AcDbEntity
  8
0
  6
DashDot_Line
 62
    40
100
AcDbVertex
100
AcDb3dPolylineVertex
 10
423151.615
 20
545647.9
 30
97.95
 70
    32
  0
VERTEX
  5
333
330
328
100
AcDbEntity
  8
0
  6
DashDot_Line
 62
    40
100
AcDbVertex
100
AcDb3dPolylineVertex
 10
423151.33
 20
545640.908
 30
97.52
 70
    32
  0
VERTEX
  5
334
330
328
100
AcDbEntity
  8
0
  6
DashDot_Line
 62
    40
100
AcDbVertex
100
AcDb3dPolylineVertex
 10
423151.266
 20
545636.949
 30
97.106
 70
    32
  0
VERTEX
  5
335
330
328
100
AcDbEntity
  8
0
  6
DashDot_Line
 62
    40
100
AcDbVertex
100
AcDb3dPolylineVertex
 10
423153.478
 20
545636.94
 30
97.144
 70
    32
  0
SEQEND
  5
336
330
328
100
AcDbEntity
  8
0
  0
POLYLINE
  5
337
330
1D
100
AcDbEntity
  8
0
  6
DashDot_Line
 62
    40
100
AcDb3dPolyline
 66
     1
 10
0.0
 20
0.0
 30
0.0
 70
     9
  0
VERTEX
  5
338
330
337
100
AcDbEntity
  8
0
  6
DashDot_Line
 62
    40
100
AcDbVertex
100
AcDb3dPolylineVertex
 10
423151.197
 20
545637.561
 30
96.357
 70
    32
  0
VERTEX
  5
339
330
337
100
AcDbEntity
  8
0
  6
DashDot_Line
 62
    40
100
AcDbVertex
100
AcDb3dPolylineVertex
 10
423151.517
 20
545641.179
 30
96.442
 70
    32
  0
VERTEX
  5
33A
330
337
100
AcDbEntity
  8
0
  6
DashDot_Line
 62
    40
100
AcDbVertex
100
AcDb3dPolylineVertex
 10
423151.6280000001
 20
545644.058
 30
97.053
 70
    32
  0
VERTEX
  5
33B
330
337
100
AcDbEntity
  8
0
  6
DashDot_Line
 62
    40
100
AcDbVertex
100
AcDb3dPolylineVertex
 10
423151.833
 20
545649.294
 30
97.249
 70
    32
  0
VERTEX
  5
33C
330
337
100
AcDbEntity
  8
0
  6
DashDot_Line
 62
    40
100
AcDbVertex
100
AcDb3dPolylineVertex
 10
423152.467
 20
545657.137
 30
97.504
 70
    32
  0
VERTEX
  5
33D
330
337
100
AcDbEntity
  8
0
  6
DashDot_Line
 62
    40
100
AcDbVertex
100
AcDb3dPolylineVertex
 10
423152.976
 20
545667.328
 30
98.427
 70
    32
  0
VERTEX
  5
33E
330
337
100
AcDbEntity
  8
0
  6
DashDot_Line
 62
    40
100
AcDbVertex
100
AcDb3dPolylineVertex
 10
423154.993
 20
545667.046
 30
98.412
 70
    32
  0
VERTEX
  5
33F
330
337
100
AcDbEntity
  8
0
  6
DashDot_Line
 62
    40
100
AcDbVertex
100
AcDb3dPolylineVertex
 10
423154.668
 20
545661.343
 30
97.938
 70
    32
  0
VERTEX
  5
340
330
337
100
AcDbEntity
  8
0
  6
DashDot_Line
 62
    40
100
AcDbVertex
100
AcDb3dPolylineVertex
 10
423154.1660000001
 20
545653.218
 30
97.468
 70
    32
  0
VERTEX
  5
341
330
337
100
AcDbEntity
  8
0
  6
DashDot_Line
 62
    40
100
AcDbVertex
100
AcDb3dPolylineVertex
 10
423153.793
 20
545646.079
 30
97.189
 70
    32
  0
VERTEX
  5
342
330
337
100
AcDbEntity
  8
0
  6
DashDot_Line
 62
    40
100
AcDbVertex
100
AcDb3dPolylineVertex
 10
423153.635
 20
545640.762
 30
96.436
 70
    32
  0
VERTEX
  5
343
330
337
100
AcDbEntity
  8
0
  6
DashDot_Line
 62
    40
100
AcDbVertex
100
AcDb3dPolylineVertex
 10
423153.459
 20
545637.501
 30
96.318
 70
    32
  0
VERTEX
  5
344
330
337
100
AcDbEntity
  8
0
  6
DashDot_Line
 62
    40
100
AcDbVertex
100
AcDb3dPolylineVertex
 10
423151.197
 20
545637.561
 30
96.357
 70
    32
  0
SEQEND
  5
345
330
337
100
AcDbEntity
  8
0
  0
POLYLINE
  5
346
330
1D
100
AcDbEntity
  8
0
  6
DashDot_Line
 62
    40
100
AcDb3dPolyline
 66
     1
 10
0.0
 20
0.0
 30
0.0
 70
     9
  0
VERTEX
  5
347
330
346
100
AcDbEntity
  8
0
  6
DashDot_Line
 62
    40
100
AcDbVertex
100
AcDb3dPolylineVertex
 10
423160.917
 20
545621.55
 30
95.993
 70
    32
  0
VERTEX
  5
348
330
346
100
AcDbEntity
  8
0
  6
DashDot_Line
 62
    40
100
AcDbVertex
100
AcDb3dPolylineVertex
 10
423162.424
 20
545620.099
 30
96.043
 70
    32
  0
VERTEX
  5
349
330
346
100
AcDbEntity
  8
0
  6
DashDot_Line
 62
    40
100
AcDbVertex
100
AcDb3dPolylineVertex
 10
423166.644
 20
545615.637
 30
95.933
 70
    32
  0
VERTEX
  5
34A
330
346
100
AcDbEntity
  8
0
  6
DashDot_Line
 62
    40
100
AcDbVertex
100
AcDb3dPolylineVertex
 10
423171.045
 20
545611.242
 30
95.582
 70
    32
  0
VERTEX
  5
34B
330
346
100
AcDbEntity
  8
0
  6
DashDot_Line
 62
    40
100
AcDbVertex
100
AcDb3dPolylineVertex
 10
423175.23
 20
545607.239
 30
95.02
 70
    32
  0
VERTEX
  5
34C
330
346
100
AcDbEntity
  8
0
  6
DashDot_Line
 62
    40
100
AcDbVertex
100
AcDb3dPolylineVertex
 10
423182.333
 20
545600.532
 30
95.077
 70
    32
  0
VERTEX
  5
34D
330
346
100
AcDbEntity
  8
0
  6
DashDot_Line
 62
    40
100
AcDbVertex
100
AcDb3dPolylineVertex
 10
423180.8020000001
 20
545598.766
 30
94.973
 70
    32
  0
VERTEX
  5
34E
330
346
100
AcDbEntity
  8
0
  6
DashDot_Line
 62
    40
100
AcDbVertex
100
AcDb3dPolylineVertex
 10
423178.304
 20
545601.294
 30
94.869
 70
    32
  0
VERTEX
  5
34F
330
346
100
AcDbEntity
  8
0
  6
DashDot_Line
 62
    40
100
AcDbVertex
100
AcDb3dPolylineVertex
 10
423174.271
 20
545604.978
 30
94.766
 70
    32
  0
VERTEX
  5
350
330
346
100
AcDbEntity
  8
0
  6
DashDot_Line
 62
    40
100
AcDbVertex
100
AcDb3dPolylineVertex
 10
423169.988
 20
545609.209
 30
95.267
 70
    32
  0
VERTEX
  5
351
330
346
100
AcDbEntity
  8
0
  6
DashDot_Line
 62
    40
100
AcDbVertex
100
AcDb3dPolylineVertex
 10
423164.522
 20
545614.627
 30
95.785
 70
    32
  0
VERTEX
  5
352
330
346
100
AcDbEntity
  8
0
  6
DashDot_Line
 62
    40
100
AcDbVertex
100
AcDb3dPolylineVertex
 10
423159.309
 20
545620.098
 30
95.721
 70
    32
  0
VERTEX
  5
353
330
346
100
AcDbEntity
  8
0
  6
DashDot_Line
 62
    40
100
AcDbVertex
100
AcDb3dPolylineVertex
 10
423160.917
 20
545621.55
 30
95.993
 70
    32
  0
SEQEND
  5
354
330
346
100
AcDbEntity
  8
0
  0
POLYLINE
  5
355
330
1D
100
AcDbEntity
  8
0
  6
DashDot_Line
 62
    40
100
AcDb3dPolyline
 66
     1
 10
0.0
 20
0.0
 30
0.0
 70
     9
  0
VERTEX
  5
356
330
355
100
AcDbEntity
  8
0
  6
DashDot_Line
 62
    40
100
AcDbVertex
100
AcDb3dPolylineVertex
 10
423159.641
 20
545619.906
 30
95.237
 70
    32
  0
VERTEX
  5
357
330
355
100
AcDbEntity
  8
0
  6
DashDot_Line
 62
    40
100
AcDbVertex
100
AcDb3dPolylineVertex
 10
423161.034
 20
545618.516
 30
95.123
 70
    32
  0
VERTEX
  5
358
330
355
100
AcDbEntity
  8
0
  6
DashDot_Line
 62
    40
100
AcDbVertex
100
AcDb3dPolylineVertex
 10
423166.331
 20
545612.919
 30
95.121
 70
    32
  0
VERTEX
  5
359
330
355
100
AcDbEntity
  8
0
  6
DashDot_Line
 62
    40
100
AcDbVertex
100
AcDb3dPolylineVertex
 10
423170.258
 20
545609.085
 30
94.589
 70
    32
  0
VERTEX
  5
35A
330
355
100
AcDbEntity
  8
0
  6
DashDot_Line
 62
    40
100
AcDbVertex
100
AcDb3dPolylineVertex
 10
423174.55
 20
545604.758
 30
94.427
 70
    32
  0
VERTEX
  5
35B
330
355
100
AcDbEntity
  8
0
  6
DashDot_Line
 62
    40
100
AcDbVertex
100
AcDb3dPolylineVertex
 10
423178.009
 20
545601.64
 30
94.376
 70
    32
  0
VERTEX
  5
35C
330
355
100
AcDbEntity
  8
0
  6
DashDot_Line
 62
    40
100
AcDbVertex
100
AcDb3dPolylineVertex
 10
423180.556
 20
545599.097
 30
94.526
 70
    32
  0
VERTEX
  5
35D
330
355
100
AcDbEntity
  8
0
  6
DashDot_Line
 62
    40
100
AcDbVertex
100
AcDb3dPolylineVertex
 10
423182.07
 20
545600.654
 30
94.644
 70
    32
  0
VERTEX
  5
35E
330
355
100
AcDbEntity
  8
0
  6
DashDot_Line
 62
    40
100
AcDbVertex
100
AcDb3dPolylineVertex
 10
423178.8290000001
 20
545603.796
 30
94.311
 70
    32
  0
VERTEX
  5
35F
330
355
100
AcDbEntity
  8
0
  6
DashDot_Line
 62
    40
100
AcDbVertex
100
AcDb3dPolylineVertex
 10
423174.711
 20
545607.63
 30
94.293
 70
    32
  0
VERTEX
  5
360
330
355
100
AcDbEntity
  8
0
  6
DashDot_Line
 62
    40
100
AcDbVertex
100
AcDb3dPolylineVertex
 10
423170.002
 20
545611.995
 30
95.047
 70
    32
  0
VERTEX
  5
361
330
355
100
AcDbEntity
  8
0
  6
DashDot_Line
 62
    40
100
AcDbVertex
100
AcDb3dPolylineVertex
 10
423165.601
 20
545616.497
 30
95.263
 70
    32
  0
VERTEX
  5
362
330
355
100
AcDbEntity
  8
0
  6
DashDot_Line
 62
    40
100
AcDbVertex
100
AcDb3dPolylineVertex
 10
423161.008
 20
545621.298
 30
95.471
 70
    32
  0
VERTEX
  5
363
330
355
100
AcDbEntity
  8
0
  6
DashDot_Line
 62
    40
100
AcDbVertex
100
AcDb3dPolylineVertex
 10
423159.641
 20
545619.906
 30
95.237
 70
    32
  0
SEQEND
  5
364
330
355
100
AcDbEntity
  8
0
  0
POLYLINE
  5
365
330
1D
100
AcDbEntity
  8
0
  6
DashDot_Line
 62
    40
100
AcDb3dPolyline
 66
     1
 10
0.0
 20
0.0
 30
0.0
 70
     9
  0
VERTEX
  5
366
330
365
100
AcDbEntity
  8
0
  6
DashDot_Line
 62
    40
100
AcDbVertex
100
AcDb3dPolylineVertex
 10
423214.938
 20
545591.972
 30
96.262
 70
    32
  0
VERTEX
  5
367
330
365
100
AcDbEntity
  8
0
  6
DashDot_Line
 62
    40
100
AcDbVertex
100
AcDb3dPolylineVertex
 10
423219.33
 20
545591.618
 30
96.373
 70
    32
  0
VERTEX
  5
368
330
365
100
AcDbEntity
  8
0
  6
DashDot_Line
 62
    40
100
AcDbVertex
100
AcDb3dPolylineVertex
 10
423225.272
 20
545591.075
 30
96.471
 70
    32
  0
VERTEX
  5
369
330
365
100
AcDbEntity
  8
0
  6
DashDot_Line
 62
    40
100
AcDbVertex
100
AcDb3dPolylineVertex
 10
423229.953
 20
545590.506
 30
96.637
 70
    32
  0
VERTEX
  5
36A
330
365
100
AcDbEntity
  8
0
  6
DashDot_Line
 62
    40
100
AcDbVertex
100
AcDb3dPolylineVertex
 10
423235.229
 20
545589.944
 30
96.858
 70
    32
  0
VERTEX
  5
36B
330
365
100
AcDbEntity
  8
0
  6
DashDot_Line
 62
    40
100
AcDbVertex
100
AcDb3dPolylineVertex
 10
423240.48
 20
545589.587
 30
96.903
 70
    32
  0
VERTEX
  5
36C
330
365
100
AcDbEntity
  8
0
  6
DashDot_Line
 62
    40
100
AcDbVertex
100
AcDb3dPolylineVertex
 10
423245.453
 20
545589.167
 30
96.956
 70
    32
  0
VERTEX
  5
36D
330
365
100
AcDbEntity
  8
0
  6
DashDot_Line
 62
    40
100
AcDbVertex
100
AcDb3dPolylineVertex
 10
423245.346
 20
545586.921
 30
96.873
 70
    32
  0
VERTEX
  5
36E
330
365
100
AcDbEntity
  8
0
  6
DashDot_Line
 62
    40
100
AcDbVertex
100
AcDb3dPolylineVertex
 10
423239.246
 20
545587.243
 30
96.748
 70
    32
  0
VERTEX
  5
36F
330
365
100
AcDbEntity
  8
0
  6
DashDot_Line
 62
    40
100
AcDbVertex
100
AcDb3dPolylineVertex
 10
423232.885
 20
545587.94
 30
96.572
 70
    32
  0
VERTEX
  5
370
330
365
100
AcDbEntity
  8
0
  6
DashDot_Line
 62
    40
100
AcDbVertex
100
AcDb3dPolylineVertex
 10
423226.985
 20
545588.63
 30
96.337
 70
    32
  0
VERTEX
  5
371
330
365
100
AcDbEntity
  8
0
  6
DashDot_Line
 62
    40
100
AcDbVertex
100
AcDb3dPolylineVertex
 10
423221.157
 20
545589.151
 30
96.197
 70
    32
  0
VERTEX
  5
372
330
365
100
AcDbEntity
  8
0
  6
DashDot_Line
 62
    40
100
AcDbVertex
100
AcDb3dPolylineVertex
 10
423214.8400000001
 20
545589.779
 30
96.177
 70
    32
  0
VERTEX
  5
373
330
365
100
AcDbEntity
  8
0
  6
DashDot_Line
 62
    40
100
AcDbVertex
100
AcDb3dPolylineVertex
 10
423214.938
 20
545591.972
 30
96.262
 70
    32
  0
SEQEND
  5
374
330
365
100
AcDbEntity
  8
0
  0
POLYLINE
  5
375
330
1D
100
AcDbEntity
  8
0
  6
DashDot_Line
 62
    40
100
AcDb3dPolyline
 66
     1
 10
0.0
 20
0.0
 30
0.0
 70
     9
  0
VERTEX
  5
376
330
375
100
AcDbEntity
  8
0
  6
DashDot_Line
 62
    40
100
AcDbVertex
100
AcDb3dPolylineVertex
 10
423215.173
 20
545589.879
 30
95.751
 70
    32
  0
VERTEX
  5
377
330
375
100
AcDbEntity
  8
0
  6
DashDot_Line
 62
    40
100
AcDbVertex
100
AcDb3dPolylineVertex
 10
423219.321
 20
545589.397
 30
95.714
 70
    32
  0
VERTEX
  5
378
330
375
100
AcDbEntity
  8
0
  6
DashDot_Line
 62
    40
100
AcDbVertex
100
AcDb3dPolylineVertex
 10
423224.2150000001
 20
545588.972
 30
95.788
 70
    32
  0
VERTEX
  5
379
330
375
100
AcDbEntity
  8
0
  6
DashDot_Line
 62
    40
100
AcDbVertex
100
AcDb3dPolylineVertex
 10
423230.461
 20
545588.436
 30
95.963
 70
    32
  0
VERTEX
  5
37A
330
375
100
AcDbEntity
  8
0
  6
DashDot_Line
 62
    40
100
AcDbVertex
100
AcDb3dPolylineVertex
 10
423237.277
 20
545587.614
 30
96.185
 70
    32
  0
VERTEX
  5
37B
330
375
100
AcDbEntity
  8
0
  6
DashDot_Line
 62
    40
100
AcDbVertex
100
AcDb3dPolylineVertex
 10
423245.034
 20
545586.893
 30
96.39
 70
    32
  0
VERTEX
  5
37C
330
375
100
AcDbEntity
  8
0
  6
DashDot_Line
 62
    40
100
AcDbVertex
100
AcDb3dPolylineVertex
 10
423245.235
 20
545589.037
 30
96.314
 70
    32
  0
VERTEX
  5
37D
330
375
100
AcDbEntity
  8
0
  6
DashDot_Line
 62
    40
100
AcDbVertex
100
AcDb3dPolylineVertex
 10
423238.7
 20
545589.507
 30
96.092
 70
    32
  0
VERTEX
  5
37E
330
375
100
AcDbEntity
  8
0
  6
DashDot_Line
 62
    40
100
AcDbVertex
100
AcDb3dPolylineVertex
 10
423230.756
 20
545590.266
 30
95.934
 70
    32
  0
VERTEX
  5
37F
330
375
100
AcDbEntity
  8
0
  6
DashDot_Line
 62
    40
100
AcDbVertex
100
AcDb3dPolylineVertex
 10
423224.44
 20
545590.972
 30
95.781
 70
    32
  0
VERTEX
  5
380
330
375
100
AcDbEntity
  8
0
  6
DashDot_Line
 62
    40
100
AcDbVertex
100
AcDb3dPolylineVertex
 10
423215.241
 20
545591.834
 30
95.708
 70
    32
  0
VERTEX
  5
381
330
375
100
AcDbEntity
  8
0
  6
DashDot_Line
 62
    40
100
AcDbVertex
100
AcDb3dPolylineVertex
 10
423215.173
 20
545589.879
 30
95.751
 70
    32
  0
SEQEND
  5
382
330
375
100
AcDbEntity
  8
0
  0
POLYLINE
  5
383
330
1D
100
AcDbEntity
  8
0
  6
Solid_Line
 62
   151
100
AcDb3dPolyline
 66
     1
 10
0.0
 20
0.0
 30
0.0
 70
     9
  0
VERTEX
  5
384
330
383
100
AcDbEntity
  8
0
  6
Solid_Line
 62
   151
100
AcDbVertex
100
AcDb3dPolylineVertex
 10
423177.844
 20
545604.606
 30
94.437
 70
    32
  0
VERTEX
  5
385
330
383
100
AcDbEntity
  8
0
  6
Solid_Line
 62
   151
100
AcDbVertex
100
AcDb3dPolylineVertex
 10
423177.021
 20
545603.911
 30
94.531
 70
    32
  0
VERTEX
  5
386
330
383
100
AcDbEntity
  8
0
  6
Solid_Line
 62
   151
100
AcDbVertex
100
AcDb3dPolylineVertex
 10
423176.207
 20
545603.259
 30
94.578
 70
    32
  0
VERTEX
  5
387
330
383
100
AcDbEntity
  8
0
  6
Solid_Line
 62
   151
100
AcDbVertex
100
AcDb3dPolylineVertex
 10
423175.755
 20
545603.639
 30
94.55
 70
    32
  0
VERTEX
  5
388
330
383
100
AcDbEntity
  8
0
  6
Solid_Line
 62
   151
100
AcDbVertex
100
AcDb3dPolylineVertex
 10
423176.174
 20
545604.807
 30
94.491
 70
    32
  0
VERTEX
  5
389
330
383
100
AcDbEntity
  8
0
  6
Solid_Line
 62
   151
100
AcDbVertex
100
AcDb3dPolylineVertex
 10
423176.494
 20
545605.85
 30
94.571
 70
    32
  0
VERTEX
  5
38A
330
383
100
AcDbEntity
  8
0
  6
Solid_Line
 62
   151
100
AcDbVertex
100
AcDb3dPolylineVertex
 10
423177.844
 20
545604.606
 30
94.437
 70
    32
  0
SEQEND
  5
38B
330
383
100
AcDbEntity
  8
0
  0
ENDSEC
  0
SECTION
  2
OBJECTS
  0
DICTIONARY
  5
C
330
0
100
AcDbDictionary
281
     1
  3
ACAD_DETAILVIEWSTYLE
350
3CF
  3
ACAD_GROUP
350
D
  3
ACAD_LAYOUT
350
1A
  3
ACAD_MATERIAL
350
3BF
  3
ACAD_MLEADERSTYLE
350
3C5
  3
ACAD_MLINESTYLE
350
17
  3
ACAD_PLOTSETTINGS
350
19
  3
ACAD_PLOTSTYLENAME
350
E
  3
ACAD_SCALELIST
350
390
  3
ACAD_SECTIONVIEWSTYLE
350
3D0
  3
ACAD_TABLESTYLE
350
3C3
  3
ACAD_VISUALSTYLE
350
3A6
  3
ACDB_RECOMPOSE_DATA
350
3CB
  3
AcDbVariableDictionary
350
3C7
  0
DICTIONARY
  5
3CF
102
{ACAD_REACTORS
330
C
102
}
330
C
100
AcDbDictionary
281
     1
  0
DICTIONARY
  5
D
102
{ACAD_REACTORS
330
C
102
}
330
C
100
AcDbDictionary
281
     1
  0
DICTIONARY
  5
1A
102
{ACAD_REACTORS
330
C
102
}
330
C
100
AcDbDictionary
281
     1
  3
Layout1
350
1C
  3
Model
350
1E
  0
DICTIONARY
  5
3BF
102
{ACAD_REACTORS
330
C
102
}
330
C
100
AcDbDictionary
281
     1
  3
ByBlock
350
3C1
  3
ByLayer
350
3C0
  3
Global
350
3C2
  0
DICTIONARY
  5
3C5
102
{ACAD_REACTORS
330
C
102
}
330
C
100
AcDbDictionary
281
     1
  3
Standard
350
3C6
  0
DICTIONARY
  5
17
102
{ACAD_REACTORS
330
C
102
}
330
C
100
AcDbDictionary
281
     1
  3
Standard
350
18
  0
DICTIONARY
  5
19
102
{ACAD_REACTORS
330
C
102
}
330
C
100
AcDbDictionary
281
     1
  0
ACDBDICTIONARYWDFLT
  5
E
102
{ACAD_REACTORS
330
C
102
}
330
C
100
AcDbDictionary
281
     1
  3
Normal
350
F
100
AcDbDictionaryWithDefault
340
F
  0
DICTIONARY
  5
390
102
{ACAD_REACTORS
330
C
102
}
330
C
100
AcDbDictionary
281
     1
  3
A0
350
391
  3
A1
350
392
  3
A2
350
393
  3
A3
350
394
  3
A4
350
395
  3
A5
350
396
  3
A6
350
397
  3
A7
350
398
  3
A8
350
399
  3
A9
350
39A
  3
B0
350
39B
  3
B1
350
39C
  3
B2
350
39D
  3
B3
350
39E
  3
B4
350
39F
  3
B5
350
3A0
  3
B6
350
3A1
  0
DICTIONARY
  5
3D0
102
{ACAD_REACTORS
330
C
102
}
330
C
100
AcDbDictionary
281
     1
  0
DICTIONARY
  5
3C3
102
{ACAD_REACTORS
330
C
102
}
330
C
100
AcDbDictionary
281
     1
  3
Standard
350
3C4
  0
DICTIONARY
  5
3A6
102
{ACAD_REACTORS
330
C
102
}
330
C
100
AcDbDictionary
281
     1
  3
2dWireframe
350
3AB
  3
Basic
350
3AE
  3
Brighten
350
3B2
  3
ColorChange
350
3B6
  3
Conceptual
350
3B0
  3
Dim
350
3B1
  3
EdgeColorOff
350
3B9
  3
Facepattern
350
3B5
  3
Flat
350
3A7
  3
FlatWithEdges
350
3A8
  3
Gouraud
350
3A9
  3
GouraudWithEdges
350
3AA
  3
Hidden
350
3AD
  3
JitterOff
350
3B7
  3
Linepattern
350
3B4
  3
OverhangOff
350
3B8
  3
Realistic
350
3AF
  3
Shaded
350
3BE
  3
Shaded with edges
350
3BD
  3
Shades of Gray
350
3BA
  3
Sketchy
350
3BB
  3
Thicken
350
3B3
  3
Wireframe
350
3AC
  3
X-Ray
350
3BC
  0
XRECORD
  5
3CB
102
{ACAD_REACTORS
330
C
102
}
330
C
100
AcDbXrecord
280
     1
 90
        1
330
3C4
  0
DICTIONARY
  5
3C7
102
{ACAD_REACTORS
330
C
102
}
330
C
100
AcDbDictionary
281
     1
  3
CANNOSCALE
350
3C8
  3
CMLEADERSTYLE
350
3CD
  3
CTABLESTYLE
350
3CC
  3
MSLTSCALE
350
3CE
  0
LAYOUT
  5
1C
102
{ACAD_REACTORS
330
1A
102
}
330
1A
100
AcDbPlotSettings
  1

  2
none_device
  4

  6

 40
0.0
 41
0.0
 42
0.0
 43
0.0
 44
0.0
 45
0.0
 46
0.0
 47
0.0
 48
0.0
 49
0.0
140
0.0
141
0.0
142
1.0
143
1.0
 70
   688
 72
     0
 73
     0
 74
     5
  7

 75
    16
 76
     0
 77
     2
 78
   300
147
1.0
148
0.0
149
0.0
100
AcDbLayout
  1
Layout1
 70
     1
 71
     1
 10
0.0
 20
0.0
 11
12.0
 21
9.0
 12
0.0
 22
0.0
 32
0.0
 14
1.000000000000000E+20
 24
1.000000000000000E+20
 34
1.000000000000000E+20
 15
-1.000000000000000E+20
 25
-1.000000000000000E+20
 35
-1.000000000000000E+20
146
0.0
 13
0.0
 23
0.0
 33
0.0
 16
1.0
 26
0.0
 36
0.0
 17
0.0
 27
1.0
 37
0.0
 76
     0
330
1B
  0
LAYOUT
  5
1E
102
{ACAD_REACTORS
330
1A
102
}
330
1A
100
AcDbPlotSettings
  1

  2
none_device
  4
Letter_(8.50_x_11.00_Inches)
  6

 40
6.35
 41
6.35
 42
6.35000508
 43
6.35000508
 44
215.9
 45
279.4
 46
0.0
 47
0.0
 48
0.0
 49
0.0
140
0.0
141
0.0
142
1.0
143
1.0
 70
  1712
 72
     0
 73
     0
 74
     0
  7

 75
     0
 76
     0
 77
     2
 78
   300
147
1.0
148
0.0
149
0.0
100
AcDbLayout
  1
Model
 70
     1
 71
     0
 10
0.0
 20
0.0
 11
12.0
 21
9.0
 12
0.0
 22
0.0
 32
0.0
 14
0.0
 24
0.0
 34
0.0
 15
0.0
 25
0.0
 35
0.0
146
0.0
 13
0.0
 23
0.0
 33
0.0
 16
1.0
 26
0.0
 36
0.0
 17
0.0
 27
1.0
 37
0.0
 76
     0
330
1D
331
27
  0
MATERIAL
  5
3C1
102
{ACAD_REACTORS
330
3BF
102
}
330
3BF
100
AcDbMaterial
  1
ByBlock
 72
     1
 94
      127
  0
MATERIAL
  5
3C0
102
{ACAD_REACTORS
330
3BF
102
}
330
3BF
100
AcDbMaterial
  1
ByLayer
 72
     1
 94
      127
  0
MATERIAL
  5
3C2
102
{ACAD_REACTORS
330
3BF
102
}
330
3BF
100
AcDbMaterial
  1
Global
 72
     1
 94
      127
  0
MLEADERSTYLE
  5
3C6
102
{ACAD_REACTORS
330
3C5
102
}
330
3C5
100
AcDbMLeaderStyle
179
     2
170
     2
171
     1
172
     0
 90
        2
 40
0.0
 41
0.0
173
     1
 91
-1056964608
340
14
 92
       -2
290
     1
 42
2.0
291
     1
 43
8.0
  3
Standard
341
0
 44
4.0
300

342
11
174
     1
178
     6
175
     1
176
     0
 93
-1056964608
 45
4.0
292
     0
297
     0
 46
4.0
343
0
 94
-1056964608
 47
1.0
 49
1.0
140
1.0
293
     1
141
0.0
294
     1
177
     0
142
1.0
295
     0
296
     0
143
3.75
271
     0
272
     9
273
     9
298
     0
  0
MLINESTYLE
  5
18
102
{ACAD_REACTORS
330
17
102
}
330
17
100
AcDbMlineStyle
  2
Standard
 70
     0
  3

 62
   256
 51
90.0
 52
90.0
 71
     2
 49
0.5
 62
   256
  6
BYLAYER
 49
-0.5
 62
   256
  6
BYLAYER
  0
ACDBPLACEHOLDER
  5
F
102
{ACAD_REACTORS
330
E
102
}
330
E
  0
SCALE
  5
391
102
{ACAD_REACTORS
330
390
102
}
330
390
100
AcDbScale
 70
     0
300
1:1
140
1.0
141
1.0
290
     1
  0
SCALE
  5
392
102
{ACAD_REACTORS
330
390
102
}
330
390
100
AcDbScale
 70
     0
300
1:2
140
1.0
141
2.0
290
     0
  0
SCALE
  5
393
102
{ACAD_REACTORS
330
390
102
}
330
390
100
AcDbScale
 70
     0
300
1:4
140
1.0
141
4.0
290
     0
  0
SCALE
  5
394
102
{ACAD_REACTORS
330
390
102
}
330
390
100
AcDbScale
 70
     0
300
1:5
140
1.0
141
5.0
290
     0
  0
SCALE
  5
395
102
{ACAD_REACTORS
330
390
102
}
330
390
100
AcDbScale
 70
     0
300
1:8
140
1.0
141
8.0
290
     0
  0
SCALE
  5
396
102
{ACAD_REACTORS
330
390
102
}
330
390
100
AcDbScale
 70
     0
300
1:10
140
1.0
141
10.0
290
     0
  0
SCALE
  5
397
102
{ACAD_REACTORS
330
390
102
}
330
390
100
AcDbScale
 70
     0
300
1:16
140
1.0
141
16.0
290
     0
  0
SCALE
  5
398
102
{ACAD_REACTORS
330
390
102
}
330
390
100
AcDbScale
 70
     0
300
1:20
140
1.0
141
20.0
290
     0
  0
SCALE
  5
399
102
{ACAD_REACTORS
330
390
102
}
330
390
100
AcDbScale
 70
     0
300
1:30
140
1.0
141
30.0
290
     0
  0
SCALE
  5
39A
102
{ACAD_REACTORS
330
390
102
}
330
390
100
AcDbScale
 70
     0
300
1:40
140
1.0
141
40.0
290
     0
  0
SCALE
  5
39B
102
{ACAD_REACTORS
330
390
102
}
330
390
100
AcDbScale
 70
     0
300
1:50
140
1.0
141
50.0
290
     0
  0
SCALE
  5
39C
102
{ACAD_REACTORS
330
390
102
}
330
390
100
AcDbScale
 70
     0
300
1:100
140
1.0
141
100.0
290
     0
  0
SCALE
  5
39D
102
{ACAD_REACTORS
330
390
102
}
330
390
100
AcDbScale
 70
     0
300
2:1
140
2.0
141
1.0
290
     0
  0
SCALE
  5
39E
102
{ACAD_REACTORS
330
390
102
}
330
390
100
AcDbScale
 70
     0
300
4:1
140
4.0
141
1.0
290
     0
  0
SCALE
  5
39F
102
{ACAD_REACTORS
330
390
102
}
330
390
100
AcDbScale
 70
     0
300
8:1
140
8.0
141
1.0
290
     0
  0
SCALE
  5
3A0
102
{ACAD_REACTORS
330
390
102
}
330
390
100
AcDbScale
 70
     0
300
10:1
140
10.0
141
1.0
290
     0
  0
SCALE
  5
3A1
102
{ACAD_REACTORS
330
390
102
}
330
390
100
AcDbScale
 70
     0
300
100:1
140
100.0
141
1.0
290
     0
  0
TABLESTYLE
  5
3C4
102
{ACAD_REACTORS
330
3C3
102
}
102
{ACAD_XDICTIONARY
360
3C9
102
}
330
3C3
100
AcDbTableStyle
  3
Standard
 70
     0
 71
     0
 40
0.06
 41
0.06
280
     0
281
     0
  7
Standard
140
4.5
170
     2
 62
     0
 63
   257
283
     0
 90
        4
 91
        0
  1

274
    -2
284
     1
 64
     0
275
    -2
285
     1
 65
     0
276
    -2
286
     1
 66
     0
277
    -2
287
     1
 67
     0
278
    -2
288
     1
 68
     0
279
    -2
289
     1
 69
     0
  7
Standard
140
6.0
170
     5
 62
     0
 63
   257
283
     0
 90
        4
 91
        0
  1

274
    -2
284
     1
 64
     0
275
    -2
285
     1
 65
     0
276
    -2
286
     1
 66
     0
277
    -2
287
     1
 67
     0
278
    -2
288
     1
 68
     0
279
    -2
289
     1
 69
     0
  7
Standard
140
4.5
170
     5
 62
     0
 63
   257
283
     0
 90
        4
 91
        0
  1

274
    -2
284
     1
 64
     0
275
    -2
285
     1
 65
     0
276
    -2
286
     1
 66
     0
277
    -2
287
     1
 67
     0
278
    -2
288
     1
 68
     0
279
    -2
289
     1
 69
     0
  0
VISUALSTYLE
  5
3AB
102
{ACAD_REACTORS
330
3A6
102
}
330
3A6
100
AcDbVisualStyle
  2
2dWireframe
 70
     4
177
     3
291
     0
 70
    58
 90
        0
176
     1
 90
        2
176
     1
 90
        0
176
     1
 90
        0
176
     1
 40
0.6
176
     1
 40
30.0
176
     1
 62
     7
420
 16777215
176
     1
 90
        1
176
     1
 90
        4
176
     1
 62
     7
176
     1
 62
   257
176
     1
 90
        1
176
     1
 90
        1
176
     1
 40
1.0
176
     1
 90
        0
176
     1
 62
   257
176
     1
 40
1.0
176
     1
 90
        1
176
     1
 90
        6
176
     1
 90
        2
176
     1
 62
     7
176
     1
 90
        5
176
     1
 90
        0
176
     1
 90
        0
176
     1
290
     0
176
     1
 90
        1
176
     1
 40
0.0
176
     1
 90
        0
176
     1
290
     1
176
     1
290
     1
176
     1
290
     0
176
     1
290
     0
176
     1
290
     0
176
     1
290
     0
176
     1
290
     0
176
     1
290
     0
176
     1
290
     0
176
     1
 90
       50
176
     1
 40
0.0
176
     1
 40
1.0
176
     1
 90
        0
176
     1
 62
    18
420
        0
176
     1
 90
       50
176
     1
 90
        3
176
     1
 62
     5
420
      255
176
     1
290
     0
176
     1
 90
       50
176
     1
 90
       50
176
     1
 90
       50
176
     1
290
     0
176
     1
 90
       50
176
     1
 62
   256
176
     0
 40
1.0
176
     0
 90
        2
176
     1
  1
strokes_ogs.tif
176
     1
290
     0
176
     1
 40
1.0
176
     1
 40
1.0
176
     1
  0
VISUALSTYLE
  5
3AE
102
{ACAD_REACTORS
330
3A6
102
}
330
3A6
100
AcDbVisualStyle
  2
Basic
 70
     7
177
     3
291
     1
 70
    58
 90
        1
176
     1
 90
        0
176
     1
 90
        1
176
     1
 90
        0
176
     1
 40
0.6
176
     1
 40
30.0
176
     1
 62
     7
420
 16777215
176
     1
 90
        0
176
     1
 90
        4
176
     1
 62
     7
176
     1
 62
   257
176
     1
 90
        1
176
     1
 90
        1
176
     1
 40
1.0
176
     1
 90
        8
176
     1
 62
     7
176
     1
 40
1.0
176
     1
 90
        1
176
     1
 90
        6
176
     1
 90
        2
176
     1
 62
     7
176
     1
 90
        5
176
     1
 90
        0
176
     1
 90
        0
176
     1
290
     0
176
     1
 90
        1
176
     1
 40
0.0
176
     1
 90
        0
176
     1
290
     0
176
     1
290
     1
176
     1
290
     1
176
     1
290
     0
176
     1
290
     0
176
     1
290
     0
176
     1
290
     0
176
     1
290
     0
176
     1
290
     0
176
     1
 90
       50
176
     1
 40
0.0
176
     1
 40
1.0
176
     1
 90
        0
176
     1
 62
    18
420
        0
176
     1
 90
       50
176
     1
 90
        3
176
     1
 62
     5
420
      255
176
     1
290
     0
176
     1
 90
       50
176
     1
 90
       50
176
     1
 90
       50
176
     1
290
     0
176
     1
 90
       50
176
     1
 62
   256
176
     0
 40
1.0
176
     0
 90
        2
176
     1
  1
strokes_ogs.tif
176
     1
290
     0
176
     1
 40
1.0
176
     1
 40
1.0
176
     1
  0
VISUALSTYLE
  5
3B2
102
{ACAD_REACTORS
330
3A6
102
}
330
3A6
100
AcDbVisualStyle
  2
Brighten
 70
    12
177
     3
291
     1
 70
    58
 90
        2
176
     1
 90
        2
176
     1
 90
        0
176
     1
 90
        0
176
     1
 40
0.6
176
     1
 40
30.0
176
     1
 62
     7
420
 16777215
176
     1
 90
        1
176
     1
 90
        4
176
     1
 62
     7
176
     1
 62
   257
176
     1
 90
        1
176
     1
 90
        1
176
     1
 40
1.0
176
     1
 90
        8
176
     1
 62
     7
176
     1
 40
1.0
176
     1
 90
        1
176
     1
 90
        6
176
     1
 90
        2
176
     1
 62
     7
176
     1
 90
        5
176
     1
 90
        0
176
     1
 90
        0
176
     1
290
     0
176
     1
 90
        1
176
     1
 40
50.0
176
     1
 90
        0
176
     1
290
     0
176
     1
290
     1
176
     1
290
     1
176
     1
290
     0
176
     1
290
     0
176
     1
290
     0
176
     1
290
     0
176
     1
290
     0
176
     1
290
     0
176
     1
 90
       50
176
     1
 40
0.0
176
     1
 40
1.0
176
     1
 90
        0
176
     1
 62
    18
420
        0
176
     1
 90
       50
176
     1
 90
        3
176
     1
 62
     5
420
      255
176
     1
290
     0
176
     1
 90
       50
176
     1
 90
       50
176
     1
 90
       50
176
     1
290
     0
176
     1
 90
       50
176
     1
 62
   256
176
     0
 40
1.0
176
     0
 90
        2
176
     1
  1
strokes_ogs.tif
176
     1
290
     0
176
     1
 40
1.0
176
     1
 40
1.0
176
     1
  0
VISUALSTYLE
  5
3B6
102
{ACAD_REACTORS
330
3A6
102
}
330
3A6
100
AcDbVisualStyle
  2
ColorChange
 70
    16
177
     3
291
     1
 70
    58
 90
        2
176
     1
 90
        2
176
     1
 90
        3
176
     1
 90
        0
176
     1
 40
0.6
176
     1
 40
30.0
176
     1
 62
     8
420
  8421504
176
     1
 90
        1
176
     1
 90
        4
176
     1
 62
     7
176
     1
 62
   257
176
     1
 90
        1
176
     1
 90
        1
176
     1
 40
1.0
176
     1
 90
        8
176
     1
 62
     8
420
  8421504
176
     1
 40
1.0
176
     1
 90
        1
176
     1
 90
        6
176
     1
 90
        2
176
     1
 62
     7
176
     1
 90
        5
176
     1
 90
        0
176
     1
 90
        0
176
     1
290
     0
176
     1
 90
        1
176
     1
 40
0.0
176
     1
 90
        0
176
     1
290
     0
176
     1
290
     1
176
     1
290
     1
176
     1
290
     0
176
     1
290
     0
176
     1
290
     0
176
     1
290
     0
176
     1
290
     0
176
     1
290
     0
176
     1
 90
       50
176
     1
 40
0.0
176
     1
 40
1.0
176
     1
 90
        0
176
     1
 62
    18
420
        0
176
     1
 90
       50
176
     1
 90
        3
176
     1
 62
     5
420
      255
176
     1
290
     0
176
     1
 90
       50
176
     1
 90
       50
176
     1
 90
       50
176
     1
290
     0
176
     1
 90
       50
176
     1
 62
   256
176
     0
 40
1.0
176
     0
 90
        2
176
     1
  1
strokes_ogs.tif
176
     1
290
     0
176
     1
 40
1.0
176
     1
 40
1.0
176
     1
  0
VISUALSTYLE
  5
3B0
102
{ACAD_REACTORS
330
3A6
102
}
330
3A6
100
AcDbVisualStyle
  2
Conceptual
 70
     9
177
     3
291
     0
 70
    58
 90
        3
176
     1
 90
        2
176
     1
 90
        0
176
     1
 90
        0
176
     1
 40
0.6
176
     1
 40
30.0
176
     1
 62
     7
420
 16777215
176
     1
 90
        2
176
     1
 90
        2
176
     1
 62
     7
176
     1
 62
   257
176
     1
 90
        1
176
     1
 90
        1
176
     1
 40
179.0
176
     1
 90
        8
176
     1
 62
     7
176
     1
 40
1.0
176
     1
 90
        1
176
     1
 90
        6
176
     1
 90
        2
176
     1
 62
     7
176
     1
 90
        3
176
     1
 90
        0
176
     1
 90
        0
176
     1
290
     0
176
     1
 90
        1
176
     1
 40
0.0
176
     1
 90
        0
176
     1
290
     0
176
     1
290
     1
176
     1
290
     1
176
     1
290
     0
176
     1
290
     0
176
     1
290
     0
176
     1
290
     0
176
     1
290
     0
176
     1
290
     0
176
     1
 90
       50
176
     1
 40
0.0
176
     1
 40
1.0
176
     1
 90
        0
176
     1
 62
    18
420
        0
176
     1
 90
       50
176
     1
 90
        3
176
     1
 62
     5
420
      255
176
     1
290
     0
176
     1
 90
       50
176
     1
 90
       50
176
     1
 90
       50
176
     1
290
     0
176
     1
 90
       50
176
     1
 62
   256
176
     0
 40
1.0
176
     0
 90
        2
176
     1
  1
strokes_ogs.tif
176
     1
290
     0
176
     1
 40
1.0
176
     1
 40
1.0
176
     1
  0
VISUALSTYLE
  5
3B1
102
{ACAD_REACTORS
330
3A6
102
}
330
3A6
100
AcDbVisualStyle
  2
Dim
 70
    11
177
     3
291
     1
 70
    58
 90
        2
176
     1
 90
        2
176
     1
 90
        0
176
     1
 90
        0
176
     1
 40
0.6
176
     1
 40
30.0
176
     1
 62
     7
420
 16777215
176
     1
 90
        1
176
     1
 90
        4
176
     1
 62
     7
176
     1
 62
   257
176
     1
 90
        1
176
     1
 90
        1
176
     1
 40
1.0
176
     1
 90
        8
176
     1
 62
     7
176
     1
 40
1.0
176
     1
 90
        1
176
     1
 90
        6
176
     1
 90
        2
176
     1
 62
     7
176
     1
 90
        5
176
     1
 90
        0
176
     1
 90
        0
176
     1
290
     0
176
     1
 90
        1
176
     1
 40
-50.0
176
     1
 90
        0
176
     1
290
     0
176
     1
290
     1
176
     1
290
     1
176
     1
290
     0
176
     1
290
     0
176
     1
290
     0
176
     1
290
     0
176
     1
290
     0
176
     1
290
     0
176
     1
 90
       50
176
     1
 40
0.0
176
     1
 40
1.0
176
     1
 90
        0
176
     1
 62
    18
420
        0
176
     1
 90
       50
176
     1
 90
        3
176
     1
 62
     5
420
      255
176
     1
290
     0
176
     1
 90
       50
176
     1
 90
       50
176
     1
 90
       50
176
     1
290
     0
176
     1
 90
       50
176
     1
 62
   256
176
     0
 40
1.0
176
     0
 90
        2
176
     1
  1
strokes_ogs.tif
176
     1
290
     0
176
     1
 40
1.0
176
     1
 40
1.0
176
     1
  0
VISUALSTYLE
  5
3B9
102
{ACAD_REACTORS
330
3A6
102
}
330
3A6
100
AcDbVisualStyle
  2
EdgeColorOff
 70
    22
177
     3
291
     1
 70
    58
 90
        2
176
     0
 90
        2
176
     0
 90
        0
176
     0
 90
        0
176
     0
 40
0.6
176
     0
 40
30.0
176
     0
 62
     7
420
 16777215
176
     0
 90
        1
176
     0
 90
        4
176
     0
 62
     7
176
     0
 62
   257
176
     0
 90
        1
176
     0
 90
        1
176
     0
 40
1.0
176
     0
 90
        8
176
     2
 62
     7
176
     0
 40
1.0
176
     0
 90
        1
176
     0
 90
        6
176
     0
 90
        2
176
     0
 62
     7
176
     0
 90
        5
176
     0
 90
        0
176
     0
 90
        0
176
     0
290
     0
176
     0
 90
        1
176
     0
 40
0.0
176
     0
 90
        0
176
     0
290
     0
176
     0
290
     1
176
     0
290
     1
176
     0
290
     0
176
     0
290
     0
176
     0
290
     0
176
     0
290
     0
176
     0
290
     0
176
     0
290
     0
176
     0
 90
       50
176
     0
 40
0.0
176
     0
 40
1.0
176
     0
 90
        0
176
     0
 62
    18
420
        0
176
     0
 90
       50
176
     0
 90
        3
176
     0
 62
     5
420
      255
176
     0
290
     0
176
     0
 90
       50
176
     0
 90
       50
176
     0
 90
       50
176
     0
290
     0
176
     0
 90
       50
176
     0
 62
   256
176
     0
 40
1.0
176
     0
 90
        2
176
     0
  1
strokes_ogs.tif
176
     0
290
     0
176
     0
 40
1.0
176
     0
 40
1.0
176
     0
  0
VISUALSTYLE
  5
3B5
102
{ACAD_REACTORS
330
3A6
102
}
330
3A6
100
AcDbVisualStyle
  2
Facepattern
 70
    15
177
     3
291
     1
 70
    58
 90
        2
176
     1
 90
        2
176
     1
 90
        0
176
     1
 90
        0
176
     1
 40
0.6
176
     1
 40
30.0
176
     1
 62
     7
420
 16777215
176
     1
 90
        1
176
     1
 90
        4
176
     1
 62
     7
176
     1
 62
   257
176
     1
 90
        1
176
     1
 90
        1
176
     1
 40
1.0
176
     1
 90
        8
176
     1
 62
     7
176
     1
 40
1.0
176
     1
 90
        1
176
     1
 90
        6
176
     1
 90
        2
176
     1
 62
     7
176
     1
 90
        5
176
     1
 90
        0
176
     1
 90
        0
176
     1
290
     0
176
     1
 90
        1
176
     1
 40
0.0
176
     1
 90
        0
176
     1
290
     0
176
     1
290
     1
176
     1
290
     1
176
     1
290
     0
176
     1
290
     0
176
     1
290
     0
176
     1
290
     0
176
     1
290
     0
176
     1
290
     0
176
     1
 90
       50
176
     1
 40
0.0
176
     1
 40
1.0
176
     1
 90
        0
176
     1
 62
    18
420
        0
176
     1
 90
       50
176
     1
 90
        3
176
     1
 62
     5
420
      255
176
     1
290
     0
176
     1
 90
       50
176
     1
 90
       50
176
     1
 90
       50
176
     1
290
     0
176
     1
 90
       50
176
     1
 62
   256
176
     0
 40
1.0
176
     0
 90
        2
176
     1
  1
strokes_ogs.tif
176
     1
290
     0
176
     1
 40
1.0
176
     1
 40
1.0
176
     1
  0
VISUALSTYLE
  5
3A7
102
{ACAD_REACTORS
330
3A6
102
}
330
3A6
100
AcDbVisualStyle
  2
Flat
 70
     0
177
     3
291
     1
 70
    58
 90
        2
176
     1
 90
        1
176
     1
 90
        1
176
     1
 90
        2
176
     1
 40
0.6
176
     1
 40
30.0
176
     1
 62
     7
420
 16777215
176
     1
 90
        0
176
     1
 90
        0
176
     1
 62
     7
176
     1
 62
   257
176
     1
 90
        1
176
     1
 90
        1
176
     1
 40
1.0
176
     1
 90
        8
176
     1
 62
     7
176
     1
 40
1.0
176
     1
 90
        1
176
     1
 90
        6
176
     1
 90
        2
176
     1
 62
     7
176
     1
 90
        5
176
     1
 90
        0
176
     1
 90
        0
176
     1
290
     0
176
     1
 90
       13
176
     1
 40
0.0
176
     1
 90
        0
176
     1
290
     0
176
     1
290
     1
176
     1
290
     1
176
     1
290
     0
176
     1
290
     0
176
     1
290
     0
176
     1
290
     0
176
     1
290
     0
176
     1
290
     0
176
     1
 90
       50
176
     1
 40
0.0
176
     1
 40
1.0
176
     1
 90
        0
176
     1
 62
    18
420
        0
176
     1
 90
       50
176
     1
 90
        3
176
     1
 62
     5
420
      255
176
     1
290
     0
176
     1
 90
       50
176
     1
 90
       50
176
     1
 90
       50
176
     1
290
     0
176
     1
 90
       50
176
     1
 62
   256
176
     0
 40
1.0
176
     0
 90
        2
176
     1
  1
strokes_ogs.tif
176
     1
290
     0
176
     1
 40
1.0
176
     1
 40
1.0
176
     1
  0
VISUALSTYLE
  5
3A8
102
{ACAD_REACTORS
330
3A6
102
}
330
3A6
100
AcDbVisualStyle
  2
FlatWithEdges
 70
     1
177
     3
291
     1
 70
    58
 90
        2
176
     1
 90
        1
176
     1
 90
        1
176
     1
 90
        2
176
     1
 40
0.6
176
     1
 40
30.0
176
     1
 62
     7
420
 16777215
176
     1
 90
        1
176
     1
 90
        0
176
     1
 62
     7
176
     1
 62
   257
176
     1
 90
        1
176
     1
 90
        1
176
     1
 40
1.0
176
     1
 90
        0
176
     1
 62
   257
176
     1
 40
1.0
176
     1
 90
        1
176
     1
 90
        6
176
     1
 90
        2
176
     1
 62
     7
176
     1
 90
        5
176
     1
 90
        0
176
     1
 90
        0
176
     1
290
     0
176
     1
 90
       13
176
     1
 40
0.0
176
     1
 90
        0
176
     1
290
     0
176
     1
290
     1
176
     1
290
     1
176
     1
290
     0
176
     1
290
     0
176
     1
290
     0
176
     1
290
     0
176
     1
290
     0
176
     1
290
     0
176
     1
 90
       50
176
     1
 40
0.0
176
     1
 40
1.0
176
     1
 90
        0
176
     1
 62
    18
420
        0
176
     1
 90
       50
176
     1
 90
        3
176
     1
 62
     5
420
      255
176
     1
290
     0
176
     1
 90
       50
176
     1
 90
       50
176
     1
 90
       50
176
     1
290
     0
176
     1
 90
       50
176
     1
 62
   256
176
     0
 40
1.0
176
     0
 90
        2
176
     1
  1
strokes_ogs.tif
176
     1
290
     0
176
     1
 40
1.0
176
     1
 40
1.0
176
     1
  0
VISUALSTYLE
  5
3A9
102
{ACAD_REACTORS
330
3A6
102
}
330
3A6
100
AcDbVisualStyle
  2
Gouraud
 70
     2
177
     3
291
     1
 70
    58
 90
        2
176
     1
 90
        2
176
     1
 90
        1
176
     1
 90
        2
176
     1
 40
0.6
176
     1
 40
30.0
176
     1
 62
     7
420
 16777215
176
     1
 90
        0
176
     1
 90
        0
176
     1
 62
     7
176
     1
 62
   257
176
     1
 90
        1
176
     1
 90
        1
176
     1
 40
1.0
176
     1
 90
        0
176
     1
 62
     7
176
     1
 40
1.0
176
     1
 90
        1
176
     1
 90
        6
176
     1
 90
        2
176
     1
 62
     7
176
     1
 90
        5
176
     1
 90
        0
176
     1
 90
        0
176
     1
290
     0
176
     1
 90
       13
176
     1
 40
0.0
176
     1
 90
        0
176
     1
290
     0
176
     1
290
     1
176
     1
290
     1
176
     1
290
     0
176
     1
290
     0
176
     1
290
     0
176
     1
290
     0
176
     1
290
     0
176
     1
290
     0
176
     1
 90
       50
176
     1
 40
0.0
176
     1
 40
1.0
176
     1
 90
        0
176
     1
 62
    18
420
        0
176
     1
 90
       50
176
     1
 90
        3
176
     1
 62
     5
420
      255
176
     1
290
     0
176
     1
 90
       50
176
     1
 90
       50
176
     1
 90
       50
176
     1
290
     0
176
     1
 90
       50
176
     1
 62
   256
176
     0
 40
1.0
176
     0
 90
        2
176
     1
  1
strokes_ogs.tif
176
     1
290
     0
176
     1
 40
1.0
176
     1
 40
1.0
176
     1
  0
VISUALSTYLE
  5
3AA
102
{ACAD_REACTORS
330
3A6
102
}
330
3A6
100
AcDbVisualStyle
  2
GouraudWithEdges
 70
     3
177
     3
291
     1
 70
    58
 90
        2
176
     1
 90
        2
176
     1
 90
        1
176
     1
 90
        2
176
     1
 40
0.6
176
     1
 40
30.0
176
     1
 62
     7
420
 16777215
176
     1
 90
        1
176
     1
 90
        0
176
     1
 62
     7
176
     1
 62
   257
176
     1
 90
        1
176
     1
 90
        1
176
     1
 40
1.0
176
     1
 90
        0
176
     1
 62
   257
176
     1
 40
1.0
176
     1
 90
        1
176
     1
 90
        6
176
     1
 90
        2
176
     1
 62
     7
176
     1
 90
        5
176
     1
 90
        0
176
     1
 90
        0
176
     1
290
     0
176
     1
 90
       13
176
     1
 40
0.0
176
     1
 90
        0
176
     1
290
     0
176
     1
290
     1
176
     1
290
     1
176
     1
290
     0
176
     1
290
     0
176
     1
290
     0
176
     1
290
     0
176
     1
290
     0
176
     1
290
     0
176
     1
 90
       50
176
     1
 40
0.0
176
     1
 40
1.0
176
     1
 90
        0
176
     1
 62
    18
420
        0
176
     1
 90
       50
176
     1
 90
        3
176
     1
 62
     5
420
      255
176
     1
290
     0
176
     1
 90
       50
176
     1
 90
       50
176
     1
 90
       50
176
     1
290
     0
176
     1
 90
       50
176
     1
 62
   256
176
     0
 40
1.0
176
     0
 90
        2
176
     1
  1
strokes_ogs.tif
176
     1
290
     0
176
     1
 40
1.0
176
     1
 40
1.0
176
     1
  0
VISUALSTYLE
  5
3AD
102
{ACAD_REACTORS
330
3A6
102
}
330
3A6
100
AcDbVisualStyle
  2
Hidden
 70
     6
177
     3
291
     0
 70
    58
 90
        1
176
     1
 90
        2
176
     1
 90
        2
176
     1
 90
        0
176
     1
 40
0.6
176
     1
 40
30.0
176
     1
 62
     7
420
 16777215
176
     1
 90
        2
176
     1
 90
        2
176
     1
 62
     7
176
     1
 62
   257
176
     1
 90
        2
176
     1
 90
        1
176
     1
 40
40.0
176
     1
 90
        0
176
     1
 62
   257
176
     1
 40
1.0
176
     1
 90
        1
176
     1
 90
        6
176
     1
 90
        2
176
     1
 62
     7
176
     1
 90
        3
176
     1
 90
        0
176
     1
 90
        0
176
     1
290
     0
176
     1
 90
        1
176
     1
 40
0.0
176
     1
 90
        0
176
     1
290
     0
176
     1
290
     1
176
     1
290
     1
176
     1
290
     0
176
     1
290
     0
176
     1
290
     0
176
     1
290
     0
176
     1
290
     0
176
     1
290
     0
176
     1
 90
       50
176
     1
 40
0.0
176
     1
 40
1.0
176
     1
 90
        0
176
     1
 62
    18
420
        0
176
     1
 90
       50
176
     1
 90
        3
176
     1
 62
     5
420
      255
176
     1
290
     0
176
     1
 90
       50
176
     1
 90
       50
176
     1
 90
       50
176
     1
290
     0
176
     1
 90
       50
176
     1
 62
   256
176
     0
 40
1.0
176
     0
 90
        2
176
     1
  1
strokes_ogs.tif
176
     1
290
     0
176
     1
 40
1.0
176
     1
 40
1.0
176
     1
  0
VISUALSTYLE
  5
3B7
102
{ACAD_REACTORS
330
3A6
102
}
330
3A6
100
AcDbVisualStyle
  2
JitterOff
 70
    20
177
     3
291
     1
 70
    58
 90
        2
176
     0
 90
        2
176
     0
 90
        0
176
     0
 90
        0
176
     0
 40
0.6
176
     0
 40
30.0
176
     0
 62
     7
420
 16777215
176
     0
 90
        1
176
     0
 90
        4
176
     0
 62
     7
176
     0
 62
   257
176
     0
 90
        1
176
     0
 90
        1
176
     0
 40
1.0
176
     0
 90
       10
176
     2
 62
     7
176
     0
 40
1.0
176
     0
 90
        1
176
     0
 90
        6
176
     0
 90
        2
176
     0
 62
     7
176
     0
 90
        5
176
     0
 90
        0
176
     0
 90
        0
176
     0
290
     0
176
     0
 90
        1
176
     0
 40
0.0
176
     0
 90
        0
176
     0
290
     0
176
     0
290
     1
176
     0
290
     1
176
     0
290
     0
176
     0
290
     0
176
     0
290
     0
176
     0
290
     0
176
     0
290
     0
176
     0
290
     0
176
     0
 90
       50
176
     0
 40
0.0
176
     0
 40
1.0
176
     0
 90
        0
176
     0
 62
    18
420
        0
176
     0
 90
       50
176
     0
 90
        3
176
     0
 62
     5
420
      255
176
     0
290
     0
176
     0
 90
       50
176
     0
 90
       50
176
     0
 90
       50
176
     0
290
     0
176
     0
 90
       50
176
     0
 62
   256
176
     0
 40
1.0
176
     0
 90
        2
176
     0
  1
strokes_ogs.tif
176
     0
290
     0
176
     0
 40
1.0
176
     0
 40
1.0
176
     0
  0
VISUALSTYLE
  5
3B4
102
{ACAD_REACTORS
330
3A6
102
}
330
3A6
100
AcDbVisualStyle
  2
Linepattern
 70
    14
177
     3
291
     1
 70
    58
 90
        2
176
     1
 90
        2
176
     1
 90
        0
176
     1
 90
        0
176
     1
 40
0.6
176
     1
 40
30.0
176
     1
 62
     7
420
 16777215
176
     1
 90
        1
176
     1
 90
        4
176
     1
 62
     7
176
     1
 62
   257
176
     1
 90
        7
176
     1
 90
        7
176
     1
 40
1.0
176
     1
 90
        8
176
     1
 62
     7
176
     1
 40
1.0
176
     1
 90
        1
176
     1
 90
        6
176
     1
 90
        2
176
     1
 62
     7
176
     1
 90
        5
176
     1
 90
        0
176
     1
 90
        0
176
     1
290
     0
176
     1
 90
        1
176
     1
 40
0.0
176
     1
 90
        0
176
     1
290
     0
176
     1
290
     1
176
     1
290
     1
176
     1
290
     0
176
     1
290
     0
176
     1
290
     0
176
     1
290
     0
176
     1
290
     0
176
     1
290
     0
176
     1
 90
       50
176
     1
 40
0.0
176
     1
 40
1.0
176
     1
 90
        0
176
     1
 62
    18
420
        0
176
     1
 90
       50
176
     1
 90
        3
176
     1
 62
     5
420
      255
176
     1
290
     0
176
     1
 90
       50
176
     1
 90
       50
176
     1
 90
       50
176
     1
290
     0
176
     1
 90
       50
176
     1
 62
   256
176
     0
 40
1.0
176
     0
 90
        2
176
     1
  1
strokes_ogs.tif
176
     1
290
     0
176
     1
 40
1.0
176
     1
 40
1.0
176
     1
  0
VISUALSTYLE
  5
3B8
102
{ACAD_REACTORS
330
3A6
102
}
330
3A6
100
AcDbVisualStyle
  2
OverhangOff
 70
    21
177
     3
291
     1
 70
    58
 90
        2
176
     0
 90
        2
176
     0
 90
        0
176
     0
 90
        0
176
     0
 40
0.6
176
     0
 40
30.0
176
     0
 62
     7
420
 16777215
176
     0
 90
        1
176
     0
 90
        4
176
     0
 62
     7
176
     0
 62
   257
176
     0
 90
        1
176
     0
 90
        1
176
     0
 40
1.0
176
     0
 90
        9
176
     2
 62
     7
176
     0
 40
1.0
176
     0
 90
        1
176
     0
 90
        6
176
     0
 90
        2
176
     0
 62
     7
176
     0
 90
        5
176
     0
 90
        0
176
     0
 90
        0
176
     0
290
     0
176
     0
 90
        1
176
     0
 40
0.0
176
     0
 90
        0
176
     0
290
     0
176
     0
290
     1
176
     0
290
     1
176
     0
290
     0
176
     0
290
     0
176
     0
290
     0
176
     0
290
     0
176
     0
290
     0
176
     0
290
     0
176
     0
 90
       50
176
     0
 40
0.0
176
     0
 40
1.0
176
     0
 90
        0
176
     0
 62
    18
420
        0
176
     0
 90
       50
176
     0
 90
        3
176
     0
 62
     5
420
      255
176
     0
290
     0
176
     0
 90
       50
176
     0
 90
       50
176
     0
 90
       50
176
     0
290
     0
176
     0
 90
       50
176
     0
 62
   256
176
     0
 40
1.0
176
     0
 90
        2
176
     0
  1
strokes_ogs.tif
176
     0
290
     0
176
     0
 40
1.0
176
     0
 40
1.0
176
     0
  0
VISUALSTYLE
  5
3AF
102
{ACAD_REACTORS
330
3A6
102
}
330
3A6
100
AcDbVisualStyle
  2
Realistic
 70
     8
177
     3
291
     0
 70
    58
 90
        2
176
     1
 90
        3
176
     1
 90
        0
176
     1
 90
        2
176
     1
 40
0.6
176
     1
 40
30.0
176
     1
 62
     7
420
 16777215
176
     1
 90
        0
176
     1
 90
        0
176
     1
 62
     7
176
     1
 62
   257
176
     1
 90
        1
176
     1
 90
        1
176
     1
 40
1.0
176
     1
 90
        8
176
     1
 62
   257
176
     1
 40
1.0
176
     1
 90
        1
176
     1
 90
        6
176
     1
 90
        2
176
     1
 62
     7
176
     1
 90
        3
176
     1
 90
        0
176
     1
 90
        0
176
     1
290
     0
176
     1
 90
       13
176
     1
 40
0.0
176
     1
 90
        0
176
     1
290
     0
176
     1
290
     1
176
     1
290
     1
176
     1
290
     0
176
     1
290
     0
176
     1
290
     0
176
     1
290
     0
176
     1
290
     0
176
     1
290
     0
176
     1
 90
       50
176
     1
 40
0.0
176
     1
 40
1.0
176
     1
 90
        0
176
     1
 62
    18
420
        0
176
     1
 90
       50
176
     1
 90
        3
176
     1
 62
     5
420
      255
176
     1
290
     0
176
     1
 90
       50
176
     1
 90
       50
176
     1
 90
       50
176
     1
290
     0
176
     1
 90
       50
176
     1
 62
   256
176
     0
 40
1.0
176
     0
 90
        2
176
     1
  1
strokes_ogs.tif
176
     1
290
     0
176
     1
 40
1.0
176
     1
 40
1.0
176
     1
  0
VISUALSTYLE
  5
3BE
102
{ACAD_REACTORS
330
3A6
102
}
330
3A6
100
AcDbVisualStyle
  2
Shaded
 70
    27
177
     3
291
     0
 70
    58
 90
        2
176
     1
 90
        2
176
     1
 90
        1
176
     1
 90
        2
176
     1
 40
0.6
176
     1
 40
30.0
176
     1
 62
     7
420
 16777215
176
     1
 90
        0
176
     1
 90
        4
176
     1
 62
     7
176
     1
 62
   257
176
     1
 90
        1
176
     1
 90
        1
176
     1
 40
1.0
176
     1
 90
        8
176
     1
 62
   257
176
     1
 40
1.0
176
     1
 90
        1
176
     1
 90
        6
176
     1
 90
        2
176
     1
 62
     8
420
  7895160
176
     1
 90
        3
176
     1
 90
        0
176
     1
 90
        0
176
     1
290
     0
176
     1
 90
        5
176
     1
 40
0.0
176
     1
 90
        0
176
     1
290
     0
176
     1
290
     1
176
     1
290
     1
176
     1
290
     0
176
     1
290
     0
176
     1
290
     0
176
     1
290
     0
176
     1
290
     0
176
     1
290
     0
176
     1
 90
       50
176
     1
 40
0.0
176
     1
 40
1.0
176
     1
 90
        0
176
     1
 62
    18
420
        0
176
     1
 90
       50
176
     1
 90
        3
176
     1
 62
     5
420
      255
176
     1
290
     0
176
     1
 90
       50
176
     1
 90
       50
176
     1
 90
       50
176
     1
290
     0
176
     1
 90
       50
176
     1
 62
   256
176
     0
 40
1.0
176
     0
 90
        2
176
     1
  1
strokes_ogs.tif
176
     1
290
     0
176
     1
 40
1.0
176
     1
 40
1.0
176
     1
  0
VISUALSTYLE
  5
3BD
102
{ACAD_REACTORS
330
3A6
102
}
330
3A6
100
AcDbVisualStyle
  2
Shaded with edges
 70
    26
177
     3
291
     0
 70
    58
 90
        2
176
     1
 90
        2
176
     1
 90
        1
176
     1
 90
        2
176
     1
 40
0.6
176
     1
 40
30.0
176
     1
 62
     7
420
 16777215
176
     1
 90
        1
176
     1
 90
       10
176
     1
 62
     7
176
     1
 62
   257
176
     1
 90
        2
176
     1
 90
        1
176
     1
 40
1.0
176
     1
 90
        8
176
     1
 62
   257
176
     1
 40
1.0
176
     1
 90
        1
176
     1
 90
        6
176
     1
 90
        2
176
     1
 62
     7
176
     1
 90
        3
176
     1
 90
        0
176
     1
 90
        0
176
     1
290
     0
176
     1
 90
        5
176
     1
 40
0.0
176
     1
 90
        0
176
     1
290
     0
176
     1
290
     1
176
     1
290
     1
176
     1
290
     0
176
     1
290
     0
176
     1
290
     0
176
     1
290
     0
176
     1
290
     0
176
     1
290
     0
176
     1
 90
       50
176
     1
 40
0.0
176
     1
 40
1.0
176
     1
 90
        0
176
     1
 62
    18
420
        0
176
     1
 90
       50
176
     1
 90
        3
176
     1
 62
     5
420
      255
176
     1
290
     0
176
     1
 90
       50
176
     1
 90
       50
176
     1
 90
       50
176
     1
290
     0
176
     1
 90
       50
176
     1
 62
   256
176
     0
 40
1.0
176
     0
 90
        2
176
     1
  1
strokes_ogs.tif
176
     1
290
     0
176
     1
 40
1.0
176
     1
 40
1.0
176
     1
  0
VISUALSTYLE
  5
3BA
102
{ACAD_REACTORS
330
3A6
102
}
330
3A6
100
AcDbVisualStyle
  2
Shades of Gray
 70
    23
177
     3
291
     0
 70
    58
 90
        2
176
     1
 90
        2
176
     1
 90
        3
176
     1
 90
        0
176
     1
 40
0.6
176
     1
 40
30.0
176
     1
 62
     7
420
 16777215
176
     1
 90
        2
176
     1
 90
        2
176
     1
 62
     7
176
     1
 62
     7
176
     1
 90
        1
176
     1
 90
        1
176
     1
 40
40.0
176
     1
 90
        8
176
     1
 62
     7
176
     1
 40
1.0
176
     1
 90
        1
176
     1
 90
        6
176
     1
 90
        2
176
     1
 62
     7
176
     1
 90
        3
176
     1
 90
        0
176
     1
 90
        0
176
     1
290
     0
176
     1
 90
        1
176
     1
 40
0.0
176
     1
 90
        0
176
     1
290
     0
176
     1
290
     1
176
     1
290
     1
176
     1
290
     0
176
     1
290
     0
176
     1
290
     0
176
     1
290
     0
176
     1
290
     0
176
     1
290
     0
176
     1
 90
       50
176
     1
 40
0.0
176
     1
 40
1.0
176
     1
 90
        0
176
     1
 62
    18
420
        0
176
     1
 90
       50
176
     1
 90
        3
176
     1
 62
     5
420
      255
176
     1
290
     0
176
     1
 90
       50
176
     1
 90
       50
176
     1
 90
       50
176
     1
290
     0
176
     1
 90
       50
176
     1
 62
   256
176
     0
 40
1.0
176
     0
 90
        2
176
     1
  1
strokes_ogs.tif
176
     1
290
     0
176
     1
 40
1.0
176
     1
 40
1.0
176
     1
  0
VISUALSTYLE
  5
3BB
102
{ACAD_REACTORS
330
3A6
102
}
330
3A6
100
AcDbVisualStyle
  2
Sketchy
 70
    24
177
     3
291
     0
 70
    58
 90
        1
176
     1
 90
        2
176
     1
 90
        2
176
     1
 90
        0
176
     1
 40
0.6
176
     1
 40
30.0
176
     1
 62
     7
420
 16777215
176
     1
 90
        2
176
     1
 90
        2
176
     1
 62
     7
176
     1
 62
     7
176
     1
 90
        1
176
     1
 90
        1
176
     1
 40
40.0
176
     1
 90
       11
176
     1
 62
     7
176
     1
 40
1.0
176
     1
 90
        1
176
     1
 90
        6
176
     1
 90
        2
176
     1
 62
     7
176
     1
 90
        6
176
     1
 90
        0
176
     1
 90
        0
176
     1
290
     0
176
     1
 90
        1
176
     1
 40
0.0
176
     1
 90
        0
176
     1
290
     0
176
     1
290
     1
176
     1
290
     1
176
     1
290
     0
176
     1
290
     0
176
     1
290
     0
176
     1
290
     0
176
     1
290
     0
176
     1
290
     0
176
     1
 90
       50
176
     1
 40
0.0
176
     1
 40
1.0
176
     1
 90
        0
176
     1
 62
    18
420
        0
176
     1
 90
       50
176
     1
 90
        3
176
     1
 62
     5
420
      255
176
     1
290
     0
176
     1
 90
       50
176
     1
 90
       50
176
     1
 90
       50
176
     1
290
     0
176
     1
 90
       50
176
     1
 62
   256
176
     0
 40
1.0
176
     0
 90
        2
176
     1
  1
strokes_ogs.tif
176
     1
290
     0
176
     1
 40
1.0
176
     1
 40
1.0
176
     1
  0
VISUALSTYLE
  5
3B3
102
{ACAD_REACTORS
330
3A6
102
}
330
3A6
100
AcDbVisualStyle
  2
Thicken
 70
    13
177
     3
291
     1
 70
    58
 90
        2
176
     1
 90
        2
176
     1
 90
        0
176
     1
 90
        0
176
     1
 40
0.6
176
     1
 40
30.0
176
     1
 62
     7
420
 16777215
176
     1
 90
        1
176
     1
 90
        4
176
     1
 62
     7
176
     1
 62
   257
176
     1
 90
        1
176
     1
 90
        1
176
     1
 40
1.0
176
     1
 90
       12
176
     1
 62
     7
176
     1
 40
1.0
176
     1
 90
        1
176
     1
 90
        6
176
     1
 90
        2
176
     1
 62
     7
176
     1
 90
        5
176
     1
 90
        0
176
     1
 90
        0
176
     1
290
     0
176
     1
 90
        1
176
     1
 40
0.0
176
     1
 90
        0
176
     1
290
     0
176
     1
290
     1
176
     1
290
     1
176
     1
290
     0
176
     1
290
     0
176
     1
290
     0
176
     1
290
     0
176
     1
290
     0
176
     1
290
     0
176
     1
 90
       50
176
     1
 40
0.0
176
     1
 40
1.0
176
     1
 90
        0
176
     1
 62
    18
420
        0
176
     1
 90
       50
176
     1
 90
        3
176
     1
 62
     5
420
      255
176
     1
290
     0
176
     1
 90
       50
176
     1
 90
       50
176
     1
 90
       50
176
     1
290
     0
176
     1
 90
       50
176
     1
 62
   256
176
     0
 40
1.0
176
     0
 90
        2
176
     1
  1
strokes_ogs.tif
176
     1
290
     0
176
     1
 40
1.0
176
     1
 40
1.0
176
     1
  0
VISUALSTYLE
  5
3AC
102
{ACAD_REACTORS
330
3A6
102
}
330
3A6
100
AcDbVisualStyle
  2
Wireframe
 70
     5
177
     3
291
     0
 70
    58
 90
        0
176
     1
 90
        2
176
     1
 90
        0
176
     1
 90
        0
176
     1
 40
0.6
176
     1
 40
30.0
176
     1
 62
     7
420
 16777215
176
     1
 90
        1
176
     1
 90
        4
176
     1
 62
     7
176
     1
 62
   257
176
     1
 90
        1
176
     1
 90
        1
176
     1
 40
1.0
176
     1
 90
        0
176
     1
 62
   257
176
     1
 40
1.0
176
     1
 90
        1
176
     1
 90
        6
176
     1
 90
        2
176
     1
 62
     7
176
     1
 90
        3
176
     1
 90
        0
176
     1
 90
        0
176
     1
290
     0
176
     1
 90
        1
176
     1
 40
0.0
176
     1
 90
        0
176
     1
290
     0
176
     1
290
     1
176
     1
290
     1
176
     1
290
     0
176
     1
290
     0
176
     1
290
     0
176
     1
290
     0
176
     1
290
     0
176
     1
290
     0
176
     1
 90
       50
176
     1
 40
0.0
176
     1
 40
1.0
176
     1
 90
        0
176
     1
 62
    18
420
        0
176
     1
 90
       50
176
     1
 90
        3
176
     1
 62
     5
420
      255
176
     1
290
     0
176
     1
 90
       50
176
     1
 90
       50
176
     1
 90
       50
176
     1
290
     0
176
     1
 90
       50
176
     1
 62
   256
176
     0
 40
1.0
176
     0
 90
        2
176
     1
  1
strokes_ogs.tif
176
     1
290
     0
176
     1
 40
1.0
176
     1
 40
1.0
176
     1
  0
VISUALSTYLE
  5
3BC
102
{ACAD_REACTORS
330
3A6
102
}
330
3A6
100
AcDbVisualStyle
  2
X-Ray
 70
    25
177
     3
291
     0
 70
    58
 90
        2
176
     1
 90
        2
176
     1
 90
        1
176
     1
 90
        1
176
     1
 40
0.5
176
     1
 40
30.0
176
     1
 62
     7
420
 16777215
176
     1
 90
        1
176
     1
 90
        0
176
     1
 62
     7
176
     1
 62
   257
176
     1
 90
        1
176
     1
 90
        1
176
     1
 40
1.0
176
     1
 90
        8
176
     1
 62
     7
176
     1
 40
1.0
176
     1
 90
        1
176
     1
 90
        6
176
     1
 90
        2
176
     1
 62
     7
176
     1
 90
        3
176
     1
 90
        0
176
     1
 90
        0
176
     1
290
     0
176
     1
 90
       13
176
     1
 40
0.0
176
     1
 90
        0
176
     1
290
     0
176
     1
290
     1
176
     1
290
     1
176
     1
290
     0
176
     1
290
     0
176
     1
290
     0
176
     1
290
     0
176
     1
290
     0
176
     1
290
     0
176
     1
 90
       50
176
     1
 40
0.0
176
     1
 40
1.0
176
     1
 90
        0
176
     1
 62
    18
420
        0
176
     1
 90
       50
176
     1
 90
        3
176
     1
 62
     5
420
      255
176
     1
290
     0
176
     1
 90
       50
176
     1
 90
       50
176
     1
 90
       50
176
     1
290
     0
176
     1
 90
       50
176
     1
 62
   256
176
     0
 40
1.0
176
     0
 90
        2
176
     1
  1
strokes_ogs.tif
176
     1
290
     0
176
     1
 40
1.0
176
     1
 40
1.0
176
     1
  0
DICTIONARYVAR
  5
3C8
102
{ACAD_REACTORS
330
3C7
102
}
330
3C7
100
DictionaryVariables
280
     0
  1
1:1
  0
DICTIONARYVAR
  5
3CD
102
{ACAD_REACTORS
330
3C7
102
}
330
3C7
100
DictionaryVariables
280
     0
  1
Standard
  0
DICTIONARYVAR
  5
3CC
102
{ACAD_REACTORS
330
3C7
102
}
330
3C7
100
DictionaryVariables
280
     0
  1
Standard
  0
DICTIONARYVAR
  5
3CE
102
{ACAD_REACTORS
330
3C7
102
}
330
3C7
100
DictionaryVariables
280
     0
  1
0
  0
DICTIONARY
  5
3C9
330
3C4
100
AcDbDictionary
280
     1
281
     1
  3
ACAD_ROUNDTRIP_2008_TABLESTYLE_CELLSTYLEMAP
360
3CA
  0
CELLSTYLEMAP
  5
3CA
102
{ACAD_REACTORS
330
3C9
102
}
330
3C9
100
AcDbCellStyleMap
 90
        3
300
CELLSTYLE
  1
TABLEFORMAT_BEGIN
 90
        5
170
     1
 91
        0
 92
    32768
 62
   257
 93
        1
300
CONTENTFORMAT
  1
CONTENTFORMAT_BEGIN
 90
        0
 91
        0
 92
        4
 93
        0
300

 40
0.0
140
1.0
 94
        5
 62
     0
340
11
144
6.0
309
CONTENTFORMAT_END
171
     1
301
MARGIN
  1
CELLMARGIN_BEGIN
 40
1.5
 40
1.5
 40
1.5
 40
1.5
 40
1.5
 40
1.5
309
CELLMARGIN_END
 94
        6
 95
        1
302
GRIDFORMAT
  1
GRIDFORMAT_BEGIN
 90
        0
 91
        1
 62
     0
 92
       -2
340
14
 93
        0
 40
0.045
309
GRIDFORMAT_END
 95
        2
302
GRIDFORMAT
  1
GRIDFORMAT_BEGIN
 90
        0
 91
        1
 62
     0
 92
       -2
340
14
 93
        0
 40
0.045
309
GRIDFORMAT_END
 95
        4
302
GRIDFORMAT
  1
GRIDFORMAT_BEGIN
 90
        0
 91
        1
 62
     0
 92
       -2
340
14
 93
        0
 40
0.045
309
GRIDFORMAT_END
 95
        8
302
GRIDFORMAT
  1
GRIDFORMAT_BEGIN
 90
        0
 91
        1
 62
     0
 92
       -2
340
14
 93
        0
 40
0.045
309
GRIDFORMAT_END
 95
       16
302
GRIDFORMAT
  1
GRIDFORMAT_BEGIN
 90
        0
 91
        1
 62
     0
 92
       -2
340
14
 93
        0
 40
0.045
309
GRIDFORMAT_END
 95
       32
302
GRIDFORMAT
  1
GRIDFORMAT_BEGIN
 90
        0
 91
        1
 62
     0
 92
       -2
340
14
 93
        0
 40
0.045
309
GRIDFORMAT_END
309
TABLEFORMAT_END
  1
CELLSTYLE_BEGIN
 90
        1
 91
        1
300
_TITLE
309
CELLSTYLE_END
300
CELLSTYLE
  1
TABLEFORMAT_BEGIN
 90
        5
170
     1
 91
        0
 92
        0
 62
   257
 93
        1
300
CONTENTFORMAT
  1
CONTENTFORMAT_BEGIN
 90
        0
 91
        0
 92
        4
 93
        0
300

 40
0.0
140
1.0
 94
        5
 62
     0
340
11
144
4.5
309
CONTENTFORMAT_END
171
     1
301
MARGIN
  1
CELLMARGIN_BEGIN
 40
1.5
 40
1.5
 40
1.5
 40
1.5
 40
1.5
 40
1.5
309
CELLMARGIN_END
 94
        6
 95
        1
302
GRIDFORMAT
  1
GRIDFORMAT_BEGIN
 90
        0
 91
        1
 62
     0
 92
       -2
340
14
 93
        0
 40
0.045
309
GRIDFORMAT_END
 95
        2
302
GRIDFORMAT
  1
GRIDFORMAT_BEGIN
 90
        0
 91
        1
 62
     0
 92
       -2
340
14
 93
        0
 40
0.045
309
GRIDFORMAT_END
 95
        4
302
GRIDFORMAT
  1
GRIDFORMAT_BEGIN
 90
        0
 91
        1
 62
     0
 92
       -2
340
14
 93
        0
 40
0.045
309
GRIDFORMAT_END
 95
        8
302
GRIDFORMAT
  1
GRIDFORMAT_BEGIN
 90
        0
 91
        1
 62
     0
 92
       -2
340
14
 93
        0
 40
0.045
309
GRIDFORMAT_END
 95
       16
302
GRIDFORMAT
  1
GRIDFORMAT_BEGIN
 90
        0
 91
        1
 62
     0
 92
       -2
340
14
 93
        0
 40
0.045
309
GRIDFORMAT_END
 95
       32
302
GRIDFORMAT
  1
GRIDFORMAT_BEGIN
 90
        0
 91
        1
 62
     0
 92
       -2
340
14
 93
        0
 40
0.045
309
GRIDFORMAT_END
309
TABLEFORMAT_END
  1
CELLSTYLE_BEGIN
 90
        2
 91
        1
300
_HEADER
309
CELLSTYLE_END
300
CELLSTYLE
  1
TABLEFORMAT_BEGIN
 90
        5
170
     1
 91
        0
 92
        0
 62
   257
 93
        1
300
CONTENTFORMAT
  1
CONTENTFORMAT_BEGIN
 90
        0
 91
        0
 92
        4
 93
        0
300

 40
0.0
140
1.0
 94
        2
 62
     0
340
11
144
4.5
309
CONTENTFORMAT_END
171
     1
301
MARGIN
  1
CELLMARGIN_BEGIN
 40
1.5
 40
1.5
 40
1.5
 40
1.5
 40
1.5
 40
1.5
309
CELLMARGIN_END
 94
        6
 95
        1
302
GRIDFORMAT
  1
GRIDFORMAT_BEGIN
 90
        0
 91
        1
 62
     0
 92
       -2
340
14
 93
        0
 40
0.045
309
GRIDFORMAT_END
 95
        2
302
GRIDFORMAT
  1
GRIDFORMAT_BEGIN
 90
        0
 91
        1
 62
     0
 92
       -2
340
14
 93
        0
 40
0.045
309
GRIDFORMAT_END
 95
        4
302
GRIDFORMAT
  1
GRIDFORMAT_BEGIN
 90
        0
 91
        1
 62
     0
 92
       -2
340
14
 93
        0
 40
0.045
309
GRIDFORMAT_END
 95
        8
302
GRIDFORMAT
  1
GRIDFORMAT_BEGIN
 90
        0
 91
        1
 62
     0
 92
       -2
340
14
 93
        0
 40
0.045
309
GRIDFORMAT_END
 95
       16
302
GRIDFORMAT
  1
GRIDFORMAT_BEGIN
 90
        0
 91
        1
 62
     0
 92
       -2
340
14
 93
        0
 40
0.045
309
GRIDFORMAT_END
 95
       32
302
GRIDFORMAT
  1
GRIDFORMAT_BEGIN
 90
        0
 91
        1
 62
     0
 92
       -2
340
14
 93
        0
 40
0.045
309
GRIDFORMAT_END
309
TABLEFORMAT_END
  1
CELLSTYLE_BEGIN
 90
        3
 91
        2
300
_DATA
309
CELLSTYLE_END
  0
ENDSEC
  0
EOF
