  0
SECTION
  2
HEADER
  9
$ACADVER
  1
AC1032
  9
$ACADMAINTVER
 90
       55
  9
$DWGCODEPAGE
  3
ANSI_1252
  9
$LASTSAVEDBY
  1
kjn103
  9
$REQUIREDVERSIONS
160
                 0
  9
$INSBASE
 10
0.0
 20
0.0
 30
0.0
  9
$EXTMIN
 10
1.000000000000000E+20
 20
1.000000000000000E+20
 30
1.000000000000000E+20
  9
$EXTMAX
 10
-1.000000000000000E+20
 20
-1.000000000000000E+20
 30
-1.000000000000000E+20
  9
$LIMMIN
 10
0.0
 20
0.0
  9
$LIMMAX
 10
12.0
 20
9.0
  9
$ORTHOMODE
 70
     0
  9
$REGENMODE
 70
     1
  9
$FILLMODE
 70
     1
  9
$QTEXTMODE
 70
     0
  9
$MIRRTEXT
 70
     0
  9
$LTSCALE
 40
1.0
  9
$ATTMODE
 70
     1
  9
$TEXTSIZE
 40
0.2
  9
$TRACEWID
 40
0.05
  9
$TEXTSTYLE
  7
Standard
  9
$CLAYER
  8
0
  9
$CELTYPE
  6
ByLayer
  9
$CECOLOR
 62
   256
  9
$CELTSCALE
 40
1.0
  9
$DISPSILH
 70
     0
  9
$DIMSCALE
 40
1.0
  9
$DIMASZ
 40
0.18
  9
$DIMEXO
 40
0.0625
  9
$DIMDLI
 40
0.38
  9
$DIMRND
 40
0.0
  9
$DIMDLE
 40
0.0
  9
$DIMEXE
 40
0.18
  9
$DIMTP
 40
0.0
  9
$DIMTM
 40
0.0
  9
$DIMTXT
 40
0.18
  9
$DIMCEN
 40
0.09
  9
$DIMTSZ
 40
0.0
  9
$DIMTOL
 70
     0
  9
$DIMLIM
 70
     0
  9
$DIMTIH
 70
     1
  9
$DIMTOH
 70
     1
  9
$DIMSE1
 70
     0
  9
$DIMSE2
 70
     0
  9
$DIMTAD
 70
     0
  9
$DIMZIN
 70
     0
  9
$DIMBLK
  1

  9
$DIMASO
 70
     1
  9
$DIMSHO
 70
     1
  9
$DIMPOST
  1

  9
$DIMAPOST
  1

  9
$DIMALT
 70
     0
  9
$DIMALTD
 70
     2
  9
$DIMALTF
 40
25.4
  9
$DIMLFAC
 40
1.0
  9
$DIMTOFL
 70
     0
  9
$DIMTVP
 40
0.0
  9
$DIMTIX
 70
     0
  9
$DIMSOXD
 70
     0
  9
$DIMSAH
 70
     0
  9
$DIMBLK1
  1

  9
$DIMBLK2
  1

  9
$DIMSTYLE
  2
Standard
  9
$DIMCLRD
 70
     0
  9
$DIMCLRE
 70
     0
  9
$DIMCLRT
 70
     0
  9
$DIMTFAC
 40
1.0
  9
$DIMGAP
 40
0.09
  9
$DIMJUST
 70
     0
  9
$DIMSD1
 70
     0
  9
$DIMSD2
 70
     0
  9
$DIMTOLJ
 70
     1
  9
$DIMTZIN
 70
     0
  9
$DIMALTZ
 70
     0
  9
$DIMALTTZ
 70
     0
  9
$DIMUPT
 70
     0
  9
$DIMDEC
 70
     4
  9
$DIMTDEC
 70
     4
  9
$DIMALTU
 70
     2
  9
$DIMALTTD
 70
     2
  9
$DIMTXSTY
  7
Standard
  9
$DIMAUNIT
 70
     0
  9
$DIMADEC
 70
     0
  9
$DIMALTRND
 40
0.0
  9
$DIMAZIN
 70
     0
  9
$DIMDSEP
 70
    46
  9
$DIMATFIT
 70
     3
  9
$DIMFRAC
 70
     0
  9
$DIMLDRBLK
  1

  9
$DIMLUNIT
 70
     2
  9
$DIMLWD
 70
    -2
  9
$DIMLWE
 70
    -2
  9
$DIMTMOVE
 70
     0
  9
$DIMFXL
 40
1.0
  9
$DIMFXLON
 70
     0
  9
$DIMJOGANG
 40
0.7853981633974483
  9
$DIMTFILL
 70
     0
  9
$DIMTFILLCLR
 70
     0
  9
$DIMARCSYM
 70
     0
  9
$DIMLTYPE
  6

  9
$DIMLTEX1
  6

  9
$DIMLTEX2
  6

  9
$DIMTXTDIRECTION
 70
     0
  9
$LUNITS
 70
     2
  9
$LUPREC
 70
     6
  9
$SKETCHINC
 40
0.1
  9
$FILLETRAD
 40
0.0
  9
$AUNITS
 70
     0
  9
$AUPREC
 70
     0
  9
$MENU
  1
.
  9
$ELEVATION
 40
0.0
  9
$PELEVATION
 40
0.0
  9
$THICKNESS
 40
0.0
  9
$LIMCHECK
 70
     0
  9
$CHAMFERA
 40
0.0
  9
$CHAMFERB
 40
0.0
  9
$CHAMFERC
 40
0.0
  9
$CHAMFERD
 40
0.0
  9
$SKPOLY
 70
     0
  9
$TDCREATE
 40
2460028.605080162
  9
$TDUCREATE
 40
2460028.563413495
  9
$TDUPDATE
 40
2460192.487134271
  9
$TDUUPDATE
 40
2460192.445467605
  9
$TDINDWG
 40
0.0143790972
  9
$TDUSRTIMER
 40
0.0143790972
  9
$USRTIMER
 70
     1
  9
$ANGBASE
 50
0.0
  9
$ANGDIR
 70
     0
  9
$PDMODE
 70
     0
  9
$PDSIZE
 40
0.0
  9
$PLINEWID
 40
0.0
  9
$SPLFRAME
 70
     0
  9
$SPLINETYPE
 70
     6
  9
$SPLINESEGS
 70
     8
  9
$HANDSEED
  5
467
  9
$SURFTAB1
 70
     6
  9
$SURFTAB2
 70
     6
  9
$SURFTYPE
 70
     6
  9
$SURFU
 70
     6
  9
$SURFV
 70
     6
  9
$UCSBASE
  2

  9
$UCSNAME
  2

  9
$UCSORG
 10
0.0
 20
0.0
 30
0.0
  9
$UCSXDIR
 10
1.0
 20
0.0
 30
0.0
  9
$UCSYDIR
 10
0.0
 20
1.0
 30
0.0
  9
$UCSORTHOREF
  2

  9
$UCSORTHOVIEW
 70
     0
  9
$UCSORGTOP
 10
0.0
 20
0.0
 30
0.0
  9
$UCSORGBOTTOM
 10
0.0
 20
0.0
 30
0.0
  9
$UCSORGLEFT
 10
0.0
 20
0.0
 30
0.0
  9
$UCSORGRIGHT
 10
0.0
 20
0.0
 30
0.0
  9
$UCSORGFRONT
 10
0.0
 20
0.0
 30
0.0
  9
$UCSORGBACK
 10
0.0
 20
0.0
 30
0.0
  9
$PUCSBASE
  2

  9
$PUCSNAME
  2

  9
$PUCSORG
 10
0.0
 20
0.0
 30
0.0
  9
$PUCSXDIR
 10
1.0
 20
0.0
 30
0.0
  9
$PUCSYDIR
 10
0.0
 20
1.0
 30
0.0
  9
$PUCSORTHOREF
  2

  9
$PUCSORTHOVIEW
 70
     0
  9
$PUCSORGTOP
 10
0.0
 20
0.0
 30
0.0
  9
$PUCSORGBOTTOM
 10
0.0
 20
0.0
 30
0.0
  9
$PUCSORGLEFT
 10
0.0
 20
0.0
 30
0.0
  9
$PUCSORGRIGHT
 10
0.0
 20
0.0
 30
0.0
  9
$PUCSORGFRONT
 10
0.0
 20
0.0
 30
0.0
  9
$PUCSORGBACK
 10
0.0
 20
0.0
 30
0.0
  9
$USERI1
 70
     0
  9
$USERI2
 70
     0
  9
$USERI3
 70
     0
  9
$USERI4
 70
     0
  9
$USERI5
 70
     0
  9
$USERR1
 40
0.0
  9
$USERR2
 40
0.0
  9
$USERR3
 40
0.0
  9
$USERR4
 40
0.0
  9
$USERR5
 40
0.0
  9
$WORLDVIEW
 70
     1
  9
$SHADEDGE
 70
     3
  9
$SHADEDIF
 70
    70
  9
$TILEMODE
 70
     1
  9
$MAXACTVP
 70
    64
  9
$PINSBASE
 10
0.0
 20
0.0
 30
0.0
  9
$PLIMCHECK
 70
     0
  9
$PEXTMIN
 10
0.0
 20
0.0
 30
0.0
  9
$PEXTMAX
 10
0.0
 20
0.0
 30
0.0
  9
$PLIMMIN
 10
0.0
 20
0.0
  9
$PLIMMAX
 10
0.0
 20
0.0
  9
$UNITMODE
 70
     0
  9
$VISRETAIN
 70
     1
  9
$PLINEGEN
 70
     0
  9
$PSLTSCALE
 70
     1
  9
$TREEDEPTH
 70
  3020
  9
$CMLSTYLE
  2
Standard
  9
$CMLJUST
 70
     0
  9
$CMLSCALE
 40
1.0
  9
$PROXYGRAPHICS
 70
     1
  9
$MEASUREMENT
 70
     0
  9
$CELWEIGHT
370
    -1
  9
$ENDCAPS
280
     0
  9
$JOINSTYLE
280
     0
  9
$LWDISPLAY
290
     0
  9
$INSUNITS
 70
     6
  9
$HYPERLINKBASE
  1

  9
$STYLESHEET
  1

  9
$XEDIT
290
     1
  9
$CEPSNTYPE
380
     0
  9
$PSTYLEMODE
290
     1
  9
$FINGERPRINTGUID
  2
{A8C9F376-D1D3-46D5-9313-C61AEC2E4F41}
  9
$VERSIONGUID
  2
{2B55ABFD-3458-4E06-BB86-BB17354C747D}
  9
$EXTNAMES
290
     1
  9
$PSVPSCALE
 40
0.0
  9
$OLESTARTUP
290
     0
  9
$SORTENTS
280
   127
  9
$INDEXCTL
280
     0
  9
$HIDETEXT
280
     1
  9
$XCLIPFRAME
280
     0
  9
$HALOGAP
280
     0
  9
$OBSCOLOR
 70
   257
  9
$OBSLTYPE
280
     0
  9
$INTERSECTIONDISPLAY
280
     0
  9
$INTERSECTIONCOLOR
 70
   257
  9
$DIMASSOC
280
     2
  9
$PROJECTNAME
  1

  9
$CAMERADISPLAY
290
     0
  9
$LENSLENGTH
 40
50.0
  9
$CAMERAHEIGHT
 40
0.0
  9
$STEPSPERSEC
 40
2.0
  9
$STEPSIZE
 40
6.0
  9
$3DDWFPREC
 40
2.0
  9
$PSOLWIDTH
 40
0.25
  9
$PSOLHEIGHT
 40
4.0
  9
$LOFTANG1
 40
1.570796326794897
  9
$LOFTANG2
 40
1.570796326794897
  9
$LOFTMAG1
 40
1.0
  9
$LOFTMAG2
 40
1.0
  9
$LOFTPARAM
 70
     7
  9
$LOFTNORMALS
280
     1
  9
$LATITUDE
 40
37.795
  9
$LONGITUDE
 40
-122.394
  9
$NORTHDIRECTION
 40
0.0
  9
$TIMEZONE
 70
 -8000
  9
$LIGHTGLYPHDISPLAY
280
     1
  9
$TILEMODELIGHTSYNCH
280
     1
  9
$CMATERIAL
347
EC
  9
$SOLIDHIST
280
     1
  9
$SHOWHIST
280
     1
  9
$DWFFRAME
280
     0
  9
$DGNFRAME
280
     2
  9
$REALWORLDSCALE
290
     1
  9
$INTERFERECOLOR
 62
   256
  9
$CSHADOW
280
     0
  9
$SHADOWPLANELOCATION
 40
0.0
  0
ENDSEC
  0
SECTION
  2
CLASSES
  0
CLASS
  1
ACDBDICTIONARYWDFLT
  2
AcDbDictionaryWithDefault
  3
ObjectDBX Classes
 90
        0
 91
        3
280
     0
281
     0
  0
CLASS
  1
ACDBPLACEHOLDER
  2
AcDbPlaceHolder
  3
ObjectDBX Classes
 90
        0
 91
        1
280
     0
281
     0
  0
CLASS
  1
LAYOUT
  2
AcDbLayout
  3
ObjectDBX Classes
 90
        0
 91
        1
280
     0
281
     0
  0
CLASS
  1
DICTIONARYVAR
  2
AcDbDictionaryVar
  3
ObjectDBX Classes
 90
        0
 91
        3
280
     0
281
     0
  0
CLASS
  1
TABLESTYLE
  2
AcDbTableStyle
  3
ObjectDBX Classes
 90
     4095
 91
        3
280
     0
281
     0
  0
CLASS
  1
SCALE
  2
AcDbScale
  3
ObjectDBX Classes
 90
     1153
 91
        3
280
     0
281
     0
  0
CLASS
  1
MATERIAL
  2
AcDbMaterial
  3
ObjectDBX Classes
 90
     1153
 91
        3
280
     0
281
     0
  0
CLASS
  1
VISUALSTYLE
  2
AcDbVisualStyle
  3
ObjectDBX Classes
 90
     4095
 91
        3
280
     0
281
     0
  0
CLASS
  1
SUN
  2
AcDbSun
  3
SCENEOE
 90
     1153
 91
        3
280
     0
281
     0
  0
CLASS
  1
CELLSTYLEMAP
  2
AcDbCellStyleMap
  3
ObjectDBX Classes
 90
     1152
 91
        3
280
     0
281
     0
  0
CLASS
  1
MLEADERSTYLE
  2
AcDbMLeaderStyle
  3
ACDB_MLEADERSTYLE_CLASS
 90
     4095
 91
        3
280
     0
281
     0
  0
CLASS
  1
ACDBSECTIONVIEWSTYLE
  2
AcDbSectionViewStyle
  3
ObjectDBX Classes
 90
     1025
 91
        3
280
     0
281
     0
  0
CLASS
  1
ACDBDETAILVIEWSTYLE
  2
AcDbDetailViewStyle
  3
ObjectDBX Classes
 90
     1025
 91
        3
280
     0
281
     0
  0
CLASS
  1
ACAD_TABLE
  2
AcDbTable
  3
ObjectDBX Classes
 90
     1025
 91
        3
280
     0
281
     1
  0
CLASS
  1
RASTERVARIABLES
  2
AcDbRasterVariables
  3
ISM
 90
        0
 91
        3
280
     0
281
     0
  0
CLASS
  1
DBCOLOR
  2
AcDbColor
  3
ObjectDBX Classes
 90
        0
 91
        3
280
     0
281
     0
  0
ENDSEC
  0
SECTION
  2
TABLES
  0
TABLE
  2
VPORT
  5
8
330
0
100
AcDbSymbolTable
 70
     1
  0
VPORT
  5
97
330
8
100
AcDbSymbolTableRecord
100
AcDbViewportTableRecord
  2
*Active
 70
     0
 10
0.0
 20
0.0
 11
1.0
 21
1.0
 12
453160.9576105524
 22
196355.2880784725
 13
0.0
 23
0.0
 14
0.5
 24
0.5
 15
0.5
 25
0.5
 16
0.0
 26
0.0
 36
1.0
 17
0.0
 27
0.0
 37
0.0
 40
172.6871324764355
 41
1.166981185792465
 42
50.0
 43
0.0
 44
0.0
 50
0.0
 51
0.0
 71
    16
 72
  1000
 73
     1
 74
     3
 75
     0
 76
     0
 77
     0
 78
     0
281
     0
 65
     1
110
0.0
120
0.0
130
0.0
111
1.0
121
0.0
131
0.0
112
0.0
122
1.0
132
0.0
 79
     0
146
0.0
348
F4
 60
     3
 61
     5
292
     1
282
     1
141
0.0
142
0.0
 63
   256
361
100
1001
ACAD_NAV_VCDISPLAY
1070
     3
  0
ENDTAB
  0
TABLE
  2
LTYPE
  5
5
330
0
100
AcDbSymbolTable
 70
     1
  0
LTYPE
  5
14
330
5
100
AcDbSymbolTableRecord
100
AcDbLinetypeTableRecord
  2
ByBlock
 70
     0
  3

 72
    65
 73
     0
 40
0.0
  0
LTYPE
  5
15
330
5
100
AcDbSymbolTableRecord
100
AcDbLinetypeTableRecord
  2
ByLayer
 70
     0
  3

 72
    65
 73
     0
 40
0.0
  0
LTYPE
  5
16
330
5
100
AcDbSymbolTableRecord
100
AcDbLinetypeTableRecord
  2
Continuous
 70
     0
  3
Solid line
 72
    65
 73
     0
 40
0.0
  0
ENDTAB
  0
TABLE
  2
LAYER
  5
2
330
0
100
AcDbSymbolTable
 70
    14
  0
LAYER
  5
10
330
2
100
AcDbSymbolTableRecord
100
AcDbLayerTableRecord
  2
0
 70
     0
 62
     7
  6
Continuous
370
    -3
390
F
347
EE
348
0
  0
LAYER
  5
2C8
330
2
100
AcDbSymbolTableRecord
100
AcDbLayerTableRecord
  2
Defpoints
 70
     0
 62
     7
  6
Continuous
290
     0
370
    -3
390
F
347
EE
348
0
  0
LAYER
  5
2CA
330
2
100
AcDbSymbolTableRecord
100
AcDbLayerTableRecord
  2
AS-ABST MAG NEG LINEAR UNCERTAIN
 70
     0
 62
     5
  6
Continuous
370
    -3
390
F
347
EE
348
0
1001
AcCmTransparency
1071
 33554687
  0
LAYER
  5
2D3
330
2
100
AcDbSymbolTableRecord
100
AcDbLayerTableRecord
  2
AS-ABST MAG POS LINEAR UNCERTAIN
 70
     0
 62
    30
  6
Continuous
370
    -3
390
F
347
EE
348
0
1001
AcCmTransparency
1071
 33554687
  0
LAYER
  5
2D8
330
2
100
AcDbSymbolTableRecord
100
AcDbLayerTableRecord
  2
AS-ABST MAG POS UNCERTAIN
 70
     0
 62
    30
  6
Continuous
370
    -3
390
F
347
EE
348
0
1001
AcCmTransparency
1071
 33554687
  0
LAYER
  5
2F2
330
2
100
AcDbSymbolTableRecord
100
AcDbLayerTableRecord
  2
AS-ABST MAG LAND DRAIN
 70
     0
 62
     4
  6
Continuous
370
    -3
390
F
347
EE
348
0
1001
AcCmTransparency
1071
 33554687
  0
LAYER
  5
2F4
330
2
100
AcDbSymbolTableRecord
100
AcDbLayerTableRecord
  2
AS-ABST MAG POS DISCRETE UNCERTAIN
 70
     0
 62
    30
  6
Continuous
370
    -3
390
F
347
EE
348
0
1001
AcCmTransparency
1071
 33554687
  0
LAYER
  5
304
330
2
100
AcDbSymbolTableRecord
100
AcDbLayerTableRecord
  2
AS-ABST MAG SERVICE
 70
     0
 62
   252
  6
Continuous
370
    -3
390
F
347
EE
348
0
1001
AcCmTransparency
1071
 33554687
  0
LAYER
  5
309
330
2
100
AcDbSymbolTableRecord
100
AcDbLayerTableRecord
  2
AS-ABST MAG STRONG DIPOLAR
 70
     0
 62
   252
  6
Continuous
370
    -3
390
F
347
EE
348
0
1001
AcCmTransparency
1071
 33554687
  0
LAYER
  5
331
330
2
100
AcDbSymbolTableRecord
100
AcDbLayerTableRecord
  2
AS-ABST MAG DEBRIS
 70
     0
 62
   252
  6
Continuous
370
    -3
390
F
347
EE
348
0
1001
AcCmTransparency
1071
 33554687
  0
LAYER
  5
337
330
2
100
AcDbSymbolTableRecord
100
AcDbLayerTableRecord
  2
AS-ABST MAG DISTURBANCE
 70
     0
 62
   252
  6
Continuous
370
    -3
390
F
347
EE
348
0
1001
AcCmTransparency
1071
 33554687
  0
LAYER
  5
33C
330
2
100
AcDbSymbolTableRecord
100
AcDbLayerTableRecord
  2
AS-ABST MAG AGRICULTURAL
 70
     0
 62
     3
  6
Continuous
370
    -3
390
F
347
EE
348
0
1001
AcCmTransparency
1071
 33554687
  0
LAYER
  5
346
330
2
100
AcDbSymbolTableRecord
100
AcDbLayerTableRecord
  2
AS-ABST MAG TRACK
 70
     0
 62
   127
  6
Continuous
370
    -3
390
F
347
EE
348
0
1001
AcCmTransparency
1071
 33554687
  0
LAYER
  5
44A
330
2
100
AcDbSymbolTableRecord
100
AcDbLayerTableRecord
  2
AS-ABSTRACTION BOUNDARY
 70
     0
 62
   253
  6
Continuous
370
    -3
390
F
347
EE
348
0
1001
AcCmTransparency
1071
 33554687
  0
ENDTAB
  0
TABLE
  2
STYLE
  5
3
330
0
100
AcDbSymbolTable
 70
     1
  0
STYLE
  5
11
330
3
100
AcDbSymbolTableRecord
100
AcDbTextStyleTableRecord
  2
Standard
 70
     0
 40
0.0
 41
1.0
 50
0.0
 71
     0
 42
0.2
  3
arial.ttf
  4

1001
ACAD
1000
Arial
1071
       34
  0
ENDTAB
  0
TABLE
  2
VIEW
  5
6
330
0
100
AcDbSymbolTable
 70
     0
  0
ENDTAB
  0
TABLE
  2
UCS
  5
7
330
0
100
AcDbSymbolTable
 70
     0
  0
ENDTAB
  0
TABLE
  2
APPID
  5
9
330
0
100
AcDbSymbolTable
 70
     7
  0
APPID
  5
12
330
9
100
AcDbSymbolTableRecord
100
AcDbRegAppTableRecord
  2
ACAD
 70
     0
  0
APPID
  5
E4
330
9
100
AcDbSymbolTableRecord
100
AcDbRegAppTableRecord
  2
PROGE_PRINT_SETTINGS
 70
     0
  0
APPID
  5
187
330
9
100
AcDbSymbolTableRecord
100
AcDbRegAppTableRecord
  2
ACAD_PSEXT
 70
     0
  0
APPID
  5
188
330
9
100
AcDbSymbolTableRecord
100
AcDbRegAppTableRecord
  2
ACAD_NAV_VCDISPLAY
 70
     0
  0
APPID
  5
1C7
330
9
100
AcDbSymbolTableRecord
100
AcDbRegAppTableRecord
  2
ACAD_MLEADERVER
 70
     0
  0
APPID
  5
2CC
330
9
100
AcDbSymbolTableRecord
100
AcDbRegAppTableRecord
  2
AcCmTransparency
 70
     0
  0
APPID
  5
34B
330
9
100
AcDbSymbolTableRecord
100
AcDbRegAppTableRecord
  2
HATCHBACKGROUNDCOLOR
 70
     0
  0
ENDTAB
  0
TABLE
  2
DIMSTYLE
  5
A
330
0
100
AcDbSymbolTable
 70
     1
100
AcDbDimStyleTable
  0
DIMSTYLE
105
27
330
A
100
AcDbSymbolTableRecord
100
AcDbDimStyleTableRecord
  2
Standard
 70
     0
178
     0
340
11
  0
ENDTAB
  0
TABLE
  2
BLOCK_RECORD
  5
1
330
0
100
AcDbSymbolTable
 70
     1
  0
BLOCK_RECORD
  5
1F
330
1
100
AcDbSymbolTableRecord
100
AcDbBlockTableRecord
  2
*Model_Space
340
22
 70
     0
280
     1
281
     0
  0
BLOCK_RECORD
  5
160
330
1
100
AcDbSymbolTableRecord
100
AcDbBlockTableRecord
  2
*Paper_Space
340
161
 70
     0
280
     1
281
     0
  0
BLOCK_RECORD
  5
164
330
1
100
AcDbSymbolTableRecord
100
AcDbBlockTableRecord
  2
*Paper_Space0
340
165
 70
     0
280
     1
281
     0
  0
ENDTAB
  0
ENDSEC
  0
SECTION
  2
BLOCKS
  0
BLOCK
  5
20
330
1F
100
AcDbEntity
  8
0
100
AcDbBlockBegin
  2
*Model_Space
 70
     0
 10
0.0
 20
0.0
 30
0.0
  3
*Model_Space
  1

  0
ENDBLK
  5
21
330
1F
100
AcDbEntity
  8
0
100
AcDbBlockEnd
  0
BLOCK
  5
162
330
160
100
AcDbEntity
 67
     1
  8
0
100
AcDbBlockBegin
  2
*Paper_Space
 70
     0
 10
0.0
 20
0.0
 30
0.0
  3
*Paper_Space
  1

  0
ENDBLK
  5
163
330
160
100
AcDbEntity
 67
     1
  8
0
100
AcDbBlockEnd
  0
BLOCK
  5
166
330
164
100
AcDbEntity
  8
0
100
AcDbBlockBegin
  2
*Paper_Space0
 70
     0
 10
0.0
 20
0.0
 30
0.0
  3
*Paper_Space0
  1

  0
ENDBLK
  5
167
330
164
100
AcDbEntity
  8
0
100
AcDbBlockEnd
  0
ENDSEC
  0
SECTION
  2
ENTITIES
  0
LWPOLYLINE
  5
2C9
330
1F
100
AcDbEntity
  8
AS-ABST MAG NEG LINEAR UNCERTAIN
100
AcDbPolyline
 90
        2
 70
     0
 43
0.0
 10
453127.2055600273
 20
196318.989223483
 10
453140.6515634286
 20
196373.6501503537
  0
LWPOLYLINE
  5
2CD
330
1F
100
AcDbEntity
  8
AS-ABST MAG NEG LINEAR UNCERTAIN
100
AcDbPolyline
 90
        2
 70
     0
 43
0.0
 10
453150.8822181905
 20
196412.2343340272
 10
453154.5360234626
 20
196429.7725993333
  0
LWPOLYLINE
  5
2CE
330
1F
100
AcDbEntity
  8
AS-ABST MAG NEG LINEAR UNCERTAIN
100
AcDbPolyline
 90
        2
 70
     0
 43
0.0
 10
453145.3284341769
 20
196412.8189428708
 10
453184.351074483
 20
196391.6268722926
  0
LWPOLYLINE
  5
2CF
330
1F
100
AcDbEntity
  8
AS-ABST MAG NEG LINEAR UNCERTAIN
100
AcDbPolyline
 90
        2
 70
     0
 43
0.0
 10
453164.4743738027
 20
196375.1116724626
 10
453199.6970566258
 20
196358.7426248435
  0
LWPOLYLINE
  5
2D0
330
1F
100
AcDbEntity
  8
AS-ABST MAG NEG LINEAR UNCERTAIN
100
AcDbPolyline
 90
        2
 70
     0
 43
0.0
 10
453226.7352156394
 20
196346.9042957619
 10
453230.9736297551
 20
196344.8581648095
  0
LWPOLYLINE
  5
2D1
330
1F
100
AcDbEntity
  8
AS-ABST MAG NEG LINEAR UNCERTAIN
100
AcDbPolyline
 90
        2
 70
     0
 43
0.0
 10
453152.0514358776
 20
196330.8275525646
 10
453165.351287068
 20
196322.9353331768
  0
LWPOLYLINE
  5
2D2
330
1F
100
AcDbEntity
  8
AS-ABST MAG POS LINEAR UNCERTAIN
100
AcDbPolyline
 90
       15
 70
     1
 43
0.0
 10
453110.5807460392
 20
196358.7060867908
 10
453113.1384097297
 20
196357.3359098138
 10
453118.1623919788
 20
196354.4128655961
 10
453126.0180733139
 20
196348.7494674244
 10
453126.2007635775
 20
196348.2927417653
 10
453126.1094184457
 20
196348.0187063699
 10
453125.470002523
 20
196348.0187063699
 10
453124.0084804142
 20
196349.388883347
 10
453122.4556131735
 20
196350.3936797968
 10
453119.7152592195
 20
196352.129237301
 10
453115.787418552
 20
196354.5955558597
 10
453109.3932593258
 20
196358.0666708682
 10
453109.2105690622
 20
196358.6147416591
 10
453109.2105690622
 20
196358.7974319226
 10
453109.3932593258
 20
196358.8887770545
  0
LWPOLYLINE
  5
2D4
330
1F
100
AcDbEntity
  8
AS-ABST MAG POS LINEAR UNCERTAIN
100
AcDbPolyline
 90
        7
 70
     1
 43
0.0
 10
453128.0276662135
 20
196346.3744939975
 10
453132.3208874082
 20
196343.6341400434
 10
453132.7776130672
 20
196343.2687595162
 10
453132.9603033309
 20
196344.273555966
 10
453131.498781222
 20
196345.0956621523
 10
453128.3930467407
 20
196347.1966001837
 10
453128.0276662135
 20
196347.1966001837
  0
LWPOLYLINE
  5
2D5
330
1F
100
AcDbEntity
  8
AS-ABST MAG POS LINEAR UNCERTAIN
100
AcDbPolyline
 90
        2
 70
     0
 43
0.0
 10
453135.700657285
 20
196342.0812728028
 10
453144.1044094109
 20
196336.6005648946
  0
LWPOLYLINE
  5
2D6
330
1F
100
AcDbEntity
  8
AS-ABST MAG POS UNCERTAIN
 62
     7
420
 16711679
430
UNNAMED$254,255,255
100
AcDbPolyline
 90
       18
 70
     1
 43
0.0
 10
453126.5296060522
 20
196382.0356334534
 10
453125.1594290751
 20
196382.3096688488
 10
453123.0584910437
 20
196382.675049376
 10
453121.7796591984
 20
196383.588500694
 10
453121.4142786712
 20
196384.3192617484
 10
453121.505623803
 20
196384.958677671
 10
453121.6883140666
 20
196386.1461643845
 10
453121.962349462
 20
196386.7855803071
 10
453122.7844556483
 20
196387.0596157025
 10
453123.7892520981
 20
196387.1509608343
 10
453123.8805972299
 20
196386.8769254389
 10
453123.4238715708
 20
196386.2375095163
 10
453123.2411813072
 20
196385.2327130665
 10
453124.4286680207
 20
196383.7711909576
 10
453125.3421193387
 20
196383.3144652986
 10
453127.3517122384
 20
196383.0404299032
 10
453127.4430573702
 20
196382.8577396396
 10
453127.3517122384
 20
196382.3096688488
  0
LWPOLYLINE
  5
2D9
330
1F
100
AcDbEntity
  8
AS-ABST MAG POS LINEAR UNCERTAIN
100
AcDbPolyline
 90
        9
 70
     0
 43
0.0
 10
453134.8420130462
 20
196369.8867309236
 10
453133.6545263328
 20
196368.0598282876
 10
453132.1930042239
 20
196367.6031026285
 10
453130.7314821151
 20
196367.6944477603
 10
453128.7218892154
 20
196368.4252088147
 10
453126.7122963158
 20
196369.70404066
 10
453125.7988449978
 20
196371.3482530324
 10
453125.3421193387
 20
196372.9011202731
 10
453125.1594290751
 20
196375.0020583045
  0
LWPOLYLINE
  5
2DA
330
1F
100
AcDbEntity
  8
AS-ABST MAG POS UNCERTAIN
 62
     7
420
 16711679
430
UNNAMED$254,255,255
100
AcDbPolyline
 90
       27
 70
     1
 43
0.0
 10
453129.0758516013
 20
196398.1306456771
 10
453130.8456635299
 20
196397.2742850664
 10
453132.3871126291
 20
196396.4750151631
 10
453133.4147453619
 20
196395.9041080894
 10
453134.4994688021
 20
196394.9906567713
 10
453134.6136502168
 20
196393.9630240386
 10
453134.784922339
 20
196393.27793555
 10
453135.241647998
 20
196392.821209891
 10
453135.4700108275
 20
196392.8783005984
 10
453136.2692807307
 20
196394.3626589902
 10
453137.2398227561
 20
196395.1619288935
 10
453137.9820019521
 20
196394.6481125271
 10
453138.0961833668
 20
196393.7917519164
 10
453137.2398227561
 20
196392.7070284763
 10
453136.3263714381
 20
196392.1361214025
 10
453135.3558294127
 20
196391.907758573
 10
453134.2711059726
 20
196392.1932121099
 10
453133.7572896061
 20
196392.8783005984
 10
453133.6431081914
 20
196394.1342961607
 10
453133.129291825
 20
196395.2190196008
 10
453131.6449334332
 20
196395.6186545525
 10
453130.8456635299
 20
196395.9041080894
 10
453129.8180307972
 20
196396.7033779927
 10
453128.8474887718
 20
196397.217194359
 10
453128.4478538201
 20
196397.5026478959
 10
453128.4478538201
 20
196397.7881014328
 10
453128.4478538201
 20
196398.0164642623
  0
LWPOLYLINE
  5
2DB
330
1F
100
AcDbEntity
  8
AS-ABST MAG POS UNCERTAIN
 62
     7
420
 16711679
430
UNNAMED$254,255,255
100
AcDbPolyline
 90
        9
 70
     1
 43
0.0
 10
453151.3252420803
 20
196408.9687455656
 10
453151.3252420803
 20
196407.3245331932
 10
453150.2291004987
 20
196406.6851172706
 10
453149.3156491807
 20
196406.502427007
 10
453148.9502686535
 20
196407.415878325
 10
453149.6810297079
 20
196409.0600906974
 10
453149.8637199715
 20
196409.7908517518
 10
453150.6858261577
 20
196409.4254712247
 10
453150.9598615532
 20
196409.2427809611
  0
LWPOLYLINE
  5
2DC
330
1F
100
AcDbEntity
  8
AS-ABST MAG POS UNCERTAIN
 62
     7
420
 16711679
430
UNNAMED$254,255,255
100
AcDbPolyline
 90
       16
 70
     1
 43
0.0
 10
453148.2195075991
 20
196404.4928341073
 10
453146.849330622
 20
196404.7668695027
 10
453145.1137731178
 20
196403.6707279211
 10
453142.9214899545
 20
196401.387099626
 10
453142.7387996909
 20
196400.3823031762
 10
453140.7292067912
 20
196400.3823031762
 10
453140.0897908686
 20
196401.1130642306
 10
453140.5465165276
 20
196401.7524801532
 10
453141.0032421866
 20
196402.300550944
 10
453141.7340032411
 20
196403.3053473939
 10
453144.6570474587
 20
196405.3149402935
 10
453146.0272244358
 20
196406.2283916116
 10
453146.7579854902
 20
196406.7764624024
 10
453148.0368173355
 20
196407.2331880614
 10
453148.5848881263
 20
196406.2283916116
 10
453148.676233258
 20
196405.1322500299
  0
LWPOLYLINE
  5
2DD
330
1F
100
AcDbEntity
  8
AS-ABST MAG POS UNCERTAIN
 62
     7
420
 16711679
430
UNNAMED$254,255,255
100
AcDbPolyline
 90
        8
 70
     1
 43
0.0
 10
453142.9214899545
 20
196397.0938784313
 10
453141.4599678456
 20
196395.4496660588
 10
453140.9118970548
 20
196395.358320927
 10
453139.907100605
 20
196395.6323563224
 10
453139.8157554732
 20
196396.3631173768
 10
453140.2724811322
 20
196397.2765686949
 10
453142.0080386365
 20
196397.7332943539
 10
453142.4647642955
 20
196397.7332943539
  0
LWPOLYLINE
  5
2DE
330
1F
100
AcDbEntity
  8
AS-ABST MAG POS LINEAR UNCERTAIN
100
AcDbPolyline
 90
        2
 70
     0
 43
0.0
 10
453146.1185695676
 20
196419.930161382
 10
453151.3252420803
 20
196418.3772941413
  0
LWPOLYLINE
  5
2DF
330
1F
100
AcDbEntity
  8
AS-ABST MAG POS LINEAR UNCERTAIN
100
AcDbPolyline
 90
        3
 70
     0
 43
0.0
 10
453153.2434898482
 20
196417.8292233505
 10
453155.9838438023
 20
196417.2811525597
 10
453156.9886402521
 20
196415.728285319
  0
LWPOLYLINE
  5
2E0
330
1F
100
AcDbEntity
  8
AS-ABST MAG POS LINEAR UNCERTAIN
100
AcDbPolyline
 90
        5
 70
     0
 43
0.0
 10
453153.9742509026
 20
196412.8965862332
 10
453156.1665340659
 20
196413.901382683
 10
453157.4453659111
 20
196415.9109755826
 10
453158.90688802
 20
196416.6417366371
 10
453160.3684101288
 20
196417.2811525597
  0
LWPOLYLINE
  5
2E1
330
1F
100
AcDbEntity
  8
AS-ABST MAG POS LINEAR UNCERTAIN
100
AcDbPolyline
 90
        6
 70
     0
 43
0.0
 10
453161.7385871059
 20
196418.7426746685
 10
453161.6472419741
 20
196421.8484091498
 10
453161.7385871059
 20
196424.6801082357
 10
453162.2866578966
 20
196426.5070108718
 10
453163.4741446101
 20
196427.0550816626
 10
453164.9356667189
 20
196427.0550816626
  0
LWPOLYLINE
  5
2E2
330
1F
100
AcDbEntity
  8
AS-ABST MAG POS LINEAR UNCERTAIN
100
AcDbPolyline
 90
        3
 70
     0
 43
0.0
 10
453161.6472419741
 20
196434.0886568113
 10
453169.7769587045
 20
196425.8675949491
 10
453181.0124099162
 20
196414.4494534738
  0
LWPOLYLINE
  5
2E3
330
1F
100
AcDbEntity
  8
AS-ABST MAG POS LINEAR UNCERTAIN
100
AcDbPolyline
 90
        6
 70
     0
 43
0.0
 10
453174.3442152946
 20
196437.2857364245
 10
453173.9788347674
 20
196434.6367276022
 10
453173.248073713
 20
196433.1752054933
 10
453172.334622395
 20
196432.1704090435
 10
453170.2336843635
 20
196431.3483028573
 10
453167.4019852776
 20
196429.4300550894
  0
LWPOLYLINE
  5
2E4
330
1F
100
AcDbEntity
  8
AS-ABST MAG POS LINEAR UNCERTAIN
100
AcDbPolyline
 90
       15
 70
     0
 43
0.0
 10
453166.3971888278
 20
196417.1898074278
 10
453165.2097021143
 20
196415.6369401872
 10
453164.7529764554
 20
196414.3581083419
 10
453165.0270118507
 20
196413.1706216285
 10
453166.0318083006
 20
196412.2571703105
 10
453167.1279498822
 20
196411.9831349151
 10
453168.2240914638
 20
196411.9831349151
 10
453169.2288879137
 20
196412.0744800469
 10
453169.9596489681
 20
196412.5312057059
 10
453170.4163746271
 20
196413.2619667603
 10
453171.3298259451
 20
196413.6273472875
 10
453172.8826931858
 20
196413.4446570239
 10
453174.161525031
 20
196413.3533118921
 10
453175.8057374035
 20
196413.3533118921
 10
453176.2624630625
 20
196413.5360021557
  0
LWPOLYLINE
  5
2E5
330
1F
100
AcDbEntity
  8
AS-ABST MAG POS LINEAR UNCERTAIN
100
AcDbPolyline
 90
        2
 70
     0
 43
0.0
 10
453167.0183357242
 20
196402.9765049194
 10
453183.8258399758
 20
196393.330459001
  0
LWPOLYLINE
  5
2E6
330
1F
100
AcDbEntity
  8
AS-ABST MAG POS LINEAR UNCERTAIN
100
AcDbPolyline
 90
       34
 70
     1
 43
0.0
 10
453226.9772802395
 20
196421.3916834908
 10
453222.9266945511
 20
196421.6414553356
 10
453222.1416973247
 20
196421.8912271804
 10
453221.1426099456
 20
196421.9982722567
 10
453219.8223873376
 20
196422.3194074857
 10
453219.2871619559
 20
196422.4264525621
 10
453218.7876182664
 20
196422.8189511753
 10
453218.3237562689
 20
196423.06872302
 10
453217.717167503
 20
196423.3184948648
 10
453217.1462604292
 20
196423.710993478
 10
453216.3969448949
 20
196423.8894019386
 10
453215.1837673632
 20
196423.9250836307
 10
453215.1124039789
 20
196424.1034920912
 10
453215.1124039789
 20
196424.4603090124
 10
453215.2194490553
 20
196424.4959907045
 10
453215.7189927449
 20
196424.353263936
 10
453216.1114913581
 20
196424.2462188597
 10
453216.6823984318
 20
196424.2462188597
 10
453216.8608068924
 20
196424.4603090124
 10
453217.1105787372
 20
196424.6387174729
 10
453217.6458041188
 20
196424.6030357808
 10
453218.1096661162
 20
196424.3889456281
 10
453218.3237562689
 20
196423.9964470149
 10
453219.001708419
 20
196423.389858249
 10
453219.7153422612
 20
196423.2114497885
 10
453220.6787479482
 20
196423.06872302
 10
453221.6778353273
 20
196423.0330413279
 10
453222.7839677827
 20
196422.7832694832
 10
453223.2835114722
 20
196422.6762244069
 10
453224.5323706961
 20
196422.4978159463
 10
453226.0666834569
 20
196422.2837257936
 10
453226.6732722227
 20
196422.1053173331
 10
453226.8516806833
 20
196421.9625905646
 10
453226.9944074517
 20
196421.8198637962
  0
LWPOLYLINE
  5
2E7
330
1F
100
AcDbEntity
  8
AS-ABST MAG POS LINEAR UNCERTAIN
100
AcDbPolyline
 90
       28
 70
     1
 43
0.0
 10
453209.2234975131
 20
196411.0040292837
 10
453204.5648957911
 20
196413.0136221833
 10
453200.2716745964
 20
196415.3885956102
 10
453194.6996215564
 20
196417.9462593007
 10
453189.0362233847
 20
196420.3212327275
 10
453186.6612499578
 20
196420.9606486502
 10
453183.9208960037
 20
196421.6914097046
 10
453182.6420641585
 20
196422.2394804954
 10
453182.2766836313
 20
196421.7827548364
 10
453183.4641703447
 20
196420.6866132548
 10
453184.6516570582
 20
196419.7731619367
 10
453186.0218340352
 20
196419.4991265413
 10
453187.483356144
 20
196419.4991265413
 10
453189.4016039119
 20
196418.8597106187
 10
453191.9592676024
 20
196418.0376044325
 10
453193.4207897112
 20
196417.306843378
 10
453196.0697985335
 20
196415.936666401
 10
453197.7140109059
 20
196415.3885956102
 10
453199.2668781466
 20
196414.6578345558
 10
453200.5457099918
 20
196413.9270735014
 10
453201.9158869688
 20
196413.0136221833
 10
453203.0120285505
 20
196412.5568965243
 10
453203.7427896049
 20
196411.8261354699
 10
453204.7475860547
 20
196411.1867195473
 10
453205.8437276364
 20
196410.8213390201
 10
453207.2139046134
 20
196410.6386487564
 10
453208.4013913269
 20
196410.2732682293
 10
453209.6802231721
 20
196410.4559584928
  0
LWPOLYLINE
  5
2E8
330
1F
100
AcDbEntity
  8
AS-ABST MAG POS LINEAR UNCERTAIN
100
AcDbPolyline
 90
        2
 70
     0
 43
0.0
 10
453195.2220015291
 20
196393.7312357668
 10
453194.2942775342
 20
196397.8703120516
  0
LWPOLYLINE
  5
2E9
330
1F
100
AcDbEntity
  8
AS-ABST MAG POS LINEAR UNCERTAIN
100
AcDbPolyline
 90
        2
 70
     0
 43
0.0
 10
453196.4708607529
 20
196406.2911913897
 10
453202.643793488
 20
196410.6086761351
  0
LWPOLYLINE
  5
2EA
330
1F
100
AcDbEntity
  8
AS-ABST MAG POS LINEAR UNCERTAIN
100
AcDbPolyline
 90
       51
 70
     1
 43
0.0
 10
453196.2210889081
 20
196406.3268730818
 10
453196.3994973687
 20
196406.0057378528
 10
453196.3994973687
 20
196405.7202843159
 10
453196.2210889081
 20
196405.434830779
 10
453195.3647282975
 20
196404.9352870895
 10
453194.3656409184
 20
196404.3286983236
 10
453194.0088239973
 20
196403.9361997104
 10
453193.9374606131
 20
196403.6864278656
 10
453194.2942775342
 20
196403.3296109445
 10
453195.1149564527
 20
196403.0084757155
 10
453195.7929086028
 20
196402.6159771023
 10
453196.3281339845
 20
196402.3662052575
 10
453196.3994973687
 20
196402.1164334128
 10
453196.4351790608
 20
196401.8309798759
 10
453196.185407216
 20
196401.6882531074
 10
453195.6501818344
 20
196401.7952981838
 10
453195.0079113764
 20
196402.0807517207
 10
453194.4370043026
 20
196402.3662052575
 10
453193.7590521525
 20
196402.6873404865
 10
453193.4379169235
 20
196402.6516587944
 10
453193.4022352314
 20
196402.2234784891
 10
453193.7947338446
 20
196401.5098446469
 10
453193.7947338446
 20
196400.6891657284
 10
453194.2942775342
 20
196399.618714965
 10
453194.22291415
 20
196399.1548529676
 10
453194.22291415
 20
196398.6196275859
 10
453194.4013226105
 20
196397.9773571279
 10
453194.2942775342
 20
196397.8703120516
 10
453193.7233704604
 20
196398.2984923569
 10
453193.6163253841
 20
196398.976444507
 10
453193.4735986156
 20
196399.2262163518
 10
453193.1881450788
 20
196399.4759881966
 10
453193.1167816945
 20
196400.0468952704
 10
453193.1167816945
 20
196400.4037121915
 10
453193.0811000025
 20
196400.9389375731
 10
453192.8313281576
 20
196401.6525714153
 10
453192.6529196971
 20
196402.2591601812
 10
453192.5458746208
 20
196402.7587038707
 10
453192.5101929287
 20
196403.5080194051
 10
453192.5458746208
 20
196403.9005180183
 10
453193.1167816945
 20
196404.2216532473
 10
453193.4379169235
 20
196404.4000617078
 10
453193.6876887683
 20
196404.7925603211
 10
453193.8660972288
 20
196405.0423321658
 10
453194.1515507657
 20
196405.2921040106
 10
453194.6867761474
 20
196405.3991490869
 10
453194.9365479922
 20
196405.3277857027
 10
453195.2576832211
 20
196405.8630110844
 10
453195.4360916817
 20
196406.0414195449
 10
453195.7572269107
 20
196406.1484646212
 10
453196.0426804476
 20
196406.2198280055
  0
LWPOLYLINE
  5
2EB
330
1F
100
AcDbEntity
  8
AS-ABST MAG POS LINEAR UNCERTAIN
100
AcDbPolyline
 90
       11
 70
     1
 43
0.0
 10
453166.0125687328
 20
196348.3529153713
 10
453161.331130728
 20
196351.5499949844
 10
453160.7031329468
 20
196352.1209020582
 10
453160.7602236542
 20
196352.6347184246
 10
453161.3882214353
 20
196352.4063555951
 10
453162.1874913386
 20
196351.7783578139
 10
453162.9296705345
 20
196351.2645414476
 10
453164.2427568042
 20
196350.0656365926
 10
453166.2409315623
 20
196348.9809131525
 10
453166.2980222697
 20
196348.752550323
 10
453166.2980222697
 20
196348.6383689082
  0
LWPOLYLINE
  5
2EC
330
1F
100
AcDbEntity
  8
AS-ABST MAG NEG LINEAR UNCERTAIN
100
AcDbPolyline
 90
        2
 70
     0
 43
0.0
 10
453129.259854952
 20
196333.4362553479
 10
453120.9474479581
 20
196345.7678481413
  0
LWPOLYLINE
  5
2ED
330
1F
100
AcDbEntity
  8
AS-ABST MAG NEG LINEAR UNCERTAIN
100
AcDbPolyline
 90
        2
 70
     0
 43
0.0
 10
453125.9029213584
 20
196373.4340049361
 10
453126.3596470173
 20
196371.7212837148
  0
LWPOLYLINE
  5
2EE
330
1F
100
AcDbEntity
  8
AS-ABST MAG NEG LINEAR UNCERTAIN
100
AcDbPolyline
 90
        8
 70
     0
 43
0.0
 10
453126.8734633838
 20
196370.4652881525
 10
453127.8440054092
 20
196369.6089275419
 10
453129.3854545083
 20
196368.5812948091
 10
453130.4701779485
 20
196368.3529319796
 10
453131.9545363403
 20
196368.0674784427
 10
453132.8679876583
 20
196368.2387505648
 10
453133.6672575616
 20
196369.2092925902
 10
453134.5236181722
 20
196370.3511067378
  0
LWPOLYLINE
  5
2EF
330
1F
100
AcDbEntity
  8
AS-ABST MAG POS LINEAR UNCERTAIN
100
AcDbPolyline
 90
        2
 70
     0
 43
0.0
 10
453174.6309819186
 20
196434.5324799707
 10
453180.2030349586
 20
196430.4219490396
  0
LWPOLYLINE
  5
2F0
330
1F
100
AcDbEntity
  8
AS-ABST MAG POS LINEAR UNCERTAIN
100
AcDbPolyline
 90
        3
 70
     0
 43
0.0
 10
453171.2512120419
 20
196430.0565685124
 10
453180.6597606175
 20
196427.2248694265
 10
453190.3423445887
 20
196423.0229933636
  0
LWPOLYLINE
  5
2F1
330
1F
100
AcDbEntity
  8
AS-ABST MAG LAND DRAIN
100
AcDbPolyline
 90
        2
 70
     0
 43
0.0
 10
453156.2706104263
 20
196430.9700198304
 10
453191.8952118293
 20
196404.3885864758
  0
LWPOLYLINE
  5
2F3
330
1F
100
AcDbEntity
  8
AS-ABST MAG POS DISCRETE UNCERTAIN
100
AcDbPolyline
 90
       11
 70
     1
 43
0.0
 10
453198.298048843
 20
196383.4244220014
 10
453197.7271417693
 20
196384.2807826121
 10
453197.8984138914
 20
196385.0800525153
 10
453198.0125953062
 20
196386.4502294924
 10
453198.298048843
 20
196386.6785923219
 10
453198.6976837947
 20
196386.6785923219
 10
453198.9831373316
 20
196386.393138785
 10
453199.0973187463
 20
196385.0229618079
 10
453199.1544094537
 20
196384.0524197825
 10
453199.040228039
 20
196383.5956941235
 10
453198.8118652095
 20
196383.3102405867
  0
LWPOLYLINE
  5
2F5
330
1F
100
AcDbEntity
  8
AS-ABST MAG POS DISCRETE UNCERTAIN
100
AcDbPolyline
 90
        9
 70
     1
 43
0.0
 10
453202.5798518963
 20
196381.9400636096
 10
453201.7234912857
 20
196381.997154317
 10
453200.9242213824
 20
196382.1684264391
 10
453200.6958585529
 20
196382.453879976
 10
453200.7529492603
 20
196382.8535149276
 10
453201.4951284562
 20
196382.8535149276
 10
453202.522761189
 20
196382.6822428055
 10
453202.6940333111
 20
196382.453879976
 10
453202.6940333111
 20
196382.1684264391
  0
LWPOLYLINE
  5
2F6
330
1F
100
AcDbEntity
  8
AS-ABST MAG POS LINEAR UNCERTAIN
100
AcDbPolyline
 90
        6
 70
     0
 43
0.0
 10
453183.127906079
 20
196387.2312303694
 10
453184.5894281879
 20
196385.1302923379
 10
453184.5894281879
 20
196383.2120445701
 10
453184.041357397
 20
196380.5630357478
 10
453182.9452158154
 20
196379.4668941661
 10
453181.8490742338
 20
196378.4620977163
  0
LWPOLYLINE
  5
2F7
330
1F
100
AcDbEntity
  8
AS-ABST MAG NEG LINEAR UNCERTAIN
100
AcDbPolyline
 90
        9
 70
     0
 43
0.0
 10
453180.1135167295
 20
196389.4235135327
 10
453182.67118042
 20
196388.4187170828
 10
453184.1327025288
 20
196387.3225755012
 10
453185.1374989786
 20
196385.7697082605
 10
453185.8682600331
 20
196383.0293543064
 10
453185.8682600331
 20
196381.2024516704
 10
453185.5028795059
 20
196379.9236198252
 10
453184.5894281879
 20
196378.2794074527
 10
453184.041357397
 20
196377.6399915301
  0
LWPOLYLINE
  5
2F8
330
1F
100
AcDbEntity
  8
AS-ABST MAG NEG LINEAR UNCERTAIN
100
AcDbPolyline
 90
        7
 70
     0
 43
0.0
 10
453175.1808796122
 20
196381.1111065386
 10
453171.9837999991
 20
196382.5726286474
 10
453169.0607557814
 20
196383.3947348336
 10
453165.8636761683
 20
196382.2072481202
 10
453165.1329151139
 20
196380.1063100888
 10
453164.8588797185
 20
196377.8226817937
 10
453165.5896407729
 20
196375.356363235
  0
LWPOLYLINE
  5
2F9
330
1F
100
AcDbEntity
  8
AS-ABST MAG POS LINEAR UNCERTAIN
100
AcDbPolyline
 90
        2
 70
     0
 43
0.0
 10
453170.4820860323
 20
196318.8137266492
 10
453186.4674840978
 20
196309.0397975463
  0
LWPOLYLINE
  5
2FA
330
1F
100
AcDbEntity
  8
AS-ABST MAG POS LINEAR UNCERTAIN
100
AcDbPolyline
 90
        2
 70
     0
 43
0.0
 10
453182.5396434303
 20
196292.7803640854
 10
453172.5830240638
 20
196298.1697268618
  0
LWPOLYLINE
  5
2FB
330
1F
100
AcDbEntity
  8
AS-ABST MAG NEG LINEAR UNCERTAIN
100
AcDbPolyline
 90
        2
 70
     0
 43
0.0
 10
453142.4464381797
 20
196378.8201706331
 10
453147.9271460879
 20
196400.9256925294
  0
LWPOLYLINE
  5
2FC
330
1F
100
AcDbEntity
  8
AS-ABST MAG POS LINEAR UNCERTAIN
100
AcDbPolyline
 90
        5
 70
     0
 43
0.0
 10
453085.5932281457
 20
196367.2376079206
 10
453083.8576706415
 20
196367.7856787114
 10
453083.1269095871
 20
196369.0645105566
 10
453082.8528741917
 20
196371.0741034563
 10
453082.670183928
 20
196372.3529353015
  0
LWPOLYLINE
  5
2FD
330
1F
100
AcDbEntity
  8
AS-ABST MAG POS LINEAR UNCERTAIN
100
AcDbPolyline
 90
        3
 70
     0
 43
0.0
 10
453078.3769627334
 20
196355.910811577
 10
453079.3817591832
 20
196365.2280150209
 10
453079.1990689196
 20
196368.9731654248
  0
LWPOLYLINE
  5
2FE
330
1F
100
AcDbEntity
  8
AS-ABST MAG POS LINEAR UNCERTAIN
100
AcDbPolyline
 90
        4
 70
     0
 43
0.0
 10
453088.2422369681
 20
196366.7808822615
 10
453085.7759184094
 20
196367.9683689749
 10
453084.7711219596
 20
196369.8866167428
 10
453083.9490157734
 20
196372.1702450379
  0
LWPOLYLINE
  5
2FF
330
1F
100
AcDbEntity
  8
AS-ABST MAG POS LINEAR UNCERTAIN
100
AcDbPolyline
 90
        7
 70
     0
 43
0.0
 10
453094.8190864579
 20
196379.2038201867
 10
453092.2614227674
 20
196379.4778555821
 10
453090.4345201314
 20
196380.3913069001
 10
453089.5210688133
 20
196381.9441741408
 10
453089.3383785497
 20
196383.679731645
 10
453089.3383785497
 20
196386.3287404673
 10
453089.5210688133
 20
196387.8816077079
  0
LWPOLYLINE
  5
300
330
1F
100
AcDbEntity
  8
AS-ABST MAG POS LINEAR UNCERTAIN
100
AcDbPolyline
 90
        2
 70
     0
 43
0.0
 10
453085.958608673
 20
196380.6653422955
 10
453083.7663255098
 20
196378.8384396595
  0
LWPOLYLINE
  5
301
330
1F
100
AcDbEntity
  8
AS-ABST MAG POS LINEAR UNCERTAIN
100
AcDbPolyline
 90
        2
 70
     0
 43
0.0
 10
453089.2470334179
 20
196398.020917338
 10
453093.9056351398
 20
196391.7181032437
  0
LWPOLYLINE
  5
302
330
1F
100
AcDbEntity
  8
AS-ABST MAG POS LINEAR UNCERTAIN
100
AcDbPolyline
 90
        3
 70
     0
 43
0.0
 10
453092.1883466619
 20
196370.3798804546
 10
453085.702842304
 20
196374.2163759903
 10
453080.4048246594
 20
196376.3173140218
  0
LWPOLYLINE
  5
303
330
1F
100
AcDbEntity
  8
AS-ABST MAG SERVICE
100
AcDbPolyline
 90
        2
 70
     0
 43
0.0
 10
453069.5932148593
 20
196355.5563924657
 10
453208.7301196211
 20
196284.9356441664
  0
LWPOLYLINE
  5
305
330
1F
100
AcDbEntity
  8
AS-ABST MAG SERVICE
100
AcDbPolyline
 90
        2
 70
     0
 43
0.0
 10
453213.173146832
 20
196275.1142155949
 10
453228.1391332266
 20
196309.7230591324
  0
LWPOLYLINE
  5
306
330
1F
100
AcDbEntity
  8
AS-ABST MAG SERVICE
100
AcDbPolyline
 90
        4
 70
     0
 43
0.0
 10
453240.6205320362
 20
196356.6963797106
 10
453241.4974453015
 20
196370.4346875338
 10
453243.2512718321
 20
196401.5651084521
 10
453244.1281850974
 20
196412.9649809011
  0
LWPOLYLINE
  5
307
330
1F
100
AcDbEntity
  8
AS-ABST MAG SERVICE
100
AcDbPolyline
 90
        4
 70
     0
 43
0.0
 10
453174.4112968774
 20
196374.5338003235
 10
453207.7522699854
 20
196373.2549684783
 10
453233.1576347681
 20
196371.5308291155
 10
453241.3786966302
 20
196371.302466286
  0
LWPOLYLINE
  5
308
330
1F
100
AcDbEntity
  8
AS-ABST MAG STRONG DIPOLAR
100
AcDbPolyline
 90
        2
 70
     1
 43
1.0
 10
453142.2058575237
 20
196302.6862869041
 42
1.0
 10
453141.2058575237
 20
196302.6862869041
 42
1.0
  0
LWPOLYLINE
  5
30A
330
1F
100
AcDbEntity
  8
AS-ABST MAG STRONG DIPOLAR
100
AcDbPolyline
 90
        2
 70
     1
 43
1.0
 10
453149.2708325616
 20
196298.6899373877
 42
1.0
 10
453148.2708325616
 20
196298.6899373877
 42
1.0
  0
LWPOLYLINE
  5
30B
330
1F
100
AcDbEntity
  8
AS-ABST MAG STRONG DIPOLAR
100
AcDbPolyline
 90
        2
 70
     1
 43
0.5
 10
453143.5615336686
 20
196301.6604382559
 42
1.0
 10
453143.0615336686
 20
196301.6604382559
 42
1.0
  0
LWPOLYLINE
  5
30C
330
1F
100
AcDbEntity
  8
AS-ABST MAG STRONG DIPOLAR
100
AcDbPolyline
 90
        2
 70
     1
 43
0.5
 10
453147.7541324916
 20
196299.586439902
 42
1.0
 10
453147.2541324916
 20
196299.586439902
 42
1.0
  0
LWPOLYLINE
  5
30D
330
1F
100
AcDbEntity
  8
AS-ABST MAG STRONG DIPOLAR
100
AcDbPolyline
 90
        2
 70
     1
 43
0.5
 10
453146.6836817283
 20
196300.0993642261
 42
1.0
 10
453146.1836817283
 20
196300.0993642261
 42
1.0
  0
LWPOLYLINE
  5
30E
330
1F
100
AcDbEntity
  8
AS-ABST MAG STRONG DIPOLAR
100
AcDbPolyline
 90
        2
 70
     1
 43
0.75
 10
453145.1584034681
 20
196300.9468044137
 42
1.0
 10
453144.4084034681
 20
196300.9468044137
 42
1.0
  0
LWPOLYLINE
  5
30F
330
1F
100
AcDbEntity
  8
AS-ABST MAG STRONG DIPOLAR
100
AcDbPolyline
 90
        2
 70
     1
 43
1.0
 10
453180.5551842999
 20
196363.6938093054
 42
1.0
 10
453179.5551842999
 20
196363.6938093054
 42
1.0
  0
LWPOLYLINE
  5
310
330
1F
100
AcDbEntity
  8
AS-ABST MAG STRONG DIPOLAR
100
AcDbPolyline
 90
        2
 70
     1
 43
0.5
 10
453158.0900482455
 20
196356.9830821069
 42
1.0
 10
453157.5900482455
 20
196356.9830821069
 42
1.0
  0
LWPOLYLINE
  5
311
330
1F
100
AcDbEntity
  8
AS-ABST MAG STRONG DIPOLAR
100
AcDbPolyline
 90
        2
 70
     1
 43
0.5
 10
453141.8306147846
 20
196375.0694182038
 42
1.0
 10
453141.3306147846
 20
196375.0694182038
 42
1.0
  0
LWPOLYLINE
  5
312
330
1F
100
AcDbEntity
  8
AS-ABST MAG STRONG DIPOLAR
100
AcDbPolyline
 90
        2
 70
     1
 43
0.5
 10
453137.0806679309
 20
196359.266710402
 42
1.0
 10
453136.5806679309
 20
196359.266710402
 42
1.0
  0
LWPOLYLINE
  5
313
330
1F
100
AcDbEntity
  8
AS-ABST MAG STRONG DIPOLAR
100
AcDbPolyline
 90
        2
 70
     1
 43
0.5
 10
453129.3163317277
 20
196322.0892417582
 42
1.0
 10
453128.8163317277
 20
196322.0892417582
 42
1.0
  0
LWPOLYLINE
  5
314
330
1F
100
AcDbEntity
  8
AS-ABST MAG STRONG DIPOLAR
100
AcDbPolyline
 90
        2
 70
     1
 43
0.5
 10
453178.4600126375
 20
196411.3334355295
 42
1.0
 10
453177.9600126375
 20
196411.3334355295
 42
1.0
  0
LWPOLYLINE
  5
315
330
1F
100
AcDbEntity
  8
AS-ABST MAG STRONG DIPOLAR
100
AcDbPolyline
 90
        2
 70
     1
 43
0.5
 10
453146.4892165065
 20
196413.9824443518
 42
1.0
 10
453145.9892165065
 20
196413.9824443518
 42
1.0
  0
LWPOLYLINE
  5
316
330
1F
100
AcDbEntity
  8
AS-ABST MAG STRONG DIPOLAR
100
AcDbPolyline
 90
        2
 70
     1
 43
0.5
 10
453149.503605856
 20
196414.804550538
 42
1.0
 10
453149.003605856
 20
196414.804550538
 42
1.0
  0
LWPOLYLINE
  5
317
330
1F
100
AcDbEntity
  8
AS-ABST MAG STRONG DIPOLAR
100
AcDbPolyline
 90
        2
 70
     1
 43
0.5
 10
453133.792243186
 20
196412.0641965839
 42
1.0
 10
453133.292243186
 20
196412.0641965839
 42
1.0
  0
LWPOLYLINE
  5
318
330
1F
100
AcDbEntity
  8
AS-ABST MAG STRONG DIPOLAR
100
AcDbPolyline
 90
        2
 70
     1
 43
0.5
 10
453144.2969333433
 20
196392.6076835099
 42
1.0
 10
453143.7969333433
 20
196392.6076835099
 42
1.0
  0
LWPOLYLINE
  5
319
330
1F
100
AcDbEntity
  8
AS-ABST MAG STRONG DIPOLAR
100
AcDbPolyline
 90
        2
 70
     1
 43
0.5
 10
453148.0420837472
 20
196391.9682675873
 42
1.0
 10
453147.5420837472
 20
196391.9682675873
 42
1.0
  0
LWPOLYLINE
  5
31A
330
1F
100
AcDbEntity
  8
AS-ABST MAG STRONG DIPOLAR
100
AcDbPolyline
 90
        2
 70
     1
 43
0.5
 10
453165.7630393169
 20
196367.7618076596
 42
1.0
 10
453165.2630393169
 20
196367.7618076596
 42
1.0
  0
LWPOLYLINE
  5
31B
330
1F
100
AcDbEntity
  8
AS-ABST MAG STRONG DIPOLAR
100
AcDbPolyline
 90
        2
 70
     1
 43
0.5
 10
453176.359074606
 20
196387.6750463926
 42
1.0
 10
453175.859074606
 20
196387.6750463926
 42
1.0
  0
LWPOLYLINE
  5
31C
330
1F
100
AcDbEntity
  8
AS-ABST MAG STRONG DIPOLAR
100
AcDbPolyline
 90
        2
 70
     1
 43
0.5
 10
453175.1715878926
 20
196365.2041439691
 42
1.0
 10
453174.6715878926
 20
196365.2041439691
 42
1.0
  0
LWPOLYLINE
  5
31D
330
1F
100
AcDbEntity
  8
AS-ABST MAG STRONG DIPOLAR
100
AcDbPolyline
 90
        2
 70
     1
 43
0.5
 10
453106.2608204607
 20
196318.4719745389
 42
1.0
 10
453105.7608204607
 20
196318.4719745389
 42
1.0
  0
LWPOLYLINE
  5
31E
330
1F
100
AcDbEntity
  8
AS-ABST MAG STRONG DIPOLAR
100
AcDbPolyline
 90
        2
 70
     1
 43
0.5
 10
453064.8997447804
 20
196343.0255459674
 42
1.0
 10
453064.3997447804
 20
196343.0255459674
 42
1.0
  0
LWPOLYLINE
  5
31F
330
1F
100
AcDbEntity
  8
AS-ABST MAG STRONG DIPOLAR
100
AcDbPolyline
 90
        2
 70
     1
 43
0.5
 10
453070.9467925058
 20
196344.5601441817
 42
1.0
 10
453070.4467925058
 20
196344.5601441817
 42
1.0
  0
LWPOLYLINE
  5
320
330
1F
100
AcDbEntity
  8
AS-ABST MAG STRONG DIPOLAR
100
AcDbPolyline
 90
        2
 70
     1
 43
0.5
 10
453079.9899605542
 20
196373.7905863586
 42
1.0
 10
453079.4899605542
 20
196373.7905863586
 42
1.0
  0
LWPOLYLINE
  5
321
330
1F
100
AcDbEntity
  8
AS-ABST MAG STRONG DIPOLAR
100
AcDbPolyline
 90
        2
 70
     1
 43
0.5
 10
453084.3745268808
 20
196374.7953828084
 42
1.0
 10
453083.8745268808
 20
196374.7953828084
 42
1.0
  0
LWPOLYLINE
  5
322
330
1F
100
AcDbEntity
  8
AS-ABST MAG STRONG DIPOLAR
100
AcDbPolyline
 90
        2
 70
     1
 43
0.5
 10
453098.167641783
 20
196367.9444979232
 42
1.0
 10
453097.667641783
 20
196367.9444979232
 42
1.0
  0
LWPOLYLINE
  5
323
330
1F
100
AcDbEntity
  8
AS-ABST MAG STRONG DIPOLAR
100
AcDbPolyline
 90
        2
 70
     1
 43
0.5
 10
453097.254190465
 20
196368.035843055
 42
1.0
 10
453096.754190465
 20
196368.035843055
 42
1.0
  0
LWPOLYLINE
  5
324
330
1F
100
AcDbEntity
  8
AS-ABST MAG STRONG DIPOLAR
100
AcDbPolyline
 90
        2
 70
     1
 43
0.5
 10
453096.0667037516
 20
196366.4829758144
 42
1.0
 10
453095.5667037516
 20
196366.4829758144
 42
1.0
  0
LWPOLYLINE
  5
325
330
1F
100
AcDbEntity
  8
AS-ABST MAG STRONG DIPOLAR
100
AcDbPolyline
 90
        2
 70
     1
 43
0.5
 10
453095.2445975653
 20
196364.4733829147
 42
1.0
 10
453094.7445975653
 20
196364.4733829147
 42
1.0
  0
LWPOLYLINE
  5
326
330
1F
100
AcDbEntity
  8
AS-ABST MAG STRONG DIPOLAR
100
AcDbPolyline
 90
        2
 70
     1
 43
0.5
 10
453093.9657657201
 20
196361.093613038
 42
1.0
 10
453093.4657657201
 20
196361.093613038
 42
1.0
  0
LWPOLYLINE
  5
327
330
1F
100
AcDbEntity
  8
AS-ABST MAG STRONG DIPOLAR
100
AcDbPolyline
 90
        2
 70
     1
 43
0.5
 10
453096.7974648059
 20
196364.9301085738
 42
1.0
 10
453096.2974648059
 20
196364.9301085738
 42
1.0
  0
LWPOLYLINE
  5
328
330
1F
100
AcDbEntity
  8
AS-ABST MAG STRONG DIPOLAR
100
AcDbPolyline
 90
        2
 70
     1
 43
0.5
 10
453099.2637833647
 20
196372.7857899088
 42
1.0
 10
453098.7637833647
 20
196372.7857899088
 42
1.0
  0
LWPOLYLINE
  5
329
330
1F
100
AcDbEntity
  8
AS-ABST MAG STRONG DIPOLAR
100
AcDbPolyline
 90
        2
 70
     1
 43
0.5
 10
453101.3647213961
 20
196373.7905863586
 42
1.0
 10
453100.8647213961
 20
196373.7905863586
 42
1.0
  0
LWPOLYLINE
  5
32A
330
1F
100
AcDbEntity
  8
AS-ABST MAG STRONG DIPOLAR
100
AcDbPolyline
 90
        2
 70
     1
 43
0.5
 10
453105.2012169318
 20
196373.5165509632
 42
1.0
 10
453104.7012169318
 20
196373.5165509632
 42
1.0
  0
LWPOLYLINE
  5
32B
330
1F
100
AcDbEntity
  8
AS-ABST MAG STRONG DIPOLAR
100
AcDbPolyline
 90
        2
 70
     1
 43
0.5
 10
453187.046455027
 20
196411.2420903977
 42
1.0
 10
453186.546455027
 20
196411.2420903977
 42
1.0
  0
LWPOLYLINE
  5
32C
330
1F
100
AcDbEntity
  8
AS-ABST MAG STRONG DIPOLAR
100
AcDbPolyline
 90
        2
 70
     1
 43
0.5
 10
453169.5995348526
 20
196428.232284913
 42
1.0
 10
453169.0995348526
 20
196428.232284913
 42
1.0
  0
LWPOLYLINE
  5
32D
330
1F
100
AcDbEntity
  8
AS-ABST MAG STRONG DIPOLAR
100
AcDbPolyline
 90
        2
 70
     1
 43
0.5
 10
453218.6518706307
 20
196405.4873470941
 42
1.0
 10
453218.1518706307
 20
196405.4873470941
 42
1.0
  0
LWPOLYLINE
  5
32E
330
1F
100
AcDbEntity
  8
AS-ABST MAG STRONG DIPOLAR
100
AcDbPolyline
 90
        2
 70
     1
 43
0.5
 10
453213.7192335133
 20
196407.862320521
 42
1.0
 10
453213.2192335133
 20
196407.862320521
 42
1.0
  0
LWPOLYLINE
  5
32F
330
1F
100
AcDbEntity
  8
AS-ABST MAG STRONG DIPOLAR
100
AcDbPolyline
 90
        2
 70
     1
 43
0.5
 10
453220.1133927396
 20
196379.3626393986
 42
1.0
 10
453219.6133927396
 20
196379.3626393986
 42
1.0
  0
LWPOLYLINE
  5
330
330
1F
100
AcDbEntity
  8
AS-ABST MAG DEBRIS
 62
     7
420
 16711679
430
UNNAMED$254,255,255
100
AcDbPolyline
 90
       39
 70
     1
 43
0.0
 10
453183.2361871699
 20
196284.2138963076
 10
453187.4746012855
 20
196297.2214430763
 10
453180.459295163
 20
196300.7290961375
 10
453175.490119993
 20
196304.3829014096
 10
453173.7362934624
 20
196306.2828801511
 10
453173.7362934624
 20
196306.7213367838
 10
453175.1978155712
 20
196309.4982287906
 10
453175.7824244148
 20
196310.228989845
 10
453177.6824031562
 20
196310.3751420559
 10
453183.090034959
 20
196308.6213155252
 10
453185.2823181222
 20
196308.1828588926
 10
453186.1592313875
 20
196311.6905119538
 10
453185.2823181222
 20
196313.5904906953
 10
453182.5054261154
 20
196315.0520128042
 10
453179.7285341086
 20
196317.2442959674
 10
453179.1439252651
 20
196323.0903844028
 10
453180.459295163
 20
196330.6902993688
 10
453187.3284490746
 20
196356.5592406953
 10
453192.4437764556
 20
196370.4437007293
 10
453195.0745162515
 20
196370.5898529402
 10
453198.3181818819
 20
196371.0977318731
 10
453203.3992548384
 20
196371.0977318731
 10
453205.1590188025
 20
196370.7360051511
 10
453208.8799627466
 20
196370.4697340919
 10
453212.0281727141
 20
196369.8590918858
 10
453217.2896523059
 20
196369.7129396749
 10
453223.6093652498
 20
196369.9559177255
 10
453228.1195311325
 20
196369.0995571148
 10
453232.343330027
 20
196366.2052866137
 10
453228.2510681223
 20
196351.7362177361
 10
453225.9126327481
 20
196343.113237294
 10
453224.0126540067
 20
196324.6980587226
 10
453217.2896523059
 20
196302.7752270899
 10
453212.9050859794
 20
196290.9368980083
 10
453211.7358682923
 20
196288.4523104232
 10
453198.1437126801
 20
196292.3984201171
 10
453195.0745162515
 20
196280.2677866137
 10
453193.7591463536
 20
196274.860154811
 10
453181.6285128501
 20
196281.144699879
  0
LWPOLYLINE
  5
332
330
1F
100
AcDbEntity
  8
AS-ABST MAG DEBRIS
 62
     7
420
 16711679
430
UNNAMED$254,255,255
100
AcDbPolyline
 90
       64
 70
     1
 43
0.0
 10
453080.1988784964
 20
196335.9517789606
 10
453084.1449881902
 20
196342.3824762395
 10
453087.5064890406
 20
196348.8131735184
 10
453090.2833810474
 20
196353.197739845
 10
453091.0141421018
 20
196359.3361327021
 10
453092.4756642106
 20
196365.6206777701
 10
453094.3756429521
 20
196369.7129396749
 10
453096.1294694828
 20
196371.3206139946
 10
453096.2756216936
 20
196373.6590493688
 10
453096.5679261154
 20
196383.3050952871
 10
453095.5448606392
 20
196385.6435306613
 10
453094.9602517957
 20
196396.6049464776
 10
453094.521795163
 20
196399.5279906953
 10
453093.352577476
 20
196401.2818172259
 10
453092.037207578
 20
196402.451034913
 10
453091.7449031562
 20
196405.5202313415
 10
453091.7449031562
 20
196407.7125145048
 10
453092.4756642107
 20
196410.6355587225
 10
453095.3256323229
 20
196409.7221074044
 10
453094.7775615321
 20
196407.4384791094
 10
453096.9698446954
 20
196406.1596472642
 10
453095.8737031138
 20
196403.0539127829
 10
453097.8832960134
 20
196402.049116333
 10
453097.5179154862
 20
196398.9433818517
 10
453099.1621278587
 20
196397.7558951383
 10
453098.4313668042
 20
196394.7415057888
 10
453099.1621278587
 20
196394.4674703934
 10
453098.7967473314
 20
196392.2751872301
 10
453103.0899685262
 20
196390.9050102531
 10
453105.008216294
 20
196395.4722668432
 10
453105.008216294
 20
196397.2991694793
 10
453108.2052959071
 20
196403.3279481783
 10
453110.7629595976
 20
196402.8712225192
 10
453110.8543047294
 20
196401.592390674
 10
453112.4985171019
 20
196400.9529747514
 10
453112.9552427608
 20
196401.592390674
 10
453116.3350126375
 20
196400.3135588288
 10
453116.2436675057
 20
196399.5827977744
 10
453118.9840214598
 20
196400.4049039606
 10
453124.3733842362
 20
196402.049116333
 10
453128.5176242909
 20
196402.7675846611
 10
453123.4599329181
 20
196392.4578774937
 10
453116.4263577693
 20
196380.9483908866
 10
453111.036994993
 20
196370.6263909929
 10
453110.7629595976
 20
196367.6120016434
 10
453110.4889242022
 20
196364.1408866349
 10
453108.6620215661
 20
196358.7515238586
 10
453109.8495082795
 20
196356.5592406953
 10
453111.036994993
 20
196355.1890637183
 10
453110.6716144658
 20
196352.540054896
 10
453108.2052959071
 20
196349.0689398875
 10
453107.0178091936
 20
196347.424727515
 10
453105.008216294
 20
196344.8670638245
 10
453102.6332428671
 20
196340.3911523662
 10
453100.9890304946
 20
196336.1892763033
 10
453099.0707827267
 20
196330.9826037905
 10
453093.6814199504
 20
196328.1509047047
 10
453091.7631721825
 20
196325.227860487
 10
453089.1141633603
 20
196323.4009578509
 10
453087.9266766468
 20
196324.6797896962
 10
453086.7391899334
 20
196327.511488782
 10
453085.9170837472
 20
196330.7085683951
 10
453081.806552816
 20
196331.8960551086
 10
453079.8883050482
 20
196333.6316126128
  0
LWPOLYLINE
  5
333
330
1F
100
AcDbEntity
  8
AS-ABST MAG STRONG DIPOLAR
100
AcDbPolyline
 90
        2
 70
     1
 43
0.5
 10
453165.7630393169
 20
196410.3286390796
 42
1.0
 10
453165.2630393169
 20
196410.3286390796
 42
1.0
  0
LWPOLYLINE
  5
334
330
1F
100
AcDbEntity
  8
AS-ABST MAG STRONG DIPOLAR
100
AcDbPolyline
 90
        2
 70
     1
 43
0.5
 10
453154.0708624462
 20
196396.9009047046
 42
1.0
 10
453153.5708624462
 20
196396.9009047046
 42
1.0
  0
LWPOLYLINE
  5
335
330
1F
100
AcDbEntity
  8
AS-ABST MAG STRONG DIPOLAR
100
AcDbPolyline
 90
        2
 70
     1
 43
0.5
 10
453155.6237296868
 20
196400.3720197131
 42
1.0
 10
453155.1237296868
 20
196400.3720197131
 42
1.0
  0
LWPOLYLINE
  5
336
330
1F
100
AcDbEntity
  8
AS-ABST MAG DISTURBANCE
 62
     7
420
 16711679
430
UNNAMED$254,255,255
100
AcDbPolyline
 90
      116
 70
     1
 43
0.0
 10
453243.0453256689
 20
196419.6019968603
 10
453241.7299557709
 20
196416.6789526426
 10
453240.7068902947
 20
196415.8020393773
 10
453237.0530850226
 20
196414.6328216902
 10
453236.7607806008
 20
196413.3174517923
 10
453238.3684549205
 20
196412.0020818943
 10
453239.8299770294
 20
196410.6867119964
 10
453240.1222814512
 20
196409.3713420984
 10
453239.3915203967
 20
196407.6175155678
 10
453238.2223027096
 20
196405.2790801936
 10
453238.3684549205
 20
196402.6483403977
 10
453239.6838248185
 20
196400.3099050236
 10
453239.2453681859
 20
196396.3637953297
 10
453238.5146071314
 20
196393.440751112
 10
453239.099215975
 20
196390.2254024726
 10
453239.3915203967
 20
196387.7408148875
 10
453237.9299982879
 20
196384.6716184589
 10
453236.7607806008
 20
196381.6024220304
 10
453236.7607806008
 20
196375.6101813841
 10
453236.7607806008
 20
196374.8794203297
 10
453233.1069753287
 20
196374.0025070644
 10
453229.8916266892
 20
196374.7332681188
 10
453227.2608868933
 20
196375.1717247515
 10
453225.0686037301
 20
196374.7332681188
 10
453220.2455807709
 20
196375.4640291732
 10
453216.4456232879
 20
196375.4640291732
 10
453212.2072091723
 20
196375.756333595
 10
453208.5534039001
 20
196375.756333595
 10
453204.1688375736
 20
196376.1947902276
 10
453194.6689438662
 20
196376.4870946494
 10
453188.8228554308
 20
196376.7793990712
 10
453179.7248803032
 20
196376.8890132294
 10
453173.9701369996
 20
196376.6149778339
 10
453173.6047564724
 20
196375.3361459887
 10
453173.330721077
 20
196373.9659690117
 10
453173.1480308134
 20
196372.86982743
 10
453173.6047564724
 20
196372.2304115074
 10
453174.6095529223
 20
196371.4083053212
 10
453176.7104909537
 20
196371.2256150576
 10
453179.4508449078
 20
196371.5909955848
 10
453180.4556413576
 20
196372.1390663756
 10
453183.1959953117
 20
196371.956376112
 10
453186.3930749248
 20
196371.6823407166
 10
453189.2247740107
 20
196371.3169601894
 10
453191.6910925694
 20
196371.042924794
 10
453192.4218536238
 20
196371.042924794
 10
453194.9795173142
 20
196371.3169601894
 10
453198.1765969273
 20
196371.4083053212
 10
453203.7486499673
 20
196371.3169601894
 10
453206.9457295804
 20
196371.042924794
 10
453209.5947384027
 20
196370.4035088714
 10
453211.6043313023
 20
196370.129473476
 10
453214.2533401246
 20
196370.0381283442
 10
453216.1715878925
 20
196370.129473476
 10
453219.3686675056
 20
196370.129473476
 10
453222.6570922505
 20
196370.2208186078
 10
453225.4887913364
 20
196370.4948540032
 10
453228.9599063449
 20
196369.5814026851
 10
453231.700260299
 20
196368.1198805763
 10
453234.0752337258
 20
196367.5718097855
 10
453236.4502071527
 20
196367.7545000491
 10
453238.0030743934
 20
196366.5670133357
 10
453238.0030743934
 20
196364.4660753042
 10
453237.0896230753
 20
196362.1824470092
 10
453236.9982779435
 20
196359.4420930551
 10
453236.6328974163
 20
196356.4277037056
 10
453235.9934814937
 20
196354.1440754105
 10
453235.354065571
 20
196352.4085179063
 10
453235.0800301758
 20
196348.3893321069
 10
453235.902136362
 20
196346.3797392073
 10
453236.2675168893
 20
196343.3653498578
 10
453235.5367558348
 20
196341.2644118263
 10
453233.4358178034
 20
196338.2500224768
 10
453232.9790921443
 20
196335.6010136546
 10
453232.1569859581
 20
196333.5000756231
 10
453231.5175700355
 20
196332.2212437778
 10
453230.4214284538
 20
196327.7453323195
 10
453229.3252868722
 20
196324.9136332336
 10
453227.6810744997
 20
196321.8078987523
 10
453226.7676231817
 20
196319.5242704573
 10
453225.7628267318
 20
196317.0579518986
 10
453224.301304623
 20
196312.5820404403
 10
453217.9071453968
 20
196301.5292794922
 10
453215.8062073654
 20
196298.7889255381
 10
453214.8014109155
 20
196295.3178105296
 10
453213.157198543
 20
196290.5678636758
 10
453211.787021566
 20
196287.7361645899
 10
453209.4120481391
 20
196284.6304301086
 10
453207.5851455031
 20
196279.3324124641
 10
453206.3976587896
 20
196273.8517045559
 10
453205.9409331306
 20
196271.8421116563
 10
453206.5803490533
 20
196271.6594213927
 10
453210.2341543254
 20
196272.6642178425
 10
453217.7244551332
 20
196276.9574390372
 10
453219.4600126374
 20
196278.5103062779
 10
453222.0176763279
 20
196286.2746424811
 10
453226.1282072591
 20
196301.1638989649
 10
453230.5127735856
 20
196318.245438612
 10
453233.8925434623
 20
196330.6683765372
 10
453238.185764657
 20
196346.9278099981
 10
453241.474189402
 20
196358.8026771325
 10
453245.2193398059
 20
196372.7784822983
 10
453249.0558353416
 20
196388.2158095729
 10
453252.3442600865
 20
196400.7300926299
 10
453255.9980653586
 20
196412.3309243688
 10
453259.0124547081
 20
196425.0278976894
 10
453259.7432157625
 20
196428.2249773025
 10
453258.2816936537
 20
196428.4076675661
 10
453257.185552072
 20
196426.8548003255
 10
453255.9067202268
 20
196423.6577207124
 10
453253.8971273271
 20
196420.1866057039
 10
453251.3394636366
 20
196419.0904641222
 10
453248.3250742872
 20
196417.7202871452
 10
453247.6856583646
 20
196418.725083595
 10
453246.0414459921
 20
196419.4558446494
 10
453244.3058884878
 20
196419.8212251767
  0
LWPOLYLINE
  5
338
330
1F
100
AcDbEntity
  8
AS-ABST MAG POS LINEAR UNCERTAIN
100
AcDbPolyline
 90
        3
 70
     0
 43
0.0
 10
453233.9039616039
 20
196391.1242385695
 10
453206.7196503794
 20
196403.8394809164
 10
453202.9196928964
 20
196405.5933074471
  0
LWPOLYLINE
  5
339
330
1F
100
AcDbEntity
  8
AS-ABST MAG NEG LINEAR UNCERTAIN
100
AcDbPolyline
 90
        3
 70
     0
 43
0.0
 10
453183.0795302688
 20
196423.1133037268
 10
453196.5986097757
 20
196417.5412506868
 10
453214.2282202136
 20
196408.9548082974
  0
LWPOLYLINE
  5
33A
330
1F
100
AcDbEntity
  8
AS-ABST MAG NEG LINEAR UNCERTAIN
100
AcDbPolyline
 90
        2
 70
     0
 43
0.0
 10
453183.9016364551
 20
196425.1228966265
 10
453193.4928752944
 20
196420.8296754318
  0
LWPOLYLINE
  5
33B
330
1F
100
AcDbEntity
  8
AS-ABST MAG AGRICULTURAL
100
AcDbPolyline
 90
        2
 70
     0
 43
0.0
 10
453115.7581681304
 20
196335.1954412694
 10
453132.3829821185
 20
196360.0413171197
  0
LWPOLYLINE
  5
33D
330
1F
100
AcDbEntity
  8
AS-ABST MAG AGRICULTURAL
100
AcDbPolyline
 90
        2
 70
     0
 43
0.0
 10
453113.1091593081
 20
196336.5656182464
 10
453132.5656723821
 20
196366.8922020049
  0
LWPOLYLINE
  5
33E
330
1F
100
AcDbEntity
  8
AS-ABST MAG AGRICULTURAL
100
AcDbPolyline
 90
        3
 70
     0
 43
0.0
 10
453134.0089254646
 20
196326.7551510908
 10
453144.3857324374
 20
196371.3315754106
 10
453151.6933429816
 20
196400.4158653765
  0
LWPOLYLINE
  5
33F
330
1F
100
AcDbEntity
  8
AS-ABST MAG AGRICULTURAL
100
AcDbPolyline
 90
        2
 70
     0
 43
0.0
 10
453159.0009535258
 20
196401.7312352745
 10
453143.9472758047
 20
196339.9088500704
  0
LWPOLYLINE
  5
340
330
1F
100
AcDbEntity
  8
AS-ABST MAG AGRICULTURAL
100
AcDbPolyline
 90
        2
 70
     0
 43
0.0
 10
453130.5012724033
 20
196390.6236672473
 10
453112.8168548864
 20
196369.2854444581
  0
LWPOLYLINE
  5
341
330
1F
100
AcDbEntity
  8
AS-ABST MAG AGRICULTURAL
100
AcDbPolyline
 90
        2
 70
     0
 43
0.0
 10
453138.5396440021
 20
196384.6898874853
 10
453107.8476797164
 20
196341.4288330636
  0
LWPOLYLINE
  5
342
330
1F
100
AcDbEntity
  8
AS-ABST MAG AGRICULTURAL
100
AcDbPolyline
 90
        2
 70
     0
 43
0.0
 10
453131.9627945123
 20
196383.81297422
 10
453112.8168548865
 20
196358.528641737
  0
LWPOLYLINE
  5
343
330
1F
100
AcDbEntity
  8
AS-ABST MAG AGRICULTURAL
100
AcDbPolyline
 90
        2
 70
     0
 43
0.0
 10
453110.0691933218
 20
196330.6720303425
 10
453162.9762936619
 20
196303.9261757506
  0
LWPOLYLINE
  5
344
330
1F
100
AcDbEntity
  8
AS-ABST MAG AGRICULTURAL
100
AcDbPolyline
 90
        2
 70
     0
 43
0.0
 10
453101.5923650905
 20
196325.1182463289
 10
453167.5070121993
 20
196292.9647599343
  0
LWPOLYLINE
  5
345
330
1F
100
AcDbEntity
  8
AS-ABST MAG TRACK
370
   100
100
AcDbPolyline
 90
        3
 70
     0
 43
0.0
 10
453126.2102434916
 20
196401.2167794921
 10
453109.9873480835
 20
196374.1786204785
 10
453084.9953200223
 20
196333.10984922
  0
LWPOLYLINE
  5
347
330
1F
100
AcDbEntity
  8
AS-ABST MAG TRACK
370
   100
100
AcDbPolyline
 90
        2
 70
     0
 43
0.0
 10
453104.8720207025
 20
196389.2322981996
 10
453105.0181729134
 20
196373.594011635
  0
LWPOLYLINE
  5
348
330
1F
100
AcDbEntity
  8
AS-ABST MAG TRACK
370
   100
100
AcDbPolyline
 90
        2
 70
     0
 43
0.0
 10
453107.5027604984
 20
196392.1553424173
 10
453106.1873906005
 20
196376.2247514309
  0
LWPOLYLINE
  5
349
330
1F
100
AcDbEntity
  8
AS-ABST MAG TRACK
370
   100
100
AcDbPolyline
 90
        8
 70
     0
 43
0.0
 10
453093.3259960427
 20
196353.1327021112
 10
453092.0106261447
 20
196356.0557463289
 10
453092.4490827774
 20
196360.1480082336
 10
453093.6183004644
 20
196364.0941179275
 10
453094.7875181515
 20
196366.5787055126
 10
453096.8336491039
 20
196368.0402276214
 10
453099.172084478
 20
196368.3325320432
 10
453101.6201340105
 20
196368.113303727
  0
HATCH
  5
34A
330
1F
100
AcDbEntity
  8
AS-ABST MAG POS LINEAR UNCERTAIN
100
AcDbHatch
 10
0.0
 20
0.0
 30
0.0
210
0.0
220
0.0
230
1.0
  2
SOLID
 70
     1
 71
     0
 91
        5
 92
        1
 93
       34
 72
     1
 10
453226.9772802395
 20
196421.3916834908
 11
453222.9266945511
 21
196421.6414553356
 72
     1
 10
453222.9266945511
 20
196421.6414553356
 11
453222.1416973247
 21
196421.8912271804
 72
     1
 10
453222.1416973247
 20
196421.8912271804
 11
453221.1426099456
 21
196421.9982722567
 72
     1
 10
453221.1426099456
 20
196421.9982722567
 11
453219.8223873376
 21
196422.3194074857
 72
     1
 10
453219.8223873376
 20
196422.3194074857
 11
453219.2871619559
 21
196422.4264525621
 72
     1
 10
453219.2871619559
 20
196422.4264525621
 11
453218.7876182664
 21
196422.8189511753
 72
     1
 10
453218.7876182664
 20
196422.8189511753
 11
453218.3237562689
 21
196423.06872302
 72
     1
 10
453218.3237562689
 20
196423.06872302
 11
453217.717167503
 21
196423.3184948648
 72
     1
 10
453217.717167503
 20
196423.3184948648
 11
453217.1462604292
 21
196423.710993478
 72
     1
 10
453217.1462604292
 20
196423.710993478
 11
453216.3969448949
 21
196423.8894019386
 72
     1
 10
453216.3969448949
 20
196423.8894019386
 11
453215.1837673632
 21
196423.9250836307
 72
     1
 10
453215.1837673632
 20
196423.9250836307
 11
453215.1124039789
 21
196424.1034920912
 72
     1
 10
453215.1124039789
 20
196424.1034920912
 11
453215.1124039789
 21
196424.4603090124
 72
     1
 10
453215.1124039789
 20
196424.4603090124
 11
453215.2194490553
 21
196424.4959907045
 72
     1
 10
453215.2194490553
 20
196424.4959907045
 11
453215.7189927449
 21
196424.353263936
 72
     1
 10
453215.7189927449
 20
196424.353263936
 11
453216.1114913581
 21
196424.2462188597
 72
     1
 10
453216.1114913581
 20
196424.2462188597
 11
453216.6823984318
 21
196424.2462188597
 72
     1
 10
453216.6823984318
 20
196424.2462188597
 11
453216.8608068924
 21
196424.4603090124
 72
     1
 10
453216.8608068924
 20
196424.4603090124
 11
453217.1105787372
 21
196424.6387174729
 72
     1
 10
453217.1105787372
 20
196424.6387174729
 11
453217.6458041188
 21
196424.6030357808
 72
     1
 10
453217.6458041188
 20
196424.6030357808
 11
453218.1096661162
 21
196424.3889456281
 72
     1
 10
453218.1096661162
 20
196424.3889456281
 11
453218.3237562689
 21
196423.9964470149
 72
     1
 10
453218.3237562689
 20
196423.9964470149
 11
453219.001708419
 21
196423.389858249
 72
     1
 10
453219.001708419
 20
196423.389858249
 11
453219.7153422612
 21
196423.2114497885
 72
     1
 10
453219.7153422612
 20
196423.2114497885
 11
453220.6787479482
 21
196423.06872302
 72
     1
 10
453220.6787479482
 20
196423.06872302
 11
453221.6778353273
 21
196423.0330413279
 72
     1
 10
453221.6778353273
 20
196423.0330413279
 11
453222.7839677827
 21
196422.7832694832
 72
     1
 10
453222.7839677827
 20
196422.7832694832
 11
453223.2835114722
 21
196422.6762244069
 72
     1
 10
453223.2835114722
 20
196422.6762244069
 11
453224.5323706961
 21
196422.4978159463
 72
     1
 10
453224.5323706961
 20
196422.4978159463
 11
453226.0666834569
 21
196422.2837257936
 72
     1
 10
453226.0666834569
 20
196422.2837257936
 11
453226.6732722227
 21
196422.1053173331
 72
     1
 10
453226.6732722227
 20
196422.1053173331
 11
453226.8516806833
 21
196421.9625905646
 72
     1
 10
453226.8516806833
 20
196421.9625905646
 11
453226.9944074517
 21
196421.8198637962
 72
     1
 10
453226.9944074517
 20
196421.8198637962
 11
453226.9772802395
 21
196421.3916834908
 97
        0
 92
        1
 93
       51
 72
     1
 10
453196.2210889081
 20
196406.3268730818
 11
453196.3994973687
 21
196406.0057378528
 72
     1
 10
453196.3994973687
 20
196406.0057378528
 11
453196.3994973687
 21
196405.7202843159
 72
     1
 10
453196.3994973687
 20
196405.7202843159
 11
453196.2210889081
 21
196405.434830779
 72
     1
 10
453196.2210889081
 20
196405.434830779
 11
453195.3647282975
 21
196404.9352870895
 72
     1
 10
453195.3647282975
 20
196404.9352870895
 11
453194.3656409184
 21
196404.3286983236
 72
     1
 10
453194.3656409184
 20
196404.3286983236
 11
453194.0088239973
 21
196403.9361997104
 72
     1
 10
453194.0088239973
 20
196403.9361997104
 11
453193.9374606131
 21
196403.6864278656
 72
     1
 10
453193.9374606131
 20
196403.6864278656
 11
453194.2942775342
 21
196403.3296109445
 72
     1
 10
453194.2942775342
 20
196403.3296109445
 11
453195.1149564527
 21
196403.0084757155
 72
     1
 10
453195.1149564527
 20
196403.0084757155
 11
453195.7929086028
 21
196402.6159771023
 72
     1
 10
453195.7929086028
 20
196402.6159771023
 11
453196.3281339845
 21
196402.3662052575
 72
     1
 10
453196.3281339845
 20
196402.3662052575
 11
453196.3994973687
 21
196402.1164334128
 72
     1
 10
453196.3994973687
 20
196402.1164334128
 11
453196.4351790608
 21
196401.8309798759
 72
     1
 10
453196.4351790608
 20
196401.8309798759
 11
453196.185407216
 21
196401.6882531074
 72
     1
 10
453196.185407216
 20
196401.6882531074
 11
453195.6501818344
 21
196401.7952981838
 72
     1
 10
453195.6501818344
 20
196401.7952981838
 11
453195.0079113764
 21
196402.0807517207
 72
     1
 10
453195.0079113764
 20
196402.0807517207
 11
453194.4370043026
 21
196402.3662052575
 72
     1
 10
453194.4370043026
 20
196402.3662052575
 11
453193.7590521525
 21
196402.6873404865
 72
     1
 10
453193.7590521525
 20
196402.6873404865
 11
453193.4379169235
 21
196402.6516587944
 72
     1
 10
453193.4379169235
 20
196402.6516587944
 11
453193.4022352314
 21
196402.2234784891
 72
     1
 10
453193.4022352314
 20
196402.2234784891
 11
453193.7947338446
 21
196401.5098446469
 72
     1
 10
453193.7947338446
 20
196401.5098446469
 11
453193.7947338446
 21
196400.6891657284
 72
     1
 10
453193.7947338446
 20
196400.6891657284
 11
453194.2942775342
 21
196399.618714965
 72
     1
 10
453194.2942775342
 20
196399.618714965
 11
453194.22291415
 21
196399.1548529676
 72
     1
 10
453194.22291415
 20
196399.1548529676
 11
453194.22291415
 21
196398.6196275859
 72
     1
 10
453194.22291415
 20
196398.6196275859
 11
453194.4013226105
 21
196397.9773571279
 72
     1
 10
453194.4013226105
 20
196397.9773571279
 11
453194.2942775342
 21
196397.8703120516
 72
     1
 10
453194.2942775342
 20
196397.8703120516
 11
453193.7233704604
 21
196398.2984923569
 72
     1
 10
453193.7233704604
 20
196398.2984923569
 11
453193.6163253841
 21
196398.976444507
 72
     1
 10
453193.6163253841
 20
196398.976444507
 11
453193.4735986156
 21
196399.2262163518
 72
     1
 10
453193.4735986156
 20
196399.2262163518
 11
453193.1881450788
 21
196399.4759881966
 72
     1
 10
453193.1881450788
 20
196399.4759881966
 11
453193.1167816945
 21
196400.0468952704
 72
     1
 10
453193.1167816945
 20
196400.0468952704
 11
453193.1167816945
 21
196400.4037121915
 72
     1
 10
453193.1167816945
 20
196400.4037121915
 11
453193.0811000025
 21
196400.9389375731
 72
     1
 10
453193.0811000025
 20
196400.9389375731
 11
453192.8313281576
 21
196401.6525714153
 72
     1
 10
453192.8313281576
 20
196401.6525714153
 11
453192.6529196971
 21
196402.2591601812
 72
     1
 10
453192.6529196971
 20
196402.2591601812
 11
453192.5458746208
 21
196402.7587038707
 72
     1
 10
453192.5458746208
 20
196402.7587038707
 11
453192.5101929287
 21
196403.5080194051
 72
     1
 10
453192.5101929287
 20
196403.5080194051
 11
453192.5458746208
 21
196403.9005180183
 72
     1
 10
453192.5458746208
 20
196403.9005180183
 11
453193.1167816945
 21
196404.2216532473
 72
     1
 10
453193.1167816945
 20
196404.2216532473
 11
453193.4379169235
 21
196404.4000617078
 72
     1
 10
453193.4379169235
 20
196404.4000617078
 11
453193.6876887683
 21
196404.7925603211
 72
     1
 10
453193.6876887683
 20
196404.7925603211
 11
453193.8660972288
 21
196405.0423321658
 72
     1
 10
453193.8660972288
 20
196405.0423321658
 11
453194.1515507657
 21
196405.2921040106
 72
     1
 10
453194.1515507657
 20
196405.2921040106
 11
453194.6867761474
 21
196405.3991490869
 72
     1
 10
453194.6867761474
 20
196405.3991490869
 11
453194.9365479922
 21
196405.3277857027
 72
     1
 10
453194.9365479922
 20
196405.3277857027
 11
453195.2576832211
 21
196405.8630110844
 72
     1
 10
453195.2576832211
 20
196405.8630110844
 11
453195.4360916817
 21
196406.0414195449
 72
     1
 10
453195.4360916817
 20
196406.0414195449
 11
453195.7572269107
 21
196406.1484646212
 72
     1
 10
453195.7572269107
 20
196406.1484646212
 11
453196.0426804476
 21
196406.2198280055
 72
     1
 10
453196.0426804476
 20
196406.2198280055
 11
453196.2210889081
 21
196406.3268730818
 97
        0
 92
        1
 93
       28
 72
     1
 10
453209.2234975131
 20
196411.0040292837
 11
453204.5648957911
 21
196413.0136221833
 72
     1
 10
453204.5648957911
 20
196413.0136221833
 11
453200.2716745964
 21
196415.3885956102
 72
     1
 10
453200.2716745964
 20
196415.3885956102
 11
453194.6996215564
 21
196417.9462593007
 72
     1
 10
453194.6996215564
 20
196417.9462593007
 11
453189.0362233847
 21
196420.3212327275
 72
     1
 10
453189.0362233847
 20
196420.3212327275
 11
453186.6612499578
 21
196420.9606486502
 72
     1
 10
453186.6612499578
 20
196420.9606486502
 11
453183.9208960037
 21
196421.6914097046
 72
     1
 10
453183.9208960037
 20
196421.6914097046
 11
453182.6420641585
 21
196422.2394804954
 72
     1
 10
453182.6420641585
 20
196422.2394804954
 11
453182.2766836313
 21
196421.7827548364
 72
     1
 10
453182.2766836313
 20
196421.7827548364
 11
453183.4641703447
 21
196420.6866132548
 72
     1
 10
453183.4641703447
 20
196420.6866132548
 11
453184.6516570582
 21
196419.7731619367
 72
     1
 10
453184.6516570582
 20
196419.7731619367
 11
453186.0218340352
 21
196419.4991265413
 72
     1
 10
453186.0218340352
 20
196419.4991265413
 11
453187.483356144
 21
196419.4991265413
 72
     1
 10
453187.483356144
 20
196419.4991265413
 11
453189.4016039119
 21
196418.8597106187
 72
     1
 10
453189.4016039119
 20
196418.8597106187
 11
453191.9592676024
 21
196418.0376044325
 72
     1
 10
453191.9592676024
 20
196418.0376044325
 11
453193.4207897112
 21
196417.306843378
 72
     1
 10
453193.4207897112
 20
196417.306843378
 11
453196.0697985335
 21
196415.936666401
 72
     1
 10
453196.0697985335
 20
196415.936666401
 11
453197.7140109059
 21
196415.3885956102
 72
     1
 10
453197.7140109059
 20
196415.3885956102
 11
453199.2668781466
 21
196414.6578345558
 72
     1
 10
453199.2668781466
 20
196414.6578345558
 11
453200.5457099918
 21
196413.9270735014
 72
     1
 10
453200.5457099918
 20
196413.9270735014
 11
453201.9158869688
 21
196413.0136221833
 72
     1
 10
453201.9158869688
 20
196413.0136221833
 11
453203.0120285505
 21
196412.5568965243
 72
     1
 10
453203.0120285505
 20
196412.5568965243
 11
453203.7427896049
 21
196411.8261354699
 72
     1
 10
453203.7427896049
 20
196411.8261354699
 11
453204.7475860547
 21
196411.1867195473
 72
     1
 10
453204.7475860547
 20
196411.1867195473
 11
453205.8437276364
 21
196410.8213390201
 72
     1
 10
453205.8437276364
 20
196410.8213390201
 11
453207.2139046134
 21
196410.6386487564
 72
     1
 10
453207.2139046134
 20
196410.6386487564
 11
453208.4013913269
 21
196410.2732682293
 72
     1
 10
453208.4013913269
 20
196410.2732682293
 11
453209.6802231721
 21
196410.4559584928
 72
     1
 10
453209.6802231721
 20
196410.4559584928
 11
453209.2234975131
 21
196411.0040292837
 97
        0
 92
        1
 93
        7
 72
     1
 10
453128.0276662135
 20
196346.3744939975
 11
453132.3208874082
 21
196343.6341400434
 72
     1
 10
453132.3208874082
 20
196343.6341400434
 11
453132.7776130672
 21
196343.2687595162
 72
     1
 10
453132.7776130672
 20
196343.2687595162
 11
453132.9603033309
 21
196344.273555966
 72
     1
 10
453132.9603033309
 20
196344.273555966
 11
453131.498781222
 21
196345.0956621523
 72
     1
 10
453131.498781222
 20
196345.0956621523
 11
453128.3930467407
 21
196347.1966001837
 72
     1
 10
453128.3930467407
 20
196347.1966001837
 11
453128.0276662135
 21
196347.1966001837
 72
     1
 10
453128.0276662135
 20
196347.1966001837
 11
453128.0276662135
 21
196346.3744939975
 97
        0
 92
        1
 93
       15
 72
     1
 10
453110.5807460392
 20
196358.7060867908
 11
453113.1384097297
 21
196357.3359098138
 72
     1
 10
453113.1384097297
 20
196357.3359098138
 11
453118.1623919788
 21
196354.4128655961
 72
     1
 10
453118.1623919788
 20
196354.4128655961
 11
453126.0180733139
 21
196348.7494674244
 72
     1
 10
453126.0180733139
 20
196348.7494674244
 11
453126.2007635775
 21
196348.2927417653
 72
     1
 10
453126.2007635775
 20
196348.2927417653
 11
453126.1094184457
 21
196348.0187063699
 72
     1
 10
453126.1094184457
 20
196348.0187063699
 11
453125.470002523
 21
196348.0187063699
 72
     1
 10
453125.470002523
 20
196348.0187063699
 11
453124.0084804142
 21
196349.388883347
 72
     1
 10
453124.0084804142
 20
196349.388883347
 11
453122.4556131735
 21
196350.3936797968
 72
     1
 10
453122.4556131735
 20
196350.3936797968
 11
453119.7152592195
 21
196352.129237301
 72
     1
 10
453119.7152592195
 20
196352.129237301
 11
453115.787418552
 21
196354.5955558597
 72
     1
 10
453115.787418552
 20
196354.5955558597
 11
453109.3932593258
 21
196358.0666708682
 72
     1
 10
453109.3932593258
 20
196358.0666708682
 11
453109.2105690622
 21
196358.6147416591
 72
     1
 10
453109.2105690622
 20
196358.6147416591
 11
453109.2105690622
 21
196358.7974319226
 72
     1
 10
453109.2105690622
 20
196358.7974319226
 11
453109.3932593258
 21
196358.8887770545
 72
     1
 10
453109.3932593258
 20
196358.8887770545
 11
453110.5807460392
 21
196358.7060867908
 97
        0
 75
     1
 76
     1
 98
        1
 10
0.0
 20
0.0
1001
ACAD
1010
0.0
1020
0.0
1030
0.0
1001
HATCHBACKGROUNDCOLOR
1071
-939524096
1000
None
1000

  0
HATCH
  5
34C
330
1F
100
AcDbEntity
  8
AS-ABST MAG POS UNCERTAIN
100
AcDbHatch
 10
0.0
 20
0.0
 30
0.0
210
0.0
220
0.0
230
1.0
  2
ANSI37
 70
     0
 71
     0
 91
        5
 92
        1
 93
       16
 72
     1
 10
453148.2195075991
 20
196404.4928341073
 11
453146.849330622
 21
196404.7668695027
 72
     1
 10
453146.849330622
 20
196404.7668695027
 11
453145.1137731178
 21
196403.6707279211
 72
     1
 10
453145.1137731178
 20
196403.6707279211
 11
453142.9214899545
 21
196401.387099626
 72
     1
 10
453142.9214899545
 20
196401.387099626
 11
453142.7387996909
 21
196400.3823031762
 72
     1
 10
453142.7387996909
 20
196400.3823031762
 11
453140.7292067912
 21
196400.3823031762
 72
     1
 10
453140.7292067912
 20
196400.3823031762
 11
453140.0897908686
 21
196401.1130642306
 72
     1
 10
453140.0897908686
 20
196401.1130642306
 11
453140.5465165276
 21
196401.7524801532
 72
     1
 10
453140.5465165276
 20
196401.7524801532
 11
453141.0032421866
 21
196402.300550944
 72
     1
 10
453141.0032421866
 20
196402.300550944
 11
453141.7340032411
 21
196403.3053473939
 72
     1
 10
453141.7340032411
 20
196403.3053473939
 11
453144.6570474587
 21
196405.3149402935
 72
     1
 10
453144.6570474587
 20
196405.3149402935
 11
453146.0272244358
 21
196406.2283916116
 72
     1
 10
453146.0272244358
 20
196406.2283916116
 11
453146.7579854902
 21
196406.7764624024
 72
     1
 10
453146.7579854902
 20
196406.7764624024
 11
453148.0368173355
 21
196407.2331880614
 72
     1
 10
453148.0368173355
 20
196407.2331880614
 11
453148.5848881263
 21
196406.2283916116
 72
     1
 10
453148.5848881263
 20
196406.2283916116
 11
453148.676233258
 21
196405.1322500299
 72
     1
 10
453148.676233258
 20
196405.1322500299
 11
453148.2195075991
 21
196404.4928341073
 97
        0
 92
        1
 93
        9
 72
     1
 10
453151.3252420803
 20
196408.9687455656
 11
453151.3252420803
 21
196407.3245331932
 72
     1
 10
453151.3252420803
 20
196407.3245331932
 11
453150.2291004987
 21
196406.6851172706
 72
     1
 10
453150.2291004987
 20
196406.6851172706
 11
453149.3156491807
 21
196406.502427007
 72
     1
 10
453149.3156491807
 20
196406.502427007
 11
453148.9502686535
 21
196407.415878325
 72
     1
 10
453148.9502686535
 20
196407.415878325
 11
453149.6810297079
 21
196409.0600906974
 72
     1
 10
453149.6810297079
 20
196409.0600906974
 11
453149.8637199715
 21
196409.7908517518
 72
     1
 10
453149.8637199715
 20
196409.7908517518
 11
453150.6858261577
 21
196409.4254712247
 72
     1
 10
453150.6858261577
 20
196409.4254712247
 11
453150.9598615532
 21
196409.2427809611
 72
     1
 10
453150.9598615532
 20
196409.2427809611
 11
453151.3252420803
 21
196408.9687455656
 97
        0
 92
        1
 93
        8
 72
     1
 10
453142.9214899545
 20
196397.0938784313
 11
453141.4599678456
 21
196395.4496660588
 72
     1
 10
453141.4599678456
 20
196395.4496660588
 11
453140.9118970548
 21
196395.358320927
 72
     1
 10
453140.9118970548
 20
196395.358320927
 11
453139.907100605
 21
196395.6323563224
 72
     1
 10
453139.907100605
 20
196395.6323563224
 11
453139.8157554732
 21
196396.3631173768
 72
     1
 10
453139.8157554732
 20
196396.3631173768
 11
453140.2724811322
 21
196397.2765686949
 72
     1
 10
453140.2724811322
 20
196397.2765686949
 11
453142.0080386365
 21
196397.7332943539
 72
     1
 10
453142.0080386365
 20
196397.7332943539
 11
453142.4647642955
 21
196397.7332943539
 72
     1
 10
453142.4647642955
 20
196397.7332943539
 11
453142.9214899545
 21
196397.0938784313
 97
        0
 92
        1
 93
       27
 72
     1
 10
453129.0758516013
 20
196398.1306456771
 11
453130.8456635299
 21
196397.2742850664
 72
     1
 10
453130.8456635299
 20
196397.2742850664
 11
453132.3871126291
 21
196396.4750151631
 72
     1
 10
453132.3871126291
 20
196396.4750151631
 11
453133.4147453619
 21
196395.9041080894
 72
     1
 10
453133.4147453619
 20
196395.9041080894
 11
453134.4994688021
 21
196394.9906567713
 72
     1
 10
453134.4994688021
 20
196394.9906567713
 11
453134.6136502168
 21
196393.9630240386
 72
     1
 10
453134.6136502168
 20
196393.9630240386
 11
453134.784922339
 21
196393.27793555
 72
     1
 10
453134.784922339
 20
196393.27793555
 11
453135.241647998
 21
196392.821209891
 72
     1
 10
453135.241647998
 20
196392.821209891
 11
453135.4700108275
 21
196392.8783005984
 72
     1
 10
453135.4700108275
 20
196392.8783005984
 11
453136.2692807307
 21
196394.3626589902
 72
     1
 10
453136.2692807307
 20
196394.3626589902
 11
453137.2398227561
 21
196395.1619288935
 72
     1
 10
453137.2398227561
 20
196395.1619288935
 11
453137.9820019521
 21
196394.6481125271
 72
     1
 10
453137.9820019521
 20
196394.6481125271
 11
453138.0961833668
 21
196393.7917519164
 72
     1
 10
453138.0961833668
 20
196393.7917519164
 11
453137.2398227561
 21
196392.7070284763
 72
     1
 10
453137.2398227561
 20
196392.7070284763
 11
453136.3263714381
 21
196392.1361214025
 72
     1
 10
453136.3263714381
 20
196392.1361214025
 11
453135.3558294127
 21
196391.907758573
 72
     1
 10
453135.3558294127
 20
196391.907758573
 11
453134.2711059726
 21
196392.1932121099
 72
     1
 10
453134.2711059726
 20
196392.1932121099
 11
453133.7572896061
 21
196392.8783005984
 72
     1
 10
453133.7572896061
 20
196392.8783005984
 11
453133.6431081914
 21
196394.1342961607
 72
     1
 10
453133.6431081914
 20
196394.1342961607
 11
453133.129291825
 21
196395.2190196008
 72
     1
 10
453133.129291825
 20
196395.2190196008
 11
453131.6449334332
 21
196395.6186545525
 72
     1
 10
453131.6449334332
 20
196395.6186545525
 11
453130.8456635299
 21
196395.9041080894
 72
     1
 10
453130.8456635299
 20
196395.9041080894
 11
453129.8180307972
 21
196396.7033779927
 72
     1
 10
453129.8180307972
 20
196396.7033779927
 11
453128.8474887718
 21
196397.217194359
 72
     1
 10
453128.8474887718
 20
196397.217194359
 11
453128.4478538201
 21
196397.5026478959
 72
     1
 10
453128.4478538201
 20
196397.5026478959
 11
453128.4478538201
 21
196397.7881014328
 72
     1
 10
453128.4478538201
 20
196397.7881014328
 11
453128.4478538201
 21
196398.0164642623
 72
     1
 10
453128.4478538201
 20
196398.0164642623
 11
453129.0758516013
 21
196398.1306456771
 97
        0
 92
        1
 93
       18
 72
     1
 10
453126.5296060522
 20
196382.0356334534
 11
453125.1594290751
 21
196382.3096688488
 72
     1
 10
453125.1594290751
 20
196382.3096688488
 11
453123.0584910437
 21
196382.675049376
 72
     1
 10
453123.0584910437
 20
196382.675049376
 11
453121.7796591984
 21
196383.588500694
 72
     1
 10
453121.7796591984
 20
196383.588500694
 11
453121.4142786712
 21
196384.3192617484
 72
     1
 10
453121.4142786712
 20
196384.3192617484
 11
453121.505623803
 21
196384.958677671
 72
     1
 10
453121.505623803
 20
196384.958677671
 11
453121.6883140666
 21
196386.1461643845
 72
     1
 10
453121.6883140666
 20
196386.1461643845
 11
453121.962349462
 21
196386.7855803071
 72
     1
 10
453121.962349462
 20
196386.7855803071
 11
453122.7844556483
 21
196387.0596157025
 72
     1
 10
453122.7844556483
 20
196387.0596157025
 11
453123.7892520981
 21
196387.1509608343
 72
     1
 10
453123.7892520981
 20
196387.1509608343
 11
453123.8805972299
 21
196386.8769254389
 72
     1
 10
453123.8805972299
 20
196386.8769254389
 11
453123.4238715708
 21
196386.2375095163
 72
     1
 10
453123.4238715708
 20
196386.2375095163
 11
453123.2411813072
 21
196385.2327130665
 72
     1
 10
453123.2411813072
 20
196385.2327130665
 11
453124.4286680207
 21
196383.7711909576
 72
     1
 10
453124.4286680207
 20
196383.7711909576
 11
453125.3421193387
 21
196383.3144652986
 72
     1
 10
453125.3421193387
 20
196383.3144652986
 11
453127.3517122384
 21
196383.0404299032
 72
     1
 10
453127.3517122384
 20
196383.0404299032
 11
453127.4430573702
 21
196382.8577396396
 72
     1
 10
453127.4430573702
 20
196382.8577396396
 11
453127.3517122384
 21
196382.3096688488
 72
     1
 10
453127.3517122384
 20
196382.3096688488
 11
453126.5296060522
 21
196382.0356334534
 97
        0
 75
     1
 76
     1
 52
0.0
 41
5.0
 77
     0
 78
     2
 53
45.0
 43
0.0
 44
0.0
 45
-0.4419417382415923
 46
0.4419417382415923
 79
     0
 53
135.0
 43
0.0
 44
0.0
 45
-0.4419417382415922
 46
-0.4419417382415922
 79
     0
 98
        1
 10
0.0
 20
0.0
1001
ACAD
1010
0.0
1020
0.0
1030
0.0
1001
HATCHBACKGROUNDCOLOR
1071
-939524096
1000
None
1000

  0
LWPOLYLINE
  5
34D
330
1F
100
AcDbEntity
  8
AS-ABST MAG POS UNCERTAIN
 62
     7
420
 16711679
430
UNNAMED$254,255,255
100
AcDbPolyline
 90
        8
 70
     1
 43
0.0
 10
453132.9561883595
 20
196378.1752907545
 10
453131.6471045782
 20
196379.0223449659
 10
453131.2620799366
 20
196379.8693991774
 10
453131.2620799366
 20
196380.5624435323
 10
453131.7241095065
 20
196380.7934583172
 10
453132.6481686463
 20
196380.4084336756
 10
453133.2642080727
 20
196379.4073696075
 10
453133.1101982161
 20
196378.6373203244
  0
LWPOLYLINE
  5
34E
330
1F
100
AcDbEntity
  8
AS-ABST MAG POS UNCERTAIN
 62
     7
420
 16711679
430
UNNAMED$254,255,255
100
AcDbPolyline
 90
        9
 70
     1
 43
0.0
 10
453132.4941587896
 20
196390.1110546434
 10
453129.3369567287
 20
196386.7228377975
 10
453129.7219813702
 20
196386.0297934426
 10
453130.7230454384
 20
196386.106798371
 10
453131.7241095065
 20
196386.7228377975
 10
453132.7251735746
 20
196387.7239018656
 10
453133.1101982161
 20
196388.8789757903
 10
453133.2642080727
 20
196389.7260300018
 10
453133.1101982161
 20
196390.6500891416
  0
LWPOLYLINE
  5
34F
330
1F
100
AcDbEntity
  8
AS-ABST MAG POS UNCERTAIN
 62
     7
420
 16711679
430
UNNAMED$254,255,255
100
AcDbPolyline
 90
        9
 70
     1
 43
0.0
 10
453129.4139616569
 20
196369.5815407545
 10
453128.3358926605
 20
196370.5826048226
 10
453128.1048778755
 20
196371.4296590341
 10
453128.2588877322
 20
196372.2767132455
 10
453128.951932087
 20
196372.4307231022
 10
453129.7989862985
 20
196371.660673819
 10
453130.3380207967
 20
196370.8136196075
 10
453130.415025725
 20
196370.0435703244
 10
453130.1840109401
 20
196369.6585456828
  0
LWPOLYLINE
  5
350
330
1F
100
AcDbEntity
  8
AS-ABST MAG POS UNCERTAIN
 62
     7
420
 16711679
430
UNNAMED$254,255,255
100
AcDbPolyline
 90
        8
 70
     1
 43
0.0
 10
453129.182946872
 20
196375.818939948
 10
453127.719853234
 20
196372.4307231022
 10
453127.0268088792
 20
196372.7387428154
 10
453126.7187891659
 20
196373.5087920986
 10
453127.0268088792
 20
196374.7408709516
 10
453127.6428483057
 20
196375.7419350197
 10
453128.0278729473
 20
196375.9729498047
 10
453128.4899025171
 20
196376.049954733
  0
HATCH
  5
351
330
1F
100
AcDbEntity
  8
AS-ABST MAG POS UNCERTAIN
100
AcDbHatch
 10
0.0
 20
0.0
 30
0.0
210
0.0
220
0.0
230
1.0
  2
ANSI37
 70
     0
 71
     0
 91
        3
 92
        1
 93
        8
 72
     1
 10
453129.182946872
 20
196375.818939948
 11
453127.719853234
 21
196372.4307231022
 72
     1
 10
453127.719853234
 20
196372.4307231022
 11
453127.0268088792
 21
196372.7387428154
 72
     1
 10
453127.0268088792
 20
196372.7387428154
 11
453126.7187891659
 21
196373.5087920986
 72
     1
 10
453126.7187891659
 20
196373.5087920986
 11
453127.0268088792
 21
196374.7408709516
 72
     1
 10
453127.0268088792
 20
196374.7408709516
 11
453127.6428483057
 21
196375.7419350197
 72
     1
 10
453127.6428483057
 20
196375.7419350197
 11
453128.0278729473
 21
196375.9729498047
 72
     1
 10
453128.0278729473
 20
196375.9729498047
 11
453128.4899025171
 21
196376.049954733
 72
     1
 10
453128.4899025171
 20
196376.049954733
 11
453129.182946872
 21
196375.818939948
 97
        0
 92
        1
 93
        8
 72
     1
 10
453132.9561883595
 20
196378.1752907545
 11
453131.6471045782
 21
196379.0223449659
 72
     1
 10
453131.6471045782
 20
196379.0223449659
 11
453131.2620799366
 21
196379.8693991774
 72
     1
 10
453131.2620799366
 20
196379.8693991774
 11
453131.2620799366
 21
196380.5624435323
 72
     1
 10
453131.2620799366
 20
196380.5624435323
 11
453131.7241095065
 21
196380.7934583172
 72
     1
 10
453131.7241095065
 20
196380.7934583172
 11
453132.6481686463
 21
196380.4084336756
 72
     1
 10
453132.6481686463
 20
196380.4084336756
 11
453133.2642080727
 21
196379.4073696075
 72
     1
 10
453133.2642080727
 20
196379.4073696075
 11
453133.1101982161
 21
196378.6373203244
 72
     1
 10
453133.1101982161
 20
196378.6373203244
 11
453132.9561883595
 21
196378.1752907545
 97
        0
 92
        1
 93
        9
 72
     1
 10
453129.4139616569
 20
196369.5815407545
 11
453128.3358926605
 21
196370.5826048226
 72
     1
 10
453128.3358926605
 20
196370.5826048226
 11
453128.1048778755
 21
196371.4296590341
 72
     1
 10
453128.1048778755
 20
196371.4296590341
 11
453128.2588877322
 21
196372.2767132455
 72
     1
 10
453128.2588877322
 20
196372.2767132455
 11
453128.951932087
 21
196372.4307231022
 72
     1
 10
453128.951932087
 20
196372.4307231022
 11
453129.7989862985
 21
196371.660673819
 72
     1
 10
453129.7989862985
 20
196371.660673819
 11
453130.3380207967
 21
196370.8136196075
 72
     1
 10
453130.3380207967
 20
196370.8136196075
 11
453130.415025725
 21
196370.0435703244
 72
     1
 10
453130.415025725
 20
196370.0435703244
 11
453130.1840109401
 21
196369.6585456828
 72
     1
 10
453130.1840109401
 20
196369.6585456828
 11
453129.4139616569
 21
196369.5815407545
 97
        0
 75
     1
 76
     1
 52
0.0
 41
5.0
 77
     0
 78
     2
 53
45.0
 43
0.0
 44
0.0
 45
-0.4419417382415922
 46
0.4419417382415922
 79
     0
 53
135.0
 43
0.0
 44
0.0
 45
-0.4419417382415922
 46
-0.4419417382415922
 79
     0
 98
        1
 10
0.0
 20
0.0
1001
ACAD
1010
0.0
1020
0.0
1030
0.0
1001
HATCHBACKGROUNDCOLOR
1071
-939524096
1000
None
1000

  0
HATCH
  5
352
330
1F
100
AcDbEntity
  8
AS-ABST MAG POS UNCERTAIN
100
AcDbHatch
 10
0.0
 20
0.0
 30
0.0
210
0.0
220
0.0
230
1.0
  2
ANSI37
 70
     0
 71
     0
 91
        1
 92
        1
 93
        9
 72
     1
 10
453132.4941587896
 20
196390.1110546434
 11
453129.3369567287
 21
196386.7228377975
 72
     1
 10
453129.3369567287
 20
196386.7228377975
 11
453129.7219813702
 21
196386.0297934426
 72
     1
 10
453129.7219813702
 20
196386.0297934426
 11
453130.7230454384
 21
196386.106798371
 72
     1
 10
453130.7230454384
 20
196386.106798371
 11
453131.7241095065
 21
196386.7228377975
 72
     1
 10
453131.7241095065
 20
196386.7228377975
 11
453132.7251735746
 21
196387.7239018656
 72
     1
 10
453132.7251735746
 20
196387.7239018656
 11
453133.1101982161
 21
196388.8789757903
 72
     1
 10
453133.1101982161
 20
196388.8789757903
 11
453133.2642080727
 21
196389.7260300018
 72
     1
 10
453133.2642080727
 20
196389.7260300018
 11
453133.1101982161
 21
196390.6500891416
 72
     1
 10
453133.1101982161
 20
196390.6500891416
 11
453132.4941587896
 21
196390.1110546434
 97
        0
 75
     1
 76
     1
 52
0.0
 41
5.0
 77
     0
 78
     2
 53
45.0
 43
0.0
 44
0.0
 45
-0.4419417382415922
 46
0.4419417382415922
 79
     0
 53
135.0
 43
0.0
 44
0.0
 45
-0.4419417382415922
 46
-0.4419417382415922
 79
     0
 98
        1
 10
0.0
 20
0.0
1001
ACAD
1010
0.0
1020
0.0
1030
0.0
1001
HATCHBACKGROUNDCOLOR
1071
-939524096
1000
None
1000

  0
HATCH
  5
353
330
1F
100
AcDbEntity
  8
AS-ABST MAG POS DISCRETE UNCERTAIN
100
AcDbHatch
 10
0.0
 20
0.0
 30
0.0
210
0.0
220
0.0
230
1.0
  2
SOLID
 70
     1
 71
     0
 91
        2
 92
        1
 93
       11
 72
     1
 10
453198.298048843
 20
196383.4244220014
 11
453197.7271417693
 21
196384.2807826121
 72
     1
 10
453197.7271417693
 20
196384.2807826121
 11
453197.8984138914
 21
196385.0800525153
 72
     1
 10
453197.8984138914
 20
196385.0800525153
 11
453198.0125953062
 21
196386.4502294924
 72
     1
 10
453198.0125953062
 20
196386.4502294924
 11
453198.298048843
 21
196386.6785923219
 72
     1
 10
453198.298048843
 20
196386.6785923219
 11
453198.6976837947
 21
196386.6785923219
 72
     1
 10
453198.6976837947
 20
196386.6785923219
 11
453198.9831373316
 21
196386.393138785
 72
     1
 10
453198.9831373316
 20
196386.393138785
 11
453199.0973187463
 21
196385.0229618079
 72
     1
 10
453199.0973187463
 20
196385.0229618079
 11
453199.1544094537
 21
196384.0524197825
 72
     1
 10
453199.1544094537
 20
196384.0524197825
 11
453199.040228039
 21
196383.5956941235
 72
     1
 10
453199.040228039
 20
196383.5956941235
 11
453198.8118652095
 21
196383.3102405867
 72
     1
 10
453198.8118652095
 20
196383.3102405867
 11
453198.298048843
 21
196383.4244220014
 97
        0
 92
        1
 93
        9
 72
     1
 10
453202.5798518963
 20
196381.9400636096
 11
453201.7234912857
 21
196381.997154317
 72
     1
 10
453201.7234912857
 20
196381.997154317
 11
453200.9242213824
 21
196382.1684264391
 72
     1
 10
453200.9242213824
 20
196382.1684264391
 11
453200.6958585529
 21
196382.453879976
 72
     1
 10
453200.6958585529
 20
196382.453879976
 11
453200.7529492603
 21
196382.8535149276
 72
     1
 10
453200.7529492603
 20
196382.8535149276
 11
453201.4951284562
 21
196382.8535149276
 72
     1
 10
453201.4951284562
 20
196382.8535149276
 11
453202.522761189
 21
196382.6822428055
 72
     1
 10
453202.522761189
 20
196382.6822428055
 11
453202.6940333111
 21
196382.453879976
 72
     1
 10
453202.6940333111
 20
196382.453879976
 11
453202.6940333111
 21
196382.1684264391
 72
     1
 10
453202.6940333111
 20
196382.1684264391
 11
453202.5798518963
 21
196381.9400636096
 97
        0
 75
     1
 76
     1
 98
        1
 10
0.0
 20
0.0
1001
ACAD
1010
0.0
1020
0.0
1030
0.0
1001
HATCHBACKGROUNDCOLOR
1071
-939524096
1000
None
1000

  0
LWPOLYLINE
  5
354
330
1F
100
AcDbEntity
  8
AS-ABST MAG DEBRIS
 62
     7
420
 16711679
430
UNNAMED$254,255,255
100
AcDbPolyline
 90
       13
 70
     1
 43
0.0
 10
453148.3848957965
 20
196418.4765900375
 10
453146.4597725886
 20
196416.2434471164
 10
453144.7656641657
 20
196414.3953288368
 10
453145.6897233055
 20
196413.5482746253
 10
453147.2298218718
 20
196412.1621859156
 10
453148.6929155097
 20
196412.008176059
 10
453149.5399697212
 20
196413.1632499838
 10
453150.2330140761
 20
196414.0103041952
 10
453150.7720485743
 20
196415.4733978332
 10
453150.9260584309
 20
196416.6284717579
 10
453150.3870239327
 20
196417.5525308977
 10
453149.3089549363
 20
196418.2455752526
 10
453148.4619007248
 20
196419.1696343924
  0
LWPOLYLINE
  5
355
330
1F
100
AcDbEntity
  8
AS-ABST MAG DEBRIS
 62
     7
420
 16711679
430
UNNAMED$254,255,255
100
AcDbPolyline
 90
       44
 70
     1
 43
0.0
 10
453146.2287578037
 20
196420.1706984604
 10
453145.6127183771
 20
196418.3225801809
 10
453143.8416050259
 20
196417.860550611
 10
453142.3015064596
 20
196417.9375555393
 10
453140.2223733951
 20
196416.8594865429
 10
453140.45338818
 20
196415.3193879766
 10
453141.7624719614
 20
196413.471269697
 10
453142.147496603
 20
196411.5461464891
 10
453140.7614078933
 20
196410.6220873493
 10
453138.5282649721
 20
196410.8531021343
 10
453136.6031417642
 20
196409.0049838547
 10
453137.2961861191
 20
196408.0809247149
 10
453141.0694276065
 20
196408.1579296432
 10
453142.3785113879
 20
196409.4670134246
 10
453145.0736838789
 20
196410.776097206
 10
453146.6907873736
 20
196410.8531021343
 10
453148.3078908682
 20
196410.4680774927
 10
453148.1538810115
 20
196409.3900084963
 10
453144.842669094
 20
196409.0049838547
 10
453144.3036345958
 20
196407.618895145
 10
453144.3806395241
 20
196406.386816292
 10
453142.7635360295
 20
196405.5397620805
 10
453141.6854670331
 20
196405.2317423672
 10
453138.0662354022
 20
196405.5397620805
 10
453135.2940579829
 20
196405.8477817938
 10
453133.4459397033
 20
196406.7718409336
 10
453131.674826352
 20
196408.2349345716
 10
453131.8288362087
 20
196410.545082421
 10
453132.6758904202
 20
196412.1621859156
 10
453132.9069052051
 20
196413.3942647687
 10
453133.4459397033
 20
196415.8584224748
 10
453133.9849742015
 20
196416.4744619013
 10
453135.4480678395
 20
196416.6284717579
 10
453135.8330924811
 20
196417.1675062562
 10
453136.7571516209
 20
196421.5567871701
 10
453137.6812107607
 20
196421.6337920984
 10
453138.2972501872
 20
196422.4808463099
 10
453139.3753191836
 20
196423.1738906647
 10
453141.1464325348
 20
196423.481910378
 10
453142.7635360295
 20
196424.5599793744
 10
453143.6875951692
 20
196424.0979498045
 10
453144.2266296674
 20
196422.4038413816
 10
453144.7656641657
 20
196421.6337920984
 10
453145.6127183771
 20
196421.2487674569
  0
LWPOLYLINE
  5
356
330
1F
100
AcDbEntity
  8
AS-ABST MAG STRONG DIPOLAR
100
AcDbPolyline
 90
        2
 70
     1
 43
0.5
 10
453144.1429234867
 20
196395.071841216
 42
1.0
 10
453143.6429234867
 20
196395.071841216
 42
1.0
  0
LWPOLYLINE
  5
357
330
1F
100
AcDbEntity
  8
AS-ABST MAG STRONG DIPOLAR
100
AcDbPolyline
 90
        2
 70
     1
 43
0.5
 10
453148.6862142573
 20
196383.829121682
 42
1.0
 10
453148.1862142573
 20
196383.829121682
 42
1.0
  0
LWPOLYLINE
  5
358
330
1F
100
AcDbEntity
  8
AS-ABST MAG STRONG DIPOLAR
100
AcDbPolyline
 90
        2
 70
     1
 43
0.5
 10
453152.6134656013
 20
196392.9927081515
 42
1.0
 10
453152.1134656013
 20
196392.9927081515
 42
1.0
  0
LWPOLYLINE
  5
359
330
1F
100
AcDbEntity
  8
AS-ABST MAG STRONG DIPOLAR
100
AcDbPolyline
 90
        2
 70
     1
 43
0.5
 10
453144.7589629131
 20
196368.7361557322
 42
1.0
 10
453144.2589629131
 20
196368.7361557322
 42
1.0
  0
LWPOLYLINE
  5
35A
330
1F
100
AcDbEntity
  8
AS-ABST MAG STRONG DIPOLAR
100
AcDbPolyline
 90
        2
 70
     1
 43
0.5
 10
453144.4509431998
 20
196362.0367269687
 42
1.0
 10
453143.9509431998
 20
196362.0367269687
 42
1.0
  0
LWPOLYLINE
  5
35B
330
1F
100
AcDbEntity
  8
AS-ABST MAG STRONG DIPOLAR
100
AcDbPolyline
 90
        2
 70
     1
 43
0.5
 10
453188.7133759954
 20
196414.2614693522
 42
1.0
 10
453188.2133759954
 20
196414.2614693522
 42
1.0
  0
LWPOLYLINE
  5
35C
330
1F
100
AcDbEntity
  8
AS-ABST MAG DISTURBANCE
 62
     7
420
 16711679
430
UNNAMED$254,255,255
100
AcDbPolyline
 90
       35
 70
     1
 43
0.0
 10
453093.3417730362
 20
196326.3109314353
 10
453098.1930835201
 20
196325.4638772238
 10
453101.5042954377
 20
196323.6927638726
 10
453102.9673890757
 20
196322.0756603779
 10
453105.3545418535
 20
196321.4596209514
 10
453108.2807291294
 20
196319.7655125285
 10
453110.2828572656
 20
196317.6093745356
 10
453114.2101086098
 20
196316.0692759693
 10
453118.9074092369
 20
196312.8350689801
 10
453122.6806507244
 20
196310.0628915607
 10
453125.8378527854
 20
196308.9848225643
 10
453128.918049918
 20
196309.0618274926
 10
453133.3073308319
 20
196308.7538077794
 10
453136.5415378212
 20
196308.5997979228
 10
453139.0056955272
 20
196307.9067535679
 10
453144.3960405093
 20
196306.5206648582
 10
453149.5553707065
 20
196305.2885860052
 10
453152.7895776957
 20
196301.9773740876
 10
453153.4056171222
 20
196297.8191079586
 10
453155.4847501868
 20
196294.738910826
 10
453160.182050814
 20
196292.1977481916
 10
453168.1135584305
 20
196288.5015116324
 10
453172.1948196312
 20
196287.654457421
 10
453175.4290266205
 20
196286.8844081378
 10
453181.7434307423
 20
196284.9592849299
 10
453183.2361871699
 20
196284.2138963076
 10
453181.6285128501
 20
196281.144699879
 10
453180.6653617459
 20
196280.8010188009
 10
453138.1286093929
 20
196299.9764010252
 10
453138.898658676
 20
196302.2865488746
 10
453133.6623235506
 20
196304.827711509
 10
453132.965738341
 20
196302.3025901246
 10
453099.9641968713
 20
196317.5323696074
 10
453091.0316251867
 20
196321.9216505214
 10
453089.1141633603
 20
196323.4009578509
  0
LWPOLYLINE
  5
35D
330
1F
100
AcDbEntity
  8
AS-ABST MAG DEBRIS
 62
     7
420
 16711679
430
UNNAMED$254,255,255
100
AcDbPolyline
 90
       34
 70
     1
 43
0.0
 10
453177.998681078
 20
196318.3004937673
 10
453174.9954888737
 20
196320.1486120468
 10
453172.9163558091
 20
196321.6117056848
 10
453169.6051438916
 20
196322.150740183
 10
453166.4479418307
 20
196323.0747993228
 10
453164.2147989095
 20
196323.2288091794
 10
453162.7517052715
 20
196322.5357648246
 10
453161.2886116335
 20
196321.2266810432
 10
453160.2105426371
 20
196320.2256169751
 10
453160.3645524937
 20
196318.5315085522
 10
453161.2116067052
 20
196317.761459269
 10
453163.1367299131
 20
196317.1454198425
 10
453164.2918038378
 20
196316.2213607027
 10
453164.2918038378
 20
196314.6042572081
 10
453164.3688087661
 20
196313.2951734268
 10
453162.9827200564
 20
196311.1390354339
 10
453164.7538334077
 20
196309.7529467243
 10
453168.1420502536
 20
196309.444927011
 10
453170.3751931748
 20
196309.213912226
 10
453172.7623459525
 20
196308.1358432296
 10
453174.2254395905
 20
196308.7518826561
 10
453174.9184839454
 20
196310.4459910791
 10
453174.1484346622
 20
196311.6010650038
 10
453173.609400164
 20
196312.6021290719
 10
453176.7666022249
 20
196311.4470551472
 10
453178.9227402178
 20
196311.2160403622
 10
453179.6927895009
 20
196311.8320797888
 10
453178.2296958629
 20
196313.0641586418
 10
453175.3035085869
 20
196314.6042572081
 10
453175.7655381568
 20
196315.8363360612
 10
453178.7687303611
 20
196315.4513114196
 10
453179.5387796443
 20
196315.6053212762
 10
453179.0767500744
 20
196316.8374001293
 10
453178.6147205045
 20
196317.3764346275
  0
LWPOLYLINE
  5
35E
330
1F
100
AcDbEntity
  8
AS-ABST MAG STRONG DIPOLAR
100
AcDbPolyline
 90
        2
 70
     1
 43
0.25
 10
453248.7618419201
 20
196421.6842303263
 42
1.0
 10
453248.5118419201
 20
196421.6842303263
 42
1.0
  0
LWPOLYLINE
  5
35F
330
1F
100
AcDbEntity
  8
AS-ABST MAG STRONG DIPOLAR
100
AcDbPolyline
 90
        2
 70
     1
 43
0.25
 10
453251.4570144112
 20
196422.0692549679
 42
1.0
 10
453251.2070144112
 20
196422.0692549679
 42
1.0
  0
LWPOLYLINE
  5
360
330
1F
100
AcDbEntity
  8
AS-ABST MAG STRONG DIPOLAR
100
AcDbPolyline
 90
        2
 70
     1
 43
0.25
 10
453252.0730538377
 20
196421.4532155413
 42
1.0
 10
453251.8230538377
 20
196421.4532155413
 42
1.0
  0
LWPOLYLINE
  5
361
330
1F
100
AcDbEntity
  8
AS-ABST MAG STRONG DIPOLAR
100
AcDbPolyline
 90
        2
 70
     1
 43
0.25
 10
453255.4612706836
 20
196425.1494521005
 42
1.0
 10
453255.2112706836
 20
196425.1494521005
 42
1.0
  0
LWPOLYLINE
  5
362
330
1F
100
AcDbEntity
  8
AS-ABST MAG STRONG DIPOLAR
100
AcDbPolyline
 90
        2
 70
     1
 43
0.25
 10
453228.5095457732
 20
196417.7569789822
 42
1.0
 10
453228.2595457732
 20
196417.7569789822
 42
1.0
  0
LWPOLYLINE
  5
363
330
1F
100
AcDbEntity
  8
AS-ABST MAG STRONG DIPOLAR
100
AcDbPolyline
 90
        2
 70
     1
 43
0.25
 10
453232.5138020455
 20
196419.5280923334
 42
1.0
 10
453232.2638020455
 20
196419.5280923334
 42
1.0
  0
LWPOLYLINE
  5
364
330
1F
100
AcDbEntity
  8
AS-ABST MAG STRONG DIPOLAR
100
AcDbPolyline
 90
        2
 70
     1
 43
0.25
 10
453240.4453096621
 20
196422.7622993227
 42
1.0
 10
453240.1953096621
 20
196422.7622993227
 42
1.0
  0
LWPOLYLINE
  5
365
330
1F
100
AcDbEntity
  8
AS-ABST MAG STRONG DIPOLAR
100
AcDbPolyline
 90
        2
 70
     1
 43
0.25
 10
453245.9126595724
 20
196422.9163091793
 42
1.0
 10
453245.6626595724
 20
196422.9163091793
 42
1.0
  0
LWPOLYLINE
  5
366
330
1F
100
AcDbEntity
  8
AS-ABST MAG STRONG DIPOLAR
100
AcDbPolyline
 90
        2
 70
     1
 43
0.25
 10
453244.9115955044
 20
196423.9173732474
 42
1.0
 10
453244.6615955044
 20
196423.9173732474
 42
1.0
  0
LWPOLYLINE
  5
367
330
1F
100
AcDbEntity
  8
AS-ABST MAG STRONG DIPOLAR
100
AcDbPolyline
 90
        2
 70
     1
 43
0.25
 10
453249.8399109165
 20
196425.6884865987
 42
1.0
 10
453249.5899109165
 20
196425.6884865987
 42
1.0
  0
LWPOLYLINE
  5
368
330
1F
100
AcDbEntity
  8
AS-ABST MAG STRONG DIPOLAR
100
AcDbPolyline
 90
        2
 70
     1
 43
0.25
 10
453245.6046398592
 20
196427.7676196632
 42
1.0
 10
453245.3546398592
 20
196427.7676196632
 42
1.0
  0
LWPOLYLINE
  5
369
330
1F
100
AcDbEntity
  8
AS-ABST MAG STRONG DIPOLAR
100
AcDbPolyline
 90
        2
 70
     1
 43
0.25
 10
453227.5084817051
 20
196429.5387330145
 42
1.0
 10
453227.2584817051
 20
196429.5387330145
 42
1.0
  0
LWPOLYLINE
  5
36A
330
1F
100
AcDbEntity
  8
AS-ABST MAG STRONG DIPOLAR
100
AcDbPolyline
 90
        2
 70
     1
 43
0.25
 10
453225.8143732821
 20
196427.6906147349
 42
1.0
 10
453225.5643732821
 20
196427.6906147349
 42
1.0
  0
LWPOLYLINE
  5
36B
330
1F
100
AcDbEntity
  8
AS-ABST MAG STRONG DIPOLAR
100
AcDbPolyline
 90
        2
 70
     1
 43
0.25
 10
453231.6667478341
 20
196427.6136098066
 42
1.0
 10
453231.4167478341
 20
196427.6136098066
 42
1.0
  0
LWPOLYLINE
  5
36C
330
1F
100
AcDbEntity
  8
AS-ABST MAG STRONG DIPOLAR
100
AcDbPolyline
 90
        2
 70
     1
 43
0.25
 10
453225.4293486406
 20
196424.0713831041
 42
1.0
 10
453225.1793486406
 20
196424.0713831041
 42
1.0
  0
LWPOLYLINE
  5
36D
330
1F
100
AcDbEntity
  8
AS-ABST MAG STRONG DIPOLAR
100
AcDbPolyline
 90
        2
 70
     1
 43
0.25
 10
453230.5886788377
 20
196411.9816093586
 42
1.0
 10
453230.3386788377
 20
196411.9816093586
 42
1.0
  0
LWPOLYLINE
  5
36E
330
1F
100
AcDbEntity
  8
AS-ABST MAG STRONG DIPOLAR
100
AcDbPolyline
 90
        2
 70
     1
 43
0.25
 10
453231.5897429058
 20
196411.2885650037
 42
1.0
 10
453231.3397429058
 20
196411.2885650037
 42
1.0
  0
LWPOLYLINE
  5
36F
330
1F
100
AcDbEntity
  8
AS-ABST MAG STRONG DIPOLAR
100
AcDbPolyline
 90
        2
 70
     1
 43
0.25
 10
453234.3619203251
 20
196412.6746537134
 42
1.0
 10
453234.1119203251
 20
196412.6746537134
 42
1.0
  0
LWPOLYLINE
  5
370
330
1F
100
AcDbEntity
  8
AS-ABST MAG STRONG DIPOLAR
100
AcDbPolyline
 90
        2
 70
     1
 43
0.25
 10
453240.4453096621
 20
196393.9624561327
 42
1.0
 10
453240.1953096621
 20
196393.9624561327
 42
1.0
  0
LWPOLYLINE
  5
371
330
1F
100
AcDbEntity
  8
AS-ABST MAG STRONG DIPOLAR
100
AcDbPolyline
 90
        2
 70
     1
 43
0.25
 10
453238.1351618126
 20
196394.4244857026
 42
1.0
 10
453237.8851618126
 20
196394.4244857026
 42
1.0
  0
LWPOLYLINE
  5
372
330
1F
100
AcDbEntity
  8
AS-ABST MAG STRONG DIPOLAR
100
AcDbPolyline
 90
        2
 70
     1
 43
0.25
 10
453238.6741963108
 20
196396.1185941256
 42
1.0
 10
453238.4241963108
 20
196396.1185941256
 42
1.0
  0
LWPOLYLINE
  5
373
330
1F
100
AcDbEntity
  8
AS-ABST MAG STRONG DIPOLAR
100
AcDbPolyline
 90
        2
 70
     1
 43
0.25
 10
453239.8292702356
 20
196397.2736680503
 42
1.0
 10
453239.5792702356
 20
196397.2736680503
 42
1.0
  0
LWPOLYLINE
  5
374
330
1F
100
AcDbEntity
  8
AS-ABST MAG STRONG DIPOLAR
100
AcDbPolyline
 90
        2
 70
     1
 43
0.25
 10
453245.9896645008
 20
196397.8897074768
 42
1.0
 10
453245.7396645008
 20
196397.8897074768
 42
1.0
  0
LWPOLYLINE
  5
375
330
1F
100
AcDbEntity
  8
AS-ABST MAG STRONG DIPOLAR
100
AcDbPolyline
 90
        2
 70
     1
 43
0.25
 10
453245.4506300025
 20
196391.1132737851
 42
1.0
 10
453245.2006300025
 20
196391.1132737851
 42
1.0
  0
LWPOLYLINE
  5
376
330
1F
100
AcDbEntity
  8
AS-ABST MAG STRONG DIPOLAR
100
AcDbPolyline
 90
        2
 70
     1
 43
0.25
 10
453228.3555359165
 20
196390.7282491435
 42
1.0
 10
453228.1055359165
 20
196390.7282491435
 42
1.0
  0
LWPOLYLINE
  5
377
330
1F
100
AcDbEntity
  8
AS-ABST MAG STRONG DIPOLAR
100
AcDbPolyline
 90
        2
 70
     1
 43
0.25
 10
453223.581230361
 20
196394.5014906309
 42
1.0
 10
453223.331230361
 20
196394.5014906309
 42
1.0
  0
LWPOLYLINE
  5
378
330
1F
100
AcDbEntity
  8
AS-ABST MAG STRONG DIPOLAR
100
AcDbPolyline
 90
        2
 70
     1
 43
0.25
 10
453223.1962057194
 20
196396.5806236955
 42
1.0
 10
453222.9462057194
 20
196396.5806236955
 42
1.0
  0
LWPOLYLINE
  5
379
330
1F
100
AcDbEntity
  8
AS-ABST MAG STRONG DIPOLAR
100
AcDbPolyline
 90
        2
 70
     1
 43
0.25
 10
453225.4293486406
 20
196394.3474807743
 42
1.0
 10
453225.1793486406
 20
196394.3474807743
 42
1.0
  0
LWPOLYLINE
  5
37A
330
1F
100
AcDbEntity
  8
AS-ABST MAG STRONG DIPOLAR
100
AcDbPolyline
 90
        2
 70
     1
 43
0.25
 10
453226.276402852
 20
196401.0469095378
 42
1.0
 10
453226.026402852
 20
196401.0469095378
 42
1.0
  0
LWPOLYLINE
  5
37B
330
1F
100
AcDbEntity
  8
AS-ABST MAG STRONG DIPOLAR
100
AcDbPolyline
 90
        2
 70
     1
 43
0.25
 10
453226.8924422786
 20
196404.7431460969
 42
1.0
 10
453226.6424422786
 20
196404.7431460969
 42
1.0
  0
LWPOLYLINE
  5
37C
330
1F
100
AcDbEntity
  8
AS-ABST MAG STRONG DIPOLAR
100
AcDbPolyline
 90
        2
 70
     1
 43
0.25
 10
453228.0475162033
 20
196406.5142594481
 42
1.0
 10
453227.7975162033
 20
196406.5142594481
 42
1.0
  0
LWPOLYLINE
  5
37D
330
1F
100
AcDbEntity
  8
AS-ABST MAG STRONG DIPOLAR
100
AcDbPolyline
 90
        2
 70
     1
 43
0.25
 10
453229.0485802714
 20
196404.7431460969
 42
1.0
 10
453228.7985802714
 20
196404.7431460969
 42
1.0
  0
LWPOLYLINE
  5
37E
330
1F
100
AcDbEntity
  8
AS-ABST MAG STRONG DIPOLAR
100
AcDbPolyline
 90
        2
 70
     1
 43
0.25
 10
453228.3555359165
 20
196409.1324270109
 42
1.0
 10
453228.1055359165
 20
196409.1324270109
 42
1.0
  0
LWPOLYLINE
  5
37F
330
1F
100
AcDbEntity
  8
AS-ABST MAG STRONG DIPOLAR
100
AcDbPolyline
 90
        2
 70
     1
 43
0.25
 10
453221.8871219381
 20
196410.0564861507
 42
1.0
 10
453221.6371219381
 20
196410.0564861507
 42
1.0
  0
LWPOLYLINE
  5
380
330
1F
100
AcDbEntity
  8
AS-ABST MAG STRONG DIPOLAR
100
AcDbPolyline
 90
        2
 70
     1
 43
0.25
 10
453223.4272205044
 20
196408.8244072976
 42
1.0
 10
453223.1772205044
 20
196408.8244072976
 42
1.0
  0
LWPOLYLINE
  5
381
330
1F
100
AcDbEntity
  8
AS-ABST MAG STRONG DIPOLAR
100
AcDbPolyline
 90
        2
 70
     1
 43
0.25
 10
453220.9630627983
 20
196412.5976487851
 42
1.0
 10
453220.7130627983
 20
196412.5976487851
 42
1.0
  0
LWPOLYLINE
  5
382
330
1F
100
AcDbEntity
  8
AS-ABST MAG STRONG DIPOLAR
100
AcDbPolyline
 90
        2
 70
     1
 43
0.25
 10
453217.4208360958
 20
196410.8265354338
 42
1.0
 10
453217.1708360958
 20
196410.8265354338
 42
1.0
  0
LWPOLYLINE
  5
383
330
1F
100
AcDbEntity
  8
AS-ABST MAG STRONG DIPOLAR
100
AcDbPolyline
 90
        2
 70
     1
 43
0.25
 10
453215.5727178162
 20
196405.97522495
 42
1.0
 10
453215.3227178162
 20
196405.97522495
 42
1.0
  0
LWPOLYLINE
  5
384
330
1F
100
AcDbEntity
  8
AS-ABST MAG STRONG DIPOLAR
100
AcDbPolyline
 90
        2
 70
     1
 43
0.25
 10
453213.2625699667
 20
196408.9014122259
 42
1.0
 10
453213.0125699667
 20
196408.9014122259
 42
1.0
  0
LWPOLYLINE
  5
385
330
1F
100
AcDbEntity
  8
AS-ABST MAG STRONG DIPOLAR
100
AcDbPolyline
 90
        2
 70
     1
 43
0.25
 10
453204.7150229237
 20
196406.8992840898
 42
1.0
 10
453204.4650229237
 20
196406.8992840898
 42
1.0
  0
LWPOLYLINE
  5
386
330
1F
100
AcDbEntity
  8
AS-ABST MAG STRONG DIPOLAR
100
AcDbPolyline
 90
        2
 70
     1
 43
0.25
 10
453201.9428455044
 20
196407.6693333729
 42
1.0
 10
453201.6928455044
 20
196407.6693333729
 42
1.0
  0
LWPOLYLINE
  5
387
330
1F
100
AcDbEntity
  8
AS-ABST MAG STRONG DIPOLAR
100
AcDbPolyline
 90
        2
 70
     1
 43
0.25
 10
453200.633761723
 20
196403.6650771005
 42
1.0
 10
453200.383761723
 20
196403.6650771005
 42
1.0
  0
LWPOLYLINE
  5
388
330
1F
100
AcDbEntity
  8
AS-ABST MAG STRONG DIPOLAR
100
AcDbPolyline
 90
        2
 70
     1
 43
0.25
 10
453198.4776237301
 20
196417.7569789822
 42
1.0
 10
453198.2276237301
 20
196417.7569789822
 42
1.0
  0
LWPOLYLINE
  5
389
330
1F
100
AcDbEntity
  8
AS-ABST MAG STRONG DIPOLAR
100
AcDbPolyline
 90
        2
 70
     1
 43
0.25
 10
453194.5503723861
 20
196422.839304251
 42
1.0
 10
453194.3003723861
 20
196422.839304251
 42
1.0
  0
LWPOLYLINE
  5
38A
330
1F
100
AcDbEntity
  8
AS-ABST MAG STRONG DIPOLAR
100
AcDbPolyline
 90
        2
 70
     1
 43
0.25
 10
453189.7760668306
 20
196431.4638562224
 42
1.0
 10
453189.5260668306
 20
196431.4638562224
 42
1.0
  0
LWPOLYLINE
  5
38B
330
1F
100
AcDbEntity
  8
AS-ABST MAG STRONG DIPOLAR
100
AcDbPolyline
 90
        2
 70
     1
 43
0.25
 10
453189.9300766871
 20
196433.3889794302
 42
1.0
 10
453189.6800766871
 20
196433.3889794302
 42
1.0
  0
LWPOLYLINE
  5
38C
330
1F
100
AcDbEntity
  8
AS-ABST MAG STRONG DIPOLAR
100
AcDbPolyline
 90
        2
 70
     1
 43
0.25
 10
453198.1696040169
 20
196429.2307133012
 42
1.0
 10
453197.9196040169
 20
196429.2307133012
 42
1.0
  0
LWPOLYLINE
  5
38D
330
1F
100
AcDbEntity
  8
AS-ABST MAG STRONG DIPOLAR
100
AcDbPolyline
 90
        2
 70
     1
 43
0.25
 10
453204.2529933538
 20
196430.0007625844
 42
1.0
 10
453204.0029933538
 20
196430.0007625844
 42
1.0
  0
LWPOLYLINE
  5
38E
330
1F
100
AcDbEntity
  8
AS-ABST MAG STRONG DIPOLAR
100
AcDbPolyline
 90
        2
 70
     1
 43
0.25
 10
453213.8016044649
 20
196419.9901219034
 42
1.0
 10
453213.5516044649
 20
196419.9901219034
 42
1.0
  0
LWPOLYLINE
  5
38F
330
1F
100
AcDbEntity
  8
AS-ABST MAG STRONG DIPOLAR
100
AcDbPolyline
 90
        2
 70
     1
 43
0.25
 10
453213.7245995366
 20
196415.3698262044
 42
1.0
 10
453213.4745995366
 20
196415.3698262044
 42
1.0
  0
LWPOLYLINE
  5
390
330
1F
100
AcDbEntity
  8
AS-ABST MAG STRONG DIPOLAR
100
AcDbPolyline
 90
        2
 70
     1
 43
0.25
 10
453195.3204216692
 20
196419.3740824768
 42
1.0
 10
453195.0704216692
 20
196419.3740824768
 42
1.0
  0
LWPOLYLINE
  5
391
330
1F
100
AcDbEntity
  8
AS-ABST MAG STRONG DIPOLAR
100
AcDbPolyline
 90
        2
 70
     1
 43
0.25
 10
453190.392106257
 20
196419.9901219034
 42
1.0
 10
453190.142106257
 20
196419.9901219034
 42
1.0
  0
LWPOLYLINE
  5
392
330
1F
100
AcDbEntity
  8
AS-ABST MAG STRONG DIPOLAR
100
AcDbPolyline
 90
        2
 70
     1
 43
0.25
 10
453191.7781949667
 20
196417.2949494123
 42
1.0
 10
453191.5281949667
 20
196417.2949494123
 42
1.0
  0
LWPOLYLINE
  5
393
330
1F
100
AcDbEntity
  8
AS-ABST MAG STRONG DIPOLAR
100
AcDbPolyline
 90
        2
 70
     1
 43
0.25
 10
453181.9985690707
 20
196434.8520730682
 42
1.0
 10
453181.7485690707
 20
196434.8520730682
 42
1.0
  0
LWPOLYLINE
  5
394
330
1F
100
AcDbEntity
  8
AS-ABST MAG STRONG DIPOLAR
100
AcDbPolyline
 90
        2
 70
     1
 43
0.25
 10
453174.3750811674
 20
196437.7782603442
 42
1.0
 10
453174.1250811674
 20
196437.7782603442
 42
1.0
  0
LWPOLYLINE
  5
395
330
1F
100
AcDbEntity
  8
AS-ABST MAG STRONG DIPOLAR
100
AcDbPolyline
 90
        2
 70
     1
 43
0.25
 10
453169.4467657552
 20
196438.0092751292
 42
1.0
 10
453169.1967657552
 20
196438.0092751292
 42
1.0
  0
LWPOLYLINE
  5
396
330
1F
100
AcDbEntity
  8
AS-ABST MAG STRONG DIPOLAR
100
AcDbPolyline
 90
        2
 70
     1
 43
0.25
 10
453178.3023325115
 20
196429.5387330145
 42
1.0
 10
453178.0523325115
 20
196429.5387330145
 42
1.0
  0
LWPOLYLINE
  5
397
330
1F
100
AcDbEntity
  8
AS-ABST MAG STRONG DIPOLAR
100
AcDbPolyline
 90
        2
 70
     1
 43
0.25
 10
453180.4584705044
 20
196429.5387330145
 42
1.0
 10
453180.2084705044
 20
196429.5387330145
 42
1.0
  0
LWPOLYLINE
  5
398
330
1F
100
AcDbEntity
  8
AS-ABST MAG STRONG DIPOLAR
100
AcDbPolyline
 90
        2
 70
     1
 43
0.25
 10
453184.3087169201
 20
196418.1420036238
 42
1.0
 10
453184.0587169201
 20
196418.1420036238
 42
1.0
  0
LWPOLYLINE
  5
399
330
1F
100
AcDbEntity
  8
AS-ABST MAG STRONG DIPOLAR
100
AcDbPolyline
 90
        2
 70
     1
 43
0.25
 10
453184.0777021352
 20
196415.2158163478
 42
1.0
 10
453183.8277021352
 20
196415.2158163478
 42
1.0
  0
LWPOLYLINE
  5
39A
330
1F
100
AcDbEntity
  8
AS-ABST MAG STRONG DIPOLAR
100
AcDbPolyline
 90
        2
 70
     1
 43
0.25
 10
453182.2295838556
 20
196415.754850846
 42
1.0
 10
453181.9795838556
 20
196415.754850846
 42
1.0
  0
LWPOLYLINE
  5
39B
330
1F
100
AcDbEntity
  8
AS-ABST MAG STRONG DIPOLAR
100
AcDbPolyline
 90
        2
 70
     1
 43
0.25
 10
453164.7494651281
 20
196435.6221223514
 42
1.0
 10
453164.4994651281
 20
196435.6221223514
 42
1.0
  0
LWPOLYLINE
  5
39C
330
1F
100
AcDbEntity
  8
AS-ABST MAG STRONG DIPOLAR
100
AcDbPolyline
 90
        2
 70
     1
 43
0.25
 10
453154.5848145904
 20
196421.838240183
 42
1.0
 10
453154.3348145904
 20
196421.838240183
 42
1.0
  0
LWPOLYLINE
  5
39D
330
1F
100
AcDbEntity
  8
AS-ABST MAG STRONG DIPOLAR
100
AcDbPolyline
 90
        2
 70
     1
 43
0.25
 10
453157.5880067947
 20
196419.6050972619
 42
1.0
 10
453157.3380067947
 20
196419.6050972619
 42
1.0
  0
LWPOLYLINE
  5
39E
330
1F
100
AcDbEntity
  8
AS-ABST MAG STRONG DIPOLAR
100
AcDbPolyline
 90
        2
 70
     1
 43
0.25
 10
453160.822213784
 20
196417.8339839106
 42
1.0
 10
453160.572213784
 20
196417.8339839106
 42
1.0
  0
LWPOLYLINE
  5
39F
330
1F
100
AcDbEntity
  8
AS-ABST MAG STRONG DIPOLAR
100
AcDbPolyline
 90
        2
 70
     1
 43
0.25
 10
453162.8243419202
 20
196415.9088607027
 42
1.0
 10
453162.5743419202
 20
196415.9088607027
 42
1.0
  0
LWPOLYLINE
  5
3A0
330
1F
100
AcDbEntity
  8
AS-ABST MAG STRONG DIPOLAR
100
AcDbPolyline
 90
        2
 70
     1
 43
0.25
 10
453168.0606770456
 20
196409.5944565809
 42
1.0
 10
453167.8106770456
 20
196409.5944565809
 42
1.0
  0
LWPOLYLINE
  5
3A1
330
1F
100
AcDbEntity
  8
AS-ABST MAG STRONG DIPOLAR
100
AcDbPolyline
 90
        2
 70
     1
 43
0.25
 10
453167.8296622607
 20
196408.5933925127
 42
1.0
 10
453167.5796622607
 20
196408.5933925127
 42
1.0
  0
LWPOLYLINE
  5
3A2
330
1F
100
AcDbEntity
  8
AS-ABST MAG STRONG DIPOLAR
100
AcDbPolyline
 90
        2
 70
     1
 43
0.25
 10
453171.8339185331
 20
196404.9741608819
 42
1.0
 10
453171.5839185331
 20
196404.9741608819
 42
1.0
  0
LWPOLYLINE
  5
3A3
330
1F
100
AcDbEntity
  8
AS-ABST MAG STRONG DIPOLAR
100
AcDbPolyline
 90
        2
 70
     1
 43
0.25
 10
453180.1504507912
 20
196406.3602495916
 42
1.0
 10
453179.9004507912
 20
196406.3602495916
 42
1.0
  0
LWPOLYLINE
  5
3A4
330
1F
100
AcDbEntity
  8
AS-ABST MAG STRONG DIPOLAR
100
AcDbPolyline
 90
        2
 70
     1
 43
0.25
 10
453179.0723817947
 20
196404.512131312
 42
1.0
 10
453178.8223817947
 20
196404.512131312
 42
1.0
  0
LWPOLYLINE
  5
3A5
330
1F
100
AcDbEntity
  8
AS-ABST MAG STRONG DIPOLAR
100
AcDbPolyline
 90
        2
 70
     1
 43
0.25
 10
453190.3151013288
 20
196397.1196581937
 42
1.0
 10
453190.0651013288
 20
196397.1196581937
 42
1.0
  0
LWPOLYLINE
  5
3A6
330
1F
100
AcDbEntity
  8
AS-ABST MAG STRONG DIPOLAR
100
AcDbPolyline
 90
        2
 70
     1
 43
0.25
 10
453170.9868643216
 20
196399.1217863299
 42
1.0
 10
453170.7368643216
 20
196399.1217863299
 42
1.0
  0
LWPOLYLINE
  5
3A7
330
1F
100
AcDbEntity
  8
AS-ABST MAG STRONG DIPOLAR
100
AcDbPolyline
 90
        2
 70
     1
 43
0.25
 10
453166.1355538378
 20
196400.0458454697
 42
1.0
 10
453165.8855538378
 20
196400.0458454697
 42
1.0
  0
LWPOLYLINE
  5
3A8
330
1F
100
AcDbEntity
  8
AS-ABST MAG STRONG DIPOLAR
100
AcDbPolyline
 90
        2
 70
     1
 43
0.25
 10
453152.8137012392
 20
196412.3666340002
 42
1.0
 10
453152.5637012392
 20
196412.3666340002
 42
1.0
  0
LWPOLYLINE
  5
3A9
330
1F
100
AcDbEntity
  8
AS-ABST MAG STRONG DIPOLAR
100
AcDbPolyline
 90
        2
 70
     1
 43
0.25
 10
453151.1965977445
 20
196421.9152451113
 42
1.0
 10
453150.9465977445
 20
196421.9152451113
 42
1.0
  0
LWPOLYLINE
  5
3AA
330
1F
100
AcDbEntity
  8
AS-ABST MAG STRONG DIPOLAR
100
AcDbPolyline
 90
        2
 70
     1
 43
0.25
 10
453151.8126371711
 20
196426.1505161687
 42
1.0
 10
453151.5626371711
 20
196426.1505161687
 42
1.0
  0
LWPOLYLINE
  5
3AB
330
1F
100
AcDbEntity
  8
AS-ABST MAG STRONG DIPOLAR
100
AcDbPolyline
 90
        2
 70
     1
 43
0.5
 10
453159.5888941716
 20
196430.5424327624
 42
1.0
 10
453159.0888941716
 20
196430.5424327624
 42
1.0
  0
LWPOLYLINE
  5
3AC
330
1F
100
AcDbEntity
  8
AS-ABST MAG STRONG DIPOLAR
100
AcDbPolyline
 90
        2
 70
     1
 43
0.25
 10
453150.8115731029
 20
196402.5100031758
 42
1.0
 10
453150.5615731029
 20
196402.5100031758
 42
1.0
  0
LWPOLYLINE
  5
3AD
330
1F
100
AcDbEntity
  8
AS-ABST MAG STRONG DIPOLAR
100
AcDbPolyline
 90
        2
 70
     1
 43
0.25
 10
453133.3314543754
 20
196402.6640130324
 42
1.0
 10
453133.0814543754
 20
196402.6640130324
 42
1.0
  0
LWPOLYLINE
  5
3AE
330
1F
100
AcDbEntity
  8
AS-ABST MAG STRONG DIPOLAR
100
AcDbPolyline
 90
        2
 70
     1
 43
0.25
 10
453133.6394740886
 20
196400.8158947528
 42
1.0
 10
453133.3894740886
 20
196400.8158947528
 42
1.0
  0
LWPOLYLINE
  5
3AF
330
1F
100
AcDbEntity
  8
AS-ABST MAG STRONG DIPOLAR
100
AcDbPolyline
 90
        2
 70
     1
 43
0.25
 10
453126.4780157553
 20
196395.733569484
 42
1.0
 10
453126.2280157553
 20
196395.733569484
 42
1.0
  0
LWPOLYLINE
  5
3B0
330
1F
100
AcDbEntity
  8
AS-ABST MAG STRONG DIPOLAR
100
AcDbPolyline
 90
        2
 70
     1
 43
0.25
 10
453128.3261340349
 20
196399.2757961865
 42
1.0
 10
453128.0761340349
 20
196399.2757961865
 42
1.0
  0
LWPOLYLINE
  5
3B1
330
1F
100
AcDbEntity
  8
AS-ABST MAG STRONG DIPOLAR
100
AcDbPolyline
 90
        2
 70
     1
 43
0.25
 10
453136.411651508
 20
196397.7356976202
 42
1.0
 10
453136.161651508
 20
196397.7356976202
 42
1.0
  0
LWPOLYLINE
  5
3B2
330
1F
100
AcDbEntity
  8
AS-ABST MAG STRONG DIPOLAR
100
AcDbPolyline
 90
        2
 70
     1
 43
0.25
 10
453142.4950408449
 20
196398.7367616883
 42
1.0
 10
453142.2450408449
 20
196398.7367616883
 42
1.0
  0
LWPOLYLINE
  5
3B3
330
1F
100
AcDbEntity
  8
AS-ABST MAG STRONG DIPOLAR
100
AcDbPolyline
 90
        2
 70
     1
 43
0.25
 10
453143.9581344829
 20
196398.8137666166
 42
1.0
 10
453143.7081344829
 20
196398.8137666166
 42
1.0
  0
LWPOLYLINE
  5
3B4
330
1F
100
AcDbEntity
  8
AS-ABST MAG STRONG DIPOLAR
100
AcDbPolyline
 90
        2
 70
     1
 43
0.25
 10
453143.5731098413
 20
196387.4940421543
 42
1.0
 10
453143.3231098413
 20
196387.4940421543
 42
1.0
  0
LWPOLYLINE
  5
3B5
330
1F
100
AcDbEntity
  8
AS-ABST MAG STRONG DIPOLAR
100
AcDbPolyline
 90
        2
 70
     1
 43
0.25
 10
453138.5677895008
 20
196387.9560717242
 42
1.0
 10
453138.3177895008
 20
196387.9560717242
 42
1.0
  0
LWPOLYLINE
  5
3B6
330
1F
100
AcDbEntity
  8
AS-ABST MAG STRONG DIPOLAR
100
AcDbPolyline
 90
        2
 70
     1
 43
0.25
 10
453129.1731882463
 20
196381.6416676023
 42
1.0
 10
453128.9231882463
 20
196381.6416676023
 42
1.0
  0
LWPOLYLINE
  5
3B7
330
1F
100
AcDbEntity
  8
AS-ABST MAG STRONG DIPOLAR
100
AcDbPolyline
 90
        2
 70
     1
 43
0.25
 10
453128.8651685331
 20
196379.6395394661
 42
1.0
 10
453128.6151685331
 20
196379.6395394661
 42
1.0
  0
LWPOLYLINE
  5
3B8
330
1F
100
AcDbEntity
  8
AS-ABST MAG STRONG DIPOLAR
100
AcDbPolyline
 90
        2
 70
     1
 43
0.25
 10
453131.8683607374
 20
196382.0266922439
 42
1.0
 10
453131.6183607374
 20
196382.0266922439
 42
1.0
  0
LWPOLYLINE
  5
3B9
330
1F
100
AcDbEntity
  8
AS-ABST MAG STRONG DIPOLAR
100
AcDbPolyline
 90
        2
 70
     1
 43
0.25
 10
453128.5571488198
 20
196385.722928803
 42
1.0
 10
453128.3071488198
 20
196385.722928803
 42
1.0
  0
LWPOLYLINE
  5
3BA
330
1F
100
AcDbEntity
  8
AS-ABST MAG STRONG DIPOLAR
100
AcDbPolyline
 90
        2
 70
     1
 43
0.25
 10
453138.6447944291
 20
196378.638475398
 42
1.0
 10
453138.3947944291
 20
196378.638475398
 42
1.0
  0
LWPOLYLINE
  5
3BB
330
1F
100
AcDbEntity
  8
AS-ABST MAG STRONG DIPOLAR
100
AcDbPolyline
 90
        2
 70
     1
 43
0.25
 10
453137.643730361
 20
196377.17538176
 42
1.0
 10
453137.393730361
 20
196377.17538176
 42
1.0
  0
LWPOLYLINE
  5
3BC
330
1F
100
AcDbEntity
  8
AS-ABST MAG STRONG DIPOLAR
100
AcDbPolyline
 90
        2
 70
     1
 43
0.25
 10
453131.6373459524
 20
196376.6363472618
 42
1.0
 10
453131.3873459524
 20
196376.6363472618
 42
1.0
  0
LWPOLYLINE
  5
3BD
330
1F
100
AcDbEntity
  8
AS-ABST MAG STRONG DIPOLAR
100
AcDbPolyline
 90
        2
 70
     1
 43
0.25
 10
453135.1025677266
 20
196372.4780811328
 42
1.0
 10
453134.8525677266
 20
196372.4780811328
 42
1.0
  0
LWPOLYLINE
  5
3BE
330
1F
100
AcDbEntity
  8
AS-ABST MAG STRONG DIPOLAR
100
AcDbPolyline
 90
        2
 70
     1
 43
0.25
 10
453141.1089521353
 20
196367.2417460073
 42
1.0
 10
453140.8589521353
 20
196367.2417460073
 42
1.0
  0
LWPOLYLINE
  5
3BF
330
1F
100
AcDbEntity
  8
AS-ABST MAG STRONG DIPOLAR
100
AcDbPolyline
 90
        2
 70
     1
 43
0.25
 10
453142.4180359166
 20
196369.3208790718
 42
1.0
 10
453142.1680359166
 20
196369.3208790718
 42
1.0
  0
LWPOLYLINE
  5
3C0
330
1F
100
AcDbEntity
  8
AS-ABST MAG STRONG DIPOLAR
100
AcDbPolyline
 90
        2
 70
     1
 43
0.25
 10
453145.1132084077
 20
196373.4791452008
 42
1.0
 10
453144.8632084077
 20
196373.4791452008
 42
1.0
  0
LWPOLYLINE
  5
3C1
330
1F
100
AcDbEntity
  8
AS-ABST MAG STRONG DIPOLAR
100
AcDbPolyline
 90
        2
 70
     1
 43
0.25
 10
453146.3452872607
 20
196370.7069677815
 42
1.0
 10
453146.0952872607
 20
196370.7069677815
 42
1.0
  0
LWPOLYLINE
  5
3C2
330
1F
100
AcDbEntity
  8
AS-ABST MAG STRONG DIPOLAR
100
AcDbPolyline
 90
        2
 70
     1
 43
0.25
 10
453154.8158293753
 20
196382.796741527
 42
1.0
 10
453154.5658293753
 20
196382.796741527
 42
1.0
  0
LWPOLYLINE
  5
3C3
330
1F
100
AcDbEntity
  8
AS-ABST MAG STRONG DIPOLAR
100
AcDbPolyline
 90
        2
 70
     1
 43
0.25
 10
453158.7430807194
 20
196380.7946133908
 42
1.0
 10
453158.4930807194
 20
196380.7946133908
 42
1.0
  0
LWPOLYLINE
  5
3C4
330
1F
100
AcDbEntity
  8
AS-ABST MAG STRONG DIPOLAR
100
AcDbPolyline
 90
        2
 70
     1
 43
0.25
 10
453160.6682039273
 20
196380.7176084625
 42
1.0
 10
453160.4182039273
 20
196380.7176084625
 42
1.0
  0
LWPOLYLINE
  5
3C5
330
1F
100
AcDbEntity
  8
AS-ABST MAG STRONG DIPOLAR
100
AcDbPolyline
 90
        2
 70
     1
 43
0.25
 10
453164.2104306298
 20
196379.870554251
 42
1.0
 10
453163.9604306298
 20
196379.870554251
 42
1.0
  0
LWPOLYLINE
  5
3C6
330
1F
100
AcDbEntity
  8
AS-ABST MAG STRONG DIPOLAR
100
AcDbPolyline
 90
        2
 70
     1
 43
0.25
 10
453167.1366179058
 20
196380.6406035342
 42
1.0
 10
453166.8866179058
 20
196380.6406035342
 42
1.0
  0
LWPOLYLINE
  5
3C7
330
1F
100
AcDbEntity
  8
AS-ABST MAG STRONG DIPOLAR
100
AcDbPolyline
 90
        2
 70
     1
 43
0.25
 10
453167.2906277624
 20
196388.8031259356
 42
1.0
 10
453167.0406277624
 20
196388.8031259356
 42
1.0
  0
LWPOLYLINE
  5
3C8
330
1F
100
AcDbEntity
  8
AS-ABST MAG STRONG DIPOLAR
100
AcDbPolyline
 90
        2
 70
     1
 43
0.25
 10
453170.8328544649
 20
196387.3400322976
 42
1.0
 10
453170.5828544649
 20
196387.3400322976
 42
1.0
  0
LWPOLYLINE
  5
3C9
330
1F
100
AcDbEntity
  8
AS-ABST MAG STRONG DIPOLAR
100
AcDbPolyline
 90
        2
 70
     1
 43
0.25
 10
453168.3686967588
 20
196384.259835165
 42
1.0
 10
453168.1186967588
 20
196384.259835165
 42
1.0
  0
LWPOLYLINE
  5
3CA
330
1F
100
AcDbEntity
  8
AS-ABST MAG STRONG DIPOLAR
100
AcDbPolyline
 90
        2
 70
     1
 43
0.25
 10
453171.1408741782
 20
196382.5657267421
 42
1.0
 10
453170.8908741782
 20
196382.5657267421
 42
1.0
  0
LWPOLYLINE
  5
3CB
330
1F
100
AcDbEntity
  8
AS-ABST MAG STRONG DIPOLAR
100
AcDbPolyline
 90
        2
 70
     1
 43
0.25
 10
453176.9162438018
 20
196382.9507513836
 42
1.0
 10
453176.6662438018
 20
196382.9507513836
 42
1.0
  0
LWPOLYLINE
  5
3CC
330
1F
100
AcDbEntity
  8
AS-ABST MAG STRONG DIPOLAR
100
AcDbPolyline
 90
        2
 70
     1
 43
0.25
 10
453176.7622339452
 20
196384.3368400933
 42
1.0
 10
453176.5122339452
 20
196384.3368400933
 42
1.0
  0
LWPOLYLINE
  5
3CD
330
1F
100
AcDbEntity
  8
AS-ABST MAG STRONG DIPOLAR
100
AcDbPolyline
 90
        2
 70
     1
 43
0.25
 10
453189.2370323323
 20
196390.1892146453
 42
1.0
 10
453188.9870323323
 20
196390.1892146453
 42
1.0
  0
LWPOLYLINE
  5
3CE
330
1F
100
AcDbEntity
  8
AS-ABST MAG STRONG DIPOLAR
100
AcDbPolyline
 90
        2
 70
     1
 43
0.25
 10
453191.4701752535
 20
196394.9635202009
 42
1.0
 10
453191.2201752535
 20
196394.9635202009
 42
1.0
  0
LWPOLYLINE
  5
3CF
330
1F
100
AcDbEntity
  8
AS-ABST MAG STRONG DIPOLAR
100
AcDbPolyline
 90
        2
 70
     1
 43
0.25
 10
453200.4797518664
 20
196393.7314413478
 42
1.0
 10
453200.2297518664
 20
196393.7314413478
 42
1.0
  0
LWPOLYLINE
  5
3D0
330
1F
100
AcDbEntity
  8
AS-ABST MAG STRONG DIPOLAR
100
AcDbPolyline
 90
        2
 70
     1
 43
0.25
 10
453198.2466089452
 20
196389.4961702905
 42
1.0
 10
453197.9966089452
 20
196389.4961702905
 42
1.0
  0
LWPOLYLINE
  5
3D1
330
1F
100
AcDbEntity
  8
AS-ABST MAG STRONG DIPOLAR
100
AcDbPolyline
 90
        2
 70
     1
 43
0.25
 10
453202.5588849309
 20
196378.2534507564
 42
1.0
 10
453202.3088849309
 20
196378.2534507564
 42
1.0
  0
LWPOLYLINE
  5
3D2
330
1F
100
AcDbEntity
  8
AS-ABST MAG STRONG DIPOLAR
100
AcDbPolyline
 90
        2
 70
     1
 43
0.25
 10
453208.8732890527
 20
196383.1817661686
 42
1.0
 10
453208.6232890527
 20
196383.1817661686
 42
1.0
  0
LWPOLYLINE
  5
3D3
330
1F
100
AcDbEntity
  8
AS-ABST MAG STRONG DIPOLAR
100
AcDbPolyline
 90
        2
 70
     1
 43
0.25
 10
453211.876481257
 20
196383.9518154518
 42
1.0
 10
453211.626481257
 20
196383.9518154518
 42
1.0
  0
LWPOLYLINE
  5
3D4
330
1F
100
AcDbEntity
  8
AS-ABST MAG STRONG DIPOLAR
100
AcDbPolyline
 90
        2
 70
     1
 43
0.25
 10
453213.5705896799
 20
196384.5678548783
 42
1.0
 10
453213.3205896799
 20
196384.5678548783
 42
1.0
  0
LWPOLYLINE
  5
3D5
330
1F
100
AcDbEntity
  8
AS-ABST MAG STRONG DIPOLAR
100
AcDbPolyline
 90
        2
 70
     1
 43
0.25
 10
453219.4229642319
 20
196381.8726823873
 42
1.0
 10
453219.1729642319
 20
196381.8726823873
 42
1.0
  0
LWPOLYLINE
  5
3D6
330
1F
100
AcDbEntity
  8
AS-ABST MAG STRONG DIPOLAR
100
AcDbPolyline
 90
        2
 70
     1
 43
0.25
 10
453226.3534077803
 20
196385.8769386597
 42
1.0
 10
453226.1034077803
 20
196385.8769386597
 42
1.0
  0
LWPOLYLINE
  5
3D7
330
1F
100
AcDbEntity
  8
AS-ABST MAG STRONG DIPOLAR
100
AcDbPolyline
 90
        2
 70
     1
 43
0.25
 10
453190.0840865438
 20
196367.7807805055
 42
1.0
 10
453189.8340865438
 20
196367.7807805055
 42
1.0
  0
LWPOLYLINE
  5
3D8
330
1F
100
AcDbEntity
  8
AS-ABST MAG STRONG DIPOLAR
100
AcDbPolyline
 90
        2
 70
     1
 43
0.25
 10
453184.0006972069
 20
196367.0877361507
 42
1.0
 10
453183.7506972069
 20
196367.0877361507
 42
1.0
  0
LWPOLYLINE
  5
3D9
330
1F
100
AcDbEntity
  8
AS-ABST MAG STRONG DIPOLAR
100
AcDbPolyline
 90
        2
 70
     1
 43
0.25
 10
453184.0006972069
 20
196363.5455094482
 42
1.0
 10
453183.7506972069
 20
196363.5455094482
 42
1.0
  0
LWPOLYLINE
  5
3DA
330
1F
100
AcDbEntity
  8
AS-ABST MAG STRONG DIPOLAR
100
AcDbPolyline
 90
        2
 70
     1
 43
0.25
 10
453176.7622339452
 20
196368.8588495019
 42
1.0
 10
453176.5122339452
 20
196368.8588495019
 42
1.0
  0
LWPOLYLINE
  5
3DB
330
1F
100
AcDbEntity
  8
AS-ABST MAG STRONG DIPOLAR
100
AcDbPolyline
 90
        2
 70
     1
 43
0.25
 10
453180.9205000742
 20
196357.5391250396
 42
1.0
 10
453180.6705000742
 20
196357.5391250396
 42
1.0
  0
LWPOLYLINE
  5
3DC
330
1F
100
AcDbEntity
  8
AS-ABST MAG STRONG DIPOLAR
100
AcDbPolyline
 90
        2
 70
     1
 43
0.25
 10
453180.9205000742
 20
196358.3861792511
 42
1.0
 10
453180.6705000742
 20
196358.3861792511
 42
1.0
  0
LWPOLYLINE
  5
3DD
330
1F
100
AcDbEntity
  8
AS-ABST MAG STRONG DIPOLAR
100
AcDbPolyline
 90
        2
 70
     1
 43
0.25
 10
453179.0723817947
 20
196357.2311053263
 42
1.0
 10
453178.8223817947
 20
196357.2311053263
 42
1.0
  0
LWPOLYLINE
  5
3DE
330
1F
100
AcDbEntity
  8
AS-ABST MAG STRONG DIPOLAR
100
AcDbPolyline
 90
        2
 70
     1
 43
0.25
 10
453180.9205000742
 20
196353.9968983371
 42
1.0
 10
453180.6705000742
 20
196353.9968983371
 42
1.0
  0
LWPOLYLINE
  5
3DF
330
1F
100
AcDbEntity
  8
AS-ABST MAG STRONG DIPOLAR
100
AcDbPolyline
 90
        2
 70
     1
 43
0.25
 10
453180.8434951459
 20
196355.9990264733
 42
1.0
 10
453180.5934951459
 20
196355.9990264733
 42
1.0
  0
LWPOLYLINE
  5
3E0
330
1F
100
AcDbEntity
  8
AS-ABST MAG STRONG DIPOLAR
100
AcDbPolyline
 90
        2
 70
     1
 43
0.25
 10
453172.4499579595
 20
196362.0054108819
 42
1.0
 10
453172.1999579595
 20
196362.0054108819
 42
1.0
  0
LWPOLYLINE
  5
3E1
330
1F
100
AcDbEntity
  8
AS-ABST MAG STRONG DIPOLAR
100
AcDbPolyline
 90
        2
 70
     1
 43
0.25
 10
453158.9740955043
 20
196363.8535291614
 42
1.0
 10
453158.7240955043
 20
196363.8535291614
 42
1.0
  0
LWPOLYLINE
  5
3E2
330
1F
100
AcDbEntity
  8
AS-ABST MAG STRONG DIPOLAR
100
AcDbPolyline
 90
        2
 70
     1
 43
0.25
 10
453154.5848145903
 20
196366.7027115091
 42
1.0
 10
453154.3348145903
 20
196366.7027115091
 42
1.0
  0
LWPOLYLINE
  5
3E3
330
1F
100
AcDbEntity
  8
AS-ABST MAG STRONG DIPOLAR
100
AcDbPolyline
 90
        2
 70
     1
 43
0.25
 10
453148.9634548234
 20
196373.8641698425
 42
1.0
 10
453148.7134548234
 20
196373.8641698425
 42
1.0
  0
LWPOLYLINE
  5
3E4
330
1F
100
AcDbEntity
  8
AS-ABST MAG STRONG DIPOLAR
100
AcDbPolyline
 90
        2
 70
     1
 43
0.25
 10
453128.634153748
 20
196367.164741079
 42
1.0
 10
453128.384153748
 20
196367.164741079
 42
1.0
  0
LWPOLYLINE
  5
3E5
330
1F
100
AcDbEntity
  8
AS-ABST MAG STRONG DIPOLAR
100
AcDbPolyline
 90
        2
 70
     1
 43
0.25
 10
453126.4010108268
 20
196367.3187509356
 42
1.0
 10
453126.1510108268
 20
196367.3187509356
 42
1.0
  0
LWPOLYLINE
  5
3E6
330
1F
100
AcDbEntity
  8
AS-ABST MAG STRONG DIPOLAR
100
AcDbPolyline
 90
        2
 70
     1
 43
0.25
 10
453125.1689319737
 20
196369.4748889285
 42
1.0
 10
453124.9189319737
 20
196369.4748889285
 42
1.0
  0
LWPOLYLINE
  5
3E7
330
1F
100
AcDbEntity
  8
AS-ABST MAG STRONG DIPOLAR
100
AcDbPolyline
 90
        2
 70
     1
 43
0.25
 10
453123.7828432641
 20
196376.0973127636
 42
1.0
 10
453123.5328432641
 20
196376.0973127636
 42
1.0
  0
LWPOLYLINE
  5
3E8
330
1F
100
AcDbEntity
  8
AS-ABST MAG STRONG DIPOLAR
100
AcDbPolyline
 90
        2
 70
     1
 43
0.25
 10
453117.7764588555
 20
196367.0877361507
 42
1.0
 10
453117.5264588555
 20
196367.0877361507
 42
1.0
  0
LWPOLYLINE
  5
3E9
330
1F
100
AcDbEntity
  8
AS-ABST MAG STRONG DIPOLAR
100
AcDbPolyline
 90
        2
 70
     1
 43
0.25
 10
453117.7764588555
 20
196364.8545932296
 42
1.0
 10
453117.5264588555
 20
196364.8545932296
 42
1.0
  0
LWPOLYLINE
  5
3EA
330
1F
100
AcDbEntity
  8
AS-ABST MAG STRONG DIPOLAR
100
AcDbPolyline
 90
        2
 70
     1
 43
0.25
 10
453115.3123011494
 20
196364.8545932296
 42
1.0
 10
453115.0623011494
 20
196364.8545932296
 42
1.0
  0
LWPOLYLINE
  5
3EB
330
1F
100
AcDbEntity
  8
AS-ABST MAG STRONG DIPOLAR
100
AcDbPolyline
 90
        2
 70
     1
 43
0.25
 10
453115.6203208627
 20
196368.9358544303
 42
1.0
 10
453115.3703208627
 20
196368.9358544303
 42
1.0
  0
LWPOLYLINE
  5
3EC
330
1F
100
AcDbEntity
  8
AS-ABST MAG STRONG DIPOLAR
100
AcDbPolyline
 90
        2
 70
     1
 43
0.25
 10
453120.086606705
 20
196380.2555788926
 42
1.0
 10
453119.836606705
 20
196380.2555788926
 42
1.0
  0
LWPOLYLINE
  5
3ED
330
1F
100
AcDbEntity
  8
AS-ABST MAG STRONG DIPOLAR
100
AcDbPolyline
 90
        2
 70
     1
 43
0.25
 10
453120.0096017767
 20
196382.1807021005
 42
1.0
 10
453119.7596017767
 20
196382.1807021005
 42
1.0
  0
LWPOLYLINE
  5
3EE
330
1F
100
AcDbEntity
  8
AS-ABST MAG STRONG DIPOLAR
100
AcDbPolyline
 90
        2
 70
     1
 43
0.25
 10
453120.086606705
 20
196382.5657267421
 42
1.0
 10
453119.836606705
 20
196382.5657267421
 42
1.0
  0
LWPOLYLINE
  5
3EF
330
1F
100
AcDbEntity
  8
AS-ABST MAG STRONG DIPOLAR
100
AcDbPolyline
 90
        2
 70
     1
 43
0.25
 10
453122.1657397695
 20
196381.333647889
 42
1.0
 10
453121.9157397695
 20
196381.333647889
 42
1.0
  0
LWPOLYLINE
  5
3F0
330
1F
100
AcDbEntity
  8
AS-ABST MAG STRONG DIPOLAR
100
AcDbPolyline
 90
        2
 70
     1
 43
0.25
 10
453118.3154933537
 20
196376.4053324768
 42
1.0
 10
453118.0654933537
 20
196376.4053324768
 42
1.0
  0
LWPOLYLINE
  5
3F1
330
1F
100
AcDbEntity
  8
AS-ABST MAG STRONG DIPOLAR
100
AcDbPolyline
 90
        2
 70
     1
 43
0.25
 10
453128.5571488197
 20
196396.4266138389
 42
1.0
 10
453128.3071488197
 20
196396.4266138389
 42
1.0
  0
LWPOLYLINE
  5
3F2
330
1F
100
AcDbEntity
  8
AS-ABST MAG STRONG DIPOLAR
100
AcDbPolyline
 90
        2
 70
     1
 43
0.25
 10
453129.7892276727
 20
196389.3421604339
 42
1.0
 10
453129.5392276727
 20
196389.3421604339
 42
1.0
  0
LWPOLYLINE
  5
3F3
330
1F
100
AcDbEntity
  8
AS-ABST MAG STRONG DIPOLAR
100
AcDbPolyline
 90
        2
 70
     1
 43
0.25
 10
453131.0983114541
 20
196364.0075390181
 42
1.0
 10
453130.8483114541
 20
196364.0075390181
 42
1.0
  0
LWPOLYLINE
  5
3F4
330
1F
100
AcDbEntity
  8
AS-ABST MAG STRONG DIPOLAR
100
AcDbPolyline
 90
        2
 70
     1
 43
0.25
 10
453130.8672966691
 20
196356.0760314016
 42
1.0
 10
453130.6172966691
 20
196356.0760314016
 42
1.0
  0
LWPOLYLINE
  5
3F5
330
1F
100
AcDbEntity
  8
AS-ABST MAG STRONG DIPOLAR
100
AcDbPolyline
 90
        2
 70
     1
 43
0.25
 10
453129.6352178161
 20
196353.3808589105
 42
1.0
 10
453129.3852178161
 20
196353.3808589105
 42
1.0
  0
LWPOLYLINE
  5
3F6
330
1F
100
AcDbEntity
  8
AS-ABST MAG STRONG DIPOLAR
100
AcDbPolyline
 90
        2
 70
     1
 43
0.25
 10
453130.9443015974
 20
196352.3797948425
 42
1.0
 10
453130.6943015974
 20
196352.3797948425
 42
1.0
  0
LWPOLYLINE
  5
3F7
330
1F
100
AcDbEntity
  8
AS-ABST MAG STRONG DIPOLAR
100
AcDbPolyline
 90
        2
 70
     1
 43
0.25
 10
453139.1838289272
 20
196352.9188293406
 42
1.0
 10
453138.9338289272
 20
196352.9188293406
 42
1.0
  0
LWPOLYLINE
  5
3F8
330
1F
100
AcDbEntity
  8
AS-ABST MAG STRONG DIPOLAR
100
AcDbPolyline
 90
        2
 70
     1
 43
0.25
 10
453141.33996692
 20
196357.7701398245
 42
1.0
 10
453141.08996692
 20
196357.7701398245
 42
1.0
  0
LWPOLYLINE
  5
3F9
330
1F
100
AcDbEntity
  8
AS-ABST MAG STRONG DIPOLAR
100
AcDbPolyline
 90
        2
 70
     1
 43
0.25
 10
453141.4939767767
 20
196365.0856080145
 42
1.0
 10
453141.2439767767
 20
196365.0856080145
 42
1.0
  0
LWPOLYLINE
  5
3FA
330
1F
100
AcDbEntity
  8
AS-ABST MAG STRONG DIPOLAR
100
AcDbPolyline
 90
        2
 70
     1
 43
0.25
 10
453149.1944696083
 20
196351.532740631
 42
1.0
 10
453148.9444696083
 20
196351.532740631
 42
1.0
  0
LWPOLYLINE
  5
3FB
330
1F
100
AcDbEntity
  8
AS-ABST MAG STRONG DIPOLAR
100
AcDbPolyline
 90
        2
 70
     1
 43
0.25
 10
453148.3474153968
 20
196351.3787307744
 42
1.0
 10
453148.0974153968
 20
196351.3787307744
 42
1.0
  0
LWPOLYLINE
  5
3FC
330
1F
100
AcDbEntity
  8
AS-ABST MAG STRONG DIPOLAR
100
AcDbPolyline
 90
        2
 70
     1
 43
0.25
 10
453148.1934055401
 20
196353.4578638389
 42
1.0
 10
453147.9434055401
 20
196353.4578638389
 42
1.0
  0
LWPOLYLINE
  5
3FD
330
1F
100
AcDbEntity
  8
AS-ABST MAG STRONG DIPOLAR
100
AcDbPolyline
 90
        2
 70
     1
 43
0.25
 10
453153.8147653071
 20
196355.5369969034
 42
1.0
 10
453153.5647653071
 20
196355.5369969034
 42
1.0
  0
LWPOLYLINE
  5
3FE
330
1F
100
AcDbEntity
  8
AS-ABST MAG STRONG DIPOLAR
100
AcDbPolyline
 90
        2
 70
     1
 43
0.25
 10
453152.8137012391
 20
196359.0022186776
 42
1.0
 10
453152.5637012391
 20
196359.0022186776
 42
1.0
  0
LWPOLYLINE
  5
3FF
330
1F
100
AcDbEntity
  8
AS-ABST MAG STRONG DIPOLAR
100
AcDbPolyline
 90
        2
 70
     1
 43
0.25
 10
453148.1164006118
 20
196349.0685829249
 42
1.0
 10
453147.8664006118
 20
196349.0685829249
 42
1.0
  0
LWPOLYLINE
  5
400
330
1F
100
AcDbEntity
  8
AS-ABST MAG STRONG DIPOLAR
100
AcDbPolyline
 90
        2
 70
     1
 43
0.25
 10
453153.5837505222
 20
196346.4504153622
 42
1.0
 10
453153.3337505222
 20
196346.4504153622
 42
1.0
  0
LWPOLYLINE
  5
401
330
1F
100
AcDbEntity
  8
AS-ABST MAG STRONG DIPOLAR
100
AcDbPolyline
 90
        2
 70
     1
 43
0.25
 10
453155.5858786584
 20
196341.1370753084
 42
1.0
 10
453155.3358786584
 20
196341.1370753084
 42
1.0
  0
LWPOLYLINE
  5
402
330
1F
100
AcDbEntity
  8
AS-ABST MAG STRONG DIPOLAR
100
AcDbPolyline
 90
        2
 70
     1
 43
0.25
 10
453166.7515932641
 20
196336.2087598962
 42
1.0
 10
453166.5015932641
 20
196336.2087598962
 42
1.0
  0
LWPOLYLINE
  5
403
330
1F
100
AcDbEntity
  8
AS-ABST MAG STRONG DIPOLAR
100
AcDbPolyline
 90
        2
 70
     1
 43
0.25
 10
453170.13981011
 20
196336.0547500396
 42
1.0
 10
453169.88981011
 20
196336.0547500396
 42
1.0
  0
LWPOLYLINE
  5
404
330
1F
100
AcDbEntity
  8
AS-ABST MAG STRONG DIPOLAR
100
AcDbPolyline
 90
        2
 70
     1
 43
0.25
 10
453180.9205000742
 20
196348.1445237851
 42
1.0
 10
453180.6705000742
 20
196348.1445237851
 42
1.0
  0
LWPOLYLINE
  5
405
330
1F
100
AcDbEntity
  8
AS-ABST MAG STRONG DIPOLAR
100
AcDbPolyline
 90
        2
 70
     1
 43
0.25
 10
453183.076638067
 20
196350.9937061328
 42
1.0
 10
453182.826638067
 20
196350.9937061328
 42
1.0
  0
LWPOLYLINE
  5
406
330
1F
100
AcDbEntity
  8
AS-ABST MAG STRONG DIPOLAR
100
AcDbPolyline
 90
        2
 70
     1
 43
0.25
 10
453183.5386676369
 20
196345.8343759357
 42
1.0
 10
453183.2886676369
 20
196345.8343759357
 42
1.0
  0
LWPOLYLINE
  5
407
330
1F
100
AcDbEntity
  8
AS-ABST MAG STRONG DIPOLAR
100
AcDbPolyline
 90
        2
 70
     1
 43
0.25
 10
453180.3814655759
 20
196335.4387106131
 42
1.0
 10
453180.1314655759
 20
196335.4387106131
 42
1.0
  0
LWPOLYLINE
  5
408
330
1F
100
AcDbEntity
  8
AS-ABST MAG STRONG DIPOLAR
100
AcDbPolyline
 90
        2
 70
     1
 43
0.25
 10
453168.3686967588
 20
196326.5061389285
 42
1.0
 10
453168.1186967588
 20
196326.5061389285
 42
1.0
  0
LWPOLYLINE
  5
409
330
1F
100
AcDbEntity
  8
AS-ABST MAG STRONG DIPOLAR
100
AcDbPolyline
 90
        2
 70
     1
 43
0.25
 10
453173.6820368125
 20
196326.89116357
 42
1.0
 10
453173.4320368125
 20
196326.89116357
 42
1.0
  0
LWPOLYLINE
  5
40A
330
1F
100
AcDbEntity
  8
AS-ABST MAG STRONG DIPOLAR
100
AcDbPolyline
 90
        2
 70
     1
 43
0.25
 10
453153.8147653072
 20
196321.5008185879
 42
1.0
 10
453153.5647653072
 20
196321.5008185879
 42
1.0
  0
LWPOLYLINE
  5
40B
330
1F
100
AcDbEntity
  8
AS-ABST MAG STRONG DIPOLAR
100
AcDbPolyline
 90
        2
 70
     1
 43
0.25
 10
453157.8190215796
 20
196315.3404243227
 42
1.0
 10
453157.5690215796
 20
196315.3404243227
 42
1.0
  0
LWPOLYLINE
  5
40C
330
1F
100
AcDbEntity
  8
AS-ABST MAG STRONG DIPOLAR
100
AcDbPolyline
 90
        2
 70
     1
 43
0.25
 10
453159.8211497157
 20
196321.269803803
 42
1.0
 10
453159.5711497157
 20
196321.269803803
 42
1.0
  0
LWPOLYLINE
  5
40D
330
1F
100
AcDbEntity
  8
AS-ABST MAG STRONG DIPOLAR
100
AcDbPolyline
 90
        2
 70
     1
 43
0.25
 10
453136.9506860061
 20
196332.6665331937
 42
1.0
 10
453136.7006860061
 20
196332.6665331937
 42
1.0
  0
LWPOLYLINE
  5
40E
330
1F
100
AcDbEntity
  8
AS-ABST MAG STRONG DIPOLAR
100
AcDbPolyline
 90
        2
 70
     1
 43
0.25
 10
453128.4801438914
 20
196337.7488584625
 42
1.0
 10
453128.2301438914
 20
196337.7488584625
 42
1.0
  0
LWPOLYLINE
  5
40F
330
1F
100
AcDbEntity
  8
AS-ABST MAG STRONG DIPOLAR
100
AcDbPolyline
 90
        2
 70
     1
 43
0.25
 10
453118.0844785688
 20
196347.3744745019
 42
1.0
 10
453117.8344785688
 20
196347.3744745019
 42
1.0
  0
LWPOLYLINE
  5
410
330
1F
100
AcDbEntity
  8
AS-ABST MAG STRONG DIPOLAR
100
AcDbPolyline
 90
        2
 70
     1
 43
0.25
 10
453119.0855426369
 20
196351.301725846
 42
1.0
 10
453118.8355426369
 20
196351.301725846
 42
1.0
  0
LWPOLYLINE
  5
411
330
1F
100
AcDbEntity
  8
AS-ABST MAG STRONG DIPOLAR
100
AcDbPolyline
 90
        2
 70
     1
 43
0.25
 10
453122.5507644111
 20
196343.5242280862
 42
1.0
 10
453122.3007644111
 20
196343.5242280862
 42
1.0
  0
LWPOLYLINE
  5
412
330
1F
100
AcDbEntity
  8
AS-ABST MAG STRONG DIPOLAR
100
AcDbPolyline
 90
        2
 70
     1
 43
0.25
 10
453122.0117299128
 20
196319.4986904517
 42
1.0
 10
453121.7617299128
 20
196319.4986904517
 42
1.0
  0
LWPOLYLINE
  5
413
330
1F
100
AcDbEntity
  8
AS-ABST MAG STRONG DIPOLAR
100
AcDbPolyline
 90
        2
 70
     1
 43
0.25
 10
453120.3176214899
 20
196319.8837150933
 42
1.0
 10
453120.0676214899
 20
196319.8837150933
 42
1.0
  0
LWPOLYLINE
  5
414
330
1F
100
AcDbEntity
  8
AS-ABST MAG STRONG DIPOLAR
100
AcDbPolyline
 90
        2
 70
     1
 43
0.25
 10
453115.7743307193
 20
196318.4976263837
 42
1.0
 10
453115.5243307193
 20
196318.4976263837
 42
1.0
  0
LWPOLYLINE
  5
415
330
1F
100
AcDbEntity
  8
AS-ABST MAG STRONG DIPOLAR
100
AcDbPolyline
 90
        2
 70
     1
 43
0.25
 10
453109.844951239
 20
196323.2719319392
 42
1.0
 10
453109.594951239
 20
196323.2719319392
 42
1.0
  0
LWPOLYLINE
  5
416
330
1F
100
AcDbEntity
  8
AS-ABST MAG STRONG DIPOLAR
100
AcDbPolyline
 90
        2
 70
     1
 43
0.25
 10
453109.9219561673
 20
196329.817350846
 42
1.0
 10
453109.6719561673
 20
196329.817350846
 42
1.0
  0
LWPOLYLINE
  5
417
330
1F
100
AcDbEntity
  8
AS-ABST MAG STRONG DIPOLAR
100
AcDbPolyline
 90
        2
 70
     1
 43
0.25
 10
453098.602231705
 20
196328.2772522797
 42
1.0
 10
453098.352231705
 20
196328.2772522797
 42
1.0
  0
LWPOLYLINE
  5
418
330
1F
100
AcDbEntity
  8
AS-ABST MAG STRONG DIPOLAR
100
AcDbPolyline
 90
        2
 70
     1
 43
0.25
 10
453132.6384100204
 20
196313.4153011149
 42
1.0
 10
453132.3884100204
 20
196313.4153011149
 42
1.0
  0
LWPOLYLINE
  5
419
330
1F
100
AcDbEntity
  8
AS-ABST MAG STRONG DIPOLAR
100
AcDbPolyline
 90
        2
 70
     1
 43
0.25
 10
453131.1753163824
 20
196313.2612912582
 42
1.0
 10
453130.9253163824
 20
196313.2612912582
 42
1.0
  0
LWPOLYLINE
  5
41A
330
1F
100
AcDbEntity
  8
AS-ABST MAG STRONG DIPOLAR
100
AcDbPolyline
 90
        2
 70
     1
 43
0.25
 10
453127.3250699666
 20
196313.6463158998
 42
1.0
 10
453127.0750699666
 20
196313.6463158998
 42
1.0
  0
LWPOLYLINE
  5
41B
330
1F
100
AcDbEntity
  8
AS-ABST MAG STRONG DIPOLAR
100
AcDbPolyline
 90
        2
 70
     1
 43
0.25
 10
453149.1944696082
 20
196304.3287195736
 42
1.0
 10
453148.9444696082
 20
196304.3287195736
 42
1.0
  0
LWPOLYLINE
  5
41C
330
1F
100
AcDbEntity
  8
AS-ABST MAG STRONG DIPOLAR
100
AcDbPolyline
 90
        2
 70
     1
 43
0.25
 10
453153.6607554505
 20
196306.5618624948
 42
1.0
 10
453153.4107554505
 20
196306.5618624948
 42
1.0
  0
LWPOLYLINE
  5
41D
330
1F
100
AcDbEntity
  8
AS-ABST MAG STRONG DIPOLAR
100
AcDbPolyline
 90
        2
 70
     1
 43
0.25
 10
453152.8907061673
 20
196307.8709462762
 42
1.0
 10
453152.6407061673
 20
196307.8709462762
 42
1.0
  0
LWPOLYLINE
  5
41E
330
1F
100
AcDbEntity
  8
AS-ABST MAG STRONG DIPOLAR
100
AcDbPolyline
 90
        2
 70
     1
 43
0.25
 10
453169.138746042
 20
196296.9362464553
 42
1.0
 10
453168.888746042
 20
196296.9362464553
 42
1.0
  0
LWPOLYLINE
  5
41F
330
1F
100
AcDbEntity
  8
AS-ABST MAG STRONG DIPOLAR
100
AcDbPolyline
 90
        2
 70
     1
 43
0.25
 10
453176.3772093036
 20
196290.2368176919
 42
1.0
 10
453176.1272093036
 20
196290.2368176919
 42
1.0
  0
LWPOLYLINE
  5
420
330
1F
100
AcDbEntity
  8
AS-ABST MAG STRONG DIPOLAR
100
AcDbPolyline
 90
        2
 70
     1
 43
0.25
 10
453177.6092881567
 20
196289.0817437672
 42
1.0
 10
453177.3592881567
 20
196289.0817437672
 42
1.0
  0
LWPOLYLINE
  5
421
330
1F
100
AcDbEntity
  8
AS-ABST MAG STRONG DIPOLAR
100
AcDbPolyline
 90
        2
 70
     1
 43
0.25
 10
453179.4574064363
 20
196289.6977831937
 42
1.0
 10
453179.2074064363
 20
196289.6977831937
 42
1.0
  0
LWPOLYLINE
  5
422
330
1F
100
AcDbEntity
  8
AS-ABST MAG STRONG DIPOLAR
100
AcDbPolyline
 90
        2
 70
     1
 43
0.25
 10
453178.8413670097
 20
196293.1630049679
 42
1.0
 10
453178.5913670097
 20
196293.1630049679
 42
1.0
  0
LWPOLYLINE
  5
423
330
1F
100
AcDbEntity
  8
AS-ABST MAG STRONG DIPOLAR
100
AcDbPolyline
 90
        2
 70
     1
 43
0.25
 10
453181.0745099309
 20
196292.700975398
 42
1.0
 10
453180.8245099309
 20
196292.700975398
 42
1.0
  0
LWPOLYLINE
  5
424
330
1F
100
AcDbEntity
  8
AS-ABST MAG STRONG DIPOLAR
100
AcDbPolyline
 90
        2
 70
     1
 43
0.25
 10
453185.5407957732
 20
196293.7790443944
 42
1.0
 10
453185.2907957732
 20
196293.7790443944
 42
1.0
  0
LWPOLYLINE
  5
425
330
1F
100
AcDbEntity
  8
AS-ABST MAG STRONG DIPOLAR
100
AcDbPolyline
 90
        2
 70
     1
 43
0.25
 10
453184.0777021351
 20
196292.3159507564
 42
1.0
 10
453183.8277021351
 20
196292.3159507564
 42
1.0
  0
LWPOLYLINE
  5
426
330
1F
100
AcDbEntity
  8
AS-ABST MAG STRONG DIPOLAR
100
AcDbPolyline
 90
        2
 70
     1
 43
0.25
 10
453183.307652852
 20
196290.6988472618
 42
1.0
 10
453183.057652852
 20
196290.6988472618
 42
1.0
  0
LWPOLYLINE
  5
427
330
1F
100
AcDbEntity
  8
AS-ABST MAG STRONG DIPOLAR
100
AcDbPolyline
 90
        2
 70
     1
 43
0.25
 10
453168.5997115438
 20
196292.0849359715
 42
1.0
 10
453168.3497115438
 20
196292.0849359715
 42
1.0
  0
LWPOLYLINE
  5
428
330
1F
100
AcDbEntity
  8
AS-ABST MAG STRONG DIPOLAR
100
AcDbPolyline
 90
        2
 70
     1
 43
0.25
 10
453167.2906277624
 20
196290.6988472618
 42
1.0
 10
453167.0406277624
 20
196290.6988472618
 42
1.0
  0
LWPOLYLINE
  5
429
330
1F
100
AcDbEntity
  8
AS-ABST MAG STRONG DIPOLAR
100
AcDbPolyline
 90
        2
 70
     1
 43
0.25
 10
453162.2083024936
 20
196293.0860000396
 42
1.0
 10
453161.9583024936
 20
196293.0860000396
 42
1.0
  0
LWPOLYLINE
  5
42A
330
1F
100
AcDbEntity
  8
AS-ABST MAG STRONG DIPOLAR
100
AcDbPolyline
 90
        2
 70
     1
 43
0.25
 10
453162.5933271351
 20
196300.8634977994
 42
1.0
 10
453162.3433271351
 20
196300.8634977994
 42
1.0
  0
LWPOLYLINE
  5
42B
330
1F
100
AcDbEntity
  8
AS-ABST MAG STRONG DIPOLAR
100
AcDbPolyline
 90
        2
 70
     1
 43
0.25
 10
453163.2093665617
 20
196300.2474583729
 42
1.0
 10
453162.9593665617
 20
196300.2474583729
 42
1.0
  0
LWPOLYLINE
  5
42C
330
1F
100
AcDbEntity
  8
AS-ABST MAG STRONG DIPOLAR
100
AcDbPolyline
 90
        2
 70
     1
 43
0.25
 10
453160.7452088556
 20
196298.3993400933
 42
1.0
 10
453160.4952088556
 20
196298.3993400933
 42
1.0
  0
LWPOLYLINE
  5
42D
330
1F
100
AcDbEntity
  8
AS-ABST MAG STRONG DIPOLAR
100
AcDbPolyline
 90
        2
 70
     1
 43
0.25
 10
453158.8200856477
 20
196299.4004041614
 42
1.0
 10
453158.5700856477
 20
196299.4004041614
 42
1.0
  0
LWPOLYLINE
  5
42E
330
1F
100
AcDbEntity
  8
AS-ABST MAG STRONG DIPOLAR
100
AcDbPolyline
 90
        2
 70
     1
 43
0.25
 10
453127.5560847516
 20
196310.1810941256
 42
1.0
 10
453127.3060847516
 20
196310.1810941256
 42
1.0
  0
LWPOLYLINE
  5
42F
330
1F
100
AcDbEntity
  8
AS-ABST MAG STRONG DIPOLAR
100
AcDbPolyline
 90
        2
 70
     1
 43
0.25
 10
453126.7090305401
 20
196314.185350398
 42
1.0
 10
453126.4590305401
 20
196314.185350398
 42
1.0
  0
LWPOLYLINE
  5
430
330
1F
100
AcDbEntity
  8
AS-ABST MAG STRONG DIPOLAR
100
AcDbPolyline
 90
        2
 70
     1
 43
0.25
 10
453122.6277693394
 20
196317.2655475306
 42
1.0
 10
453122.3777693394
 20
196317.2655475306
 42
1.0
  0
LWPOLYLINE
  5
431
330
1F
100
AcDbEntity
  8
AS-ABST MAG STRONG DIPOLAR
100
AcDbPolyline
 90
        2
 70
     1
 43
0.25
 10
453126.4780157551
 20
196320.2687397349
 42
1.0
 10
453126.2280157551
 20
196320.2687397349
 42
1.0
  0
LWPOLYLINE
  5
432
330
1F
100
AcDbEntity
  8
AS-ABST MAG STRONG DIPOLAR
100
AcDbPolyline
 90
        2
 70
     1
 43
0.25
 10
453139.1068239989
 20
196316.1874785341
 42
1.0
 10
453138.8568239989
 20
196316.1874785341
 42
1.0
  0
LWPOLYLINE
  5
433
330
1F
100
AcDbEntity
  8
AS-ABST MAG STRONG DIPOLAR
100
AcDbPolyline
 90
        2
 70
     1
 43
0.25
 10
453138.7217993573
 20
196318.1896066703
 42
1.0
 10
453138.4717993573
 20
196318.1896066703
 42
1.0
  0
LWPOLYLINE
  5
434
330
1F
100
AcDbEntity
  8
AS-ABST MAG STRONG DIPOLAR
100
AcDbPolyline
 90
        2
 70
     1
 43
0.25
 10
453139.2608338555
 20
196317.8045820287
 42
1.0
 10
453139.0108338555
 20
196317.8045820287
 42
1.0
  0
LWPOLYLINE
  5
435
330
1F
100
AcDbEntity
  8
AS-ABST MAG STRONG DIPOLAR
100
AcDbPolyline
 90
        2
 70
     1
 43
0.25
 10
453143.7271196978
 20
196314.7243848961
 42
1.0
 10
453143.4771196978
 20
196314.7243848961
 42
1.0
  0
LWPOLYLINE
  5
436
330
1F
100
AcDbEntity
  8
AS-ABST MAG STRONG DIPOLAR
100
AcDbPolyline
 90
        2
 70
     1
 43
0.25
 10
453146.0372675473
 20
196332.3585134804
 42
1.0
 10
453145.7872675473
 20
196332.3585134804
 42
1.0
  0
LWPOLYLINE
  5
437
330
1F
100
AcDbEntity
  8
AS-ABST MAG STRONG DIPOLAR
100
AcDbPolyline
 90
        2
 70
     1
 43
0.25
 10
453145.1902133358
 20
196337.8258633908
 42
1.0
 10
453144.9402133358
 20
196337.8258633908
 42
1.0
  0
LWPOLYLINE
  5
438
330
1F
100
AcDbEntity
  8
AS-ABST MAG STRONG DIPOLAR
100
AcDbPolyline
 90
        2
 70
     1
 43
0.25
 10
453149.4254843931
 20
196337.3638338209
 42
1.0
 10
453149.1754843931
 20
196337.3638338209
 42
1.0
  0
LWPOLYLINE
  5
439
330
1F
100
AcDbEntity
  8
AS-ABST MAG STRONG DIPOLAR
100
AcDbPolyline
 90
        2
 70
     1
 43
0.25
 10
453116.3903701459
 20
196343.0621985163
 42
1.0
 10
453116.1403701459
 20
196343.0621985163
 42
1.0
  0
LWPOLYLINE
  5
43A
330
1F
100
AcDbEntity
  8
AS-ABST MAG STRONG DIPOLAR
100
AcDbPolyline
 90
        2
 70
     1
 43
0.25
 10
453086.0504283896
 20
196351.6867504876
 42
1.0
 10
453085.8004283896
 20
196351.6867504876
 42
1.0
  0
LWPOLYLINE
  5
43B
330
1F
100
AcDbEntity
  8
AS-ABST MAG STRONG DIPOLAR
100
AcDbPolyline
 90
        2
 70
     1
 43
0.25
 10
453076.1937975652
 20
196337.2868288926
 42
1.0
 10
453075.9437975652
 20
196337.2868288926
 42
1.0
  0
LWPOLYLINE
  5
43C
330
1F
100
AcDbEntity
  8
AS-ABST MAG STRONG DIPOLAR
100
AcDbPolyline
 90
        2
 70
     1
 43
0.25
 10
453078.1959257014
 20
196336.901804251
 42
1.0
 10
453077.9459257014
 20
196336.901804251
 42
1.0
  0
LWPOLYLINE
  5
43D
330
1F
100
AcDbEntity
  8
AS-ABST MAG STRONG DIPOLAR
100
AcDbPolyline
 90
        2
 70
     1
 43
0.25
 10
453081.5841425473
 20
196344.0632625844
 42
1.0
 10
453081.3341425473
 20
196344.0632625844
 42
1.0
  0
LWPOLYLINE
  5
43E
330
1F
100
AcDbEntity
  8
AS-ABST MAG STRONG DIPOLAR
100
AcDbPolyline
 90
        2
 70
     1
 43
0.25
 10
453083.3552558985
 20
196342.3691541614
 42
1.0
 10
453083.1052558985
 20
196342.3691541614
 42
1.0
  0
LWPOLYLINE
  5
43F
330
1F
100
AcDbEntity
  8
AS-ABST MAG STRONG DIPOLAR
100
AcDbPolyline
 90
        2
 70
     1
 43
0.25
 10
453088.0525565257
 20
196366.9337262941
 42
1.0
 10
453087.8025565257
 20
196366.9337262941
 42
1.0
  0
LWPOLYLINE
  5
440
330
1F
100
AcDbEntity
  8
AS-ABST MAG STRONG DIPOLAR
100
AcDbPolyline
 90
        2
 70
     1
 43
0.25
 10
453090.9017388735
 20
196365.6246425127
 42
1.0
 10
453090.6517388735
 20
196365.6246425127
 42
1.0
  0
LWPOLYLINE
  5
441
330
1F
100
AcDbEntity
  8
AS-ABST MAG STRONG DIPOLAR
100
AcDbPolyline
 90
        2
 70
     1
 43
0.25
 10
453093.6739162928
 20
196375.4042684088
 42
1.0
 10
453093.4239162928
 20
196375.4042684088
 42
1.0
  0
LWPOLYLINE
  5
442
330
1F
100
AcDbEntity
  8
AS-ABST MAG STRONG DIPOLAR
100
AcDbPolyline
 90
        2
 70
     1
 43
0.25
 10
453091.6717881566
 20
196370.5529579249
 42
1.0
 10
453091.4217881566
 20
196370.5529579249
 42
1.0
  0
LWPOLYLINE
  5
443
330
1F
100
AcDbEntity
  8
AS-ABST MAG STRONG DIPOLAR
100
AcDbPolyline
 90
        2
 70
     1
 43
0.25
 10
453093.1348817946
 20
196370.5529579249
 42
1.0
 10
453092.8848817946
 20
196370.5529579249
 42
1.0
  0
LWPOLYLINE
  5
444
330
1F
100
AcDbEntity
  8
AS-ABST MAG STRONG DIPOLAR
100
AcDbPolyline
 90
        2
 70
     1
 43
0.25
 10
453094.8289902175
 20
196378.407460613
 42
1.0
 10
453094.5789902175
 20
196378.407460613
 42
1.0
  0
LWPOLYLINE
  5
445
330
1F
100
AcDbEntity
  8
AS-ABST MAG STRONG DIPOLAR
100
AcDbPolyline
 90
        2
 70
     1
 43
0.25
 10
453091.0557487301
 20
196390.8052540718
 42
1.0
 10
453090.8057487301
 20
196390.8052540718
 42
1.0
  0
LWPOLYLINE
  5
446
330
1F
100
AcDbEntity
  8
AS-ABST MAG STRONG DIPOLAR
100
AcDbPolyline
 90
        2
 70
     1
 43
0.25
 10
453090.9787438018
 20
196394.1934709177
 42
1.0
 10
453090.7287438018
 20
196394.1934709177
 42
1.0
  0
LWPOLYLINE
  5
447
330
1F
100
AcDbEntity
  8
AS-ABST MAG STRONG DIPOLAR
100
AcDbPolyline
 90
        2
 70
     1
 43
0.25
 10
453156.4329328697
 20
196337.5640466345
 42
1.0
 10
453156.1829328697
 20
196337.5640466345
 42
1.0
  0
LWPOLYLINE
  5
448
330
1F
100
AcDbEntity
  8
AS-ABST MAG STRONG DIPOLAR
100
AcDbPolyline
 90
        2
 70
     1
 43
0.25
 10
453181.8445592138
 20
196341.7223127635
 42
1.0
 10
453181.5945592138
 20
196341.7223127635
 42
1.0
  0
LWPOLYLINE
  5
449
330
1F
100
AcDbEntity
  8
AS-ABSTRACTION BOUNDARY
100
AcDbPolyline
 90
      108
 70
     1
 43
0.0
 10
453258.2816936537
 20
196428.4076675661
 10
453259.7432157625
 20
196428.2249773025
 10
453259.2987560427
 20
196426.2804660284
 10
453257.9480357766
 20
196420.5444361294
 10
453254.9151061925
 20
196408.8925290163
 10
453252.3442600865
 20
196400.7300926299
 10
453249.0558353416
 20
196388.2158095729
 10
453245.2193398059
 20
196372.7784822983
 10
453241.474189402
 20
196358.8026771325
 10
453238.185764657
 20
196346.9278099981
 10
453233.8925434623
 20
196330.6683765372
 10
453230.5127735856
 20
196318.245438612
 10
453226.1282072591
 20
196301.1638989649
 10
453222.0176763284
 20
196286.2746424829
 10
453219.4600126374
 20
196278.5103062779
 10
453217.7244551332
 20
196276.9574390372
 10
453210.2341543254
 20
196272.6642178425
 10
453205.0458920988
 20
196270.637523337
 10
453203.0437639626
 20
196270.7145282653
 10
453193.9571824214
 20
196274.4877697528
 10
453181.2513692495
 20
196280.4171492331
 10
453159.951036029
 20
196289.9646052704
 10
453144.6270552943
 20
196296.7410389622
 10
453138.1286093929
 20
196299.9764010252
 10
453138.898658676
 20
196302.2865488746
 10
453133.6623235506
 20
196304.827711509
 10
453133.046284124
 20
196302.5945685879
 10
453132.965738341
 20
196302.3025901245
 10
453129.6110942728
 20
196303.9024972956
 10
453109.8208276957
 20
196312.5270492669
 10
453099.9641968713
 20
196317.5323696074
 10
453091.0316251867
 20
196321.9216505214
 10
453087.9266766468
 20
196324.6797896962
 10
453086.7391899332
 20
196327.5114887829
 10
453085.9170837472
 20
196330.7085683951
 10
453081.806552816
 20
196331.8960551086
 10
453079.8883050482
 20
196333.6316126128
 10
453077.4487258804
 20
196334.4746089104
 10
453076.3706568839
 20
196333.1655251291
 10
453073.9064991778
 20
196333.9355744122
 10
453073.213454823
 20
196332.5494857025
 10
453070.1332576904
 20
196333.396539914
 10
453070.287267547
 20
196334.5516138387
 10
453065.8701354653
 20
196337.5658912812
 10
453066.5965538824
 20
196338.8206140015
 10
453062.1720053424
 20
196340.9338312146
 10
453063.4267280627
 20
196343.9055429205
 10
453065.0701836536
 20
196347.796461509
 10
453070.3642724753
 20
196358.9621761147
 10
453076.2358982594
 20
196372.4861666501
 10
453087.8609472624
 20
196400.7219487401
 10
453091.8035995921
 20
196410.0857480233
 10
453092.173223248
 20
196410.7017874498
 10
453092.4756642107
 20
196410.6355587225
 10
453095.3256323229
 20
196409.7221074045
 10
453094.7775615321
 20
196407.4384791094
 10
453096.9698446954
 20
196406.1596472642
 10
453095.8737031138
 20
196403.0539127829
 10
453097.8832960134
 20
196402.049116333
 10
453097.5179154861
 20
196398.9433818518
 10
453099.1621278587
 20
196397.7558951383
 10
453098.4313668042
 20
196394.7415057888
 10
453099.1621278587
 20
196394.4674703934
 10
453098.7967473314
 20
196392.2751872301
 10
453103.0899685262
 20
196390.9050102531
 10
453105.008216294
 20
196395.4722668434
 10
453108.2052959072
 20
196403.3279481783
 10
453110.7629595976
 20
196402.8712225192
 10
453110.8543047294
 20
196401.592390674
 10
453112.4985171019
 20
196400.9529747514
 10
453112.9552427608
 20
196401.592390674
 10
453115.8454025614
 20
196400.4988166954
 10
453116.2436675058
 20
196399.5827977744
 10
453118.9840214598
 20
196400.4049039606
 10
453127.579473248
 20
196402.6183298584
 10
453128.1576262498
 20
196404.564494663
 10
453128.7832912924
 20
196404.9495193046
 10
453129.0239316934
 20
196406.7302582719
 10
453129.5052124954
 20
196406.9227705927
 10
453130.1308775379
 20
196408.944149961
 10
453130.7084145003
 20
196409.0404061214
 10
453130.9971829815
 20
196411.6874505322
 10
453131.9597445854
 20
196411.7837066926
 10
453132.6172538648
 20
196411.8494576206
 10
453132.9069052051
 20
196413.3942647687
 10
453133.4459397033
 20
196415.8584224748
 10
453133.9849742015
 20
196416.4744619013
 10
453135.4480678395
 20
196416.6284717579
 10
453135.4480678395
 20
196416.6284717579
 10
453136.6921751546
 20
196421.2481489553
 10
453137.6812107607
 20
196421.6337920984
 10
453138.2972501872
 20
196422.4808463099
 10
453139.3753191836
 20
196423.1738906647
 10
453141.1464325348
 20
196423.481910378
 10
453142.4997941486
 20
196424.7782883459
 10
453149.0452130554
 20
196430.5536579695
 10
453155.5906319622
 20
196431.1311949319
 10
453157.1788586088
 20
196432.1900126962
 10
453157.9970359721
 20
196431.9975003754
 10
453158.8152133354
 20
196435.6071063902
 10
453159.5852626186
 20
196435.4627221496
 10
453160.5478242225
 20
196438.0135104001
 10
453161.0291050244
 20
196439.938633608
 10
453180.1840809429
 20
196437.7247419189
 10
453194.0449680397
 20
196436.040259112
 10
453217.7721115769
 20
196433.2007023804
 10
453250.4510780307
 20
196429.446712125
 10
453258.0553147018
 20
196428.6285347617
  0
LWPOLYLINE
  5
44B
330
1F
100
AcDbEntity
  8
AS-ABST MAG STRONG DIPOLAR
100
AcDbPolyline
 90
        2
 70
     1
 43
0.25
 10
453131.3461710672
 20
196407.2662607013
 42
1.0
 10
453131.0961710672
 20
196407.2662607013
 42
1.0
  0
LWPOLYLINE
  5
44C
330
1F
100
AcDbEntity
  8
AS-ABST MAG STRONG DIPOLAR
100
AcDbPolyline
 90
        2
 70
     1
 43
0.25
 10
453147.7397983844
 20
196391.4441543364
 42
1.0
 10
453147.4897983844
 20
196391.4441543364
 42
1.0
  0
LWPOLYLINE
  5
44D
330
1F
100
AcDbEntity
  8
AS-ABST MAG STRONG DIPOLAR
100
AcDbPolyline
 90
        2
 70
     1
 43
0.25
 10
453144.3407527205
 20
196392.8879967424
 42
1.0
 10
453144.0907527205
 20
196392.8879967424
 42
1.0
  0
LWPOLYLINE
  5
44E
330
1F
100
AcDbEntity
  8
AS-ABST MAG STRONG DIPOLAR
100
AcDbPolyline
 90
        2
 70
     1
 43
0.25
 10
453165.6381501287
 20
196410.5377669526
 42
1.0
 10
453165.3881501287
 20
196410.5377669526
 42
1.0
  0
LWPOLYLINE
  5
44F
330
1F
100
AcDbEntity
  8
AS-ABST MAG STRONG DIPOLAR
100
AcDbPolyline
 90
        2
 70
     1
 43
0.25
 10
453166.5044555722
 20
196412.2222497595
 42
1.0
 10
453166.2544555722
 20
196412.2222497595
 42
1.0
  0
LWPOLYLINE
  5
450
330
1F
100
AcDbEntity
  8
AS-ABST MAG STRONG DIPOLAR
100
AcDbPolyline
 90
        2
 70
     1
 43
0.25
 10
453169.8541699539
 20
196428.7590581152
 42
1.0
 10
453169.6041699539
 20
196428.7590581152
 42
1.0
  0
LWPOLYLINE
  5
451
330
1F
100
AcDbEntity
  8
AS-ABST MAG STRONG DIPOLAR
100
AcDbPolyline
 90
        2
 70
     1
 43
0.25
 10
453178.2080014743
 20
196411.4004627901
 42
1.0
 10
453177.9580014743
 20
196411.4004627901
 42
1.0
  0
LWPOLYLINE
  5
452
330
1F
100
AcDbEntity
  8
AS-ABST MAG STRONG DIPOLAR
100
AcDbPolyline
 90
        2
 70
     1
 43
0.25
 10
453187.3222566616
 20
196411.2801425896
 42
1.0
 10
453187.0722566616
 20
196411.2801425896
 42
1.0
  0
LWPOLYLINE
  5
453
330
1F
100
AcDbEntity
  8
AS-ABST MAG STRONG DIPOLAR
100
AcDbPolyline
 90
        2
 70
     1
 43
0.25
 10
453165.7202085054
 20
196367.2686977321
 42
1.0
 10
453165.4702085054
 20
196367.2686977321
 42
1.0
  0
LWPOLYLINE
  5
454
330
1F
100
AcDbEntity
  8
AS-ABST MAG STRONG DIPOLAR
100
AcDbPolyline
 90
        2
 70
     1
 43
0.25
 10
453158.0967206022
 20
196356.3339979113
 42
1.0
 10
453157.8467206022
 20
196356.3339979113
 42
1.0
  0
LWPOLYLINE
  5
455
330
1F
100
AcDbEntity
  8
AS-ABST MAG DISTURBANCE
 62
     7
420
 16711679
430
UNNAMED$254,255,255
100
AcDbPolyline
 90
       17
 70
     1
 43
0.0
 10
453180.3946088069
 20
196369.8807975465
 10
453184.2448552226
 20
196368.1481866595
 10
453185.3518010672
 20
196365.2123737674
 10
453182.0810167371
 20
196363.5798692872
 10
453184.6780079444
 20
196362.2284327952
 10
453183.5710620999
 20
196358.6188267804
 10
453181.9828354535
 20
196357.6562651765
 10
453177.6994363159
 20
196357.0787282141
 10
453175.0042638249
 20
196358.2338021388
 10
453174.1379583813
 20
196360.4476938279
 10
453175.0042638249
 20
196362.7097135972
 10
453176.3037219902
 20
196364.2016840833
 10
453176.4481062307
 20
196365.4048860882
 10
453175.4374165466
 20
196367.2818812159
 10
453175.052391905
 20
196368.8701078624
 10
453176.736874712
 20
196369.4476448248
 10
453178.228845198
 20
196369.9770537069
  0
HATCH
  5
456
330
1F
100
AcDbEntity
  8
AS-ABST MAG POS LINEAR UNCERTAIN
100
AcDbHatch
 10
0.0
 20
0.0
 30
0.0
210
0.0
220
0.0
230
1.0
  2
SOLID
 70
     1
 71
     0
 91
        1
 92
        1
 93
       11
 72
     1
 10
453166.0125687328
 20
196348.3529153713
 11
453161.331130728
 21
196351.5499949844
 72
     1
 10
453161.331130728
 20
196351.5499949844
 11
453160.7031329468
 21
196352.1209020582
 72
     1
 10
453160.7031329468
 20
196352.1209020582
 11
453160.7602236542
 21
196352.6347184246
 72
     1
 10
453160.7602236542
 20
196352.6347184246
 11
453161.3882214353
 21
196352.4063555951
 72
     1
 10
453161.3882214353
 20
196352.4063555951
 11
453162.1874913386
 21
196351.7783578139
 72
     1
 10
453162.1874913386
 20
196351.7783578139
 11
453162.9296705345
 21
196351.2645414476
 72
     1
 10
453162.9296705345
 20
196351.2645414476
 11
453164.2427568042
 21
196350.0656365926
 72
     1
 10
453164.2427568042
 20
196350.0656365926
 11
453166.2409315623
 21
196348.9809131525
 72
     1
 10
453166.2409315623
 20
196348.9809131525
 11
453166.2980222697
 21
196348.752550323
 72
     1
 10
453166.2980222697
 20
196348.752550323
 11
453166.2980222697
 21
196348.6383689082
 72
     1
 10
453166.2980222697
 20
196348.6383689082
 11
453166.0125687328
 21
196348.3529153713
 97
        0
 75
     1
 76
     1
 98
        1
 10
0.0
 20
0.0
1001
ACAD
1010
0.0
1020
0.0
1030
0.0
1001
HATCHBACKGROUNDCOLOR
1071
-939524096
1000
None
1000

  0
HATCH
  5
457
330
1F
100
AcDbEntity
  8
AS-ABST MAG DISTURBANCE
100
AcDbHatch
 10
0.0
 20
0.0
 30
0.0
210
0.0
220
0.0
230
1.0
  2
ANSI31
 70
     0
 71
     0
 91
        1
 92
        1
 93
      116
 72
     1
 10
453243.0453256689
 20
196419.6019968603
 11
453241.7299557709
 21
196416.6789526426
 72
     1
 10
453241.7299557709
 20
196416.6789526426
 11
453240.7068902947
 21
196415.8020393773
 72
     1
 10
453240.7068902947
 20
196415.8020393773
 11
453237.0530850226
 21
196414.6328216902
 72
     1
 10
453237.0530850226
 20
196414.6328216902
 11
453236.7607806008
 21
196413.3174517923
 72
     1
 10
453236.7607806008
 20
196413.3174517923
 11
453238.3684549205
 21
196412.0020818943
 72
     1
 10
453238.3684549205
 20
196412.0020818943
 11
453239.8299770294
 21
196410.6867119964
 72
     1
 10
453239.8299770294
 20
196410.6867119964
 11
453240.1222814512
 21
196409.3713420984
 72
     1
 10
453240.1222814512
 20
196409.3713420984
 11
453239.3915203967
 21
196407.6175155678
 72
     1
 10
453239.3915203967
 20
196407.6175155678
 11
453238.2223027096
 21
196405.2790801936
 72
     1
 10
453238.2223027096
 20
196405.2790801936
 11
453238.3684549205
 21
196402.6483403977
 72
     1
 10
453238.3684549205
 20
196402.6483403977
 11
453239.6838248185
 21
196400.3099050236
 72
     1
 10
453239.6838248185
 20
196400.3099050236
 11
453239.2453681859
 21
196396.3637953297
 72
     1
 10
453239.2453681859
 20
196396.3637953297
 11
453238.5146071314
 21
196393.440751112
 72
     1
 10
453238.5146071314
 20
196393.440751112
 11
453239.099215975
 21
196390.2254024726
 72
     1
 10
453239.099215975
 20
196390.2254024726
 11
453239.3915203967
 21
196387.7408148875
 72
     1
 10
453239.3915203967
 20
196387.7408148875
 11
453237.9299982879
 21
196384.6716184589
 72
     1
 10
453237.9299982879
 20
196384.6716184589
 11
453236.7607806008
 21
196381.6024220304
 72
     1
 10
453236.7607806008
 20
196381.6024220304
 11
453236.7607806008
 21
196375.6101813841
 72
     1
 10
453236.7607806008
 20
196375.6101813841
 11
453236.7607806008
 21
196374.8794203297
 72
     1
 10
453236.7607806008
 20
196374.8794203297
 11
453233.1069753287
 21
196374.0025070644
 72
     1
 10
453233.1069753287
 20
196374.0025070644
 11
453229.8916266892
 21
196374.7332681188
 72
     1
 10
453229.8916266892
 20
196374.7332681188
 11
453227.2608868933
 21
196375.1717247515
 72
     1
 10
453227.2608868933
 20
196375.1717247515
 11
453225.0686037301
 21
196374.7332681188
 72
     1
 10
453225.0686037301
 20
196374.7332681188
 11
453220.2455807709
 21
196375.4640291732
 72
     1
 10
453220.2455807709
 20
196375.4640291732
 11
453216.4456232879
 21
196375.4640291732
 72
     1
 10
453216.4456232879
 20
196375.4640291732
 11
453212.2072091723
 21
196375.756333595
 72
     1
 10
453212.2072091723
 20
196375.756333595
 11
453208.5534039001
 21
196375.756333595
 72
     1
 10
453208.5534039001
 20
196375.756333595
 11
453204.1688375736
 21
196376.1947902276
 72
     1
 10
453204.1688375736
 20
196376.1947902276
 11
453194.6689438662
 21
196376.4870946494
 72
     1
 10
453194.6689438662
 20
196376.4870946494
 11
453188.8228554308
 21
196376.7793990712
 72
     1
 10
453188.8228554308
 20
196376.7793990712
 11
453179.7248803032
 21
196376.8890132294
 72
     1
 10
453179.7248803032
 20
196376.8890132294
 11
453173.9701369996
 21
196376.6149778339
 72
     1
 10
453173.9701369996
 20
196376.6149778339
 11
453173.6047564724
 21
196375.3361459887
 72
     1
 10
453173.6047564724
 20
196375.3361459887
 11
453173.330721077
 21
196373.9659690117
 72
     1
 10
453173.330721077
 20
196373.9659690117
 11
453173.1480308134
 21
196372.86982743
 72
     1
 10
453173.1480308134
 20
196372.86982743
 11
453173.6047564724
 21
196372.2304115074
 72
     1
 10
453173.6047564724
 20
196372.2304115074
 11
453174.6095529223
 21
196371.4083053212
 72
     1
 10
453174.6095529223
 20
196371.4083053212
 11
453176.7104909537
 21
196371.2256150576
 72
     1
 10
453176.7104909537
 20
196371.2256150576
 11
453179.4508449078
 21
196371.5909955848
 72
     1
 10
453179.4508449078
 20
196371.5909955848
 11
453180.4556413576
 21
196372.1390663756
 72
     1
 10
453180.4556413576
 20
196372.1390663756
 11
453183.1959953117
 21
196371.956376112
 72
     1
 10
453183.1959953117
 20
196371.956376112
 11
453186.3930749248
 21
196371.6823407166
 72
     1
 10
453186.3930749248
 20
196371.6823407166
 11
453189.2247740107
 21
196371.3169601894
 72
     1
 10
453189.2247740107
 20
196371.3169601894
 11
453191.6910925694
 21
196371.042924794
 72
     1
 10
453191.6910925694
 20
196371.042924794
 11
453192.4218536238
 21
196371.042924794
 72
     1
 10
453192.4218536238
 20
196371.042924794
 11
453194.9795173142
 21
196371.3169601894
 72
     1
 10
453194.9795173142
 20
196371.3169601894
 11
453198.1765969273
 21
196371.4083053212
 72
     1
 10
453198.1765969273
 20
196371.4083053212
 11
453203.7486499673
 21
196371.3169601894
 72
     1
 10
453203.7486499673
 20
196371.3169601894
 11
453206.9457295804
 21
196371.042924794
 72
     1
 10
453206.9457295804
 20
196371.042924794
 11
453209.5947384027
 21
196370.4035088714
 72
     1
 10
453209.5947384027
 20
196370.4035088714
 11
453211.6043313023
 21
196370.129473476
 72
     1
 10
453211.6043313023
 20
196370.129473476
 11
453214.2533401246
 21
196370.0381283442
 72
     1
 10
453214.2533401246
 20
196370.0381283442
 11
453216.1715878925
 21
196370.129473476
 72
     1
 10
453216.1715878925
 20
196370.129473476
 11
453219.3686675056
 21
196370.129473476
 72
     1
 10
453219.3686675056
 20
196370.129473476
 11
453222.6570922505
 21
196370.2208186078
 72
     1
 10
453222.6570922505
 20
196370.2208186078
 11
453225.4887913364
 21
196370.4948540032
 72
     1
 10
453225.4887913364
 20
196370.4948540032
 11
453228.9599063449
 21
196369.5814026851
 72
     1
 10
453228.9599063449
 20
196369.5814026851
 11
453231.700260299
 21
196368.1198805763
 72
     1
 10
453231.700260299
 20
196368.1198805763
 11
453234.0752337258
 21
196367.5718097855
 72
     1
 10
453234.0752337258
 20
196367.5718097855
 11
453236.4502071527
 21
196367.7545000491
 72
     1
 10
453236.4502071527
 20
196367.7545000491
 11
453238.0030743934
 21
196366.5670133357
 72
     1
 10
453238.0030743934
 20
196366.5670133357
 11
453238.0030743934
 21
196364.4660753042
 72
     1
 10
453238.0030743934
 20
196364.4660753042
 11
453237.0896230753
 21
196362.1824470092
 72
     1
 10
453237.0896230753
 20
196362.1824470092
 11
453236.9982779435
 21
196359.4420930551
 72
     1
 10
453236.9982779435
 20
196359.4420930551
 11
453236.6328974163
 21
196356.4277037056
 72
     1
 10
453236.6328974163
 20
196356.4277037056
 11
453235.9934814937
 21
196354.1440754105
 72
     1
 10
453235.9934814937
 20
196354.1440754105
 11
453235.354065571
 21
196352.4085179063
 72
     1
 10
453235.354065571
 20
196352.4085179063
 11
453235.0800301758
 21
196348.3893321069
 72
     1
 10
453235.0800301758
 20
196348.3893321069
 11
453235.902136362
 21
196346.3797392073
 72
     1
 10
453235.902136362
 20
196346.3797392073
 11
453236.2675168893
 21
196343.3653498578
 72
     1
 10
453236.2675168893
 20
196343.3653498578
 11
453235.5367558348
 21
196341.2644118263
 72
     1
 10
453235.5367558348
 20
196341.2644118263
 11
453233.4358178034
 21
196338.2500224768
 72
     1
 10
453233.4358178034
 20
196338.2500224768
 11
453232.9790921443
 21
196335.6010136546
 72
     1
 10
453232.9790921443
 20
196335.6010136546
 11
453232.1569859581
 21
196333.5000756231
 72
     1
 10
453232.1569859581
 20
196333.5000756231
 11
453231.5175700355
 21
196332.2212437778
 72
     1
 10
453231.5175700355
 20
196332.2212437778
 11
453230.4214284538
 21
196327.7453323195
 72
     1
 10
453230.4214284538
 20
196327.7453323195
 11
453229.3252868722
 21
196324.9136332336
 72
     1
 10
453229.3252868722
 20
196324.9136332336
 11
453227.6810744997
 21
196321.8078987523
 72
     1
 10
453227.6810744997
 20
196321.8078987523
 11
453226.7676231817
 21
196319.5242704573
 72
     1
 10
453226.7676231817
 20
196319.5242704573
 11
453225.7628267318
 21
196317.0579518986
 72
     1
 10
453225.7628267318
 20
196317.0579518986
 11
453224.301304623
 21
196312.5820404403
 72
     1
 10
453224.301304623
 20
196312.5820404403
 11
453217.9071453968
 21
196301.5292794922
 72
     1
 10
453217.9071453968
 20
196301.5292794922
 11
453215.8062073654
 21
196298.7889255381
 72
     1
 10
453215.8062073654
 20
196298.7889255381
 11
453214.8014109155
 21
196295.3178105296
 72
     1
 10
453214.8014109155
 20
196295.3178105296
 11
453213.157198543
 21
196290.5678636758
 72
     1
 10
453213.157198543
 20
196290.5678636758
 11
453211.787021566
 21
196287.7361645899
 72
     1
 10
453211.787021566
 20
196287.7361645899
 11
453209.4120481391
 21
196284.6304301086
 72
     1
 10
453209.4120481391
 20
196284.6304301086
 11
453207.5851455031
 21
196279.3324124641
 72
     1
 10
453207.5851455031
 20
196279.3324124641
 11
453206.3976587896
 21
196273.8517045559
 72
     1
 10
453206.3976587896
 20
196273.8517045559
 11
453205.9409331306
 21
196271.8421116563
 72
     1
 10
453205.9409331306
 20
196271.8421116563
 11
453206.5803490533
 21
196271.6594213927
 72
     1
 10
453206.5803490533
 20
196271.6594213927
 11
453210.2341543254
 21
196272.6642178425
 72
     1
 10
453210.2341543254
 20
196272.6642178425
 11
453217.7244551332
 21
196276.9574390372
 72
     1
 10
453217.7244551332
 20
196276.9574390372
 11
453219.4600126374
 21
196278.5103062779
 72
     1
 10
453219.4600126374
 20
196278.5103062779
 11
453222.0176763279
 21
196286.2746424811
 72
     1
 10
453222.0176763279
 20
196286.2746424811
 11
453226.1282072591
 21
196301.1638989649
 72
     1
 10
453226.1282072591
 20
196301.1638989649
 11
453230.5127735856
 21
196318.245438612
 72
     1
 10
453230.5127735856
 20
196318.245438612
 11
453233.8925434623
 21
196330.6683765372
 72
     1
 10
453233.8925434623
 20
196330.6683765372
 11
453238.185764657
 21
196346.9278099981
 72
     1
 10
453238.185764657
 20
196346.9278099981
 11
453241.474189402
 21
196358.8026771325
 72
     1
 10
453241.474189402
 20
196358.8026771325
 11
453245.2193398059
 21
196372.7784822983
 72
     1
 10
453245.2193398059
 20
196372.7784822983
 11
453249.0558353416
 21
196388.2158095729
 72
     1
 10
453249.0558353416
 20
196388.2158095729
 11
453252.3442600865
 21
196400.7300926299
 72
     1
 10
453252.3442600865
 20
196400.7300926299
 11
453255.9980653586
 21
196412.3309243688
 72
     1
 10
453255.9980653586
 20
196412.3309243688
 11
453259.0124547081
 21
196425.0278976894
 72
     1
 10
453259.0124547081
 20
196425.0278976894
 11
453259.7432157625
 21
196428.2249773025
 72
     1
 10
453259.7432157625
 20
196428.2249773025
 11
453258.2816936537
 21
196428.4076675661
 72
     1
 10
453258.2816936537
 20
196428.4076675661
 11
453257.185552072
 21
196426.8548003255
 72
     1
 10
453257.185552072
 20
196426.8548003255
 11
453255.9067202268
 21
196423.6577207124
 72
     1
 10
453255.9067202268
 20
196423.6577207124
 11
453253.8971273271
 21
196420.1866057039
 72
     1
 10
453253.8971273271
 20
196420.1866057039
 11
453251.3394636366
 21
196419.0904641222
 72
     1
 10
453251.3394636366
 20
196419.0904641222
 11
453248.3250742872
 21
196417.7202871452
 72
     1
 10
453248.3250742872
 20
196417.7202871452
 11
453247.6856583646
 21
196418.725083595
 72
     1
 10
453247.6856583646
 20
196418.725083595
 11
453246.0414459921
 21
196419.4558446494
 72
     1
 10
453246.0414459921
 20
196419.4558446494
 11
453244.3058884878
 21
196419.8212251767
 72
     1
 10
453244.3058884878
 20
196419.8212251767
 11
453243.0453256689
 21
196419.6019968603
 97
        0
 75
     1
 76
     1
 52
0.0
 41
10.0
 77
     0
 78
     1
 53
45.0
 43
0.0
 44
0.0
 45
-0.8838834764831844
 46
0.8838834764831844
 79
     0
 98
        1
 10
0.0
 20
0.0
1001
ACAD
1010
0.0
1020
0.0
1030
0.0
1001
HATCHBACKGROUNDCOLOR
1071
-939524096
1000
None
1000

  0
HATCH
  5
458
330
1F
100
AcDbEntity
  8
AS-ABST MAG DISTURBANCE
100
AcDbHatch
 10
0.0
 20
0.0
 30
0.0
210
0.0
220
0.0
230
1.0
  2
ANSI31
 70
     0
 71
     0
 91
        1
 92
        1
 93
       35
 72
     1
 10
453093.3417730362
 20
196326.3109314353
 11
453098.1930835201
 21
196325.4638772238
 72
     1
 10
453098.1930835201
 20
196325.4638772238
 11
453101.5042954377
 21
196323.6927638726
 72
     1
 10
453101.5042954377
 20
196323.6927638726
 11
453102.9673890757
 21
196322.0756603779
 72
     1
 10
453102.9673890757
 20
196322.0756603779
 11
453105.3545418535
 21
196321.4596209514
 72
     1
 10
453105.3545418535
 20
196321.4596209514
 11
453108.2807291294
 21
196319.7655125285
 72
     1
 10
453108.2807291294
 20
196319.7655125285
 11
453110.2828572656
 21
196317.6093745356
 72
     1
 10
453110.2828572656
 20
196317.6093745356
 11
453114.2101086098
 21
196316.0692759693
 72
     1
 10
453114.2101086098
 20
196316.0692759693
 11
453118.9074092369
 21
196312.8350689801
 72
     1
 10
453118.9074092369
 20
196312.8350689801
 11
453122.6806507244
 21
196310.0628915607
 72
     1
 10
453122.6806507244
 20
196310.0628915607
 11
453125.8378527854
 21
196308.9848225643
 72
     1
 10
453125.8378527854
 20
196308.9848225643
 11
453128.918049918
 21
196309.0618274926
 72
     1
 10
453128.918049918
 20
196309.0618274926
 11
453133.3073308319
 21
196308.7538077794
 72
     1
 10
453133.3073308319
 20
196308.7538077794
 11
453136.5415378212
 21
196308.5997979228
 72
     1
 10
453136.5415378212
 20
196308.5997979228
 11
453139.0056955272
 21
196307.9067535679
 72
     1
 10
453139.0056955272
 20
196307.9067535679
 11
453144.3960405093
 21
196306.5206648582
 72
     1
 10
453144.3960405093
 20
196306.5206648582
 11
453149.5553707065
 21
196305.2885860052
 72
     1
 10
453149.5553707065
 20
196305.2885860052
 11
453152.7895776957
 21
196301.9773740876
 72
     1
 10
453152.7895776957
 20
196301.9773740876
 11
453153.4056171222
 21
196297.8191079586
 72
     1
 10
453153.4056171222
 20
196297.8191079586
 11
453155.4847501868
 21
196294.738910826
 72
     1
 10
453155.4847501868
 20
196294.738910826
 11
453160.182050814
 21
196292.1977481916
 72
     1
 10
453160.182050814
 20
196292.1977481916
 11
453168.1135584305
 21
196288.5015116324
 72
     1
 10
453168.1135584305
 20
196288.5015116324
 11
453172.1948196312
 21
196287.654457421
 72
     1
 10
453172.1948196312
 20
196287.654457421
 11
453175.4290266205
 21
196286.8844081378
 72
     1
 10
453175.4290266205
 20
196286.8844081378
 11
453181.7434307423
 21
196284.9592849299
 72
     1
 10
453181.7434307423
 20
196284.9592849299
 11
453183.2361871699
 21
196284.2138963076
 72
     1
 10
453183.2361871699
 20
196284.2138963076
 11
453181.6285128501
 21
196281.144699879
 72
     1
 10
453181.6285128501
 20
196281.144699879
 11
453180.6653617459
 21
196280.8010188009
 72
     1
 10
453180.6653617459
 20
196280.8010188009
 11
453138.1286093929
 21
196299.9764010252
 72
     1
 10
453138.1286093929
 20
196299.9764010252
 11
453138.898658676
 21
196302.2865488746
 72
     1
 10
453138.898658676
 20
196302.2865488746
 11
453133.6623235506
 21
196304.827711509
 72
     1
 10
453133.6623235506
 20
196304.827711509
 11
453132.965738341
 21
196302.3025901246
 72
     1
 10
453132.965738341
 20
196302.3025901246
 11
453099.9641968713
 21
196317.5323696074
 72
     1
 10
453099.9641968713
 20
196317.5323696074
 11
453091.0316251867
 21
196321.9216505214
 72
     1
 10
453091.0316251867
 20
196321.9216505214
 11
453089.1141633603
 21
196323.4009578509
 72
     1
 10
453089.1141633603
 20
196323.4009578509
 11
453093.3417730362
 21
196326.3109314353
 97
        0
 75
     1
 76
     1
 52
0.0
 41
10.0
 77
     0
 78
     1
 53
45.0
 43
0.0
 44
0.0
 45
-0.8838834764831844
 46
0.8838834764831844
 79
     0
 98
        1
 10
0.0
 20
0.0
1001
ACAD
1010
0.0
1020
0.0
1030
0.0
1001
HATCHBACKGROUNDCOLOR
1071
-939524096
1000
None
1000

  0
HATCH
  5
459
330
1F
100
AcDbEntity
  8
AS-ABST MAG DEBRIS
100
AcDbHatch
 10
0.0
 20
0.0
 30
0.0
210
0.0
220
0.0
230
1.0
  2
ANSI37
 70
     0
 71
     0
 91
        5
 92
        1
 93
       64
 72
     1
 10
453080.1988784964
 20
196335.9517789606
 11
453084.1449881902
 21
196342.3824762395
 72
     1
 10
453084.1449881902
 20
196342.3824762395
 11
453087.5064890406
 21
196348.8131735184
 72
     1
 10
453087.5064890406
 20
196348.8131735184
 11
453090.2833810474
 21
196353.197739845
 72
     1
 10
453090.2833810474
 20
196353.197739845
 11
453091.0141421018
 21
196359.3361327021
 72
     1
 10
453091.0141421018
 20
196359.3361327021
 11
453092.4756642106
 21
196365.6206777701
 72
     1
 10
453092.4756642106
 20
196365.6206777701
 11
453094.3756429521
 21
196369.7129396749
 72
     1
 10
453094.3756429521
 20
196369.7129396749
 11
453096.1294694828
 21
196371.3206139946
 72
     1
 10
453096.1294694828
 20
196371.3206139946
 11
453096.2756216936
 21
196373.6590493688
 72
     1
 10
453096.2756216936
 20
196373.6590493688
 11
453096.5679261154
 21
196383.3050952871
 72
     1
 10
453096.5679261154
 20
196383.3050952871
 11
453095.5448606392
 21
196385.6435306613
 72
     1
 10
453095.5448606392
 20
196385.6435306613
 11
453094.9602517957
 21
196396.6049464776
 72
     1
 10
453094.9602517957
 20
196396.6049464776
 11
453094.521795163
 21
196399.5279906953
 72
     1
 10
453094.521795163
 20
196399.5279906953
 11
453093.352577476
 21
196401.2818172259
 72
     1
 10
453093.352577476
 20
196401.2818172259
 11
453092.037207578
 21
196402.451034913
 72
     1
 10
453092.037207578
 20
196402.451034913
 11
453091.7449031562
 21
196405.5202313415
 72
     1
 10
453091.7449031562
 20
196405.5202313415
 11
453091.7449031562
 21
196407.7125145048
 72
     1
 10
453091.7449031562
 20
196407.7125145048
 11
453092.4756642107
 21
196410.6355587225
 72
     1
 10
453092.4756642107
 20
196410.6355587225
 11
453095.3256323229
 21
196409.7221074044
 72
     1
 10
453095.3256323229
 20
196409.7221074044
 11
453094.7775615321
 21
196407.4384791094
 72
     1
 10
453094.7775615321
 20
196407.4384791094
 11
453096.9698446954
 21
196406.1596472642
 72
     1
 10
453096.9698446954
 20
196406.1596472642
 11
453095.8737031138
 21
196403.0539127829
 72
     1
 10
453095.8737031138
 20
196403.0539127829
 11
453097.8832960134
 21
196402.049116333
 72
     1
 10
453097.8832960134
 20
196402.049116333
 11
453097.5179154862
 21
196398.9433818517
 72
     1
 10
453097.5179154862
 20
196398.9433818517
 11
453099.1621278587
 21
196397.7558951383
 72
     1
 10
453099.1621278587
 20
196397.7558951383
 11
453098.4313668042
 21
196394.7415057888
 72
     1
 10
453098.4313668042
 20
196394.7415057888
 11
453099.1621278587
 21
196394.4674703934
 72
     1
 10
453099.1621278587
 20
196394.4674703934
 11
453098.7967473314
 21
196392.2751872301
 72
     1
 10
453098.7967473314
 20
196392.2751872301
 11
453103.0899685262
 21
196390.9050102531
 72
     1
 10
453103.0899685262
 20
196390.9050102531
 11
453105.008216294
 21
196395.4722668432
 72
     1
 10
453105.008216294
 20
196395.4722668432
 11
453105.008216294
 21
196397.2991694793
 72
     1
 10
453105.008216294
 20
196397.2991694793
 11
453108.2052959071
 21
196403.3279481783
 72
     1
 10
453108.2052959071
 20
196403.3279481783
 11
453110.7629595976
 21
196402.8712225192
 72
     1
 10
453110.7629595976
 20
196402.8712225192
 11
453110.8543047294
 21
196401.592390674
 72
     1
 10
453110.8543047294
 20
196401.592390674
 11
453112.4985171019
 21
196400.9529747514
 72
     1
 10
453112.4985171019
 20
196400.9529747514
 11
453112.9552427608
 21
196401.592390674
 72
     1
 10
453112.9552427608
 20
196401.592390674
 11
453116.3350126375
 21
196400.3135588288
 72
     1
 10
453116.3350126375
 20
196400.3135588288
 11
453116.2436675057
 21
196399.5827977744
 72
     1
 10
453116.2436675057
 20
196399.5827977744
 11
453118.9840214598
 21
196400.4049039606
 72
     1
 10
453118.9840214598
 20
196400.4049039606
 11
453124.3733842362
 21
196402.049116333
 72
     1
 10
453124.3733842362
 20
196402.049116333
 11
453128.5176242909
 21
196402.7675846611
 72
     1
 10
453128.5176242909
 20
196402.7675846611
 11
453123.4599329181
 21
196392.4578774937
 72
     1
 10
453123.4599329181
 20
196392.4578774937
 11
453116.4263577693
 21
196380.9483908866
 72
     1
 10
453116.4263577693
 20
196380.9483908866
 11
453111.036994993
 21
196370.6263909929
 72
     1
 10
453111.036994993
 20
196370.6263909929
 11
453110.7629595976
 21
196367.6120016434
 72
     1
 10
453110.7629595976
 20
196367.6120016434
 11
453110.4889242022
 21
196364.1408866349
 72
     1
 10
453110.4889242022
 20
196364.1408866349
 11
453108.6620215661
 21
196358.7515238586
 72
     1
 10
453108.6620215661
 20
196358.7515238586
 11
453109.8495082795
 21
196356.5592406953
 72
     1
 10
453109.8495082795
 20
196356.5592406953
 11
453111.036994993
 21
196355.1890637183
 72
     1
 10
453111.036994993
 20
196355.1890637183
 11
453110.6716144658
 21
196352.540054896
 72
     1
 10
453110.6716144658
 20
196352.540054896
 11
453108.2052959071
 21
196349.0689398875
 72
     1
 10
453108.2052959071
 20
196349.0689398875
 11
453107.0178091936
 21
196347.424727515
 72
     1
 10
453107.0178091936
 20
196347.424727515
 11
453105.008216294
 21
196344.8670638245
 72
     1
 10
453105.008216294
 20
196344.8670638245
 11
453102.6332428671
 21
196340.3911523662
 72
     1
 10
453102.6332428671
 20
196340.3911523662
 11
453100.9890304946
 21
196336.1892763033
 72
     1
 10
453100.9890304946
 20
196336.1892763033
 11
453099.0707827267
 21
196330.9826037905
 72
     1
 10
453099.0707827267
 20
196330.9826037905
 11
453093.6814199504
 21
196328.1509047047
 72
     1
 10
453093.6814199504
 20
196328.1509047047
 11
453091.7631721825
 21
196325.227860487
 72
     1
 10
453091.7631721825
 20
196325.227860487
 11
453089.1141633603
 21
196323.4009578509
 72
     1
 10
453089.1141633603
 20
196323.4009578509
 11
453087.9266766468
 21
196324.6797896962
 72
     1
 10
453087.9266766468
 20
196324.6797896962
 11
453086.7391899334
 21
196327.511488782
 72
     1
 10
453086.7391899334
 20
196327.511488782
 11
453085.9170837472
 21
196330.7085683951
 72
     1
 10
453085.9170837472
 20
196330.7085683951
 11
453081.806552816
 21
196331.8960551086
 72
     1
 10
453081.806552816
 20
196331.8960551086
 11
453079.8883050482
 21
196333.6316126128
 72
     1
 10
453079.8883050482
 20
196333.6316126128
 11
453080.1988784964
 21
196335.9517789606
 97
        0
 92
        1
 93
       44
 72
     1
 10
453146.2287578037
 20
196420.1706984604
 11
453145.6127183771
 21
196418.3225801809
 72
     1
 10
453145.6127183771
 20
196418.3225801809
 11
453143.8416050259
 21
196417.860550611
 72
     1
 10
453143.8416050259
 20
196417.860550611
 11
453142.3015064596
 21
196417.9375555393
 72
     1
 10
453142.3015064596
 20
196417.9375555393
 11
453140.2223733951
 21
196416.8594865429
 72
     1
 10
453140.2223733951
 20
196416.8594865429
 11
453140.45338818
 21
196415.3193879766
 72
     1
 10
453140.45338818
 20
196415.3193879766
 11
453141.7624719614
 21
196413.471269697
 72
     1
 10
453141.7624719614
 20
196413.471269697
 11
453142.147496603
 21
196411.5461464891
 72
     1
 10
453142.147496603
 20
196411.5461464891
 11
453140.7614078933
 21
196410.6220873493
 72
     1
 10
453140.7614078933
 20
196410.6220873493
 11
453138.5282649721
 21
196410.8531021343
 72
     1
 10
453138.5282649721
 20
196410.8531021343
 11
453136.6031417642
 21
196409.0049838547
 72
     1
 10
453136.6031417642
 20
196409.0049838547
 11
453137.2961861191
 21
196408.0809247149
 72
     1
 10
453137.2961861191
 20
196408.0809247149
 11
453141.0694276065
 21
196408.1579296432
 72
     1
 10
453141.0694276065
 20
196408.1579296432
 11
453142.3785113879
 21
196409.4670134246
 72
     1
 10
453142.3785113879
 20
196409.4670134246
 11
453145.0736838789
 21
196410.776097206
 72
     1
 10
453145.0736838789
 20
196410.776097206
 11
453146.6907873736
 21
196410.8531021343
 72
     1
 10
453146.6907873736
 20
196410.8531021343
 11
453148.3078908682
 21
196410.4680774927
 72
     1
 10
453148.3078908682
 20
196410.4680774927
 11
453148.1538810115
 21
196409.3900084963
 72
     1
 10
453148.1538810115
 20
196409.3900084963
 11
453144.842669094
 21
196409.0049838547
 72
     1
 10
453144.842669094
 20
196409.0049838547
 11
453144.3036345958
 21
196407.618895145
 72
     1
 10
453144.3036345958
 20
196407.618895145
 11
453144.3806395241
 21
196406.386816292
 72
     1
 10
453144.3806395241
 20
196406.386816292
 11
453142.7635360295
 21
196405.5397620805
 72
     1
 10
453142.7635360295
 20
196405.5397620805
 11
453141.6854670331
 21
196405.2317423672
 72
     1
 10
453141.6854670331
 20
196405.2317423672
 11
453138.0662354022
 21
196405.5397620805
 72
     1
 10
453138.0662354022
 20
196405.5397620805
 11
453135.2940579829
 21
196405.8477817938
 72
     1
 10
453135.2940579829
 20
196405.8477817938
 11
453133.4459397033
 21
196406.7718409336
 72
     1
 10
453133.4459397033
 20
196406.7718409336
 11
453131.674826352
 21
196408.2349345716
 72
     1
 10
453131.674826352
 20
196408.2349345716
 11
453131.8288362087
 21
196410.545082421
 72
     1
 10
453131.8288362087
 20
196410.545082421
 11
453132.6758904202
 21
196412.1621859156
 72
     1
 10
453132.6758904202
 20
196412.1621859156
 11
453132.9069052051
 21
196413.3942647687
 72
     1
 10
453132.9069052051
 20
196413.3942647687
 11
453133.4459397033
 21
196415.8584224748
 72
     1
 10
453133.4459397033
 20
196415.8584224748
 11
453133.9849742015
 21
196416.4744619013
 72
     1
 10
453133.9849742015
 20
196416.4744619013
 11
453135.4480678395
 21
196416.6284717579
 72
     1
 10
453135.4480678395
 20
196416.6284717579
 11
453135.8330924811
 21
196417.1675062562
 72
     1
 10
453135.8330924811
 20
196417.1675062562
 11
453136.7571516209
 21
196421.5567871701
 72
     1
 10
453136.7571516209
 20
196421.5567871701
 11
453137.6812107607
 21
196421.6337920984
 72
     1
 10
453137.6812107607
 20
196421.6337920984
 11
453138.2972501872
 21
196422.4808463099
 72
     1
 10
453138.2972501872
 20
196422.4808463099
 11
453139.3753191836
 21
196423.1738906647
 72
     1
 10
453139.3753191836
 20
196423.1738906647
 11
453141.1464325348
 21
196423.481910378
 72
     1
 10
453141.1464325348
 20
196423.481910378
 11
453142.7635360295
 21
196424.5599793744
 72
     1
 10
453142.7635360295
 20
196424.5599793744
 11
453143.6875951692
 21
196424.0979498045
 72
     1
 10
453143.6875951692
 20
196424.0979498045
 11
453144.2266296674
 21
196422.4038413816
 72
     1
 10
453144.2266296674
 20
196422.4038413816
 11
453144.7656641657
 21
196421.6337920984
 72
     1
 10
453144.7656641657
 20
196421.6337920984
 11
453145.6127183771
 21
196421.2487674569
 72
     1
 10
453145.6127183771
 20
196421.2487674569
 11
453146.2287578037
 21
196420.1706984604
 97
        0
 92
        1
 93
       13
 72
     1
 10
453148.3848957965
 20
196418.4765900375
 11
453146.4597725886
 21
196416.2434471164
 72
     1
 10
453146.4597725886
 20
196416.2434471164
 11
453144.7656641657
 21
196414.3953288368
 72
     1
 10
453144.7656641657
 20
196414.3953288368
 11
453145.6897233055
 21
196413.5482746253
 72
     1
 10
453145.6897233055
 20
196413.5482746253
 11
453147.2298218718
 21
196412.1621859156
 72
     1
 10
453147.2298218718
 20
196412.1621859156
 11
453148.6929155097
 21
196412.008176059
 72
     1
 10
453148.6929155097
 20
196412.008176059
 11
453149.5399697212
 21
196413.1632499838
 72
     1
 10
453149.5399697212
 20
196413.1632499838
 11
453150.2330140761
 21
196414.0103041952
 72
     1
 10
453150.2330140761
 20
196414.0103041952
 11
453150.7720485743
 21
196415.4733978332
 72
     1
 10
453150.7720485743
 20
196415.4733978332
 11
453150.9260584309
 21
196416.6284717579
 72
     1
 10
453150.9260584309
 20
196416.6284717579
 11
453150.3870239327
 21
196417.5525308977
 72
     1
 10
453150.3870239327
 20
196417.5525308977
 11
453149.3089549363
 21
196418.2455752526
 72
     1
 10
453149.3089549363
 20
196418.2455752526
 11
453148.4619007248
 21
196419.1696343924
 72
     1
 10
453148.4619007248
 20
196419.1696343924
 11
453148.3848957965
 21
196418.4765900375
 97
        0
 92
        1
 93
       39
 72
     1
 10
453183.2361871699
 20
196284.2138963076
 11
453187.4746012855
 21
196297.2214430763
 72
     1
 10
453187.4746012855
 20
196297.2214430763
 11
453180.459295163
 21
196300.7290961375
 72
     1
 10
453180.459295163
 20
196300.7290961375
 11
453175.490119993
 21
196304.3829014096
 72
     1
 10
453175.490119993
 20
196304.3829014096
 11
453173.7362934624
 21
196306.2828801511
 72
     1
 10
453173.7362934624
 20
196306.2828801511
 11
453173.7362934624
 21
196306.7213367838
 72
     1
 10
453173.7362934624
 20
196306.7213367838
 11
453175.1978155712
 21
196309.4982287906
 72
     1
 10
453175.1978155712
 20
196309.4982287906
 11
453175.7824244148
 21
196310.228989845
 72
     1
 10
453175.7824244148
 20
196310.228989845
 11
453177.6824031562
 21
196310.3751420559
 72
     1
 10
453177.6824031562
 20
196310.3751420559
 11
453183.090034959
 21
196308.6213155252
 72
     1
 10
453183.090034959
 20
196308.6213155252
 11
453185.2823181222
 21
196308.1828588926
 72
     1
 10
453185.2823181222
 20
196308.1828588926
 11
453186.1592313875
 21
196311.6905119538
 72
     1
 10
453186.1592313875
 20
196311.6905119538
 11
453185.2823181222
 21
196313.5904906953
 72
     1
 10
453185.2823181222
 20
196313.5904906953
 11
453182.5054261154
 21
196315.0520128042
 72
     1
 10
453182.5054261154
 20
196315.0520128042
 11
453179.7285341086
 21
196317.2442959674
 72
     1
 10
453179.7285341086
 20
196317.2442959674
 11
453179.1439252651
 21
196323.0903844028
 72
     1
 10
453179.1439252651
 20
196323.0903844028
 11
453180.459295163
 21
196330.6902993688
 72
     1
 10
453180.459295163
 20
196330.6902993688
 11
453187.3284490746
 21
196356.5592406953
 72
     1
 10
453187.3284490746
 20
196356.5592406953
 11
453192.4437764556
 21
196370.4437007293
 72
     1
 10
453192.4437764556
 20
196370.4437007293
 11
453195.0745162515
 21
196370.5898529402
 72
     1
 10
453195.0745162515
 20
196370.5898529402
 11
453198.3181818819
 21
196371.0977318731
 72
     1
 10
453198.3181818819
 20
196371.0977318731
 11
453203.3992548384
 21
196371.0977318731
 72
     1
 10
453203.3992548384
 20
196371.0977318731
 11
453205.1590188025
 21
196370.7360051511
 72
     1
 10
453205.1590188025
 20
196370.7360051511
 11
453208.8799627466
 21
196370.4697340919
 72
     1
 10
453208.8799627466
 20
196370.4697340919
 11
453212.0281727141
 21
196369.8590918858
 72
     1
 10
453212.0281727141
 20
196369.8590918858
 11
453217.2896523059
 21
196369.7129396749
 72
     1
 10
453217.2896523059
 20
196369.7129396749
 11
453223.6093652498
 21
196369.9559177255
 72
     1
 10
453223.6093652498
 20
196369.9559177255
 11
453228.1195311325
 21
196369.0995571148
 72
     1
 10
453228.1195311325
 20
196369.0995571148
 11
453232.343330027
 21
196366.2052866137
 72
     1
 10
453232.343330027
 20
196366.2052866137
 11
453228.2510681223
 21
196351.7362177361
 72
     1
 10
453228.2510681223
 20
196351.7362177361
 11
453225.9126327481
 21
196343.113237294
 72
     1
 10
453225.9126327481
 20
196343.113237294
 11
453224.0126540067
 21
196324.6980587226
 72
     1
 10
453224.0126540067
 20
196324.6980587226
 11
453217.2896523059
 21
196302.7752270899
 72
     1
 10
453217.2896523059
 20
196302.7752270899
 11
453212.9050859794
 21
196290.9368980083
 72
     1
 10
453212.9050859794
 20
196290.9368980083
 11
453211.7358682923
 21
196288.4523104232
 72
     1
 10
453211.7358682923
 20
196288.4523104232
 11
453198.1437126801
 21
196292.3984201171
 72
     1
 10
453198.1437126801
 20
196292.3984201171
 11
453195.0745162515
 21
196280.2677866137
 72
     1
 10
453195.0745162515
 20
196280.2677866137
 11
453193.7591463536
 21
196274.860154811
 72
     1
 10
453193.7591463536
 20
196274.860154811
 11
453181.6285128501
 21
196281.144699879
 72
     1
 10
453181.6285128501
 20
196281.144699879
 11
453183.2361871699
 21
196284.2138963076
 97
        0
 92
        1
 93
       34
 72
     1
 10
453177.998681078
 20
196318.3004937673
 11
453174.9954888737
 21
196320.1486120468
 72
     1
 10
453174.9954888737
 20
196320.1486120468
 11
453172.9163558091
 21
196321.6117056848
 72
     1
 10
453172.9163558091
 20
196321.6117056848
 11
453169.6051438916
 21
196322.150740183
 72
     1
 10
453169.6051438916
 20
196322.150740183
 11
453166.4479418307
 21
196323.0747993228
 72
     1
 10
453166.4479418307
 20
196323.0747993228
 11
453164.2147989095
 21
196323.2288091794
 72
     1
 10
453164.2147989095
 20
196323.2288091794
 11
453162.7517052715
 21
196322.5357648246
 72
     1
 10
453162.7517052715
 20
196322.5357648246
 11
453161.2886116335
 21
196321.2266810432
 72
     1
 10
453161.2886116335
 20
196321.2266810432
 11
453160.2105426371
 21
196320.2256169751
 72
     1
 10
453160.2105426371
 20
196320.2256169751
 11
453160.3645524937
 21
196318.5315085522
 72
     1
 10
453160.3645524937
 20
196318.5315085522
 11
453161.2116067052
 21
196317.761459269
 72
     1
 10
453161.2116067052
 20
196317.761459269
 11
453163.1367299131
 21
196317.1454198425
 72
     1
 10
453163.1367299131
 20
196317.1454198425
 11
453164.2918038378
 21
196316.2213607027
 72
     1
 10
453164.2918038378
 20
196316.2213607027
 11
453164.2918038378
 21
196314.6042572081
 72
     1
 10
453164.2918038378
 20
196314.6042572081
 11
453164.3688087661
 21
196313.2951734268
 72
     1
 10
453164.3688087661
 20
196313.2951734268
 11
453162.9827200564
 21
196311.1390354339
 72
     1
 10
453162.9827200564
 20
196311.1390354339
 11
453164.7538334077
 21
196309.7529467243
 72
     1
 10
453164.7538334077
 20
196309.7529467243
 11
453168.1420502536
 21
196309.444927011
 72
     1
 10
453168.1420502536
 20
196309.444927011
 11
453170.3751931748
 21
196309.213912226
 72
     1
 10
453170.3751931748
 20
196309.213912226
 11
453172.7623459525
 21
196308.1358432296
 72
     1
 10
453172.7623459525
 20
196308.1358432296
 11
453174.2254395905
 21
196308.7518826561
 72
     1
 10
453174.2254395905
 20
196308.7518826561
 11
453174.9184839454
 21
196310.4459910791
 72
     1
 10
453174.9184839454
 20
196310.4459910791
 11
453174.1484346622
 21
196311.6010650038
 72
     1
 10
453174.1484346622
 20
196311.6010650038
 11
453173.609400164
 21
196312.6021290719
 72
     1
 10
453173.609400164
 20
196312.6021290719
 11
453176.7666022249
 21
196311.4470551472
 72
     1
 10
453176.7666022249
 20
196311.4470551472
 11
453178.9227402178
 21
196311.2160403622
 72
     1
 10
453178.9227402178
 20
196311.2160403622
 11
453179.6927895009
 21
196311.8320797888
 72
     1
 10
453179.6927895009
 20
196311.8320797888
 11
453178.2296958629
 21
196313.0641586418
 72
     1
 10
453178.2296958629
 20
196313.0641586418
 11
453175.3035085869
 21
196314.6042572081
 72
     1
 10
453175.3035085869
 20
196314.6042572081
 11
453175.7655381568
 21
196315.8363360612
 72
     1
 10
453175.7655381568
 20
196315.8363360612
 11
453178.7687303611
 21
196315.4513114196
 72
     1
 10
453178.7687303611
 20
196315.4513114196
 11
453179.5387796443
 21
196315.6053212762
 72
     1
 10
453179.5387796443
 20
196315.6053212762
 11
453179.0767500744
 21
196316.8374001293
 72
     1
 10
453179.0767500744
 20
196316.8374001293
 11
453178.6147205045
 21
196317.3764346275
 72
     1
 10
453178.6147205045
 20
196317.3764346275
 11
453177.998681078
 21
196318.3004937673
 97
        0
 75
     1
 76
     1
 52
0.0
 41
10.0
 77
     0
 78
     2
 53
45.0
 43
0.0
 44
0.0
 45
-0.8838834764831844
 46
0.8838834764831844
 79
     0
 53
135.0
 43
0.0
 44
0.0
 45
-0.8838834764831844
 46
-0.8838834764831843
 79
     0
 98
        1
 10
0.0
 20
0.0
1001
ACAD
1010
0.0
1020
0.0
1030
0.0
1001
HATCHBACKGROUNDCOLOR
1071
-939524096
1000
None
1000

  0
HATCH
  5
45A
330
1F
100
AcDbEntity
  8
AS-ABST MAG DISTURBANCE
100
AcDbHatch
 10
0.0
 20
0.0
 30
0.0
210
0.0
220
0.0
230
1.0
  2
ANSI31
 70
     0
 71
     0
 91
        1
 92
        1
 93
       17
 72
     1
 10
453180.3946088069
 20
196369.8807975465
 11
453184.2448552226
 21
196368.1481866595
 72
     1
 10
453184.2448552226
 20
196368.1481866595
 11
453185.3518010672
 21
196365.2123737674
 72
     1
 10
453185.3518010672
 20
196365.2123737674
 11
453182.0810167371
 21
196363.5798692872
 72
     1
 10
453182.0810167371
 20
196363.5798692872
 11
453184.6780079444
 21
196362.2284327952
 72
     1
 10
453184.6780079444
 20
196362.2284327952
 11
453183.5710620999
 21
196358.6188267804
 72
     1
 10
453183.5710620999
 20
196358.6188267804
 11
453181.9828354535
 21
196357.6562651765
 72
     1
 10
453181.9828354535
 20
196357.6562651765
 11
453177.6994363159
 21
196357.0787282141
 72
     1
 10
453177.6994363159
 20
196357.0787282141
 11
453175.0042638249
 21
196358.2338021388
 72
     1
 10
453175.0042638249
 20
196358.2338021388
 11
453174.1379583813
 21
196360.4476938279
 72
     1
 10
453174.1379583813
 20
196360.4476938279
 11
453175.0042638249
 21
196362.7097135972
 72
     1
 10
453175.0042638249
 20
196362.7097135972
 11
453176.3037219902
 21
196364.2016840833
 72
     1
 10
453176.3037219902
 20
196364.2016840833
 11
453176.4481062307
 21
196365.4048860882
 72
     1
 10
453176.4481062307
 20
196365.4048860882
 11
453175.4374165466
 21
196367.2818812159
 72
     1
 10
453175.4374165466
 20
196367.2818812159
 11
453175.052391905
 21
196368.8701078624
 72
     1
 10
453175.052391905
 20
196368.8701078624
 11
453176.736874712
 21
196369.4476448248
 72
     1
 10
453176.736874712
 20
196369.4476448248
 11
453178.228845198
 21
196369.9770537069
 72
     1
 10
453178.228845198
 20
196369.9770537069
 11
453180.3946088069
 21
196369.8807975465
 97
        0
 75
     1
 76
     1
 52
0.0
 41
10.0
 77
     0
 78
     1
 53
45.0
 43
0.0
 44
0.0
 45
-0.8838834764831844
 46
0.8838834764831844
 79
     0
 98
        1
 10
0.0
 20
0.0
1001
ACAD
1010
0.0
1020
0.0
1030
0.0
1001
HATCHBACKGROUNDCOLOR
1071
-939524096
1000
None
1000

  0
ENDSEC
  0
SECTION
  2
OBJECTS
  0
DICTIONARY
  5
C
330
0
100
AcDbDictionary
281
     1
  3
ACAD_CIP_PREVIOUS_PRODUCT_INFO
350
17B
  3
ACAD_COLOR
350
6C
  3
ACAD_DETAILVIEWSTYLE
350
176
  3
ACAD_GROUP
350
D
  3
ACAD_IMAGE_DICT
350
217
  3
ACAD_IMAGE_VARS
350
250
  3
ACAD_LAYOUT
350
1A
  3
ACAD_MATERIAL
350
6B
  3
ACAD_MLEADERSTYLE
350
EB
  3
ACAD_MLINESTYLE
350
17
  3
ACAD_PLOTSETTINGS
350
19
  3
ACAD_PLOTSTYLENAME
350
E
  3
ACAD_SCALELIST
350
99
  3
ACAD_SECTIONVIEWSTYLE
350
174
  3
ACAD_TABLESTYLE
350
92
  3
ACAD_VISUALSTYLE
350
EF
  3
ACDB_RECOMPOSE_DATA
350
466
  3
AcDbVariableDictionary
350
59
  0
SUN
  5
100
330
97
100
AcDbSun
 90
        1
290
     0
 63
     7
421
 16777215
 40
1.0
291
     1
 91
  2455826
 92
 54000000
292
     0
 70
     2
 71
   256
280
     1
  0
XRECORD
  5
17B
102
{ACAD_REACTORS
330
C
102
}
330
C
100
AcDbXrecord
280
     1
300
ACD
300
2015
300
ACD_F_S
  0
DICTIONARY
  5
6C
102
{ACAD_REACTORS
330
C
102
}
330
C
100
AcDbDictionary
281
     1
  3
UNNAMED$254,255,255
350
2D7
  0
DICTIONARY
  5
176
102
{ACAD_REACTORS
330
C
102
}
330
C
100
AcDbDictionary
281
     1
  3
Imperial24
350
177
  0
DICTIONARY
  5
D
102
{ACAD_REACTORS
330
C
102
}
330
C
100
AcDbDictionary
281
     1
  0
DICTIONARY
  5
217
102
{ACAD_REACTORS
330
C
102
}
330
C
100
AcDbDictionary
281
     1
  0
RASTERVARIABLES
  5
250
102
{ACAD_REACTORS
330
C
102
}
330
C
100
AcDbRasterVariables
 90
        0
 70
     1
 71
     1
 72
     3
  0
DICTIONARY
  5
1A
102
{ACAD_REACTORS
330
C
102
}
330
C
100
AcDbDictionary
281
     1
  3
Layout1
350
161
  3
Layout2
350
165
  3
Model
350
22
  0
DICTIONARY
  5
6B
102
{ACAD_REACTORS
330
C
102
}
330
C
100
AcDbDictionary
281
     1
  3
ByBlock
350
ED
  3
ByLayer
350
EC
  3
Global
350
EE
  0
DICTIONARY
  5
EB
102
{ACAD_REACTORS
330
C
102
}
330
C
100
AcDbDictionary
281
     1
  3
Standard
350
173
  0
DICTIONARY
  5
17
102
{ACAD_REACTORS
330
C
102
}
330
C
100
AcDbDictionary
281
     1
  3
Standard
350
18
  0
DICTIONARY
  5
19
102
{ACAD_REACTORS
330
C
102
}
330
C
100
AcDbDictionary
281
     1
  0
ACDBDICTIONARYWDFLT
  5
E
102
{ACAD_REACTORS
330
C
102
}
330
C
100
AcDbDictionary
281
     1
  3
Normal
350
F
100
AcDbDictionaryWithDefault
340
F
  0
DICTIONARY
  5
99
102
{ACAD_REACTORS
330
C
102
}
330
C
100
AcDbDictionary
281
     1
  3
A0
350
C0
  3
A1
350
C1
  3
A2
350
C2
  3
A3
350
C3
  3
A4
350
C4
  3
A5
350
C5
  3
A6
350
C6
  3
A7
350
C7
  3
A8
350
C8
  3
A9
350
C9
  3
B0
350
CA
  3
B1
350
CB
  3
B2
350
CC
  3
B3
350
CD
  3
B4
350
CE
  3
B5
350
CF
  3
B6
350
D0
  3
B7
350
D1
  3
B8
350
D2
  3
B9
350
D3
  3
C0
350
D4
  3
C1
350
D5
  3
C2
350
D6
  3
C3
350
D7
  3
C4
350
D8
  3
C5
350
D9
  3
C6
350
DA
  3
C7
350
DB
  3
C8
350
DC
  3
C9
350
DD
  3
D0
350
DE
  3
D1
350
DF
  3
D2
350
E0
  0
DICTIONARY
  5
174
102
{ACAD_REACTORS
330
C
102
}
330
C
100
AcDbDictionary
281
     1
  3
Imperial24
350
175
  0
DICTIONARY
  5
92
102
{ACAD_REACTORS
330
C
102
}
330
C
100
AcDbDictionary
281
     1
  3
Standard
350
E5
  0
DICTIONARY
  5
EF
102
{ACAD_REACTORS
330
C
102
}
330
C
100
AcDbDictionary
281
     1
  3
2dWireframe
350
F4
  3
3D Hidden
350
F6
  3
3dWireframe
350
F5
  3
Basic
350
F7
  3
Brighten
350
FB
  3
ColorChange
350
FF
  3
Conceptual
350
F9
  3
Dim
350
FA
  3
EdgeColorOff
350
172
  3
Facepattern
350
FE
  3
Flat
350
F0
  3
FlatWithEdges
350
F1
  3
Gouraud
350
F2
  3
GouraudWithEdges
350
F3
  3
Hidden
350
16A
  3
JitterOff
350
170
  3
Linepattern
350
FD
  3
OverhangOff
350
171
  3
Realistic
350
F8
  3
Shaded
350
16F
  3
Shaded with edges
350
16E
  3
Shades of Gray
350
16B
  3
Sketchy
350
16C
  3
Thicken
350
FC
  3
Wireframe
350
169
  3
X-Ray
350
16D
  0
XRECORD
  5
466
102
{ACAD_REACTORS
330
C
102
}
330
C
100
AcDbXrecord
280
     1
 90
        1
330
E5
  0
DICTIONARY
  5
59
102
{ACAD_REACTORS
330
C
102
}
330
C
100
AcDbDictionary
281
     1
  3
ANNOALLVISIBLE
350
45F
  3
CANNOSCALE
350
45C
  3
CMLEADERSTYLE
350
45E
  3
CTABLESTYLE
350
45D
  3
CVIEWDETAILSTYLE
350
462
  3
CVIEWSECTIONSTYLE
350
463
  3
DWFFRAME
350
460
  3
XCLIPFRAME
350
461
  0
DBCOLOR
  5
2D7
102
{ACAD_REACTORS
330
6C
102
}
330
6C
100
AcDbColor
 62
     7
420
 16711679
430
UNNAMED$254,255,255
  0
ACDBDETAILVIEWSTYLE
  5
177
102
{ACAD_REACTORS
330
176
102
}
102
{ACAD_XDICTIONARY
360
18B
102
}
330
176
100
AcDbModelDocViewStyle
 70
     0
  3
Imperial24
290
     0
300
Imperial24
 90
        0
100
AcDbDetailViewStyle
 70
     0
 71
     0
 90
        3
 71
     1
340
11
 62
   256
 40
0.24
340
0
 62
   256
 40
0.24
300

 40
0.36
280
     3
 71
     2
340
16
 90
       25
 62
   256
 71
     3
340
11
 62
   256
 40
0.24
 90
        1
 40
0.75
 90
        1
300
%<\AcVar ViewType \f "%tc1">% %<\AcVar ViewDetailId>%\PSCALA %<\AcVar ViewScale \f "%sn">%
 71
     4
340
16
 90
       25
 62
   256
340
16
 90
       25
 62
   256
280
     0
  0
LAYOUT
  5
161
102
{ACAD_REACTORS
330
1A
102
}
330
1A
100
AcDbPlotSettings
  1

  2
HP Photosmart C4600 series (reindirizzamento 3)
  4

  6

 40
0.0
 41
0.0
 42
0.0
 43
0.0
 44
0.0
 45
0.0
 46
0.0
 47
0.0
 48
0.0
 49
0.0
140
0.0
141
0.0
142
1.0
143
1.0
 70
   688
 72
     0
 73
     1
 74
     5
  7

 75
    16
 76
     0
 77
     2
 78
   300
147
1.0
148
0.0
149
0.0
100
AcDbLayout
  1
Layout1
 70
     1
 71
     1
 10
0.0
 20
0.0
 11
0.0
 21
0.0
 12
0.0
 22
0.0
 32
0.0
 14
0.0
 24
0.0
 34
0.0
 15
0.0
 25
0.0
 35
0.0
146
0.0
 13
0.0
 23
0.0
 33
0.0
 16
1.0
 26
0.0
 36
0.0
 17
0.0
 27
1.0
 37
0.0
 76
     0
330
160
  0
LAYOUT
  5
165
102
{ACAD_REACTORS
330
1A
102
}
330
1A
100
AcDbPlotSettings
  1

  2
HP Photosmart C4600 series (reindirizzamento 3)
  4

  6

 40
0.0
 41
0.0
 42
0.0
 43
0.0
 44
0.0
 45
0.0
 46
0.0
 47
0.0
 48
0.0
 49
0.0
140
0.0
141
0.0
142
1.0
143
1.0
 70
   688
 72
     0
 73
     1
 74
     5
  7

 75
    16
 76
     0
 77
     2
 78
   300
147
1.0
148
0.0
149
0.0
100
AcDbLayout
  1
Layout2
 70
     1
 71
     2
 10
0.0
 20
0.0
 11
0.0
 21
0.0
 12
0.0
 22
0.0
 32
0.0
 14
0.0
 24
0.0
 34
0.0
 15
0.0
 25
0.0
 35
0.0
146
0.0
 13
0.0
 23
0.0
 33
0.0
 16
1.0
 26
0.0
 36
0.0
 17
0.0
 27
1.0
 37
0.0
 76
     0
330
164
  0
LAYOUT
  5
22
102
{ACAD_REACTORS
330
1A
102
}
330
1A
100
AcDbPlotSettings
  1

  2
none_device
  4
none_user_media
  6

 40
3.174999952316284
 41
3.174999952316284
 42
3.175003051757812
 43
3.17498779296875
 44
210.0
 45
297.0
 46
8.00618737763388
 47
0.0
 48
0.0
 49
0.0
140
0.0
141
0.0
142
1.0
143
1.309408464340166
 70
 11956
 72
     0
 73
     1
 74
     0
  7

 75
     0
 76
     0
 77
     2
 78
   300
147
0.7637036320090675
148
0.0
149
0.0
100
AcDbLayout
  1
Model
 70
     1
 71
     0
 10
0.0
 20
0.0
 11
12.0
 21
9.0
 12
0.0
 22
0.0
 32
0.0
 14
0.0
 24
0.0
 34
0.0
 15
0.0
 25
0.0
 35
0.0
146
0.0
 13
0.0
 23
0.0
 33
0.0
 16
1.0
 26
0.0
 36
0.0
 17
0.0
 27
1.0
 37
0.0
 76
     0
330
1F
331
97
1001
PROGE_PRINT_SETTINGS
1070
    73
1070
     1
1001
ACAD_PSEXT
1000
Nessuna
1000
Nessuna
1000
Non applicabile
1000
Il layout non viene stampato a meno che non venga selezionato un nuovo nome di configurazione della stampante.
1070
     0
  0
MATERIAL
  5
ED
102
{ACAD_REACTORS
330
6B
102
}
330
6B
100
AcDbMaterial
  1
ByBlock
 72
     1
 94
      127
  0
MATERIAL
  5
EC
102
{ACAD_REACTORS
330
6B
102
}
330
6B
100
AcDbMaterial
  1
ByLayer
 72
     1
 94
      127
  0
MATERIAL
  5
EE
102
{ACAD_REACTORS
330
6B
102
}
102
{ACAD_XDICTIONARY
360
185
102
}
330
6B
100
AcDbMaterial
  1
Global
 72
     1
 94
      127
  0
MLEADERSTYLE
  5
173
102
{ACAD_REACTORS
330
EB
102
}
330
EB
100
AcDbMLeaderStyle
179
     2
170
     2
171
     1
172
     0
 90
        2
 40
0.0
 41
0.0
173
     1
 91
-1056964608
340
14
 92
       -2
290
     1
 42
0.09
291
     1
 43
0.36
  3
Standard
341
0
 44
0.1875
300

342
11
174
     1
178
     1
175
     1
176
     0
 93
-1056964608
 45
0.18
292
     0
297
     0
 46
0.18
343
0
 94
-1056964608
 47
1.0
 49
1.0
140
1.0
293
     1
141
0.0
294
     1
177
     0
142
1.0
295
     1
296
     0
143
0.125
271
     0
272
     9
273
     9
298
     1
  0
MLINESTYLE
  5
18
102
{ACAD_REACTORS
330
17
102
}
330
17
100
AcDbMlineStyle
  2
STANDARD
 70
     0
  3

 62
   256
 51
90.0
 52
90.0
 71
     2
 49
0.5
 62
   256
  6
BYLAYER
 49
-0.5
 62
   256
  6
BYLAYER
  0
ACDBPLACEHOLDER
  5
F
102
{ACAD_REACTORS
330
E
102
}
330
E
  0
SCALE
  5
C0
102
{ACAD_REACTORS
330
99
102
}
330
99
100
AcDbScale
 70
     0
300
1:1
140
1.0
141
1.0
290
     1
  0
SCALE
  5
C1
102
{ACAD_REACTORS
330
99
102
}
330
99
100
AcDbScale
 70
     0
300
1:2
140
1.0
141
2.0
290
     0
  0
SCALE
  5
C2
102
{ACAD_REACTORS
330
99
102
}
330
99
100
AcDbScale
 70
     0
300
1:4
140
1.0
141
4.0
290
     0
  0
SCALE
  5
C3
102
{ACAD_REACTORS
330
99
102
}
330
99
100
AcDbScale
 70
     0
300
1:5
140
1.0
141
5.0
290
     0
  0
SCALE
  5
C4
102
{ACAD_REACTORS
330
99
102
}
330
99
100
AcDbScale
 70
     0
300
1:8
140
1.0
141
8.0
290
     0
  0
SCALE
  5
C5
102
{ACAD_REACTORS
330
99
102
}
330
99
100
AcDbScale
 70
     0
300
1:10
140
1.0
141
10.0
290
     0
  0
SCALE
  5
C6
102
{ACAD_REACTORS
330
99
102
}
330
99
100
AcDbScale
 70
     0
300
1:16
140
1.0
141
16.0
290
     0
  0
SCALE
  5
C7
102
{ACAD_REACTORS
330
99
102
}
330
99
100
AcDbScale
 70
     0
300
1:20
140
1.0
141
20.0
290
     0
  0
SCALE
  5
C8
102
{ACAD_REACTORS
330
99
102
}
330
99
100
AcDbScale
 70
     0
300
1:30
140
1.0
141
30.0
290
     0
  0
SCALE
  5
C9
102
{ACAD_REACTORS
330
99
102
}
330
99
100
AcDbScale
 70
     0
300
1:40
140
1.0
141
40.0
290
     0
  0
SCALE
  5
CA
102
{ACAD_REACTORS
330
99
102
}
330
99
100
AcDbScale
 70
     0
300
1:50
140
1.0
141
50.0
290
     0
  0
SCALE
  5
CB
102
{ACAD_REACTORS
330
99
102
}
330
99
100
AcDbScale
 70
     0
300
1:100
140
1.0
141
100.0
290
     0
  0
SCALE
  5
CC
102
{ACAD_REACTORS
330
99
102
}
330
99
100
AcDbScale
 70
     0
300
2:1
140
2.0
141
1.0
290
     0
  0
SCALE
  5
CD
102
{ACAD_REACTORS
330
99
102
}
330
99
100
AcDbScale
 70
     0
300
4:1
140
4.0
141
1.0
290
     0
  0
SCALE
  5
CE
102
{ACAD_REACTORS
330
99
102
}
330
99
100
AcDbScale
 70
     0
300
8:1
140
8.0
141
1.0
290
     0
  0
SCALE
  5
CF
102
{ACAD_REACTORS
330
99
102
}
330
99
100
AcDbScale
 70
     0
300
10:1
140
10.0
141
1.0
290
     0
  0
SCALE
  5
D0
102
{ACAD_REACTORS
330
99
102
}
330
99
100
AcDbScale
 70
     0
300
100:1
140
100.0
141
1.0
290
     0
  0
SCALE
  5
D1
102
{ACAD_REACTORS
330
99
102
}
330
99
100
AcDbScale
 70
     0
300
1/128" = 1'-0"
140
0.0078125
141
12.0
290
     0
  0
SCALE
  5
D2
102
{ACAD_REACTORS
330
99
102
}
330
99
100
AcDbScale
 70
     0
300
1/64" = 1'-0"
140
0.015625
141
12.0
290
     0
  0
SCALE
  5
D3
102
{ACAD_REACTORS
330
99
102
}
330
99
100
AcDbScale
 70
     0
300
1/32" = 1'-0"
140
0.03125
141
12.0
290
     0
  0
SCALE
  5
D4
102
{ACAD_REACTORS
330
99
102
}
330
99
100
AcDbScale
 70
     0
300
1/16" = 1'-0"
140
0.0625
141
12.0
290
     0
  0
SCALE
  5
D5
102
{ACAD_REACTORS
330
99
102
}
330
99
100
AcDbScale
 70
     0
300
3/32" = 1'-0"
140
0.09375
141
12.0
290
     0
  0
SCALE
  5
D6
102
{ACAD_REACTORS
330
99
102
}
330
99
100
AcDbScale
 70
     0
300
1/8" = 1'-0"
140
0.125
141
12.0
290
     0
  0
SCALE
  5
D7
102
{ACAD_REACTORS
330
99
102
}
330
99
100
AcDbScale
 70
     0
300
3/16" = 1'-0"
140
0.1875
141
12.0
290
     0
  0
SCALE
  5
D8
102
{ACAD_REACTORS
330
99
102
}
330
99
100
AcDbScale
 70
     0
300
1/4" = 1'-0"
140
0.25
141
12.0
290
     0
  0
SCALE
  5
D9
102
{ACAD_REACTORS
330
99
102
}
330
99
100
AcDbScale
 70
     0
300
3/8" = 1'-0"
140
0.375
141
12.0
290
     0
  0
SCALE
  5
DA
102
{ACAD_REACTORS
330
99
102
}
330
99
100
AcDbScale
 70
     0
300
1/2" = 1'-0"
140
0.5
141
12.0
290
     0
  0
SCALE
  5
DB
102
{ACAD_REACTORS
330
99
102
}
330
99
100
AcDbScale
 70
     0
300
3/4" = 1'-0"
140
0.75
141
12.0
290
     0
  0
SCALE
  5
DC
102
{ACAD_REACTORS
330
99
102
}
330
99
100
AcDbScale
 70
     0
300
1" = 1'-0"
140
1.0
141
12.0
290
     0
  0
SCALE
  5
DD
102
{ACAD_REACTORS
330
99
102
}
330
99
100
AcDbScale
 70
     0
300
1-1/2" = 1'-0"
140
1.5
141
12.0
290
     0
  0
SCALE
  5
DE
102
{ACAD_REACTORS
330
99
102
}
330
99
100
AcDbScale
 70
     0
300
3" = 1'-0"
140
3.0
141
12.0
290
     0
  0
SCALE
  5
DF
102
{ACAD_REACTORS
330
99
102
}
330
99
100
AcDbScale
 70
     0
300
6" = 1'-0"
140
6.0
141
12.0
290
     0
  0
SCALE
  5
E0
102
{ACAD_REACTORS
330
99
102
}
330
99
100
AcDbScale
 70
     0
300
1'-0" = 1'-0"
140
12.0
141
12.0
290
     0
  0
ACDBSECTIONVIEWSTYLE
  5
175
102
{ACAD_REACTORS
330
174
102
}
102
{ACAD_XDICTIONARY
360
189
102
}
330
174
100
AcDbModelDocViewStyle
 70
     0
  3
Imperial24
290
     0
300
Imperial24
 90
        0
100
AcDbSectionViewStyle
 70
     0
 71
     0
 90
       78
 71
     1
340
11
 62
   256
 40
0.24
340
0
340
0
 62
   256
 40
0.24
300
I, O, Q, S, X, Z
 40
0.48
 90
        3
 40
0.18
 90
        1
 71
     2
340
16
 90
       25
 62
   256
340
16
 90
       50
 62
   256
 40
0.24
 40
0.0
 40
0.24
 71
     3
340
11
 62
   256
 40
0.24
 90
        1
 40
0.75
 90
        1
300
%<\AcVar ViewType \f "%tc1">% %<\AcVar ViewSectionStartId>%-%<\AcVar ViewSectionEndId>%\PSCALA %<\AcVar ViewScale \f "%sn">%
 71
     4
 62
   256
 62
   257
300
ANSI31
 40
1.0
 90
        0
290
     0
290
     0
 90
        6
 40
0.0
 40
1.570796326794897
 40
0.2617993877991494
 40
1.308996938995747
 40
-0.2617993877991494
 40
1.832595714594046
  0
TABLESTYLE
  5
E5
102
{ACAD_REACTORS
330
92
102
}
102
{ACAD_XDICTIONARY
360
464
102
}
330
92
100
AcDbTableStyle
  3
Standard
 70
     0
 71
     0
 40
0.06
 41
0.06
280
     0
281
     0
  7
Standard
140
0.18
170
     2
 62
     0
 63
   257
283
     0
 90
      512
 91
        0
  1

274
    -2
284
     1
 64
     0
275
    -2
285
     1
 65
     0
276
    -2
286
     1
 66
     0
277
    -2
287
     1
 67
     0
278
    -2
288
     1
 68
     0
279
    -2
289
     1
 69
     0
  7
Standard
140
0.25
170
     5
 62
     0
 63
   257
283
     0
 90
      512
 91
        0
  1

274
    -2
284
     1
 64
     0
275
    -2
285
     1
 65
     0
276
    -2
286
     1
 66
     0
277
    -2
287
     1
 67
     0
278
    -2
288
     1
 68
     0
279
    -2
289
     1
 69
     0
  7
Standard
140
0.18
170
     5
 62
     0
 63
   257
283
     0
 90
      512
 91
        0
  1

274
    -2
284
     1
 64
     0
275
    -2
285
     1
 65
     0
276
    -2
286
     1
 66
     0
277
    -2
287
     1
 67
     0
278
    -2
288
     1
 68
     0
279
    -2
289
     1
 69
     0
  0
VISUALSTYLE
  5
F4
102
{ACAD_REACTORS
330
EF
102
}
330
EF
100
AcDbVisualStyle
  2
2dWireframe
 70
     4
177
     3
291
     0
 70
    58
 90
        0
176
     1
 90
        2
176
     1
 90
        0
176
     1
 90
        0
176
     1
 40
0.6
176
     1
 40
30.0
176
     1
 62
     7
420
 16777215
176
     1
 90
        1
176
     1
 90
        4
176
     1
 62
     7
176
     1
 62
   257
176
     1
 90
        1
176
     1
 90
        1
176
     1
 40
1.0
176
     1
 90
        0
176
     1
 62
   257
176
     1
 40
1.0
176
     1
 90
        1
176
     1
 90
        6
176
     1
 90
        2
176
     1
 62
     7
176
     1
 90
        5
176
     1
 90
        0
176
     1
 90
        0
176
     1
290
     0
176
     1
 90
        1
176
     1
 40
0.0
176
     1
 90
        0
176
     1
290
     1
176
     1
290
     1
176
     1
290
     0
176
     1
290
     0
176
     1
290
     0
176
     1
290
     0
176
     1
290
     0
176
     1
290
     0
176
     1
290
     0
176
     1
 90
       50
176
     1
 40
0.0
176
     1
 40
1.0
176
     1
 90
        0
176
     1
 62
    18
420
        0
176
     1
 90
       50
176
     1
 90
        3
176
     1
 62
     5
420
      255
176
     1
290
     0
176
     1
 90
       50
176
     1
 90
       50
176
     1
 90
       50
176
     1
290
     0
176
     1
 90
       50
176
     1
 62
   256
176
     0
 40
1.0
176
     0
 90
        2
176
     1
  1
strokes_ogs.tif
176
     1
290
     0
176
     1
 40
1.0
176
     1
 40
1.0
176
     1
  0
VISUALSTYLE
  5
F6
102
{ACAD_REACTORS
330
EF
102
}
330
EF
100
AcDbVisualStyle
  2
3D Hidden
 70
     6
177
     3
291
     0
 70
    58
 90
        1
176
     1
 90
        2
176
     1
 90
        2
176
     1
 90
        0
176
     1
 40
0.6
176
     1
 40
30.0
176
     1
 62
     7
420
 16777215
176
     1
 90
        2
176
     1
 90
        2
176
     1
 62
     7
176
     1
 62
   257
176
     1
 90
        2
176
     1
 90
        1
176
     1
 40
40.0
176
     1
 90
        0
176
     1
 62
   257
176
     1
 40
1.0
176
     1
 90
        1
176
     1
 90
        6
176
     1
 90
        2
176
     1
 62
     7
176
     1
 90
        3
176
     1
 90
        0
176
     1
 90
        0
176
     1
290
     0
176
     1
 90
        1
176
     1
 40
0.0
176
     1
 90
        0
176
     1
290
     0
176
     1
290
     1
176
     1
290
     1
176
     1
290
     0
176
     1
290
     0
176
     1
290
     0
176
     1
290
     0
176
     1
290
     0
176
     1
290
     0
176
     1
 90
       50
176
     1
 40
0.0
176
     1
 40
1.0
176
     1
 90
        0
176
     1
 62
    18
420
        0
176
     1
 90
       50
176
     1
 90
        3
176
     1
 62
     5
420
      255
176
     1
290
     0
176
     1
 90
       50
176
     1
 90
       50
176
     1
 90
       50
176
     1
290
     0
176
     1
 90
       50
176
     1
 62
   256
176
     0
 40
1.0
176
     0
 90
        2
176
     1
  1
strokes_ogs.tif
176
     1
290
     0
176
     1
 40
1.0
176
     1
 40
1.0
176
     1
  0
VISUALSTYLE
  5
F5
102
{ACAD_REACTORS
330
EF
102
}
330
EF
100
AcDbVisualStyle
  2
3dWireframe
 70
     5
177
     3
291
     0
 70
    58
 90
        0
176
     1
 90
        2
176
     1
 90
        0
176
     1
 90
        0
176
     1
 40
0.6
176
     1
 40
30.0
176
     1
 62
     7
420
 16777215
176
     1
 90
        1
176
     1
 90
        4
176
     1
 62
     7
176
     1
 62
   257
176
     1
 90
        1
176
     1
 90
        1
176
     1
 40
1.0
176
     1
 90
        0
176
     1
 62
   257
176
     1
 40
1.0
176
     1
 90
        1
176
     1
 90
        6
176
     1
 90
        2
176
     1
 62
     7
176
     1
 90
        5
176
     1
 90
        0
176
     1
 90
        0
176
     1
290
     0
176
     1
 90
        1
176
     1
 40
0.0
176
     1
 90
        0
176
     1
290
     0
176
     1
290
     1
176
     1
290
     1
176
     1
290
     0
176
     1
290
     0
176
     1
290
     0
176
     1
290
     0
176
     1
290
     0
176
     1
290
     0
176
     1
 90
       50
176
     1
 40
0.0
176
     1
 40
1.0
176
     1
 90
        0
176
     1
 62
    18
420
        0
176
     1
 90
       50
176
     1
 90
        3
176
     1
 62
     5
420
      255
176
     1
290
     0
176
     1
 90
       50
176
     1
 90
       50
176
     1
 90
       50
176
     1
290
     0
176
     1
 90
       50
176
     1
 62
   256
176
     0
 40
1.0
176
     0
 90
        2
176
     1
  1
strokes_ogs.tif
176
     1
290
     0
176
     1
 40
1.0
176
     1
 40
1.0
176
     1
  0
VISUALSTYLE
  5
F7
102
{ACAD_REACTORS
330
EF
102
}
330
EF
100
AcDbVisualStyle
  2
Basic
 70
     7
177
     3
291
     1
 70
    58
 90
        1
176
     1
 90
        0
176
     1
 90
        1
176
     1
 90
        0
176
     1
 40
0.6
176
     1
 40
30.0
176
     1
 62
     7
420
 16777215
176
     1
 90
        0
176
     1
 90
        4
176
     1
 62
     7
176
     1
 62
   257
176
     1
 90
        1
176
     1
 90
        1
176
     1
 40
1.0
176
     1
 90
        8
176
     1
 62
     7
176
     1
 40
1.0
176
     1
 90
        1
176
     1
 90
        6
176
     1
 90
        2
176
     1
 62
     7
176
     1
 90
        5
176
     1
 90
        0
176
     1
 90
        0
176
     1
290
     0
176
     1
 90
        1
176
     1
 40
0.0
176
     1
 90
        0
176
     1
290
     0
176
     1
290
     1
176
     1
290
     1
176
     1
290
     0
176
     1
290
     0
176
     1
290
     0
176
     1
290
     0
176
     1
290
     0
176
     1
290
     0
176
     1
 90
       50
176
     1
 40
0.0
176
     1
 40
1.0
176
     1
 90
        0
176
     1
 62
    18
420
        0
176
     1
 90
       50
176
     1
 90
        3
176
     1
 62
     5
420
      255
176
     1
290
     0
176
     1
 90
       50
176
     1
 90
       50
176
     1
 90
       50
176
     1
290
     0
176
     1
 90
       50
176
     1
 62
   256
176
     0
 40
1.0
176
     0
 90
        2
176
     1
  1
strokes_ogs.tif
176
     1
290
     0
176
     1
 40
1.0
176
     1
 40
1.0
176
     1
  0
VISUALSTYLE
  5
FB
102
{ACAD_REACTORS
330
EF
102
}
330
EF
100
AcDbVisualStyle
  2
Brighten
 70
    12
177
     3
291
     1
 70
    58
 90
        2
176
     1
 90
        2
176
     1
 90
        0
176
     1
 90
        0
176
     1
 40
0.6
176
     1
 40
30.0
176
     1
 62
     7
420
 16777215
176
     1
 90
        1
176
     1
 90
        4
176
     1
 62
     7
176
     1
 62
   257
176
     1
 90
        1
176
     1
 90
        1
176
     1
 40
1.0
176
     1
 90
        8
176
     1
 62
     7
176
     1
 40
1.0
176
     1
 90
        1
176
     1
 90
        6
176
     1
 90
        2
176
     1
 62
     7
176
     1
 90
        5
176
     1
 90
        0
176
     1
 90
        0
176
     1
290
     0
176
     1
 90
        1
176
     1
 40
50.0
176
     1
 90
        0
176
     1
290
     0
176
     1
290
     1
176
     1
290
     1
176
     1
290
     0
176
     1
290
     0
176
     1
290
     0
176
     1
290
     0
176
     1
290
     0
176
     1
290
     0
176
     1
 90
       50
176
     1
 40
0.0
176
     1
 40
1.0
176
     1
 90
        0
176
     1
 62
    18
420
        0
176
     1
 90
       50
176
     1
 90
        3
176
     1
 62
     5
420
      255
176
     1
290
     0
176
     1
 90
       50
176
     1
 90
       50
176
     1
 90
       50
176
     1
290
     0
176
     1
 90
       50
176
     1
 62
   256
176
     0
 40
1.0
176
     0
 90
        2
176
     1
  1
strokes_ogs.tif
176
     1
290
     0
176
     1
 40
1.0
176
     1
 40
1.0
176
     1
  0
VISUALSTYLE
  5
FF
102
{ACAD_REACTORS
330
EF
102
}
330
EF
100
AcDbVisualStyle
  2
ColorChange
 70
    16
177
     3
291
     1
 70
    58
 90
        2
176
     1
 90
        2
176
     1
 90
        3
176
     1
 90
        0
176
     1
 40
0.6
176
     1
 40
30.0
176
     1
 62
     8
420
  8421504
176
     1
 90
        1
176
     1
 90
        4
176
     1
 62
     7
176
     1
 62
   257
176
     1
 90
        1
176
     1
 90
        1
176
     1
 40
1.0
176
     1
 90
        8
176
     1
 62
     8
420
  8421504
176
     1
 40
1.0
176
     1
 90
        1
176
     1
 90
        6
176
     1
 90
        2
176
     1
 62
     7
176
     1
 90
        5
176
     1
 90
        0
176
     1
 90
        0
176
     1
290
     0
176
     1
 90
        1
176
     1
 40
0.0
176
     1
 90
        0
176
     1
290
     0
176
     1
290
     1
176
     1
290
     1
176
     1
290
     0
176
     1
290
     0
176
     1
290
     0
176
     1
290
     0
176
     1
290
     0
176
     1
290
     0
176
     1
 90
       50
176
     1
 40
0.0
176
     1
 40
1.0
176
     1
 90
        0
176
     1
 62
    18
420
        0
176
     1
 90
       50
176
     1
 90
        3
176
     1
 62
     5
420
      255
176
     1
290
     0
176
     1
 90
       50
176
     1
 90
       50
176
     1
 90
       50
176
     1
290
     0
176
     1
 90
       50
176
     1
 62
   256
176
     0
 40
1.0
176
     0
 90
        2
176
     1
  1
strokes_ogs.tif
176
     1
290
     0
176
     1
 40
1.0
176
     1
 40
1.0
176
     1
  0
VISUALSTYLE
  5
F9
102
{ACAD_REACTORS
330
EF
102
}
330
EF
100
AcDbVisualStyle
  2
Conceptual
 70
     9
177
     3
291
     0
 70
    58
 90
        3
176
     1
 90
        2
176
     1
 90
        0
176
     1
 90
        0
176
     1
 40
0.6
176
     1
 40
30.0
176
     1
 62
     7
420
 16777215
176
     1
 90
        2
176
     1
 90
        2
176
     1
 62
     7
176
     1
 62
   257
176
     1
 90
        1
176
     1
 90
        1
176
     1
 40
40.0
176
     1
 90
        8
176
     1
 62
     7
176
     1
 40
1.0
176
     1
 90
        1
176
     1
 90
        6
176
     1
 90
        2
176
     1
 62
     7
176
     1
 90
        3
176
     1
 90
        0
176
     1
 90
        0
176
     1
290
     0
176
     1
 90
        1
176
     1
 40
0.0
176
     1
 90
        0
176
     1
290
     0
176
     1
290
     1
176
     1
290
     1
176
     1
290
     0
176
     1
290
     0
176
     1
290
     0
176
     1
290
     0
176
     1
290
     0
176
     1
290
     0
176
     1
 90
       50
176
     1
 40
0.0
176
     1
 40
1.0
176
     1
 90
        0
176
     1
 62
    18
420
        0
176
     1
 90
       50
176
     1
 90
        3
176
     1
 62
     5
420
      255
176
     1
290
     0
176
     1
 90
       50
176
     1
 90
       50
176
     1
 90
       50
176
     1
290
     0
176
     1
 90
       50
176
     1
 62
   256
176
     0
 40
1.0
176
     0
 90
        2
176
     1
  1
strokes_ogs.tif
176
     1
290
     0
176
     1
 40
1.0
176
     1
 40
1.0
176
     1
  0
VISUALSTYLE
  5
FA
102
{ACAD_REACTORS
330
EF
102
}
330
EF
100
AcDbVisualStyle
  2
Dim
 70
    11
177
     3
291
     1
 70
    58
 90
        2
176
     1
 90
        2
176
     1
 90
        0
176
     1
 90
        0
176
     1
 40
0.6
176
     1
 40
30.0
176
     1
 62
     7
420
 16777215
176
     1
 90
        1
176
     1
 90
        4
176
     1
 62
     7
176
     1
 62
   257
176
     1
 90
        1
176
     1
 90
        1
176
     1
 40
1.0
176
     1
 90
        8
176
     1
 62
     7
176
     1
 40
1.0
176
     1
 90
        1
176
     1
 90
        6
176
     1
 90
        2
176
     1
 62
     7
176
     1
 90
        5
176
     1
 90
        0
176
     1
 90
        0
176
     1
290
     0
176
     1
 90
        1
176
     1
 40
-50.0
176
     1
 90
        0
176
     1
290
     0
176
     1
290
     1
176
     1
290
     1
176
     1
290
     0
176
     1
290
     0
176
     1
290
     0
176
     1
290
     0
176
     1
290
     0
176
     1
290
     0
176
     1
 90
       50
176
     1
 40
0.0
176
     1
 40
1.0
176
     1
 90
        0
176
     1
 62
    18
420
        0
176
     1
 90
       50
176
     1
 90
        3
176
     1
 62
     5
420
      255
176
     1
290
     0
176
     1
 90
       50
176
     1
 90
       50
176
     1
 90
       50
176
     1
290
     0
176
     1
 90
       50
176
     1
 62
   256
176
     0
 40
1.0
176
     0
 90
        2
176
     1
  1
strokes_ogs.tif
176
     1
290
     0
176
     1
 40
1.0
176
     1
 40
1.0
176
     1
  0
VISUALSTYLE
  5
172
102
{ACAD_REACTORS
330
EF
102
}
330
EF
100
AcDbVisualStyle
  2
EdgeColorOff
 70
    22
177
     3
291
     1
 70
    58
 90
        2
176
     0
 90
        2
176
     0
 90
        0
176
     0
 90
        0
176
     0
 40
0.6
176
     0
 40
30.0
176
     0
 62
     7
420
 16777215
176
     0
 90
        1
176
     0
 90
        4
176
     0
 62
     7
176
     0
 62
   257
176
     0
 90
        1
176
     0
 90
        1
176
     0
 40
1.0
176
     0
 90
        8
176
     2
 62
     7
176
     0
 40
1.0
176
     0
 90
        1
176
     0
 90
        6
176
     0
 90
        2
176
     0
 62
     7
176
     0
 90
        5
176
     0
 90
        0
176
     0
 90
        0
176
     0
290
     0
176
     0
 90
        1
176
     0
 40
0.0
176
     0
 90
        0
176
     0
290
     0
176
     1
290
     1
176
     1
290
     1
176
     1
290
     0
176
     1
290
     0
176
     1
290
     0
176
     1
290
     0
176
     1
290
     0
176
     1
290
     0
176
     1
 90
       50
176
     1
 40
0.0
176
     1
 40
1.0
176
     1
 90
        0
176
     1
 62
    18
420
        0
176
     1
 90
       50
176
     1
 90
        3
176
     1
 62
     5
420
      255
176
     1
290
     0
176
     1
 90
       50
176
     1
 90
       50
176
     1
 90
       50
176
     1
290
     0
176
     1
 90
       50
176
     1
 62
   256
176
     0
 40
1.0
176
     0
 90
        2
176
     1
  1
strokes_ogs.tif
176
     1
290
     0
176
     1
 40
1.0
176
     1
 40
1.0
176
     1
  0
VISUALSTYLE
  5
FE
102
{ACAD_REACTORS
330
EF
102
}
330
EF
100
AcDbVisualStyle
  2
Facepattern
 70
    15
177
     3
291
     1
 70
    58
 90
        2
176
     1
 90
        2
176
     1
 90
        0
176
     1
 90
        0
176
     1
 40
0.6
176
     1
 40
30.0
176
     1
 62
     7
420
 16777215
176
     1
 90
        1
176
     1
 90
        4
176
     1
 62
     7
176
     1
 62
   257
176
     1
 90
        1
176
     1
 90
        1
176
     1
 40
1.0
176
     1
 90
        8
176
     1
 62
     7
176
     1
 40
1.0
176
     1
 90
        1
176
     1
 90
        6
176
     1
 90
        2
176
     1
 62
     7
176
     1
 90
        5
176
     1
 90
        0
176
     1
 90
        0
176
     1
290
     0
176
     1
 90
        1
176
     1
 40
0.0
176
     1
 90
        0
176
     1
290
     0
176
     1
290
     1
176
     1
290
     1
176
     1
290
     0
176
     1
290
     0
176
     1
290
     0
176
     1
290
     0
176
     1
290
     0
176
     1
290
     0
176
     1
 90
       50
176
     1
 40
0.0
176
     1
 40
1.0
176
     1
 90
        0
176
     1
 62
    18
420
        0
176
     1
 90
       50
176
     1
 90
        3
176
     1
 62
     5
420
      255
176
     1
290
     0
176
     1
 90
       50
176
     1
 90
       50
176
     1
 90
       50
176
     1
290
     0
176
     1
 90
       50
176
     1
 62
   256
176
     0
 40
1.0
176
     0
 90
        2
176
     1
  1
strokes_ogs.tif
176
     1
290
     0
176
     1
 40
1.0
176
     1
 40
1.0
176
     1
  0
VISUALSTYLE
  5
F0
102
{ACAD_REACTORS
330
EF
102
}
330
EF
100
AcDbVisualStyle
  2
Flat
 70
     0
177
     3
291
     1
 70
    58
 90
        2
176
     1
 90
        1
176
     1
 90
        1
176
     1
 90
        2
176
     1
 40
0.6
176
     1
 40
30.0
176
     1
 62
     7
420
 16777215
176
     1
 90
        0
176
     1
 90
        4
176
     1
 62
     7
176
     1
 62
   257
176
     1
 90
        1
176
     1
 90
        1
176
     1
 40
1.0
176
     1
 90
        8
176
     1
 62
     7
176
     1
 40
1.0
176
     1
 90
        1
176
     1
 90
        6
176
     1
 90
        2
176
     1
 62
     7
176
     1
 90
        5
176
     1
 90
        0
176
     1
 90
        0
176
     1
290
     0
176
     1
 90
       13
176
     1
 40
0.0
176
     1
 90
        0
176
     1
290
     0
176
     1
290
     1
176
     1
290
     1
176
     1
290
     0
176
     1
290
     0
176
     1
290
     0
176
     1
290
     0
176
     1
290
     0
176
     1
290
     0
176
     1
 90
       50
176
     1
 40
0.0
176
     1
 40
1.0
176
     1
 90
        0
176
     1
 62
    18
420
        0
176
     1
 90
       50
176
     1
 90
        3
176
     1
 62
     5
420
      255
176
     1
290
     0
176
     1
 90
       50
176
     1
 90
       50
176
     1
 90
       50
176
     1
290
     0
176
     1
 90
       50
176
     1
 62
   256
176
     0
 40
1.0
176
     0
 90
        2
176
     1
  1
strokes_ogs.tif
176
     1
290
     0
176
     1
 40
1.0
176
     1
 40
1.0
176
     1
  0
VISUALSTYLE
  5
F1
102
{ACAD_REACTORS
330
EF
102
}
330
EF
100
AcDbVisualStyle
  2
FlatWithEdges
 70
     1
177
     3
291
     1
 70
    58
 90
        2
176
     1
 90
        1
176
     1
 90
        1
176
     1
 90
        2
176
     1
 40
0.6
176
     1
 40
30.0
176
     1
 62
     7
420
 16777215
176
     1
 90
        1
176
     1
 90
        4
176
     1
 62
     7
176
     1
 62
   257
176
     1
 90
        1
176
     1
 90
        1
176
     1
 40
1.0
176
     1
 90
        0
176
     1
 62
   257
176
     1
 40
1.0
176
     1
 90
        1
176
     1
 90
        6
176
     1
 90
        2
176
     1
 62
     7
176
     1
 90
        5
176
     1
 90
        0
176
     1
 90
        0
176
     1
290
     0
176
     1
 90
       13
176
     1
 40
0.0
176
     1
 90
        0
176
     1
290
     0
176
     1
290
     1
176
     1
290
     1
176
     1
290
     0
176
     1
290
     0
176
     1
290
     0
176
     1
290
     0
176
     1
290
     0
176
     1
290
     0
176
     1
 90
       50
176
     1
 40
0.0
176
     1
 40
1.0
176
     1
 90
        0
176
     1
 62
    18
420
        0
176
     1
 90
       50
176
     1
 90
        3
176
     1
 62
     5
420
      255
176
     1
290
     0
176
     1
 90
       50
176
     1
 90
       50
176
     1
 90
       50
176
     1
290
     0
176
     1
 90
       50
176
     1
 62
   256
176
     0
 40
1.0
176
     0
 90
        2
176
     1
  1
strokes_ogs.tif
176
     1
290
     0
176
     1
 40
1.0
176
     1
 40
1.0
176
     1
  0
VISUALSTYLE
  5
F2
102
{ACAD_REACTORS
330
EF
102
}
330
EF
100
AcDbVisualStyle
  2
Gouraud
 70
     2
177
     3
291
     1
 70
    58
 90
        2
176
     1
 90
        2
176
     1
 90
        1
176
     1
 90
        2
176
     1
 40
0.6
176
     1
 40
30.0
176
     1
 62
     7
420
 16777215
176
     1
 90
        0
176
     1
 90
        4
176
     1
 62
     7
176
     1
 62
   257
176
     1
 90
        1
176
     1
 90
        1
176
     1
 40
1.0
176
     1
 90
        0
176
     1
 62
     7
176
     1
 40
1.0
176
     1
 90
        1
176
     1
 90
        6
176
     1
 90
        2
176
     1
 62
     7
176
     1
 90
        5
176
     1
 90
        0
176
     1
 90
        0
176
     1
290
     0
176
     1
 90
       13
176
     1
 40
0.0
176
     1
 90
        0
176
     1
290
     0
176
     1
290
     1
176
     1
290
     1
176
     1
290
     0
176
     1
290
     0
176
     1
290
     0
176
     1
290
     0
176
     1
290
     0
176
     1
290
     0
176
     1
 90
       50
176
     1
 40
0.0
176
     1
 40
1.0
176
     1
 90
        0
176
     1
 62
    18
420
        0
176
     1
 90
       50
176
     1
 90
        3
176
     1
 62
     5
420
      255
176
     1
290
     0
176
     1
 90
       50
176
     1
 90
       50
176
     1
 90
       50
176
     1
290
     0
176
     1
 90
       50
176
     1
 62
   256
176
     0
 40
1.0
176
     0
 90
        2
176
     1
  1
strokes_ogs.tif
176
     1
290
     0
176
     1
 40
1.0
176
     1
 40
1.0
176
     1
  0
VISUALSTYLE
  5
F3
102
{ACAD_REACTORS
330
EF
102
}
330
EF
100
AcDbVisualStyle
  2
GouraudWithEdges
 70
     3
177
     3
291
     1
 70
    58
 90
        2
176
     1
 90
        2
176
     1
 90
        1
176
     1
 90
        2
176
     1
 40
0.6
176
     1
 40
30.0
176
     1
 62
     7
420
 16777215
176
     1
 90
        1
176
     1
 90
        4
176
     1
 62
     7
176
     1
 62
   257
176
     1
 90
        1
176
     1
 90
        1
176
     1
 40
1.0
176
     1
 90
        0
176
     1
 62
   257
176
     1
 40
1.0
176
     1
 90
        1
176
     1
 90
        6
176
     1
 90
        2
176
     1
 62
     7
176
     1
 90
        5
176
     1
 90
        0
176
     1
 90
        0
176
     1
290
     0
176
     1
 90
       13
176
     1
 40
0.0
176
     1
 90
        0
176
     1
290
     0
176
     1
290
     1
176
     1
290
     1
176
     1
290
     0
176
     1
290
     0
176
     1
290
     0
176
     1
290
     0
176
     1
290
     0
176
     1
290
     0
176
     1
 90
       50
176
     1
 40
0.0
176
     1
 40
1.0
176
     1
 90
        0
176
     1
 62
    18
420
        0
176
     1
 90
       50
176
     1
 90
        3
176
     1
 62
     5
420
      255
176
     1
290
     0
176
     1
 90
       50
176
     1
 90
       50
176
     1
 90
       50
176
     1
290
     0
176
     1
 90
       50
176
     1
 62
   256
176
     0
 40
1.0
176
     0
 90
        2
176
     1
  1
strokes_ogs.tif
176
     1
290
     0
176
     1
 40
1.0
176
     1
 40
1.0
176
     1
  0
VISUALSTYLE
  5
16A
102
{ACAD_REACTORS
330
EF
102
}
330
EF
100
AcDbVisualStyle
  2
Hidden
 70
     6
177
     3
291
     0
 70
    58
 90
        1
176
     1
 90
        2
176
     1
 90
        2
176
     1
 90
        0
176
     1
 40
0.6
176
     1
 40
30.0
176
     1
 62
     7
420
 16777215
176
     1
 90
        2
176
     1
 90
        2
176
     1
 62
     7
176
     1
 62
   257
176
     1
 90
        2
176
     1
 90
        1
176
     1
 40
40.0
176
     1
 90
        0
176
     1
 62
   257
176
     1
 40
1.0
176
     1
 90
        1
176
     1
 90
        6
176
     1
 90
        2
176
     1
 62
     7
176
     1
 90
        3
176
     1
 90
        0
176
     1
 90
        0
176
     1
290
     0
176
     1
 90
        1
176
     1
 40
0.0
176
     1
 90
        0
176
     1
290
     0
176
     1
290
     1
176
     1
290
     1
176
     1
290
     0
176
     1
290
     0
176
     1
290
     0
176
     1
290
     0
176
     1
290
     0
176
     1
290
     0
176
     1
 90
       50
176
     1
 40
0.0
176
     1
 40
1.0
176
     1
 90
        0
176
     1
 62
    18
420
        0
176
     1
 90
       50
176
     1
 90
        3
176
     1
 62
     5
420
      255
176
     1
290
     0
176
     1
 90
       50
176
     1
 90
       50
176
     1
 90
       50
176
     1
290
     0
176
     1
 90
       50
176
     1
 62
   256
176
     0
 40
1.0
176
     0
 90
        2
176
     1
  1
strokes_ogs.tif
176
     1
290
     0
176
     1
 40
1.0
176
     1
 40
1.0
176
     1
  0
VISUALSTYLE
  5
170
102
{ACAD_REACTORS
330
EF
102
}
330
EF
100
AcDbVisualStyle
  2
JitterOff
 70
    20
177
     3
291
     1
 70
    58
 90
        2
176
     0
 90
        2
176
     0
 90
        0
176
     0
 90
        0
176
     0
 40
0.6
176
     0
 40
30.0
176
     0
 62
     7
420
 16777215
176
     0
 90
        1
176
     0
 90
        4
176
     0
 62
     7
176
     0
 62
   257
176
     0
 90
        1
176
     0
 90
        1
176
     0
 40
1.0
176
     0
 90
       10
176
     2
 62
     7
176
     0
 40
1.0
176
     0
 90
        1
176
     0
 90
        6
176
     0
 90
        2
176
     0
 62
     7
176
     0
 90
        5
176
     0
 90
        0
176
     0
 90
        0
176
     0
290
     0
176
     0
 90
        1
176
     0
 40
0.0
176
     0
 90
        0
176
     0
290
     0
176
     1
290
     1
176
     1
290
     1
176
     1
290
     0
176
     1
290
     0
176
     1
290
     0
176
     1
290
     0
176
     1
290
     0
176
     1
290
     0
176
     1
 90
       50
176
     1
 40
0.0
176
     1
 40
1.0
176
     1
 90
        0
176
     1
 62
    18
420
        0
176
     1
 90
       50
176
     1
 90
        3
176
     1
 62
     5
420
      255
176
     1
290
     0
176
     1
 90
       50
176
     1
 90
       50
176
     1
 90
       50
176
     1
290
     0
176
     1
 90
       50
176
     1
 62
   256
176
     0
 40
1.0
176
     0
 90
        2
176
     1
  1
strokes_ogs.tif
176
     1
290
     0
176
     1
 40
1.0
176
     1
 40
1.0
176
     1
  0
VISUALSTYLE
  5
FD
102
{ACAD_REACTORS
330
EF
102
}
330
EF
100
AcDbVisualStyle
  2
Linepattern
 70
    14
177
     3
291
     1
 70
    58
 90
        2
176
     1
 90
        2
176
     1
 90
        0
176
     1
 90
        0
176
     1
 40
0.6
176
     1
 40
30.0
176
     1
 62
     7
420
 16777215
176
     1
 90
        1
176
     1
 90
        4
176
     1
 62
     7
176
     1
 62
   257
176
     1
 90
        7
176
     1
 90
        7
176
     1
 40
1.0
176
     1
 90
        8
176
     1
 62
     7
176
     1
 40
1.0
176
     1
 90
        1
176
     1
 90
        6
176
     1
 90
        2
176
     1
 62
     7
176
     1
 90
        5
176
     1
 90
        0
176
     1
 90
        0
176
     1
290
     0
176
     1
 90
        1
176
     1
 40
0.0
176
     1
 90
        0
176
     1
290
     0
176
     1
290
     1
176
     1
290
     1
176
     1
290
     0
176
     1
290
     0
176
     1
290
     0
176
     1
290
     0
176
     1
290
     0
176
     1
290
     0
176
     1
 90
       50
176
     1
 40
0.0
176
     1
 40
1.0
176
     1
 90
        0
176
     1
 62
    18
420
        0
176
     1
 90
       50
176
     1
 90
        3
176
     1
 62
     5
420
      255
176
     1
290
     0
176
     1
 90
       50
176
     1
 90
       50
176
     1
 90
       50
176
     1
290
     0
176
     1
 90
       50
176
     1
 62
   256
176
     0
 40
1.0
176
     0
 90
        2
176
     1
  1
strokes_ogs.tif
176
     1
290
     0
176
     1
 40
1.0
176
     1
 40
1.0
176
     1
  0
VISUALSTYLE
  5
171
102
{ACAD_REACTORS
330
EF
102
}
330
EF
100
AcDbVisualStyle
  2
OverhangOff
 70
    21
177
     3
291
     1
 70
    58
 90
        2
176
     0
 90
        2
176
     0
 90
        0
176
     0
 90
        0
176
     0
 40
0.6
176
     0
 40
30.0
176
     0
 62
     7
420
 16777215
176
     0
 90
        1
176
     0
 90
        4
176
     0
 62
     7
176
     0
 62
   257
176
     0
 90
        1
176
     0
 90
        1
176
     0
 40
1.0
176
     0
 90
        9
176
     2
 62
     7
176
     0
 40
1.0
176
     0
 90
        1
176
     0
 90
        6
176
     0
 90
        2
176
     0
 62
     7
176
     0
 90
        5
176
     0
 90
        0
176
     0
 90
        0
176
     0
290
     0
176
     0
 90
        1
176
     0
 40
0.0
176
     0
 90
        0
176
     0
290
     0
176
     1
290
     1
176
     1
290
     1
176
     1
290
     0
176
     1
290
     0
176
     1
290
     0
176
     1
290
     0
176
     1
290
     0
176
     1
290
     0
176
     1
 90
       50
176
     1
 40
0.0
176
     1
 40
1.0
176
     1
 90
        0
176
     1
 62
    18
420
        0
176
     1
 90
       50
176
     1
 90
        3
176
     1
 62
     5
420
      255
176
     1
290
     0
176
     1
 90
       50
176
     1
 90
       50
176
     1
 90
       50
176
     1
290
     0
176
     1
 90
       50
176
     1
 62
   256
176
     0
 40
1.0
176
     0
 90
        2
176
     1
  1
strokes_ogs.tif
176
     1
290
     0
176
     1
 40
1.0
176
     1
 40
1.0
176
     1
  0
VISUALSTYLE
  5
F8
102
{ACAD_REACTORS
330
EF
102
}
330
EF
100
AcDbVisualStyle
  2
Realistic
 70
     8
177
     3
291
     0
 70
    58
 90
        2
176
     1
 90
        2
176
     1
 90
        0
176
     1
 90
        0
176
     1
 40
0.6
176
     1
 40
30.0
176
     1
 62
     7
420
 16777215
176
     1
 90
        1
176
     1
 90
        0
176
     1
 62
     7
176
     1
 62
   257
176
     1
 90
        1
176
     1
 90
        1
176
     1
 40
1.0
176
     1
 90
        8
176
     1
 62
     8
420
  7895160
176
     1
 40
1.0
176
     1
 90
        1
176
     1
 90
        6
176
     1
 90
        2
176
     1
 62
     7
176
     1
 90
        5
176
     1
 90
        0
176
     1
 90
        0
176
     1
290
     0
176
     1
 90
       13
176
     1
 40
0.0
176
     1
 90
        0
176
     1
290
     0
176
     1
290
     1
176
     1
290
     1
176
     1
290
     0
176
     1
290
     0
176
     1
290
     0
176
     1
290
     0
176
     1
290
     0
176
     1
290
     0
176
     1
 90
       50
176
     1
 40
0.0
176
     1
 40
1.0
176
     1
 90
        0
176
     1
 62
    18
420
        0
176
     1
 90
       50
176
     1
 90
        3
176
     1
 62
     5
420
      255
176
     1
290
     0
176
     1
 90
       50
176
     1
 90
       50
176
     1
 90
       50
176
     1
290
     0
176
     1
 90
       50
176
     1
 62
   256
176
     0
 40
1.0
176
     0
 90
        2
176
     1
  1
strokes_ogs.tif
176
     1
290
     0
176
     1
 40
1.0
176
     1
 40
1.0
176
     1
  0
VISUALSTYLE
  5
16F
102
{ACAD_REACTORS
330
EF
102
}
330
EF
100
AcDbVisualStyle
  2
Shaded
 70
    27
177
     3
291
     0
 70
    58
 90
        2
176
     1
 90
        2
176
     1
 90
        1
176
     1
 90
        2
176
     1
 40
0.6
176
     1
 40
30.0
176
     1
 62
     7
420
 16777215
176
     1
 90
        0
176
     1
 90
        4
176
     1
 62
     7
176
     1
 62
   257
176
     1
 90
        1
176
     1
 90
        1
176
     1
 40
1.0
176
     1
 90
        8
176
     1
 62
   257
176
     1
 40
1.0
176
     1
 90
        1
176
     1
 90
        6
176
     1
 90
        2
176
     1
 62
     8
420
  7895160
176
     1
 90
        3
176
     1
 90
        0
176
     1
 90
        0
176
     1
290
     0
176
     1
 90
        5
176
     1
 40
0.0
176
     1
 90
        0
176
     1
290
     0
176
     1
290
     1
176
     1
290
     1
176
     1
290
     0
176
     1
290
     0
176
     1
290
     0
176
     1
290
     0
176
     1
290
     0
176
     1
290
     0
176
     1
 90
       50
176
     1
 40
0.0
176
     1
 40
1.0
176
     1
 90
        0
176
     1
 62
    18
420
        0
176
     1
 90
       50
176
     1
 90
        3
176
     1
 62
     5
420
      255
176
     1
290
     0
176
     1
 90
       50
176
     1
 90
       50
176
     1
 90
       50
176
     1
290
     0
176
     1
 90
       50
176
     1
 62
   256
176
     0
 40
1.0
176
     0
 90
        2
176
     1
  1
strokes_ogs.tif
176
     1
290
     0
176
     1
 40
1.0
176
     1
 40
1.0
176
     1
  0
VISUALSTYLE
  5
16E
102
{ACAD_REACTORS
330
EF
102
}
330
EF
100
AcDbVisualStyle
  2
Shaded with edges
 70
    26
177
     3
291
     0
 70
    58
 90
        2
176
     1
 90
        2
176
     1
 90
        1
176
     1
 90
        2
176
     1
 40
0.6
176
     1
 40
30.0
176
     1
 62
     7
420
 16777215
176
     1
 90
        1
176
     1
 90
       10
176
     1
 62
     7
176
     1
 62
   257
176
     1
 90
        2
176
     1
 90
        1
176
     1
 40
1.0
176
     1
 90
        8
176
     1
 62
   257
176
     1
 40
1.0
176
     1
 90
        1
176
     1
 90
        6
176
     1
 90
        2
176
     1
 62
     7
176
     1
 90
        3
176
     1
 90
        0
176
     1
 90
        0
176
     1
290
     0
176
     1
 90
        5
176
     1
 40
0.0
176
     1
 90
        0
176
     1
290
     0
176
     1
290
     1
176
     1
290
     1
176
     1
290
     0
176
     1
290
     0
176
     1
290
     0
176
     1
290
     0
176
     1
290
     0
176
     1
290
     0
176
     1
 90
       50
176
     1
 40
0.0
176
     1
 40
1.0
176
     1
 90
        0
176
     1
 62
    18
420
        0
176
     1
 90
       50
176
     1
 90
        3
176
     1
 62
     5
420
      255
176
     1
290
     0
176
     1
 90
       50
176
     1
 90
       50
176
     1
 90
       50
176
     1
290
     0
176
     1
 90
       50
176
     1
 62
   256
176
     0
 40
1.0
176
     0
 90
        2
176
     1
  1
strokes_ogs.tif
176
     1
290
     0
176
     1
 40
1.0
176
     1
 40
1.0
176
     1
  0
VISUALSTYLE
  5
16B
102
{ACAD_REACTORS
330
EF
102
}
330
EF
100
AcDbVisualStyle
  2
Shades of Gray
 70
    23
177
     3
291
     0
 70
    58
 90
        2
176
     1
 90
        2
176
     1
 90
        3
176
     1
 90
        0
176
     1
 40
0.6
176
     1
 40
30.0
176
     1
 62
     7
420
 16777215
176
     1
 90
        2
176
     1
 90
        2
176
     1
 62
     7
176
     1
 62
     7
176
     1
 90
        1
176
     1
 90
        1
176
     1
 40
40.0
176
     1
 90
        8
176
     1
 62
     7
176
     1
 40
1.0
176
     1
 90
        1
176
     1
 90
        6
176
     1
 90
        2
176
     1
 62
     7
176
     1
 90
        3
176
     1
 90
        0
176
     1
 90
        0
176
     1
290
     0
176
     1
 90
        1
176
     1
 40
0.0
176
     1
 90
        0
176
     1
290
     0
176
     1
290
     1
176
     1
290
     1
176
     1
290
     0
176
     1
290
     0
176
     1
290
     0
176
     1
290
     0
176
     1
290
     0
176
     1
290
     0
176
     1
 90
       50
176
     1
 40
0.0
176
     1
 40
1.0
176
     1
 90
        0
176
     1
 62
    18
420
        0
176
     1
 90
       50
176
     1
 90
        3
176
     1
 62
     5
420
      255
176
     1
290
     0
176
     1
 90
       50
176
     1
 90
       50
176
     1
 90
       50
176
     1
290
     0
176
     1
 90
       50
176
     1
 62
   256
176
     0
 40
1.0
176
     0
 90
        2
176
     1
  1
strokes_ogs.tif
176
     1
290
     0
176
     1
 40
1.0
176
     1
 40
1.0
176
     1
  0
VISUALSTYLE
  5
16C
102
{ACAD_REACTORS
330
EF
102
}
330
EF
100
AcDbVisualStyle
  2
Sketchy
 70
    24
177
     3
291
     0
 70
    58
 90
        1
176
     1
 90
        2
176
     1
 90
        2
176
     1
 90
        0
176
     1
 40
0.6
176
     1
 40
30.0
176
     1
 62
     7
420
 16777215
176
     1
 90
        2
176
     1
 90
        2
176
     1
 62
     7
176
     1
 62
     7
176
     1
 90
        1
176
     1
 90
        1
176
     1
 40
40.0
176
     1
 90
       11
176
     1
 62
     7
176
     1
 40
1.0
176
     1
 90
        1
176
     1
 90
        6
176
     1
 90
        2
176
     1
 62
     7
176
     1
 90
        6
176
     1
 90
        0
176
     1
 90
        0
176
     1
290
     0
176
     1
 90
        1
176
     1
 40
0.0
176
     1
 90
        0
176
     1
290
     0
176
     1
290
     1
176
     1
290
     1
176
     1
290
     0
176
     1
290
     0
176
     1
290
     0
176
     1
290
     0
176
     1
290
     0
176
     1
290
     0
176
     1
 90
       50
176
     1
 40
0.0
176
     1
 40
1.0
176
     1
 90
        0
176
     1
 62
    18
420
        0
176
     1
 90
       50
176
     1
 90
        3
176
     1
 62
     5
420
      255
176
     1
290
     0
176
     1
 90
       50
176
     1
 90
       50
176
     1
 90
       50
176
     1
290
     0
176
     1
 90
       50
176
     1
 62
   256
176
     0
 40
1.0
176
     0
 90
        2
176
     1
  1
strokes_ogs.tif
176
     1
290
     0
176
     1
 40
1.0
176
     1
 40
1.0
176
     1
  0
VISUALSTYLE
  5
FC
102
{ACAD_REACTORS
330
EF
102
}
330
EF
100
AcDbVisualStyle
  2
Thicken
 70
    13
177
     3
291
     1
 70
    58
 90
        2
176
     1
 90
        2
176
     1
 90
        0
176
     1
 90
        0
176
     1
 40
0.6
176
     1
 40
30.0
176
     1
 62
     7
420
 16777215
176
     1
 90
        1
176
     1
 90
        4
176
     1
 62
     7
176
     1
 62
   257
176
     1
 90
        1
176
     1
 90
        1
176
     1
 40
1.0
176
     1
 90
       12
176
     1
 62
     7
176
     1
 40
1.0
176
     1
 90
        1
176
     1
 90
        6
176
     1
 90
        2
176
     1
 62
     7
176
     1
 90
        5
176
     1
 90
        0
176
     1
 90
        0
176
     1
290
     0
176
     1
 90
        1
176
     1
 40
0.0
176
     1
 90
        0
176
     1
290
     0
176
     1
290
     1
176
     1
290
     1
176
     1
290
     0
176
     1
290
     0
176
     1
290
     0
176
     1
290
     0
176
     1
290
     0
176
     1
290
     0
176
     1
 90
       50
176
     1
 40
0.0
176
     1
 40
1.0
176
     1
 90
        0
176
     1
 62
    18
420
        0
176
     1
 90
       50
176
     1
 90
        3
176
     1
 62
     5
420
      255
176
     1
290
     0
176
     1
 90
       50
176
     1
 90
       50
176
     1
 90
       50
176
     1
290
     0
176
     1
 90
       50
176
     1
 62
   256
176
     0
 40
1.0
176
     0
 90
        2
176
     1
  1
strokes_ogs.tif
176
     1
290
     0
176
     1
 40
1.0
176
     1
 40
1.0
176
     1
  0
VISUALSTYLE
  5
169
102
{ACAD_REACTORS
330
EF
102
}
330
EF
100
AcDbVisualStyle
  2
Wireframe
 70
     5
177
     3
291
     0
 70
    58
 90
        0
176
     1
 90
        2
176
     1
 90
        0
176
     1
 90
        0
176
     1
 40
0.6
176
     1
 40
30.0
176
     1
 62
     7
420
 16777215
176
     1
 90
        1
176
     1
 90
        4
176
     1
 62
     7
176
     1
 62
   257
176
     1
 90
        1
176
     1
 90
        1
176
     1
 40
1.0
176
     1
 90
        0
176
     1
 62
   257
176
     1
 40
1.0
176
     1
 90
        1
176
     1
 90
        6
176
     1
 90
        2
176
     1
 62
     7
176
     1
 90
        3
176
     1
 90
        0
176
     1
 90
        0
176
     1
290
     0
176
     1
 90
        1
176
     1
 40
0.0
176
     1
 90
        0
176
     1
290
     0
176
     1
290
     1
176
     1
290
     1
176
     1
290
     0
176
     1
290
     0
176
     1
290
     0
176
     1
290
     0
176
     1
290
     0
176
     1
290
     0
176
     1
 90
       50
176
     1
 40
0.0
176
     1
 40
1.0
176
     1
 90
        0
176
     1
 62
    18
420
        0
176
     1
 90
       50
176
     1
 90
        3
176
     1
 62
     5
420
      255
176
     1
290
     0
176
     1
 90
       50
176
     1
 90
       50
176
     1
 90
       50
176
     1
290
     0
176
     1
 90
       50
176
     1
 62
   256
176
     0
 40
1.0
176
     0
 90
        2
176
     1
  1
strokes_ogs.tif
176
     1
290
     0
176
     1
 40
1.0
176
     1
 40
1.0
176
     1
  0
VISUALSTYLE
  5
16D
102
{ACAD_REACTORS
330
EF
102
}
330
EF
100
AcDbVisualStyle
  2
X-Ray
 70
    25
177
     3
291
     0
 70
    58
 90
        2
176
     1
 90
        2
176
     1
 90
        1
176
     1
 90
        1
176
     1
 40
0.5
176
     1
 40
30.0
176
     1
 62
     7
420
 16777215
176
     1
 90
        1
176
     1
 90
        0
176
     1
 62
     7
176
     1
 62
   257
176
     1
 90
        1
176
     1
 90
        1
176
     1
 40
1.0
176
     1
 90
        8
176
     1
 62
     7
176
     1
 40
1.0
176
     1
 90
        1
176
     1
 90
        6
176
     1
 90
        2
176
     1
 62
     7
176
     1
 90
        3
176
     1
 90
        0
176
     1
 90
        0
176
     1
290
     0
176
     1
 90
       13
176
     1
 40
0.0
176
     1
 90
        0
176
     1
290
     0
176
     1
290
     1
176
     1
290
     1
176
     1
290
     0
176
     1
290
     0
176
     1
290
     0
176
     1
290
     0
176
     1
290
     0
176
     1
290
     0
176
     1
 90
       50
176
     1
 40
0.0
176
     1
 40
1.0
176
     1
 90
        0
176
     1
 62
    18
420
        0
176
     1
 90
       50
176
     1
 90
        3
176
     1
 62
     5
420
      255
176
     1
290
     0
176
     1
 90
       50
176
     1
 90
       50
176
     1
 90
       50
176
     1
290
     0
176
     1
 90
       50
176
     1
 62
   256
176
     0
 40
1.0
176
     0
 90
        2
176
     1
  1
strokes_ogs.tif
176
     1
290
     0
176
     1
 40
1.0
176
     1
 40
1.0
176
     1
  0
DICTIONARYVAR
  5
45F
102
{ACAD_REACTORS
330
59
102
}
330
59
100
DictionaryVariables
280
     0
  1
0
  0
DICTIONARYVAR
  5
45C
102
{ACAD_REACTORS
330
59
102
}
330
59
100
DictionaryVariables
280
     0
  1
1:1
  0
DICTIONARYVAR
  5
45E
102
{ACAD_REACTORS
330
59
102
}
330
59
100
DictionaryVariables
280
     0
  1
Standard
  0
DICTIONARYVAR
  5
45D
102
{ACAD_REACTORS
330
59
102
}
330
59
100
DictionaryVariables
280
     0
  1
Standard
  0
DICTIONARYVAR
  5
462
102
{ACAD_REACTORS
330
59
102
}
330
59
100
DictionaryVariables
280
     0
  1
Imperial24
  0
DICTIONARYVAR
  5
463
102
{ACAD_REACTORS
330
59
102
}
330
59
100
DictionaryVariables
280
     0
  1
Imperial24
  0
DICTIONARYVAR
  5
460
102
{ACAD_REACTORS
330
59
102
}
330
59
100
DictionaryVariables
280
     0
  1
0
  0
DICTIONARYVAR
  5
461
102
{ACAD_REACTORS
330
59
102
}
330
59
100
DictionaryVariables
280
     0
  1
0
  0
DICTIONARY
  5
18B
330
177
100
AcDbDictionary
280
     1
281
     1
  0
DICTIONARY
  5
185
330
EE
100
AcDbDictionary
280
     1
281
     1
  3
FBXASSET
360
186
  0
DICTIONARY
  5
189
330
175
100
AcDbDictionary
280
     1
281
     1
  0
DICTIONARY
  5
464
330
E5
100
AcDbDictionary
280
     1
281
     1
  3
ACAD_ROUNDTRIP_2008_TABLESTYLE_CELLSTYLEMAP
360
465
  0
XRECORD
  5
186
102
{ACAD_REACTORS
330
185
102
}
330
185
100
AcDbXrecord
280
     1
 70
     1
 90
-1625056298
 71
     1
  1
3825283E-4BC5-46CA-B715-FEDC1FC31CFF
311
504B0304140006080800EB8B4D46B3FFDA01E4000000200100004F00000037353930383333412D413433322D343034432D383042362D3639394441343136453130332F4173736574446174612F446566696E6974696F6E4974657261746F7250726F706572746965732E62696EEB606060F80F0540260323103700495E20ED
311
9E9A975A94991C9C9C919A9BC8C00612C9C94F4ACC6147C831019920AE4B6A5A62694E0948976F6671726A4E4E625E6A7E69B12042A9426E6209D0B8C41C3D90264E20860914834C48875806B2DF0F88414E02D189290556F689C5C5A925B6FA694915FA16162ECE86064E66BA2E96866EBA26CE8E46BA16662696BA2EA626
311
2606400903432337FDA2D4E2FCD2A2E4D4627D237D8378A8C9F10579E9420E27D698954EDF2679E093CFD417D56C020E1D32E13FDFD7891F48AECCBEB9622EB783474F79AD87BBE881C7116B1E46EAB13B0000504B0304140006080800EB8B4D467251EB23F6000000300200004500000037353930383333412D413433322D
311
343034432D383042362D3639394441343136453130332F4173736574446174612F496E7374616E636550726F706572746965732E62696EEB606060F80F0540260323103700495E20ED9E9A975A94991C9C9C919A9BA8021430B6303235B23076D535717236D535317376D475323734D5757375713674733636747673634768
311
046B313471713532B5D435353131066A3132D475727372D13534373670367376B67474B504EA00DBCBA019D37FE8ABC6157B20CD04146B0062181F4C03F940F0C11EA29A8141C08141002C0426541C106CAC2CA046088033B02A030AC2157C6006F21A8018AAF50194E6010A610250382264E08660284CD9E98021862280A9
311
1564B406929A0FF62C401E28B6F88038B83CB1243943D7A928312F25350524432CB0012A1401621720068539210000504B0304140006080800EB8B4D4628BB58AF800100009E0500003D00000037353930383333412D413433322D343034432D383042362D3639394441343136453130332F536368656D61732F436F6D6D6F
311
6E536368656D612E786D6CBD544D4FC23018BEFB2B96DE15493C78601010A34B880709DEDFB52FD0D8B54BD70DF6EFED3AC0B12E6442E2716BFB3CEFF3D18E26FB440405EA8C2B1992E1C323095052C5B8DC842437EBFB673219DF8DA659866649B798C078B48AE6410122242F2A4994AC7F93815DF85C049C8564CA0A9014
311
99DD886B2EB9B1E02448F358701A9235880C49A0119892A20C89D1B9FD768815CAD268CB5E0355B40B1E47F3E37A2020464BED06AA57CE8FCC20C3C3446D46761A2632A8C1283D07031EFF2AE7CCB1BFEEE916E406DFAC8E36FFD99A9D60A6944090EEDC3B670C7DC13DE86B6B2C5C240D6E503BB85ACD579D513F1B9F9A69
311
DC9CC22AFA80C426D40AF0B21EA168559156B6276F0F726A6BFF04DCD513A87A62CAD41FB24FCB2858B3952E3D852084DA25B9303C15687973CC8E8AAE11DF2836C38C6A9E765E8C1BA1BFB1DC29CDFE518C8B5A7655A4ED7E77291ABEB80DBD82EC866ADE1B8D05AF9E35CF09D7A061F38A986D9EC412B8F0F65E5D81534D
311
9B231D1E5A8FE577A241F3A5FD01504B0304140006080800EB8B4D462CCEBD668A040000E01200003E00000037353930383333412D413433322D343034432D383042362D3639394441343136453130332F536368656D61732F47656E65726963536368656D612E786D6CD5586D6FDB380CFE7EBF42F0F7A649B70E1B907448
311
56B4970F450FCD7A5F05459613EDE4174872DADCAF3F522F8ED3B88D2F1D06AC4050DBA2493EE4438AF2F8EB73AEC8466823CB62928C06C384888297A92C5693A4B6D9D9E7E4EBD51FE3A931C22EF85AE4EC6AFC38BF261BA626C9AD288496DC3F4FCEAFC63366845F7A10452AF41DB320C0D44EC26EAB2091873556558269
311
5670811A6A49643A49A6E9069FA4604A64B29016DC4B48552F95E4932463CA888468C1D2B250DB4962750DF7CE273069CE8363F1FF4EDB00E0A21999574AE4A2B00C353B93F3BD4777B8A61ED8F604ABFEDD79CE56A2B7BDFBDBC50996E0ADDE16FED26223C5D30956C29BDF4A55EA686E5E58B112DA45CE67F76F4FA27EFA
311
3FB672FD7372FC388FAECDCA5209E693CAD167BADCD272F943701B3812F8A3D852008B1D2E32DB927B2F833C6EA95879925356D254582695095A3CE982924720BE5774A3CB9CDCDB350427D2DF20DA1B5532EBE2D5D6288D75D4F7E4FD9890A0EF8E3D93EBB8F8BA4758158EF6FB90A6F9520281C93DE7AAC6D24607DA296B
311
B96018123F821A7D6A5C5884050C475DA4865442732C8B95684A50165CBB3A32F25F783A4A480ED59AD7F924B968AEA50131F46303223E6A397B0E52976030DC1DCA81D7E7C1EDEEA42C19FF27635C505E2BD5198A599020DF50A2330FCB3AAF28CB0124108429553EF1B228802E2265D8F7CC2401042B155BCC7070F1E5C5
311
5F13B4A9577362CCCE46C32174E010C3C378C44841A4BDA00FE3A12006CE11EE6AEC59894D3526DDE1CD59D503ECC324017F8061B7F162162FA62EDD81AE3308617770796DCBDAD2B2625C5AE8A63DE20B2C8AA5E95E76E5730823955956E33E705425A2187C185D36489A1B44D3DCEC2172F6BA2105C3546287A7194B2331
311
768EBBE64F6E70A9930ABE0ADEA89E9E2C38523B810287AD67A54A039C1606EAFE68F8304610BB9093DBDDABC0B2AE4E290DCDA15376D7E39F72B556F0B32EAB5D3D498B4C41ABADEC3A1434C422D87E8025A84BDCB2B1417ED750FAE4DA8976863974C577C7F902D3F156AD354DEA3540DE6BEAE2BEA52F7A2EB4CA43802E
311
CE5BF2CE2EDC9347179FFB023CE412E60BE16DA0BE29B374988A553F561DC04615DD35F7D2C8979F60E5955CE93DF29DED8AFA1EE6642D53418086C03C47C377910F75F7E8F5EF665F70B60FFB22AEDF897D119E8423C773E819A3C1E55E550599EE6EDCA34D0C86FD72057DF2CD46F16A470682471C164E4346D5306BF12D
311
7D12D82CFF673D41636C347443FEB51B50D72EA171A8E4A58623A4A16E0FA2B8B10A0D23268D87C33896EE8FB73305A74BF224EDBADFA0BD674AB354D63DB7BD5D83426761C077DE767728235446A552754EB93B755891C3C4CC6CADE37CF0E912A7BB38DBA010F9DE1282EDF470CA69A9CDA482E334C4A6EA4107987980B1
311
7E72F31730EBF88BBD39E7C629F56797A3C0009C2C5AE7951D9A05A02773440F02EEB4DE396A3B6A570C72CCFBCD823B0B8ED3F1D5CEDDFED772FA70236C83FB7D86C385D570B87107535572A60A96035F8F7C6A7192F13007246BBE0521855E6AC46F3E27689CEE7D186A6FD679D98CDCAD13333E04EBE7ED6F55FF01504B
311
0304140006080800EB8B4D466180134D5F0100006B0300004500000037353930383333412D413433322D343034432D383042362D3639394441343136453130332F536368656D61732F52656E6465724D6174657269616C536368656D612E786D6CA5934D6FC2300C86EFFB1551EEE343DBA41D1A103009551ADAD40EAE28A4
311
A68D9426284961FCFBE5A340113B2071746D3F765EBF4DC6BFB5407BD0862B49F0B037C0082453059725C18DDD3EBFE3F1E829991803366715D474942CD30FB4A782E00C64017A412D684E454CE3FE28995203B162A6EA5AC94B66997D225E109CD63B0135484BAD1B3C07E9080CA35DB3119C11BCA5C200461A68A1A43812
311
6C75E3E230D40FF81FB3F03C91D1E3A3A0AF79FE28E25BC39EC3E17E4C2A2D94A0833A51AF55BCCA7D88572FCBAC529C4140B020FC3AAFA886621DCED7EAD7664CC86024E806DC297DA1BB393E4156543457A4537DB8817349A70F8ACBF09B3EEE2CB2F33E91B65D60786E4E3B39B77E3FEEEF5650424525DA657FB8B46BE6
311
BF064646F0A0F7327C0BC1BC1B4CBBC1C419FA3CCB23500007872A2580CAAE5461865565294E4EDB4617B62FF579DF9A5B2F54E834076A597573A020912FED777F9B3F504B0304140006080800EB8B4D46B4E06DBF51000000570000004700000037353930383333412D413433322D343034432D383042362D363939444134
311
3136453130332F4173736574446174612F41737365745461626C654F66436F6E74656E74732E62696E5361606030B6303235B23076D535717236D535317376D475323734D57573757136747336367476731302AACB4D2C492DCA4CCC492C28484D2C4ACC4B4E050A82012F90744FCD03CA26072767A4E6260200504B030414
311
0006080800EB8B4D46F865834058000000680000004500000037353930383333412D413433322D343034432D383042362D3639394441343136453130332F4173736574446174612F53747265616D56657273696F6E5461626C652E696E66558CBD0A80300C06F73E4B117FB66E451741D041DC5BF98480A492E4FDD18EAEC7
311
DD4555D89EF28DF51A0B1BD8340C4DE7DD848B988C0ACF0649566493F2408C508DDEBB99D5129FF8F1AF8CF5B9503E20FAE5A16B5AF702504B0304140006080800EB8B4D46DCF697AE340100009A0400003600000037353930383333412D413433322D343034432D383042362D3639394441343136453130332F4173736574
311
446174612F636E782E786D6CCD94314FC3301085FF4AE43D76D20A812AC71582A51348540C6C57E752AC3A76645F10FC7BEC2403A888A943D7F3BBF3F327BF93DBCFDE161F18A2F1AE6135AF58814EFBD6B863C346EACA3B566C950CDED30F192B1CF4D8B05C664A1E831F87A5D46207A3CD556BDC6929DEC788B48783C5A7
311
EEC13B42479115DA428C0D8BFA1D7BE030926F319E780B04BCE601A31F83C634894C8FCB241D10085BA656557D5356ABB25EEFEBDBCDBADEACD66F5264A59207EFEDA237E9B2E08742CFB7325549918F951C835934F92D4CFDE5911F8C932229958C141293A583BE86D401C3608D064AE884D784542611422FC52C56526406
311
BF483C62679CC92DBB640CC887E7640F0319BC3A22FF79BD3C999D8B044EE3F5F2387778790A2FD30F7A9D033925E6DA7272EE901BD75D2025625A23293479ABA86F504B0304140006080800EB8B4D46D62DFD58080100004F0300003400000037353930383333412D413433322D343034432D383042362D36393944413431
311
36453130332F536368656D61732F636E782E786D6CCD93BD4E042114855F85D0CF30CCC468360C5B5858D9A8951DC2DD952CC39DF063F4ED85916237B1D3623B387C21E71C2E62FFB938F201215AF433E5FD4009788DC6FAE34C733A747794ECA50888E90CA3C4AB05665A652AC531605E9B64E0A0B2ABAAB3FED4C47B5C16
311
F4CFFA1D164589762AC699C66DDBAB9CD0403CF54625D5F33E40C41C34941B925DA0DDA003A80486CA71E037DD30767C7AE1B7BB89EFC6E955B04A4AF186E81A6F7D82802BD15816BED81904ABC752E4601B53335079EEAD2F6D08560829620AA58346A6AFB5906A5D9DD52A95AAD806FE3052B01AF522F0037808565F67E2
311
0B73FF16F909BC81F0585E2958E5AE33F96F1EFF5600DB66BF8C40FD0AF21B504B0304140006080800EB8B4D46410A3D5871000000A40000002C00000037353930383333412D413433322D343034432D383042362D3639394441343136453130332F636E782E786D6C55CC4D0E82301086E1AB34B31774E7A22D31F1069E60
311
020334B633A63FC6E34B0909B07DDE2F9FEE7EC1AB2FC5E4840DDC9A2B28E25E06C7938192C7CB1D54677514C9871928C640062A83D55394F2D968A0118BAFEA1DBF377CA444F98919176EAB9FEAAB9F2960DA5BBB1E2ED3FA6FFF504B0304140006080800EB8B4D46CAA1A2B47E000000A300000007000000636E782E786D
311
6C4D8C4D0EC2201805AF42BE3D0A820849A1C19F83349636440A068BF1F882E9C2D54B266FA6EB3F4B406F975F3E450D744700B9784FA38FB386B24E5802EA4D97535AFF6E80E2B0380D0D83E9E69CCA7343A39B86121A0D3E3E36783A2A2219B3D87276C09CF00B96E42CB050EA6A3915374A5835F64DA9F3EBD56D79F305
311
504B0304140006080800EB8B4D4616E99B5DA600000035010000130000005B436F6E74656E745F54797065735D2E786D6C9590410E82301045AFD2740F4517C6180A0BF5065E60AC53688469D30E066F6F91AD9AB89CF9FFFD3F99BA9DC7413C3026E749CB4D59498164FCCD51A7E5C4B6D84BD136F5E5193089ECA5A465CF
311
1C0E4A25D3E308A9F401292BD6C711388FB15301CC1D3A54DBAADA29E38991B8E0254336F5092D4C038BF39CD76B6FC6A538AEBEA54A4B08617006389FA516557DE4AE8E7E70DE30729138228C5F021CD93F02D4FB0DCD0B504B0304140006080800EB8B4D463DEE336E64000000790000001B0000006175746F6465736B2D
311
64657369676E2D7061636B6167652E786D6C35CBC10E83200C00D05F21DCA56CA76D41FC96062B120735B69A7DBE268BB7777961F8D5AF396893C2ADB70FE7ADA196782C2DF776D7A97B5933C430F15651E5469C55D70F80A4992A3ADC954792C525AE70A1E4D6AD9816CC044FEFDF01FE3FDE907802504B03041400060808
311
00EB8B4D468CF5B36BF9000000960100003700000037353930383333412D413433322D343034432D383042362D3639394441343136453130332F4173736574446174612F636F72652E786D6C8550CB6EC23010FC9568EF4EFC80A620C7080AF9829E7AB31C132C881DF951F5F36B93546A4F3DED6A76667677F8E16B7A549F
311
DA07E36C07A4C65069ABDC60ECD8418A57F40AD54170EF5CFC4583CACA49775060107CF42ECD2BA49C8DDA16D4BA41AFA00C4147A8D423371D0475D393AC658A9911EEF52CD55D8EBA26F5C2133C2533AC523364377335DA83D8F49830766E51DFF62DDA5CB63D3AE1D30E318A8F3DBDB4DB97DD1B6F8A58F068A69FEDCA6B
311
19F5008262B2459822C2DE49BB67644FD9076F0A53F0107DFE795D5ABE03712C579F6594BC59A67F5CD33CFCEF9A8C8D8CAEAE8B228020F9C8E740F0A6A494CB33C25C4BA2E21B504B0304140006080800EB8B4D4685BD8875F7000000940100003500000037353930383333412D413433322D343034432D383042362D3639
311
394441343136453130332F536368656D61732F636F72652E786D6C8550CB4EC33010FC9568EF4EFC6808AD1C57149A1F8013372B7683D5C68EFC407C3E761A243871DAD5ECCCECEEF0E3D77CAB3EB50FC6D91E488DA1D27674CAD8A987142FE811AAA3E0DEB9F88B069595B3EEA1C020F8E45D5A366874366A5B50EB94DE40
311
19828E508DB7DCF410C60F3DCB5AA69819E15A2F72BCCA49D7A4BEF3044FC9A84D6A54763317A33D88DD8009632F1D1ABAA143BB733BA0133EED11A3F869A0E7AE7DD83FF3A688058F66FED93E7A2DA3562028262DC21411F646BA032307CADE7953988287E8F3CFDBD2F21D88D7F5CEC09BFBEC8F675AD4FF9EC9D8C8E8E6
311
79570410249FB80E046F4A46B9AC01E65AF214DF504B0304140006080800EB8B4D460F5BB41501010000D70100002D00000037353930383333412D413433322D343034432D383042362D3639394441343136453130332F636F72652E786D6C95914D7284201085AF62F51E0551C79942A6CCCF0DB2CA8E488FA166044B3095
311
E307A2A924BB6405F5F85E37AF5B9CDFA75BF6868B37CE76C0720A19DAC16963C70ED670212D64672916E7C20F0C32AB26EC20C920C5B8B875DEA5C1D98036A9D669DC45E53D06C8865BBC74E087579C54AED610097FCD67355CD58839CB374E8A60A62FEBB0A00AA8419694D5849684F127763871762AF9B3281229C56A6C
311
E0E5DE0CA717D4999B438C04B216C5F61AA9D5E89D313AFED15C0C2E200FF591B69CF7A4AF78492A5ADD9396DE35A4391E1FFA8A358F8CF258249AA5F0618993D98BA419FCD5BE197F255B67FDCF649BC38364DFA18A3466298ACF1DC433AD447E00504B0304140006080800EB8B4D46B90DE6E908010000B2010000080000
311
00636F72652E786D6C8D50CB6EC32010FC15B4776C1E71DD4498A869E32FE8A9376A888B62836570D4FE7D2176A5F6D6D3A299D99D61C4F1731CD0CDCCC17AD7002D0820E33AAFADEB1B58E2053F023A4A317B1F7FC90039359A06320C52F4B35FA60DEABC8BC665D4796D3650856022A06E488F0642F7614655A8252645B8
311
1693EAAEAA37052D569D14D18E3FABDD6C54341A2423B4C28461CA5F697DE0F4C0F89B28B3528A65B17AB3B23AB9DB8B3533C85D4B28E72F356EEBB6C6BB73D5E21339ED3167E4A965E7BA7AD83F8B322F4B11E29CFEBC1D4939230AEA967D45B95252BC7B3F6C82144A23EF862F90449499F8137A99F43F425B1739DB0EAE
311
1B01244D81EE4432CE0DA671AF37CDDCB6FC06504B01021400140006080800EB8B4D46B3FFDA01E4000000200100004F000000000000000000000000000000000037353930383333412D413433322D343034432D383042362D3639394441343136453130332F4173736574446174612F446566696E6974696F6E4974657261
311
746F7250726F706572746965732E62696E504B01021400140006080800EB8B4D467251EB23F60000003002000045000000000000000000000000005101000037353930383333412D413433322D343034432D383042362D3639394441343136453130332F4173736574446174612F496E7374616E636550726F706572746965
311
732E62696E504B01021400140006080800EB8B4D4628BB58AF800100009E0500003D00000000000000000000000000AA02000037353930383333412D413433322D343034432D383042362D3639394441343136453130332F536368656D61732F436F6D6D6F6E536368656D612E786D6C504B01021400140006080800EB8B4D
311
462CCEBD668A040000E01200003E000000000000000000000000008504000037353930383333412D413433322D343034432D383042362D3639394441343136453130332F536368656D61732F47656E65726963536368656D612E786D6C504B01021400140006080800EB8B4D466180134D5F0100006B030000450000000000
311
00000000000000006B09000037353930383333412D413433322D343034432D383042362D3639394441343136453130332F536368656D61732F52656E6465724D6174657269616C536368656D612E786D6C504B01021400140006080800EB8B4D46B4E06DBF510000005700000047000000000000000000000000002D0B0000
311
37353930383333412D413433322D343034432D383042362D3639394441343136453130332F4173736574446174612F41737365745461626C654F66436F6E74656E74732E62696E504B01021400140006080800EB8B4D46F865834058000000680000004500000000000000000000000000E30B000037353930383333412D41
311
3433322D343034432D383042362D3639394441343136453130332F4173736574446174612F53747265616D56657273696F6E5461626C652E696E66504B01021400140006080800EB8B4D46DCF697AE340100009A04000036000000000000000000000000009E0C000037353930383333412D413433322D343034432D383042
311
362D3639394441343136453130332F4173736574446174612F636E782E786D6C504B01021400140006080800EB8B4D46D62DFD58080100004F0300003400000000000000000000000000260E000037353930383333412D413433322D343034432D383042362D3639394441343136453130332F536368656D61732F636E782E
311
786D6C504B01021400140006080800EB8B4D46410A3D5871000000A40000002C00000000000000000000000000800F000037353930383333412D413433322D343034432D383042362D3639394441343136453130332F636E782E786D6C504B01021400140006080800EB8B4D46CAA1A2B47E000000A3000000070000000000
311
00000000000000003B100000636E782E786D6C504B01021400140006080800EB8B4D4616E99B5DA6000000350100001300000000000000000000000000DE1000005B436F6E74656E745F54797065735D2E786D6C504B01021400140006080800EB8B4D463DEE336E64000000790000001B00000000000000000000000000B5
311
1100006175746F6465736B2D64657369676E2D7061636B6167652E786D6C504B01021400140006080800EB8B4D468CF5B36BF90000009601000037000000000000000000000000005212000037353930383333412D413433322D343034432D383042362D3639394441343136453130332F4173736574446174612F636F7265
311
2E786D6C504B01021400140006080800EB8B4D4685BD8875F7000000940100003500000000000000000000000000A013000037353930383333412D413433322D343034432D383042362D3639394441343136453130332F536368656D61732F636F72652E786D6C504B01021400140006080800EB8B4D460F5BB41501010000
311
D70100002D00000000000000000000000000EA14000037353930383333412D413433322D343034432D383042362D3639394441343136453130332F636F72652E786D6C504B01021400140006080800EB8B4D46B90DE6E908010000B2010000080000000000000000000000000036160000636F72652E786D6C504B05060000
311
0000110011005A060000641700000000
310
504B0304140006080800EB8B4D46000000000000000000000000370000006662782F42444346303642412D314432322D343144312D413738442D3035343842363736393346352F617474726962757465732E62696E504B0304140006080800EB8B4D46000000000000000000000000350000006662782F4244434630364241
310
2D314432322D343144312D413738442D3035343842363736393346352F76657274696365732E62696E504B0304140006080800EB8B4D46F270F1330600000004000000360000006662782F42444346303642412D314432322D343144312D413738442D3035343842363736393346352F747269616E676C65732E62696E6366
310
60600000504B0304140006080800EB8B4D4651464CB48900000043010000360000006662782F42444346303642412D314432322D343144312D413738442D3035343842363736393346352F6469726563746F72792E786D6C9D8F310EC2300C45AF127987122606C71DD918B841D4B851A43646695A717C52A85029031293A5
310
A76FBF6FACEF7DA7264E43906840EF0FA03836E242F406C6DCEE4EA06AC22492573150D1F66C60C640E8938CB705396EEDD86DE9B5042FE27813D640EA63BB001C722AF6E55CB61E4863F58284D5D3F53DD715CE1C3985E63FD7F1B7EBDD617E9F1E504B0304140006080800EB8B4D4635DCCB5236070000201C0000340000
310
006662782F42444346303642412D314432322D343144312D413738442D3035343842363736393346352F6F626A656374732E786D6CDD59DB6EDB3810FD1542FBB2FBA09B6FB50BD94562C78551A42D6A74B16F022DD30E37BA81941267BF7E8714294BB26C2BD9162836051A87A686336766CE0C47DE874314A227C2384DE2
310
A9E15A8E81481C245B1AEFA7469EEDCCB1813ECC90C79224ABEC33508C233235C4B231F3F62CC953B5B4253B9C87CDD5E5ED5F88072426060A42CCF9D4E0C10389B085F32CD912FE686D7186ADFDEE60B956B1B12E76CF70FAD0382AC58CC419A80AEB3148511AB8F53FC1247BE6D962436D5BAFDBB6FE856DB634BCAE288D
310
7986E3E044AB869C5E37ADFAEE6071D71B4ECCE160D03707A39E6BDE2E6F17A6FBAEEFCC47F3F9E4E66E62A099B74992B074404AE22D78F1C598B99E2DBE29CD5728B4E91D24714C028566DB862D517229E14D4C6AC0BAD2B48A430A5B2B0BFD8EC69FD9D609949A4A35B4B571FA77357A93CDDF0002EF12A58C1311E53C63
310
E06B857D910F8E6717AB35BF508E229C1146718842BA61988183606BE1A09A18912D42141298492F6A79555D21B0AFE7529B96BB3C0C45FE1A3399693EE423C9B8D48CFE43D851FBEA69A013589BD3381B2B63B39714444C3C5B2E16DFF57BEACB0248B40BF11EA205CC149BFABD065E73C105AB8531FBB4DC1CD6821FDA0F
310
4F5992129689C893C9ACF24E7BB0125A107C1D402970ADFBEE88CA3780FE33205FEA823CF01CA387C161A06D6738E6BB8445E01DE420D381FF1C243E9E7CF2ECF2E1194235AE3C8729A4ED0FC2B46646EDEC0AA433EF09823E617D65DC3AC021C4F43D8D459E43A0A0308125E0FBDDE660CC5640A6B0084FE110AC877F9E2D
310
3E22F855C801BE6978A88D7E3B384A274C33CF8EBEFA0831C36850BAAA66E3397C873F04DF9BC5FAD33A673B1C907B95D80BB2A331CDA098B62B5403BD96F2DF579F65469ED853DB15C039FB4410478B5FD6CA2F483A06541175B8708D5CB9A790EE61886392E45CADB71155908409F3372F7E91C3AD67FDA983A0380CF25B
310
44402B9941750F184D0528C64C995732A175C449F0A00AC07DE1547F83834701AF1F0063BD450F885ACC9A42F328F57194E4B1A0EFD3F06E9A66F51DF9E3BA939E33E98D27236D2C97E275F6686A289517E744383D73C8BCE62DC51A5A7291470360CB360B02E899F2CC4F521CD0AC3D161A46A80C05B02FAABCA5BB5DCE81
310
D45B6169686CF5DD21722AFF97875CD65E1DE2D308EF89BFC3A2C2B59E5703A814AE2D6845661F269CD39870D9A19C30570315C7022228E2564B6D0942CAFD8864F82DF1274B5E23FC18D9853EF45299E866AF479F565055CF731245E796C4BEB4FFC5E7384AC3A24BBB8681DB6B9CD08AAB505A1CF104F1E6E3CC77B64436
310
DDD7A497BCA0F1ED247DF266F167E061F8A7C3A38FA0D07A438DBCEE59D71ABA13F1330652190DDDFE3BED886B58E9A332D1838439744DC18BFF4CE8FEA11BA1753A879370E7D330CC23BFA8071989A005C359CE3AE5EB68E89C385FF14223212A27ED68080D7267D294BD87EE3EC02AD97C9C23CDCA3160148DE18ED6C990
310
132B5A4358FA42DE47C5B5EBBAF75F2FF53FF365F59EF2485E9E13B66DD5B4DE46E80E4C370C822E55852BE3484A9E79D5E48BE4C5E53A0E032D44F15B714B5011C2C81315830979036ABD3FF0679C0540A46BF9DBBC858CD892EDB1A7A88953630E6306876A69BA4FADDE7480EC44F9A8355E2B41A8114C1BB0E0D97BF121
310
FC86C1D5D0F9715B753576B1BE1285CD82C1CA518F0BB2BE7C5C37A4C04AE7A7BF0A8CC87343825A9D8B46EE82A8EFAB63BFDA90A02CFABEBAF078F690479B185351194558E06DFAFE83BC4B4E6DB828D8E3F162EE3AB72373317197E6607ED333C7A3C1C45CC02CC3812F1CB7B7B419E149CE02C2ED9EEDF8BA774AE3BD0E
310
8C02BA2E370A982A5CBFFAE9786E3AF87F7CA308930D3E178BBFEA85A26CF74443D6C8C5AE178A56A2DEBCAEFB774F88BABD88BDAA732E66053AC02F972D20235DEFBBB7165AB4EE24DA75AE54C45716DEB3B7959F5E636A84DE5A1F6A3BDA28BFCEC5307B6AA952FA762B79AD3FEE0D7BE3FE9D39B89D0F61063BBF316FDF
310
B943737907FCB69CF7DDF9725922AE6A61D7BAF24B70A856B632468369304F420A4379B2457B92C00D08A60E1DF8954584CB9B0D3400AA8CEB37021D9E7E2A66AA19DE84FAE9E001C3603A5415390F60280AB78EA9A1D6D16F3006159348399CB21EA1F0A8683750CEE8D48010C828D4176B03E32C393C94D21BE34A701B8E
310
F7E2CE543C55FE7D7C4CA003B172B4ABDCD3051765592D3A613890CAF704C076BA2179BBE95A1D8433F8B8C9B3D298E3C2D11A05827E2150180753BF4705EF0188E7B25DAE25F7D420E93499BF1807855433C36C2FC7EB15BC6F165F6D31195F7D416998EF853B2FD5FB9A2453F419615E0CA13C080C65668AC53D7CFEDEFE
310
CA1278C514A125852040BF1FC6A33FEC791245495C2CD937EA45155A3FC06BA7ADAD477ED0B838EED0967D8F1AEBC3DC8A130B6FF9232C806B1915B3D102E25A0094F4540900ED11E10B78ACB67FB540AA08545AD86AEB2AE091337D048924DEE588B4A96EA80C20211740AB624E5B7ED00B9ECD60083EFB17504B03041400
310
06080800EB8B4D46B9448D223E01000046050000300000006662782F42444346303642412D314432322D343144312D413738442D3035343842363736393346352F636E782E786D6CCD94CF4A033110C65F25E4BE7FD2224AC9A6E0C127F020DEB2D9E91ABB9B599259B16F6F52D3AA48C543A1BD85C937F0FD663E46AEDFC7
310
81BD810F165DC345597306CE60675DDFF09936C51D676B253D227D9371E6F4080D4F65AE64EF719E72A9838D9E87541DACDBE6A226F2B69D09026766D021343C98171875A967C20EC2B6EC34E952941E02CEDE40EC273B42EE371E3441C7D5A2163745BD28C4F251DCAE9662B5583ECB2A29956C1187ACB78EC0E3C40CC687
310
8B666A59A56F25676FB3261170F5E5AC6CAD9355FC573244B7AECF3ADA4D49374D83359AE2982A3404544411E851569F6225ABC4FB83FAE1FEE9E08075D68321F4BB0B0D409C1AC0D1581993F03FFEBDF06F6C6C5F23EEA5B67D1236DB3A1BEA21AD21C6F5F7FE638AB4EB87EB0BFDD1D8F9331F4F0959737DC8075F6722AE
310
F6272F2E3D5D40F501504B0304140006080800EB8B4D46D129D9A27F000000A30000000B0000006662782F636E782E786D6C4D8CD10E822018465F85FDF71498226D829398EFE1121D0BA191B41E3F685E74F56D67DF395DFFD91C7A9BF8B2C10BA02702C8F87B98AD5F05A47DC11C502FBB18C2FE7703E4A7CD08281864B7
310
C6909E079ACD322557A8B3FE7140A56F23616AC0545715AEA9A67868B9C6A4A9B9622DBB5EC6261BE7A2E4F9F5F296BCFC02504B0304140006080800EB8B4D46A6D797065F0000008200000007000000636E782E786D6C4DCB3B0E80201045D1AD90E9FD7516806B51190811670C8A61F982B1B0BAC9C97B72CA7B1037C6D3
310
332918DA1E04D2CAC69353902EDB8C20262D23F3F59B81A079470595414B17391D1F19B4730A5583A7ED43BBE4025D9592775E5ADFFA01504B0304140006080800EB8B4D464FEB6A7CA0000000F4000000130000005B436F6E74656E745F54797065735D2E786D6C7D8F4B0EC2300C44AF1279DFA6B0400835ED02B8011730
310
C16D239A8F121795DB93D02D6269CFBC19BBED573B8B17C564BC53B0AB1B10E4B47F18372A5878A88E20FAAEBDBD032591BD2E299898C349CAA427B2986A1FC86565F0D122E7318E32A07EE24872DF3407A9BD63725C71C980AEBDD080CBCCE2BAE6F5D69B7110E7CD57AA146008B3D1C8F92C5954F993BB1BF787F39A89AB
310
C491D09600F9FDA2FB00504B0304140006080800EB8B4D463DEE336E64000000790000001B0000006175746F6465736B2D64657369676E2D7061636B6167652E786D6C35CBC10E83200C00D05F21DCA56CA76D41FC96062B120735B69A7DBE268BB7777961F8D5AF396893C2ADB70FE7ADA196782C2DF776D7A97B5933C430
310
F15651E5469C55D70F80A4992A3ADC954792C525AE70A1E4D6AD9816CC044FEFDF01FE3FDE907802504B0304140006080800EB8B4D46D9C6E220F8000000960100003B0000006662782F42444346303642412D314432322D343144312D413738442D3035343842363736393346352F7265736F75726365732F636F72652E78
310
6D6C8550496EC3300CFC8AC1BB6CC95B9C4056D016C90B7AEA4D901947482C195A8A3EBF52E202EDA92712C3992139FCF8B5DC8B4F745E5B33022B291468949DB4994788E14206288E823B6BC32F1A14462E38428641F0D9D9B86E90B226A0C9A8B1136EA0F41E0314EA9E9A11BCBAE2224B194362F85BB94A75933396AC7C
310
F2048F514F9B544FC94D5F343A103DEDDE587FAA4933304ADAD78E91979EB664D89D4F5DBBA7FB733DF02A8B050F7AF9D9AE1CCA8013889AB28ED09AB0E69DED0E0D3BD4CD07AF3253701F5CFA795B9ABF03E1D0DBE8147A5E3DA77F5CE33AFDEF1AB5094DBDB93E151E044B473E06825739A5541E11A69A1315DF504B0304
310
140006080800EB8B4D463FB4BD45F3000000B1010000310000006662782F42444346303642412D314432322D343144312D413738442D3035343842363736393346352F636F72652E786D6C8D50CB6EC32010FC156BEFD806C78F469828AE952FE8A9378489831283C5A3EAE71762576A6F392D9A9D6166879EBE9747F625AD
310
5346F780F31232A98599949E7B08FE8A3AC84E8C5A63FC1F1A649A2FB2870403A3B33561DD2161B4973AA1DA4C7207B973D243261EF1D1831337B9F09C071F19EE9EAF5CDCF92C739C6F3C46BD5A7EA5C24AEEE5048C94B8462541B8FAC0EDB1C247527DD22231190D414DBB959AA2BBBA2A69810DE3FBA56C8633C22321E8
310
80478CCE6D37A2B23E7443D3366FD5A5A6451233EABC8D37EF9FA4EB5E956FC27F99C33ABD9059695F91DD7053386038E6792E182D5281713CDB8D3395CD7E00504B0304140006080800EB8B4D46C3B912E954010000DD0200000C0000006662782F636F72652E786D6C8D52CB6EC32010FC158B3B36F891A411266AABE40B
310
7AEA8D60E2A2D86061B0F2F9053FE4FAD0B4B284D1ECEECCCE08727AB44D3408D34BAD4A80630422A1B8AEA4AA4BE0EC0D1E4074A2C4686D7FB48148B1569420C08092DA68D7CD10D7CA0A1550A52B3183ACEF8505116FFCA5043DFF122D8B99B3BEA3BFC71DE377568B18C7531F25CEC96A1E9595679337290CA03B54BCE3
310
DD3985D9012398BF1518BEEE500E0FFBCBB9C85FD0CB253D90240C536265BBA87323981515A029C2054429C4D907DE1F337C4CB34F92844E4A7A6BBCE75934B803F4767D9064C2377CAEABFEE67352D92C9DF9A6891E50ECD71B0B9424211FFF1BC3DB66E8857D7E965D9BC5C2DD4383E0569BDC572AEDD6D2C01A273C358A
310
C68F2453D5338F04BFF1A44F789E73F8A098AAFD6ACCFAEBD5D9A0BEDDA913060EF611296D5AD6ACCB4D2BAEE72AB4B1B48C73DD68F39FE9C5EA1266121E26FD06504B0304140006080800EB8B4D4622DF058107010000B201000008000000636F72652E786D6C8D50CB6EC32010FC15B4776CF02371224CD456C917F4D41B
310
35C445B1C13210B57F5F88A9D4DE7A5A3433BB330C3B7DCE13BAABD5696B7AA00501A4CC60A536630FC15F7107E8C4D96AADFF250364C4AC7A48307036AE362C191AACF1CA24D458A932289C531ED030C5470F6EF850B32844F051E16EC522869B1855418B4DC799D7F3CFEAB02AE195045E11DA6252615ABFD2FDB1A6C7AA
310
7E63655272168296D94ACBE8AEAF5AADC077A47DA1BB7385EB8E12DC3CB7143FED4883BBFDE5DC360772B8541D2BD33267CEAFF1CFF948CCE99113F7E4CBCA8DE2ECDDDA290B622889AC99BE80135626E24FE8B0C87F84D6C6D7553EB86D38E034067A10D1383518C7A3DE3853DBFC1B504B01021400140006080800EB8B4D
310
460000000000000000000000003700000000000000000000000000000000006662782F42444346303642412D314432322D343144312D413738442D3035343842363736393346352F617474726962757465732E62696E504B01021400140006080800EB8B4D4600000000000000000000000035000000000000000000000000
310
00550000006662782F42444346303642412D314432322D343144312D413738442D3035343842363736393346352F76657274696365732E62696E504B01021400140006080800EB8B4D46F270F13306000000040000003600000000000000000000000000A80000006662782F42444346303642412D314432322D343144312D
310
413738442D3035343842363736393346352F747269616E676C65732E62696E504B01021400140006080800EB8B4D4651464CB489000000430100003600000000000000000000000000020100006662782F42444346303642412D314432322D343144312D413738442D3035343842363736393346352F6469726563746F7279
310
2E786D6C504B01021400140006080800EB8B4D4635DCCB5236070000201C00003400000000000000000000000000DF0100006662782F42444346303642412D314432322D343144312D413738442D3035343842363736393346352F6F626A656374732E786D6C504B01021400140006080800EB8B4D46B9448D223E01000046
310
0500003000000000000000000000000000670900006662782F42444346303642412D314432322D343144312D413738442D3035343842363736393346352F636E782E786D6C504B01021400140006080800EB8B4D46D129D9A27F000000A30000000B00000000000000000000000000F30A00006662782F636E782E786D6C50
310
4B01021400140006080800EB8B4D46A6D797065F0000008200000007000000000000000000000000009B0B0000636E782E786D6C504B01021400140006080800EB8B4D464FEB6A7CA0000000F400000013000000000000000000000000001F0C00005B436F6E74656E745F54797065735D2E786D6C504B0102140014000608
310
0800EB8B4D463DEE336E64000000790000001B00000000000000000000000000F00C00006175746F6465736B2D64657369676E2D7061636B6167652E786D6C504B01021400140006080800EB8B4D46D9C6E220F8000000960100003B000000000000000000000000008D0D00006662782F42444346303642412D314432322D
310
343144312D413738442D3035343842363736393346352F7265736F75726365732F636F72652E786D6C504B01021400140006080800EB8B4D463FB4BD45F3000000B10100003100000000000000000000000000DE0E00006662782F42444346303642412D314432322D343144312D413738442D303534384236373639334635
310
2F636F72652E786D6C504B01021400140006080800EB8B4D46C3B912E954010000DD0200000C00000000000000000000000000201000006662782F636F72652E786D6C504B01021400140006080800EB8B4D4622DF058107010000B201000008000000000000000000000000009E110000636F72652E786D6C504B05060000
310
00000E000E0080040000CB1200000000
  0
CELLSTYLEMAP
  5
465
102
{ACAD_REACTORS
330
464
102
}
330
464
100
AcDbCellStyleMap
 90
        3
300
CELLSTYLE
  1
TABLEFORMAT_BEGIN
 90
        5
170
     1
 91
        0
 92
    32768
 62
   257
 93
        1
300
CONTENTFORMAT
  1
CONTENTFORMAT_BEGIN
 90
        0
 91
        0
 92
      512
 93
        0
300

 40
0.0
140
1.0
 94
        5
 62
     0
340
11
144
0.25
309
CONTENTFORMAT_END
171
     1
301
MARGIN
  1
CELLMARGIN_BEGIN
 40
0.06
 40
0.06
 40
0.06
 40
0.06
 40
0.06
 40
0.06
309
CELLMARGIN_END
 94
        6
 95
        1
302
GRIDFORMAT
  1
GRIDFORMAT_BEGIN
 90
        0
 91
        1
 62
     0
 92
       -2
340
0
 93
        0
 40
0.045
309
GRIDFORMAT_END
 95
        2
302
GRIDFORMAT
  1
GRIDFORMAT_BEGIN
 90
        0
 91
        1
 62
     0
 92
       -2
340
0
 93
        0
 40
0.045
309
GRIDFORMAT_END
 95
        4
302
GRIDFORMAT
  1
GRIDFORMAT_BEGIN
 90
        0
 91
        1
 62
     0
 92
       -2
340
0
 93
        0
 40
0.045
309
GRIDFORMAT_END
 95
        8
302
GRIDFORMAT
  1
GRIDFORMAT_BEGIN
 90
        0
 91
        1
 62
     0
 92
       -2
340
0
 93
        0
 40
0.045
309
GRIDFORMAT_END
 95
       16
302
GRIDFORMAT
  1
GRIDFORMAT_BEGIN
 90
        0
 91
        1
 62
     0
 92
       -2
340
0
 93
        0
 40
0.045
309
GRIDFORMAT_END
 95
       32
302
GRIDFORMAT
  1
GRIDFORMAT_BEGIN
 90
        0
 91
        1
 62
     0
 92
       -2
340
0
 93
        0
 40
0.045
309
GRIDFORMAT_END
309
TABLEFORMAT_END
  1
CELLSTYLE_BEGIN
 90
        1
 91
        1
300
_TITLE
309
CELLSTYLE_END
300
CELLSTYLE
  1
TABLEFORMAT_BEGIN
 90
        5
170
     1
 91
        0
 92
        0
 62
   257
 93
        1
300
CONTENTFORMAT
  1
CONTENTFORMAT_BEGIN
 90
        0
 91
        0
 92
      512
 93
        0
300

 40
0.0
140
1.0
 94
        5
 62
     0
340
11
144
0.18
309
CONTENTFORMAT_END
171
     1
301
MARGIN
  1
CELLMARGIN_BEGIN
 40
0.06
 40
0.06
 40
0.06
 40
0.06
 40
0.06
 40
0.06
309
CELLMARGIN_END
 94
        6
 95
        1
302
GRIDFORMAT
  1
GRIDFORMAT_BEGIN
 90
        0
 91
        1
 62
     0
 92
       -2
340
0
 93
        0
 40
0.045
309
GRIDFORMAT_END
 95
        2
302
GRIDFORMAT
  1
GRIDFORMAT_BEGIN
 90
        0
 91
        1
 62
     0
 92
       -2
340
0
 93
        0
 40
0.045
309
GRIDFORMAT_END
 95
        4
302
GRIDFORMAT
  1
GRIDFORMAT_BEGIN
 90
        0
 91
        1
 62
     0
 92
       -2
340
0
 93
        0
 40
0.045
309
GRIDFORMAT_END
 95
        8
302
GRIDFORMAT
  1
GRIDFORMAT_BEGIN
 90
        0
 91
        1
 62
     0
 92
       -2
340
0
 93
        0
 40
0.045
309
GRIDFORMAT_END
 95
       16
302
GRIDFORMAT
  1
GRIDFORMAT_BEGIN
 90
        0
 91
        1
 62
     0
 92
       -2
340
0
 93
        0
 40
0.045
309
GRIDFORMAT_END
 95
       32
302
GRIDFORMAT
  1
GRIDFORMAT_BEGIN
 90
        0
 91
        1
 62
     0
 92
       -2
340
0
 93
        0
 40
0.045
309
GRIDFORMAT_END
309
TABLEFORMAT_END
  1
CELLSTYLE_BEGIN
 90
        2
 91
        1
300
_HEADER
309
CELLSTYLE_END
300
CELLSTYLE
  1
TABLEFORMAT_BEGIN
 90
        5
170
     1
 91
        0
 92
        0
 62
   257
 93
        1
300
CONTENTFORMAT
  1
CONTENTFORMAT_BEGIN
 90
        0
 91
        0
 92
      512
 93
        0
300

 40
0.0
140
1.0
 94
        2
 62
     0
340
11
144
0.18
309
CONTENTFORMAT_END
171
     1
301
MARGIN
  1
CELLMARGIN_BEGIN
 40
0.06
 40
0.06
 40
0.06
 40
0.06
 40
0.06
 40
0.06
309
CELLMARGIN_END
 94
        6
 95
        1
302
GRIDFORMAT
  1
GRIDFORMAT_BEGIN
 90
        0
 91
        1
 62
     0
 92
       -2
340
0
 93
        0
 40
0.045
309
GRIDFORMAT_END
 95
        2
302
GRIDFORMAT
  1
GRIDFORMAT_BEGIN
 90
        0
 91
        1
 62
     0
 92
       -2
340
0
 93
        0
 40
0.045
309
GRIDFORMAT_END
 95
        4
302
GRIDFORMAT
  1
GRIDFORMAT_BEGIN
 90
        0
 91
        1
 62
     0
 92
       -2
340
0
 93
        0
 40
0.045
309
GRIDFORMAT_END
 95
        8
302
GRIDFORMAT
  1
GRIDFORMAT_BEGIN
 90
        0
 91
        1
 62
     0
 92
       -2
340
0
 93
        0
 40
0.045
309
GRIDFORMAT_END
 95
       16
302
GRIDFORMAT
  1
GRIDFORMAT_BEGIN
 90
        0
 91
        1
 62
     0
 92
       -2
340
0
 93
        0
 40
0.045
309
GRIDFORMAT_END
 95
       32
302
GRIDFORMAT
  1
GRIDFORMAT_BEGIN
 90
        0
 91
        1
 62
     0
 92
       -2
340
0
 93
        0
 40
0.045
309
GRIDFORMAT_END
309
TABLEFORMAT_END
  1
CELLSTYLE_BEGIN
 90
        3
 91
        2
300
_DATA
309
CELLSTYLE_END
  0
ENDSEC
  0
EOF
