  0
SECTION
  2
HEADER
  9
$ACADVER
  1
AC1009
  9
$INSBASE
 10
0.0
 20
0.0
 30
0.0
  9
$EXTMIN
 10
523754.223969999991823
 20
271995.376430161006283
 30
0.0
  9
$EXTMAX
 10
523792.5870470000081696
 20
272030.4659297349862754
 30
10.6219865064864791
  9
$LIMMIN
 10
0.0
 20
0.0
  9
$LIMMAX
 10
420.0
 20
297.0
  9
$ORTHOMODE
 70
     0
  9
$REGENMODE
 70
     1
  9
$FILLMODE
 70
     1
  9
$QTEXTMODE
 70
     0
  9
$MIRRTEXT
 70
     0
  9
$DRAGMODE
 70
     2
  9
$LTSCALE
 40
1.0
  9
$OSMODE
 70
    45
  9
$ATTMODE
 70
     1
  9
$TEXTSIZE
 40
0.2
  9
$TRACEWID
 40
1.0
  9
$TEXTSTYLE
  7
ARIAL
  9
$CLAYER
  8
0
  9
$CELTYPE
  6
BYLAYER
  9
$CECOLOR
 62
   256
  9
$DIMSCALE
 40
0.001
  9
$DIMASZ
 40
2.5
  9
$DIMEXO
 40
0.625
  9
$DIMDLI
 40
3.75
  9
$DIMRND
 40
0.0
  9
$DIMDLE
 40
0.0
  9
$DIMEXE
 40
1.25
  9
$DIMTP
 40
0.0
  9
$DIMTM
 40
0.0
  9
$DIMTXT
 40
2.5
  9
$DIMCEN
 40
2.5
  9
$DIMTSZ
 40
0.0
  9
$DIMTOL
 70
     0
  9
$DIMLIM
 70
     0
  9
$DIMTIH
 70
     0
  9
$DIMTOH
 70
     0
  9
$DIMSE1
 70
     0
  9
$DIMSE2
 70
     0
  9
$DIMTAD
 70
     1
  9
$DIMZIN
 70
     8
  9
$DIMBLK
  1

  9
$DIMASO
 70
     1
  9
$DIMSHO
 70
     1
  9
$DIMPOST
  1

  9
$DIMAPOST
  1

  9
$DIMALT
 70
     0
  9
$DIMALTD
 70
     3
  9
$DIMALTF
 40
0.03937007874016
  9
$DIMLFAC
 40
1.0
  9
$DIMTOFL
 70
     1
  9
$DIMTVP
 40
0.0
  9
$DIMTIX
 70
     0
  9
$DIMSOXD
 70
     0
  9
$DIMSAH
 70
     0
  9
$DIMBLK1
  1

  9
$DIMBLK2
  1

  9
$DIMSTYLE
  2
ISO-25
  9
$DIMCLRD
 70
     0
  9
$DIMCLRE
 70
     0
  9
$DIMCLRT
 70
     0
  9
$DIMTFAC
 40
1.0
  9
$DIMGAP
 40
0.625
  9
$LUNITS
 70
     2
  9
$LUPREC
 70
     4
  9
$SKETCHINC
 40
1.0
  9
$FILLETRAD
 40
0.0
  9
$AUNITS
 70
     0
  9
$AUPREC
 70
     0
  9
$MENU
  1
.
  9
$ELEVATION
 40
0.0
  9
$PELEVATION
 40
0.0
  9
$THICKNESS
 40
0.0
  9
$LIMCHECK
 70
     0
  9
$BLIPMODE
 70
     0
  9
$CHAMFERA
 40
0.0
  9
$CHAMFERB
 40
0.0
  9
$SKPOLY
 70
     0
  9
$TDCREATE
 40
2459265.6877546301111579
  9
$TDUPDATE
 40
2459271.5477314819581807
  9
$TDINDWG
 40
0.0646875
  9
$TDUSRTIMER
 40
0.0646875
  9
$USRTIMER
 70
     1
  9
$ANGBASE
 50
0.0
  9
$ANGDIR
 70
     0
  9
$PDMODE
 70
     2
  9
$PDSIZE
 40
0.5
  9
$PLINEWID
 40
0.0
  9
$COORDS
 70
     2
  9
$SPLFRAME
 70
     0
  9
$SPLINETYPE
 70
     6
  9
$SPLINESEGS
 70
     8
  9
$ATTDIA
 70
     1
  9
$ATTREQ
 70
     1
  9
$HANDLING
 70
     1
  9
$HANDSEED
  5
1B51
  9
$SURFTAB1
 70
     6
  9
$SURFTAB2
 70
     6
  9
$SURFTYPE
 70
     6
  9
$SURFU
 70
     6
  9
$SURFV
 70
     6
  9
$UCSNAME
  2

  9
$UCSORG
 10
0.0
 20
0.0
 30
0.0
  9
$UCSXDIR
 10
1.0
 20
0.0
 30
0.0
  9
$UCSYDIR
 10
0.0
 20
1.0
 30
0.0
  9
$PUCSNAME
  2

  9
$PUCSORG
 10
0.0
 20
0.0
 30
0.0
  9
$PUCSXDIR
 10
1.0
 20
0.0
 30
0.0
  9
$PUCSYDIR
 10
0.0
 20
1.0
 30
0.0
  9
$USERI1
 70
     0
  9
$USERI2
 70
     0
  9
$USERI3
 70
     0
  9
$USERI4
 70
     0
  9
$USERI5
 70
     0
  9
$USERR1
 40
0.0
  9
$USERR2
 40
0.0
  9
$USERR3
 40
0.0
  9
$USERR4
 40
0.0
  9
$USERR5
 40
0.0
  9
$WORLDVIEW
 70
     1
  9
$SHADEDGE
 70
     3
  9
$SHADEDIF
 70
    70
  9
$TILEMODE
 70
     1
  9
$MAXACTVP
 70
    64
  9
$PLIMCHECK
 70
     0
  9
$PEXTMIN
 10
0.0
 20
0.0
 30
0.0
  9
$PEXTMAX
 10
0.0
 20
0.0
 30
0.0
  9
$PLIMMIN
 10
0.0
 20
0.0
  9
$PLIMMAX
 10
12.0
 20
9.0
  9
$UNITMODE
 70
     0
  9
$VISRETAIN
 70
     1
  9
$PLINEGEN
 70
     0
  9
$PSLTSCALE
 70
     1
  0
ENDSEC
  0
SECTION
  2
TABLES
  0
TABLE
  2
VPORT
 70
     1
  0
VPORT
  2
*ACTIVE
 70
     0
 10
0.0
 20
0.0
 11
1.0
 21
1.0
 12
523780.3101499807089567
 22
272016.5268802564241923
 13
0.0
 23
0.0
 14
10.0
 24
10.0
 15
10.0
 25
10.0
 16
0.0
 26
0.0
 36
1.0
 17
0.0
 27
0.0
 37
0.0
 40
14.28613966473978
 41
1.6340621403912541
 42
50.0
 43
0.0
 44
0.0
 50
0.0
 51
0.0
 71
     0
 72
  1000
 73
     1
 74
     3
 75
     0
 76
     0
 77
     0
 78
     0
  0
ENDTAB
  0
TABLE
  2
LTYPE
 70
    30
  0
LTYPE
  2
CONTINUOUS
 70
     0
  3
Solid line
 72
    65
 73
     0
 40
0.0
  0
LTYPE
  2
BORDER
 70
     0
  3
__ __ . __ __ . __ __ . __ __ . __ __ . __ __ .
 72
    65
 73
     6
 40
44.4499999999999886
 49
12.6999999999999993
 49
-6.3499999999999988
 49
12.6999999999999993
 49
-6.3499999999999988
 49
0.0
 49
-6.3499999999999988
  0
LTYPE
  2
BORDER2
 70
     0
  3
__.__.__.__.__.__.__.__.__.__.__.__.__.__.__.__
 72
    65
 73
     6
 40
22.2250000000000014
 49
6.3499999999999988
 49
-3.1749999999999989
 49
6.3499999999999988
 49
-3.1749999999999989
 49
0.0
 49
-3.1749999999999989
  0
LTYPE
  2
BORDERX2
 70
     0
  3
____  ____  .  ____  ____  .  ____  ____  .  __
 72
    65
 73
     6
 40
88.8999999999999773
 49
25.3999999999999986
 49
-12.6999999999999993
 49
25.3999999999999986
 49
-12.6999999999999993
 49
0.0
 49
-12.6999999999999993
  0
LTYPE
  2
CENTER
 70
     0
  3
____ _ ____ _ ____ _ ____ _ ____ _ ____ _ ____ 
 72
    65
 73
     4
 40
50.7999999999999972
 49
31.75
 49
-6.3499999999999988
 49
6.3499999999999988
 49
-6.3499999999999988
  0
LTYPE
  2
CENTER2
 70
     0
  3
___ _ ___ _ ___ _ ___ _ ___ _ ___ _ ___ _ ___ _
 72
    65
 73
     4
 40
28.5749999999999993
 49
19.0500000000000007
 49
-3.1749999999999989
 49
3.1749999999999989
 49
-3.1749999999999989
  0
LTYPE
  2
CENTERX2
 70
     0
  3
________  __  ________  __  ________  __  _____
 72
    65
 73
     4
 40
101.5999999999999943
 49
63.5
 49
-12.6999999999999993
 49
12.6999999999999993
 49
-12.6999999999999993
  0
LTYPE
  2
CENTRE
 70
     0
  3
____ _ ____ _ ____ _ ____ _ ____ _ ____ _ ____ 
 72
    65
 73
     4
 40
50.7999999999999972
 49
31.75
 49
-6.3499999999999988
 49
6.3499999999999988
 49
-6.3499999999999988
  0
LTYPE
  2
CENTRE2
 70
     0
  3
___ _ ___ _ ___ _ ___ _ ___ _ ___ _ ___ _ ___ _
 72
    65
 73
     4
 40
28.5749999999999993
 49
19.0500000000000007
 49
-3.1749999999999989
 49
3.1749999999999989
 49
-3.1749999999999989
  0
LTYPE
  2
CENTREX2
 70
     0
  3
________  __  ________  __  ________  __  _____
 72
    65
 73
     4
 40
101.5999999999999943
 49
63.5
 49
-12.6999999999999993
 49
12.6999999999999993
 49
-12.6999999999999993
  0
LTYPE
  2
DASHDOT
 70
     0
  3
__ . __ . __ . __ . __ . __ . __ . __ . __ . __
 72
    65
 73
     4
 40
25.3999999999999986
 49
12.6999999999999993
 49
-6.3499999999999988
 49
0.0
 49
-6.3499999999999988
  0
LTYPE
  2
DASHDOT2
 70
     0
  3
_._._._._._._._._._._._._._._._._._._._._._._._
 72
    65
 73
     4
 40
12.6999999999999993
 49
6.3499999999999988
 49
-3.1749999999999989
 49
0.0
 49
-3.1749999999999989
  0
LTYPE
  2
DASHDOTX2
 70
     0
  3
____  .  ____  .  ____  .  ____  .  ____  .  __
 72
    65
 73
     4
 40
50.7999999999999972
 49
25.3999999999999986
 49
-12.6999999999999993
 49
0.0
 49
-12.6999999999999993
  0
LTYPE
  2
DASHED
 70
     0
  3
__ __ __ __ __ __ __ __ __ __ __ __ __ __ __ __
 72
    65
 73
     2
 40
19.0500000000000007
 49
12.6999999999999993
 49
-6.3499999999999988
  0
LTYPE
  2
DASHED2
 70
     0
  3
_ _ _ _ _ _ _ _ _ _ _ _ _ _ _ _ _ _ _ _ _ _ _ _
 72
    65
 73
     2
 40
9.5249999999999986
 49
6.3499999999999988
 49
-3.1749999999999989
  0
LTYPE
  2
DASHEDX2
 70
     0
  3
____  ____  ____  ____  ____  ____  ____  ____ 
 72
    65
 73
     2
 40
38.1000000000000014
 49
25.3999999999999986
 49
-12.6999999999999993
  0
LTYPE
  2
DIVIDE
 70
     0
  3
____ . . ____ . . ____ . . ____ . . ____ . . __
 72
    65
 73
     6
 40
31.75
 49
12.6999999999999993
 49
-6.3499999999999988
 49
0.0
 49
-6.3499999999999988
 49
0.0
 49
-6.3499999999999988
  0
LTYPE
  2
DIVIDE2
 70
     0
  3
__..__..__..__..__..__..__..__..__..__..__..__.
 72
    65
 73
     6
 40
15.875
 49
6.3499999999999988
 49
-3.1749999999999989
 49
0.0
 49
-3.1749999999999989
 49
0.0
 49
-3.1749999999999989
  0
LTYPE
  2
DIVIDEX2
 70
     0
  3
________  .  .  ________  .  .  ________  .  . 
 72
    65
 73
     6
 40
63.5
 49
25.3999999999999986
 49
-12.6999999999999993
 49
0.0
 49
-12.6999999999999993
 49
0.0
 49
-12.6999999999999993
  0
LTYPE
  2
DOT
 70
     0
  3
. . . . . . . . . . . . . . . . . . . . . . . .
 72
    65
 73
     2
 40
6.3499999999999988
 49
0.0
 49
-6.3499999999999988
  0
LTYPE
  2
DOT2
 70
     0
  3
...............................................
 72
    65
 73
     2
 40
3.1749999999999989
 49
0.0
 49
-3.1749999999999989
  0
LTYPE
  2
DOTX2
 70
     0
  3
.  .  .  .  .  .  .  .  .  .  .  .  .  .  .  . 
 72
    65
 73
     2
 40
12.6999999999999993
 49
0.0
 49
-12.6999999999999993
  0
LTYPE
  2
HIDDEN
 70
     0
  3
__ __ __ __ __ __ __ __ __ __ __ __ __ __ __ __
 72
    65
 73
     2
 40
9.5249999999999986
 49
6.3499999999999988
 49
-3.1749999999999989
  0
LTYPE
  2
HIDDEN2
 70
     0
  3
_ _ _ _ _ _ _ _ _ _ _ _ _ _ _ _ _ _ _ _ _ _ _ _
 72
    65
 73
     2
 40
4.7624999999999993
 49
3.1749999999999989
 49
-1.587499999999999
  0
LTYPE
  2
HIDDENX2
 70
     0
  3
____ ____ ____ ____ ____ ____ ____ ____ ____ __
 72
    65
 73
     2
 40
19.0500000000000007
 49
12.6999999999999993
 49
-6.3499999999999988
  0
LTYPE
  2
PHANTOM
 70
     0
  3
______  __  __  ______  __  __  ______  __  __ 
 72
    65
 73
     6
 40
63.5000000000000071
 49
31.75
 49
-6.3499999999999988
 49
6.3499999999999988
 49
-6.3499999999999988
 49
6.3499999999999988
 49
-6.3499999999999988
  0
LTYPE
  2
PHANTOM2
 70
     0
  3
___ _ _ ___ _ _ ___ _ _ ___ _ _ ___ _ _ ___ _ _
 72
    65
 73
     6
 40
31.7500000000000107
 49
15.875
 49
-3.1749999999999989
 49
3.1749999999999989
 49
-3.1749999999999989
 49
3.1749999999999989
 49
-3.1749999999999989
  0
LTYPE
  2
PHANTOMX2
 70
     0
  3
____________    ____    ____    ____________   
 72
    65
 73
     6
 40
127.0
 49
63.5
 49
-12.6999999999999993
 49
12.6999999999999993
 49
-12.6999999999999993
 49
12.6999999999999993
 49
-12.6999999999999993
  0
LTYPE
  2
DASH01
 70
     0
  3
DASHED
 72
    65
 73
     4
 40
1.0
 49
0.4
 49
-0.1
 49
0.4
 49
-0.1
  0
LTYPE
  2
DASH02
 70
     0
  3
DASHED
 72
    65
 73
     4
 40
0.2
 49
0.05
 49
-0.05
 49
0.05
 49
-0.05
  0
ENDTAB
  0
TABLE
  2
LAYER
 70
   130
  0
LAYER
  2
0
 70
     0
 62
     7
  6
CONTINUOUS
  0
LAYER
  2
VEG-EX
 70
     0
 62
    63
  6
CONTINUOUS
  0
LAYER
  2
BUILDINGOUT
 70
     0
 62
     7
  6
CONTINUOUS
  0
LAYER
  2
BUILDINGPEC
 70
     0
 62
     7
  6
CONTINUOUS
  0
LAYER
  2
PARISHCOMM
 70
     0
 62
     7
  6
CONTINUOUS
  0
LAYER
  2
DISTRICT
 70
     0
 62
     7
  6
CONTINUOUS
  0
LAYER
  2
COUNTY
 70
     0
 62
     7
  6
CONTINUOUS
  0
LAYER
  2
ELECTORAL
 70
     0
 62
     7
  6
CONTINUOUS
  0
LAYER
  2
BOUNDARYPOS
 70
     0
 62
     7
  6
CONTINUOUS
  0
LAYER
  2
BOUNDARYMAR
 70
     0
 62
     7
  6
CONTINUOUS
  0
LAYER
  2
NARROWGAUGE
 70
     0
 62
     7
  6
CONTINUOUS
  0
LAYER
  2
STANDARDGAUGE
 70
     0
 62
     7
  6
CONTINUOUS
  0
LAYER
  2
PECKEDROAD
 70
     0
 62
     7
  6
CONTINUOUS
  0
LAYER
  2
TRIGPOINT
 70
     0
 62
     7
  6
CONTINUOUS
  0
LAYER
  2
BENCHMARK
 70
     0
 62
     7
  6
CONTINUOUS
  0
LAYER
  2
SPOTHEIGHT
 70
     0
 62
     7
  6
CONTINUOUS
  0
LAYER
  2
GENERALLINE
 70
     0
 62
     7
  6
CONTINUOUS
  0
LAYER
  2
GENERALPECK
 70
     0
 62
     7
  6
CONTINUOUS
  0
LAYER
  2
UNDERGROUND
 70
     0
 62
    54
  6
CONTINUOUS
  0
LAYER
  2
VEGETATION
 70
     0
 62
   115
  6
CONTINUOUS
  0
LAYER
  2
OVERHEADPEC
 70
     0
 62
     7
  6
CONTINUOUS
  0
LAYER
  2
PYLON
 70
     0
 62
     7
  6
CONTINUOUS
  0
LAYER
  2
MINORLINE
 70
     0
 62
     7
  6
CONTINUOUS
  0
LAYER
  2
POINTFEATURE
 70
     0
 62
     7
  6
CONTINUOUS
  0
LAYER
  2
WATERFEATURE
 70
     0
 62
     7
  6
CONTINUOUS
  0
LAYER
  2
FLOWARROW
 70
     0
 62
     7
  6
CONTINUOUS
  0
LAYER
  2
MEANHIGH
 70
     0
 62
     7
  6
CONTINUOUS
  0
LAYER
  2
MEANLOW
 70
     0
 62
     7
  6
CONTINUOUS
  0
LAYER
  2
PARLIAMENT
 70
     0
 62
     7
  6
CONTINUOUS
  0
LAYER
  2
CENTRELINE
 70
     0
 62
     7
  6
CONTINUOUS
  0
LAYER
  2
BUILDINGSEE
 70
     0
 62
     7
  6
CONTINUOUS
  0
LAYER
  2
GLASSHOUSE
 70
     0
 62
     7
  6
CONTINUOUS
  0
LAYER
  2
ROADNAMES
 70
     0
 62
     7
  6
CONTINUOUS
  0
LAYER
  2
BOUNDARY
 70
     0
 62
    15
  6
CONTINUOUS
  0
LAYER
  2
HOUSENUMBER
 70
     0
 62
     7
  6
CONTINUOUS
  0
LAYER
  2
MISC
 70
     0
 62
     5
  6
CONTINUOUS
  0
LAYER
  2
WATERFEAT
 70
     0
 62
     7
  6
CONTINUOUS
  0
LAYER
  2
LANDPARCEL
 70
     0
 62
     7
  6
CONTINUOUS
  0
LAYER
  2
BOXSECTION
 70
     0
 62
     3
  6
DASHDOT2
  0
LAYER
  2
POTTERYVESSEL
 70
     0
 62
   125
  6
CONTINUOUS
  0
LAYER
  2
CUTTINGFEATURE
 70
     0
 62
     6
  6
DIVIDE2
  0
LAYER
  2
EARLIERFEATURE
 70
     0
 62
     4
  6
CONTINUOUS
  0
LAYER
  2
EX_FEATURE
 70
     0
 62
   112
  6
CONTINUOUS
  0
LAYER
  2
GRID
 70
     0
 62
     5
  6
CONTINUOUS
  0
LAYER
  2
GRIDTEXT
 70
     0
 62
     5
  6
CONTINUOUS
  0
LAYER
  2
LAYER
 70
     0
 62
    10
  6
CONTINUOUS
  0
LAYER
  2
LIMIT
 70
     0
 62
     1
  6
CONTINUOUS
  0
LAYER
  2
MASONRY
 70
     0
 62
    15
  6
CONTINUOUS
  0
LAYER
  2
SECTIONLINE
 70
     0
 62
     8
  6
CONTINUOUS
  0
LAYER
  2
SECTIONTEXT
 70
     0
 62
     8
  6
CONTINUOUS
  0
LAYER
  2
SEGMENT
 70
     0
 62
    40
  6
CONTINUOUS
  0
LAYER
  2
SKELETON
 70
     0
 62
    42
  6
CONTINUOUS
  0
LAYER
  2
TEXT
 70
     0
 62
     7
  6
CONTINUOUS
  0
LAYER
  2
EX_LAYER
 70
     0
 62
   116
  6
CONTINUOUS
  0
LAYER
  2
TRIALTRENCH
 70
     0
 62
     2
  6
PHANTOM2
  0
LAYER
  2
UNEX_FEATURE
 70
     0
 62
     7
  6
CONTINUOUS
  0
LAYER
  2
WOOD
 70
     0
 62
   206
  6
CONTINUOUS
  0
LAYER
  2
MODERN
 70
     0
 62
    15
  6
CONTINUOUS
  0
LAYER
  2
GEO_ARCH
 70
     0
 62
     7
  6
CONTINUOUS
  0
LAYER
  2
GEO_DIST
 70
     0
 62
   136
  6
CONTINUOUS
  0
LAYER
  2
GEO_NAT
 70
     0
 62
   186
  6
CONTINUOUS
  0
LAYER
  2
GEO_PIPE
 70
     0
 62
   206
  6
CONTINUOUS
  0
LAYER
  2
GEO_FERR
 70
     0
 62
   236
  6
CONTINUOUS
  0
LAYER
  2
GEO_POSS
 70
     0
 62
   232
  6
CONTINUOUS
  0
LAYER
  2
GEOPHYS7
 70
     0
 62
   212
  6
CONTINUOUS
  0
LAYER
  2
GEOPHYS8
 70
     0
 62
   162
  6
CONTINUOUS
  0
LAYER
  2
GEOLIM
 70
     0
 62
   121
  6
CONTINUOUS
  0
LAYER
  2
FIELDWALKLIM
 70
     0
 62
    76
  6
CONTINUOUS
  0
LAYER
  2
CRPMK_ARCH
 70
     0
 62
     9
  6
CONTINUOUS
  0
LAYER
  2
CRPMK_POSSARCH
 70
     0
 62
     7
  6
CONTINUOUS
  0
LAYER
  2
CRPMK_GEOLOGICAL
 70
     0
 62
     3
  6
CONTINUOUS
  0
LAYER
  2
CRPMK_MODERN
 70
     0
 62
     7
  6
CONTINUOUS
  0
LAYER
  2
HER_INFO
 70
     0
 62
     3
  6
CONTINUOUS
  0
LAYER
  2
STUDYAREA
 70
     0
 62
     4
  6
CONTINUOUS
  0
LAYER
  2
LOCUNCERTAIN
 70
     0
 62
     6
  6
CONTINUOUS
  0
LAYER
  2
FURROW
 70
     0
 62
     4
  6
CONTINUOUS
  0
LAYER
  2
EX_FURROW
 70
     0
 62
     6
  6
CONTINUOUS
  0
LAYER
  2
FINDSDEPOSIT
 70
     0
 62
    42
  6
CONTINUOUS
  0
LAYER
  2
RECONSTRUCTED
 70
     0
 62
   136
  6
CONTINUOUS
  0
LAYER
  2
OVERA-CUTTING
 70
     0
 62
     6
  6
CONTINUOUS
  0
LAYER
  2
OVERB-CUTTING
 70
     0
 62
     6
  6
CONTINUOUS
  0
LAYER
  2
OVERA-EARLIER
 70
     0
 62
     4
  6
CONTINUOUS
  0
LAYER
  2
OVERB-EARLIER
 70
     0
 62
     4
  6
CONTINUOUS
  0
LAYER
  2
OVERA-UNEX
 70
     0
 62
   252
  6
CONTINUOUS
  0
LAYER
  2
OVERB-UNEX
 70
     0
 62
   252
  6
CONTINUOUS
  0
LAYER
  2
OVERA-REMOVED
 70
     0
 62
    66
  6
CONTINUOUS
  0
LAYER
  2
OVERB-REMOVED
 70
     0
 62
    66
  6
CONTINUOUS
  0
LAYER
  2
LAYERA
 70
     0
 62
   146
  6
CONTINUOUS
  0
LAYER
  2
LAYERB
 70
     0
 62
   146
  6
CONTINUOUS
  0
LAYER
  2
LAYERC
 70
     0
 62
   146
  6
CONTINUOUS
  0
LAYER
  2
OVERA-SEGMENT
 70
     0
 62
     1
  6
CONTINUOUS
  0
LAYER
  2
OVERB-SEGMENT
 70
     0
 62
     1
  6
CONTINUOUS
  0
LAYER
  2
OVERA-EX_FEAT
 70
     0
 62
     3
  6
CONTINUOUS
  0
LAYER
  2
OVERB-EX_FEAT
 70
     0
 62
     3
  6
CONTINUOUS
  0
LAYER
  2
EX-LAYERA
 70
     0
 62
   150
  6
CONTINUOUS
  0
LAYER
  2
EX-LAYERB
 70
     0
 62
   152
  6
CONTINUOUS
  0
LAYER
  2
EX-LAYERC
 70
     0
 62
    83
  6
CONTINUOUS
  0
LAYER
  2
UNDERA-UNEX
 70
     0
 62
   252
  6
CONTINUOUS
  0
LAYER
  2
UNDERA-EX_FEAT
 70
     0
 62
     3
  6
CONTINUOUS
  0
LAYER
  2
UNDERA-SEGMENT
 70
     0
 62
     1
  6
CONTINUOUS
  0
LAYER
  2
UNDERA-EARLIER
 70
     0
 62
     4
  6
CONTINUOUS
  0
LAYER
  2
REMOVEDA
 70
     0
 62
   154
  6
CONTINUOUS
  0
LAYER
  2
UNDERA-CUTTING
 70
     0
 62
     6
  6
CONTINUOUS
  0
LAYER
  2
REMOVED
 70
     0
 62
   206
  6
CONTINUOUS
  0
LAYER
  2
UNDERB-UNEX
 70
     0
 62
   252
  6
CONTINUOUS
  0
LAYER
  2
UNDERB-EARLIER
 70
     0
 62
     4
  6
CONTINUOUS
  0
LAYER
  2
UNDERB-EX_FEAT
 70
     0
 62
     3
  6
CONTINUOUS
  0
LAYER
  2
UNDERB-SEGMENT
 70
     0
 62
     1
  6
CONTINUOUS
  0
LAYER
  2
MODERN-EXC
 70
     0
 62
   224
  6
CONTINUOUS
  0
LAYER
  2
WALL
 70
     0
 62
     9
  6
CONTINUOUS
  0
LAYER
  2
EXC-WALL
 70
     0
 62
   242
  6
CONTINUOUS
  0
LAYER
  2
UNDERWALL-EX_FEAT
 70
     0
 62
     3
  6
CONTINUOUS
  0
LAYER
  2
UNDERWALL-CUTTING
 70
     0
 62
     6
  6
CONTINUOUS
  0
LAYER
  2
UNDERWALL-EARLIER
 70
     0
 62
     4
  6
CONTINUOUS
  0
LAYER
  2
UNDERWALL-UNEX
 70
     0
 62
   252
  6
CONTINUOUS
  0
LAYER
  2
UNDERC-EX_FEAT
 70
     0
 62
     3
  6
CONTINUOUS
  0
LAYER
  2
OVERC-UNEX
 70
     0
 62
   252
  6
CONTINUOUS
  0
LAYER
  2
OVERC-EX_FEAT
 70
     0
 62
     3
  6
CONTINUOUS
  0
LAYER
  2
UNDERC-EARLIER
 70
     0
 62
     4
  6
CONTINUOUS
  0
LAYER
  2
LAYERC-MACHINED
 70
     0
 62
     9
  6
CONTINUOUS
  0
LAYER
  2
UNDERC-UNEX
 70
     0
 62
   252
  6
CONTINUOUS
  0
LAYER
  2
PALAEO
 70
     0
 62
   156
  6
CONTINUOUS
  0
LAYER
  2
EX-PALAEO
 70
     0
 62
   131
  6
CONTINUOUS
  0
LAYER
  2
UNDERC-SEGMENT
 70
     0
 62
     1
  6
CONTINUOUS
  0
LAYER
  2
MACHINED
 70
     0
 62
   252
  6
CONTINUOUS
  0
LAYER
  2
QUARRY
 70
     0
 62
    44
  6
CONTINUOUS
  0
LAYER
  2
GROUNDSURFACE-LIMIT
 70
     0
 62
     1
  6
CONTINUOUS
  0
LAYER
  2
BASE-LIMIT
 70
     0
 62
    20
  6
CONTINUOUS
  0
LAYER
  2
WELL
 70
     0
 62
     7
  6
CONTINUOUS
  0
LAYER
  2
MACHINEDAWAY
 70
     0
 62
    31
  6
CONTINUOUS
  0
ENDTAB
  0
TABLE
  2
STYLE
 70
     6
  0
STYLE
  2
STANDARD
 70
     0
 40
0.0
 41
1.0
 50
0.0
 71
     0
 42
2.5
  3
txt
  4

  0
STYLE
  2
ANNOTATIVE
 70
     0
 40
0.0
 41
1.0
 50
0.0
 71
     0
 42
2.5
  3
txt
  4

  0
STYLE
  2
LEGEND
 70
     0
 40
0.0
 41
1.0
 50
0.0
 71
     0
 42
2.5
  3
txt
  4

  0
STYLE
  2
TIMES_NEW_ROMAN
 70
     0
 40
0.0
 41
1.0
 50
0.0
 71
     0
 42
0.2
  3
txt
  4

  0
STYLE
  2
ARIAL
 70
     0
 40
0.2
 41
1.0
 50
0.0
 71
     0
 42
0.2
  3
txt
  4

  0
STYLE
  2
ARIAL2
 70
     0
 40
3.0
 41
1.0
 50
0.0
 71
     0
 42
2.5
  3
txt
  4

  0
ENDTAB
  0
TABLE
  2
VIEW
 70
     0
  0
ENDTAB
  0
TABLE
  2
UCS
 70
     0
  0
ENDTAB
  0
TABLE
  2
APPID
 70
    52
  0
APPID
  2
ACAD
 70
     0
  0
APPID
  2
ACAD_PSEXT
 70
     0
  0
APPID
  2
ACADANNOPO
 70
     0
  0
APPID
  2
ACADANNOTATIVE
 70
     0
  0
APPID
  2
ACAD_DSTYLE_DIMJAG
 70
     0
  0
APPID
  2
ACAD_DSTYLE_DIMTALN
 70
     0
  0
APPID
  2
ACAD_MLEADERVER
 70
     0
  0
APPID
  2
ACAD_EXEMPT_FROM_CAD_STANDARDS
 70
     0
  0
APPID
  2
AECCLAND80
 70
     0
  0
APPID
  2
ACMAPDMDISPLAYSTYLEREGAPP
 70
     0
  0
APPID
  2
AECCUIQTO
 70
     0
  0
APPID
  2
AECCUIQTOENTITYPAYITEMDATA
 70
     0
  0
APPID
  2
AECCUIQTOPAYITEMFILEPATH
 70
     0
  0
APPID
  2
AECCUIQTOPAYITEMCATEGORYFI
 70
     0
  0
APPID
  2
AECCUIQTOFREQUSEDPAYITEMSLIST
 70
     0
  0
APPID
  2
AECCUIQTOPAYITEMFORMULAFILEPATH
 70
     0
  0
APPID
  2
AECCUIQTOPAYITEMSPECBOOKVE
 70
     0
  0
APPID
  2
AECCUIQTOPAYITEMFORMULAPAR
 70
     0
  0
APPID
  2
AECCUIQTOPAYITEMFORMULAEXP
 70
     0
  0
APPID
  2
AECCUIQTOTRANSPORTDESIGNER
 70
     0
  0
APPID
  2
AECCUIMGR
 70
     0
  0
APPID
  2
AECCUIMODEL
 70
     0
  0
APPID
  2
CIVIL_DRAFT
 70
     0
  0
APPID
  2
CIVIL_LINE_TABLE
 70
     0
  0
APPID
  2
CIVIL_CURVE_TABLE
 70
     0
  0
APPID
  2
CIVIL_SPIRAL_TABLE
 70
     0
  0
APPID
  2
SDI_XSECTIONS
 70
     0
  0
APPID
  2
ADCADD_ZZ
 70
     0
  0
APPID
  2
SDSK_PMN
 70
     0
  0
APPID
  2
DCO15
 70
     0
  0
APPID
  2
ADE
 70
     0
  0
APPID
  2
SDSK_POINT
 70
     0
  0
APPID
  2
DCA_FIGURE_XENT
 70
     0
  0
APPID
  2
ACAD_DSTYLE_DIM_LINETYPE
 70
     0
  0
APPID
  2
ACAD_DSTYLE_DIM_EXT1_LINETYPE
 70
     0
  0
APPID
  2
ACAD_DSTYLE_DIM_EXT2_LINETYPE
 70
     0
  0
APPID
  2
MAPGWS
 70
     0
  0
APPID
  2
AECCLAND70
 70
     0
  0
APPID
  2
ADE_PROJECTION
 70
     0
  0
APPID
  2
ACAECLAYERSTANDARD
 70
     0
  0
APPID
  2
AECCLAND90
 70
     0
  0
APPID
  2
ACAD_NAV_VCDISPLAY
 70
     0
  0
APPID
  2
AECCLAND100
 70
     0
  0
APPID
  2
AECCUIDATAEXCHANGE
 70
     0
  0
APPID
  2
AECCLAND110
 70
     0
  0
APPID
  2
AECCLAND120
 70
     0
  0
APPID
  2
ACAD_OCS
 70
     0
  0
APPID
  2
IRD
 70
     0
  0
APPID
  2
JASPER
 70
     0
  0
APPID
  2
AECCLAND130
 70
     0
  0
APPID
  2
ACCMTRANSPARENCY
 70
     0
  0
APPID
  2
MAPMANAGEMENTAPPNAME
 70
     0
  0
ENDTAB
  0
TABLE
  2
DIMSTYLE
 70
     4
  0
DIMSTYLE
  2
STANDARD
 70
     0
  3

  4

  5

  6

  7

 40
1.0
 41
0.18
 42
0.0625
 43
0.38
 44
0.18
 45
0.0
 46
0.0
 47
0.0
 48
0.0
140
0.18
141
0.09
142
0.0
143
25.3999999999999986
144
1.0
145
0.0
146
1.0
147
0.09
 71
     0
 72
     0
 73
     1
 74
     1
 75
     0
 76
     0
 77
     0
 78
     0
170
     0
171
     2
172
     0
173
     0
174
     0
175
     0
176
     0
177
     0
178
     0
  0
DIMSTYLE
  2
ANNOTATIVE
 70
     0
  3

  4

  5

  6

  7

 40
0.0
 41
2.5
 42
0.625
 43
3.75
 44
1.25
 45
0.0
 46
0.0
 47
0.0
 48
0.0
140
2.5
141
2.5
142
0.0
143
0.03937007874016
144
1.0
145
0.0
146
1.0
147
0.625
 71
     0
 72
     0
 73
     0
 74
     0
 75
     0
 76
     0
 77
     1
 78
     8
170
     0
171
     3
172
     1
173
     0
174
     0
175
     0
176
     0
177
     0
178
     0
  0
DIMSTYLE
  2
ISO-25
 70
     0
  3

  4

  5

  6

  7

 40
1.0
 41
2.5
 42
0.625
 43
3.75
 44
1.25
 45
0.0
 46
0.0
 47
0.0
 48
0.0
140
2.5
141
2.5
142
0.0
143
0.03937007874016
144
1.0
145
0.0
146
1.0
147
0.625
 71
     0
 72
     0
 73
     0
 74
     0
 75
     0
 76
     0
 77
     1
 78
     8
170
     0
171
     3
172
     1
173
     0
174
     0
175
     0
176
     0
177
     0
178
     0
  0
ENDTAB
  0
ENDSEC
  0
SECTION
  2
BLOCKS
  0
BLOCK
  8
0
  2
$MODEL_SPACE
 70
     0
 10
0.0
 20
0.0
 30
0.0
  3
$MODEL_SPACE
  1

  0
ENDBLK
  5
21
  8
0
  0
BLOCK
 67
     1
  8
0
  2
$PAPER_SPACE
 70
     0
 10
0.0
 20
0.0
 30
0.0
  3
$PAPER_SPACE
  1

  0
ENDBLK
  5
D5
 67
     1
  8
0
  0
BLOCK
  8
0
  2
*U1
 70
     1
 10
0.0
 20
0.0
 30
0.0
  3
*U1
  1

  0
POLYLINE
  5
FCA
  8
0
 62
    10
 66
     1
 10
0.0
 20
0.0
 30
-1.5
  0
VERTEX
  5
16C7
  8
0
 62
    10
 10
-1.5
 20
-1.5
 30
-1.5
  0
VERTEX
  5
16C8
  8
0
 62
    10
 10
-1.5
 20
1.5
 30
-1.5
  0
VERTEX
  5
16C9
  8
0
 62
    10
 10
1.5
 20
1.5
 30
-1.5
  0
VERTEX
  5
16CA
  8
0
 62
    10
 10
1.5
 20
-1.5
 30
-1.5
  0
VERTEX
  5
16CB
  8
0
 62
    10
 10
-1.5
 20
-1.5
 30
-1.5
  0
SEQEND
  5
16CC
  8
0
 62
    10
  0
POLYLINE
  5
FCB
  8
0
 62
     4
 66
     1
 10
0.0
 20
0.0
 30
-1.5
  0
VERTEX
  5
16CD
  8
0
 62
     4
 10
-1.5
 20
1.5
 30
-1.5
  0
VERTEX
  5
16CE
  8
0
 62
     4
 10
-1.5
 20
-1.5
 30
-1.5
  0
VERTEX
  5
16CF
  8
0
 62
     4
 10
1.5
 20
-1.5
 30
-1.5
  0
VERTEX
  5
16D0
  8
0
 62
     4
 10
1.5
 20
1.5
 30
-1.5
  0
VERTEX
  5
16D1
  8
0
 62
     4
 10
-1.5
 20
1.5
 30
-1.5
  0
SEQEND
  5
16D2
  8
0
 62
     4
  0
INSERT
  5
FCC
  8
0
  6
CONTINUOUS
 62
   133
  2
*U3
 10
0.0
 20
0.0
 30
0.0
1001
ACAD
1002
{
1000
R14_HATCH_DATA
1000
FCC
1011
1.0
1021
0.0
1031
0.0
1021
0.0
1031
0.0
1011
0.0
1021
0.0
1031
0.0
1021
1.0
1031
0.0
1011
0.0
1021
0.0
1031
0.0
1021
0.0
1031
1.0
1040
0.0
1010
0.0
1020
0.0
1030
1.0
1000
SOLID
1070
     1
1070
     0
1071
        2
1071
        1
1071
        3
1070
     1
1040
0.0
1040
0.0
1040
7.7500053640320274
1040
-0.1999901374336161
1070
     1
1040
7.7500053640320274
1040
-0.1999901374336161
1040
7.7500053640320274
1040
0.1999901374335877
1070
     1
1040
7.7500053640320274
1040
0.1999901374336161
1040
0.0
1040
0.0
1071
        0
1071
       33
1071
        2
1070
     1
1040
7.7500053640320274
1040
5.0000188823323981
1040
7.7500053640320274
1040
-4.9999810757581136
1070
     1
1040
7.7500053640320274
1040
0.0
1040
18.5
1040
0.0
1071
        0
1070
     0
1070
     1
1071
        1
1040
0.0
1040
0.0
1040
0.0
1002
}
  0
LINE
  5
FCD
  8
0
 62
   250
 39
0.0002
 10
0.0
 20
0.0
 30
0.0
 11
7.7500053640320274
 21
0.1999901374336161
 31
0.0
  0
LINE
  5
FCE
  8
0
 62
   250
 39
0.0002
 10
0.0
 20
0.0
 30
0.0
 11
7.7500053640320274
 21
-0.1999901374336161
 31
0.0
  0
INSERT
  5
FCF
  8
0
  6
CONTINUOUS
 62
     4
  2
*U4
 10
0.0
 20
0.0
 30
0.0
1001
ACAD
1002
{
1000
R14_HATCH_DATA
1000
FCF
1011
1.0
1021
0.0
1031
0.0
1021
0.0
1031
0.0
1011
0.0
1021
0.0
1031
0.0
1021
1.0
1031
0.0
1011
0.0
1021
0.0
1031
0.0
1021
0.0
1031
1.0
1040
0.0
1010
0.0
1020
0.0
1030
1.0
1000
SOLID
1070
     1
1070
     0
1071
        1
1071
        1
1071
        4
1070
     1
1040
-1.5
1040
-1.5
1040
-1.5
1040
1.5
1070
     1
1040
-1.5
1040
1.5
1040
1.5
1040
1.5
1070
     1
1040
1.5
1040
1.5
1040
1.5
1040
-1.5
1070
     1
1040
1.5
1040
-1.5
1040
-1.5
1040
-1.5
1071
        0
1070
     0
1070
     1
1071
        1
1040
0.0
1040
0.0
1040
0.0
1002
}
  0
INSERT
  5
FD0
  8
0
  6
CONTINUOUS
 62
    12
  2
*U5
 10
0.0
 20
0.0
 30
0.0
1001
ACAD
1002
{
1000
R14_HATCH_DATA
1000
FD0
1011
1.0
1021
0.0
1031
0.0
1021
0.0
1031
0.0
1011
0.0
1021
0.0
1031
0.0
1021
1.0
1031
0.0
1011
0.0
1021
0.0
1031
0.0
1021
0.0
1031
1.0
1040
0.0
1010
0.0
1020
0.0
1030
1.0
1000
SOLID
1070
     1
1070
     0
1071
        1
1071
        1
1071
        6
1070
     1
1040
11.2045050251523595
1040
0.0
1040
11.2045050251523595
1040
-3.4002521523742351
1070
     1
1040
11.2045050251523595
1040
-3.4002521523742351
1040
17.000038288258029
1040
-3.4002521523742351
1070
     1
1040
17.000038288258029
1040
-3.4002521523742351
1040
17.000038288258029
1040
-4.999970053555443
1070
     1
1040
17.000038288258029
1040
-4.999970053555443
1040
18.5
1040
-4.9999810967128431
1070
     1
1040
18.5
1040
-4.9999810967128431
1040
18.5
1040
0.0
1070
     1
1040
18.5
1040
0.0
1040
11.2045050251523595
1040
0.0
1071
        0
1070
     0
1070
     1
1071
        1
1040
0.0
1040
0.0
1040
0.0
1002
}
  0
INSERT
  5
FD1
  8
0
  6
CONTINUOUS
 62
    10
  2
*U6
 10
0.0
 20
0.0
 30
0.0
1001
ACAD
1002
{
1000
R14_HATCH_DATA
1000
FD1
1011
1.0
1021
0.0
1031
0.0
1021
0.0
1031
0.0
1011
0.0
1021
0.0
1031
0.0
1021
1.0
1031
0.0
1011
0.0
1021
0.0
1031
0.0
1021
0.0
1031
1.0
1040
0.0
1010
0.0
1020
0.0
1030
1.0
1000
SOLID
1070
     1
1070
     0
1071
        1
1071
        1
1071
        6
1070
     1
1040
11.2045050251523595
1040
3.4002521523742351
1040
11.2045050251523595
1040
0.0
1070
     1
1040
11.2045050251523595
1040
0.0
1040
18.5
1040
0.0
1070
     1
1040
18.5
1040
0.0
1040
18.5
1040
5.000018903287156
1070
     1
1040
18.5
1040
5.000018903287156
1040
17.0000285950281587
1040
5.000018903287156
1070
     1
1040
17.0000285950281587
1040
5.000018903287156
1040
17.0000285950281587
1040
3.4002521523742639
1070
     1
1040
17.0000285950281587
1040
3.4002521523742351
1040
11.2045050251523595
1040
3.4002521523742351
1071
        0
1070
     0
1070
     1
1071
        1
1040
0.0
1040
0.0
1040
0.0
1002
}
  0
LINE
  5
FD2
  8
0
 62
   250
 10
7.7500053640320274
 20
5.0000188823323981
 30
0.0
 11
7.7500053640320274
 21
-4.999981075758142
 31
0.0
  0
INSERT
  5
FD3
  8
0
  6
CONTINUOUS
 62
    14
  2
*U7
 10
0.0
 20
0.0
 30
0.0
1001
ACAD
1002
{
1000
R14_HATCH_DATA
1000
FD3
1011
1.0
1021
0.0
1031
0.0
1021
0.0
1031
0.0
1011
0.0
1021
0.0
1031
0.0
1021
1.0
1031
0.0
1011
0.0
1021
0.0
1031
0.0
1021
0.0
1031
1.0
1040
0.0
1010
0.0
1020
0.0
1030
1.0
1000
SOLID
1070
     1
1070
     0
1071
        1
1071
        1
1071
        4
1070
     1
1040
7.7500053640320274
1040
0.0
1040
11.2045050251523595
1040
0.0
1070
     1
1040
11.2045050251523595
1040
0.0
1040
11.2045050251523595
1040
-3.4002521523742351
1070
     1
1040
11.2045050251523595
1040
-3.4002521523742351
1040
7.7500053640320274
1040
-5.0000188823323688
1070
     1
1040
7.7500053640320274
1040
-5.0000188823323981
1040
7.7500053640320274
1040
0.0
1071
        0
1070
     0
1070
     1
1071
        1
1040
0.0
1040
0.0
1040
0.0
1002
}
  0
INSERT
  5
FD4
  8
0
  6
CONTINUOUS
 62
    22
  2
*U8
 10
0.0
 20
0.0
 30
0.0
1001
ACAD
1002
{
1000
R14_HATCH_DATA
1000
FD4
1011
1.0
1021
0.0
1031
0.0
1021
0.0
1031
0.0
1011
0.0
1021
0.0
1031
0.0
1021
1.0
1031
0.0
1011
0.0
1021
0.0
1031
0.0
1021
0.0
1031
1.0
1040
0.0
1010
0.0
1020
0.0
1030
1.0
1000
SOLID
1070
     1
1070
     0
1071
        1
1071
        1
1071
        4
1070
     1
1040
7.7500053640320274
1040
0.0
1040
7.7500053640320274
1040
5.0000188823323981
1070
     1
1040
7.7500053640320274
1040
5.0000188823323981
1040
11.2045050251523595
1040
3.4002521523742639
1070
     1
1040
11.2045050251523595
1040
3.4002521523742351
1040
11.2045050251523595
1040
0.0
1070
     1
1040
11.2045050251523595
1040
0.0
1040
7.7500053640320274
1040
0.0
1071
        0
1070
     0
1070
     1
1071
        1
1040
0.0
1040
0.0
1040
0.0
1002
}
  0
ENDBLK
  5
FC9
  8
0
  0
BLOCK
  8
0
  2
*U2
 70
     1
 10
0.0
 20
0.0
 30
0.0
  3
*U2
  1

  0
LINE
  5
FD8
  8
0
 62
   250
 39
0.01
 10
0.0
 20
0.0
 30
0.0
 11
4.0862944419833829
 21
3.6706951206524958
 31
0.0
  0
INSERT
  5
FD9
  8
0
  6
CONTINUOUS
 62
    14
  2
*U9
 10
0.0
 20
0.0
 30
0.0
1001
ACAD
1002
{
1000
R14_HATCH_DATA
1000
FD9
1011
1.0
1021
0.0
1031
0.0
1021
0.0
1031
0.0
1011
0.0
1021
0.0
1031
0.0
1021
1.0
1031
0.0
1011
0.0
1021
0.0
1031
0.0
1021
0.0
1031
1.0
1040
0.0
1010
0.0
1020
0.0
1030
1.0
1000
SOLID
1070
     1
1070
     0
1071
        1
1071
        1
1071
        3
1070
     3
1040
12.7324932592737206
1040
12.7324932592737099
1040
-3.509466030885604
1040
3.5094660308856032
1040
0.9207951268990203
1040
3.8941565331446721
1040
4.7123889803846897
1070
     0
1070
     1
1040
9.5009940400166073
1040
9.5009940400166073
1040
8.8222356798165649
1040
8.8222356798165578
1070
     3
1040
11.1835766930325295
1040
11.2205768840951805
1040
-2.387441463007915
1040
2.9368829533683818
1040
0.8881099481089409
1040
1.6691094881484221
1040
2.9682647159841928
1070
     1
1071
        0
1070
     0
1070
     1
1071
        1
1040
0.0
1040
0.0
1040
0.0
1002
}
  0
INSERT
  5
FDA
  8
0
  6
CONTINUOUS
 62
    12
  2
*U10
 10
0.0
 20
0.0
 30
0.0
1001
ACAD
1002
{
1000
R14_HATCH_DATA
1000
FDA
1011
1.0
1021
0.0
1031
0.0
1021
0.0
1031
0.0
1011
0.0
1021
0.0
1031
0.0
1021
1.0
1031
0.0
1011
0.0
1021
0.0
1031
0.0
1021
0.0
1031
1.0
1040
0.0
1010
0.0
1020
0.0
1030
1.0
1000
SOLID
1070
     1
1070
     0
1071
        1
1071
        1
1071
        3
1070
     3
1040
6.752665742288996
1040
6.752665742288996
1040
3.5331082466684052
1040
-3.533108246668399
1040
0.8156215388739337
1040
5.5591787388102061
1040
7.8539816339744828
1070
     0
1070
     1
1040
3.8709865571331288
1040
3.8709865571331359
1040
6.218177794586345
1040
6.218177794586353
1070
     3
1040
8.661465634085161
1040
8.6614656340851752
1040
-2.6468557151169478
1040
2.6468557151169478
1040
0.9230906790817908
1040
1.570796326794897
1040
3.1415926535898029
1070
     1
1071
        0
1070
     0
1070
     1
1071
        1
1040
0.0
1040
0.0
1040
0.0
1002
}
  0
INSERT
  5
FDB
  8
0
  6
CONTINUOUS
 62
    14
  2
*U11
 10
0.0
 20
0.0
 30
0.0
1001
ACAD
1002
{
1000
R14_HATCH_DATA
1000
FDB
1011
1.0
1021
0.0
1031
0.0
1021
0.0
1031
0.0
1011
0.0
1021
0.0
1031
0.0
1021
1.0
1031
0.0
1011
0.0
1021
0.0
1031
0.0
1021
0.0
1031
1.0
1040
0.0
1010
0.0
1020
0.0
1030
1.0
1000
SOLID
1070
     1
1070
     0
1071
        1
1071
        1
1071
        4
1070
     1
1040
6.218177794586345
1040
6.2181777945863379
1040
8.8222356798165649
1040
8.8222356798165578
1070
     3
1040
11.1835766930325295
1040
11.2205768840951805
1040
-2.387441463007915
1040
2.9368829533683818
1040
0.8881099481089409
1040
1.6691094881484221
1040
2.9682647159841928
1070
     1
1070
     1
1040
13.0854187299767908
1040
7.9620276993582593
1040
11.3083213492021102
1040
6.0146099189682181
1070
     3
1040
8.661465634085161
1040
8.6614656340851752
1040
-2.6468557151169478
1040
2.6468557151169478
1040
0.9230906790817908
1040
3.141592653589782
1040
4.7123889803846879
1070
     0
1071
        0
1070
     0
1070
     1
1071
        1
1040
0.0
1040
0.0
1040
0.0
1002
}
  0
INSERT
  5
FDC
  8
0
  6
CONTINUOUS
 62
    16
  2
*U12
 10
0.0
 20
0.0
 30
0.0
1001
ACAD
1002
{
1000
R14_HATCH_DATA
1000
FDC
1011
1.0
1021
0.0
1031
0.0
1021
0.0
1031
0.0
1011
0.0
1021
0.0
1031
0.0
1021
1.0
1031
0.0
1011
0.0
1021
0.0
1031
0.0
1021
0.0
1031
1.0
1040
0.0
1010
0.0
1020
0.0
1030
1.0
1000
SOLID
1070
     1
1070
     0
1071
        1
1071
        1
1071
        3
1070
     3
1040
13.08147545195113
1040
13.0814754519511194
1040
3.5355339059327329
1040
-3.5355339059327391
1040
0.8143478515666137
1040
0.0
1040
1.5707963267948959
1070
     0
1070
     1
1040
10.2023210115138898
1040
10.2023210115138898
1040
9.5009940400166073
1040
9.5009940400166073
1070
     3
1040
12.7324932592736992
1040
12.7324932592737206
1040
-3.7694970525931439
1040
3.3228208538427091
1040
0.9091538774903961
1040
1.5136000097920581
1040
3.1806267759860058
1070
     1
1071
        0
1070
     0
1070
     1
1071
        1
1040
0.0
1040
0.0
1040
0.0
1002
}
  0
INSERT
  5
FDD
  8
0
  6
CONTINUOUS
 62
     1
  2
*U13
 10
0.0
 20
0.0
 30
0.0
1001
ACAD
1002
{
1000
R14_HATCH_DATA
1000
FDD
1011
1.0
1021
0.0
1031
0.0
1021
0.0
1031
0.0
1011
0.0
1021
0.0
1031
0.0
1021
1.0
1031
0.0
1011
0.0
1021
0.0
1031
0.0
1021
0.0
1031
1.0
1040
0.0
1010
0.0
1020
0.0
1030
1.0
1000
SOLID
1070
     1
1070
     0
1071
        1
1071
        1
1071
        1
1070
     3
1040
13.08147545195113
1040
13.0814754519511194
1040
-3.5355339059327351
1040
3.5355339059327369
1040
0.814347851566614
1040
0.0
1040
6.2831853071795862
1070
     1
1071
        0
1070
     0
1070
     1
1071
        1
1040
0.0
1040
0.0
1040
0.0
1002
}
  0
INSERT
  5
FDE
  8
0
  6
CONTINUOUS
 62
     4
  2
*U14
 10
0.0
 20
0.0
 30
0.0
1001
ACAD
1002
{
1000
R14_HATCH_DATA
1000
FDE
1011
1.0
1021
0.0
1031
0.0
1021
0.0
1031
0.0
1011
0.0
1021
0.0
1031
0.0
1021
1.0
1031
0.0
1011
0.0
1021
0.0
1031
0.0
1021
0.0
1031
1.0
1040
-1.0
1010
0.0
1020
0.0
1030
1.0
1000
SOLID
1070
     1
1070
     0
1071
        1
1071
        1
1071
        4
1070
     1
1040
-1.5
1040
-1.5
1040
1.5
1040
-1.5
1070
     1
1040
1.5
1040
-1.5
1040
1.5
1040
1.5
1070
     1
1040
1.5
1040
1.5
1040
-1.5
1040
1.5
1070
     1
1040
-1.5
1040
1.5
1040
-1.5
1040
-1.5
1071
        0
1070
     0
1070
     1
1071
        1
1040
0.0
1040
0.0
1040
-1.0
1002
}
  0
INSERT
  5
FDF
  8
0
  6
CONTINUOUS
 62
   142
  2
*U15
 10
0.0
 20
0.0
 30
0.0
1001
ACAD
1002
{
1000
R14_HATCH_DATA
1000
FDF
1011
1.0
1021
0.0
1031
0.0
1021
0.0
1031
0.0
1011
0.0
1021
0.0
1031
0.0
1021
1.0
1031
0.0
1011
0.0
1021
0.0
1031
0.0
1021
0.0
1031
1.0
1040
0.0
1010
0.0
1020
0.0
1030
1.0
1000
SOLID
1070
     1
1070
     0
1071
        1
1071
        1
1071
        3
1070
     1
1040
0.0
1040
0.0
1040
3.6682976931065729
1040
4.0836255755877877
1070
     1
1040
3.6682976931065729
1040
4.0836255755877877
1040
4.0862944419833829
1040
3.6706951206524958
1070
     1
1040
4.0862944419833829
1040
3.6706951206524958
1040
0.0
1040
0.0
1071
        0
1070
     0
1070
     1
1071
        1
1040
0.0
1040
0.0
1040
0.0
1002
}
  0
LINE
  5
FE0
  8
0
 62
   250
 10
0.0
 20
0.0
 30
0.0
 11
3.6682976931065729
 21
4.0836255755877877
 31
0.0
  0
POLYLINE
  5
FE1
  8
0
 62
   250
 66
     1
 10
0.0
 20
0.0
 30
0.0
  0
VERTEX
  5
18C2
  8
0
 62
   250
 10
-1.5
 20
-1.5
 30
0.0
  0
VERTEX
  5
18C3
  8
0
 62
   250
 10
1.5
 20
-1.5
 30
0.0
  0
VERTEX
  5
18C4
  8
0
 62
   250
 10
1.5
 20
1.5
 30
0.0
  0
VERTEX
  5
18C5
  8
0
 62
   250
 10
-1.5
 20
1.5
 30
0.0
  0
VERTEX
  5
18C6
  8
0
 62
   250
 10
-1.5
 20
-1.5
 30
0.0
  0
SEQEND
  5
18C7
  8
0
 62
   250
  0
INSERT
  5
FE2
  8
0
  6
CONTINUOUS
 62
    14
  2
*U16
 10
0.0
 20
0.0
 30
0.0
1001
ACAD
1002
{
1000
R14_HATCH_DATA
1000
FE2
1011
1.0
1021
0.0
1031
0.0
1021
0.0
1031
0.0
1011
0.0
1021
0.0
1031
0.0
1021
1.0
1031
0.0
1011
0.0
1021
0.0
1031
0.0
1021
0.0
1031
1.0
1040
0.0
1010
0.0
1020
0.0
1030
1.0
1000
SOLID
1070
     1
1070
     0
1071
        1
1071
        1
1071
        3
1070
     3
1040
13.08147545195113
1040
13.0814754519511194
1040
-3.5355339059327351
1040
3.5355339059327382
1040
0.8143478515666135
1040
0.0
1040
1.5707963267948959
1070
     1
1070
     1
1040
10.2023210115138898
1040
10.2023210115138898
1040
9.5009940400166073
1040
9.5009940400166073
1070
     3
1040
12.7324932592737206
1040
12.7324932592737099
1040
-3.3228208538427548
1040
3.7694970525930822
1040
0.9091538774903996
1040
4.6551926633818619
1040
6.3222194295758181
1070
     0
1071
        0
1070
     0
1070
     1
1071
        1
1040
0.0
1040
0.0
1040
0.0
1002
}
  0
INSERT
  5
FE3
  8
0
  6
CONTINUOUS
 62
    12
  2
*U17
 10
0.0
 20
0.0
 30
0.0
1001
ACAD
1002
{
1000
R14_HATCH_DATA
1000
FE3
1011
1.0
1021
0.0
1031
0.0
1021
0.0
1031
0.0
1011
0.0
1021
0.0
1031
0.0
1021
1.0
1031
0.0
1011
0.0
1021
0.0
1031
0.0
1021
0.0
1031
1.0
1040
0.0
1010
0.0
1020
0.0
1030
1.0
1000
SOLID
1070
     1
1070
     0
1071
        1
1071
        1
1071
        4
1070
     3
1040
8.661465634085161
1040
8.6614656340851752
1040
-2.6468557151169261
1040
2.6468557151169692
1040
0.9230906790817904
1040
4.7123889803846808
1040
6.2831853071795862
1070
     0
1070
     1
1040
6.0146099189682181
1040
11.3083213492021102
1040
7.9620276993582593
1040
13.0854187299767908
1070
     3
1040
11.2205768840951805
1040
11.1835766930325295
1040
-2.9368829533683871
1040
2.3874414630079039
1040
0.8881099481089412
1040
6.456513244785179
1040
7.755668472620953
1070
     1
1070
     1
1040
8.8222356798165649
1040
8.8222356798165578
1040
6.218177794586345
1040
6.2181777945863379
1071
        0
1070
     0
1070
     1
1071
        1
1040
0.0
1040
0.0
1040
0.0
1002
}
  0
INSERT
  5
FE4
  8
0
  6
CONTINUOUS
 62
    10
  2
*U18
 10
0.0
 20
0.0
 30
0.0
1001
ACAD
1002
{
1000
R14_HATCH_DATA
1000
FE4
1011
1.0
1021
0.0
1031
0.0
1021
0.0
1031
0.0
1011
0.0
1021
0.0
1031
0.0
1021
1.0
1031
0.0
1011
0.0
1021
0.0
1031
0.0
1021
0.0
1031
1.0
1040
0.0
1010
0.0
1020
0.0
1030
1.0
1000
SOLID
1070
     1
1070
     0
1071
        1
1071
        1
1071
        3
1070
     1
1040
3.8709865571331288
1040
3.8709865571331359
1040
6.218177794586345
1040
6.218177794586353
1070
     3
1040
8.661465634085161
1040
8.6614656340851752
1040
-2.6468557151169261
1040
2.6468557151169692
1040
0.9230906790817904
1040
4.7123889803846808
1040
6.2831853071795862
1070
     0
1070
     3
1040
6.752665742288996
1040
6.752665742288996
1040
-3.5331082466684021
1040
3.533108246668403
1040
0.8156215388739338
1040
5.5591787388102061
1040
7.8539816339744828
1070
     1
1071
        0
1070
     0
1070
     1
1071
        1
1040
0.0
1040
0.0
1040
0.0
1002
}
  0
INSERT
  5
FE5
  8
0
  6
CONTINUOUS
 62
    12
  2
*U19
 10
0.0
 20
0.0
 30
0.0
1001
ACAD
1002
{
1000
R14_HATCH_DATA
1000
FE5
1011
1.0
1021
0.0
1031
0.0
1021
0.0
1031
0.0
1011
0.0
1021
0.0
1031
0.0
1021
1.0
1031
0.0
1011
0.0
1021
0.0
1031
0.0
1021
0.0
1031
1.0
1040
0.0
1010
0.0
1020
0.0
1030
1.0
1000
SOLID
1070
     1
1070
     0
1071
        1
1071
        1
1071
        3
1070
     3
1040
12.7324932592737206
1040
12.7324932592737206
1040
3.5094660308855969
1040
-3.5094660308856098
1040
0.9207951268990203
1040
3.8941565331446721
1040
4.7123889803846897
1070
     1
1070
     1
1040
9.5009940400166073
1040
9.5009940400166073
1040
8.8222356798165649
1040
8.8222356798165578
1070
     3
1040
11.2205768840951805
1040
11.1835766930325295
1040
-2.9368829533683871
1040
2.3874414630079039
1040
0.8881099481089412
1040
-1.472483165441367
1040
-0.1733279376055938
1070
     0
1071
        0
1070
     0
1070
     1
1071
        1
1040
0.0
1040
0.0
1040
0.0
1002
}
  0
ENDBLK
  5
FD7
  8
0
  0
BLOCK
  8
0
  2
*U3
 70
     1
 10
0.0
 20
0.0
 30
0.0
  3
*U3
  1

  0
SOLID
  5
16D4
  8
0
  6
CONTINUOUS
 62
   133
 10
-7.7500053640320274
 20
0.1999901374336161
 30
0.0
 11
-7.7500053640320274
 21
0.0
 31
0.0
 12
0.0
 22
0.0
 32
0.0
 13
0.0
 23
0.0
 33
0.0
210
0.0
220
0.0
230
-1.0
  0
SOLID
  5
16D5
  8
0
  6
CONTINUOUS
 62
   133
 10
0.0
 20
0.0
 30
0.0
 11
-7.7500053640320274
 21
0.0
 31
0.0
 12
-7.7500053640320274
 22
-0.1999901374336161
 32
0.0
 13
-7.7500053640320274
 23
-0.1999901374336161
 33
0.0
210
0.0
220
0.0
230
-1.0
  0
LINE
  5
16D6
  8
0
  6
CONTINUOUS
 62
   133
 10
7.7500053640320274
 20
0.1999901374336161
 30
0.0
 11
7.7500053640320274
 21
0.0
 31
0.0
  0
LINE
  5
16D7
  8
0
  6
CONTINUOUS
 62
   133
 10
0.0
 20
0.0
 30
0.0
 11
7.7500053640320274
 21
0.1999901374336161
 31
0.0
  0
LINE
  5
16D8
  8
0
  6
CONTINUOUS
 62
   133
 10
7.7500053640320274
 20
0.0
 30
0.0
 11
7.7500053640320274
 21
-0.1999901374336161
 31
0.0
  0
LINE
  5
16D9
  8
0
  6
CONTINUOUS
 62
   133
 10
7.7500053640320274
 20
-0.1999901374336161
 30
0.0
 11
0.0
 21
0.0
 31
0.0
  0
ENDBLK
  5
16DB
  8
0
  0
BLOCK
  8
0
  2
*U4
 70
     1
 10
0.0
 20
0.0
 30
0.0
  3
*U4
  1

  0
SOLID
  5
16DD
  8
0
  6
CONTINUOUS
 62
     4
 10
1.5
 20
1.5
 30
0.0
 11
-1.5
 21
-1.5
 31
0.0
 12
1.5
 22
-1.5
 32
0.0
 13
1.5
 23
-1.5
 33
0.0
210
0.0
220
0.0
230
-1.0
  0
SOLID
  5
16DE
  8
0
  6
CONTINUOUS
 62
     4
 10
1.5
 20
1.5
 30
0.0
 11
-1.5
 21
1.5
 31
0.0
 12
-1.5
 22
-1.5
 32
0.0
 13
-1.5
 23
-1.5
 33
0.0
210
0.0
220
0.0
230
-1.0
  0
LINE
  5
16DF
  8
0
  6
CONTINUOUS
 62
     4
 10
-1.5
 20
-1.5
 30
0.0
 11
-1.5
 21
1.5
 31
0.0
  0
LINE
  5
16E0
  8
0
  6
CONTINUOUS
 62
     4
 10
1.5
 20
1.5
 30
0.0
 11
1.5
 21
-1.5
 31
0.0
  0
ENDBLK
  5
16E2
  8
0
  0
BLOCK
  8
0
  2
*U5
 70
     1
 10
0.0
 20
0.0
 30
0.0
  3
*U5
  1

  0
SOLID
  5
16E4
  8
0
  6
CONTINUOUS
 62
    12
 10
-11.2045050251523595
 20
0.0
 30
0.0
 11
-18.5
 21
-3.4002521523742351
 31
0.0
 12
-11.2045050251523595
 22
-3.4002521523742351
 32
0.0
 13
-11.2045050251523595
 23
-3.4002521523742351
 33
0.0
210
0.0
220
0.0
230
-1.0
  0
SOLID
  5
16E5
  8
0
  6
CONTINUOUS
 62
    12
 10
-11.2045050251523595
 20
0.0
 30
0.0
 11
-18.5
 21
0.0
 31
0.0
 12
-18.5
 22
-3.4002521523742351
 32
0.0
 13
-18.5
 23
-3.4002521523742351
 33
0.0
210
0.0
220
0.0
230
-1.0
  0
SOLID
  5
16E6
  8
0
  6
CONTINUOUS
 62
    12
 10
-17.000038288258029
 20
-4.999970053555443
 30
0.0
 11
-18.5
 21
-4.999970053555443
 31
0.0
 12
-18.5
 22
-4.9999810967128431
 32
0.0
 13
-18.5
 23
-4.9999810967128431
 33
0.0
210
0.0
220
0.0
230
-1.0
  0
SOLID
  5
16E7
  8
0
  6
CONTINUOUS
 62
    12
 10
-17.000038288258029
 20
-3.4002521523742351
 30
0.0
 11
-18.5
 21
-4.999970053555443
 31
0.0
 12
-17.000038288258029
 22
-4.999970053555443
 32
0.0
 13
-17.000038288258029
 23
-4.999970053555443
 33
0.0
210
0.0
220
0.0
230
-1.0
  0
SOLID
  5
16E8
  8
0
  6
CONTINUOUS
 62
    12
 10
-17.000038288258029
 20
-3.4002521523742351
 30
0.0
 11
-18.5
 21
-3.4002521523742351
 31
0.0
 12
-18.5
 22
-4.999970053555443
 32
0.0
 13
-18.5
 23
-4.999970053555443
 33
0.0
210
0.0
220
0.0
230
-1.0
  0
LINE
  5
16E9
  8
0
  6
CONTINUOUS
 62
    12
 10
11.2045050251523595
 20
-3.4002521523742351
 30
0.0
 11
11.2045050251523595
 21
0.0
 31
0.0
  0
LINE
  5
16EA
  8
0
  6
CONTINUOUS
 62
    12
 10
18.5
 20
0.0
 30
0.0
 11
18.5
 21
-3.4002521523742351
 31
0.0
  0
LINE
  5
16EB
  8
0
  6
CONTINUOUS
 62
    12
 10
18.5
 20
-4.999970053555443
 30
0.0
 11
18.5
 21
-4.9999810967128431
 31
0.0
  0
LINE
  5
16EC
  8
0
  6
CONTINUOUS
 62
    12
 10
18.5
 20
-4.9999810967128431
 30
0.0
 11
17.000038288258029
 21
-4.999970053555443
 31
0.0
  0
LINE
  5
16ED
  8
0
  6
CONTINUOUS
 62
    12
 10
17.000038288258029
 20
-4.999970053555443
 30
0.0
 11
17.000038288258029
 21
-3.4002521523742351
 31
0.0
  0
LINE
  5
16EE
  8
0
  6
CONTINUOUS
 62
    12
 10
18.5
 20
-3.4002521523742351
 30
0.0
 11
18.5
 21
-4.999970053555443
 31
0.0
  0
ENDBLK
  5
16F0
  8
0
  0
BLOCK
  8
0
  2
*U6
 70
     1
 10
0.0
 20
0.0
 30
0.0
  3
*U6
  1

  0
SOLID
  5
16F2
  8
0
  6
CONTINUOUS
 62
    10
 10
-17.0000285950281587
 20
5.000018903287156
 30
0.0
 11
-18.5
 21
3.4002521523742351
 31
0.0
 12
-17.0000285950281587
 22
3.4002521523742351
 32
0.0
 13
-17.0000285950281587
 23
3.4002521523742351
 33
0.0
210
0.0
220
0.0
230
-1.0
  0
SOLID
  5
16F3
  8
0
  6
CONTINUOUS
 62
    10
 10
-17.0000285950281587
 20
5.000018903287156
 30
0.0
 11
-18.5
 21
5.000018903287156
 31
0.0
 12
-18.5
 22
3.4002521523742351
 32
0.0
 13
-18.5
 23
3.4002521523742351
 33
0.0
210
0.0
220
0.0
230
-1.0
  0
SOLID
  5
16F4
  8
0
  6
CONTINUOUS
 62
    10
 10
-11.2045050251523595
 20
3.4002521523742351
 30
0.0
 11
-18.5
 21
0.0
 31
0.0
 12
-11.2045050251523595
 22
0.0
 32
0.0
 13
-11.2045050251523595
 23
0.0
 33
0.0
210
0.0
220
0.0
230
-1.0
  0
SOLID
  5
16F5
  8
0
  6
CONTINUOUS
 62
    10
 10
-11.2045050251523595
 20
3.4002521523742351
 30
0.0
 11
-18.5
 21
3.4002521523742351
 31
0.0
 12
-18.5
 22
0.0
 32
0.0
 13
-18.5
 23
0.0
 33
0.0
210
0.0
220
0.0
230
-1.0
  0
LINE
  5
16F6
  8
0
  6
CONTINUOUS
 62
    10
 10
17.0000285950281587
 20
3.4002521523742351
 30
0.0
 11
17.0000285950281587
 21
5.000018903287156
 31
0.0
  0
LINE
  5
16F7
  8
0
  6
CONTINUOUS
 62
    10
 10
18.5
 20
5.000018903287156
 30
0.0
 11
18.5
 21
3.4002521523742351
 31
0.0
  0
LINE
  5
16F8
  8
0
  6
CONTINUOUS
 62
    10
 10
11.2045050251523595
 20
0.0
 30
0.0
 11
11.2045050251523595
 21
3.4002521523742351
 31
0.0
  0
LINE
  5
16F9
  8
0
  6
CONTINUOUS
 62
    10
 10
18.5
 20
3.4002521523742351
 30
0.0
 11
18.5
 21
0.0
 31
0.0
  0
ENDBLK
  5
16FB
  8
0
  0
BLOCK
  8
0
  2
*U7
 70
     1
 10
0.0
 20
0.0
 30
0.0
  3
*U7
  1

  0
SOLID
  5
16FD
  8
0
  6
CONTINUOUS
 62
    14
 10
-7.7500053640320274
 20
-3.4002521523742351
 30
0.0
 11
-11.2045050251523595
 21
-3.4002521523742351
 31
0.0
 12
-7.7500053640320274
 22
-5.0000188823323981
 32
0.0
 13
-7.7500053640320274
 23
-5.0000188823323981
 33
0.0
210
0.0
220
0.0
230
-1.0
  0
SOLID
  5
16FE
  8
0
  6
CONTINUOUS
 62
    14
 10
-7.7500053640320274
 20
0.0
 30
0.0
 11
-11.2045050251523595
 21
-3.4002521523742351
 31
0.0
 12
-7.7500053640320274
 22
-3.4002521523742351
 32
0.0
 13
-7.7500053640320274
 23
-3.4002521523742351
 33
0.0
210
0.0
220
0.0
230
-1.0
  0
SOLID
  5
16FF
  8
0
  6
CONTINUOUS
 62
    14
 10
-7.7500053640320274
 20
0.0
 30
0.0
 11
-11.2045050251523595
 21
0.0
 31
0.0
 12
-11.2045050251523595
 22
-3.4002521523742351
 32
0.0
 13
-11.2045050251523595
 23
-3.4002521523742351
 33
0.0
210
0.0
220
0.0
230
-1.0
  0
LINE
  5
1700
  8
0
  6
CONTINUOUS
 62
    14
 10
11.2045050251523595
 20
-3.4002521523742351
 30
0.0
 11
7.7500053640320274
 21
-5.0000188823323981
 31
0.0
  0
LINE
  5
1701
  8
0
  6
CONTINUOUS
 62
    14
 10
7.7500053640320274
 20
-5.0000188823323981
 30
0.0
 11
7.7500053640320274
 21
-3.4002521523742351
 31
0.0
  0
LINE
  5
1702
  8
0
  6
CONTINUOUS
 62
    14
 10
7.7500053640320274
 20
-3.4002521523742351
 30
0.0
 11
7.7500053640320274
 21
0.0
 31
0.0
  0
LINE
  5
1703
  8
0
  6
CONTINUOUS
 62
    14
 10
11.2045050251523595
 20
0.0
 30
0.0
 11
11.2045050251523595
 21
-3.4002521523742351
 31
0.0
  0
ENDBLK
  5
1705
  8
0
  0
BLOCK
  8
0
  2
*U8
 70
     1
 10
0.0
 20
0.0
 30
0.0
  3
*U8
  1

  0
SOLID
  5
1707
  8
0
  6
CONTINUOUS
 62
    22
 10
-7.7500053640320274
 20
5.0000188823323981
 30
0.0
 11
-11.2045050251523595
 21
3.4002521523742351
 31
0.0
 12
-7.7500053640320274
 22
3.4002521523742351
 32
0.0
 13
-7.7500053640320274
 23
3.4002521523742351
 33
0.0
210
0.0
220
0.0
230
-1.0
  0
SOLID
  5
1708
  8
0
  6
CONTINUOUS
 62
    22
 10
-7.7500053640320274
 20
3.4002521523742351
 30
0.0
 11
-11.2045050251523595
 21
0.0
 31
0.0
 12
-7.7500053640320274
 22
0.0
 32
0.0
 13
-7.7500053640320274
 23
0.0
 33
0.0
210
0.0
220
0.0
230
-1.0
  0
SOLID
  5
1709
  8
0
  6
CONTINUOUS
 62
    22
 10
-7.7500053640320274
 20
3.4002521523742351
 30
0.0
 11
-11.2045050251523595
 21
3.4002521523742351
 31
0.0
 12
-11.2045050251523595
 22
0.0
 32
0.0
 13
-11.2045050251523595
 23
0.0
 33
0.0
210
0.0
220
0.0
230
-1.0
  0
LINE
  5
170A
  8
0
  6
CONTINUOUS
 62
    22
 10
7.7500053640320274
 20
5.0000188823323981
 30
0.0
 11
11.2045050251523595
 21
3.4002521523742351
 31
0.0
  0
LINE
  5
170B
  8
0
  6
CONTINUOUS
 62
    22
 10
7.7500053640320274
 20
3.4002521523742351
 30
0.0
 11
7.7500053640320274
 21
5.0000188823323981
 31
0.0
  0
LINE
  5
170C
  8
0
  6
CONTINUOUS
 62
    22
 10
7.7500053640320274
 20
0.0
 30
0.0
 11
7.7500053640320274
 21
3.4002521523742351
 31
0.0
  0
LINE
  5
170D
  8
0
  6
CONTINUOUS
 62
    22
 10
11.2045050251523595
 20
3.4002521523742351
 30
0.0
 11
11.2045050251523595
 21
0.0
 31
0.0
  0
ENDBLK
  5
170F
  8
0
  0
BLOCK
  8
0
  2
*U9
 70
     1
 10
0.0
 20
0.0
 30
0.0
  3
*U9
  1

  0
SOLID
  5
1711
  8
0
  6
CONTINUOUS
 62
    14
 10
-9.5009940400166073
 20
9.5009940400166073
 30
0.0
 11
-10.1159194804810895
 21
8.9724157517266363
 31
0.0
 12
-8.9724157517266345
 22
8.9724157517266363
 32
0.0
 13
-8.9724157517266345
 23
8.9724157517266363
 33
0.0
210
0.0
220
0.0
230
-1.0
  0
SOLID
  5
1712
  8
0
  6
CONTINUOUS
 62
    14
 10
-8.9724157517266345
 20
8.9724157517266363
 30
0.0
 11
-10.35616193985331
 21
8.8222356798165631
 31
0.0
 12
-8.8222356798165613
 22
8.8222356798165631
 32
0.0
 13
-8.8222356798165613
 23
8.8222356798165631
 33
0.0
210
0.0
220
0.0
230
-1.0
  0
SOLID
  5
1713
  8
0
  6
CONTINUOUS
 62
    14
 10
-8.9724157517266345
 20
8.9724157517266363
 30
0.0
 11
-10.1159194804810895
 21
8.9724157517266363
 31
0.0
 12
-10.35616193985331
 22
8.8222356798165631
 32
0.0
 13
-10.35616193985331
 23
8.8222356798165631
 33
0.0
210
0.0
220
0.0
230
-1.0
  0
SOLID
  5
1714
  8
0
  6
CONTINUOUS
 62
    14
 10
-8.8222356798165613
 20
8.8222356798165631
 30
0.0
 11
-10.8007609812394492
 21
8.5443084716910889
 31
0.0
 12
-9.1403563887693906
 22
8.5443084716910889
 32
0.0
 13
-9.1403563887693906
 23
8.5443084716910889
 33
0.0
210
0.0
220
0.0
230
-1.0
  0
SOLID
  5
1715
  8
0
  6
CONTINUOUS
 62
    14
 10
-8.8222356798165613
 20
8.8222356798165631
 30
0.0
 11
-10.35616193985331
 21
8.8222356798165631
 31
0.0
 12
-10.8007609812394492
 22
8.5443084716910889
 32
0.0
 13
-10.8007609812394492
 23
8.5443084716910889
 33
0.0
210
0.0
220
0.0
230
-1.0
  0
SOLID
  5
1716
  8
0
  6
CONTINUOUS
 62
    14
 10
-9.1403563887693906
 20
8.5443084716910889
 30
0.0
 11
-11.2242112824056495
 21
8.3625008409542207
 31
0.0
 12
-9.3484568218760877
 22
8.3625008409542207
 32
0.0
 13
-9.3484568218760877
 23
8.3625008409542207
 33
0.0
210
0.0
220
0.0
230
-1.0
  0
SOLID
  5
1717
  8
0
  6
CONTINUOUS
 62
    14
 10
-9.1403563887693906
 20
8.5443084716910889
 30
0.0
 11
-10.8007609812394492
 21
8.5443084716910889
 31
0.0
 12
-11.2242112824056495
 22
8.3625008409542207
 32
0.0
 13
-11.2242112824056495
 23
8.3625008409542207
 33
0.0
210
0.0
220
0.0
230
-1.0
  0
SOLID
  5
1718
  8
0
  6
CONTINUOUS
 62
    14
 10
-9.3484568218760877
 20
8.3625008409542207
 30
0.0
 11
-11.5372192609770199
 21
8.2281114242291142
 31
0.0
 12
-9.5674708100706773
 22
8.2281114242291142
 32
0.0
 13
-9.5674708100706773
 23
8.2281114242291142
 33
0.0
210
0.0
220
0.0
230
-1.0
  0
SOLID
  5
1719
  8
0
  6
CONTINUOUS
 62
    14
 10
-9.3484568218760877
 20
8.3625008409542207
 30
0.0
 11
-11.2242112824056495
 21
8.3625008409542207
 31
0.0
 12
-11.5372192609770199
 22
8.2281114242291142
 32
0.0
 13
-11.5372192609770199
 23
8.2281114242291142
 33
0.0
210
0.0
220
0.0
230
-1.0
  0
SOLID
  5
171A
  8
0
  6
CONTINUOUS
 62
    14
 10
-9.5674708100706773
 20
8.2281114242291142
 30
0.0
 11
-12.3056158141964804
 21
8.032273540540082
 31
0.0
 12
-9.8866271617501909
 22
8.032273540540082
 32
0.0
 13
-9.8866271617501909
 23
8.032273540540082
 33
0.0
210
0.0
220
0.0
230
-1.0
  0
SOLID
  5
171B
  8
0
  6
CONTINUOUS
 62
    14
 10
-9.5674708100706773
 20
8.2281114242291142
 30
0.0
 11
-11.5372192609770199
 21
8.2281114242291142
 31
0.0
 12
-12.3056158141964804
 22
8.032273540540082
 32
0.0
 13
-12.3056158141964804
 23
8.032273540540082
 33
0.0
210
0.0
220
0.0
230
-1.0
  0
SOLID
  5
171C
  8
0
  6
CONTINUOUS
 62
    14
 10
-9.8866271617501909
 20
8.032273540540082
 30
0.0
 11
-12.6535606900282094
 21
8.0009301331315221
 31
0.0
 12
-9.9377074091940667
 22
8.0009301331315221
 32
0.0
 13
-9.9377074091940667
 23
8.0009301331315221
 33
0.0
210
0.0
220
0.0
230
-1.0
  0
SOLID
  5
171D
  8
0
  6
CONTINUOUS
 62
    14
 10
-9.8866271617501909
 20
8.032273540540082
 30
0.0
 11
-12.3056158141964804
 21
8.032273540540082
 31
0.0
 12
-12.6535606900282094
 22
8.0009301331315221
 32
0.0
 13
-12.6535606900282094
 23
8.0009301331315221
 33
0.0
210
0.0
220
0.0
230
-1.0
  0
SOLID
  5
171E
  8
0
  6
CONTINUOUS
 62
    14
 10
-9.9377074091940667
 20
8.0009301331315221
 30
0.0
 11
-13.0854187299767997
 21
7.9620276993583143
 31
0.0
 12
-10.0356720680250096
 22
7.9620276993583143
 32
0.0
 13
-10.0356720680250096
 23
7.9620276993583143
 33
0.0
210
0.0
220
0.0
230
-1.0
  0
SOLID
  5
171F
  8
0
  6
CONTINUOUS
 62
    14
 10
-9.9377074091940667
 20
8.0009301331315221
 30
0.0
 11
-12.6535606900282094
 21
8.0009301331315221
 31
0.0
 12
-13.0854187299767997
 22
7.9620276993583143
 32
0.0
 13
-13.0854187299767997
 23
7.9620276993583143
 33
0.0
210
0.0
220
0.0
230
-1.0
  0
SOLID
  5
1720
  8
0
  6
CONTINUOUS
 62
    14
 10
-10.0356720680250096
 20
7.9620276993583143
 30
0.0
 11
-12.5616797707758803
 21
7.7499421462694658
 31
0.0
 12
-10.5697489068275701
 22
7.7499421462694658
 32
0.0
 13
-10.5697489068275701
 23
7.7499421462694658
 33
0.0
210
0.0
220
0.0
230
-1.0
  0
SOLID
  5
1721
  8
0
  6
CONTINUOUS
 62
    14
 10
-10.0356720680250096
 20
7.9620276993583143
 30
0.0
 11
-13.0854187299767997
 21
7.9620276993583143
 31
0.0
 12
-12.5616797707758803
 22
7.7499421462694658
 32
0.0
 13
-12.5616797707758803
 23
7.7499421462694658
 33
0.0
210
0.0
220
0.0
230
-1.0
  0
SOLID
  5
1722
  8
0
  6
CONTINUOUS
 62
    14
 10
-10.5697489068275701
 20
7.7499421462694658
 30
0.0
 11
-12.5026863645126394
 21
7.7260530523303323
 31
0.0
 12
-10.6881430425233805
 22
7.7260530523303323
 32
0.0
 13
-10.6881430425233805
 23
7.7260530523303323
 33
0.0
210
0.0
220
0.0
230
-1.0
  0
SOLID
  5
1723
  8
0
  6
CONTINUOUS
 62
    14
 10
-10.5697489068275701
 20
7.7499421462694658
 30
0.0
 11
-12.5616797707758803
 21
7.7499421462694658
 31
0.0
 12
-12.5026863645126394
 22
7.7260530523303323
 32
0.0
 13
-12.5026863645126394
 23
7.7260530523303323
 33
0.0
210
0.0
220
0.0
230
-1.0
  0
SOLID
  5
1724
  8
0
  6
CONTINUOUS
 62
    14
 10
-11.2228730734773094
 20
7.6181573709567632
 30
0.0
 11
-11.9182781847444907
 21
7.6181573709567632
 31
0.0
 12
-11.8746475576899506
 22
7.6101021171157326
 32
0.0
 13
-11.8746475576899506
 23
7.6101021171157326
 33
0.0
210
0.0
220
0.0
230
-1.0
  0
SOLID
  5
1725
  8
0
  6
CONTINUOUS
 62
    14
 10
-10.6881430425233805
 20
7.7260530523303323
 30
0.0
 11
-11.9182781847444907
 21
7.6181573709567632
 31
0.0
 12
-11.2228730734773094
 22
7.6181573709567632
 32
0.0
 13
-11.2228730734773094
 23
7.6181573709567632
 33
0.0
210
0.0
220
0.0
230
-1.0
  0
SOLID
  5
1726
  8
0
  6
CONTINUOUS
 62
    14
 10
-10.6881430425233805
 20
7.7260530523303323
 30
0.0
 11
-12.5026863645126394
 21
7.7260530523303323
 31
0.0
 12
-11.9182781847444907
 22
7.6181573709567632
 32
0.0
 13
-11.9182781847444907
 23
7.6181573709567632
 33
0.0
210
0.0
220
0.0
230
-1.0
  0
LINE
  5
1727
  8
0
  6
CONTINUOUS
 62
    14
 10
9.5009940400166073
 20
9.5009940400166073
 30
0.0
 11
10.1159194804810895
 21
8.9724157517266363
 31
0.0
  0
LINE
  5
1728
  8
0
  6
CONTINUOUS
 62
    14
 10
8.9724157517266345
 20
8.9724157517266363
 30
0.0
 11
9.5009940400166073
 21
9.5009940400166073
 31
0.0
  0
LINE
  5
1729
  8
0
  6
CONTINUOUS
 62
    14
 10
8.8222356798165613
 20
8.8222356798165631
 30
0.0
 11
8.9724157517266345
 21
8.9724157517266363
 31
0.0
  0
LINE
  5
172A
  8
0
  6
CONTINUOUS
 62
    14
 10
10.1159194804810895
 20
8.9724157517266363
 30
0.0
 11
10.35616193985331
 21
8.8222356798165631
 31
0.0
  0
LINE
  5
172B
  8
0
  6
CONTINUOUS
 62
    14
 10
9.1403563887693906
 20
8.5443084716910889
 30
0.0
 11
8.8222356798165613
 21
8.8222356798165631
 31
0.0
  0
LINE
  5
172C
  8
0
  6
CONTINUOUS
 62
    14
 10
10.35616193985331
 20
8.8222356798165631
 30
0.0
 11
10.8007609812394492
 21
8.5443084716910889
 31
0.0
  0
LINE
  5
172D
  8
0
  6
CONTINUOUS
 62
    14
 10
9.3484568218760877
 20
8.3625008409542207
 30
0.0
 11
9.1403563887693906
 21
8.5443084716910889
 31
0.0
  0
LINE
  5
172E
  8
0
  6
CONTINUOUS
 62
    14
 10
10.8007609812394492
 20
8.5443084716910889
 30
0.0
 11
11.2242112824056495
 21
8.3625008409542207
 31
0.0
  0
LINE
  5
172F
  8
0
  6
CONTINUOUS
 62
    14
 10
9.5674708100706773
 20
8.2281114242291142
 30
0.0
 11
9.3484568218760877
 21
8.3625008409542207
 31
0.0
  0
LINE
  5
1730
  8
0
  6
CONTINUOUS
 62
    14
 10
11.2242112824056495
 20
8.3625008409542207
 30
0.0
 11
11.5372192609770199
 21
8.2281114242291142
 31
0.0
  0
LINE
  5
1731
  8
0
  6
CONTINUOUS
 62
    14
 10
9.8866271617501909
 20
8.032273540540082
 30
0.0
 11
9.5674708100706773
 21
8.2281114242291142
 31
0.0
  0
LINE
  5
1732
  8
0
  6
CONTINUOUS
 62
    14
 10
11.5372192609770199
 20
8.2281114242291142
 30
0.0
 11
12.3056158141964804
 21
8.032273540540082
 31
0.0
  0
LINE
  5
1733
  8
0
  6
CONTINUOUS
 62
    14
 10
9.9377074091940667
 20
8.0009301331315221
 30
0.0
 11
9.8866271617501909
 21
8.032273540540082
 31
0.0
  0
LINE
  5
1734
  8
0
  6
CONTINUOUS
 62
    14
 10
12.3056158141964804
 20
8.032273540540082
 30
0.0
 11
12.6535606900282094
 21
8.0009301331315221
 31
0.0
  0
LINE
  5
1735
  8
0
  6
CONTINUOUS
 62
    14
 10
10.0356720680250096
 20
7.9620276993583143
 30
0.0
 11
9.9377074091940667
 21
8.0009301331315221
 31
0.0
  0
LINE
  5
1736
  8
0
  6
CONTINUOUS
 62
    14
 10
12.6535606900282094
 20
8.0009301331315221
 30
0.0
 11
13.0854187299767997
 21
7.9620276993583143
 31
0.0
  0
LINE
  5
1737
  8
0
  6
CONTINUOUS
 62
    14
 10
10.5697489068275701
 20
7.7499421462694658
 30
0.0
 11
10.0356720680250096
 21
7.9620276993583143
 31
0.0
  0
LINE
  5
1738
  8
0
  6
CONTINUOUS
 62
    14
 10
13.0854187299767997
 20
7.9620276993583143
 30
0.0
 11
12.5616797707758803
 21
7.7499421462694658
 31
0.0
  0
LINE
  5
1739
  8
0
  6
CONTINUOUS
 62
    14
 10
10.6881430425233805
 20
7.7260530523303323
 30
0.0
 11
10.5697489068275701
 21
7.7499421462694658
 31
0.0
  0
LINE
  5
173A
  8
0
  6
CONTINUOUS
 62
    14
 10
12.5616797707758803
 20
7.7499421462694658
 30
0.0
 11
12.5026863645126394
 21
7.7260530523303323
 31
0.0
  0
LINE
  5
173B
  8
0
  6
CONTINUOUS
 62
    14
 10
11.9182781847444907
 20
7.6181573709567632
 30
0.0
 11
11.8746475576899506
 21
7.6101021171157326
 31
0.0
  0
LINE
  5
173C
  8
0
  6
CONTINUOUS
 62
    14
 10
11.8746475576899506
 20
7.6101021171157326
 30
0.0
 11
11.2228730734773094
 21
7.6181573709567632
 31
0.0
  0
LINE
  5
173D
  8
0
  6
CONTINUOUS
 62
    14
 10
11.2228730734773094
 20
7.6181573709567632
 30
0.0
 11
10.6881430425233805
 21
7.7260530523303323
 31
0.0
  0
LINE
  5
173E
  8
0
  6
CONTINUOUS
 62
    14
 10
12.5026863645126394
 20
7.7260530523303323
 30
0.0
 11
11.9182781847444907
 21
7.6181573709567632
 31
0.0
  0
ENDBLK
  5
1740
  8
0
  0
BLOCK
  8
0
  2
*U10
 70
     1
 10
0.0
 20
0.0
 30
0.0
  3
*U10
  1

  0
SOLID
  5
1742
  8
0
  6
CONTINUOUS
 62
    12
 10
-6.2181777945863397
 20
6.2181777945863503
 30
0.0
 11
-6.4575146422963181
 21
6.0146099189681914
 31
0.0
 12
-6.0146099189681808
 22
6.0146099189681914
 32
0.0
 13
-6.0146099189681808
 23
6.0146099189681914
 33
0.0
210
0.0
220
0.0
230
-1.0
  0
SOLID
  5
1743
  8
0
  6
CONTINUOUS
 62
    12
 10
-11.3083213492021208
 20
6.0146099189681914
 30
0.0
 11
-11.2956915110583296
 21
5.7956751554289241
 31
0.0
 12
-11.0435410527300792
 22
5.7956751554289241
 32
0.0
 13
-11.0435410527300792
 23
5.7956751554289241
 33
0.0
210
0.0
220
0.0
230
-1.0
  0
SOLID
  5
1744
  8
0
  6
CONTINUOUS
 62
    12
 10
-6.0146099189681808
 20
6.0146099189681914
 30
0.0
 11
-6.7149184983836356
 21
5.7956751554289241
 31
0.0
 12
-5.7956751554289161
 22
5.7956751554289241
 32
0.0
 13
-5.7956751554289161
 23
5.7956751554289241
 33
0.0
210
0.0
220
0.0
230
-1.0
  0
SOLID
  5
1745
  8
0
  6
CONTINUOUS
 62
    12
 10
-6.0146099189681808
 20
6.0146099189681914
 30
0.0
 11
-6.4575146422963181
 21
6.0146099189681914
 31
0.0
 12
-6.7149184983836356
 22
5.7956751554289241
 32
0.0
 13
-6.7149184983836356
 23
5.7956751554289241
 33
0.0
210
0.0
220
0.0
230
-1.0
  0
SOLID
  5
1746
  8
0
  6
CONTINUOUS
 62
    12
 10
-11.0435410527300792
 20
5.7956751554289241
 30
0.0
 11
-11.2861657737201195
 21
5.6305491238886081
 31
0.0
 12
-10.8438371825922903
 22
5.6305491238886081
 32
0.0
 13
-10.8438371825922903
 23
5.6305491238886081
 33
0.0
210
0.0
220
0.0
230
-1.0
  0
SOLID
  5
1747
  8
0
  6
CONTINUOUS
 62
    12
 10
-11.0435410527300792
 20
5.7956751554289241
 30
0.0
 11
-11.2956915110583296
 21
5.7956751554289241
 31
0.0
 12
-11.2861657737201195
 22
5.6305491238886081
 32
0.0
 13
-11.2861657737201195
 23
5.6305491238886081
 33
0.0
210
0.0
220
0.0
230
-1.0
  0
SOLID
  5
1748
  8
0
  6
CONTINUOUS
 62
    12
 10
-5.7956751554289161
 20
5.7956751554289241
 30
0.0
 11
-7.2708040518988462
 21
5.4602481098055167
 31
0.0
 12
-5.4602481098055078
 22
5.4602481098055167
 32
0.0
 13
-5.4602481098055078
 23
5.4602481098055167
 33
0.0
210
0.0
220
0.0
230
-1.0
  0
SOLID
  5
1749
  8
0
  6
CONTINUOUS
 62
    12
 10
-5.7956751554289161
 20
5.7956751554289241
 30
0.0
 11
-6.7149184983836356
 21
5.7956751554289241
 31
0.0
 12
-7.2708040518988462
 22
5.4602481098055167
 32
0.0
 13
-7.2708040518988462
 23
5.4602481098055167
 33
0.0
210
0.0
220
0.0
230
-1.0
  0
SOLID
  5
174A
  8
0
  6
CONTINUOUS
 62
    12
 10
-10.8438371825922903
 20
5.6305491238886081
 30
0.0
 11
-11.2693228217490198
 21
5.3385811932535301
 31
0.0
 12
-10.3130427608143407
 22
5.3385811932535301
 32
0.0
 13
-10.3130427608143407
 23
5.3385811932535301
 33
0.0
210
0.0
220
0.0
230
-1.0
  0
SOLID
  5
174B
  8
0
  6
CONTINUOUS
 62
    12
 10
-10.8438371825922903
 20
5.6305491238886081
 30
0.0
 11
-11.2861657737201195
 21
5.6305491238886081
 31
0.0
 12
-11.2693228217490198
 22
5.3385811932535301
 32
0.0
 13
-11.2693228217490198
 23
5.3385811932535301
 33
0.0
210
0.0
220
0.0
230
-1.0
  0
SOLID
  5
174C
  8
0
  6
CONTINUOUS
 62
    12
 10
-5.4602481098055078
 20
5.4602481098055167
 30
0.0
 11
-7.8689441538800731
 21
5.2220884387631186
 31
0.0
 12
-5.2220884387631097
 22
5.2220884387631186
 32
0.0
 13
-5.2220884387631097
 23
5.2220884387631186
 33
0.0
210
0.0
220
0.0
230
-1.0
  0
SOLID
  5
174D
  8
0
  6
CONTINUOUS
 62
    12
 10
-5.4602481098055078
 20
5.4602481098055167
 30
0.0
 11
-7.2708040518988462
 21
5.4602481098055167
 31
0.0
 12
-7.8689441538800731
 22
5.2220884387631186
 32
0.0
 13
-7.8689441538800731
 23
5.2220884387631186
 33
0.0
210
0.0
220
0.0
230
-1.0
  0
SOLID
  5
174E
  8
0
  6
CONTINUOUS
 62
    12
 10
-10.3130427608143407
 20
5.3385811932535301
 30
0.0
 11
-11.2597658325191894
 21
5.1729134187847681
 31
0.0
 12
-9.8091305753009905
 22
5.1729134187847681
 32
0.0
 13
-9.8091305753009905
 23
5.1729134187847681
 33
0.0
210
0.0
220
0.0
230
-1.0
  0
SOLID
  5
174F
  8
0
  6
CONTINUOUS
 62
    12
 10
-10.3130427608143407
 20
5.3385811932535301
 30
0.0
 11
-11.2693228217490198
 21
5.3385811932535301
 31
0.0
 12
-11.2597658325191894
 22
5.1729134187847681
 32
0.0
 13
-11.2597658325191894
 23
5.1729134187847681
 33
0.0
210
0.0
220
0.0
230
-1.0
  0
SOLID
  5
1750
  8
0
  6
CONTINUOUS
 62
    12
 10
-9.8091305753009905
 20
5.1729134187847681
 30
0.0
 11
-11.2528872238531292
 21
5.1475774248924644
 31
0.0
 12
-9.7320660037790798
 22
5.1475774248924644
 32
0.0
 13
-9.7320660037790798
 23
5.1475774248924644
 33
0.0
210
0.0
220
0.0
230
-1.0
  0
SOLID
  5
1751
  8
0
  6
CONTINUOUS
 62
    12
 10
-9.8091305753009905
 20
5.1729134187847681
 30
0.0
 11
-11.2597658325191894
 21
5.1729134187847681
 31
0.0
 12
-11.2528872238531292
 22
5.1475774248924644
 32
0.0
 13
-11.2528872238531292
 23
5.1475774248924644
 33
0.0
210
0.0
220
0.0
230
-1.0
  0
SOLID
  5
1752
  8
0
  6
CONTINUOUS
 62
    12
 10
-5.2220884387631097
 20
5.2220884387631186
 30
0.0
 11
-8.4911646200021114
 21
5.088432503391747
 31
0.0
 12
-5.0884325033917381
 22
5.088432503391747
 32
0.0
 13
-5.0884325033917381
 23
5.088432503391747
 33
0.0
210
0.0
220
0.0
230
-1.0
  0
SOLID
  5
1753
  8
0
  6
CONTINUOUS
 62
    12
 10
-5.2220884387631097
 20
5.2220884387631186
 30
0.0
 11
-7.8689441538800731
 21
5.2220884387631186
 31
0.0
 12
-8.4911646200021114
 22
5.088432503391747
 32
0.0
 13
-8.4911646200021114
 23
5.088432503391747
 33
0.0
210
0.0
220
0.0
230
-1.0
  0
SOLID
  5
1754
  8
0
  6
CONTINUOUS
 62
    12
 10
-9.7320660037790798
 20
5.1475774248924644
 30
0.0
 11
-11.2300175133432401
 21
5.0633413716544906
 31
0.0
 12
-9.1185595962605923
 22
5.0633413716544906
 32
0.0
 13
-9.1185595962605923
 23
5.0633413716544906
 33
0.0
210
0.0
220
0.0
230
-1.0
  0
SOLID
  5
1755
  8
0
  6
CONTINUOUS
 62
    12
 10
-9.7320660037790798
 20
5.1475774248924644
 30
0.0
 11
-11.2528872238531292
 21
5.1475774248924644
 31
0.0
 12
-11.2300175133432401
 22
5.0633413716544906
 32
0.0
 13
-11.2300175133432401
 23
5.0633413716544906
 33
0.0
210
0.0
220
0.0
230
-1.0
  0
SOLID
  5
1756
  8
0
  6
CONTINUOUS
 62
    12
 10
-5.0884325033917381
 20
5.088432503391747
 30
0.0
 11
-9.1185595962605923
 21
5.0633413716544906
 31
0.0
 12
-5.0633413716544817
 22
5.0633413716544906
 32
0.0
 13
-5.0633413716544817
 23
5.0633413716544906
 33
0.0
210
0.0
220
0.0
230
-1.0
  0
SOLID
  5
1757
  8
0
  6
CONTINUOUS
 62
    12
 10
-5.0884325033917381
 20
5.088432503391747
 30
0.0
 11
-8.4911646200021114
 21
5.088432503391747
 31
0.0
 12
-9.1185595962605923
 22
5.0633413716544906
 32
0.0
 13
-9.1185595962605923
 23
5.0633413716544906
 33
0.0
210
0.0
220
0.0
230
-1.0
  0
SOLID
  5
1758
  8
0
  6
CONTINUOUS
 62
    12
 10
-5.0633413716544817
 20
5.0633413716544906
 30
0.0
 11
-11.0468861022021603
 21
4.3888130564947883
 31
0.0
 12
-4.3888130564947812
 22
4.3888130564947883
 32
0.0
 13
-4.3888130564947812
 23
4.3888130564947883
 33
0.0
210
0.0
220
0.0
230
-1.0
  0
SOLID
  5
1759
  8
0
  6
CONTINUOUS
 62
    12
 10
-5.0633413716544817
 20
5.0633413716544906
 30
0.0
 11
-11.2300175133432401
 21
5.0633413716544906
 31
0.0
 12
-11.0468861022021603
 22
4.3888130564947883
 32
0.0
 13
-11.0468861022021603
 23
4.3888130564947883
 33
0.0
210
0.0
220
0.0
230
-1.0
  0
SOLID
  5
175A
  8
0
  6
CONTINUOUS
 62
    12
 10
-4.3888130564947812
 20
4.3888130564947883
 30
0.0
 11
-10.7727743886864396
 21
3.8709865571331359
 31
0.0
 12
-3.8709865571331288
 22
3.8709865571331359
 32
0.0
 13
-3.8709865571331288
 23
3.8709865571331359
 33
0.0
210
0.0
220
0.0
230
-1.0
  0
SOLID
  5
175B
  8
0
  6
CONTINUOUS
 62
    12
 10
-4.3888130564947812
 20
4.3888130564947883
 30
0.0
 11
-11.0468861022021603
 21
4.3888130564947883
 31
0.0
 12
-10.7727743886864396
 22
3.8709865571331359
 32
0.0
 13
-10.7727743886864396
 23
3.8709865571331359
 33
0.0
210
0.0
220
0.0
230
-1.0
  0
SOLID
  5
175C
  8
0
  6
CONTINUOUS
 62
    12
 10
-3.8709865571331288
 20
3.8709865571331359
 30
0.0
 11
-10.6774435333220907
 21
3.690896321362759
 31
0.0
 12
-4.0816432237694196
 22
3.690896321362759
 32
0.0
 13
-4.0816432237694196
 23
3.690896321362759
 33
0.0
210
0.0
220
0.0
230
-1.0
  0
SOLID
  5
175D
  8
0
  6
CONTINUOUS
 62
    12
 10
-3.8709865571331288
 20
3.8709865571331359
 30
0.0
 11
-10.7727743886864396
 21
3.8709865571331359
 31
0.0
 12
-10.6774435333220907
 22
3.690896321362759
 32
0.0
 13
-10.6774435333220907
 23
3.690896321362759
 33
0.0
210
0.0
220
0.0
230
-1.0
  0
SOLID
  5
175E
  8
0
  6
CONTINUOUS
 62
    12
 10
-4.0816432237694196
 20
3.690896321362759
 30
0.0
 11
-10.2937403214521908
 21
3.2519797491283451
 31
0.0
 12
-4.5950564115683408
 22
3.2519797491283451
 32
0.0
 13
-4.5950564115683408
 23
3.2519797491283451
 33
0.0
210
0.0
220
0.0
230
-1.0
  0
SOLID
  5
175F
  8
0
  6
CONTINUOUS
 62
    12
 10
-4.0816432237694196
 20
3.690896321362759
 30
0.0
 11
-10.6774435333220907
 21
3.690896321362759
 31
0.0
 12
-10.2937403214521908
 22
3.2519797491283451
 32
0.0
 13
-10.2937403214521908
 23
3.2519797491283451
 33
0.0
210
0.0
220
0.0
230
-1.0
  0
SOLID
  5
1760
  8
0
  6
CONTINUOUS
 62
    12
 10
-4.5950564115683408
 20
3.2519797491283451
 30
0.0
 11
-10.1649076203208093
 21
3.1046085366312761
 31
0.0
 12
-4.8358089786345291
 22
3.1046085366312761
 32
0.0
 13
-4.8358089786345291
 23
3.1046085366312761
 33
0.0
210
0.0
220
0.0
230
-1.0
  0
SOLID
  5
1761
  8
0
  6
CONTINUOUS
 62
    12
 10
-4.5950564115683408
 20
3.2519797491283451
 30
0.0
 11
-10.2937403214521908
 21
3.2519797491283451
 31
0.0
 12
-10.1649076203208093
 22
3.1046085366312761
 32
0.0
 13
-10.1649076203208093
 23
3.1046085366312761
 33
0.0
210
0.0
220
0.0
230
-1.0
  0
SOLID
  5
1762
  8
0
  6
CONTINUOUS
 62
    12
 10
-4.8358089786345291
 20
3.1046085366312761
 30
0.0
 11
-9.6815213334919559
 21
2.7606043363643571
 31
0.0
 12
-5.397790473476733
 22
2.7606043363643571
 32
0.0
 13
-5.397790473476733
 23
2.7606043363643571
 33
0.0
210
0.0
220
0.0
230
-1.0
  0
SOLID
  5
1763
  8
0
  6
CONTINUOUS
 62
    12
 10
-4.8358089786345291
 20
3.1046085366312761
 30
0.0
 11
-10.1649076203208093
 21
3.1046085366312761
 31
0.0
 12
-9.6815213334919559
 22
2.7606043363643571
 32
0.0
 13
-9.6815213334919559
 23
2.7606043363643571
 33
0.0
210
0.0
220
0.0
230
-1.0
  0
SOLID
  5
1764
  8
0
  6
CONTINUOUS
 62
    12
 10
-5.397790473476733
 20
2.7606043363643571
 30
0.0
 11
-9.5279648931570726
 21
2.6513251493196099
 31
0.0
 12
-5.6670571755101742
 22
2.6513251493196099
 32
0.0
 13
-5.6670571755101742
 23
2.6513251493196099
 33
0.0
210
0.0
220
0.0
230
-1.0
  0
SOLID
  5
1765
  8
0
  6
CONTINUOUS
 62
    12
 10
-5.397790473476733
 20
2.7606043363643571
 30
0.0
 11
-9.6815213334919559
 21
2.7606043363643571
 31
0.0
 12
-9.5279648931570726
 22
2.6513251493196099
 32
0.0
 13
-9.5279648931570726
 23
2.6513251493196099
 33
0.0
210
0.0
220
0.0
230
-1.0
  0
SOLID
  5
1766
  8
0
  6
CONTINUOUS
 62
    12
 10
-5.6670571755101742
 20
2.6513251493196099
 30
0.0
 11
-8.9531425981182267
 21
2.4147753588192189
 31
0.0
 12
-6.2499218881535841
 22
2.4147753588192189
 32
0.0
 13
-6.2499218881535841
 23
2.4147753588192189
 33
0.0
210
0.0
220
0.0
230
-1.0
  0
SOLID
  5
1767
  8
0
  6
CONTINUOUS
 62
    12
 10
-5.6670571755101742
 20
2.6513251493196099
 30
0.0
 11
-9.5279648931570726
 21
2.6513251493196099
 31
0.0
 12
-8.9531425981182267
 22
2.4147753588192189
 32
0.0
 13
-8.9531425981182267
 23
2.4147753588192189
 33
0.0
210
0.0
220
0.0
230
-1.0
  0
SOLID
  5
1768
  8
0
  6
CONTINUOUS
 62
    12
 10
-6.2499218881535841
 20
2.4147753588192189
 30
0.0
 11
-8.7898376257266708
 21
2.347572403505378
 31
0.0
 12
-6.5616195936739219
 22
2.347572403505378
 32
0.0
 13
-6.5616195936739219
 23
2.347572403505378
 33
0.0
210
0.0
220
0.0
230
-1.0
  0
SOLID
  5
1769
  8
0
  6
CONTINUOUS
 62
    12
 10
-6.2499218881535841
 20
2.4147753588192189
 30
0.0
 11
-8.9531425981182267
 21
2.4147753588192189
 31
0.0
 12
-8.7898376257266708
 22
2.347572403505378
 32
0.0
 13
-8.7898376257266708
 23
2.347572403505378
 33
0.0
210
0.0
220
0.0
230
-1.0
  0
SOLID
  5
176A
  8
0
  6
CONTINUOUS
 62
    12
 10
-7.1203828244377414
 20
2.2271013837866018
 30
0.0
 11
-8.1061327264718201
 21
2.2271013837866018
 31
0.0
 12
-7.9774371757439217
 22
2.2044248105364228
 32
0.0
 13
-7.9774371757439217
 23
2.2044248105364228
 33
0.0
210
0.0
220
0.0
230
-1.0
  0
SOLID
  5
176B
  8
0
  6
CONTINUOUS
 62
    12
 10
-6.5616195936739219
 20
2.347572403505378
 30
0.0
 11
-8.1061327264718201
 21
2.2271013837866018
 31
0.0
 12
-7.1203828244377414
 22
2.2271013837866018
 32
0.0
 13
-7.1203828244377414
 23
2.2271013837866018
 33
0.0
210
0.0
220
0.0
230
-1.0
  0
SOLID
  5
176C
  8
0
  6
CONTINUOUS
 62
    12
 10
-6.5616195936739219
 20
2.347572403505378
 30
0.0
 11
-8.7898376257266708
 21
2.347572403505378
 31
0.0
 12
-8.1061327264718201
 22
2.2271013837866018
 32
0.0
 13
-8.1061327264718201
 23
2.2271013837866018
 33
0.0
210
0.0
220
0.0
230
-1.0
  0
LINE
  5
176D
  8
0
  6
CONTINUOUS
 62
    12
 10
6.2181777945863397
 20
6.2181777945863503
 30
0.0
 11
6.4575146422963181
 21
6.0146099189681914
 31
0.0
  0
LINE
  5
176E
  8
0
  6
CONTINUOUS
 62
    12
 10
6.0146099189681808
 20
6.0146099189681914
 30
0.0
 11
6.2181777945863397
 21
6.2181777945863503
 31
0.0
  0
LINE
  5
176F
  8
0
  6
CONTINUOUS
 62
    12
 10
11.3083213492021208
 20
6.0146099189681914
 30
0.0
 11
11.2956915110583296
 21
5.7956751554289241
 31
0.0
  0
LINE
  5
1770
  8
0
  6
CONTINUOUS
 62
    12
 10
11.0435410527300792
 20
5.7956751554289241
 30
0.0
 11
11.3083213492021208
 21
6.0146099189681914
 31
0.0
  0
LINE
  5
1771
  8
0
  6
CONTINUOUS
 62
    12
 10
5.7956751554289161
 20
5.7956751554289241
 30
0.0
 11
6.0146099189681808
 21
6.0146099189681914
 31
0.0
  0
LINE
  5
1772
  8
0
  6
CONTINUOUS
 62
    12
 10
6.4575146422963181
 20
6.0146099189681914
 30
0.0
 11
6.7149184983836356
 21
5.7956751554289241
 31
0.0
  0
LINE
  5
1773
  8
0
  6
CONTINUOUS
 62
    12
 10
10.8438371825922903
 20
5.6305491238886081
 30
0.0
 11
11.0435410527300792
 21
5.7956751554289241
 31
0.0
  0
LINE
  5
1774
  8
0
  6
CONTINUOUS
 62
    12
 10
11.2956915110583296
 20
5.7956751554289241
 30
0.0
 11
11.2861657737201195
 21
5.6305491238886081
 31
0.0
  0
LINE
  5
1775
  8
0
  6
CONTINUOUS
 62
    12
 10
5.4602481098055078
 20
5.4602481098055167
 30
0.0
 11
5.7956751554289161
 21
5.7956751554289241
 31
0.0
  0
LINE
  5
1776
  8
0
  6
CONTINUOUS
 62
    12
 10
6.7149184983836356
 20
5.7956751554289241
 30
0.0
 11
7.2708040518988462
 21
5.4602481098055167
 31
0.0
  0
LINE
  5
1777
  8
0
  6
CONTINUOUS
 62
    12
 10
10.3130427608143407
 20
5.3385811932535301
 30
0.0
 11
10.8438371825922903
 21
5.6305491238886081
 31
0.0
  0
LINE
  5
1778
  8
0
  6
CONTINUOUS
 62
    12
 10
11.2861657737201195
 20
5.6305491238886081
 30
0.0
 11
11.2693228217490198
 21
5.3385811932535301
 31
0.0
  0
LINE
  5
1779
  8
0
  6
CONTINUOUS
 62
    12
 10
5.2220884387631097
 20
5.2220884387631186
 30
0.0
 11
5.4602481098055078
 21
5.4602481098055167
 31
0.0
  0
LINE
  5
177A
  8
0
  6
CONTINUOUS
 62
    12
 10
7.2708040518988462
 20
5.4602481098055167
 30
0.0
 11
7.8689441538800731
 21
5.2220884387631186
 31
0.0
  0
LINE
  5
177B
  8
0
  6
CONTINUOUS
 62
    12
 10
9.8091305753009905
 20
5.1729134187847681
 30
0.0
 11
10.3130427608143407
 21
5.3385811932535301
 31
0.0
  0
LINE
  5
177C
  8
0
  6
CONTINUOUS
 62
    12
 10
11.2693228217490198
 20
5.3385811932535301
 30
0.0
 11
11.2597658325191894
 21
5.1729134187847681
 31
0.0
  0
LINE
  5
177D
  8
0
  6
CONTINUOUS
 62
    12
 10
9.7320660037790798
 20
5.1475774248924644
 30
0.0
 11
9.8091305753009905
 21
5.1729134187847681
 31
0.0
  0
LINE
  5
177E
  8
0
  6
CONTINUOUS
 62
    12
 10
11.2597658325191894
 20
5.1729134187847681
 30
0.0
 11
11.2528872238531292
 21
5.1475774248924644
 31
0.0
  0
LINE
  5
177F
  8
0
  6
CONTINUOUS
 62
    12
 10
5.0884325033917381
 20
5.088432503391747
 30
0.0
 11
5.2220884387631097
 21
5.2220884387631186
 31
0.0
  0
LINE
  5
1780
  8
0
  6
CONTINUOUS
 62
    12
 10
7.8689441538800731
 20
5.2220884387631186
 30
0.0
 11
8.4911646200021114
 21
5.088432503391747
 31
0.0
  0
LINE
  5
1781
  8
0
  6
CONTINUOUS
 62
    12
 10
9.1185595962605923
 20
5.0633413716544906
 30
0.0
 11
9.7320660037790798
 21
5.1475774248924644
 31
0.0
  0
LINE
  5
1782
  8
0
  6
CONTINUOUS
 62
    12
 10
11.2528872238531292
 20
5.1475774248924644
 30
0.0
 11
11.2300175133432401
 21
5.0633413716544906
 31
0.0
  0
LINE
  5
1783
  8
0
  6
CONTINUOUS
 62
    12
 10
5.0633413716544817
 20
5.0633413716544906
 30
0.0
 11
5.0884325033917381
 21
5.088432503391747
 31
0.0
  0
LINE
  5
1784
  8
0
  6
CONTINUOUS
 62
    12
 10
8.4911646200021114
 20
5.088432503391747
 30
0.0
 11
9.1185595962605923
 21
5.0633413716544906
 31
0.0
  0
LINE
  5
1785
  8
0
  6
CONTINUOUS
 62
    12
 10
4.3888130564947812
 20
4.3888130564947883
 30
0.0
 11
5.0633413716544817
 21
5.0633413716544906
 31
0.0
  0
LINE
  5
1786
  8
0
  6
CONTINUOUS
 62
    12
 10
11.2300175133432401
 20
5.0633413716544906
 30
0.0
 11
11.0468861022021603
 21
4.3888130564947883
 31
0.0
  0
LINE
  5
1787
  8
0
  6
CONTINUOUS
 62
    12
 10
3.8709865571331288
 20
3.8709865571331359
 30
0.0
 11
4.3888130564947812
 21
4.3888130564947883
 31
0.0
  0
LINE
  5
1788
  8
0
  6
CONTINUOUS
 62
    12
 10
11.0468861022021603
 20
4.3888130564947883
 30
0.0
 11
10.7727743886864396
 21
3.8709865571331359
 31
0.0
  0
LINE
  5
1789
  8
0
  6
CONTINUOUS
 62
    12
 10
4.0816432237694196
 20
3.690896321362759
 30
0.0
 11
3.8709865571331288
 21
3.8709865571331359
 31
0.0
  0
LINE
  5
178A
  8
0
  6
CONTINUOUS
 62
    12
 10
10.7727743886864396
 20
3.8709865571331359
 30
0.0
 11
10.6774435333220907
 21
3.690896321362759
 31
0.0
  0
LINE
  5
178B
  8
0
  6
CONTINUOUS
 62
    12
 10
4.5950564115683408
 20
3.2519797491283451
 30
0.0
 11
4.0816432237694196
 21
3.690896321362759
 31
0.0
  0
LINE
  5
178C
  8
0
  6
CONTINUOUS
 62
    12
 10
10.6774435333220907
 20
3.690896321362759
 30
0.0
 11
10.2937403214521908
 21
3.2519797491283451
 31
0.0
  0
LINE
  5
178D
  8
0
  6
CONTINUOUS
 62
    12
 10
4.8358089786345291
 20
3.1046085366312761
 30
0.0
 11
4.5950564115683408
 21
3.2519797491283451
 31
0.0
  0
LINE
  5
178E
  8
0
  6
CONTINUOUS
 62
    12
 10
10.2937403214521908
 20
3.2519797491283451
 30
0.0
 11
10.1649076203208093
 21
3.1046085366312761
 31
0.0
  0
LINE
  5
178F
  8
0
  6
CONTINUOUS
 62
    12
 10
5.397790473476733
 20
2.7606043363643571
 30
0.0
 11
4.8358089786345291
 21
3.1046085366312761
 31
0.0
  0
LINE
  5
1790
  8
0
  6
CONTINUOUS
 62
    12
 10
10.1649076203208093
 20
3.1046085366312761
 30
0.0
 11
9.6815213334919559
 21
2.7606043363643571
 31
0.0
  0
LINE
  5
1791
  8
0
  6
CONTINUOUS
 62
    12
 10
5.6670571755101742
 20
2.6513251493196099
 30
0.0
 11
5.397790473476733
 21
2.7606043363643571
 31
0.0
  0
LINE
  5
1792
  8
0
  6
CONTINUOUS
 62
    12
 10
9.6815213334919559
 20
2.7606043363643571
 30
0.0
 11
9.5279648931570726
 21
2.6513251493196099
 31
0.0
  0
LINE
  5
1793
  8
0
  6
CONTINUOUS
 62
    12
 10
6.2499218881535841
 20
2.4147753588192189
 30
0.0
 11
5.6670571755101742
 21
2.6513251493196099
 31
0.0
  0
LINE
  5
1794
  8
0
  6
CONTINUOUS
 62
    12
 10
9.5279648931570726
 20
2.6513251493196099
 30
0.0
 11
8.9531425981182267
 21
2.4147753588192189
 31
0.0
  0
LINE
  5
1795
  8
0
  6
CONTINUOUS
 62
    12
 10
6.5616195936739219
 20
2.347572403505378
 30
0.0
 11
6.2499218881535841
 21
2.4147753588192189
 31
0.0
  0
LINE
  5
1796
  8
0
  6
CONTINUOUS
 62
    12
 10
8.9531425981182267
 20
2.4147753588192189
 30
0.0
 11
8.7898376257266708
 21
2.347572403505378
 31
0.0
  0
LINE
  5
1797
  8
0
  6
CONTINUOUS
 62
    12
 10
8.1061327264718201
 20
2.2271013837866018
 30
0.0
 11
7.9774371757439217
 21
2.2044248105364228
 31
0.0
  0
LINE
  5
1798
  8
0
  6
CONTINUOUS
 62
    12
 10
7.9774371757439217
 20
2.2044248105364228
 30
0.0
 11
7.1203828244377414
 21
2.2271013837866018
 31
0.0
  0
LINE
  5
1799
  8
0
  6
CONTINUOUS
 62
    12
 10
7.1203828244377414
 20
2.2271013837866018
 30
0.0
 11
6.5616195936739219
 21
2.347572403505378
 31
0.0
  0
LINE
  5
179A
  8
0
  6
CONTINUOUS
 62
    12
 10
8.7898376257266708
 20
2.347572403505378
 30
0.0
 11
8.1061327264718201
 21
2.2271013837866018
 31
0.0
  0
ENDBLK
  5
179C
  8
0
  0
BLOCK
  8
0
  2
*U11
 70
     1
 10
0.0
 20
0.0
 30
0.0
  3
*U11
  1

  0
SOLID
  5
179E
  8
0
  6
CONTINUOUS
 62
    14
 10
-8.8222356798165613
 20
8.8222356798165631
 30
0.0
 11
-9.3484568218760877
 21
8.3625008409542207
 31
0.0
 12
-8.3625008409542207
 22
8.3625008409542207
 32
0.0
 13
-8.3625008409542207
 23
8.3625008409542207
 33
0.0
210
0.0
220
0.0
230
-1.0
  0
SOLID
  5
179F
  8
0
  6
CONTINUOUS
 62
    14
 10
-8.3625008409542207
 20
8.3625008409542207
 30
0.0
 11
-9.9377074091940667
 21
8.0009301331315221
 31
0.0
 12
-8.0009301331315221
 22
8.0009301331315221
 32
0.0
 13
-8.0009301331315221
 23
8.0009301331315221
 33
0.0
210
0.0
220
0.0
230
-1.0
  0
SOLID
  5
17A0
  8
0
  6
CONTINUOUS
 62
    14
 10
-8.3625008409542207
 20
8.3625008409542207
 30
0.0
 11
-9.3484568218760877
 21
8.3625008409542207
 31
0.0
 12
-9.9377074091940667
 22
8.0009301331315221
 32
0.0
 13
-9.9377074091940667
 23
8.0009301331315221
 33
0.0
210
0.0
220
0.0
230
-1.0
  0
SOLID
  5
17A1
  8
0
  6
CONTINUOUS
 62
    14
 10
-13.0854187299767908
 20
7.9620276993582593
 30
0.0
 11
-12.8918820966516297
 21
7.7499421462694658
 31
0.0
 12
-12.5616797707758892
 22
7.7499421462694658
 32
0.0
 13
-12.5616797707758892
 23
7.7499421462694658
 33
0.0
210
0.0
220
0.0
230
-1.0
  0
SOLID
  5
17A2
  8
0
  6
CONTINUOUS
 62
    14
 10
-8.0009301331315221
 20
8.0009301331315221
 30
0.0
 11
-10.5697489068275701
 21
7.7499421462694658
 31
0.0
 12
-7.7499421462694684
 22
7.7499421462694658
 32
0.0
 13
-7.7499421462694684
 23
7.7499421462694658
 33
0.0
210
0.0
220
0.0
230
-1.0
  0
SOLID
  5
17A3
  8
0
  6
CONTINUOUS
 62
    14
 10
-8.0009301331315221
 20
8.0009301331315221
 30
0.0
 11
-9.9377074091940667
 21
8.0009301331315221
 31
0.0
 12
-10.5697489068275701
 22
7.7499421462694658
 32
0.0
 13
-10.5697489068275701
 23
7.7499421462694658
 33
0.0
210
0.0
220
0.0
230
-1.0
  0
SOLID
  5
17A4
  8
0
  6
CONTINUOUS
 62
    14
 10
-12.5616797707758892
 20
7.7499421462694658
 30
0.0
 11
-12.8700823335520997
 21
7.7260530523303323
 31
0.0
 12
-12.5026863645126394
 22
7.7260530523303323
 32
0.0
 13
-12.5026863645126394
 23
7.7260530523303323
 33
0.0
210
0.0
220
0.0
230
-1.0
  0
SOLID
  5
17A5
  8
0
  6
CONTINUOUS
 62
    14
 10
-12.5616797707758892
 20
7.7499421462694658
 30
0.0
 11
-12.8918820966516297
 21
7.7499421462694658
 31
0.0
 12
-12.8700823335520997
 22
7.7260530523303323
 32
0.0
 13
-12.8700823335520997
 23
7.7260530523303323
 33
0.0
210
0.0
220
0.0
230
-1.0
  0
SOLID
  5
17A6
  8
0
  6
CONTINUOUS
 62
    14
 10
-7.7499421462694684
 20
7.7499421462694658
 30
0.0
 11
-11.2228730734773094
 21
7.6181573709567632
 31
0.0
 12
-7.6181573709567649
 22
7.6181573709567632
 32
0.0
 13
-7.6181573709567649
 23
7.6181573709567632
 33
0.0
210
0.0
220
0.0
230
-1.0
  0
SOLID
  5
17A7
  8
0
  6
CONTINUOUS
 62
    14
 10
-7.7499421462694684
 20
7.7499421462694658
 30
0.0
 11
-10.5697489068275701
 21
7.7499421462694658
 31
0.0
 12
-11.2228730734773094
 22
7.6181573709567632
 32
0.0
 13
-11.2228730734773094
 23
7.6181573709567632
 33
0.0
210
0.0
220
0.0
230
-1.0
  0
SOLID
  5
17A8
  8
0
  6
CONTINUOUS
 62
    14
 10
-12.5026863645126394
 20
7.7260530523303323
 30
0.0
 11
-12.7642724219126098
 21
7.6101021171157326
 31
0.0
 12
-11.8746475576899506
 22
7.6101021171157326
 32
0.0
 13
-11.8746475576899506
 23
7.6101021171157326
 33
0.0
210
0.0
220
0.0
230
-1.0
  0
SOLID
  5
17A9
  8
0
  6
CONTINUOUS
 62
    14
 10
-12.5026863645126394
 20
7.7260530523303323
 30
0.0
 11
-12.8700823335520997
 21
7.7260530523303323
 31
0.0
 12
-12.7642724219126098
 22
7.6101021171157326
 32
0.0
 13
-12.7642724219126098
 23
7.6101021171157326
 33
0.0
210
0.0
220
0.0
230
-1.0
  0
SOLID
  5
17AA
  8
0
  6
CONTINUOUS
 62
    14
 10
-7.6181573709567649
 20
7.6181573709567632
 30
0.0
 11
-11.8746475576899506
 21
7.6101021171157326
 31
0.0
 12
-7.6101021171157353
 22
7.6101021171157326
 32
0.0
 13
-7.6101021171157353
 23
7.6101021171157326
 33
0.0
210
0.0
220
0.0
230
-1.0
  0
SOLID
  5
17AB
  8
0
  6
CONTINUOUS
 62
    14
 10
-7.6181573709567649
 20
7.6181573709567632
 30
0.0
 11
-11.2228730734773094
 21
7.6181573709567632
 31
0.0
 12
-11.8746475576899506
 22
7.6101021171157326
 32
0.0
 13
-11.8746475576899506
 23
7.6101021171157326
 33
0.0
210
0.0
220
0.0
230
-1.0
  0
SOLID
  5
17AC
  8
0
  6
CONTINUOUS
 62
    14
 10
-7.6101021171157353
 20
7.6101021171157326
 30
0.0
 11
-11.4940852578064394
 21
6.2181777945863379
 31
0.0
 12
-6.218177794586345
 22
6.2181777945863379
 32
0.0
 13
-6.218177794586345
 23
6.2181777945863379
 33
0.0
210
0.0
220
0.0
230
-1.0
  0
SOLID
  5
17AD
  8
0
  6
CONTINUOUS
 62
    14
 10
-7.6101021171157353
 20
7.6101021171157326
 30
0.0
 11
-12.7642724219126098
 21
7.6101021171157326
 31
0.0
 12
-11.4940852578064394
 22
6.2181777945863379
 32
0.0
 13
-11.4940852578064394
 23
6.2181777945863379
 33
0.0
210
0.0
220
0.0
230
-1.0
  0
SOLID
  5
17AE
  8
0
  6
CONTINUOUS
 62
    14
 10
-6.218177794586345
 20
6.2181777945863379
 30
0.0
 11
-11.3083213492021297
 21
6.0146099189682518
 31
0.0
 12
-6.4575146422962408
 22
6.0146099189682518
 32
0.0
 13
-6.4575146422962408
 23
6.0146099189682518
 33
0.0
210
0.0
220
0.0
230
-1.0
  0
SOLID
  5
17AF
  8
0
  6
CONTINUOUS
 62
    14
 10
-6.218177794586345
 20
6.2181777945863379
 30
0.0
 11
-11.4940852578064394
 21
6.2181777945863379
 31
0.0
 12
-11.3083213492021297
 22
6.0146099189682518
 32
0.0
 13
-11.3083213492021297
 23
6.0146099189682518
 33
0.0
210
0.0
220
0.0
230
-1.0
  0
SOLID
  5
17B0
  8
0
  6
CONTINUOUS
 62
    14
 10
-6.4575146422962408
 20
6.0146099189682518
 30
0.0
 11
-11.0435410527300597
 21
5.7956751554289241
 31
0.0
 12
-6.7149184983836347
 22
5.7956751554289241
 32
0.0
 13
-6.7149184983836347
 23
5.7956751554289241
 33
0.0
210
0.0
220
0.0
230
-1.0
  0
SOLID
  5
17B1
  8
0
  6
CONTINUOUS
 62
    14
 10
-6.4575146422962408
 20
6.0146099189682518
 30
0.0
 11
-11.3083213492021297
 21
6.0146099189682518
 31
0.0
 12
-11.0435410527300597
 22
5.7956751554289241
 32
0.0
 13
-11.0435410527300597
 23
5.7956751554289241
 33
0.0
210
0.0
220
0.0
230
-1.0
  0
SOLID
  5
17B2
  8
0
  6
CONTINUOUS
 62
    14
 10
-6.7149184983836347
 20
5.7956751554289241
 30
0.0
 11
-10.8438371825922903
 21
5.6305491238886081
 31
0.0
 12
-6.988573162312
 22
5.6305491238886081
 32
0.0
 13
-6.988573162312
 23
5.6305491238886081
 33
0.0
210
0.0
220
0.0
230
-1.0
  0
SOLID
  5
17B3
  8
0
  6
CONTINUOUS
 62
    14
 10
-6.7149184983836347
 20
5.7956751554289241
 30
0.0
 11
-11.0435410527300597
 21
5.7956751554289241
 31
0.0
 12
-10.8438371825922903
 22
5.6305491238886081
 32
0.0
 13
-10.8438371825922903
 23
5.6305491238886081
 33
0.0
210
0.0
220
0.0
230
-1.0
  0
SOLID
  5
17B4
  8
0
  6
CONTINUOUS
 62
    14
 10
-6.988573162312
 20
5.6305491238886081
 30
0.0
 11
-10.5342318499045202
 21
5.4602481098055149
 31
0.0
 12
-7.2708040518988462
 22
5.4602481098055149
 32
0.0
 13
-7.2708040518988462
 23
5.4602481098055149
 33
0.0
210
0.0
220
0.0
230
-1.0
  0
SOLID
  5
17B5
  8
0
  6
CONTINUOUS
 62
    14
 10
-6.988573162312
 20
5.6305491238886081
 30
0.0
 11
-10.8438371825922903
 21
5.6305491238886081
 31
0.0
 12
-10.5342318499045202
 22
5.4602481098055149
 32
0.0
 13
-10.5342318499045202
 23
5.4602481098055149
 33
0.0
210
0.0
220
0.0
230
-1.0
  0
SOLID
  5
17B6
  8
0
  6
CONTINUOUS
 62
    14
 10
-7.2708040518988462
 20
5.4602481098055149
 30
0.0
 11
-10.3130427608143407
 21
5.3385811932535301
 31
0.0
 12
-7.576371579581525
 22
5.3385811932535301
 32
0.0
 13
-7.576371579581525
 23
5.3385811932535301
 33
0.0
210
0.0
220
0.0
230
-1.0
  0
SOLID
  5
17B7
  8
0
  6
CONTINUOUS
 62
    14
 10
-7.2708040518988462
 20
5.4602481098055149
 30
0.0
 11
-10.5342318499045202
 21
5.4602481098055149
 31
0.0
 12
-10.3130427608143407
 22
5.3385811932535301
 32
0.0
 13
-10.3130427608143407
 23
5.3385811932535301
 33
0.0
210
0.0
220
0.0
230
-1.0
  0
SOLID
  5
17B8
  8
0
  6
CONTINUOUS
 62
    14
 10
-7.576371579581525
 20
5.3385811932535301
 30
0.0
 11
-9.9587063867067602
 21
5.2220884387631177
 31
0.0
 12
-7.8689441538800731
 22
5.2220884387631177
 32
0.0
 13
-7.8689441538800731
 23
5.2220884387631177
 33
0.0
210
0.0
220
0.0
230
-1.0
  0
SOLID
  5
17B9
  8
0
  6
CONTINUOUS
 62
    14
 10
-7.576371579581525
 20
5.3385811932535301
 30
0.0
 11
-10.3130427608143407
 21
5.3385811932535301
 31
0.0
 12
-9.9587063867067602
 22
5.2220884387631177
 32
0.0
 13
-9.9587063867067602
 23
5.2220884387631177
 33
0.0
210
0.0
220
0.0
230
-1.0
  0
SOLID
  5
17BA
  8
0
  6
CONTINUOUS
 62
    14
 10
-7.8689441538800731
 20
5.2220884387631177
 30
0.0
 11
-9.7320660037790798
 21
5.1475774248924644
 31
0.0
 12
-8.2158219610870873
 22
5.1475774248924644
 32
0.0
 13
-8.2158219610870873
 23
5.1475774248924644
 33
0.0
210
0.0
220
0.0
230
-1.0
  0
SOLID
  5
17BB
  8
0
  6
CONTINUOUS
 62
    14
 10
-7.8689441538800731
 20
5.2220884387631177
 30
0.0
 11
-9.9587063867067602
 21
5.2220884387631177
 31
0.0
 12
-9.7320660037790798
 22
5.1475774248924644
 32
0.0
 13
-9.7320660037790798
 23
5.1475774248924644
 33
0.0
210
0.0
220
0.0
230
-1.0
  0
SOLID
  5
17BC
  8
0
  6
CONTINUOUS
 62
    14
 10
-8.4911646200021114
 20
5.0884325033917461
 30
0.0
 11
-9.3013028457479372
 21
5.0884325033917461
 31
0.0
 12
-9.1185595962605941
 22
5.0633413716544906
 32
0.0
 13
-9.1185595962605941
 23
5.0633413716544906
 33
0.0
210
0.0
220
0.0
230
-1.0
  0
SOLID
  5
17BD
  8
0
  6
CONTINUOUS
 62
    14
 10
-8.2158219610870873
 20
5.1475774248924644
 30
0.0
 11
-9.3013028457479372
 21
5.0884325033917461
 31
0.0
 12
-8.4911646200021114
 22
5.0884325033917461
 32
0.0
 13
-8.4911646200021114
 23
5.0884325033917461
 33
0.0
210
0.0
220
0.0
230
-1.0
  0
SOLID
  5
17BE
  8
0
  6
CONTINUOUS
 62
    14
 10
-8.2158219610870873
 20
5.1475774248924644
 30
0.0
 11
-9.7320660037790798
 21
5.1475774248924644
 31
0.0
 12
-9.3013028457479372
 22
5.0884325033917461
 32
0.0
 13
-9.3013028457479372
 23
5.0884325033917461
 33
0.0
210
0.0
220
0.0
230
-1.0
  0
LINE
  5
17BF
  8
0
  6
CONTINUOUS
 62
    14
 10
8.8222356798165613
 20
8.8222356798165631
 30
0.0
 11
9.3484568218760877
 21
8.3625008409542207
 31
0.0
  0
LINE
  5
17C0
  8
0
  6
CONTINUOUS
 62
    14
 10
8.3625008409542207
 20
8.3625008409542207
 30
0.0
 11
8.8222356798165613
 21
8.8222356798165631
 31
0.0
  0
LINE
  5
17C1
  8
0
  6
CONTINUOUS
 62
    14
 10
8.0009301331315221
 20
8.0009301331315221
 30
0.0
 11
8.3625008409542207
 21
8.3625008409542207
 31
0.0
  0
LINE
  5
17C2
  8
0
  6
CONTINUOUS
 62
    14
 10
9.3484568218760877
 20
8.3625008409542207
 30
0.0
 11
9.9377074091940667
 21
8.0009301331315221
 31
0.0
  0
LINE
  5
17C3
  8
0
  6
CONTINUOUS
 62
    14
 10
13.0854187299767908
 20
7.9620276993582593
 30
0.0
 11
12.8918820966516297
 21
7.7499421462694658
 31
0.0
  0
LINE
  5
17C4
  8
0
  6
CONTINUOUS
 62
    14
 10
12.5616797707758892
 20
7.7499421462694658
 30
0.0
 11
13.0854187299767908
 21
7.9620276993582593
 31
0.0
  0
LINE
  5
17C5
  8
0
  6
CONTINUOUS
 62
    14
 10
7.7499421462694684
 20
7.7499421462694658
 30
0.0
 11
8.0009301331315221
 21
8.0009301331315221
 31
0.0
  0
LINE
  5
17C6
  8
0
  6
CONTINUOUS
 62
    14
 10
9.9377074091940667
 20
8.0009301331315221
 30
0.0
 11
10.5697489068275701
 21
7.7499421462694658
 31
0.0
  0
LINE
  5
17C7
  8
0
  6
CONTINUOUS
 62
    14
 10
12.5026863645126394
 20
7.7260530523303323
 30
0.0
 11
12.5616797707758892
 21
7.7499421462694658
 31
0.0
  0
LINE
  5
17C8
  8
0
  6
CONTINUOUS
 62
    14
 10
12.8918820966516297
 20
7.7499421462694658
 30
0.0
 11
12.8700823335520997
 21
7.7260530523303323
 31
0.0
  0
LINE
  5
17C9
  8
0
  6
CONTINUOUS
 62
    14
 10
7.6181573709567649
 20
7.6181573709567632
 30
0.0
 11
7.7499421462694684
 21
7.7499421462694658
 31
0.0
  0
LINE
  5
17CA
  8
0
  6
CONTINUOUS
 62
    14
 10
10.5697489068275701
 20
7.7499421462694658
 30
0.0
 11
11.2228730734773094
 21
7.6181573709567632
 31
0.0
  0
LINE
  5
17CB
  8
0
  6
CONTINUOUS
 62
    14
 10
11.8746475576899506
 20
7.6101021171157326
 30
0.0
 11
12.5026863645126394
 21
7.7260530523303323
 31
0.0
  0
LINE
  5
17CC
  8
0
  6
CONTINUOUS
 62
    14
 10
12.8700823335520997
 20
7.7260530523303323
 30
0.0
 11
12.7642724219126098
 21
7.6101021171157326
 31
0.0
  0
LINE
  5
17CD
  8
0
  6
CONTINUOUS
 62
    14
 10
7.6101021171157353
 20
7.6101021171157326
 30
0.0
 11
7.6181573709567649
 21
7.6181573709567632
 31
0.0
  0
LINE
  5
17CE
  8
0
  6
CONTINUOUS
 62
    14
 10
11.2228730734773094
 20
7.6181573709567632
 30
0.0
 11
11.8746475576899506
 21
7.6101021171157326
 31
0.0
  0
LINE
  5
17CF
  8
0
  6
CONTINUOUS
 62
    14
 10
6.218177794586345
 20
6.2181777945863379
 30
0.0
 11
7.6101021171157353
 21
7.6101021171157326
 31
0.0
  0
LINE
  5
17D0
  8
0
  6
CONTINUOUS
 62
    14
 10
12.7642724219126098
 20
7.6101021171157326
 30
0.0
 11
11.4940852578064394
 21
6.2181777945863379
 31
0.0
  0
LINE
  5
17D1
  8
0
  6
CONTINUOUS
 62
    14
 10
6.4575146422962408
 20
6.0146099189682518
 30
0.0
 11
6.218177794586345
 21
6.2181777945863379
 31
0.0
  0
LINE
  5
17D2
  8
0
  6
CONTINUOUS
 62
    14
 10
11.4940852578064394
 20
6.2181777945863379
 30
0.0
 11
11.3083213492021297
 21
6.0146099189682518
 31
0.0
  0
LINE
  5
17D3
  8
0
  6
CONTINUOUS
 62
    14
 10
6.7149184983836347
 20
5.7956751554289241
 30
0.0
 11
6.4575146422962408
 21
6.0146099189682518
 31
0.0
  0
LINE
  5
17D4
  8
0
  6
CONTINUOUS
 62
    14
 10
11.3083213492021297
 20
6.0146099189682518
 30
0.0
 11
11.0435410527300597
 21
5.7956751554289241
 31
0.0
  0
LINE
  5
17D5
  8
0
  6
CONTINUOUS
 62
    14
 10
6.988573162312
 20
5.6305491238886081
 30
0.0
 11
6.7149184983836347
 21
5.7956751554289241
 31
0.0
  0
LINE
  5
17D6
  8
0
  6
CONTINUOUS
 62
    14
 10
11.0435410527300597
 20
5.7956751554289241
 30
0.0
 11
10.8438371825922903
 21
5.6305491238886081
 31
0.0
  0
LINE
  5
17D7
  8
0
  6
CONTINUOUS
 62
    14
 10
7.2708040518988462
 20
5.4602481098055149
 30
0.0
 11
6.988573162312
 21
5.6305491238886081
 31
0.0
  0
LINE
  5
17D8
  8
0
  6
CONTINUOUS
 62
    14
 10
10.8438371825922903
 20
5.6305491238886081
 30
0.0
 11
10.5342318499045202
 21
5.4602481098055149
 31
0.0
  0
LINE
  5
17D9
  8
0
  6
CONTINUOUS
 62
    14
 10
7.576371579581525
 20
5.3385811932535301
 30
0.0
 11
7.2708040518988462
 21
5.4602481098055149
 31
0.0
  0
LINE
  5
17DA
  8
0
  6
CONTINUOUS
 62
    14
 10
10.5342318499045202
 20
5.4602481098055149
 30
0.0
 11
10.3130427608143407
 21
5.3385811932535301
 31
0.0
  0
LINE
  5
17DB
  8
0
  6
CONTINUOUS
 62
    14
 10
7.8689441538800731
 20
5.2220884387631177
 30
0.0
 11
7.576371579581525
 21
5.3385811932535301
 31
0.0
  0
LINE
  5
17DC
  8
0
  6
CONTINUOUS
 62
    14
 10
10.3130427608143407
 20
5.3385811932535301
 30
0.0
 11
9.9587063867067602
 21
5.2220884387631177
 31
0.0
  0
LINE
  5
17DD
  8
0
  6
CONTINUOUS
 62
    14
 10
8.2158219610870873
 20
5.1475774248924644
 30
0.0
 11
7.8689441538800731
 21
5.2220884387631177
 31
0.0
  0
LINE
  5
17DE
  8
0
  6
CONTINUOUS
 62
    14
 10
9.9587063867067602
 20
5.2220884387631177
 30
0.0
 11
9.7320660037790798
 21
5.1475774248924644
 31
0.0
  0
LINE
  5
17DF
  8
0
  6
CONTINUOUS
 62
    14
 10
9.3013028457479372
 20
5.0884325033917461
 30
0.0
 11
9.1185595962605941
 21
5.0633413716544906
 31
0.0
  0
LINE
  5
17E0
  8
0
  6
CONTINUOUS
 62
    14
 10
9.1185595962605941
 20
5.0633413716544906
 30
0.0
 11
8.4911646200021114
 21
5.0884325033917461
 31
0.0
  0
LINE
  5
17E1
  8
0
  6
CONTINUOUS
 62
    14
 10
8.4911646200021114
 20
5.0884325033917461
 30
0.0
 11
8.2158219610870873
 21
5.1475774248924644
 31
0.0
  0
LINE
  5
17E2
  8
0
  6
CONTINUOUS
 62
    14
 10
9.7320660037790798
 20
5.1475774248924644
 30
0.0
 11
9.3013028457479372
 21
5.0884325033917461
 31
0.0
  0
ENDBLK
  5
17E4
  8
0
  0
BLOCK
  8
0
  2
*U12
 70
     1
 10
0.0
 20
0.0
 30
0.0
  3
*U12
  1

  0
SOLID
  5
17E6
  8
0
  6
CONTINUOUS
 62
    16
 10
-10.2023210115138898
 20
10.2023210115138898
 30
0.0
 11
-10.8600008567338708
 21
9.6321228170441362
 31
0.0
 12
-9.6321228170441415
 22
9.6321228170441362
 32
0.0
 13
-9.6321228170441415
 23
9.6321228170441362
 33
0.0
210
0.0
220
0.0
230
-1.0
  0
SOLID
  5
17E7
  8
0
  6
CONTINUOUS
 62
    16
 10
-16.6170093578838589
 20
9.5459415460183816
 30
0.0
 11
-16.572417931430401
 21
9.5009940400166002
 31
0.0
 12
-16.5612416069333506
 22
9.5009940400166002
 32
0.0
 13
-16.5612416069333506
 23
9.5009940400166002
 33
0.0
210
0.0
220
0.0
230
-1.0
  0
SOLID
  5
17E8
  8
0
  6
CONTINUOUS
 62
    16
 10
-9.6321228170441415
 20
9.6321228170441362
 30
0.0
 11
-11.0643272412363203
 21
9.5009940400166002
 31
0.0
 12
-9.5009940400166037
 22
9.5009940400166002
 32
0.0
 13
-9.5009940400166037
 23
9.5009940400166002
 33
0.0
210
0.0
220
0.0
230
-1.0
  0
SOLID
  5
17E9
  8
0
  6
CONTINUOUS
 62
    16
 10
-9.6321228170441415
 20
9.6321228170441362
 30
0.0
 11
-10.8600008567338708
 21
9.6321228170441362
 31
0.0
 12
-11.0643272412363203
 22
9.5009940400166002
 32
0.0
 13
-11.0643272412363203
 23
9.5009940400166002
 33
0.0
210
0.0
220
0.0
230
-1.0
  0
SOLID
  5
17EA
  8
0
  6
CONTINUOUS
 62
    16
 10
-9.5009940400166037
 20
9.5009940400166002
 30
0.0
 11
-11.5851790834091393
 21
9.1667314569293907
 31
0.0
 12
-9.9057485983697635
 22
9.1667314569293907
 32
0.0
 13
-9.9057485983697635
 23
9.1667314569293907
 33
0.0
210
0.0
220
0.0
230
-1.0
  0
SOLID
  5
17EB
  8
0
  6
CONTINUOUS
 62
    16
 10
-9.5009940400166037
 20
9.5009940400166002
 30
0.0
 11
-11.0643272412363203
 21
9.5009940400166002
 31
0.0
 12
-11.5851790834091393
 22
9.1667314569293907
 32
0.0
 13
-11.5851790834091393
 23
9.1667314569293907
 33
0.0
210
0.0
220
0.0
230
-1.0
  0
SOLID
  5
17EC
  8
0
  6
CONTINUOUS
 62
    16
 10
-16.5612416069333506
 20
9.5009940400166002
 30
0.0
 11
-16.1742973645392105
 21
9.0996943285474465
 31
0.0
 12
-16.0633367317476399
 22
9.0996943285474465
 32
0.0
 13
-16.0633367317476399
 23
9.0996943285474465
 33
0.0
210
0.0
220
0.0
230
-1.0
  0
SOLID
  5
17ED
  8
0
  6
CONTINUOUS
 62
    16
 10
-16.5612416069333506
 20
9.5009940400166002
 30
0.0
 11
-16.572417931430401
 21
9.5009940400166002
 31
0.0
 12
-16.1742973645392105
 22
9.0996943285474465
 32
0.0
 13
-16.1742973645392105
 23
9.0996943285474465
 33
0.0
210
0.0
220
0.0
230
-1.0
  0
SOLID
  5
17EE
  8
0
  6
CONTINUOUS
 62
    16
 10
-16.0633367317476399
 20
9.0996943285474465
 30
0.0
 11
-16.0217161686967913
 21
8.9458947136586264
 31
0.0
 12
-15.7586931061107691
 22
8.9458947136586264
 32
0.0
 13
-15.7586931061107691
 23
8.9458947136586264
 33
0.0
210
0.0
220
0.0
230
-1.0
  0
SOLID
  5
17EF
  8
0
  6
CONTINUOUS
 62
    16
 10
-16.0633367317476399
 20
9.0996943285474465
 30
0.0
 11
-16.1742973645392105
 21
9.0996943285474465
 31
0.0
 12
-16.0217161686967913
 22
8.9458947136586264
 32
0.0
 13
-16.0217161686967913
 23
8.9458947136586264
 33
0.0
210
0.0
220
0.0
230
-1.0
  0
SOLID
  5
17F0
  8
0
  6
CONTINUOUS
 62
    16
 10
-9.9057485983697635
 20
9.1667314569293907
 30
0.0
 11
-12.1579673368827006
 21
8.9092333542404116
 31
0.0
 12
-10.2175499668270309
 22
8.9092333542404116
 32
0.0
 13
-10.2175499668270309
 23
8.9092333542404116
 33
0.0
210
0.0
220
0.0
230
-1.0
  0
SOLID
  5
17F1
  8
0
  6
CONTINUOUS
 62
    16
 10
-9.9057485983697635
 20
9.1667314569293907
 30
0.0
 11
-11.5851790834091393
 21
9.1667314569293907
 31
0.0
 12
-12.1579673368827006
 22
8.9092333542404116
 32
0.0
 13
-12.1579673368827006
 23
8.9092333542404116
 33
0.0
210
0.0
220
0.0
230
-1.0
  0
SOLID
  5
17F2
  8
0
  6
CONTINUOUS
 62
    16
 10
-10.2175499668270309
 20
8.9092333542404116
 30
0.0
 11
-12.3558215180800701
 21
8.8202876121473324
 31
0.0
 12
-10.3724145934895695
 22
8.8202876121473324
 32
0.0
 13
-10.3724145934895695
 23
8.8202876121473324
 33
0.0
210
0.0
220
0.0
230
-1.0
  0
SOLID
  5
17F3
  8
0
  6
CONTINUOUS
 62
    16
 10
-10.2175499668270309
 20
8.9092333542404116
 30
0.0
 11
-12.1579673368827006
 21
8.9092333542404116
 31
0.0
 12
-12.3558215180800701
 22
8.8202876121473324
 32
0.0
 13
-12.3558215180800701
 23
8.8202876121473324
 33
0.0
210
0.0
220
0.0
230
-1.0
  0
SOLID
  5
17F4
  8
0
  6
CONTINUOUS
 62
    16
 10
-15.7586931061107691
 20
8.9458947136586264
 30
0.0
 11
-15.7637706166231002
 21
8.7744315156326671
 31
0.0
 12
-15.4190617595194102
 22
8.7744315156326671
 32
0.0
 13
-15.4190617595194102
 23
8.7744315156326671
 33
0.0
210
0.0
220
0.0
230
-1.0
  0
SOLID
  5
17F5
  8
0
  6
CONTINUOUS
 62
    16
 10
-15.7586931061107691
 20
8.9458947136586264
 30
0.0
 11
-16.0217161686967913
 21
8.9458947136586264
 31
0.0
 12
-15.7637706166231002
 22
8.7744315156326671
 32
0.0
 13
-15.7637706166231002
 23
8.7744315156326671
 33
0.0
210
0.0
220
0.0
230
-1.0
  0
SOLID
  5
17F6
  8
0
  6
CONTINUOUS
 62
    16
 10
-10.3724145934895695
 20
8.8202876121473324
 30
0.0
 11
-13.14851258033306
 21
8.6033178036126241
 31
0.0
 12
-10.7501836424071406
 22
8.6033178036126241
 32
0.0
 13
-10.7501836424071406
 23
8.6033178036126241
 33
0.0
210
0.0
220
0.0
230
-1.0
  0
SOLID
  5
17F7
  8
0
  6
CONTINUOUS
 62
    16
 10
-10.3724145934895695
 20
8.8202876121473324
 30
0.0
 11
-12.3558215180800701
 21
8.8202876121473324
 31
0.0
 12
-13.14851258033306
 22
8.6033178036126241
 32
0.0
 13
-13.14851258033306
 23
8.6033178036126241
 33
0.0
210
0.0
220
0.0
230
-1.0
  0
SOLID
  5
17F8
  8
0
  6
CONTINUOUS
 62
    16
 10
-15.4190617595194102
 20
8.7744315156326671
 30
0.0
 11
-15.4713262586424705
 21
8.5800360532535276
 31
0.0
 12
-14.7037604102114692
 22
8.5800360532535276
 32
0.0
 13
-14.7037604102114692
 23
8.5800360532535276
 33
0.0
210
0.0
220
0.0
230
-1.0
  0
SOLID
  5
17F9
  8
0
  6
CONTINUOUS
 62
    16
 10
-15.4190617595194102
 20
8.7744315156326671
 30
0.0
 11
-15.7637706166231002
 21
8.7744315156326671
 31
0.0
 12
-15.4713262586424705
 22
8.5800360532535276
 32
0.0
 13
-15.4713262586424705
 23
8.5800360532535276
 33
0.0
210
0.0
220
0.0
230
-1.0
  0
SOLID
  5
17FA
  8
0
  6
CONTINUOUS
 62
    16
 10
-14.7037604102114692
 20
8.5800360532535276
 30
0.0
 11
-15.3846417056048299
 21
8.5224145491655712
 31
0.0
 12
-13.9391667533625903
 22
8.5224145491655712
 32
0.0
 13
-13.9391667533625903
 23
8.5224145491655712
 33
0.0
210
0.0
220
0.0
230
-1.0
  0
SOLID
  5
17FB
  8
0
  6
CONTINUOUS
 62
    16
 10
-14.7037604102114692
 20
8.5800360532535276
 30
0.0
 11
-15.4713262586424705
 21
8.5800360532535276
 31
0.0
 12
-15.3846417056048299
 22
8.5224145491655712
 32
0.0
 13
-15.3846417056048299
 23
8.5224145491655712
 33
0.0
210
0.0
220
0.0
230
-1.0
  0
SOLID
  5
17FC
  8
0
  6
CONTINUOUS
 62
    16
 10
-10.7501836424071406
 20
8.6033178036126241
 30
0.0
 11
-13.9391667533625903
 21
8.5224145491655712
 31
0.0
 12
-10.8910453857676703
 22
8.5224145491655712
 32
0.0
 13
-10.8910453857676703
 23
8.5224145491655712
 33
0.0
210
0.0
220
0.0
230
-1.0
  0
SOLID
  5
17FD
  8
0
  6
CONTINUOUS
 62
    16
 10
-10.7501836424071406
 20
8.6033178036126241
 30
0.0
 11
-13.14851258033306
 21
8.6033178036126241
 31
0.0
 12
-13.9391667533625903
 22
8.5224145491655712
 32
0.0
 13
-13.9391667533625903
 23
8.5224145491655712
 33
0.0
210
0.0
220
0.0
230
-1.0
  0
SOLID
  5
17FE
  8
0
  6
CONTINUOUS
 62
    16
 10
-10.8910453857676703
 20
8.5224145491655712
 30
0.0
 11
-15.3138973588658907
 21
8.4753889197775099
 31
0.0
 12
-10.9729223409470595
 22
8.4753889197775099
 32
0.0
 13
-10.9729223409470595
 23
8.4753889197775099
 33
0.0
210
0.0
220
0.0
230
-1.0
  0
SOLID
  5
17FF
  8
0
  6
CONTINUOUS
 62
    16
 10
-10.8910453857676703
 20
8.5224145491655712
 30
0.0
 11
-15.3846417056048299
 21
8.5224145491655712
 31
0.0
 12
-15.3138973588658907
 22
8.4753889197775099
 32
0.0
 13
-15.3138973588658907
 23
8.4753889197775099
 33
0.0
210
0.0
220
0.0
230
-1.0
  0
SOLID
  5
1800
  8
0
  6
CONTINUOUS
 62
    16
 10
-10.9729223409470595
 20
8.4753889197775099
 30
0.0
 11
-15.2474340394864605
 21
8.4482679065929815
 31
0.0
 12
-11.0201431014095093
 22
8.4482679065929815
 32
0.0
 13
-11.0201431014095093
 23
8.4482679065929815
 33
0.0
210
0.0
220
0.0
230
-1.0
  0
SOLID
  5
1801
  8
0
  6
CONTINUOUS
 62
    16
 10
-10.9729223409470595
 20
8.4753889197775099
 30
0.0
 11
-15.3138973588658907
 21
8.4753889197775099
 31
0.0
 12
-15.2474340394864605
 22
8.4482679065929815
 32
0.0
 13
-15.2474340394864605
 23
8.4482679065929815
 33
0.0
210
0.0
220
0.0
230
-1.0
  0
SOLID
  5
1802
  8
0
  6
CONTINUOUS
 62
    16
 10
-11.0201431014095093
 20
8.4482679065929815
 30
0.0
 11
-14.5177676906839093
 21
8.1505203542444704
 31
0.0
 12
-11.8357026462301107
 22
8.1505203542444704
 32
0.0
 13
-11.8357026462301107
 23
8.1505203542444704
 33
0.0
210
0.0
220
0.0
230
-1.0
  0
SOLID
  5
1803
  8
0
  6
CONTINUOUS
 62
    16
 10
-11.0201431014095093
 20
8.4482679065929815
 30
0.0
 11
-15.2474340394864605
 21
8.4482679065929815
 31
0.0
 12
-14.5177676906839093
 22
8.1505203542444704
 32
0.0
 13
-14.5177676906839093
 23
8.1505203542444704
 33
0.0
210
0.0
220
0.0
230
-1.0
  0
SOLID
  5
1804
  8
0
  6
CONTINUOUS
 62
    16
 10
-11.8357026462301107
 20
8.1505203542444704
 30
0.0
 11
-14.4328574310653792
 21
8.1338675079142195
 31
0.0
 12
-11.8813164142222991
 22
8.1338675079142195
 32
0.0
 13
-11.8813164142222991
 23
8.1338675079142195
 33
0.0
210
0.0
220
0.0
230
-1.0
  0
SOLID
  5
1805
  8
0
  6
CONTINUOUS
 62
    16
 10
-11.8357026462301107
 20
8.1505203542444704
 30
0.0
 11
-14.5177676906839093
 21
8.1505203542444704
 31
0.0
 12
-14.4328574310653792
 22
8.1338675079142195
 32
0.0
 13
-14.4328574310653792
 23
8.1338675079142195
 33
0.0
210
0.0
220
0.0
230
-1.0
  0
SOLID
  5
1806
  8
0
  6
CONTINUOUS
 62
    16
 10
-12.7397843636904007
 20
7.9824028995694301
 30
0.0
 11
-13.6605630759428394
 21
7.9824028995694301
 31
0.0
 12
-12.7716088245862807
 22
7.9767879205729919
 32
0.0
 13
-12.7716088245862807
 23
7.9767879205729919
 33
0.0
210
0.0
220
0.0
230
-1.0
  0
SOLID
  5
1807
  8
0
  6
CONTINUOUS
 62
    16
 10
-11.8813164142222991
 20
8.1338675079142195
 30
0.0
 11
-13.6605630759428394
 21
7.9824028995694301
 31
0.0
 12
-12.7397843636904007
 22
7.9824028995694301
 32
0.0
 13
-12.7397843636904007
 23
7.9824028995694301
 33
0.0
210
0.0
220
0.0
230
-1.0
  0
SOLID
  5
1808
  8
0
  6
CONTINUOUS
 62
    16
 10
-11.8813164142222991
 20
8.1338675079142195
 30
0.0
 11
-14.4328574310653792
 21
8.1338675079142195
 31
0.0
 12
-13.6605630759428394
 22
7.9824028995694301
 32
0.0
 13
-13.6605630759428394
 23
7.9824028995694301
 33
0.0
210
0.0
220
0.0
230
-1.0
  0
LINE
  5
1809
  8
0
  6
CONTINUOUS
 62
    16
 10
10.2023210115138898
 20
10.2023210115138898
 30
0.0
 11
10.8600008567338708
 21
9.6321228170441362
 31
0.0
  0
LINE
  5
180A
  8
0
  6
CONTINUOUS
 62
    16
 10
9.6321228170441415
 20
9.6321228170441362
 30
0.0
 11
10.2023210115138898
 21
10.2023210115138898
 31
0.0
  0
LINE
  5
180B
  8
0
  6
CONTINUOUS
 62
    16
 10
16.6170093578838589
 20
9.5459415460183816
 30
0.0
 11
16.572417931430401
 21
9.5009940400166002
 31
0.0
  0
LINE
  5
180C
  8
0
  6
CONTINUOUS
 62
    16
 10
16.5612416069333506
 20
9.5009940400166002
 30
0.0
 11
16.6170093578838589
 21
9.5459415460183816
 31
0.0
  0
LINE
  5
180D
  8
0
  6
CONTINUOUS
 62
    16
 10
9.5009940400166037
 20
9.5009940400166002
 30
0.0
 11
9.6321228170441415
 21
9.6321228170441362
 31
0.0
  0
LINE
  5
180E
  8
0
  6
CONTINUOUS
 62
    16
 10
10.8600008567338708
 20
9.6321228170441362
 30
0.0
 11
11.0643272412363203
 21
9.5009940400166002
 31
0.0
  0
LINE
  5
180F
  8
0
  6
CONTINUOUS
 62
    16
 10
9.9057485983697635
 20
9.1667314569293907
 30
0.0
 11
9.5009940400166037
 21
9.5009940400166002
 31
0.0
  0
LINE
  5
1810
  8
0
  6
CONTINUOUS
 62
    16
 10
11.0643272412363203
 20
9.5009940400166002
 30
0.0
 11
11.5851790834091393
 21
9.1667314569293907
 31
0.0
  0
LINE
  5
1811
  8
0
  6
CONTINUOUS
 62
    16
 10
16.0633367317476399
 20
9.0996943285474465
 30
0.0
 11
16.5612416069333506
 21
9.5009940400166002
 31
0.0
  0
LINE
  5
1812
  8
0
  6
CONTINUOUS
 62
    16
 10
16.572417931430401
 20
9.5009940400166002
 30
0.0
 11
16.1742973645392105
 21
9.0996943285474465
 31
0.0
  0
LINE
  5
1813
  8
0
  6
CONTINUOUS
 62
    16
 10
15.7586931061107691
 20
8.9458947136586264
 30
0.0
 11
16.0633367317476399
 21
9.0996943285474465
 31
0.0
  0
LINE
  5
1814
  8
0
  6
CONTINUOUS
 62
    16
 10
16.1742973645392105
 20
9.0996943285474465
 30
0.0
 11
16.0217161686967913
 21
8.9458947136586264
 31
0.0
  0
LINE
  5
1815
  8
0
  6
CONTINUOUS
 62
    16
 10
10.2175499668270309
 20
8.9092333542404116
 30
0.0
 11
9.9057485983697635
 21
9.1667314569293907
 31
0.0
  0
LINE
  5
1816
  8
0
  6
CONTINUOUS
 62
    16
 10
11.5851790834091393
 20
9.1667314569293907
 30
0.0
 11
12.1579673368827006
 21
8.9092333542404116
 31
0.0
  0
LINE
  5
1817
  8
0
  6
CONTINUOUS
 62
    16
 10
10.3724145934895695
 20
8.8202876121473324
 30
0.0
 11
10.2175499668270309
 21
8.9092333542404116
 31
0.0
  0
LINE
  5
1818
  8
0
  6
CONTINUOUS
 62
    16
 10
12.1579673368827006
 20
8.9092333542404116
 30
0.0
 11
12.3558215180800701
 21
8.8202876121473324
 31
0.0
  0
LINE
  5
1819
  8
0
  6
CONTINUOUS
 62
    16
 10
15.4190617595194102
 20
8.7744315156326671
 30
0.0
 11
15.7586931061107691
 21
8.9458947136586264
 31
0.0
  0
LINE
  5
181A
  8
0
  6
CONTINUOUS
 62
    16
 10
16.0217161686967913
 20
8.9458947136586264
 30
0.0
 11
15.7637706166231002
 21
8.7744315156326671
 31
0.0
  0
LINE
  5
181B
  8
0
  6
CONTINUOUS
 62
    16
 10
10.7501836424071406
 20
8.6033178036126241
 30
0.0
 11
10.3724145934895695
 21
8.8202876121473324
 31
0.0
  0
LINE
  5
181C
  8
0
  6
CONTINUOUS
 62
    16
 10
12.3558215180800701
 20
8.8202876121473324
 30
0.0
 11
13.14851258033306
 21
8.6033178036126241
 31
0.0
  0
LINE
  5
181D
  8
0
  6
CONTINUOUS
 62
    16
 10
14.7037604102114692
 20
8.5800360532535276
 30
0.0
 11
15.4190617595194102
 21
8.7744315156326671
 31
0.0
  0
LINE
  5
181E
  8
0
  6
CONTINUOUS
 62
    16
 10
15.7637706166231002
 20
8.7744315156326671
 30
0.0
 11
15.4713262586424705
 21
8.5800360532535276
 31
0.0
  0
LINE
  5
181F
  8
0
  6
CONTINUOUS
 62
    16
 10
13.9391667533625903
 20
8.5224145491655712
 30
0.0
 11
14.7037604102114692
 21
8.5800360532535276
 31
0.0
  0
LINE
  5
1820
  8
0
  6
CONTINUOUS
 62
    16
 10
15.4713262586424705
 20
8.5800360532535276
 30
0.0
 11
15.3846417056048299
 21
8.5224145491655712
 31
0.0
  0
LINE
  5
1821
  8
0
  6
CONTINUOUS
 62
    16
 10
10.8910453857676703
 20
8.5224145491655712
 30
0.0
 11
10.7501836424071406
 21
8.6033178036126241
 31
0.0
  0
LINE
  5
1822
  8
0
  6
CONTINUOUS
 62
    16
 10
13.14851258033306
 20
8.6033178036126241
 30
0.0
 11
13.9391667533625903
 21
8.5224145491655712
 31
0.0
  0
LINE
  5
1823
  8
0
  6
CONTINUOUS
 62
    16
 10
10.9729223409470595
 20
8.4753889197775099
 30
0.0
 11
10.8910453857676703
 21
8.5224145491655712
 31
0.0
  0
LINE
  5
1824
  8
0
  6
CONTINUOUS
 62
    16
 10
15.3846417056048299
 20
8.5224145491655712
 30
0.0
 11
15.3138973588658907
 21
8.4753889197775099
 31
0.0
  0
LINE
  5
1825
  8
0
  6
CONTINUOUS
 62
    16
 10
11.0201431014095093
 20
8.4482679065929815
 30
0.0
 11
10.9729223409470595
 21
8.4753889197775099
 31
0.0
  0
LINE
  5
1826
  8
0
  6
CONTINUOUS
 62
    16
 10
15.3138973588658907
 20
8.4753889197775099
 30
0.0
 11
15.2474340394864605
 21
8.4482679065929815
 31
0.0
  0
LINE
  5
1827
  8
0
  6
CONTINUOUS
 62
    16
 10
11.8357026462301107
 20
8.1505203542444704
 30
0.0
 11
11.0201431014095093
 21
8.4482679065929815
 31
0.0
  0
LINE
  5
1828
  8
0
  6
CONTINUOUS
 62
    16
 10
15.2474340394864605
 20
8.4482679065929815
 30
0.0
 11
14.5177676906839093
 21
8.1505203542444704
 31
0.0
  0
LINE
  5
1829
  8
0
  6
CONTINUOUS
 62
    16
 10
11.8813164142222991
 20
8.1338675079142195
 30
0.0
 11
11.8357026462301107
 21
8.1505203542444704
 31
0.0
  0
LINE
  5
182A
  8
0
  6
CONTINUOUS
 62
    16
 10
14.5177676906839093
 20
8.1505203542444704
 30
0.0
 11
14.4328574310653792
 21
8.1338675079142195
 31
0.0
  0
LINE
  5
182B
  8
0
  6
CONTINUOUS
 62
    16
 10
13.6605630759428394
 20
7.9824028995694301
 30
0.0
 11
12.7716088245862807
 21
7.9767879205729919
 31
0.0
  0
LINE
  5
182C
  8
0
  6
CONTINUOUS
 62
    16
 10
12.7716088245862807
 20
7.9767879205729919
 30
0.0
 11
12.7397843636904007
 21
7.9824028995694301
 31
0.0
  0
LINE
  5
182D
  8
0
  6
CONTINUOUS
 62
    16
 10
12.7397843636904007
 20
7.9824028995694301
 30
0.0
 11
11.8813164142222991
 21
8.1338675079142195
 31
0.0
  0
LINE
  5
182E
  8
0
  6
CONTINUOUS
 62
    16
 10
14.4328574310653792
 20
8.1338675079142195
 30
0.0
 11
13.6605630759428394
 21
7.9824028995694301
 31
0.0
  0
ENDBLK
  5
1830
  8
0
  0
BLOCK
  8
0
  2
*U13
 70
     1
 10
0.0
 20
0.0
 30
0.0
  3
*U13
  1

  0
SOLID
  5
1832
  8
0
  6
CONTINUOUS
 62
     1
 10
-12.5095332715143108
 20
17.6271057327104792
 30
0.0
 11
-12.5950660055762
 21
17.6123442510203709
 31
0.0
 12
-11.6637834733997003
 22
17.6123442510203709
 32
0.0
 13
-11.6637834733997003
 23
17.6123442510203709
 33
0.0
210
0.0
220
0.0
230
-1.0
  0
SOLID
  5
1833
  8
0
  6
CONTINUOUS
 62
     1
 10
-11.6637834733997003
 20
17.6123442510203709
 30
0.0
 11
-13.3759545502107198
 21
17.4775762925297684
 31
0.0
 12
-11.0639892995975107
 22
17.4775762925297684
 32
0.0
 13
-11.0639892995975107
 23
17.4775762925297684
 33
0.0
210
0.0
220
0.0
230
-1.0
  0
SOLID
  5
1834
  8
0
  6
CONTINUOUS
 62
     1
 10
-11.6637834733997003
 20
17.6123442510203709
 30
0.0
 11
-12.5950660055762
 21
17.6123442510203709
 31
0.0
 12
-13.3759545502107198
 22
17.4775762925297684
 32
0.0
 13
-13.3759545502107198
 23
17.4775762925297684
 33
0.0
210
0.0
220
0.0
230
-1.0
  0
SOLID
  5
1835
  8
0
  6
CONTINUOUS
 62
     1
 10
-11.0639892995975107
 20
17.4775762925297684
 30
0.0
 11
-13.4973525475232901
 21
17.4338253658683797
 31
0.0
 12
-10.8692727571503607
 22
17.4338253658683797
 32
0.0
 13
-10.8692727571503607
 23
17.4338253658683797
 33
0.0
210
0.0
220
0.0
230
-1.0
  0
SOLID
  5
1836
  8
0
  6
CONTINUOUS
 62
     1
 10
-11.0639892995975107
 20
17.4775762925297684
 30
0.0
 11
-13.3759545502107198
 21
17.4775762925297684
 31
0.0
 12
-13.4973525475232901
 22
17.4338253658683797
 32
0.0
 13
-13.4973525475232901
 23
17.4338253658683797
 33
0.0
210
0.0
220
0.0
230
-1.0
  0
SOLID
  5
1837
  8
0
  6
CONTINUOUS
 62
     1
 10
-10.8692727571503607
 20
17.4338253658683797
 30
0.0
 11
-14.2317325870382305
 21
17.1691603140415303
 31
0.0
 12
-10.3061268779728099
 22
17.1691603140415303
 32
0.0
 13
-10.3061268779728099
 23
17.1691603140415303
 33
0.0
210
0.0
220
0.0
230
-1.0
  0
SOLID
  5
1838
  8
0
  6
CONTINUOUS
 62
     1
 10
-10.8692727571503607
 20
17.4338253658683797
 30
0.0
 11
-13.4973525475232901
 21
17.4338253658683797
 31
0.0
 12
-14.2317325870382305
 22
17.1691603140415303
 32
0.0
 13
-14.2317325870382305
 23
17.1691603140415303
 33
0.0
210
0.0
220
0.0
230
-1.0
  0
SOLID
  5
1839
  8
0
  6
CONTINUOUS
 62
     1
 10
-10.3061268779728099
 20
17.1691603140415303
 30
0.0
 11
-14.35874644246773
 21
17.0980012148903313
 31
0.0
 12
-10.1547168101290204
 22
17.0980012148903313
 32
0.0
 13
-10.1547168101290204
 23
17.0980012148903313
 33
0.0
210
0.0
220
0.0
230
-1.0
  0
SOLID
  5
183A
  8
0
  6
CONTINUOUS
 62
     1
 10
-10.3061268779728099
 20
17.1691603140415303
 30
0.0
 11
-14.2317325870382305
 21
17.1691603140415303
 31
0.0
 12
-14.35874644246773
 22
17.0980012148903313
 32
0.0
 13
-14.35874644246773
 23
17.0980012148903313
 33
0.0
210
0.0
220
0.0
230
-1.0
  0
SOLID
  5
183B
  8
0
  6
CONTINUOUS
 62
     1
 10
-10.1547168101290204
 20
17.0980012148903313
 30
0.0
 11
-15.0459373340379496
 21
16.7130047542783089
 31
0.0
 12
-9.667439700180811
 22
16.7130047542783089
 32
0.0
 13
-9.667439700180811
 23
16.7130047542783089
 33
0.0
210
0.0
220
0.0
230
-1.0
  0
SOLID
  5
183C
  8
0
  6
CONTINUOUS
 62
     1
 10
-10.1547168101290204
 20
17.0980012148903313
 30
0.0
 11
-14.35874644246773
 21
17.0980012148903313
 31
0.0
 12
-15.0459373340379496
 22
16.7130047542783089
 32
0.0
 13
-15.0459373340379496
 23
16.7130047542783089
 33
0.0
210
0.0
220
0.0
230
-1.0
  0
SOLID
  5
183D
  8
0
  6
CONTINUOUS
 62
     1
 10
-9.667439700180811
 20
16.7130047542783089
 30
0.0
 11
-15.1673931206678496
 21
16.6170093578838589
 31
0.0
 12
-9.5459415460183923
 22
16.6170093578838589
 32
0.0
 13
-9.5459415460183923
 23
16.6170093578838589
 33
0.0
210
0.0
220
0.0
230
-1.0
  0
SOLID
  5
183E
  8
0
  6
CONTINUOUS
 62
     1
 10
-9.667439700180811
 20
16.7130047542783089
 30
0.0
 11
-15.0459373340379496
 21
16.7130047542783089
 31
0.0
 12
-15.1673931206678496
 22
16.6170093578838589
 32
0.0
 13
-15.1673931206678496
 23
16.6170093578838589
 33
0.0
210
0.0
220
0.0
230
-1.0
  0
SOLID
  5
183F
  8
0
  6
CONTINUOUS
 62
     1
 10
-9.5459415460183923
 20
16.6170093578838589
 30
0.0
 11
-15.7891413102635401
 21
16.1255962636716887
 31
0.0
 12
-9.1576772542887976
 22
16.1255962636716887
 32
0.0
 13
-9.1576772542887976
 23
16.1255962636716887
 33
0.0
210
0.0
220
0.0
230
-1.0
  0
SOLID
  5
1840
  8
0
  6
CONTINUOUS
 62
     1
 10
-9.5459415460183923
 20
16.6170093578838589
 30
0.0
 11
-15.1673931206678496
 21
16.6170093578838589
 31
0.0
 12
-15.7891413102635401
 22
16.1255962636716887
 32
0.0
 13
-15.7891413102635401
 23
16.1255962636716887
 33
0.0
210
0.0
220
0.0
230
-1.0
  0
SOLID
  5
1841
  8
0
  6
CONTINUOUS
 62
     1
 10
-9.1576772542887976
 20
16.1255962636716887
 30
0.0
 11
-15.8977380441141296
 21
16.008234093773229
 31
0.0
 12
-9.0649496890119181
 22
16.008234093773229
 32
0.0
 13
-9.0649496890119181
 23
16.008234093773229
 33
0.0
210
0.0
220
0.0
230
-1.0
  0
SOLID
  5
1842
  8
0
  6
CONTINUOUS
 62
     1
 10
-9.1576772542887976
 20
16.1255962636716887
 30
0.0
 11
-15.7891413102635401
 21
16.1255962636716887
 31
0.0
 12
-15.8977380441141296
 22
16.008234093773229
 32
0.0
 13
-15.8977380441141296
 23
16.008234093773229
 33
0.0
210
0.0
220
0.0
230
-1.0
  0
SOLID
  5
1843
  8
0
  6
CONTINUOUS
 62
     1
 10
-9.0649496890119181
 20
16.008234093773229
 30
0.0
 11
-16.4344831876151503
 21
15.4281653155500695
 31
0.0
 12
-8.7923312806595604
 22
15.4281653155500695
 32
0.0
 13
-8.7923312806595604
 23
15.4281653155500695
 33
0.0
210
0.0
220
0.0
230
-1.0
  0
SOLID
  5
1844
  8
0
  6
CONTINUOUS
 62
     1
 10
-9.0649496890119181
 20
16.008234093773229
 30
0.0
 11
-15.8977380441141296
 21
16.008234093773229
 31
0.0
 12
-16.4344831876151503
 22
15.4281653155500695
 32
0.0
 13
-16.4344831876151503
 23
15.4281653155500695
 33
0.0
210
0.0
220
0.0
230
-1.0
  0
SOLID
  5
1845
  8
0
  6
CONTINUOUS
 62
     1
 10
-8.7923312806595604
 20
15.4281653155500695
 30
0.0
 11
-16.5245982437984296
 21
15.2936781467518994
 31
0.0
 12
-8.7291255380338697
 22
15.2936781467518994
 32
0.0
 13
-8.7291255380338697
 23
15.2936781467518994
 33
0.0
210
0.0
220
0.0
230
-1.0
  0
SOLID
  5
1846
  8
0
  6
CONTINUOUS
 62
     1
 10
-8.7923312806595604
 20
15.4281653155500695
 30
0.0
 11
-16.4344831876151503
 21
15.4281653155500695
 31
0.0
 12
-16.5245982437984296
 22
15.2936781467518994
 32
0.0
 13
-16.5245982437984296
 23
15.2936781467518994
 33
0.0
210
0.0
220
0.0
230
-1.0
  0
SOLID
  5
1847
  8
0
  6
CONTINUOUS
 62
     1
 10
-8.7291255380338697
 20
15.2936781467518994
 30
0.0
 11
-16.958638629223401
 21
14.6459188815171792
 31
0.0
 12
-8.5835802867093047
 22
14.6459188815171792
 32
0.0
 13
-8.5835802867093047
 23
14.6459188815171792
 33
0.0
210
0.0
220
0.0
230
-1.0
  0
SOLID
  5
1848
  8
0
  6
CONTINUOUS
 62
     1
 10
-8.7291255380338697
 20
15.2936781467518994
 30
0.0
 11
-16.5245982437984296
 21
15.2936781467518994
 31
0.0
 12
-16.958638629223401
 22
14.6459188815171792
 32
0.0
 13
-16.958638629223401
 23
14.6459188815171792
 33
0.0
210
0.0
220
0.0
230
-1.0
  0
SOLID
  5
1849
  8
0
  6
CONTINUOUS
 62
     1
 10
-8.5835802867093047
 20
14.6459188815171792
 30
0.0
 11
-17.0258261378189992
 21
14.4991674305025509
 31
0.0
 12
-8.5506066528818856
 22
14.4991674305025509
 32
0.0
 13
-8.5506066528818856
 23
14.4991674305025509
 33
0.0
210
0.0
220
0.0
230
-1.0
  0
SOLID
  5
184A
  8
0
  6
CONTINUOUS
 62
     1
 10
-8.5835802867093047
 20
14.6459188815171792
 30
0.0
 11
-16.958638629223401
 21
14.6459188815171792
 31
0.0
 12
-17.0258261378189992
 22
14.4991674305025509
 32
0.0
 13
-17.0258261378189992
 23
14.4991674305025509
 33
0.0
210
0.0
220
0.0
230
-1.0
  0
SOLID
  5
184B
  8
0
  6
CONTINUOUS
 62
     1
 10
-8.5506066528818856
 20
14.4991674305025509
 30
0.0
 11
-17.3426632917549206
 21
13.8071293858221704
 31
0.0
 12
-8.5385280133738597
 22
13.8071293858221704
 32
0.0
 13
-8.5385280133738597
 23
13.8071293858221704
 33
0.0
210
0.0
220
0.0
230
-1.0
  0
SOLID
  5
184C
  8
0
  6
CONTINUOUS
 62
     1
 10
-8.5506066528818856
 20
14.4991674305025509
 30
0.0
 11
-17.0258261378189992
 21
14.4991674305025509
 31
0.0
 12
-17.3426632917549206
 22
13.8071293858221704
 32
0.0
 13
-17.3426632917549206
 23
13.8071293858221704
 33
0.0
210
0.0
220
0.0
230
-1.0
  0
SOLID
  5
184D
  8
0
  6
CONTINUOUS
 62
     1
 10
-8.5385280133738597
 20
13.8071293858221704
 30
0.0
 11
-17.3835363734280186
 21
13.6534176323879404
 31
0.0
 12
-8.5358451711917702
 22
13.6534176323879404
 32
0.0
 13
-8.5358451711917702
 23
13.6534176323879404
 33
0.0
210
0.0
220
0.0
230
-1.0
  0
SOLID
  5
184E
  8
0
  6
CONTINUOUS
 62
     1
 10
-8.5385280133738597
 20
13.8071293858221704
 30
0.0
 11
-17.3426632917549206
 21
13.8071293858221704
 31
0.0
 12
-17.3835363734280186
 22
13.6534176323879404
 32
0.0
 13
-17.3835363734280186
 23
13.6534176323879404
 33
0.0
210
0.0
220
0.0
230
-1.0
  0
SOLID
  5
184F
  8
0
  6
CONTINUOUS
 62
     1
 10
-8.5358451711917702
 20
13.6534176323879404
 30
0.0
 11
-17.5726775233393013
 21
12.9421128662841802
 31
0.0
 12
-8.6586041639457232
 22
12.9421128662841802
 32
0.0
 13
-8.6586041639457232
 23
12.9421128662841802
 33
0.0
210
0.0
220
0.0
230
-1.0
  0
SOLID
  5
1850
  8
0
  6
CONTINUOUS
 62
     1
 10
-8.5358451711917702
 20
13.6534176323879404
 30
0.0
 11
-17.3835363734280186
 21
13.6534176323879404
 31
0.0
 12
-17.5726775233393013
 22
12.9421128662841802
 32
0.0
 13
-17.5726775233393013
 23
12.9421128662841802
 33
0.0
210
0.0
220
0.0
230
-1.0
  0
SOLID
  5
1851
  8
0
  6
CONTINUOUS
 62
     1
 10
-8.6586041639457232
 20
12.9421128662841802
 30
0.0
 11
-17.584887013391679
 21
12.7869963536915296
 31
0.0
 12
-8.6853746113724775
 22
12.7869963536915296
 32
0.0
 13
-8.6853746113724775
 23
12.7869963536915296
 33
0.0
210
0.0
220
0.0
230
-1.0
  0
SOLID
  5
1852
  8
0
  6
CONTINUOUS
 62
     1
 10
-8.6586041639457232
 20
12.9421128662841802
 30
0.0
 11
-17.5726775233393013
 21
12.9421128662841802
 31
0.0
 12
-17.584887013391679
 22
12.7869963536915296
 32
0.0
 13
-17.584887013391679
 23
12.7869963536915296
 33
0.0
210
0.0
220
0.0
230
-1.0
  0
SOLID
  5
1853
  8
0
  6
CONTINUOUS
 62
     1
 10
-8.6853746113724775
 20
12.7869963536915296
 30
0.0
 11
-17.6403680103508513
 21
12.0821332736978704
 31
0.0
 12
-8.939401972628886
 22
12.0821332736978704
 32
0.0
 13
-8.939401972628886
 23
12.0821332736978704
 33
0.0
210
0.0
220
0.0
230
-1.0
  0
SOLID
  5
1854
  8
0
  6
CONTINUOUS
 62
     1
 10
-8.6853746113724775
 20
12.7869963536915296
 30
0.0
 11
-17.584887013391679
 21
12.7869963536915296
 31
0.0
 12
-17.6403680103508513
 22
12.0821332736978704
 32
0.0
 13
-17.6403680103508513
 23
12.0821332736978704
 33
0.0
210
0.0
220
0.0
230
-1.0
  0
SOLID
  5
1855
  8
0
  6
CONTINUOUS
 62
     1
 10
-8.939401972628886
 20
12.0821332736978704
 30
0.0
 11
-17.6225849216503789
 21
11.9312183168640296
 31
0.0
 12
-8.9937905898607191
 22
11.9312183168640296
 32
0.0
 13
-8.9937905898607191
 23
11.9312183168640296
 33
0.0
210
0.0
220
0.0
230
-1.0
  0
SOLID
  5
1856
  8
0
  6
CONTINUOUS
 62
     1
 10
-8.939401972628886
 20
12.0821332736978704
 30
0.0
 11
-17.6403680103508513
 21
12.0821332736978704
 31
0.0
 12
-17.6225849216503789
 22
11.9312183168640296
 32
0.0
 13
-17.6225849216503789
 23
11.9312183168640296
 33
0.0
210
0.0
220
0.0
230
-1.0
  0
SOLID
  5
1857
  8
0
  6
CONTINUOUS
 62
     1
 10
-8.9937905898607191
 20
11.9312183168640296
 30
0.0
 11
-17.5432882422231309
 21
11.2582725111942796
 31
0.0
 12
-9.3708062874561193
 22
11.2582725111942796
 32
0.0
 13
-9.3708062874561193
 23
11.2582725111942796
 33
0.0
210
0.0
220
0.0
230
-1.0
  0
SOLID
  5
1858
  8
0
  6
CONTINUOUS
 62
     1
 10
-8.9937905898607191
 20
11.9312183168640296
 30
0.0
 11
-17.6225849216503789
 21
11.9312183168640296
 31
0.0
 12
-17.5432882422231309
 22
11.2582725111942796
 32
0.0
 13
-17.5432882422231309
 23
11.2582725111942796
 33
0.0
210
0.0
220
0.0
230
-1.0
  0
SOLID
  5
1859
  8
0
  6
CONTINUOUS
 62
     1
 10
-9.3708062874561193
 20
11.2582725111942796
 30
0.0
 11
-17.4951422228771598
 21
11.1170135698642998
 31
0.0
 12
-9.4499461496239316
 22
11.1170135698642998
 32
0.0
 13
-9.4499461496239316
 23
11.1170135698642998
 33
0.0
210
0.0
220
0.0
230
-1.0
  0
SOLID
  5
185A
  8
0
  6
CONTINUOUS
 62
     1
 10
-9.3708062874561193
 20
11.2582725111942796
 30
0.0
 11
-17.5432882422231309
 21
11.2582725111942796
 31
0.0
 12
-17.4951422228771598
 22
11.1170135698642998
 32
0.0
 13
-17.4951422228771598
 23
11.1170135698642998
 33
0.0
210
0.0
220
0.0
230
-1.0
  0
SOLID
  5
185B
  8
0
  6
CONTINUOUS
 62
     1
 10
-9.4499461496239316
 20
11.1170135698642998
 30
0.0
 11
-17.2849469347151512
 21
10.5003070532785792
 31
0.0
 12
-9.9373744407031062
 22
10.5003070532785792
 32
0.0
 13
-9.9373744407031062
 23
10.5003070532785792
 33
0.0
210
0.0
220
0.0
230
-1.0
  0
SOLID
  5
185C
  8
0
  6
CONTINUOUS
 62
     1
 10
-9.4499461496239316
 20
11.1170135698642998
 30
0.0
 11
-17.4951422228771598
 21
11.1170135698642998
 31
0.0
 12
-17.2849469347151512
 22
10.5003070532785792
 32
0.0
 13
-17.2849469347151512
 23
10.5003070532785792
 33
0.0
210
0.0
220
0.0
230
-1.0
  0
SOLID
  5
185D
  8
0
  6
CONTINUOUS
 62
     1
 10
-9.9373744407031062
 20
10.5003070532785792
 30
0.0
 11
-17.2068673510598593
 21
10.3738095936387094
 31
0.0
 12
-10.0373546402305607
 22
10.3738095936387094
 32
0.0
 13
-10.0373546402305607
 23
10.3738095936387094
 33
0.0
210
0.0
220
0.0
230
-1.0
  0
SOLID
  5
185E
  8
0
  6
CONTINUOUS
 62
     1
 10
-9.9373744407031062
 20
10.5003070532785792
 30
0.0
 11
-17.2849469347151512
 21
10.5003070532785792
 31
0.0
 12
-17.2068673510598593
 22
10.3738095936387094
 32
0.0
 13
-17.2068673510598593
 23
10.3738095936387094
 33
0.0
210
0.0
220
0.0
230
-1.0
  0
SOLID
  5
185F
  8
0
  6
CONTINUOUS
 62
     1
 10
-10.0373546402305607
 20
10.3738095936387094
 30
0.0
 11
-16.8746812157819512
 21
9.8356317464595602
 31
0.0
 12
-10.6189717634777807
 22
9.8356317464595602
 32
0.0
 13
-10.6189717634777807
 23
9.8356317464595602
 33
0.0
210
0.0
220
0.0
230
-1.0
  0
SOLID
  5
1860
  8
0
  6
CONTINUOUS
 62
     1
 10
-10.0373546402305607
 20
10.3738095936387094
 30
0.0
 11
-17.2068673510598593
 21
10.3738095936387094
 31
0.0
 12
-16.8746812157819512
 22
9.8356317464595602
 32
0.0
 13
-16.8746812157819512
 23
9.8356317464595602
 33
0.0
210
0.0
220
0.0
230
-1.0
  0
SOLID
  5
1861
  8
0
  6
CONTINUOUS
 62
     1
 10
-10.6189717634777807
 20
9.8356317464595602
 30
0.0
 11
-16.7675171856094885
 21
9.7284677162871063
 31
0.0
 12
-10.7347855883521799
 22
9.7284677162871063
 32
0.0
 13
-10.7347855883521799
 23
9.7284677162871063
 33
0.0
210
0.0
220
0.0
230
-1.0
  0
SOLID
  5
1862
  8
0
  6
CONTINUOUS
 62
     1
 10
-10.6189717634777807
 20
9.8356317464595602
 30
0.0
 11
-16.8746812157819512
 21
9.8356317464595602
 31
0.0
 12
-16.7675171856094885
 22
9.7284677162871063
 32
0.0
 13
-16.7675171856094885
 23
9.7284677162871063
 33
0.0
210
0.0
220
0.0
230
-1.0
  0
SOLID
  5
1863
  8
0
  6
CONTINUOUS
 62
     1
 10
-10.7347855883521799
 20
9.7284677162871063
 30
0.0
 11
-16.3273191574426804
 21
9.2882696881202982
 31
0.0
 12
-11.3917344826443898
 22
9.2882696881202982
 32
0.0
 13
-11.3917344826443898
 23
9.2882696881202982
 33
0.0
210
0.0
220
0.0
230
-1.0
  0
SOLID
  5
1864
  8
0
  6
CONTINUOUS
 62
     1
 10
-10.7347855883521799
 20
9.7284677162871063
 30
0.0
 11
-16.7675171856094885
 21
9.7284677162871063
 31
0.0
 12
-16.3273191574426804
 22
9.2882696881202982
 32
0.0
 13
-16.3273191574426804
 23
9.2882696881202982
 33
0.0
210
0.0
220
0.0
230
-1.0
  0
SOLID
  5
1865
  8
0
  6
CONTINUOUS
 62
     1
 10
-11.3917344826443898
 20
9.2882696881202982
 30
0.0
 11
-16.1912989711009203
 21
9.2043122746788448
 31
0.0
 12
-11.5170320223850595
 22
9.2043122746788448
 32
0.0
 13
-11.5170320223850595
 23
9.2043122746788448
 33
0.0
210
0.0
220
0.0
230
-1.0
  0
SOLID
  5
1866
  8
0
  6
CONTINUOUS
 62
     1
 10
-11.3917344826443898
 20
9.2882696881202982
 30
0.0
 11
-16.3273191574426804
 21
9.2882696881202982
 31
0.0
 12
-16.1912989711009203
 22
9.2043122746788448
 32
0.0
 13
-16.1912989711009203
 23
9.2043122746788448
 33
0.0
210
0.0
220
0.0
230
-1.0
  0
SOLID
  5
1867
  8
0
  6
CONTINUOUS
 62
     1
 10
-11.5170320223850595
 20
9.2043122746788448
 30
0.0
 11
-15.6626438506236703
 21
8.8780039691870982
 31
0.0
 12
-12.2297570260351893
 22
8.8780039691870982
 32
0.0
 13
-12.2297570260351893
 23
8.8780039691870982
 33
0.0
210
0.0
220
0.0
230
-1.0
  0
SOLID
  5
1868
  8
0
  6
CONTINUOUS
 62
     1
 10
-11.5170320223850595
 20
9.2043122746788448
 30
0.0
 11
-16.1912989711009203
 21
9.2043122746788448
 31
0.0
 12
-15.6626438506236703
 22
8.8780039691870982
 32
0.0
 13
-15.6626438506236703
 23
8.8780039691870982
 33
0.0
210
0.0
220
0.0
230
-1.0
  0
SOLID
  5
1869
  8
0
  6
CONTINUOUS
 62
     1
 10
-12.2297570260351893
 20
8.8780039691870982
 30
0.0
 11
-15.4933058325774304
 21
8.8202876121473288
 31
0.0
 12
-12.3558215180800701
 22
8.8202876121473288
 32
0.0
 13
-12.3558215180800701
 23
8.8202876121473288
 33
0.0
210
0.0
220
0.0
230
-1.0
  0
SOLID
  5
186A
  8
0
  6
CONTINUOUS
 62
     1
 10
-12.2297570260351893
 20
8.8780039691870982
 30
0.0
 11
-15.6626438506236703
 21
8.8780039691870982
 31
0.0
 12
-15.4933058325774304
 22
8.8202876121473288
 32
0.0
 13
-15.4933058325774304
 23
8.8202876121473288
 33
0.0
210
0.0
220
0.0
230
-1.0
  0
SOLID
  5
186B
  8
0
  6
CONTINUOUS
 62
     1
 10
-12.3558215180800701
 20
8.8202876121473288
 30
0.0
 11
-14.9046783927079503
 21
8.6196626616791132
 31
0.0
 12
-13.1103135127322794
 22
8.6196626616791132
 32
0.0
 13
-13.1103135127322794
 23
8.6196626616791132
 33
0.0
210
0.0
220
0.0
230
-1.0
  0
SOLID
  5
186C
  8
0
  6
CONTINUOUS
 62
     1
 10
-12.3558215180800701
 20
8.8202876121473288
 30
0.0
 11
-15.4933058325774304
 21
8.8202876121473288
 31
0.0
 12
-14.9046783927079503
 22
8.6196626616791132
 32
0.0
 13
-14.9046783927079503
 23
8.6196626616791132
 33
0.0
210
0.0
220
0.0
230
-1.0
  0
SOLID
  5
186D
  8
0
  6
CONTINUOUS
 62
     1
 10
-13.2208380376180603
 20
8.5902733805629481
 30
0.0
 11
-14.6552682837144506
 21
8.5902733805629481
 31
0.0
 12
-14.0808176302043702
 22
8.5225828935513981
 32
0.0
 13
-14.0808176302043702
 23
8.5225828935513981
 33
0.0
210
0.0
220
0.0
230
-1.0
  0
SOLID
  5
186E
  8
0
  6
CONTINUOUS
 62
     1
 10
-13.1103135127322794
 20
8.6196626616791132
 30
0.0
 11
-14.6552682837144506
 21
8.5902733805629481
 31
0.0
 12
-13.2208380376180603
 22
8.5902733805629481
 32
0.0
 13
-13.2208380376180603
 23
8.5902733805629481
 33
0.0
210
0.0
220
0.0
230
-1.0
  0
SOLID
  5
186F
  8
0
  6
CONTINUOUS
 62
     1
 10
-13.1103135127322794
 20
8.6196626616791132
 30
0.0
 11
-14.9046783927079503
 21
8.6196626616791132
 31
0.0
 12
-14.6552682837144506
 22
8.5902733805629481
 32
0.0
 13
-14.6552682837144506
 23
8.5902733805629481
 33
0.0
210
0.0
220
0.0
230
-1.0
  0
LINE
  5
1870
  8
0
  6
CONTINUOUS
 62
     1
 10
12.5095332715143108
 20
17.6271057327104792
 30
0.0
 11
12.5950660055762
 21
17.6123442510203709
 31
0.0
  0
LINE
  5
1871
  8
0
  6
CONTINUOUS
 62
     1
 10
11.6637834733997003
 20
17.6123442510203709
 30
0.0
 11
12.5095332715143108
 21
17.6271057327104792
 31
0.0
  0
LINE
  5
1872
  8
0
  6
CONTINUOUS
 62
     1
 10
11.0639892995975107
 20
17.4775762925297684
 30
0.0
 11
11.6637834733997003
 21
17.6123442510203709
 31
0.0
  0
LINE
  5
1873
  8
0
  6
CONTINUOUS
 62
     1
 10
12.5950660055762
 20
17.6123442510203709
 30
0.0
 11
13.3759545502107198
 21
17.4775762925297684
 31
0.0
  0
LINE
  5
1874
  8
0
  6
CONTINUOUS
 62
     1
 10
10.8692727571503607
 20
17.4338253658683797
 30
0.0
 11
11.0639892995975107
 21
17.4775762925297684
 31
0.0
  0
LINE
  5
1875
  8
0
  6
CONTINUOUS
 62
     1
 10
13.3759545502107198
 20
17.4775762925297684
 30
0.0
 11
13.4973525475232901
 21
17.4338253658683797
 31
0.0
  0
LINE
  5
1876
  8
0
  6
CONTINUOUS
 62
     1
 10
10.3061268779728099
 20
17.1691603140415303
 30
0.0
 11
10.8692727571503607
 21
17.4338253658683797
 31
0.0
  0
LINE
  5
1877
  8
0
  6
CONTINUOUS
 62
     1
 10
13.4973525475232901
 20
17.4338253658683797
 30
0.0
 11
14.2317325870382305
 21
17.1691603140415303
 31
0.0
  0
LINE
  5
1878
  8
0
  6
CONTINUOUS
 62
     1
 10
10.1547168101290204
 20
17.0980012148903313
 30
0.0
 11
10.3061268779728099
 21
17.1691603140415303
 31
0.0
  0
LINE
  5
1879
  8
0
  6
CONTINUOUS
 62
     1
 10
14.2317325870382305
 20
17.1691603140415303
 30
0.0
 11
14.35874644246773
 21
17.0980012148903313
 31
0.0
  0
LINE
  5
187A
  8
0
  6
CONTINUOUS
 62
     1
 10
9.667439700180811
 20
16.7130047542783089
 30
0.0
 11
10.1547168101290204
 21
17.0980012148903313
 31
0.0
  0
LINE
  5
187B
  8
0
  6
CONTINUOUS
 62
     1
 10
14.35874644246773
 20
17.0980012148903313
 30
0.0
 11
15.0459373340379496
 21
16.7130047542783089
 31
0.0
  0
LINE
  5
187C
  8
0
  6
CONTINUOUS
 62
     1
 10
9.5459415460183923
 20
16.6170093578838589
 30
0.0
 11
9.667439700180811
 21
16.7130047542783089
 31
0.0
  0
LINE
  5
187D
  8
0
  6
CONTINUOUS
 62
     1
 10
15.0459373340379496
 20
16.7130047542783089
 30
0.0
 11
15.1673931206678496
 21
16.6170093578838589
 31
0.0
  0
LINE
  5
187E
  8
0
  6
CONTINUOUS
 62
     1
 10
9.1576772542887976
 20
16.1255962636716887
 30
0.0
 11
9.5459415460183923
 21
16.6170093578838589
 31
0.0
  0
LINE
  5
187F
  8
0
  6
CONTINUOUS
 62
     1
 10
15.1673931206678496
 20
16.6170093578838589
 30
0.0
 11
15.7891413102635401
 21
16.1255962636716887
 31
0.0
  0
LINE
  5
1880
  8
0
  6
CONTINUOUS
 62
     1
 10
9.0649496890119181
 20
16.008234093773229
 30
0.0
 11
9.1576772542887976
 21
16.1255962636716887
 31
0.0
  0
LINE
  5
1881
  8
0
  6
CONTINUOUS
 62
     1
 10
15.7891413102635401
 20
16.1255962636716887
 30
0.0
 11
15.8977380441141296
 21
16.008234093773229
 31
0.0
  0
LINE
  5
1882
  8
0
  6
CONTINUOUS
 62
     1
 10
8.7923312806595604
 20
15.4281653155500695
 30
0.0
 11
9.0649496890119181
 21
16.008234093773229
 31
0.0
  0
LINE
  5
1883
  8
0
  6
CONTINUOUS
 62
     1
 10
15.8977380441141296
 20
16.008234093773229
 30
0.0
 11
16.4344831876151503
 21
15.4281653155500695
 31
0.0
  0
LINE
  5
1884
  8
0
  6
CONTINUOUS
 62
     1
 10
8.7291255380338697
 20
15.2936781467518994
 30
0.0
 11
8.7923312806595604
 21
15.4281653155500695
 31
0.0
  0
LINE
  5
1885
  8
0
  6
CONTINUOUS
 62
     1
 10
16.4344831876151503
 20
15.4281653155500695
 30
0.0
 11
16.5245982437984296
 21
15.2936781467518994
 31
0.0
  0
LINE
  5
1886
  8
0
  6
CONTINUOUS
 62
     1
 10
8.5835802867093047
 20
14.6459188815171792
 30
0.0
 11
8.7291255380338697
 21
15.2936781467518994
 31
0.0
  0
LINE
  5
1887
  8
0
  6
CONTINUOUS
 62
     1
 10
16.5245982437984296
 20
15.2936781467518994
 30
0.0
 11
16.958638629223401
 21
14.6459188815171792
 31
0.0
  0
LINE
  5
1888
  8
0
  6
CONTINUOUS
 62
     1
 10
8.5506066528818856
 20
14.4991674305025509
 30
0.0
 11
8.5835802867093047
 21
14.6459188815171792
 31
0.0
  0
LINE
  5
1889
  8
0
  6
CONTINUOUS
 62
     1
 10
16.958638629223401
 20
14.6459188815171792
 30
0.0
 11
17.0258261378189992
 21
14.4991674305025509
 31
0.0
  0
LINE
  5
188A
  8
0
  6
CONTINUOUS
 62
     1
 10
8.5385280133738597
 20
13.8071293858221704
 30
0.0
 11
8.5506066528818856
 21
14.4991674305025509
 31
0.0
  0
LINE
  5
188B
  8
0
  6
CONTINUOUS
 62
     1
 10
17.0258261378189992
 20
14.4991674305025509
 30
0.0
 11
17.3426632917549206
 21
13.8071293858221704
 31
0.0
  0
LINE
  5
188C
  8
0
  6
CONTINUOUS
 62
     1
 10
8.5358451711917702
 20
13.6534176323879404
 30
0.0
 11
8.5385280133738597
 21
13.8071293858221704
 31
0.0
  0
LINE
  5
188D
  8
0
  6
CONTINUOUS
 62
     1
 10
17.3426632917549206
 20
13.8071293858221704
 30
0.0
 11
17.3835363734280186
 21
13.6534176323879404
 31
0.0
  0
LINE
  5
188E
  8
0
  6
CONTINUOUS
 62
     1
 10
8.6586041639457232
 20
12.9421128662841802
 30
0.0
 11
8.5358451711917702
 21
13.6534176323879404
 31
0.0
  0
LINE
  5
188F
  8
0
  6
CONTINUOUS
 62
     1
 10
17.3835363734280186
 20
13.6534176323879404
 30
0.0
 11
17.5726775233393013
 21
12.9421128662841802
 31
0.0
  0
LINE
  5
1890
  8
0
  6
CONTINUOUS
 62
     1
 10
8.6853746113724775
 20
12.7869963536915296
 30
0.0
 11
8.6586041639457232
 21
12.9421128662841802
 31
0.0
  0
LINE
  5
1891
  8
0
  6
CONTINUOUS
 62
     1
 10
17.5726775233393013
 20
12.9421128662841802
 30
0.0
 11
17.584887013391679
 21
12.7869963536915296
 31
0.0
  0
LINE
  5
1892
  8
0
  6
CONTINUOUS
 62
     1
 10
8.939401972628886
 20
12.0821332736978704
 30
0.0
 11
8.6853746113724775
 21
12.7869963536915296
 31
0.0
  0
LINE
  5
1893
  8
0
  6
CONTINUOUS
 62
     1
 10
17.584887013391679
 20
12.7869963536915296
 30
0.0
 11
17.6403680103508513
 21
12.0821332736978704
 31
0.0
  0
LINE
  5
1894
  8
0
  6
CONTINUOUS
 62
     1
 10
8.9937905898607191
 20
11.9312183168640296
 30
0.0
 11
8.939401972628886
 21
12.0821332736978704
 31
0.0
  0
LINE
  5
1895
  8
0
  6
CONTINUOUS
 62
     1
 10
17.6403680103508513
 20
12.0821332736978704
 30
0.0
 11
17.6225849216503789
 21
11.9312183168640296
 31
0.0
  0
LINE
  5
1896
  8
0
  6
CONTINUOUS
 62
     1
 10
9.3708062874561193
 20
11.2582725111942796
 30
0.0
 11
8.9937905898607191
 21
11.9312183168640296
 31
0.0
  0
LINE
  5
1897
  8
0
  6
CONTINUOUS
 62
     1
 10
17.6225849216503789
 20
11.9312183168640296
 30
0.0
 11
17.5432882422231309
 21
11.2582725111942796
 31
0.0
  0
LINE
  5
1898
  8
0
  6
CONTINUOUS
 62
     1
 10
9.4499461496239316
 20
11.1170135698642998
 30
0.0
 11
9.3708062874561193
 21
11.2582725111942796
 31
0.0
  0
LINE
  5
1899
  8
0
  6
CONTINUOUS
 62
     1
 10
17.5432882422231309
 20
11.2582725111942796
 30
0.0
 11
17.4951422228771598
 21
11.1170135698642998
 31
0.0
  0
LINE
  5
189A
  8
0
  6
CONTINUOUS
 62
     1
 10
9.9373744407031062
 20
10.5003070532785792
 30
0.0
 11
9.4499461496239316
 21
11.1170135698642998
 31
0.0
  0
LINE
  5
189B
  8
0
  6
CONTINUOUS
 62
     1
 10
17.4951422228771598
 20
11.1170135698642998
 30
0.0
 11
17.2849469347151512
 21
10.5003070532785792
 31
0.0
  0
LINE
  5
189C
  8
0
  6
CONTINUOUS
 62
     1
 10
10.0373546402305607
 20
10.3738095936387094
 30
0.0
 11
9.9373744407031062
 21
10.5003070532785792
 31
0.0
  0
LINE
  5
189D
  8
0
  6
CONTINUOUS
 62
     1
 10
17.2849469347151512
 20
10.5003070532785792
 30
0.0
 11
17.2068673510598593
 21
10.3738095936387094
 31
0.0
  0
LINE
  5
189E
  8
0
  6
CONTINUOUS
 62
     1
 10
10.6189717634777807
 20
9.8356317464595602
 30
0.0
 11
10.0373546402305607
 21
10.3738095936387094
 31
0.0
  0
LINE
  5
189F
  8
0
  6
CONTINUOUS
 62
     1
 10
17.2068673510598593
 20
10.3738095936387094
 30
0.0
 11
16.8746812157819512
 21
9.8356317464595602
 31
0.0
  0
LINE
  5
18A0
  8
0
  6
CONTINUOUS
 62
     1
 10
10.7347855883521799
 20
9.7284677162871063
 30
0.0
 11
10.6189717634777807
 21
9.8356317464595602
 31
0.0
  0
LINE
  5
18A1
  8
0
  6
CONTINUOUS
 62
     1
 10
16.8746812157819512
 20
9.8356317464595602
 30
0.0
 11
16.7675171856094885
 21
9.7284677162871063
 31
0.0
  0
LINE
  5
18A2
  8
0
  6
CONTINUOUS
 62
     1
 10
11.3917344826443898
 20
9.2882696881202982
 30
0.0
 11
10.7347855883521799
 21
9.7284677162871063
 31
0.0
  0
LINE
  5
18A3
  8
0
  6
CONTINUOUS
 62
     1
 10
16.7675171856094885
 20
9.7284677162871063
 30
0.0
 11
16.3273191574426804
 21
9.2882696881202982
 31
0.0
  0
LINE
  5
18A4
  8
0
  6
CONTINUOUS
 62
     1
 10
11.5170320223850595
 20
9.2043122746788448
 30
0.0
 11
11.3917344826443898
 21
9.2882696881202982
 31
0.0
  0
LINE
  5
18A5
  8
0
  6
CONTINUOUS
 62
     1
 10
16.3273191574426804
 20
9.2882696881202982
 30
0.0
 11
16.1912989711009203
 21
9.2043122746788448
 31
0.0
  0
LINE
  5
18A6
  8
0
  6
CONTINUOUS
 62
     1
 10
12.2297570260351893
 20
8.8780039691870982
 30
0.0
 11
11.5170320223850595
 21
9.2043122746788448
 31
0.0
  0
LINE
  5
18A7
  8
0
  6
CONTINUOUS
 62
     1
 10
16.1912989711009203
 20
9.2043122746788448
 30
0.0
 11
15.6626438506236703
 21
8.8780039691870982
 31
0.0
  0
LINE
  5
18A8
  8
0
  6
CONTINUOUS
 62
     1
 10
12.3558215180800701
 20
8.8202876121473288
 30
0.0
 11
12.2297570260351893
 21
8.8780039691870982
 31
0.0
  0
LINE
  5
18A9
  8
0
  6
CONTINUOUS
 62
     1
 10
15.6626438506236703
 20
8.8780039691870982
 30
0.0
 11
15.4933058325774304
 21
8.8202876121473288
 31
0.0
  0
LINE
  5
18AA
  8
0
  6
CONTINUOUS
 62
     1
 10
13.1103135127322794
 20
8.6196626616791132
 30
0.0
 11
12.3558215180800701
 21
8.8202876121473288
 31
0.0
  0
LINE
  5
18AB
  8
0
  6
CONTINUOUS
 62
     1
 10
15.4933058325774304
 20
8.8202876121473288
 30
0.0
 11
14.9046783927079503
 21
8.6196626616791132
 31
0.0
  0
LINE
  5
18AC
  8
0
  6
CONTINUOUS
 62
     1
 10
14.6552682837144506
 20
8.5902733805629481
 30
0.0
 11
14.0808176302043702
 21
8.5225828935513981
 31
0.0
  0
LINE
  5
18AD
  8
0
  6
CONTINUOUS
 62
     1
 10
14.0808176302043702
 20
8.5225828935513981
 30
0.0
 11
13.2208380376180603
 21
8.5902733805629481
 31
0.0
  0
LINE
  5
18AE
  8
0
  6
CONTINUOUS
 62
     1
 10
13.2208380376180603
 20
8.5902733805629481
 30
0.0
 11
13.1103135127322794
 21
8.6196626616791132
 31
0.0
  0
LINE
  5
18AF
  8
0
  6
CONTINUOUS
 62
     1
 10
14.9046783927079503
 20
8.6196626616791132
 30
0.0
 11
14.6552682837144506
 21
8.5902733805629481
 31
0.0
  0
ENDBLK
  5
18B1
  8
0
  0
BLOCK
  8
0
  2
*U14
 70
     1
 10
0.0
 20
0.0
 30
0.0
  3
*U14
  1

  0
SOLID
  5
18B3
  8
0
  6
CONTINUOUS
 62
     4
 10
1.5
 20
1.5
 30
1.0
 11
-1.5
 21
-1.5
 31
1.0
 12
1.5
 22
-1.5
 32
1.0
 13
1.5
 23
-1.5
 33
1.0
210
0.0
220
0.0
230
-1.0
  0
SOLID
  5
18B4
  8
0
  6
CONTINUOUS
 62
     4
 10
1.5
 20
1.5
 30
1.0
 11
-1.5
 21
1.5
 31
1.0
 12
-1.5
 22
-1.5
 32
1.0
 13
-1.5
 23
-1.5
 33
1.0
210
0.0
220
0.0
230
-1.0
  0
LINE
  5
18B5
  8
0
  6
CONTINUOUS
 62
     4
 10
-1.5
 20
-1.5
 30
-1.0
 11
-1.5
 21
1.5
 31
-1.0
  0
LINE
  5
18B6
  8
0
  6
CONTINUOUS
 62
     4
 10
1.5
 20
1.5
 30
-1.0
 11
1.5
 21
-1.5
 31
-1.0
  0
ENDBLK
  5
18B8
  8
0
  0
BLOCK
  8
0
  2
*U15
 70
     1
 10
0.0
 20
0.0
 30
0.0
  3
*U15
  1

  0
SOLID
  5
18BA
  8
0
  6
CONTINUOUS
 62
   142
 10
-3.6682976931065729
 20
4.0836255755877877
 30
0.0
 11
-4.0862944419833829
 21
3.6706951206524958
 31
0.0
 12
-3.297364607490723
 22
3.6706951206524958
 32
0.0
 13
-3.297364607490723
 23
3.6706951206524958
 33
0.0
210
0.0
220
0.0
230
-1.0
  0
SOLID
  5
18BB
  8
0
  6
CONTINUOUS
 62
   142
 10
-3.297364607490723
 20
3.6706951206524958
 30
0.0
 11
-4.0862944419833829
 21
3.6706951206524958
 31
0.0
 12
0.0
 22
0.0
 32
0.0
 13
0.0
 23
0.0
 33
0.0
210
0.0
220
0.0
230
-1.0
  0
LINE
  5
18BC
  8
0
  6
CONTINUOUS
 62
   142
 10
3.6682976931065729
 20
4.0836255755877877
 30
0.0
 11
4.0862944419833829
 21
3.6706951206524958
 31
0.0
  0
LINE
  5
18BD
  8
0
  6
CONTINUOUS
 62
   142
 10
3.297364607490723
 20
3.6706951206524958
 30
0.0
 11
3.6682976931065729
 21
4.0836255755877877
 31
0.0
  0
LINE
  5
18BE
  8
0
  6
CONTINUOUS
 62
   142
 10
4.0862944419833829
 20
3.6706951206524958
 30
0.0
 11
0.0
 21
0.0
 31
0.0
  0
LINE
  5
18BF
  8
0
  6
CONTINUOUS
 62
   142
 10
0.0
 20
0.0
 30
0.0
 11
3.297364607490723
 21
3.6706951206524958
 31
0.0
  0
ENDBLK
  5
18C1
  8
0
  0
BLOCK
  8
0
  2
*U16
 70
     1
 10
0.0
 20
0.0
 30
0.0
  3
*U16
  1

  0
SOLID
  5
18C9
  8
0
  6
CONTINUOUS
 62
    14
 10
-9.5459415460183941
 20
16.6170093578838589
 30
0.0
 11
-9.0996943285474572
 21
16.0633367317476399
 31
0.0
 12
-8.9878476327803831
 22
16.0633367317476399
 32
0.0
 13
-8.9878476327803831
 23
16.0633367317476399
 33
0.0
210
0.0
220
0.0
230
-1.0
  0
SOLID
  5
18CA
  8
0
  6
CONTINUOUS
 62
    14
 10
-8.9878476327803831
 20
16.0633367317476399
 30
0.0
 11
-9.0786821489710956
 21
16.0217161686967913
 31
0.0
 12
-8.9458947136586406
 22
16.0217161686967913
 32
0.0
 13
-8.9458947136586406
 23
16.0217161686967913
 33
0.0
210
0.0
220
0.0
230
-1.0
  0
SOLID
  5
18CB
  8
0
  6
CONTINUOUS
 62
    14
 10
-8.9878476327803831
 20
16.0633367317476399
 30
0.0
 11
-9.0996943285474572
 21
16.0633367317476399
 31
0.0
 12
-9.0786821489710956
 22
16.0217161686967913
 32
0.0
 13
-9.0786821489710956
 23
16.0217161686967913
 33
0.0
210
0.0
220
0.0
230
-1.0
  0
SOLID
  5
18CC
  8
0
  6
CONTINUOUS
 62
    14
 10
-8.9458947136586406
 20
16.0217161686967913
 30
0.0
 11
-8.7744315156326742
 21
15.4190617595194102
 31
0.0
 12
-8.5452944649965552
 22
15.4190617595194102
 32
0.0
 13
-8.5452944649965552
 23
15.4190617595194102
 33
0.0
210
0.0
220
0.0
230
-1.0
  0
SOLID
  5
18CD
  8
0
  6
CONTINUOUS
 62
    14
 10
-8.9458947136586406
 20
16.0217161686967913
 30
0.0
 11
-9.0786821489710956
 21
16.0217161686967913
 31
0.0
 12
-8.7744315156326742
 22
15.4190617595194102
 32
0.0
 13
-8.7744315156326742
 23
15.4190617595194102
 33
0.0
210
0.0
220
0.0
230
-1.0
  0
SOLID
  5
18CE
  8
0
  6
CONTINUOUS
 62
    14
 10
-8.5452944649965552
 20
15.4190617595194102
 30
0.0
 11
-8.7458512783513598
 21
15.3138973588658907
 31
0.0
 12
-8.4753889197775187
 22
15.3138973588658907
 32
0.0
 13
-8.4753889197775187
 23
15.3138973588658907
 33
0.0
210
0.0
220
0.0
230
-1.0
  0
SOLID
  5
18CF
  8
0
  6
CONTINUOUS
 62
    14
 10
-8.5452944649965552
 20
15.4190617595194102
 30
0.0
 11
-8.7744315156326742
 21
15.4190617595194102
 31
0.0
 12
-8.7458512783513598
 22
15.3138973588658907
 32
0.0
 13
-8.7458512783513598
 23
15.3138973588658907
 33
0.0
210
0.0
220
0.0
230
-1.0
  0
SOLID
  5
18D0
  8
0
  6
CONTINUOUS
 62
    14
 10
-8.4753889197775187
 20
15.3138973588658907
 30
0.0
 11
-8.5800360532535365
 21
14.7037604102114692
 31
0.0
 12
-8.2264165184088984
 22
14.7037604102114692
 32
0.0
 13
-8.2264165184088984
 23
14.7037604102114692
 33
0.0
210
0.0
220
0.0
230
-1.0
  0
SOLID
  5
18D1
  8
0
  6
CONTINUOUS
 62
    14
 10
-8.4753889197775187
 20
15.3138973588658907
 30
0.0
 11
-8.7458512783513598
 21
15.3138973588658907
 31
0.0
 12
-8.5800360532535365
 22
14.7037604102114692
 32
0.0
 13
-8.5800360532535365
 23
14.7037604102114692
 33
0.0
210
0.0
220
0.0
230
-1.0
  0
SOLID
  5
18D2
  8
0
  6
CONTINUOUS
 62
    14
 10
-8.2264165184088984
 20
14.7037604102114692
 30
0.0
 11
-8.5660192220222182
 21
14.5177676906839093
 31
0.0
 12
-8.1505203542444722
 22
14.5177676906839093
 32
0.0
 13
-8.1505203542444722
 23
14.5177676906839093
 33
0.0
210
0.0
220
0.0
230
-1.0
  0
SOLID
  5
18D3
  8
0
  6
CONTINUOUS
 62
    14
 10
-8.2264165184088984
 20
14.7037604102114692
 30
0.0
 11
-8.5800360532535365
 21
14.7037604102114692
 31
0.0
 12
-8.5660192220222182
 22
14.5177676906839093
 32
0.0
 13
-8.5660192220222182
 23
14.5177676906839093
 33
0.0
210
0.0
220
0.0
230
-1.0
  0
SOLID
  5
18D4
  8
0
  6
CONTINUOUS
 62
    14
 10
-8.1505203542444722
 20
14.5177676906839093
 30
0.0
 11
-8.5224145491655801
 21
13.9391667533625903
 31
0.0
 12
-8.0370434606507128
 22
13.9391667533625903
 32
0.0
 13
-8.0370434606507128
 23
13.9391667533625903
 33
0.0
210
0.0
220
0.0
230
-1.0
  0
SOLID
  5
18D5
  8
0
  6
CONTINUOUS
 62
    14
 10
-8.1505203542444722
 20
14.5177676906839093
 30
0.0
 11
-8.5660192220222182
 21
14.5177676906839093
 31
0.0
 12
-8.5224145491655801
 22
13.9391667533625903
 32
0.0
 13
-8.5224145491655801
 23
13.9391667533625903
 33
0.0
210
0.0
220
0.0
230
-1.0
  0
SOLID
  5
18D6
  8
0
  6
CONTINUOUS
 62
    14
 10
-8.0370434606507128
 20
13.9391667533625903
 30
0.0
 11
-8.5509225175960868
 21
13.6605630759428394
 31
0.0
 12
-7.9824028995694318
 22
13.6605630759428394
 32
0.0
 13
-7.9824028995694318
 23
13.6605630759428394
 33
0.0
210
0.0
220
0.0
230
-1.0
  0
SOLID
  5
18D7
  8
0
  6
CONTINUOUS
 62
    14
 10
-8.0370434606507128
 20
13.9391667533625903
 30
0.0
 11
-8.5224145491655801
 21
13.9391667533625903
 31
0.0
 12
-8.5509225175960868
 22
13.6605630759428394
 32
0.0
 13
-8.5509225175960868
 23
13.6605630759428394
 33
0.0
210
0.0
220
0.0
230
-1.0
  0
SOLID
  5
18D8
  8
0
  6
CONTINUOUS
 62
    14
 10
-7.9824028995694318
 20
13.6605630759428394
 30
0.0
 11
-8.6033178036126312
 21
13.14851258033306
 31
0.0
 12
-7.9791685905219438
 22
13.14851258033306
 32
0.0
 13
-7.9791685905219438
 23
13.14851258033306
 33
0.0
210
0.0
220
0.0
230
-1.0
  0
SOLID
  5
18D9
  8
0
  6
CONTINUOUS
 62
    14
 10
-7.9824028995694318
 20
13.6605630759428394
 30
0.0
 11
-8.5509225175960868
 21
13.6605630759428394
 31
0.0
 12
-8.6033178036126312
 22
13.14851258033306
 32
0.0
 13
-8.6033178036126312
 23
13.14851258033306
 33
0.0
210
0.0
220
0.0
230
-1.0
  0
SOLID
  5
18DA
  8
0
  6
CONTINUOUS
 62
    14
 10
-7.9791685905219438
 20
13.14851258033306
 30
0.0
 11
-8.7064812422011357
 21
12.7716088245862807
 31
0.0
 12
-7.9767879205729919
 22
12.7716088245862807
 32
0.0
 13
-7.9767879205729919
 23
12.7716088245862807
 33
0.0
210
0.0
220
0.0
230
-1.0
  0
SOLID
  5
18DB
  8
0
  6
CONTINUOUS
 62
    14
 10
-7.9791685905219438
 20
13.14851258033306
 30
0.0
 11
-8.6033178036126312
 21
13.14851258033306
 31
0.0
 12
-8.7064812422011357
 22
12.7716088245862807
 32
0.0
 13
-8.7064812422011357
 23
12.7716088245862807
 33
0.0
210
0.0
220
0.0
230
-1.0
  0
SOLID
  5
18DC
  8
0
  6
CONTINUOUS
 62
    14
 10
-7.9767879205729919
 20
12.7716088245862807
 30
0.0
 11
-8.8202876121473395
 21
12.3558215180800701
 31
0.0
 12
-8.0501477490601445
 22
12.3558215180800701
 32
0.0
 13
-8.0501477490601445
 23
12.3558215180800701
 33
0.0
210
0.0
220
0.0
230
-1.0
  0
SOLID
  5
18DD
  8
0
  6
CONTINUOUS
 62
    14
 10
-7.9767879205729919
 20
12.7716088245862807
 30
0.0
 11
-8.7064812422011357
 21
12.7716088245862807
 31
0.0
 12
-8.8202876121473395
 22
12.3558215180800701
 32
0.0
 13
-8.8202876121473395
 23
12.3558215180800701
 33
0.0
210
0.0
220
0.0
230
-1.0
  0
SOLID
  5
18DE
  8
0
  6
CONTINUOUS
 62
    14
 10
-8.0501477490601445
 20
12.3558215180800701
 30
0.0
 11
-9.0336023287440046
 21
11.8813164142222991
 31
0.0
 12
-8.1338675079142178
 22
11.8813164142222991
 32
0.0
 13
-8.1338675079142178
 23
11.8813164142222991
 33
0.0
210
0.0
220
0.0
230
-1.0
  0
SOLID
  5
18DF
  8
0
  6
CONTINUOUS
 62
    14
 10
-8.0501477490601445
 20
12.3558215180800701
 30
0.0
 11
-8.8202876121473395
 21
12.3558215180800701
 31
0.0
 12
-9.0336023287440046
 22
11.8813164142222991
 32
0.0
 13
-9.0336023287440046
 23
11.8813164142222991
 33
0.0
210
0.0
220
0.0
230
-1.0
  0
SOLID
  5
18E0
  8
0
  6
CONTINUOUS
 62
    14
 10
-8.1338675079142178
 20
11.8813164142222991
 30
0.0
 11
-9.1667314569293943
 21
11.5851790834091393
 31
0.0
 12
-8.2419824407460514
 22
11.5851790834091393
 32
0.0
 13
-8.2419824407460514
 23
11.5851790834091393
 33
0.0
210
0.0
220
0.0
230
-1.0
  0
SOLID
  5
18E1
  8
0
  6
CONTINUOUS
 62
    14
 10
-8.1338675079142178
 20
11.8813164142222991
 30
0.0
 11
-9.0336023287440046
 21
11.8813164142222991
 31
0.0
 12
-9.1667314569293943
 22
11.5851790834091393
 32
0.0
 13
-9.1667314569293943
 23
11.5851790834091393
 33
0.0
210
0.0
220
0.0
230
-1.0
  0
SOLID
  5
18E2
  8
0
  6
CONTINUOUS
 62
    14
 10
-8.2419824407460514
 20
11.5851790834091393
 30
0.0
 11
-9.5293497133850362
 21
11.0201431014095093
 31
0.0
 12
-8.4482679065929815
 22
11.0201431014095093
 32
0.0
 13
-8.4482679065929815
 23
11.0201431014095093
 33
0.0
210
0.0
220
0.0
230
-1.0
  0
SOLID
  5
18E3
  8
0
  6
CONTINUOUS
 62
    14
 10
-8.2419824407460514
 20
11.5851790834091393
 30
0.0
 11
-9.1667314569293943
 21
11.5851790834091393
 31
0.0
 12
-9.5293497133850362
 22
11.0201431014095093
 32
0.0
 13
-9.5293497133850362
 23
11.0201431014095093
 33
0.0
210
0.0
220
0.0
230
-1.0
  0
SOLID
  5
18E4
  8
0
  6
CONTINUOUS
 62
    14
 10
-8.4482679065929815
 20
11.0201431014095093
 30
0.0
 11
-9.6321228170441433
 21
10.8600008567338602
 31
0.0
 12
-8.5402448228203731
 22
10.8600008567338602
 32
0.0
 13
-8.5402448228203731
 23
10.8600008567338602
 33
0.0
210
0.0
220
0.0
230
-1.0
  0
SOLID
  5
18E5
  8
0
  6
CONTINUOUS
 62
    14
 10
-8.4482679065929815
 20
11.0201431014095093
 30
0.0
 11
-9.5293497133850362
 21
11.0201431014095093
 31
0.0
 12
-9.6321228170441433
 22
10.8600008567338602
 32
0.0
 13
-9.6321228170441433
 23
10.8600008567338602
 33
0.0
210
0.0
220
0.0
230
-1.0
  0
SOLID
  5
18E6
  8
0
  6
CONTINUOUS
 62
    14
 10
-8.5402448228203731
 20
10.8600008567338602
 30
0.0
 11
-10.1891177441698595
 21
10.2175499668270309
 31
0.0
 12
-8.9092333542404134
 22
10.2175499668270309
 32
0.0
 13
-8.9092333542404134
 23
10.2175499668270309
 33
0.0
210
0.0
220
0.0
230
-1.0
  0
SOLID
  5
18E7
  8
0
  6
CONTINUOUS
 62
    14
 10
-8.5402448228203731
 20
10.8600008567338602
 30
0.0
 11
-9.6321228170441433
 21
10.8600008567338602
 31
0.0
 12
-10.1891177441698595
 22
10.2175499668270309
 32
0.0
 13
-10.1891177441698595
 23
10.2175499668270309
 33
0.0
210
0.0
220
0.0
230
-1.0
  0
SOLID
  5
18E8
  8
0
  6
CONTINUOUS
 62
    14
 10
-8.9218100376541916
 20
10.2023210115138898
 30
0.0
 11
-10.2023210115138898
 21
10.2023210115138898
 31
0.0
 12
-9.5009940400166073
 22
9.5009940400166002
 32
0.0
 13
-9.5009940400166073
 23
9.5009940400166002
 33
0.0
210
0.0
220
0.0
230
-1.0
  0
SOLID
  5
18E9
  8
0
  6
CONTINUOUS
 62
    14
 10
-8.9092333542404134
 20
10.2175499668270309
 30
0.0
 11
-10.2023210115138898
 21
10.2023210115138898
 31
0.0
 12
-8.9218100376541916
 22
10.2023210115138898
 32
0.0
 13
-8.9218100376541916
 23
10.2023210115138898
 33
0.0
210
0.0
220
0.0
230
-1.0
  0
SOLID
  5
18EA
  8
0
  6
CONTINUOUS
 62
    14
 10
-8.9092333542404134
 20
10.2175499668270309
 30
0.0
 11
-10.1891177441698595
 21
10.2175499668270309
 31
0.0
 12
-10.2023210115138898
 22
10.2023210115138898
 32
0.0
 13
-10.2023210115138898
 23
10.2023210115138898
 33
0.0
210
0.0
220
0.0
230
-1.0
  0
LINE
  5
18EB
  8
0
  6
CONTINUOUS
 62
    14
 10
9.5459415460183941
 20
16.6170093578838589
 30
0.0
 11
9.0996943285474572
 21
16.0633367317476399
 31
0.0
  0
LINE
  5
18EC
  8
0
  6
CONTINUOUS
 62
    14
 10
8.9878476327803831
 20
16.0633367317476399
 30
0.0
 11
9.5459415460183941
 21
16.6170093578838589
 31
0.0
  0
LINE
  5
18ED
  8
0
  6
CONTINUOUS
 62
    14
 10
8.9458947136586406
 20
16.0217161686967913
 30
0.0
 11
8.9878476327803831
 21
16.0633367317476399
 31
0.0
  0
LINE
  5
18EE
  8
0
  6
CONTINUOUS
 62
    14
 10
9.0996943285474572
 20
16.0633367317476399
 30
0.0
 11
9.0786821489710956
 21
16.0217161686967913
 31
0.0
  0
LINE
  5
18EF
  8
0
  6
CONTINUOUS
 62
    14
 10
8.5452944649965552
 20
15.4190617595194102
 30
0.0
 11
8.9458947136586406
 21
16.0217161686967913
 31
0.0
  0
LINE
  5
18F0
  8
0
  6
CONTINUOUS
 62
    14
 10
9.0786821489710956
 20
16.0217161686967913
 30
0.0
 11
8.7744315156326742
 21
15.4190617595194102
 31
0.0
  0
LINE
  5
18F1
  8
0
  6
CONTINUOUS
 62
    14
 10
8.4753889197775187
 20
15.3138973588658907
 30
0.0
 11
8.5452944649965552
 21
15.4190617595194102
 31
0.0
  0
LINE
  5
18F2
  8
0
  6
CONTINUOUS
 62
    14
 10
8.7744315156326742
 20
15.4190617595194102
 30
0.0
 11
8.7458512783513598
 21
15.3138973588658907
 31
0.0
  0
LINE
  5
18F3
  8
0
  6
CONTINUOUS
 62
    14
 10
8.2264165184088984
 20
14.7037604102114692
 30
0.0
 11
8.4753889197775187
 21
15.3138973588658907
 31
0.0
  0
LINE
  5
18F4
  8
0
  6
CONTINUOUS
 62
    14
 10
8.7458512783513598
 20
15.3138973588658907
 30
0.0
 11
8.5800360532535365
 21
14.7037604102114692
 31
0.0
  0
LINE
  5
18F5
  8
0
  6
CONTINUOUS
 62
    14
 10
8.1505203542444722
 20
14.5177676906839093
 30
0.0
 11
8.2264165184088984
 21
14.7037604102114692
 31
0.0
  0
LINE
  5
18F6
  8
0
  6
CONTINUOUS
 62
    14
 10
8.5800360532535365
 20
14.7037604102114692
 30
0.0
 11
8.5660192220222182
 21
14.5177676906839093
 31
0.0
  0
LINE
  5
18F7
  8
0
  6
CONTINUOUS
 62
    14
 10
8.0370434606507128
 20
13.9391667533625903
 30
0.0
 11
8.1505203542444722
 21
14.5177676906839093
 31
0.0
  0
LINE
  5
18F8
  8
0
  6
CONTINUOUS
 62
    14
 10
8.5660192220222182
 20
14.5177676906839093
 30
0.0
 11
8.5224145491655801
 21
13.9391667533625903
 31
0.0
  0
LINE
  5
18F9
  8
0
  6
CONTINUOUS
 62
    14
 10
7.9824028995694318
 20
13.6605630759428394
 30
0.0
 11
8.0370434606507128
 21
13.9391667533625903
 31
0.0
  0
LINE
  5
18FA
  8
0
  6
CONTINUOUS
 62
    14
 10
8.5224145491655801
 20
13.9391667533625903
 30
0.0
 11
8.5509225175960868
 21
13.6605630759428394
 31
0.0
  0
LINE
  5
18FB
  8
0
  6
CONTINUOUS
 62
    14
 10
7.9791685905219438
 20
13.14851258033306
 30
0.0
 11
7.9824028995694318
 21
13.6605630759428394
 31
0.0
  0
LINE
  5
18FC
  8
0
  6
CONTINUOUS
 62
    14
 10
8.5509225175960868
 20
13.6605630759428394
 30
0.0
 11
8.6033178036126312
 21
13.14851258033306
 31
0.0
  0
LINE
  5
18FD
  8
0
  6
CONTINUOUS
 62
    14
 10
7.9767879205729919
 20
12.7716088245862807
 30
0.0
 11
7.9791685905219438
 21
13.14851258033306
 31
0.0
  0
LINE
  5
18FE
  8
0
  6
CONTINUOUS
 62
    14
 10
8.6033178036126312
 20
13.14851258033306
 30
0.0
 11
8.7064812422011357
 21
12.7716088245862807
 31
0.0
  0
LINE
  5
18FF
  8
0
  6
CONTINUOUS
 62
    14
 10
8.0501477490601445
 20
12.3558215180800701
 30
0.0
 11
7.9767879205729919
 21
12.7716088245862807
 31
0.0
  0
LINE
  5
1900
  8
0
  6
CONTINUOUS
 62
    14
 10
8.7064812422011357
 20
12.7716088245862807
 30
0.0
 11
8.8202876121473395
 21
12.3558215180800701
 31
0.0
  0
LINE
  5
1901
  8
0
  6
CONTINUOUS
 62
    14
 10
8.1338675079142178
 20
11.8813164142222991
 30
0.0
 11
8.0501477490601445
 21
12.3558215180800701
 31
0.0
  0
LINE
  5
1902
  8
0
  6
CONTINUOUS
 62
    14
 10
8.8202876121473395
 20
12.3558215180800701
 30
0.0
 11
9.0336023287440046
 21
11.8813164142222991
 31
0.0
  0
LINE
  5
1903
  8
0
  6
CONTINUOUS
 62
    14
 10
8.2419824407460514
 20
11.5851790834091393
 30
0.0
 11
8.1338675079142178
 21
11.8813164142222991
 31
0.0
  0
LINE
  5
1904
  8
0
  6
CONTINUOUS
 62
    14
 10
9.0336023287440046
 20
11.8813164142222991
 30
0.0
 11
9.1667314569293943
 21
11.5851790834091393
 31
0.0
  0
LINE
  5
1905
  8
0
  6
CONTINUOUS
 62
    14
 10
8.4482679065929815
 20
11.0201431014095093
 30
0.0
 11
8.2419824407460514
 21
11.5851790834091393
 31
0.0
  0
LINE
  5
1906
  8
0
  6
CONTINUOUS
 62
    14
 10
9.1667314569293943
 20
11.5851790834091393
 30
0.0
 11
9.5293497133850362
 21
11.0201431014095093
 31
0.0
  0
LINE
  5
1907
  8
0
  6
CONTINUOUS
 62
    14
 10
8.5402448228203731
 20
10.8600008567338602
 30
0.0
 11
8.4482679065929815
 21
11.0201431014095093
 31
0.0
  0
LINE
  5
1908
  8
0
  6
CONTINUOUS
 62
    14
 10
9.5293497133850362
 20
11.0201431014095093
 30
0.0
 11
9.6321228170441433
 21
10.8600008567338602
 31
0.0
  0
LINE
  5
1909
  8
0
  6
CONTINUOUS
 62
    14
 10
8.9092333542404134
 20
10.2175499668270309
 30
0.0
 11
8.5402448228203731
 21
10.8600008567338602
 31
0.0
  0
LINE
  5
190A
  8
0
  6
CONTINUOUS
 62
    14
 10
9.6321228170441433
 20
10.8600008567338602
 30
0.0
 11
10.1891177441698595
 21
10.2175499668270309
 31
0.0
  0
LINE
  5
190B
  8
0
  6
CONTINUOUS
 62
    14
 10
10.2023210115138898
 20
10.2023210115138898
 30
0.0
 11
9.5009940400166073
 21
9.5009940400166002
 31
0.0
  0
LINE
  5
190C
  8
0
  6
CONTINUOUS
 62
    14
 10
9.5009940400166073
 20
9.5009940400166002
 30
0.0
 11
8.9218100376541916
 21
10.2023210115138898
 31
0.0
  0
LINE
  5
190D
  8
0
  6
CONTINUOUS
 62
    14
 10
8.9218100376541916
 20
10.2023210115138898
 30
0.0
 11
8.9092333542404134
 21
10.2175499668270309
 31
0.0
  0
LINE
  5
190E
  8
0
  6
CONTINUOUS
 62
    14
 10
10.1891177441698595
 20
10.2175499668270309
 30
0.0
 11
10.2023210115138898
 21
10.2023210115138898
 31
0.0
  0
ENDBLK
  5
1910
  8
0
  0
BLOCK
  8
0
  2
*U17
 70
     1
 10
0.0
 20
0.0
 30
0.0
  3
*U17
  1

  0
SOLID
  5
1912
  8
0
  6
CONTINUOUS
 62
    12
 10
-7.9620276993582637
 20
13.0854187299767908
 30
0.0
 11
-7.7260530523303359
 21
12.5026863645126394
 31
0.0
 12
-7.3234451534659648
 22
12.5026863645126394
 32
0.0
 13
-7.3234451534659648
 23
12.5026863645126394
 33
0.0
210
0.0
220
0.0
230
-1.0
  0
SOLID
  5
1913
  8
0
  6
CONTINUOUS
 62
    12
 10
-7.3234451534659648
 20
12.5026863645126394
 30
0.0
 11
-7.6101021171157361
 21
11.8746475576899506
 31
0.0
 12
-6.6352139105341319
 22
11.8746475576899506
 32
0.0
 13
-6.6352139105341319
 23
11.8746475576899506
 33
0.0
210
0.0
220
0.0
230
-1.0
  0
SOLID
  5
1914
  8
0
  6
CONTINUOUS
 62
    12
 10
-7.3234451534659648
 20
12.5026863645126394
 30
0.0
 11
-7.7260530523303359
 21
12.5026863645126394
 31
0.0
 12
-7.6101021171157361
 22
11.8746475576899506
 32
0.0
 13
-7.6101021171157361
 23
11.8746475576899506
 33
0.0
210
0.0
220
0.0
230
-1.0
  0
SOLID
  5
1915
  8
0
  6
CONTINUOUS
 62
    12
 10
-6.6352139105341319
 20
11.8746475576899506
 30
0.0
 11
-7.6171013192580341
 21
11.3083213492021102
 31
0.0
 12
-6.0146099189682181
 22
11.3083213492021102
 32
0.0
 13
-6.0146099189682181
 23
11.3083213492021102
 33
0.0
210
0.0
220
0.0
230
-1.0
  0
SOLID
  5
1916
  8
0
  6
CONTINUOUS
 62
    12
 10
-6.6352139105341319
 20
11.8746475576899506
 30
0.0
 11
-7.6101021171157361
 21
11.8746475576899506
 31
0.0
 12
-7.6171013192580341
 22
11.3083213492021102
 32
0.0
 13
-7.6171013192580341
 23
11.3083213492021102
 33
0.0
210
0.0
220
0.0
230
-1.0
  0
SOLID
  5
1917
  8
0
  6
CONTINUOUS
 62
    12
 10
-6.0146099189682181
 20
11.3083213492021102
 30
0.0
 11
-7.618157370956764
 21
11.2228730734773201
 31
0.0
 12
-5.943956632866831
 22
11.2228730734773201
 32
0.0
 13
-5.943956632866831
 23
11.2228730734773201
 33
0.0
210
0.0
220
0.0
230
-1.0
  0
SOLID
  5
1918
  8
0
  6
CONTINUOUS
 62
    12
 10
-6.0146099189682181
 20
11.3083213492021102
 30
0.0
 11
-7.6171013192580341
 21
11.3083213492021102
 31
0.0
 12
-7.618157370956764
 22
11.2228730734773201
 32
0.0
 13
-7.618157370956764
 23
11.2228730734773201
 33
0.0
210
0.0
220
0.0
230
-1.0
  0
SOLID
  5
1919
  8
0
  6
CONTINUOUS
 62
    12
 10
-5.943956632866831
 20
11.2228730734773201
 30
0.0
 11
-7.6946377130821544
 21
10.8438371825922903
 31
0.0
 12
-5.6305491238885921
 22
10.8438371825922903
 32
0.0
 13
-5.6305491238885921
 23
10.8438371825922903
 33
0.0
210
0.0
220
0.0
230
-1.0
  0
SOLID
  5
191A
  8
0
  6
CONTINUOUS
 62
    12
 10
-5.943956632866831
 20
11.2228730734773201
 30
0.0
 11
-7.618157370956764
 21
11.2228730734773201
 31
0.0
 12
-7.6946377130821544
 22
10.8438371825922903
 32
0.0
 13
-7.6946377130821544
 23
10.8438371825922903
 33
0.0
210
0.0
220
0.0
230
-1.0
  0
SOLID
  5
191B
  8
0
  6
CONTINUOUS
 62
    12
 10
-5.6305491238885921
 20
10.8438371825922903
 30
0.0
 11
-7.7499421462694658
 21
10.5697489068275701
 31
0.0
 12
-5.4797845653268977
 22
10.5697489068275701
 32
0.0
 13
-5.4797845653268977
 23
10.5697489068275701
 33
0.0
210
0.0
220
0.0
230
-1.0
  0
SOLID
  5
191C
  8
0
  6
CONTINUOUS
 62
    12
 10
-5.6305491238885921
 20
10.8438371825922903
 30
0.0
 11
-7.6946377130821544
 21
10.8438371825922903
 31
0.0
 12
-7.7499421462694658
 22
10.5697489068275701
 32
0.0
 13
-7.7499421462694658
 23
10.5697489068275701
 33
0.0
210
0.0
220
0.0
230
-1.0
  0
SOLID
  5
191D
  8
0
  6
CONTINUOUS
 62
    12
 10
-5.4797845653268977
 20
10.5697489068275701
 30
0.0
 11
-7.8518819066241523
 21
10.3130427608143496
 31
0.0
 12
-5.3385811932535159
 22
10.3130427608143496
 32
0.0
 13
-5.3385811932535159
 23
10.3130427608143496
 33
0.0
210
0.0
220
0.0
230
-1.0
  0
SOLID
  5
191E
  8
0
  6
CONTINUOUS
 62
    12
 10
-5.4797845653268977
 20
10.5697489068275701
 30
0.0
 11
-7.7499421462694658
 21
10.5697489068275701
 31
0.0
 12
-7.8518819066241523
 22
10.3130427608143496
 32
0.0
 13
-7.8518819066241523
 23
10.3130427608143496
 33
0.0
210
0.0
220
0.0
230
-1.0
  0
SOLID
  5
191F
  8
0
  6
CONTINUOUS
 62
    12
 10
-5.3385811932535159
 20
10.3130427608143496
 30
0.0
 11
-8.0009301331315203
 21
9.9377074091940703
 31
0.0
 12
-5.2151847480593299
 22
9.9377074091940703
 32
0.0
 13
-5.2151847480593299
 23
9.9377074091940703
 33
0.0
210
0.0
220
0.0
230
-1.0
  0
SOLID
  5
1920
  8
0
  6
CONTINUOUS
 62
    12
 10
-5.3385811932535159
 20
10.3130427608143496
 30
0.0
 11
-7.8518819066241523
 21
10.3130427608143496
 31
0.0
 12
-8.0009301331315203
 22
9.9377074091940703
 32
0.0
 13
-8.0009301331315203
 23
9.9377074091940703
 33
0.0
210
0.0
220
0.0
230
-1.0
  0
SOLID
  5
1921
  8
0
  6
CONTINUOUS
 62
    12
 10
-5.2151847480593299
 20
9.9377074091940703
 30
0.0
 11
-8.1271139844739153
 21
9.7320660037790852
 31
0.0
 12
-5.147577424892452
 22
9.7320660037790852
 32
0.0
 13
-5.147577424892452
 23
9.7320660037790852
 33
0.0
210
0.0
220
0.0
230
-1.0
  0
SOLID
  5
1922
  8
0
  6
CONTINUOUS
 62
    12
 10
-5.2151847480593299
 20
9.9377074091940703
 30
0.0
 11
-8.0009301331315203
 21
9.9377074091940703
 31
0.0
 12
-8.1271139844739153
 22
9.7320660037790852
 32
0.0
 13
-8.1271139844739153
 23
9.7320660037790852
 33
0.0
210
0.0
220
0.0
230
-1.0
  0
SOLID
  5
1923
  8
0
  6
CONTINUOUS
 62
    12
 10
-5.147577424892452
 20
9.7320660037790852
 30
0.0
 11
-8.3625008409542172
 21
9.3484568218760895
 31
0.0
 12
-5.0949068690949044
 22
9.3484568218760895
 32
0.0
 13
-5.0949068690949044
 23
9.3484568218760895
 33
0.0
210
0.0
220
0.0
230
-1.0
  0
SOLID
  5
1924
  8
0
  6
CONTINUOUS
 62
    12
 10
-5.147577424892452
 20
9.7320660037790852
 30
0.0
 11
-8.1271139844739153
 21
9.7320660037790852
 31
0.0
 12
-8.3625008409542172
 22
9.3484568218760895
 32
0.0
 13
-8.3625008409542172
 23
9.3484568218760895
 33
0.0
210
0.0
220
0.0
230
-1.0
  0
SOLID
  5
1925
  8
0
  6
CONTINUOUS
 62
    12
 10
-5.0949068690949044
 20
9.3484568218760895
 30
0.0
 11
-8.5633513114609343
 21
9.1185595962605994
 31
0.0
 12
-5.0633413716544799
 22
9.1185595962605994
 32
0.0
 13
-5.0633413716544799
 23
9.1185595962605994
 33
0.0
210
0.0
220
0.0
230
-1.0
  0
SOLID
  5
1926
  8
0
  6
CONTINUOUS
 62
    12
 10
-5.0949068690949044
 20
9.3484568218760895
 30
0.0
 11
-8.3625008409542172
 21
9.3484568218760895
 31
0.0
 12
-8.5633513114609343
 22
9.1185595962605994
 32
0.0
 13
-8.5633513114609343
 23
9.1185595962605994
 33
0.0
210
0.0
220
0.0
230
-1.0
  0
SOLID
  5
1927
  8
0
  6
CONTINUOUS
 62
    12
 10
-5.0633413716544799
 20
9.1185595962605994
 30
0.0
 11
-8.8222356798165649
 21
8.8222356798165578
 31
0.0
 12
-5.0751921239010747
 22
8.8222356798165578
 32
0.0
 13
-5.0751921239010747
 23
8.8222356798165578
 33
0.0
210
0.0
220
0.0
230
-1.0
  0
SOLID
  5
1928
  8
0
  6
CONTINUOUS
 62
    12
 10
-5.0633413716544799
 20
9.1185595962605994
 30
0.0
 11
-8.5633513114609343
 21
9.1185595962605994
 31
0.0
 12
-8.8222356798165649
 22
8.8222356798165578
 32
0.0
 13
-8.8222356798165649
 23
8.8222356798165578
 33
0.0
210
0.0
220
0.0
230
-1.0
  0
SOLID
  5
1929
  8
0
  6
CONTINUOUS
 62
    12
 10
-5.0751921239010747
 20
8.8222356798165578
 30
0.0
 11
-8.4911646200021238
 21
8.4911646200021185
 31
0.0
 12
-5.0884325033917372
 22
8.4911646200021185
 32
0.0
 13
-5.0884325033917372
 23
8.4911646200021185
 33
0.0
210
0.0
220
0.0
230
-1.0
  0
SOLID
  5
192A
  8
0
  6
CONTINUOUS
 62
    12
 10
-5.0751921239010747
 20
8.8222356798165578
 30
0.0
 11
-8.8222356798165649
 21
8.8222356798165578
 31
0.0
 12
-8.4911646200021238
 22
8.4911646200021185
 32
0.0
 13
-8.4911646200021238
 23
8.4911646200021185
 33
0.0
210
0.0
220
0.0
230
-1.0
  0
SOLID
  5
192B
  8
0
  6
CONTINUOUS
 62
    12
 10
-5.0884325033917372
 20
8.4911646200021185
 30
0.0
 11
-7.8689441538800811
 21
7.8689441538800811
 31
0.0
 12
-5.2220884387631097
 22
7.8689441538800811
 32
0.0
 13
-5.2220884387631097
 23
7.8689441538800811
 33
0.0
210
0.0
220
0.0
230
-1.0
  0
SOLID
  5
192C
  8
0
  6
CONTINUOUS
 62
    12
 10
-5.0884325033917372
 20
8.4911646200021185
 30
0.0
 11
-8.4911646200021238
 21
8.4911646200021185
 31
0.0
 12
-7.8689441538800811
 22
7.8689441538800811
 32
0.0
 13
-7.8689441538800811
 23
7.8689441538800811
 33
0.0
210
0.0
220
0.0
230
-1.0
  0
SOLID
  5
192D
  8
0
  6
CONTINUOUS
 62
    12
 10
-5.2220884387631097
 20
7.8689441538800811
 30
0.0
 11
-7.2708040518988524
 21
7.270804051898855
 31
0.0
 12
-5.4602481098055078
 22
7.270804051898855
 32
0.0
 13
-5.4602481098055078
 23
7.270804051898855
 33
0.0
210
0.0
220
0.0
230
-1.0
  0
SOLID
  5
192E
  8
0
  6
CONTINUOUS
 62
    12
 10
-5.2220884387631097
 20
7.8689441538800811
 30
0.0
 11
-7.8689441538800811
 21
7.8689441538800811
 31
0.0
 12
-7.2708040518988524
 22
7.270804051898855
 32
0.0
 13
-7.2708040518988524
 23
7.270804051898855
 33
0.0
210
0.0
220
0.0
230
-1.0
  0
SOLID
  5
192F
  8
0
  6
CONTINUOUS
 62
    12
 10
-5.7956751554289161
 20
6.7149184983836463
 30
0.0
 11
-6.7149184983836392
 21
6.7149184983836463
 31
0.0
 12
-6.2181777945863406
 22
6.2181777945863512
 32
0.0
 13
-6.2181777945863406
 23
6.2181777945863512
 33
0.0
210
0.0
220
0.0
230
-1.0
  0
SOLID
  5
1930
  8
0
  6
CONTINUOUS
 62
    12
 10
-5.4602481098055078
 20
7.270804051898855
 30
0.0
 11
-6.7149184983836392
 21
6.7149184983836463
 31
0.0
 12
-5.7956751554289161
 22
6.7149184983836463
 32
0.0
 13
-5.7956751554289161
 23
6.7149184983836463
 33
0.0
210
0.0
220
0.0
230
-1.0
  0
SOLID
  5
1931
  8
0
  6
CONTINUOUS
 62
    12
 10
-5.4602481098055078
 20
7.270804051898855
 30
0.0
 11
-7.2708040518988524
 21
7.270804051898855
 31
0.0
 12
-6.7149184983836392
 22
6.7149184983836463
 32
0.0
 13
-6.7149184983836392
 23
6.7149184983836463
 33
0.0
210
0.0
220
0.0
230
-1.0
  0
LINE
  5
1932
  8
0
  6
CONTINUOUS
 62
    12
 10
7.9620276993582637
 20
13.0854187299767908
 30
0.0
 11
7.7260530523303359
 21
12.5026863645126394
 31
0.0
  0
LINE
  5
1933
  8
0
  6
CONTINUOUS
 62
    12
 10
7.3234451534659648
 20
12.5026863645126394
 30
0.0
 11
7.9620276993582637
 21
13.0854187299767908
 31
0.0
  0
LINE
  5
1934
  8
0
  6
CONTINUOUS
 62
    12
 10
6.6352139105341319
 20
11.8746475576899506
 30
0.0
 11
7.3234451534659648
 21
12.5026863645126394
 31
0.0
  0
LINE
  5
1935
  8
0
  6
CONTINUOUS
 62
    12
 10
7.7260530523303359
 20
12.5026863645126394
 30
0.0
 11
7.6101021171157361
 21
11.8746475576899506
 31
0.0
  0
LINE
  5
1936
  8
0
  6
CONTINUOUS
 62
    12
 10
6.0146099189682181
 20
11.3083213492021102
 30
0.0
 11
6.6352139105341319
 21
11.8746475576899506
 31
0.0
  0
LINE
  5
1937
  8
0
  6
CONTINUOUS
 62
    12
 10
7.6101021171157361
 20
11.8746475576899506
 30
0.0
 11
7.6171013192580341
 21
11.3083213492021102
 31
0.0
  0
LINE
  5
1938
  8
0
  6
CONTINUOUS
 62
    12
 10
5.943956632866831
 20
11.2228730734773201
 30
0.0
 11
6.0146099189682181
 21
11.3083213492021102
 31
0.0
  0
LINE
  5
1939
  8
0
  6
CONTINUOUS
 62
    12
 10
7.6171013192580341
 20
11.3083213492021102
 30
0.0
 11
7.618157370956764
 21
11.2228730734773201
 31
0.0
  0
LINE
  5
193A
  8
0
  6
CONTINUOUS
 62
    12
 10
5.6305491238885921
 20
10.8438371825922903
 30
0.0
 11
5.943956632866831
 21
11.2228730734773201
 31
0.0
  0
LINE
  5
193B
  8
0
  6
CONTINUOUS
 62
    12
 10
7.618157370956764
 20
11.2228730734773201
 30
0.0
 11
7.6946377130821544
 21
10.8438371825922903
 31
0.0
  0
LINE
  5
193C
  8
0
  6
CONTINUOUS
 62
    12
 10
5.4797845653268977
 20
10.5697489068275701
 30
0.0
 11
5.6305491238885921
 21
10.8438371825922903
 31
0.0
  0
LINE
  5
193D
  8
0
  6
CONTINUOUS
 62
    12
 10
7.6946377130821544
 20
10.8438371825922903
 30
0.0
 11
7.7499421462694658
 21
10.5697489068275701
 31
0.0
  0
LINE
  5
193E
  8
0
  6
CONTINUOUS
 62
    12
 10
5.3385811932535159
 20
10.3130427608143496
 30
0.0
 11
5.4797845653268977
 21
10.5697489068275701
 31
0.0
  0
LINE
  5
193F
  8
0
  6
CONTINUOUS
 62
    12
 10
7.7499421462694658
 20
10.5697489068275701
 30
0.0
 11
7.8518819066241523
 21
10.3130427608143496
 31
0.0
  0
LINE
  5
1940
  8
0
  6
CONTINUOUS
 62
    12
 10
5.2151847480593299
 20
9.9377074091940703
 30
0.0
 11
5.3385811932535159
 21
10.3130427608143496
 31
0.0
  0
LINE
  5
1941
  8
0
  6
CONTINUOUS
 62
    12
 10
7.8518819066241523
 20
10.3130427608143496
 30
0.0
 11
8.0009301331315203
 21
9.9377074091940703
 31
0.0
  0
LINE
  5
1942
  8
0
  6
CONTINUOUS
 62
    12
 10
5.147577424892452
 20
9.7320660037790852
 30
0.0
 11
5.2151847480593299
 21
9.9377074091940703
 31
0.0
  0
LINE
  5
1943
  8
0
  6
CONTINUOUS
 62
    12
 10
8.0009301331315203
 20
9.9377074091940703
 30
0.0
 11
8.1271139844739153
 21
9.7320660037790852
 31
0.0
  0
LINE
  5
1944
  8
0
  6
CONTINUOUS
 62
    12
 10
5.0949068690949044
 20
9.3484568218760895
 30
0.0
 11
5.147577424892452
 21
9.7320660037790852
 31
0.0
  0
LINE
  5
1945
  8
0
  6
CONTINUOUS
 62
    12
 10
8.1271139844739153
 20
9.7320660037790852
 30
0.0
 11
8.3625008409542172
 21
9.3484568218760895
 31
0.0
  0
LINE
  5
1946
  8
0
  6
CONTINUOUS
 62
    12
 10
5.0633413716544799
 20
9.1185595962605994
 30
0.0
 11
5.0949068690949044
 21
9.3484568218760895
 31
0.0
  0
LINE
  5
1947
  8
0
  6
CONTINUOUS
 62
    12
 10
8.3625008409542172
 20
9.3484568218760895
 30
0.0
 11
8.5633513114609343
 21
9.1185595962605994
 31
0.0
  0
LINE
  5
1948
  8
0
  6
CONTINUOUS
 62
    12
 10
5.0751921239010747
 20
8.8222356798165578
 30
0.0
 11
5.0633413716544799
 21
9.1185595962605994
 31
0.0
  0
LINE
  5
1949
  8
0
  6
CONTINUOUS
 62
    12
 10
8.5633513114609343
 20
9.1185595962605994
 30
0.0
 11
8.8222356798165649
 21
8.8222356798165578
 31
0.0
  0
LINE
  5
194A
  8
0
  6
CONTINUOUS
 62
    12
 10
5.0884325033917372
 20
8.4911646200021185
 30
0.0
 11
5.0751921239010747
 21
8.8222356798165578
 31
0.0
  0
LINE
  5
194B
  8
0
  6
CONTINUOUS
 62
    12
 10
8.8222356798165649
 20
8.8222356798165578
 30
0.0
 11
8.4911646200021238
 21
8.4911646200021185
 31
0.0
  0
LINE
  5
194C
  8
0
  6
CONTINUOUS
 62
    12
 10
5.2220884387631097
 20
7.8689441538800811
 30
0.0
 11
5.0884325033917372
 21
8.4911646200021185
 31
0.0
  0
LINE
  5
194D
  8
0
  6
CONTINUOUS
 62
    12
 10
8.4911646200021238
 20
8.4911646200021185
 30
0.0
 11
7.8689441538800811
 21
7.8689441538800811
 31
0.0
  0
LINE
  5
194E
  8
0
  6
CONTINUOUS
 62
    12
 10
5.4602481098055078
 20
7.270804051898855
 30
0.0
 11
5.2220884387631097
 21
7.8689441538800811
 31
0.0
  0
LINE
  5
194F
  8
0
  6
CONTINUOUS
 62
    12
 10
7.8689441538800811
 20
7.8689441538800811
 30
0.0
 11
7.2708040518988524
 21
7.270804051898855
 31
0.0
  0
LINE
  5
1950
  8
0
  6
CONTINUOUS
 62
    12
 10
6.7149184983836392
 20
6.7149184983836463
 30
0.0
 11
6.2181777945863406
 21
6.2181777945863512
 31
0.0
  0
LINE
  5
1951
  8
0
  6
CONTINUOUS
 62
    12
 10
6.2181777945863406
 20
6.2181777945863512
 30
0.0
 11
5.7956751554289161
 21
6.7149184983836463
 31
0.0
  0
LINE
  5
1952
  8
0
  6
CONTINUOUS
 62
    12
 10
5.7956751554289161
 20
6.7149184983836463
 30
0.0
 11
5.4602481098055078
 21
7.270804051898855
 31
0.0
  0
LINE
  5
1953
  8
0
  6
CONTINUOUS
 62
    12
 10
7.2708040518988524
 20
7.270804051898855
 30
0.0
 11
6.7149184983836392
 21
6.7149184983836463
 31
0.0
  0
ENDBLK
  5
1955
  8
0
  0
BLOCK
  8
0
  2
*U18
 70
     1
 10
0.0
 20
0.0
 30
0.0
  3
*U18
  1

  0
SOLID
  5
1957
  8
0
  6
CONTINUOUS
 62
    10
 10
-6.0146099189681879
 20
11.3083213492021102
 30
0.0
 11
-5.9744615744533309
 21
11.2597658325191805
 31
0.0
 12
-5.1729134187847636
 22
11.2597658325191805
 32
0.0
 13
-5.1729134187847636
 23
11.2597658325191805
 33
0.0
210
0.0
220
0.0
230
-1.0
  0
SOLID
  5
1958
  8
0
  6
CONTINUOUS
 62
    10
 10
-5.1729134187847636
 20
11.2597658325191805
 30
0.0
 11
-5.7984410244341014
 21
11.0468861022021603
 31
0.0
 12
-4.3888130564947847
 22
11.0468861022021603
 32
0.0
 13
-4.3888130564947847
 23
11.0468861022021603
 33
0.0
210
0.0
220
0.0
230
-1.0
  0
SOLID
  5
1959
  8
0
  6
CONTINUOUS
 62
    10
 10
-5.1729134187847636
 20
11.2597658325191805
 30
0.0
 11
-5.9744615744533309
 21
11.2597658325191805
 31
0.0
 12
-5.7984410244341014
 22
11.0468861022021603
 32
0.0
 13
-5.7984410244341014
 23
11.0468861022021603
 33
0.0
210
0.0
220
0.0
230
-1.0
  0
SOLID
  5
195A
  8
0
  6
CONTINUOUS
 62
    10
 10
-4.3888130564947847
 20
11.0468861022021603
 30
0.0
 11
-5.6305491238885921
 21
10.8438371825922903
 31
0.0
 12
-4.005231815503012
 22
10.8438371825922903
 32
0.0
 13
-4.005231815503012
 23
10.8438371825922903
 33
0.0
210
0.0
220
0.0
230
-1.0
  0
SOLID
  5
195B
  8
0
  6
CONTINUOUS
 62
    10
 10
-4.3888130564947847
 20
11.0468861022021603
 30
0.0
 11
-5.7984410244341014
 21
11.0468861022021603
 31
0.0
 12
-5.6305491238885921
 22
10.8438371825922903
 32
0.0
 13
-5.6305491238885921
 23
10.8438371825922903
 33
0.0
210
0.0
220
0.0
230
-1.0
  0
SOLID
  5
195C
  8
0
  6
CONTINUOUS
 62
    10
 10
-4.005231815503012
 20
10.8438371825922903
 30
0.0
 11
-5.5390228993184261
 21
10.6774435333220907
 31
0.0
 12
-3.6908963213627559
 22
10.6774435333220907
 32
0.0
 13
-3.6908963213627559
 23
10.6774435333220907
 33
0.0
210
0.0
220
0.0
230
-1.0
  0
SOLID
  5
195D
  8
0
  6
CONTINUOUS
 62
    10
 10
-4.005231815503012
 20
10.8438371825922903
 30
0.0
 11
-5.6305491238885921
 21
10.8438371825922903
 31
0.0
 12
-5.5390228993184261
 22
10.6774435333220907
 32
0.0
 13
-5.5390228993184261
 23
10.6774435333220907
 33
0.0
210
0.0
220
0.0
230
-1.0
  0
SOLID
  5
195E
  8
0
  6
CONTINUOUS
 62
    10
 10
-3.6908963213627559
 20
10.6774435333220907
 30
0.0
 11
-5.3385811932535159
 21
10.3130427608143496
 31
0.0
 12
-3.2740597324553291
 22
10.3130427608143496
 32
0.0
 13
-3.2740597324553291
 23
10.3130427608143496
 33
0.0
210
0.0
220
0.0
230
-1.0
  0
SOLID
  5
195F
  8
0
  6
CONTINUOUS
 62
    10
 10
-3.6908963213627559
 20
10.6774435333220907
 30
0.0
 11
-5.5390228993184261
 21
10.6774435333220907
 31
0.0
 12
-5.3385811932535159
 22
10.3130427608143496
 32
0.0
 13
-5.3385811932535159
 23
10.3130427608143496
 33
0.0
210
0.0
220
0.0
230
-1.0
  0
SOLID
  5
1960
  8
0
  6
CONTINUOUS
 62
    10
 10
-3.2740597324553291
 20
10.3130427608143496
 30
0.0
 11
-5.2898798128310922
 21
10.1649076203208093
 31
0.0
 12
-3.104608536631273
 22
10.1649076203208093
 32
0.0
 13
-3.104608536631273
 23
10.1649076203208093
 33
0.0
210
0.0
220
0.0
230
-1.0
  0
SOLID
  5
1961
  8
0
  6
CONTINUOUS
 62
    10
 10
-3.2740597324553291
 20
10.3130427608143496
 30
0.0
 11
-5.3385811932535159
 21
10.3130427608143496
 31
0.0
 12
-5.2898798128310922
 22
10.1649076203208093
 32
0.0
 13
-5.2898798128310922
 23
10.1649076203208093
 33
0.0
210
0.0
220
0.0
230
-1.0
  0
SOLID
  5
1962
  8
0
  6
CONTINUOUS
 62
    10
 10
-3.104608536631273
 20
10.1649076203208093
 30
0.0
 11
-5.147577424892452
 21
9.7320660037790852
 31
0.0
 12
-2.7965746966200138
 22
9.7320660037790852
 32
0.0
 13
-2.7965746966200138
 23
9.7320660037790852
 33
0.0
210
0.0
220
0.0
230
-1.0
  0
SOLID
  5
1963
  8
0
  6
CONTINUOUS
 62
    10
 10
-3.104608536631273
 20
10.1649076203208093
 30
0.0
 11
-5.2898798128310922
 21
10.1649076203208093
 31
0.0
 12
-5.147577424892452
 22
9.7320660037790852
 32
0.0
 13
-5.147577424892452
 23
9.7320660037790852
 33
0.0
210
0.0
220
0.0
230
-1.0
  0
SOLID
  5
1964
  8
0
  6
CONTINUOUS
 62
    10
 10
-2.7965746966200138
 20
9.7320660037790852
 30
0.0
 11
-5.119553802303364
 21
9.5279648931570691
 31
0.0
 12
-2.6513251493196082
 22
9.5279648931570691
 32
0.0
 13
-2.6513251493196082
 23
9.5279648931570691
 33
0.0
210
0.0
220
0.0
230
-1.0
  0
SOLID
  5
1965
  8
0
  6
CONTINUOUS
 62
    10
 10
-2.7965746966200138
 20
9.7320660037790852
 30
0.0
 11
-5.147577424892452
 21
9.7320660037790852
 31
0.0
 12
-5.119553802303364
 22
9.5279648931570691
 32
0.0
 13
-5.119553802303364
 23
9.5279648931570691
 33
0.0
210
0.0
220
0.0
230
-1.0
  0
SOLID
  5
1966
  8
0
  6
CONTINUOUS
 62
    10
 10
-2.6513251493196082
 20
9.5279648931570691
 30
0.0
 11
-5.0633413716544799
 21
9.1185595962605994
 31
0.0
 12
-2.482847451000572
 22
9.1185595962605994
 32
0.0
 13
-2.482847451000572
 23
9.1185595962605994
 33
0.0
210
0.0
220
0.0
230
-1.0
  0
SOLID
  5
1967
  8
0
  6
CONTINUOUS
 62
    10
 10
-2.6513251493196082
 20
9.5279648931570691
 30
0.0
 11
-5.119553802303364
 21
9.5279648931570691
 31
0.0
 12
-5.0633413716544799
 22
9.1185595962605994
 32
0.0
 13
-5.0633413716544799
 23
9.1185595962605994
 33
0.0
210
0.0
220
0.0
230
-1.0
  0
SOLID
  5
1968
  8
0
  6
CONTINUOUS
 62
    10
 10
-2.482847451000572
 20
9.1185595962605994
 30
0.0
 11
-5.0764878050492541
 21
8.789837625726669
 31
0.0
 12
-2.3475724035053762
 22
8.789837625726669
 32
0.0
 13
-2.3475724035053762
 23
8.789837625726669
 33
0.0
210
0.0
220
0.0
230
-1.0
  0
SOLID
  5
1969
  8
0
  6
CONTINUOUS
 62
    10
 10
-2.482847451000572
 20
9.1185595962605994
 30
0.0
 11
-5.0633413716544799
 21
9.1185595962605994
 31
0.0
 12
-5.0764878050492541
 22
8.789837625726669
 32
0.0
 13
-5.0764878050492541
 23
8.789837625726669
 33
0.0
210
0.0
220
0.0
230
-1.0
  0
SOLID
  5
196A
  8
0
  6
CONTINUOUS
 62
    10
 10
-2.3475724035053762
 20
8.789837625726669
 30
0.0
 11
-5.0884325033917372
 21
8.4911646200021185
 31
0.0
 12
-2.2949452516430391
 22
8.4911646200021185
 32
0.0
 13
-2.2949452516430391
 23
8.4911646200021185
 33
0.0
210
0.0
220
0.0
230
-1.0
  0
SOLID
  5
196B
  8
0
  6
CONTINUOUS
 62
    10
 10
-2.3475724035053762
 20
8.789837625726669
 30
0.0
 11
-5.0764878050492541
 21
8.789837625726669
 31
0.0
 12
-5.0884325033917372
 22
8.4911646200021185
 32
0.0
 13
-5.0884325033917372
 23
8.4911646200021185
 33
0.0
210
0.0
220
0.0
230
-1.0
  0
SOLID
  5
196C
  8
0
  6
CONTINUOUS
 62
    10
 10
-2.2949452516430391
 20
8.4911646200021185
 30
0.0
 11
-5.1987836181922704
 21
7.97743717574392
 31
0.0
 12
-2.2044248105364201
 22
7.97743717574392
 32
0.0
 13
-2.2044248105364201
 23
7.97743717574392
 33
0.0
210
0.0
220
0.0
230
-1.0
  0
SOLID
  5
196D
  8
0
  6
CONTINUOUS
 62
    10
 10
-2.2949452516430391
 20
8.4911646200021185
 30
0.0
 11
-5.0884325033917372
 21
8.4911646200021185
 31
0.0
 12
-5.1987836181922704
 22
7.97743717574392
 32
0.0
 13
-5.1987836181922704
 23
7.97743717574392
 33
0.0
210
0.0
220
0.0
230
-1.0
  0
SOLID
  5
196E
  8
0
  6
CONTINUOUS
 62
    10
 10
-2.2044248105364201
 20
7.97743717574392
 30
0.0
 11
-5.2220884387631097
 21
7.8689441538800811
 31
0.0
 12
-2.2072953985611812
 22
7.8689441538800811
 32
0.0
 13
-2.2072953985611812
 23
7.8689441538800811
 33
0.0
210
0.0
220
0.0
230
-1.0
  0
SOLID
  5
196F
  8
0
  6
CONTINUOUS
 62
    10
 10
-2.2044248105364201
 20
7.97743717574392
 30
0.0
 11
-5.1987836181922704
 21
7.97743717574392
 31
0.0
 12
-5.2220884387631097
 22
7.8689441538800811
 32
0.0
 13
-5.2220884387631097
 23
7.8689441538800811
 33
0.0
210
0.0
220
0.0
230
-1.0
  0
SOLID
  5
1970
  8
0
  6
CONTINUOUS
 62
    10
 10
-2.2072953985611812
 20
7.8689441538800811
 30
0.0
 11
-5.4602481098055078
 21
7.270804051898855
 31
0.0
 12
-2.2231214285157299
 22
7.270804051898855
 32
0.0
 13
-2.2231214285157299
 23
7.270804051898855
 33
0.0
210
0.0
220
0.0
230
-1.0
  0
SOLID
  5
1971
  8
0
  6
CONTINUOUS
 62
    10
 10
-2.2072953985611812
 20
7.8689441538800811
 30
0.0
 11
-5.2220884387631097
 21
7.8689441538800811
 31
0.0
 12
-5.4602481098055078
 22
7.270804051898855
 32
0.0
 13
-5.4602481098055078
 23
7.270804051898855
 33
0.0
210
0.0
220
0.0
230
-1.0
  0
SOLID
  5
1972
  8
0
  6
CONTINUOUS
 62
    10
 10
-2.2231214285157299
 20
7.270804051898855
 30
0.0
 11
-5.5510138215734592
 21
7.1203828244377378
 31
0.0
 12
-2.2271013837866009
 22
7.1203828244377378
 32
0.0
 13
-2.2271013837866009
 23
7.1203828244377378
 33
0.0
210
0.0
220
0.0
230
-1.0
  0
SOLID
  5
1973
  8
0
  6
CONTINUOUS
 62
    10
 10
-2.2231214285157299
 20
7.270804051898855
 30
0.0
 11
-5.4602481098055078
 21
7.270804051898855
 31
0.0
 12
-5.5510138215734592
 22
7.1203828244377378
 32
0.0
 13
-5.5510138215734592
 23
7.1203828244377378
 33
0.0
210
0.0
220
0.0
230
-1.0
  0
SOLID
  5
1974
  8
0
  6
CONTINUOUS
 62
    10
 10
-2.2271013837866009
 20
7.1203828244377378
 30
0.0
 11
-5.7956751554289161
 21
6.7149184983836463
 31
0.0
 12
-2.314520702256341
 22
6.7149184983836463
 32
0.0
 13
-2.314520702256341
 23
6.7149184983836463
 33
0.0
210
0.0
220
0.0
230
-1.0
  0
SOLID
  5
1975
  8
0
  6
CONTINUOUS
 62
    10
 10
-2.2271013837866009
 20
7.1203828244377378
 30
0.0
 11
-5.5510138215734592
 21
7.1203828244377378
 31
0.0
 12
-5.7956751554289161
 22
6.7149184983836463
 32
0.0
 13
-5.7956751554289161
 23
6.7149184983836463
 33
0.0
210
0.0
220
0.0
230
-1.0
  0
SOLID
  5
1976
  8
0
  6
CONTINUOUS
 62
    10
 10
-2.314520702256341
 20
6.7149184983836463
 30
0.0
 11
-6.1911778664401513
 21
6.2499218881535814
 31
0.0
 12
-2.414775358819218
 22
6.2499218881535814
 32
0.0
 13
-2.414775358819218
 23
6.2499218881535814
 33
0.0
210
0.0
220
0.0
230
-1.0
  0
SOLID
  5
1977
  8
0
  6
CONTINUOUS
 62
    10
 10
-2.314520702256341
 20
6.7149184983836463
 30
0.0
 11
-5.7956751554289161
 21
6.7149184983836463
 31
0.0
 12
-6.1911778664401513
 22
6.2499218881535814
 32
0.0
 13
-6.1911778664401513
 23
6.2499218881535814
 33
0.0
210
0.0
220
0.0
230
-1.0
  0
SOLID
  5
1978
  8
0
  6
CONTINUOUS
 62
    10
 10
-2.414775358819218
 20
6.2499218881535814
 30
0.0
 11
-6.2181777945863406
 21
6.2181777945863512
 31
0.0
 12
-2.427658380419373
 22
6.2181777945863512
 32
0.0
 13
-2.427658380419373
 23
6.2181777945863512
 33
0.0
210
0.0
220
0.0
230
-1.0
  0
SOLID
  5
1979
  8
0
  6
CONTINUOUS
 62
    10
 10
-2.414775358819218
 20
6.2499218881535814
 30
0.0
 11
-6.1911778664401513
 21
6.2499218881535814
 31
0.0
 12
-6.2181777945863406
 22
6.2181777945863512
 32
0.0
 13
-6.2181777945863406
 23
6.2181777945863512
 33
0.0
210
0.0
220
0.0
230
-1.0
  0
SOLID
  5
197A
  8
0
  6
CONTINUOUS
 62
    10
 10
-2.427658380419373
 20
6.2181777945863512
 30
0.0
 11
-5.3977904734767232
 21
5.3977904734767321
 31
0.0
 12
-2.7606043363643571
 22
5.3977904734767321
 32
0.0
 13
-2.7606043363643571
 23
5.3977904734767321
 33
0.0
210
0.0
220
0.0
230
-1.0
  0
SOLID
  5
197B
  8
0
  6
CONTINUOUS
 62
    10
 10
-2.427658380419373
 20
6.2181777945863512
 30
0.0
 11
-6.2181777945863406
 21
6.2181777945863512
 31
0.0
 12
-5.3977904734767232
 22
5.3977904734767321
 32
0.0
 13
-5.3977904734767232
 23
5.3977904734767321
 33
0.0
210
0.0
220
0.0
230
-1.0
  0
SOLID
  5
197C
  8
0
  6
CONTINUOUS
 62
    10
 10
-3.2519797491283451
 20
4.595056411568339
 30
0.0
 11
-4.595056411568331
 21
4.595056411568339
 31
0.0
 12
-3.8709865571331288
 22
3.8709865571331359
 32
0.0
 13
-3.8709865571331288
 23
3.8709865571331359
 33
0.0
210
0.0
220
0.0
230
-1.0
  0
SOLID
  5
197D
  8
0
  6
CONTINUOUS
 62
    10
 10
-2.7606043363643571
 20
5.3977904734767321
 30
0.0
 11
-4.595056411568331
 21
4.595056411568339
 31
0.0
 12
-3.2519797491283451
 22
4.595056411568339
 32
0.0
 13
-3.2519797491283451
 23
4.595056411568339
 33
0.0
210
0.0
220
0.0
230
-1.0
  0
SOLID
  5
197E
  8
0
  6
CONTINUOUS
 62
    10
 10
-2.7606043363643571
 20
5.3977904734767321
 30
0.0
 11
-5.3977904734767232
 21
5.3977904734767321
 31
0.0
 12
-4.595056411568331
 22
4.595056411568339
 32
0.0
 13
-4.595056411568331
 23
4.595056411568339
 33
0.0
210
0.0
220
0.0
230
-1.0
  0
LINE
  5
197F
  8
0
  6
CONTINUOUS
 62
    10
 10
6.0146099189681879
 20
11.3083213492021102
 30
0.0
 11
5.9744615744533309
 21
11.2597658325191805
 31
0.0
  0
LINE
  5
1980
  8
0
  6
CONTINUOUS
 62
    10
 10
5.1729134187847636
 20
11.2597658325191805
 30
0.0
 11
6.0146099189681879
 21
11.3083213492021102
 31
0.0
  0
LINE
  5
1981
  8
0
  6
CONTINUOUS
 62
    10
 10
4.3888130564947847
 20
11.0468861022021603
 30
0.0
 11
5.1729134187847636
 21
11.2597658325191805
 31
0.0
  0
LINE
  5
1982
  8
0
  6
CONTINUOUS
 62
    10
 10
5.9744615744533309
 20
11.2597658325191805
 30
0.0
 11
5.7984410244341014
 21
11.0468861022021603
 31
0.0
  0
LINE
  5
1983
  8
0
  6
CONTINUOUS
 62
    10
 10
4.005231815503012
 20
10.8438371825922903
 30
0.0
 11
4.3888130564947847
 21
11.0468861022021603
 31
0.0
  0
LINE
  5
1984
  8
0
  6
CONTINUOUS
 62
    10
 10
5.7984410244341014
 20
11.0468861022021603
 30
0.0
 11
5.6305491238885921
 21
10.8438371825922903
 31
0.0
  0
LINE
  5
1985
  8
0
  6
CONTINUOUS
 62
    10
 10
3.6908963213627559
 20
10.6774435333220907
 30
0.0
 11
4.005231815503012
 21
10.8438371825922903
 31
0.0
  0
LINE
  5
1986
  8
0
  6
CONTINUOUS
 62
    10
 10
5.6305491238885921
 20
10.8438371825922903
 30
0.0
 11
5.5390228993184261
 21
10.6774435333220907
 31
0.0
  0
LINE
  5
1987
  8
0
  6
CONTINUOUS
 62
    10
 10
3.2740597324553291
 20
10.3130427608143496
 30
0.0
 11
3.6908963213627559
 21
10.6774435333220907
 31
0.0
  0
LINE
  5
1988
  8
0
  6
CONTINUOUS
 62
    10
 10
5.5390228993184261
 20
10.6774435333220907
 30
0.0
 11
5.3385811932535159
 21
10.3130427608143496
 31
0.0
  0
LINE
  5
1989
  8
0
  6
CONTINUOUS
 62
    10
 10
3.104608536631273
 20
10.1649076203208093
 30
0.0
 11
3.2740597324553291
 21
10.3130427608143496
 31
0.0
  0
LINE
  5
198A
  8
0
  6
CONTINUOUS
 62
    10
 10
5.3385811932535159
 20
10.3130427608143496
 30
0.0
 11
5.2898798128310922
 21
10.1649076203208093
 31
0.0
  0
LINE
  5
198B
  8
0
  6
CONTINUOUS
 62
    10
 10
2.7965746966200138
 20
9.7320660037790852
 30
0.0
 11
3.104608536631273
 21
10.1649076203208093
 31
0.0
  0
LINE
  5
198C
  8
0
  6
CONTINUOUS
 62
    10
 10
5.2898798128310922
 20
10.1649076203208093
 30
0.0
 11
5.147577424892452
 21
9.7320660037790852
 31
0.0
  0
LINE
  5
198D
  8
0
  6
CONTINUOUS
 62
    10
 10
2.6513251493196082
 20
9.5279648931570691
 30
0.0
 11
2.7965746966200138
 21
9.7320660037790852
 31
0.0
  0
LINE
  5
198E
  8
0
  6
CONTINUOUS
 62
    10
 10
5.147577424892452
 20
9.7320660037790852
 30
0.0
 11
5.119553802303364
 21
9.5279648931570691
 31
0.0
  0
LINE
  5
198F
  8
0
  6
CONTINUOUS
 62
    10
 10
2.482847451000572
 20
9.1185595962605994
 30
0.0
 11
2.6513251493196082
 21
9.5279648931570691
 31
0.0
  0
LINE
  5
1990
  8
0
  6
CONTINUOUS
 62
    10
 10
5.119553802303364
 20
9.5279648931570691
 30
0.0
 11
5.0633413716544799
 21
9.1185595962605994
 31
0.0
  0
LINE
  5
1991
  8
0
  6
CONTINUOUS
 62
    10
 10
2.3475724035053762
 20
8.789837625726669
 30
0.0
 11
2.482847451000572
 21
9.1185595962605994
 31
0.0
  0
LINE
  5
1992
  8
0
  6
CONTINUOUS
 62
    10
 10
5.0633413716544799
 20
9.1185595962605994
 30
0.0
 11
5.0764878050492541
 21
8.789837625726669
 31
0.0
  0
LINE
  5
1993
  8
0
  6
CONTINUOUS
 62
    10
 10
2.2949452516430391
 20
8.4911646200021185
 30
0.0
 11
2.3475724035053762
 21
8.789837625726669
 31
0.0
  0
LINE
  5
1994
  8
0
  6
CONTINUOUS
 62
    10
 10
5.0764878050492541
 20
8.789837625726669
 30
0.0
 11
5.0884325033917372
 21
8.4911646200021185
 31
0.0
  0
LINE
  5
1995
  8
0
  6
CONTINUOUS
 62
    10
 10
2.2044248105364201
 20
7.97743717574392
 30
0.0
 11
2.2949452516430391
 21
8.4911646200021185
 31
0.0
  0
LINE
  5
1996
  8
0
  6
CONTINUOUS
 62
    10
 10
5.0884325033917372
 20
8.4911646200021185
 30
0.0
 11
5.1987836181922704
 21
7.97743717574392
 31
0.0
  0
LINE
  5
1997
  8
0
  6
CONTINUOUS
 62
    10
 10
2.2072953985611812
 20
7.8689441538800811
 30
0.0
 11
2.2044248105364201
 21
7.97743717574392
 31
0.0
  0
LINE
  5
1998
  8
0
  6
CONTINUOUS
 62
    10
 10
5.1987836181922704
 20
7.97743717574392
 30
0.0
 11
5.2220884387631097
 21
7.8689441538800811
 31
0.0
  0
LINE
  5
1999
  8
0
  6
CONTINUOUS
 62
    10
 10
2.2231214285157299
 20
7.270804051898855
 30
0.0
 11
2.2072953985611812
 21
7.8689441538800811
 31
0.0
  0
LINE
  5
199A
  8
0
  6
CONTINUOUS
 62
    10
 10
5.2220884387631097
 20
7.8689441538800811
 30
0.0
 11
5.4602481098055078
 21
7.270804051898855
 31
0.0
  0
LINE
  5
199B
  8
0
  6
CONTINUOUS
 62
    10
 10
2.2271013837866009
 20
7.1203828244377378
 30
0.0
 11
2.2231214285157299
 21
7.270804051898855
 31
0.0
  0
LINE
  5
199C
  8
0
  6
CONTINUOUS
 62
    10
 10
5.4602481098055078
 20
7.270804051898855
 30
0.0
 11
5.5510138215734592
 21
7.1203828244377378
 31
0.0
  0
LINE
  5
199D
  8
0
  6
CONTINUOUS
 62
    10
 10
2.314520702256341
 20
6.7149184983836463
 30
0.0
 11
2.2271013837866009
 21
7.1203828244377378
 31
0.0
  0
LINE
  5
199E
  8
0
  6
CONTINUOUS
 62
    10
 10
5.5510138215734592
 20
7.1203828244377378
 30
0.0
 11
5.7956751554289161
 21
6.7149184983836463
 31
0.0
  0
LINE
  5
199F
  8
0
  6
CONTINUOUS
 62
    10
 10
2.414775358819218
 20
6.2499218881535814
 30
0.0
 11
2.314520702256341
 21
6.7149184983836463
 31
0.0
  0
LINE
  5
19A0
  8
0
  6
CONTINUOUS
 62
    10
 10
5.7956751554289161
 20
6.7149184983836463
 30
0.0
 11
6.1911778664401513
 21
6.2499218881535814
 31
0.0
  0
LINE
  5
19A1
  8
0
  6
CONTINUOUS
 62
    10
 10
2.427658380419373
 20
6.2181777945863512
 30
0.0
 11
2.414775358819218
 21
6.2499218881535814
 31
0.0
  0
LINE
  5
19A2
  8
0
  6
CONTINUOUS
 62
    10
 10
6.1911778664401513
 20
6.2499218881535814
 30
0.0
 11
6.2181777945863406
 21
6.2181777945863512
 31
0.0
  0
LINE
  5
19A3
  8
0
  6
CONTINUOUS
 62
    10
 10
2.7606043363643571
 20
5.3977904734767321
 30
0.0
 11
2.427658380419373
 21
6.2181777945863512
 31
0.0
  0
LINE
  5
19A4
  8
0
  6
CONTINUOUS
 62
    10
 10
6.2181777945863406
 20
6.2181777945863512
 30
0.0
 11
5.3977904734767232
 21
5.3977904734767321
 31
0.0
  0
LINE
  5
19A5
  8
0
  6
CONTINUOUS
 62
    10
 10
4.595056411568331
 20
4.595056411568339
 30
0.0
 11
3.8709865571331288
 21
3.8709865571331359
 31
0.0
  0
LINE
  5
19A6
  8
0
  6
CONTINUOUS
 62
    10
 10
3.8709865571331288
 20
3.8709865571331359
 30
0.0
 11
3.2519797491283451
 21
4.595056411568339
 31
0.0
  0
LINE
  5
19A7
  8
0
  6
CONTINUOUS
 62
    10
 10
3.2519797491283451
 20
4.595056411568339
 30
0.0
 11
2.7606043363643571
 21
5.3977904734767321
 31
0.0
  0
LINE
  5
19A8
  8
0
  6
CONTINUOUS
 62
    10
 10
5.3977904734767232
 20
5.3977904734767321
 30
0.0
 11
4.595056411568331
 21
4.595056411568339
 31
0.0
  0
ENDBLK
  5
19AA
  8
0
  0
BLOCK
  8
0
  2
*U19
 70
     1
 10
0.0
 20
0.0
 30
0.0
  3
*U19
  1

  0
SOLID
  5
19AC
  8
0
  6
CONTINUOUS
 62
    12
 10
-7.9620276993583214
 20
13.0854187299767997
 30
0.0
 11
-8.0145211234883256
 21
12.5026863645126394
 31
0.0
 12
-7.726053052330335
 22
12.5026863645126394
 32
0.0
 13
-7.726053052330335
 23
12.5026863645126394
 33
0.0
210
0.0
220
0.0
230
-1.0
  0
SOLID
  5
19AD
  8
0
  6
CONTINUOUS
 62
    12
 10
-7.726053052330335
 20
12.5026863645126394
 30
0.0
 11
-8.0322735405400856
 21
12.3056158141964893
 31
0.0
 12
-7.6896691308844352
 22
12.3056158141964893
 32
0.0
 13
-7.6896691308844352
 23
12.3056158141964893
 33
0.0
210
0.0
220
0.0
230
-1.0
  0
SOLID
  5
19AE
  8
0
  6
CONTINUOUS
 62
    12
 10
-7.726053052330335
 20
12.5026863645126394
 30
0.0
 11
-8.0145211234883256
 21
12.5026863645126394
 31
0.0
 12
-8.0322735405400856
 22
12.3056158141964893
 32
0.0
 13
-8.0322735405400856
 23
12.3056158141964893
 33
0.0
210
0.0
220
0.0
230
-1.0
  0
SOLID
  5
19AF
  8
0
  6
CONTINUOUS
 62
    12
 10
-7.6896691308844352
 20
12.3056158141964893
 30
0.0
 11
-8.1421125435103239
 21
11.8746475576899506
 31
0.0
 12
-7.6101021171157353
 22
11.8746475576899506
 32
0.0
 13
-7.6101021171157353
 23
11.8746475576899506
 33
0.0
210
0.0
220
0.0
230
-1.0
  0
SOLID
  5
19B0
  8
0
  6
CONTINUOUS
 62
    12
 10
-7.6896691308844352
 20
12.3056158141964893
 30
0.0
 11
-8.0322735405400856
 21
12.3056158141964893
 31
0.0
 12
-8.1421125435103239
 22
11.8746475576899506
 32
0.0
 13
-8.1421125435103239
 23
11.8746475576899506
 33
0.0
210
0.0
220
0.0
230
-1.0
  0
SOLID
  5
19B1
  8
0
  6
CONTINUOUS
 62
    12
 10
-7.6101021171157353
 20
11.8746475576899506
 30
0.0
 11
-8.2281114242291178
 21
11.5372192609770305
 31
0.0
 12
-7.6142723794518741
 22
11.5372192609770305
 32
0.0
 13
-7.6142723794518741
 23
11.5372192609770305
 33
0.0
210
0.0
220
0.0
230
-1.0
  0
SOLID
  5
19B2
  8
0
  6
CONTINUOUS
 62
    12
 10
-7.6101021171157353
 20
11.8746475576899506
 30
0.0
 11
-8.1421125435103239
 21
11.8746475576899506
 31
0.0
 12
-8.2281114242291178
 22
11.5372192609770305
 32
0.0
 13
-8.2281114242291178
 23
11.5372192609770305
 33
0.0
210
0.0
220
0.0
230
-1.0
  0
SOLID
  5
19B3
  8
0
  6
CONTINUOUS
 62
    12
 10
-7.6142723794518741
 20
11.5372192609770305
 30
0.0
 11
-8.3630753985682418
 21
11.2228730734773201
 31
0.0
 12
-7.6181573709567632
 22
11.2228730734773201
 32
0.0
 13
-7.6181573709567632
 23
11.2228730734773201
 33
0.0
210
0.0
220
0.0
230
-1.0
  0
SOLID
  5
19B4
  8
0
  6
CONTINUOUS
 62
    12
 10
-7.6142723794518741
 20
11.5372192609770305
 30
0.0
 11
-8.2281114242291178
 21
11.5372192609770305
 31
0.0
 12
-8.3630753985682418
 22
11.2228730734773201
 32
0.0
 13
-8.3630753985682418
 23
11.2228730734773201
 33
0.0
210
0.0
220
0.0
230
-1.0
  0
SOLID
  5
19B5
  8
0
  6
CONTINUOUS
 62
    12
 10
-7.6181573709567632
 20
11.2228730734773201
 30
0.0
 11
-8.5443084716910924
 21
10.8007609812394598
 31
0.0
 12
-7.7033294562551671
 22
10.8007609812394598
 32
0.0
 13
-7.7033294562551671
 23
10.8007609812394598
 33
0.0
210
0.0
220
0.0
230
-1.0
  0
SOLID
  5
19B6
  8
0
  6
CONTINUOUS
 62
    12
 10
-7.6181573709567632
 20
11.2228730734773201
 30
0.0
 11
-8.3630753985682418
 21
11.2228730734773201
 31
0.0
 12
-8.5443084716910924
 22
10.8007609812394598
 32
0.0
 13
-8.5443084716910924
 23
10.8007609812394598
 33
0.0
210
0.0
220
0.0
230
-1.0
  0
SOLID
  5
19B7
  8
0
  6
CONTINUOUS
 62
    12
 10
-7.7033294562551671
 20
10.8007609812394598
 30
0.0
 11
-8.6887184566618156
 21
10.5697489068275701
 31
0.0
 12
-7.7499421462694658
 22
10.5697489068275701
 32
0.0
 13
-7.7499421462694658
 23
10.5697489068275701
 33
0.0
210
0.0
220
0.0
230
-1.0
  0
SOLID
  5
19B8
  8
0
  6
CONTINUOUS
 62
    12
 10
-7.7033294562551671
 20
10.8007609812394598
 30
0.0
 11
-8.5443084716910924
 21
10.8007609812394598
 31
0.0
 12
-8.6887184566618156
 22
10.5697489068275701
 32
0.0
 13
-8.6887184566618156
 23
10.5697489068275701
 33
0.0
210
0.0
220
0.0
230
-1.0
  0
SOLID
  5
19B9
  8
0
  6
CONTINUOUS
 62
    12
 10
-7.7499421462694658
 20
10.5697489068275701
 30
0.0
 11
-8.9724157517266381
 21
10.1159194804810895
 31
0.0
 12
-7.9301609048857129
 22
10.1159194804810895
 32
0.0
 13
-7.9301609048857129
 23
10.1159194804810895
 33
0.0
210
0.0
220
0.0
230
-1.0
  0
SOLID
  5
19BA
  8
0
  6
CONTINUOUS
 62
    12
 10
-7.7499421462694658
 20
10.5697489068275701
 30
0.0
 11
-8.6887184566618156
 21
10.5697489068275701
 31
0.0
 12
-8.9724157517266381
 22
10.1159194804810895
 32
0.0
 13
-8.9724157517266381
 23
10.1159194804810895
 33
0.0
210
0.0
220
0.0
230
-1.0
  0
SOLID
  5
19BB
  8
0
  6
CONTINUOUS
 62
    12
 10
-7.9301609048857129
 20
10.1159194804810895
 30
0.0
 11
-9.1256034805061663
 21
9.9377074091940685
 31
0.0
 12
-8.0009301331315203
 22
9.9377074091940685
 32
0.0
 13
-8.0009301331315203
 23
9.9377074091940685
 33
0.0
210
0.0
220
0.0
230
-1.0
  0
SOLID
  5
19BC
  8
0
  6
CONTINUOUS
 62
    12
 10
-7.9301609048857129
 20
10.1159194804810895
 30
0.0
 11
-8.9724157517266381
 21
10.1159194804810895
 31
0.0
 12
-9.1256034805061663
 22
9.9377074091940685
 32
0.0
 13
-9.1256034805061663
 23
9.9377074091940685
 33
0.0
210
0.0
220
0.0
230
-1.0
  0
SOLID
  5
19BD
  8
0
  6
CONTINUOUS
 62
    12
 10
-8.0009301331315203
 20
9.9377074091940685
 30
0.0
 11
-9.5009940400166073
 21
9.5009940400166073
 31
0.0
 12
-8.2689023089893947
 22
9.5009940400166073
 32
0.0
 13
-8.2689023089893947
 23
9.5009940400166073
 33
0.0
210
0.0
220
0.0
230
-1.0
  0
SOLID
  5
19BE
  8
0
  6
CONTINUOUS
 62
    12
 10
-8.0009301331315203
 20
9.9377074091940685
 30
0.0
 11
-9.1256034805061663
 21
9.9377074091940685
 31
0.0
 12
-9.5009940400166073
 22
9.5009940400166073
 32
0.0
 13
-9.5009940400166073
 23
9.5009940400166073
 33
0.0
210
0.0
220
0.0
230
-1.0
  0
SOLID
  5
19BF
  8
0
  6
CONTINUOUS
 62
    12
 10
-8.3625008409542172
 20
9.3484568218760877
 30
0.0
 11
-9.3484568218760877
 21
9.3484568218760877
 31
0.0
 12
-8.8222356798165631
 22
8.8222356798165631
 32
0.0
 13
-8.8222356798165631
 23
8.8222356798165631
 33
0.0
210
0.0
220
0.0
230
-1.0
  0
SOLID
  5
19C0
  8
0
  6
CONTINUOUS
 62
    12
 10
-8.2689023089893947
 20
9.5009940400166073
 30
0.0
 11
-9.3484568218760877
 21
9.3484568218760877
 31
0.0
 12
-8.3625008409542172
 22
9.3484568218760877
 32
0.0
 13
-8.3625008409542172
 23
9.3484568218760877
 33
0.0
210
0.0
220
0.0
230
-1.0
  0
SOLID
  5
19C1
  8
0
  6
CONTINUOUS
 62
    12
 10
-8.2689023089893947
 20
9.5009940400166073
 30
0.0
 11
-9.5009940400166073
 21
9.5009940400166073
 31
0.0
 12
-9.3484568218760877
 22
9.3484568218760877
 32
0.0
 13
-9.3484568218760877
 23
9.3484568218760877
 33
0.0
210
0.0
220
0.0
230
-1.0
  0
LINE
  5
19C2
  8
0
  6
CONTINUOUS
 62
    12
 10
7.9620276993583214
 20
13.0854187299767997
 30
0.0
 11
8.0145211234883256
 21
12.5026863645126394
 31
0.0
  0
LINE
  5
19C3
  8
0
  6
CONTINUOUS
 62
    12
 10
7.726053052330335
 20
12.5026863645126394
 30
0.0
 11
7.9620276993583214
 21
13.0854187299767997
 31
0.0
  0
LINE
  5
19C4
  8
0
  6
CONTINUOUS
 62
    12
 10
7.6896691308844352
 20
12.3056158141964893
 30
0.0
 11
7.726053052330335
 21
12.5026863645126394
 31
0.0
  0
LINE
  5
19C5
  8
0
  6
CONTINUOUS
 62
    12
 10
8.0145211234883256
 20
12.5026863645126394
 30
0.0
 11
8.0322735405400856
 21
12.3056158141964893
 31
0.0
  0
LINE
  5
19C6
  8
0
  6
CONTINUOUS
 62
    12
 10
7.6101021171157353
 20
11.8746475576899506
 30
0.0
 11
7.6896691308844352
 21
12.3056158141964893
 31
0.0
  0
LINE
  5
19C7
  8
0
  6
CONTINUOUS
 62
    12
 10
8.0322735405400856
 20
12.3056158141964893
 30
0.0
 11
8.1421125435103239
 21
11.8746475576899506
 31
0.0
  0
LINE
  5
19C8
  8
0
  6
CONTINUOUS
 62
    12
 10
7.6142723794518741
 20
11.5372192609770305
 30
0.0
 11
7.6101021171157353
 21
11.8746475576899506
 31
0.0
  0
LINE
  5
19C9
  8
0
  6
CONTINUOUS
 62
    12
 10
8.1421125435103239
 20
11.8746475576899506
 30
0.0
 11
8.2281114242291178
 21
11.5372192609770305
 31
0.0
  0
LINE
  5
19CA
  8
0
  6
CONTINUOUS
 62
    12
 10
7.6181573709567632
 20
11.2228730734773201
 30
0.0
 11
7.6142723794518741
 21
11.5372192609770305
 31
0.0
  0
LINE
  5
19CB
  8
0
  6
CONTINUOUS
 62
    12
 10
8.2281114242291178
 20
11.5372192609770305
 30
0.0
 11
8.3630753985682418
 21
11.2228730734773201
 31
0.0
  0
LINE
  5
19CC
  8
0
  6
CONTINUOUS
 62
    12
 10
7.7033294562551671
 20
10.8007609812394598
 30
0.0
 11
7.6181573709567632
 21
11.2228730734773201
 31
0.0
  0
LINE
  5
19CD
  8
0
  6
CONTINUOUS
 62
    12
 10
8.3630753985682418
 20
11.2228730734773201
 30
0.0
 11
8.5443084716910924
 21
10.8007609812394598
 31
0.0
  0
LINE
  5
19CE
  8
0
  6
CONTINUOUS
 62
    12
 10
7.7499421462694658
 20
10.5697489068275701
 30
0.0
 11
7.7033294562551671
 21
10.8007609812394598
 31
0.0
  0
LINE
  5
19CF
  8
0
  6
CONTINUOUS
 62
    12
 10
8.5443084716910924
 20
10.8007609812394598
 30
0.0
 11
8.6887184566618156
 21
10.5697489068275701
 31
0.0
  0
LINE
  5
19D0
  8
0
  6
CONTINUOUS
 62
    12
 10
7.9301609048857129
 20
10.1159194804810895
 30
0.0
 11
7.7499421462694658
 21
10.5697489068275701
 31
0.0
  0
LINE
  5
19D1
  8
0
  6
CONTINUOUS
 62
    12
 10
8.6887184566618156
 20
10.5697489068275701
 30
0.0
 11
8.9724157517266381
 21
10.1159194804810895
 31
0.0
  0
LINE
  5
19D2
  8
0
  6
CONTINUOUS
 62
    12
 10
8.0009301331315203
 20
9.9377074091940685
 30
0.0
 11
7.9301609048857129
 21
10.1159194804810895
 31
0.0
  0
LINE
  5
19D3
  8
0
  6
CONTINUOUS
 62
    12
 10
8.9724157517266381
 20
10.1159194804810895
 30
0.0
 11
9.1256034805061663
 21
9.9377074091940685
 31
0.0
  0
LINE
  5
19D4
  8
0
  6
CONTINUOUS
 62
    12
 10
8.2689023089893947
 20
9.5009940400166073
 30
0.0
 11
8.0009301331315203
 21
9.9377074091940685
 31
0.0
  0
LINE
  5
19D5
  8
0
  6
CONTINUOUS
 62
    12
 10
9.1256034805061663
 20
9.9377074091940685
 30
0.0
 11
9.5009940400166073
 21
9.5009940400166073
 31
0.0
  0
LINE
  5
19D6
  8
0
  6
CONTINUOUS
 62
    12
 10
9.3484568218760877
 20
9.3484568218760877
 30
0.0
 11
8.8222356798165631
 21
8.8222356798165631
 31
0.0
  0
LINE
  5
19D7
  8
0
  6
CONTINUOUS
 62
    12
 10
8.8222356798165631
 20
8.8222356798165631
 30
0.0
 11
8.3625008409542172
 21
9.3484568218760877
 31
0.0
  0
LINE
  5
19D8
  8
0
  6
CONTINUOUS
 62
    12
 10
8.3625008409542172
 20
9.3484568218760877
 30
0.0
 11
8.2689023089893947
 21
9.5009940400166073
 31
0.0
  0
LINE
  5
19D9
  8
0
  6
CONTINUOUS
 62
    12
 10
9.5009940400166073
 20
9.5009940400166073
 30
0.0
 11
9.3484568218760877
 21
9.3484568218760877
 31
0.0
  0
ENDBLK
  5
19DB
  8
0
  0
ENDSEC
  0
SECTION
  2
ENTITIES
  0
POLYLINE
  5
1479
  8
LAYERA
 66
     1
 10
0.0
 20
0.0
 30
0.0
 70
     1
  0
VERTEX
  5
19E0
  8
LAYERA
 10
523792.5870470000081696
 20
272007.0113700000219978
 30
0.0
  0
VERTEX
  5
19E1
  8
LAYERA
 10
523788.8782270000083372
 20
272009.8889210000052117
 30
0.0
  0
VERTEX
  5
19E2
  8
LAYERA
 10
523789.621318000019528
 20
272010.8577550000045449
 30
0.0
  0
VERTEX
  5
19E3
  8
LAYERA
 10
523788.7985450000851415
 20
272011.4543110000086017
 30
0.0
  0
VERTEX
  5
19E4
  8
LAYERA
 10
523787.8632689461228438
 20
272010.2636868705158122
 30
0.0
  0
VERTEX
  5
19E5
  8
LAYERA
 10
523787.7024338247138076
 20
272009.6923275996814482
 30
0.0
  0
VERTEX
  5
19E6
  8
LAYERA
 10
523788.9775900866952725
 20
272008.6095734598929994
 30
0.0
  0
VERTEX
  5
19E7
  8
LAYERA
 10
523789.7581307824002579
 20
272008.0757391378283501
 30
0.0
  0
VERTEX
  5
19E8
  8
LAYERA
 10
523791.8647154631908052
 20
272006.7195794007275254
 30
0.0
  0
SEQEND
  5
19E9
  8
LAYERA
  0
POLYLINE
  5
147A
  8
LAYERA
 66
     1
 10
0.0
 20
0.0
 30
0.0
 70
     1
  0
VERTEX
  5
19EA
  8
LAYERA
 10
523792.5870470000081696
 20
272007.0113700000219978
 30
0.0
  0
VERTEX
  5
19EB
  8
LAYERA
 10
523789.2351930000004359
 20
272002.1556669999845326
 30
0.0
  0
VERTEX
  5
19EC
  8
LAYERA
 10
523789.2480569999897853
 20
272002.6208329999935813
 30
0.0
  0
VERTEX
  5
19ED
  8
LAYERA
 10
523790.0401045765029266
 20
272003.8221373772248626
 30
0.0
  0
VERTEX
  5
19EE
  8
LAYERA
 10
523791.8647154631908052
 20
272006.7195794007275254
 30
0.0
  0
SEQEND
  5
19EF
  8
LAYERA
  0
POLYLINE
  5
147B
  8
LAYERA
 66
     1
 10
0.0
 20
0.0
 30
0.0
 70
     1
  0
VERTEX
  5
19F0
  8
LAYERA
 10
523789.2480569999897853
 20
272002.6208329999935813
 30
0.0
  0
VERTEX
  5
19F1
  8
LAYERA
 10
523789.2351930000004359
 20
272002.1556669999845326
 30
0.0
  0
VERTEX
  5
19F2
  8
LAYERA
 10
523784.3778590001165867
 20
272005.8266939999884926
 30
0.0
  0
VERTEX
  5
19F3
  8
LAYERA
 10
523784.8816419999930076
 20
272006.1229029999813065
 30
0.0
  0
SEQEND
  5
19F4
  8
LAYERA
  0
POLYLINE
  5
147C
  8
LAYERA
 66
     1
 10
0.0
 20
0.0
 30
0.0
 70
     1
  0
VERTEX
  5
19F5
  8
LAYERA
 10
523784.8816419999930076
 20
272006.1229029999813065
 30
0.0
  0
VERTEX
  5
19F6
  8
LAYERA
 10
523785.3874999760882929
 20
272006.8191994791268371
 30
0.0
  0
VERTEX
  5
19F7
  8
LAYERA
 10
523787.7024338247138076
 20
272009.6923275996814482
 30
0.0
  0
VERTEX
  5
19F8
  8
LAYERA
 10
523787.8632689461228438
 20
272010.2636868705158122
 30
0.0
  0
VERTEX
  5
19F9
  8
LAYERA
 10
523784.3778590001165867
 20
272005.8266939999884926
 30
0.0
  0
SEQEND
  5
19FA
  8
LAYERA
  0
POLYLINE
  5
147D
  8
LAYERA
 66
     1
 10
0.0
 20
0.0
 30
0.0
 70
     1
  0
VERTEX
  5
19FB
  8
LAYERA
 10
523772.7128528584144078
 20
272030.4659297349862754
 30
0.0
  0
VERTEX
  5
19FC
  8
LAYERA
 10
523772.271837999986019
 20
272029.9501859999727458
 30
0.0
  0
VERTEX
  5
19FD
  8
LAYERA
 10
523774.9400059999898076
 20
272027.1726650000200607
 30
0.0
  0
VERTEX
  5
19FE
  8
LAYERA
 10
523775.6897316540125757
 20
272026.4585169476922601
 30
0.0
  0
VERTEX
  5
19FF
  8
LAYERA
 10
523776.0258371494128369
 20
272026.469414334394969
 30
0.0
  0
SEQEND
  5
1A00
  8
LAYERA
  0
POLYLINE
  5
147E
  8
LAYERA
 66
     1
 10
0.0
 20
0.0
 30
0.0
 70
     1
  0
VERTEX
  5
1A01
  8
LAYERA
 10
523776.0258371494128369
 20
272026.469414334394969
 30
0.0
  0
VERTEX
  5
1A02
  8
LAYERA
 10
523775.6897316540125757
 20
272026.4585169476922601
 30
0.0
  0
VERTEX
  5
1A03
  8
LAYERA
 10
523774.6960509999771602
 20
272025.3217200000071898
 30
0.0
  0
VERTEX
  5
1A04
  8
LAYERA
 10
523772.2882599998847581
 20
272022.6181290000095032
 30
0.0
  0
VERTEX
  5
1A05
  8
LAYERA
 10
523772.3048499861033633
 20
272022.2445265551796183
 30
0.0
  0
SEQEND
  5
1A06
  8
LAYERA
  0
POLYLINE
  5
147F
  8
LAYERA
 66
     1
 10
0.0
 20
0.0
 30
0.0
 70
     1
  0
VERTEX
  5
1A07
  8
LAYERA
 10
523772.3048499861033633
 20
272022.2445265551796183
 30
0.0
  0
VERTEX
  5
1A08
  8
LAYERA
 10
523772.2882599998847581
 20
272022.6181290000095032
 30
0.0
  0
VERTEX
  5
1A09
  8
LAYERA
 10
523768.5870710000162944
 20
272025.9872130000730976
 30
0.0
  0
VERTEX
  5
1A0A
  8
LAYERA
 10
523768.2411403161240742
 20
272025.8495466245803982
 30
0.0
  0
SEQEND
  5
1A0B
  8
LAYERA
  0
POLYLINE
  5
1480
  8
LAYERA
 66
     1
 10
0.0
 20
0.0
 30
0.0
 70
     1
  0
VERTEX
  5
1A0C
  8
LAYERA
 10
523768.5870710000162944
 20
272025.9872130000730976
 30
0.0
  0
VERTEX
  5
1A0D
  8
LAYERA
 10
523768.2411403161240742
 20
272025.8495466245803982
 30
0.0
  0
VERTEX
  5
1A0E
  8
LAYERA
 10
523772.7128528584144078
 20
272030.4659297349862754
 30
0.0
  0
VERTEX
  5
1A0F
  8
LAYERA
 10
523772.271837999986019
 20
272029.9501859999727458
 30
0.0
  0
SEQEND
  5
1A10
  8
LAYERA
  0
POLYLINE
  5
1481
  8
LAYERA
 66
     1
 10
0.0
 20
0.0
 30
0.0
 70
     1
  0
VERTEX
  5
1A11
  8
LAYERA
 10
523783.6384000321268104
 20
272019.0880403115879744
 30
0.0
  0
VERTEX
  5
1A12
  8
LAYERA
 10
523782.8280940997065045
 20
272018.1054314668290317
 30
0.0
  0
VERTEX
  5
1A13
  8
LAYERA
 10
523781.9879656744888052
 20
272018.7541420683264732
 30
0.0
  0
VERTEX
  5
1A14
  8
LAYERA
 10
523782.8053095096256584
 20
272019.7571180483209901
 30
0.0
  0
SEQEND
  5
1A15
  8
LAYERA
  0
POLYLINE
  5
1482
  8
LAYERA
 66
     1
 10
0.0
 20
0.0
 30
0.0
 70
     1
  0
VERTEX
  5
1A16
  8
LAYERA
 10
523782.8053095096256584
 20
272019.7571180483209901
 30
0.0
  0
VERTEX
  5
1A17
  8
LAYERA
 10
523782.7905659999814816
 20
272019.8515110000735149
 30
0.0
  0
VERTEX
  5
1A18
  8
LAYERA
 10
523786.8319989999872632
 20
272016.5809800000279211
 30
0.0
  0
VERTEX
  5
1A19
  8
LAYERA
 10
523786.701054985227529
 20
272016.6281725204898976
 30
0.0
  0
VERTEX
  5
1A1A
  8
LAYERA
 10
523784.5700184588786215
 20
272018.357657020795159
 30
0.0
  0
VERTEX
  5
1A1B
  8
LAYERA
 10
523783.63845983997453
 20
272019.0881128372275271
 30
0.0
  0
SEQEND
  5
1A1C
  8
LAYERA
  0
POLYLINE
  5
1483
  8
LAYERA
 66
     1
 10
0.0
 20
0.0
 30
0.0
 70
     1
  0
VERTEX
  5
1A1D
  8
LAYERA
 10
523782.8053095096256584
 20
272019.7571180483209901
 30
0.0
  0
VERTEX
  5
1A1E
  8
LAYERA
 10
523781.9879656744888052
 20
272018.7541420683264732
 30
0.0
  0
VERTEX
  5
1A1F
  8
LAYERA
 10
523779.5716161173186265
 20
272015.5871911855065264
 30
0.0
  0
VERTEX
  5
1A20
  8
LAYERA
 10
523779.4874239999917336
 20
272015.608831999998074
 30
0.0
  0
VERTEX
  5
1A21
  8
LAYERA
 10
523782.7905659999814816
 20
272019.8515110000735149
 30
0.0
  0
SEQEND
  5
1A22
  8
LAYERA
  0
POLYLINE
  5
1484
  8
LAYERA
 66
     1
 10
0.0
 20
0.0
 30
0.0
 70
     1
  0
VERTEX
  5
1A23
  8
LAYERA
 10
523786.8319989999872632
 20
272016.5809800000279211
 30
0.0
  0
VERTEX
  5
1A24
  8
LAYERA
 10
523786.7335169399739243
 20
272016.6164731581811793
 30
0.0
  0
VERTEX
  5
1A25
  8
LAYERA
 10
523786.701054985227529
 20
272016.6281725204898976
 30
0.0
  0
VERTEX
  5
1A26
  8
LAYERA
 10
523786.4026664567063563
 20
272016.2307393265073188
 30
0.0
  0
VERTEX
  5
1A27
  8
LAYERA
 10
523783.3766709329211153
 20
272012.6662944026174955
 30
0.0
  0
VERTEX
  5
1A28
  8
LAYERA
 10
523783.3988559999852441
 20
272012.5314730000100099
 30
0.0
  0
SEQEND
  5
1A29
  8
LAYERA
  0
POLYLINE
  5
1485
  8
LAYERA
 66
     1
 10
0.0
 20
0.0
 30
0.0
 70
     1
  0
VERTEX
  5
1A2A
  8
LAYERA
 10
523783.3988559999852441
 20
272012.5314730000100099
 30
0.0
  0
VERTEX
  5
1A2B
  8
LAYERA
 10
523783.3766709329211153
 20
272012.6662944026174955
 30
0.0
  0
VERTEX
  5
1A2C
  8
LAYERA
 10
523779.5716161173186265
 20
272015.5871911855065264
 30
0.0
  0
VERTEX
  5
1A2D
  8
LAYERA
 10
523779.4874239999917336
 20
272015.608831999998074
 30
0.0
  0
SEQEND
  5
1A2E
  8
LAYERA
  0
POLYLINE
  5
1486
  8
LAYERA
 66
     1
 10
0.0
 20
0.0
 30
0.0
 70
     1
  0
VERTEX
  5
1A2F
  8
LAYERA
 10
523775.6897316540125757
 20
272026.4585169476922601
 30
0.0
  0
VERTEX
  5
1A30
  8
LAYERA
 10
523774.9400059999898076
 20
272027.1726650000200607
 30
0.0
  0
VERTEX
  5
1A31
  8
LAYERA
 10
523773.9990509999915957
 20
272025.9302649999735877
 30
0.0
  0
VERTEX
  5
1A32
  8
LAYERA
 10
523774.6960509999771602
 20
272025.3217200000071898
 30
0.0
  0
SEQEND
  5
1A33
  8
LAYERA
  0
POLYLINE
  5
1487
  8
LAYERA
 66
     1
 10
0.0
 20
0.0
 30
0.0
 70
     1
  0
VERTEX
  5
1A34
  8
LAYERA
 10
523765.6063289999729022
 20
271998.8196999999927357
 30
0.0
  0
VERTEX
  5
1A35
  8
LAYERA
 10
523766.2195082844118588
 20
271999.8238184520741925
 30
0.0
  0
VERTEX
  5
1A36
  8
LAYERA
 10
523767.2846870434004813
 20
271999.1023008255288005
 30
0.0
  0
VERTEX
  5
1A37
  8
LAYERA
 10
523766.4114382868283428
 20
271998.1070114139001817
 30
0.0
  0
SEQEND
  5
1A38
  8
LAYERA
  0
POLYLINE
  5
1488
  8
LAYERA
 66
     1
 10
0.0
 20
0.0
 30
0.0
 70
     1
  0
VERTEX
  5
1A39
  8
LAYERA
 10
523767.6575435416889377
 20
271999.3210808775038458
 30
0.0
  0
VERTEX
  5
1A3A
  8
LAYERA
 10
523767.2846870434004813
 20
271999.1023008255288005
 30
0.0
  0
VERTEX
  5
1A3B
  8
LAYERA
 10
523766.4114382868283428
 20
271998.1070114139001817
 30
0.0
  0
VERTEX
  5
1A3C
  8
LAYERA
 10
523764.4897179175750352
 20
271995.7309400907251984
 30
0.0
  0
VERTEX
  5
1A3D
  8
LAYERA
 10
523764.4984822170226835
 20
271995.4194041730952449
 30
0.0
  0
VERTEX
  5
1A3E
  8
LAYERA
 10
523764.8909144439967349
 20
271995.9382435160805471
 30
0.0
  0
SEQEND
  5
1A3F
  8
LAYERA
  0
POLYLINE
  5
1489
  8
LAYERA
 66
     1
 10
0.0
 20
0.0
 30
0.0
 70
     1
  0
VERTEX
  5
1A40
  8
LAYERA
 10
523764.4984822170226835
 20
271995.4194041730952449
 30
0.0
  0
VERTEX
  5
1A41
  8
LAYERA
 10
523764.4897179175750352
 20
271995.7309400907251984
 30
0.0
  0
VERTEX
  5
1A42
  8
LAYERA
 10
523760.4291588927735575
 20
271998.0101588977850042
 30
0.0
  0
VERTEX
  5
1A43
  8
LAYERA
 10
523760.201080999977421
 20
271997.9752490000100806
 30
0.0
  0
SEQEND
  5
1A44
  8
LAYERA
  0
POLYLINE
  5
148A
  8
LAYERA
 66
     1
 10
0.0
 20
0.0
 30
0.0
 70
     1
  0
VERTEX
  5
1A45
  8
LAYERA
 10
523760.201080999977421
 20
271997.9752490000100806
 30
0.0
  0
VERTEX
  5
1A46
  8
LAYERA
 10
523760.4291588927735575
 20
271998.0101588977850042
 30
0.0
  0
VERTEX
  5
1A47
  8
LAYERA
 10
523763.2048233170062304
 20
272001.7548452616902068
 30
0.0
  0
VERTEX
  5
1A48
  8
LAYERA
 10
523763.246910999994725
 20
272002.1020160000771284
 30
0.0
  0
SEQEND
  5
1A49
  8
LAYERA
  0
POLYLINE
  5
148B
  8
LAYERA
 66
     1
 10
0.0
 20
0.0
 30
0.0
 70
     1
  0
VERTEX
  5
1A4A
  8
LAYERA
 10
523763.246910999994725
 20
272002.1020160000771284
 30
0.0
  0
VERTEX
  5
1A4B
  8
LAYERA
 10
523763.2048233170062304
 20
272001.7548452616902068
 30
0.0
  0
VERTEX
  5
1A4C
  8
LAYERA
 10
523766.2195082844118588
 20
271999.8238184520741925
 30
0.0
  0
VERTEX
  5
1A4D
  8
LAYERA
 10
523767.2846870434004813
 20
271999.1023008255288005
 30
0.0
  0
VERTEX
  5
1A4E
  8
LAYERA
 10
523767.6575435416889377
 20
271999.3210808775038458
 30
0.0
  0
SEQEND
  5
1A4F
  8
LAYERA
  0
POLYLINE
  5
148C
  8
LAYERA
 66
     1
 10
0.0
 20
0.0
 30
10.6219865064864791
 70
     1
  0
VERTEX
  5
1A50
  8
LAYERA
 10
523757.01925329642836
 20
272013.6676706459838897
 30
10.6219865064864791
  0
VERTEX
  5
1A51
  8
LAYERA
 10
523755.8413648984278552
 20
272011.9050081933964975
 30
10.6219865064864791
  0
VERTEX
  5
1A52
  8
LAYERA
 10
523755.3690983235719614
 20
272011.1982803234132007
 30
10.6219865064864791
  0
VERTEX
  5
1A53
  8
LAYERA
 10
523754.223969999991823
 20
272009.4846419999958016
 30
10.6219865064864791
  0
VERTEX
  5
1A54
  8
LAYERA
 10
523754.5389820953132585
 20
272009.4285127220791765
 30
10.6219865064864791
  0
VERTEX
  5
1A55
  8
LAYERA
 10
523757.2511457004002295
 20
272013.3434811758925207
 30
10.6219865064864791
  0
SEQEND
  5
1A56
  8
LAYERA
  0
POLYLINE
  5
148D
  8
LAYERA
 66
     1
 10
0.0
 20
0.0
 30
10.6219865064864791
 70
     1
  0
VERTEX
  5
1A57
  8
LAYERA
 10
523757.01925329642836
 20
272013.6676706459838897
 30
10.6219865064864791
  0
VERTEX
  5
1A58
  8
LAYERA
 10
523757.2511457004002295
 20
272013.3434811758925207
 30
10.6219865064864791
  0
VERTEX
  5
1A59
  8
LAYERA
 10
523761.2091065010754392
 20
272010.4220473782042973
 30
10.6219865064864791
  0
VERTEX
  5
1A5A
  8
LAYERA
 10
523761.577469447394833
 20
272010.2879577921121381
 30
10.6219865064864791
  0
SEQEND
  5
1A5B
  8
LAYERA
  0
POLYLINE
  5
148E
  8
LAYERA
 66
     1
 10
0.0
 20
0.0
 30
8.8495629999999998
 70
     1
  0
VERTEX
  5
1A5C
  8
LAYERA
 10
523761.2091065010754392
 20
272010.4220473782042973
 30
8.8495629999999998
  0
VERTEX
  5
1A5D
  8
LAYERA
 10
523758.3479998250841163
 20
272006.3391336987842806
 30
8.8495629999999998
  0
VERTEX
  5
1A5E
  8
LAYERA
 10
523758.4348917180905119
 20
272006.013666644517798
 30
8.8495629999999998
  0
VERTEX
  5
1A5F
  8
LAYERA
 10
523761.577469447394833
 20
272010.2879577921121381
 30
8.8495629999999998
  0
SEQEND
  5
1A60
  8
LAYERA
  0
POLYLINE
  5
148F
  8
LAYERA
 66
     1
 10
0.0
 20
0.0
 30
8.8495629999999998
 70
     1
  0
VERTEX
  5
1A61
  8
LAYERA
 10
523758.4348917180905119
 20
272006.013666644517798
 30
8.8495629999999998
  0
VERTEX
  5
1A62
  8
LAYERA
 10
523758.3479998250841163
 20
272006.3391336987842806
 30
8.8495629999999998
  0
VERTEX
  5
1A63
  8
LAYERA
 10
523754.5389820953132585
 20
272009.4285127220791765
 30
8.8495629999999998
  0
VERTEX
  5
1A64
  8
LAYERA
 10
523754.223969999991823
 20
272009.4846419999958016
 30
8.8495629999999998
  0
SEQEND
  5
1A65
  8
LAYERA
  0
POLYLINE
  5
1490
  8
BASE-LIMIT
 66
     1
 10
0.0
 20
0.0
 30
9.1442420000000002
 70
     1
  0
VERTEX
  5
1A66
  8
BASE-LIMIT
 10
523757.2511457004002295
 20
272013.3434811758925207
 30
9.1442420000000002
  0
VERTEX
  5
1A67
  8
BASE-LIMIT
 10
523754.5389820953132585
 20
272009.4285127220791765
 30
9.1442420000000002
  0
VERTEX
  5
1A68
  8
BASE-LIMIT
 10
523758.3479998250841163
 20
272006.3391336987842806
 30
9.1442420000000002
  0
VERTEX
  5
1A69
  8
BASE-LIMIT
 10
523761.2091065010754392
 20
272010.4220473782042973
 30
9.1442420000000002
  0
SEQEND
  5
1A6A
  8
BASE-LIMIT
  0
POLYLINE
  5
1491
  8
GROUNDSURFACE-LIMIT
 66
     1
 10
0.0
 20
0.0
 30
8.8495629999999998
 70
     1
  0
VERTEX
  5
1A6B
  8
GROUNDSURFACE-LIMIT
 10
523761.577469447394833
 20
272010.2879577921121381
 30
8.8495629999999998
  0
VERTEX
  5
1A6C
  8
GROUNDSURFACE-LIMIT
 10
523757.01925329642836
 20
272013.6676706459838897
 30
8.8495629999999998
  0
VERTEX
  5
1A6D
  8
GROUNDSURFACE-LIMIT
 10
523755.8413648984278552
 20
272011.9050081933964975
 30
8.8495629999999998
  0
VERTEX
  5
1A6E
  8
GROUNDSURFACE-LIMIT
 10
523755.3690983235719614
 20
272011.1982803234132007
 30
8.8495629999999998
  0
VERTEX
  5
1A6F
  8
GROUNDSURFACE-LIMIT
 10
523754.223969999991823
 20
272009.4846419999958016
 30
8.8495629999999998
  0
VERTEX
  5
1A70
  8
GROUNDSURFACE-LIMIT
 10
523758.4348917180905119
 20
272006.013666644517798
 30
8.8495629999999998
  0
SEQEND
  5
1A71
  8
GROUNDSURFACE-LIMIT
  0
POLYLINE
  5
1492
  8
TRIALTRENCH
 66
     1
 10
0.0
 20
0.0
 30
0.0
 70
     9
  0
VERTEX
  5
1493
  8
TRIALTRENCH
 10
523783.3988559999852441
 20
272012.5314730000100099
 30
10.3247909999999994
 70
    32
  0
VERTEX
  5
1494
  8
TRIALTRENCH
 10
523786.8319989999872632
 20
272016.5809800000279211
 30
10.2631899999999998
 70
    32
  0
VERTEX
  5
1495
  8
TRIALTRENCH
 10
523782.7905659999814816
 20
272019.8515110000735149
 30
10.3447379999999995
 70
    32
  0
VERTEX
  5
1496
  8
TRIALTRENCH
 10
523779.4874239999917336
 20
272015.608831999998074
 30
10.3925450000000001
 70
    32
  0
SEQEND
  5
1497
  8
TRIALTRENCH
  0
TEXT
  5
1498
  8
TRIALTRENCH
 10
523776.8234712958219461
 20
272027.960692488879431
 30
0.0
 40
1.0
  1
1
  7
ARIAL
  0
TEXT
  5
1499
  8
TRIALTRENCH
 10
523785.3039903605240397
 20
272018.9853242039098404
 30
0.0
 40
1.0
  1
2
  7
ARIAL
  0
TEXT
  5
149A
  8
TRIALTRENCH
 10
523790.9992409115075134
 20
272009.303561155917123
 30
0.0
 40
1.0
  1
3
  7
ARIAL
  0
TEXT
  5
149B
  8
TRIALTRENCH
 10
523764.9578314344980754
 20
272001.5085672988789156
 30
0.0
 40
1.0
  1
4
  7
ARIAL
  0
TEXT
  5
149C
  8
TRIALTRENCH
 10
523759.4882925954880193
 20
272013.0017453181208111
 30
0.0
 40
1.0
  1
5
  7
ARIAL
  0
POLYLINE
  5
149D
  8
GROUNDSURFACE-LIMIT
 66
     1
 10
0.0
 20
0.0
 30
0.0
 70
     1
  0
VERTEX
  5
1A72
  8
GROUNDSURFACE-LIMIT
 10
523772.7128528584144078
 20
272030.4659297349862754
 30
0.0
  0
VERTEX
  5
1A73
  8
GROUNDSURFACE-LIMIT
 10
523768.2411403161240742
 20
272025.8495466245803982
 30
0.0
  0
VERTEX
  5
1A74
  8
GROUNDSURFACE-LIMIT
 10
523772.3048499861033633
 20
272022.2445265551796183
 30
0.0
  0
VERTEX
  5
1A75
  8
GROUNDSURFACE-LIMIT
 10
523776.0258371494128369
 20
272026.469414334394969
 30
0.0
  0
SEQEND
  5
1A76
  8
GROUNDSURFACE-LIMIT
  0
POLYLINE
  5
149E
  8
BASE-LIMIT
 66
     1
 10
0.0
 20
0.0
 30
0.0
 70
     1
  0
VERTEX
  5
1A77
  8
BASE-LIMIT
 10
523774.9400059999898076
 20
272027.1726650000200607
 30
0.0
  0
VERTEX
  5
1A78
  8
BASE-LIMIT
 10
523772.271837999986019
 20
272029.9501859999727458
 30
0.0
  0
VERTEX
  5
1A79
  8
BASE-LIMIT
 10
523768.5870710000162944
 20
272025.9872130000730976
 30
0.0
  0
VERTEX
  5
1A7A
  8
BASE-LIMIT
 10
523772.2882599998847581
 20
272022.6181290000095032
 30
0.0
  0
VERTEX
  5
1A7B
  8
BASE-LIMIT
 10
523774.6960509999771602
 20
272025.3217200000071898
 30
0.0
  0
VERTEX
  5
1A7C
  8
BASE-LIMIT
 10
523773.9990509999915957
 20
272025.9302649999735877
 30
0.0
  0
SEQEND
  5
1A7D
  8
BASE-LIMIT
  0
POLYLINE
  5
149F
  8
SECTIONLINE
 66
     1
 10
0.0
 20
0.0
 30
0.0
 40
0.1
 41
0.1
  0
VERTEX
  5
1A7E
  8
SECTIONLINE
 10
523772.4637574725202285
 20
272022.4249534870032221
 30
0.0
  0
VERTEX
  5
1A7F
  8
SECTIONLINE
 10
523775.8625000236788765
 20
272026.283957895997446
 30
0.0
  0
SEQEND
  5
1A80
  8
SECTIONLINE
  0
TEXT
  5
14A0
  8
SECTIONTEXT
 10
523776.243809423292987
 20
272026.5633967074099928
 30
0.0
 40
0.2
  1
1/3
  7
ARIAL
  0
POLYLINE
  5
14A1
  8
PALAEO
 66
     1
 10
0.0
 20
0.0
 30
0.0
 70
     1
  0
VERTEX
  5
1A81
  8
PALAEO
 10
523786.4026664567063563
 20
272016.2307393265073188
 30
0.0
  0
VERTEX
  5
1A82
  8
PALAEO
 10
523785.9730564057244919
 20
272016.5538649327936582
 30
0.0
  0
VERTEX
  5
1A83
  8
PALAEO
 10
523785.685178033192642
 20
272016.793353003798984
 30
0.0
  0
VERTEX
  5
1A84
  8
PALAEO
 10
523785.5532229057862423
 20
272016.9898484238074161
 30
0.0
  0
VERTEX
  5
1A85
  8
PALAEO
 10
523785.0670539279817604
 20
272017.4512520142016001
 30
0.0
  0
VERTEX
  5
1A86
  8
PALAEO
 10
523784.7429332301253453
 20
272017.8219305925886147
 30
0.0
  0
VERTEX
  5
1A87
  8
PALAEO
 10
523784.621009208203759
 20
272018.053683077392634
 30
0.0
  0
VERTEX
  5
1A88
  8
PALAEO
 10
523784.5700184588786215
 20
272018.357657020795159
 30
0.0
  0
VERTEX
  5
1A89
  8
PALAEO
 10
523783.6321163189131767
 20
272019.0930869330768473
 30
0.0
  0
VERTEX
  5
1A8A
  8
PALAEO
 10
523782.8280940997065045
 20
272018.1054314668290317
 30
0.0
  0
VERTEX
  5
1A8B
  8
PALAEO
 10
523781.9879656744888052
 20
272018.7541420683264732
 30
0.0
  0
VERTEX
  5
1A8C
  8
PALAEO
 10
523779.5716161173186265
 20
272015.5871911855065264
 30
0.0
  0
VERTEX
  5
1A8D
  8
PALAEO
 10
523783.3766709329211153
 20
272012.6662944026174955
 30
0.0
  0
SEQEND
  5
1A8E
  8
PALAEO
  0
POLYLINE
  5
14A2
  8
BASE-LIMIT
 66
     1
 10
0.0
 20
0.0
 30
0.0
 70
     1
  0
VERTEX
  5
1A8F
  8
BASE-LIMIT
 10
523786.701054985227529
 20
272016.6281725204898976
 30
0.0
  0
VERTEX
  5
1A90
  8
BASE-LIMIT
 10
523786.4026664567063563
 20
272016.2307393265073188
 30
0.0
  0
VERTEX
  5
1A91
  8
BASE-LIMIT
 10
523783.3766709329211153
 20
272012.6662944026174955
 30
0.0
  0
VERTEX
  5
1A92
  8
BASE-LIMIT
 10
523779.5716161173186265
 20
272015.5871911855065264
 30
0.0
  0
VERTEX
  5
1A93
  8
BASE-LIMIT
 10
523781.9879656744888052
 20
272018.7541420683264732
 30
0.0
  0
VERTEX
  5
1A94
  8
BASE-LIMIT
 10
523782.8053095096256584
 20
272019.7571180483209901
 30
0.0
  0
VERTEX
  5
1A95
  8
BASE-LIMIT
 10
523783.6321163189131767
 20
272019.0930869330768473
 30
0.0
  0
VERTEX
  5
1A96
  8
BASE-LIMIT
 10
523784.5700184588786215
 20
272018.357657020795159
 30
0.0
  0
SEQEND
  5
1A97
  8
BASE-LIMIT
  0
POLYLINE
  5
14A3
  8
WELL
 66
     1
 10
0.0
 20
0.0
 30
0.0
 70
     1
  0
VERTEX
  5
1A98
  8
WELL
 10
523780.5578267828095704
 20
272016.7865942119969986
 30
0.0
  0
VERTEX
  5
1A99
  8
WELL
 10
523780.4560384771903045
 20
272016.5211711262236349
 30
0.0
  0
VERTEX
  5
1A9A
  8
WELL
 10
523780.4639013448031619
 20
272016.308688011195045
 30
0.0
  0
VERTEX
  5
1A9B
  8
WELL
 10
523780.5224294355139136
 20
272016.1172867582063191
 30
0.0
  0
VERTEX
  5
1A9C
  8
WELL
 10
523780.6854788541095331
 20
272015.9053822549758479
 30
0.0
  0
VERTEX
  5
1A9D
  8
WELL
 10
523780.9503433962818235
 20
272015.7696693012840115
 30
0.0
  0
VERTEX
  5
1A9E
  8
WELL
 10
523781.246525417023804
 20
272015.7301812656223774
 30
0.0
  0
VERTEX
  5
1A9F
  8
WELL
 10
523781.5421958034276031
 20
272015.8458970476058312
 30
0.0
  0
VERTEX
  5
1AA0
  8
WELL
 10
523781.7487611991236918
 20
272016.0132149027776904
 30
0.0
  0
VERTEX
  5
1AA1
  8
WELL
 10
523781.885346864874009
 20
272016.2179521297221072
 30
0.0
  0
VERTEX
  5
1AA2
  8
WELL
 10
523781.9544355797115713
 20
272016.4825881459983066
 30
0.0
  0
VERTEX
  5
1AA3
  8
WELL
 10
523781.9512211852124892
 20
272016.7455460277851671
 30
0.0
  0
VERTEX
  5
1AA4
  8
WELL
 10
523781.8494729186058976
 20
272016.9675086791976355
 30
0.0
  0
VERTEX
  5
1AA5
  8
WELL
 10
523781.6494646806968376
 20
272017.1649487541872077
 30
0.0
  0
VERTEX
  5
1AA6
  8
WELL
 10
523781.4335553300916217
 20
272017.2972624843241647
 30
0.0
  0
VERTEX
  5
1AA7
  8
WELL
 10
523781.202485486108344
 20
272017.3208758038817905
 30
0.0
  0
VERTEX
  5
1AA8
  8
WELL
 10
523781.0123058398021385
 20
272017.2527119226870127
 30
0.0
  0
VERTEX
  5
1AA9
  8
WELL
 10
523780.8407334699877538
 20
272017.1529793904046528
 30
0.0
  0
VERTEX
  5
1AAA
  8
WELL
 10
523780.6831233068951406
 20
272016.9822625081287697
 30
0.0
  0
SEQEND
  5
1AAB
  8
WELL
  0
POLYLINE
  5
14A4
  8
MASONRY
 66
     1
 10
0.0
 20
0.0
 30
0.0
 70
     1
  0
VERTEX
  5
1AAC
  8
MASONRY
 10
523781.3836366640171036
 20
272017.2818458321271464
 30
0.0
  0
VERTEX
  5
1AAD
  8
MASONRY
 10
523781.3576631449977867
 20
272017.112458361312747
 30
0.0
  0
VERTEX
  5
1AAE
  8
MASONRY
 10
523781.0685470591997728
 20
272017.0752166821039282
 30
0.0
  0
VERTEX
  5
1AAF
  8
MASONRY
 10
523781.0718013193109073
 20
272017.2283180315280333
 30
0.0
  0
SEQEND
  5
1AB0
  8
MASONRY
  0
POLYLINE
  5
14A5
  8
MASONRY
 66
     1
 10
0.0
 20
0.0
 30
0.0
 70
     1
  0
VERTEX
  5
1AB1
  8
MASONRY
 10
523781.5008971869247034
 20
272017.2454289905144833
 30
0.0
  0
VERTEX
  5
1AB2
  8
MASONRY
 10
523781.4180209658807144
 20
272017.1030647230800241
 30
0.0
  0
VERTEX
  5
1AB3
  8
MASONRY
 10
523781.6444963975227438
 20
272016.9146585381240584
 30
0.0
  0
VERTEX
  5
1AB4
  8
MASONRY
 10
523781.795642594108358
 20
272017.0009248303831555
 30
0.0
  0
SEQEND
  5
1AB5
  8
MASONRY
  0
POLYLINE
  5
14A6
  8
MASONRY
 66
     1
 10
0.0
 20
0.0
 30
0.0
 70
     1
  0
VERTEX
  5
1AB6
  8
MASONRY
 10
523781.6988115040003322
 20
272016.818592146912124
 30
0.0
  0
VERTEX
  5
1AB7
  8
MASONRY
 10
523781.7293846635730006
 20
272016.4465447731781751
 30
0.0
  0
VERTEX
  5
1AB8
  8
MASONRY
 10
523781.9152986687840894
 20
272016.4552211184054613
 30
0.0
  0
VERTEX
  5
1AB9
  8
MASONRY
 10
523781.8742235511890613
 20
272016.8793554342119023
 30
0.0
  0
SEQEND
  5
1ABA
  8
MASONRY
  0
POLYLINE
  5
14A7
  8
MASONRY
 66
     1
 10
0.0
 20
0.0
 30
0.0
 70
     1
  0
VERTEX
  5
1ABB
  8
MASONRY
 10
523781.700511185801588
 20
272016.3741180701763369
 30
0.0
  0
VERTEX
  5
1ABC
  8
MASONRY
 10
523781.5211851499043405
 20
272016.0761899161734618
 30
0.0
  0
VERTEX
  5
1ABD
  8
MASONRY
 10
523781.6572430721716955
 20
272015.9677490392932668
 30
0.0
  0
VERTEX
  5
1ABE
  8
MASONRY
 10
523781.8782534779747948
 20
272016.2977655822178349
 30
0.0
  0
SEQEND
  5
1ABF
  8
MASONRY
  0
POLYLINE
  5
14A8
  8
MASONRY
 66
     1
 10
0.0
 20
0.0
 30
0.0
 70
     1
  0
VERTEX
  5
1AC0
  8
MASONRY
 10
523781.4796915075276047
 20
272016.0574859703774564
 30
0.0
  0
VERTEX
  5
1AC1
  8
MASONRY
 10
523781.1948068537167273
 20
272016.016976963612251
 30
0.0
  0
VERTEX
  5
1AC2
  8
MASONRY
 10
523781.1979207521071658
 20
272015.784534539503511
 30
0.0
  0
VERTEX
  5
1AC3
  8
MASONRY
 10
523781.4566116064088419
 20
272015.8655664877733216
 30
0.0
  0
VERTEX
  5
1AC4
  8
MASONRY
 10
523781.5748382105957717
 20
272015.8960620251018554
 30
0.0
  0
SEQEND
  5
1AC5
  8
MASONRY
  0
POLYLINE
  5
14A9
  8
MASONRY
 66
     1
 10
0.0
 20
0.0
 30
0.0
 70
     1
  0
VERTEX
  5
1AC6
  8
MASONRY
 10
523781.1634231833158992
 20
272015.9938494091038592
 30
0.0
  0
VERTEX
  5
1AC7
  8
MASONRY
 10
523780.8958563361084089
 20
272016.0414558629854582
 30
0.0
  0
VERTEX
  5
1AC8
  8
MASONRY
 10
523780.8400370391900651
 20
272015.8815822881879285
 30
0.0
  0
VERTEX
  5
1AC9
  8
MASONRY
 10
523781.1083770780824125
 20
272015.8130813513998874
 30
0.0
  0
SEQEND
  5
1ACA
  8
MASONRY
  0
POLYLINE
  5
14AA
  8
MASONRY
 66
     1
 10
0.0
 20
0.0
 30
0.0
 70
     1
  0
VERTEX
  5
1ACB
  8
MASONRY
 10
523780.847133727686014
 20
272016.0790773403714411
 30
0.0
  0
VERTEX
  5
1ACC
  8
MASONRY
 10
523780.7134750033728778
 20
272016.2431753911077976
 30
0.0
  0
VERTEX
  5
1ACD
  8
MASONRY
 10
523780.5503917498863302
 20
272016.145828916807659
 30
0.0
  0
VERTEX
  5
1ACE
  8
MASONRY
 10
523780.7431742869084701
 20
272015.9225463169859722
 30
0.0
  0
SEQEND
  5
1ACF
  8
MASONRY
  0
POLYLINE
  5
14AB
  8
MASONRY
 66
     1
 10
0.0
 20
0.0
 30
0.0
 70
     1
  0
VERTEX
  5
1AD0
  8
MASONRY
 10
523780.5642459347145632
 20
272016.2163211496081203
 30
0.0
  0
VERTEX
  5
1AD1
  8
MASONRY
 10
523780.7049007735913619
 20
272016.280242110718973
 30
0.0
  0
VERTEX
  5
1AD2
  8
MASONRY
 10
523780.6754025688860565
 20
272016.5398233191226609
 30
0.0
  0
VERTEX
  5
1AD3
  8
MASONRY
 10
523780.5026808414258994
 20
272016.5175775997922756
 30
0.0
  0
SEQEND
  5
1AD4
  8
MASONRY
  0
POLYLINE
  5
14AC
  8
MASONRY
 66
     1
 10
0.0
 20
0.0
 30
0.0
 70
     1
  0
VERTEX
  5
1AD5
  8
MASONRY
 10
523780.5153805591980927
 20
272016.5821955184801482
 30
0.0
  0
VERTEX
  5
1AD6
  8
MASONRY
 10
523780.6705833318992518
 20
272016.5773736964911222
 30
0.0
  0
VERTEX
  5
1AD7
  8
MASONRY
 10
523780.7657674642978236
 20
272016.8320193053805269
 30
0.0
  0
VERTEX
  5
1AD8
  8
MASONRY
 10
523780.633564859686885
 20
272016.9104198446730152
 30
0.0
  0
SEQEND
  5
1AD9
  8
MASONRY
  0
POLYLINE
  5
14AD
  8
MASONRY
 66
     1
 10
0.0
 20
0.0
 30
0.0
 70
     1
  0
VERTEX
  5
1ADA
  8
MASONRY
 10
523780.6855499009252526
 20
272016.951469318009913
 30
0.0
  0
VERTEX
  5
1ADB
  8
MASONRY
 10
523780.7917598949861713
 20
272016.8525439972872846
 30
0.0
  0
VERTEX
  5
1ADC
  8
MASONRY
 10
523780.9820801996975206
 20
272017.0201978805125691
 30
0.0
  0
VERTEX
  5
1ADD
  8
MASONRY
 10
523780.9198636200162582
 20
272017.1629603611072525
 30
0.0
  0
SEQEND
  5
1ADE
  8
MASONRY
  0
TEXT
  5
14AE
  8
0
 10
523780.9190368549898267
 20
272016.4652041373192333
 30
0.0
 40
0.2
  1
[207]
  7
ARIAL
  0
POLYLINE
  5
14AF
  8
SECTIONLINE
 66
     1
 10
0.0
 20
0.0
 30
0.0
 40
0.1
 41
0.1
  0
VERTEX
  5
1ADF
  8
SECTIONLINE
 10
523786.8319989999872632
 20
272016.5809800000279211
 30
0.0
  0
VERTEX
  5
1AE0
  8
SECTIONLINE
 10
523786.4735713381087407
 20
272016.1582025841926225
 30
0.0
  0
VERTEX
  5
1AE1
  8
SECTIONLINE
 10
523783.4558712375001051
 20
272012.5987243796116672
 30
0.0
  0
SEQEND
  5
1AE2
  8
SECTIONLINE
  0
TEXT
  5
14B0
  8
0
 10
523783.9852495993254706
 20
272017.2229577841935679
 30
0.0
 40
0.2
  1
[205]
  7
ARIAL
  0
TEXT
  5
14B1
  8
SECTIONTEXT
 10
523786.991409596579615
 20
272016.7623275088262744
 30
0.0
 40
0.2
  1
2/7
  7
ARIAL
  0
POLYLINE
  5
14B2
  8
GROUNDSURFACE-LIMIT
 66
     1
 10
0.0
 20
0.0
 30
0.0
 70
     1
  0
VERTEX
  5
1AE3
  8
GROUNDSURFACE-LIMIT
 10
523786.8319989999872632
 20
272016.5809800000279211
 30
0.0
  0
VERTEX
  5
1AE4
  8
GROUNDSURFACE-LIMIT
 10
523782.7905659999814816
 20
272019.8515110000735149
 30
0.0
  0
VERTEX
  5
1AE5
  8
GROUNDSURFACE-LIMIT
 10
523779.4874239999917336
 20
272015.608831999998074
 30
0.0
  0
VERTEX
  5
1AE6
  8
GROUNDSURFACE-LIMIT
 10
523783.3988559999852441
 20
272012.5314730000100099
 30
0.0
  0
SEQEND
  5
1AE7
  8
GROUNDSURFACE-LIMIT
  0
POLYLINE
  5
14B3
  8
MACHINEDAWAY
 66
     1
 10
0.0
 20
0.0
 30
0.0
 70
     1
  0
VERTEX
  5
1AE8
  8
MACHINEDAWAY
 10
523787.0815408719936386
 20
272005.9151218425249681
 30
0.0
  0
VERTEX
  5
1AE9
  8
MACHINEDAWAY
 10
523787.602784248883836
 20
272005.5473048671265133
 30
0.0
  0
VERTEX
  5
1AEA
  8
MACHINEDAWAY
 10
523789.3591596955084242
 20
272007.6826526831137016
 30
0.0
  0
VERTEX
  5
1AEB
  8
MACHINEDAWAY
 10
523788.7984626761754043
 20
272008.1134834954282269
 30
0.0
  0
SEQEND
  5
1AEC
  8
MACHINEDAWAY
  0
POLYLINE
  5
14B4
  8
PALAEO
 66
     1
 10
0.0
 20
0.0
 30
0.0
 70
     1
  0
VERTEX
  5
1AED
  8
PALAEO
 10
523788.9775900866952725
 20
272008.6095734598929994
 30
0.0
  0
VERTEX
  5
1AEE
  8
PALAEO
 10
523789.7581307824002579
 20
272008.0757391378283501
 30
0.0
  0
VERTEX
  5
1AEF
  8
PALAEO
 10
523791.8647154631908052
 20
272006.7195794007275254
 30
0.0
  0
VERTEX
  5
1AF0
  8
PALAEO
 10
523790.0401045765029266
 20
272003.8221373772248626
 30
0.0
  0
VERTEX
  5
1AF1
  8
PALAEO
 10
523789.5418571706977673
 20
272004.1899098498979583
 30
0.0
  0
VERTEX
  5
1AF2
  8
PALAEO
 10
523788.6603426872752607
 20
272004.7568922475911677
 30
0.0
  0
VERTEX
  5
1AF3
  8
PALAEO
 10
523787.9704618215910159
 20
272005.2779031096142717
 30
0.0
  0
VERTEX
  5
1AF4
  8
PALAEO
 10
523787.602784248883836
 20
272005.5473048671265133
 30
0.0
  0
VERTEX
  5
1AF5
  8
PALAEO
 10
523789.3591596955084242
 20
272007.6826526831137016
 30
0.0
  0
VERTEX
  5
1AF6
  8
PALAEO
 10
523788.7984626761754043
 20
272008.1134834954282269
 30
0.0
  0
VERTEX
  5
1AF7
  8
PALAEO
 10
523787.0815408719936386
 20
272005.9151218425249681
 30
0.0
  0
VERTEX
  5
1AF8
  8
PALAEO
 10
523786.5986242187209427
 20
272006.1986038404284045
 30
0.0
  0
VERTEX
  5
1AF9
  8
PALAEO
 10
523786.1080421890947036
 20
272006.4437774145044386
 30
0.0
  0
VERTEX
  5
1AFA
  8
PALAEO
 10
523785.5791335938265547
 20
272006.7425828193081543
 30
0.0
  0
VERTEX
  5
1AFB
  8
PALAEO
 10
523785.3874999760882929
 20
272006.8191994791268371
 30
0.0
  0
VERTEX
  5
1AFC
  8
PALAEO
 10
523787.7024338247138076
 20
272009.6923275996814482
 30
0.0
  0
SEQEND
  5
1AFD
  8
PALAEO
  0
POLYLINE
  5
14B5
  8
BASE-LIMIT
 66
     1
 10
0.0
 20
0.0
 30
0.0
 70
     1
  0
VERTEX
  5
1AFE
  8
BASE-LIMIT
 10
523791.8647154631908052
 20
272006.7195794007275254
 30
0.0
  0
VERTEX
  5
1AFF
  8
BASE-LIMIT
 10
523790.0401045765029266
 20
272003.8221373772248626
 30
0.0
  0
VERTEX
  5
1B00
  8
BASE-LIMIT
 10
523789.2480569999897853
 20
272002.6208329999935813
 30
0.0
  0
VERTEX
  5
1B01
  8
BASE-LIMIT
 10
523784.8816419999930076
 20
272006.1229029999813065
 30
0.0
  0
VERTEX
  5
1B02
  8
BASE-LIMIT
 10
523785.3874999760882929
 20
272006.8191994791268371
 30
0.0
  0
VERTEX
  5
1B03
  8
BASE-LIMIT
 10
523787.7024338247138076
 20
272009.6923275996814482
 30
0.0
  0
VERTEX
  5
1B04
  8
BASE-LIMIT
 10
523788.9775900866952725
 20
272008.6095734598929994
 30
0.0
  0
VERTEX
  5
1B05
  8
BASE-LIMIT
 10
523789.7581307824002579
 20
272008.0757391378283501
 30
0.0
  0
SEQEND
  5
1B06
  8
BASE-LIMIT
  0
POLYLINE
  5
14B6
  8
GROUNDSURFACE-LIMIT
 66
     1
 10
0.0
 20
0.0
 30
0.0
 70
     1
  0
VERTEX
  5
1B07
  8
GROUNDSURFACE-LIMIT
 10
523789.2351930000004359
 20
272002.1556669999845326
 30
0.0
  0
VERTEX
  5
1B08
  8
GROUNDSURFACE-LIMIT
 10
523792.5870470000081696
 20
272007.0113700000219978
 30
0.0
  0
VERTEX
  5
1B09
  8
GROUNDSURFACE-LIMIT
 10
523788.8782270000083372
 20
272009.8889210000052117
 30
0.0
  0
VERTEX
  5
1B0A
  8
GROUNDSURFACE-LIMIT
 10
523789.621318000019528
 20
272010.8577550000045449
 30
0.0
  0
VERTEX
  5
1B0B
  8
GROUNDSURFACE-LIMIT
 10
523788.7985450000851415
 20
272011.4543110000086017
 30
0.0
  0
VERTEX
  5
1B0C
  8
GROUNDSURFACE-LIMIT
 10
523787.8632689461228438
 20
272010.2636868705158122
 30
0.0
  0
VERTEX
  5
1B0D
  8
GROUNDSURFACE-LIMIT
 10
523784.3778590001165867
 20
272005.8266939999884926
 30
0.0
  0
SEQEND
  5
1B0E
  8
GROUNDSURFACE-LIMIT
  0
POLYLINE
  5
14B7
  8
SECTIONLINE
 66
     1
 10
0.0
 20
0.0
 30
0.0
 40
0.1
 41
0.1
  0
VERTEX
  5
1B0F
  8
SECTIONLINE
 10
523789.3591596955084242
 20
272007.6826526831137016
 30
0.0
  0
VERTEX
  5
1B10
  8
SECTIONLINE
 10
523787.6048962181084789
 20
272005.5498725352226757
 30
0.0
  0
VERTEX
  5
1B11
  8
SECTIONLINE
 10
523787.4727213704027236
 20
272005.3991488359752111
 30
0.0
  0
SEQEND
  5
1B12
  8
SECTIONLINE
  0
TEXT
  5
14B8
  8
SECTIONTEXT
 10
523788.0820222030743025
 20
272005.7926673432230018
 30
0.0
 40
0.2
  1
1/6
  7
ARIAL
  0
TEXT
  5
14B9
  8
0
 10
523787.1453731472720392
 20
272007.8704436016269028
 30
0.0
 40
0.2
  1
[305]
  7
ARIAL
  0
POLYLINE
  5
14BA
  8
BASE-LIMIT
 66
     1
 10
0.0
 20
0.0
 30
0.0
 70
     1
  0
VERTEX
  5
1B13
  8
BASE-LIMIT
 10
523766.4114382868283428
 20
271998.1070114139001817
 30
0.0
  0
VERTEX
  5
1B14
  8
BASE-LIMIT
 10
523764.4897179175750352
 20
271995.7309400907251984
 30
0.0
  0
VERTEX
  5
1B15
  8
BASE-LIMIT
 10
523760.4291588927735575
 20
271998.0101588977850042
 30
0.0
  0
VERTEX
  5
1B16
  8
BASE-LIMIT
 10
523763.2048233170062304
 20
272001.7548452616902068
 30
0.0
  0
VERTEX
  5
1B17
  8
BASE-LIMIT
 10
523766.2195082844118588
 20
271999.8238184520741925
 30
0.0
  0
VERTEX
  5
1B18
  8
BASE-LIMIT
 10
523765.6063289999729022
 20
271998.8196999999927357
 30
0.0
  0
SEQEND
  5
1B19
  8
BASE-LIMIT
  0
POLYLINE
  5
14BB
  8
GROUNDSURFACE-LIMIT
 66
     1
 10
0.0
 20
0.0
 30
0.0
 70
     1
  0
VERTEX
  5
1B1A
  8
GROUNDSURFACE-LIMIT
 10
523767.6575435416889377
 20
271999.3210808775038458
 30
0.0
  0
VERTEX
  5
1B1B
  8
GROUNDSURFACE-LIMIT
 10
523763.246910999994725
 20
272002.1020160000771284
 30
0.0
  0
VERTEX
  5
1B1C
  8
GROUNDSURFACE-LIMIT
 10
523760.201080999977421
 20
271997.9752490000100806
 30
0.0
  0
VERTEX
  5
1B1D
  8
GROUNDSURFACE-LIMIT
 10
523764.4984822170226835
 20
271995.4194041730952449
 30
0.0
  0
VERTEX
  5
1B1E
  8
GROUNDSURFACE-LIMIT
 10
523764.8909144439967349
 20
271995.9382435160805471
 30
0.0
  0
SEQEND
  5
1B1F
  8
GROUNDSURFACE-LIMIT
  0
POLYLINE
  5
14BC
  8
SECTIONLINE
 66
     1
 10
0.0
 20
0.0
 30
0.0
 40
0.1
 41
0.1
  0
VERTEX
  5
1B20
  8
SECTIONLINE
 10
523760.201080999977421
 20
271997.9752490000100806
 30
0.0
  0
VERTEX
  5
1B21
  8
SECTIONLINE
 10
523763.246910999994725
 20
272002.1020160000771284
 30
0.0
  0
SEQEND
  5
1B22
  8
SECTIONLINE
  0
TEXT
  5
14BD
  8
SECTIONTEXT
 10
523763.040418912190944
 20
272002.2537126342067495
 30
0.0
 40
0.2
  1
1/1
  7
ARIAL
  0
TEXT
  5
14BE
  8
SECTIONTEXT
 10
523761.8647888508276083
 20
271996.4245311327977106
 30
0.0
 40
0.2
  1
1/2
  7
ARIAL
  0
POLYLINE
  5
14BF
  8
MODERN
 66
     1
 10
0.0
 20
0.0
 30
0.0
 70
     1
  0
VERTEX
  5
1B23
  8
MODERN
 10
523764.8001043567201123
 20
271995.8181824131752364
 30
0.0
  0
VERTEX
  5
1B24
  8
MODERN
 10
523764.0111315518734045
 20
271996.2707901499816217
 30
0.0
  0
VERTEX
  5
1B25
  8
MODERN
 10
523763.3749191488022916
 20
271996.7180365624953993
 30
0.0
  0
VERTEX
  5
1B26
  8
MODERN
 10
523762.6058712787926197
 20
271997.1722712427726947
 30
0.0
  0
VERTEX
  5
1B27
  8
MODERN
 10
523761.9626676426851191
 20
271997.423847368801944
 30
0.0
  0
VERTEX
  5
1B28
  8
MODERN
 10
523761.5222129938192666
 20
271997.5496354824281298
 30
0.0
  0
VERTEX
  5
1B29
  8
MODERN
 10
523761.2215852147783153
 20
271997.5915647860965692
 30
0.0
  0
VERTEX
  5
1B2A
  8
MODERN
 10
523760.7597431581816636
 20
271997.642989172716625
 30
0.0
  0
VERTEX
  5
1B2B
  8
MODERN
 10
523764.4984822170226835
 20
271995.4194041730952449
 30
0.0
  0
SEQEND
  5
1B2C
  8
MODERN
  0
POLYLINE
  5
14C0
  8
SECTIONLINE
 66
     1
 10
0.0
 20
0.0
 30
0.0
 40
0.1
 41
0.1
  0
VERTEX
  5
1B2D
  8
SECTIONLINE
 10
523760.201080999977421
 20
271997.9752490000100806
 30
0.0
  0
VERTEX
  5
1B2E
  8
SECTIONLINE
 10
523760.7597431581816636
 20
271997.642989172716625
 30
0.0
  0
VERTEX
  5
1B2F
  8
SECTIONLINE
 10
523764.4984822170226835
 20
271995.4194041730952449
 30
0.0
  0
SEQEND
  5
1B30
  8
SECTIONLINE
  0
TEXT
  5
14C1
  8
0
 10
523762.5149838898214512
 20
271997.0325067957746796
 30
0.0
 40
0.2
  1
[402]
  7
ARIAL
  0
POLYLINE
  5
14C2
  8
MODERN
 66
     1
 10
0.0
 20
0.0
 30
0.0
 70
     1
  0
VERTEX
  5
1B31
  8
MODERN
 10
523759.2054801812046207
 20
272011.3858848192030564
 30
0.0
  0
VERTEX
  5
1B32
  8
MODERN
 10
523759.167764222889673
 20
272011.3503315352136269
 30
0.0
  0
VERTEX
  5
1B33
  8
MODERN
 10
523759.1416248502209783
 20
272011.3269639406935312
 30
0.0
  0
VERTEX
  5
1B34
  8
MODERN
 10
523759.0953267437871546
 20
272011.3130088180187158
 30
0.0
  0
VERTEX
  5
1B35
  8
MODERN
 10
523758.9938372970209457
 20
272011.3476921981200576
 30
0.0
  0
VERTEX
  5
1B36
  8
MODERN
 10
523758.7049907029722817
 20
272011.5088179213926196
 30
0.0
  0
VERTEX
  5
1B37
  8
MODERN
 10
523758.5971600743941963
 20
272011.651486573216971
 30
0.0
  0
VERTEX
  5
1B38
  8
MODERN
 10
523758.5665357630932704
 20
272011.769116357783787
 30
0.0
  0
VERTEX
  5
1B39
  8
MODERN
 10
523758.5900983834289946
 20
272011.8443104366888292
 30
0.0
  0
VERTEX
  5
1B3A
  8
MODERN
 10
523758.8376189980772324
 20
272012.2452625003061257
 30
0.0
  0
VERTEX
  5
1B3B
  8
MODERN
 10
523759.5167202918091789
 20
272011.7340664197108708
 30
0.0
  0
SEQEND
  5
1B3C
  8
MODERN
  0
TEXT
  5
14C3
  8
0
 10
523758.417409818910528
 20
272011.1154289153055288
 30
0.0
 40
0.2
  1
[506]
  7
ARIAL
  0
POLYLINE
  5
14C4
  8
SECTIONLINE
 66
     1
 10
0.0
 20
0.0
 30
8.8495629999999998
 40
0.1
 41
0.1
  0
VERTEX
  5
1B3D
  8
SECTIONLINE
 10
523761.2104788129217923
 20
272010.4590832540998235
 30
8.8495629999999998
  0
VERTEX
  5
1B3E
  8
SECTIONLINE
 10
523759.5167202918091789
 20
272011.7340664197108708
 30
8.8495629999999998
  0
VERTEX
  5
1B3F
  8
SECTIONLINE
 10
523758.8376189980772324
 20
272012.2452625003061257
 30
8.8495629999999998
  0
VERTEX
  5
1B40
  8
SECTIONLINE
 10
523757.1909682126133703
 20
272013.4847851389204152
 30
8.8495629999999998
  0
SEQEND
  5
1B41
  8
SECTIONLINE
  0
TEXT
  5
14C5
  8
SECTIONTEXT
 10
523757.3487319325213321
 20
272013.5292165522114374
 30
0.0
 40
0.2
  1
1/5
  7
ARIAL
  0
POLYLINE
  5
14C6
  8
MACHINEDAWAY
 66
     1
 10
0.0
 20
0.0
 30
0.0
 70
     1
  0
VERTEX
  5
1B42
  8
MACHINEDAWAY
 10
523784.5700184588786215
 20
272018.357657020795159
 30
0.0
  0
VERTEX
  5
1B43
  8
MACHINEDAWAY
 10
523784.621009208203759
 20
272018.053683077392634
 30
0.0
  0
VERTEX
  5
1B44
  8
MACHINEDAWAY
 10
523784.7429332301253453
 20
272017.8219305925886147
 30
0.0
  0
VERTEX
  5
1B45
  8
MACHINEDAWAY
 10
523785.0670539279817604
 20
272017.4512520142016001
 30
0.0
  0
VERTEX
  5
1B46
  8
MACHINEDAWAY
 10
523785.5532229057862423
 20
272016.9898484238074161
 30
0.0
  0
VERTEX
  5
1B47
  8
MACHINEDAWAY
 10
523785.685178033192642
 20
272016.793353003798984
 30
0.0
  0
VERTEX
  5
1B48
  8
MACHINEDAWAY
 10
523785.9730564057244919
 20
272016.5538649327936582
 30
0.0
  0
VERTEX
  5
1B49
  8
MACHINEDAWAY
 10
523786.4026664567063563
 20
272016.2307393265073188
 30
0.0
  0
VERTEX
  5
1B4A
  8
MACHINEDAWAY
 10
523786.701054985227529
 20
272016.6281725204898976
 30
0.0
  0
SEQEND
  5
1B4B
  8
MACHINEDAWAY
  0
TEXT
  5
14C7
  8
0
 10
523764.724248707992956
 20
271995.4531676647020504
 30
0.0
 40
0.2
  1
402 is in section only
  7
ARIAL
  0
POLYLINE
  5
15B9
  8
BOXSECTION
 66
     1
 10
0.0
 20
0.0
 30
0.0
 70
     1
  0
VERTEX
  5
1B4C
  8
BOXSECTION
 10
523782.7027601961744949
 20
272014.2623278761166148
 30
0.0
  0
VERTEX
  5
1B4D
  8
BOXSECTION
 10
523783.9489538558991626
 20
272015.8266172874718904
 30
0.0
  0
VERTEX
  5
1B4E
  8
BOXSECTION
 10
523782.5410933854873292
 20
272016.9481915811193176
 30
0.0
  0
VERTEX
  5
1B4F
  8
BOXSECTION
 10
523781.2948997258790769
 20
272015.3839021698804572
 30
0.0
  0
SEQEND
  5
1B50
  8
BOXSECTION
  0
ENDSEC
  0
EOF
